  0
SECTION
  2
HEADER
  9
$ACADVER
  1
AC1021
  9
$ACADMAINTVER
 70
    25
  9
$DWGCODEPAGE
  3
ANSI_932
  9
$INSBASE
 10
0.0
 20
0.0
 30
0.0
  9
$EXTMIN
 10
-2100.0
 20
-1485.0
 30
0.0
  9
$EXTMAX
 10
2100.0
 20
1485.0
 30
0.0
  9
$LIMMIN
 10
-2100.0
 20
-1485.0
  9
$LIMMAX
 10
2100.0
 20
1485.0
  9
$ORTHOMODE
 70
     0
  9
$REGENMODE
 70
     1
  9
$FILLMODE
 70
     1
  9
$QTEXTMODE
 70
     0
  9
$MIRRTEXT
 70
     1
  9
$LTSCALE
 40
10.0
  9
$ATTMODE
 70
     1
  9
$TEXTSIZE
 40
2.5
  9
$TRACEWID
 40
1.0
  9
$TEXTSTYLE
  7
Standard
  9
$CLAYER
  8
0
  9
$CELTYPE
  6
ByLayer
  9
$CECOLOR
 62
   256
  9
$CELTSCALE
 40
1.0
  9
$DISPSILH
 70
     0
  9
$DIMSCALE
 40
1.0
  9
$DIMASZ
 40
2.5
  9
$DIMEXO
 40
0.625
  9
$DIMDLI
 40
3.75
  9
$DIMRND
 40
0.0
  9
$DIMDLE
 40
0.0
  9
$DIMEXE
 40
1.25
  9
$DIMTP
 40
0.0
  9
$DIMTM
 40
0.0
  9
$DIMTXT
 40
2.5
  9
$DIMCEN
 40
2.5
  9
$DIMTSZ
 40
0.0
  9
$DIMTOL
 70
     0
  9
$DIMLIM
 70
     0
  9
$DIMTIH
 70
     0
  9
$DIMTOH
 70
     0
  9
$DIMSE1
 70
     0
  9
$DIMSE2
 70
     0
  9
$DIMTAD
 70
     1
  9
$DIMZIN
 70
     8
  9
$DIMBLK
  1

  9
$DIMASO
 70
     1
  9
$DIMSHO
 70
     1
  9
$DIMPOST
  1

  9
$DIMAPOST
  1

  9
$DIMALT
 70
     0
  9
$DIMALTD
 70
     3
  9
$DIMALTF
 40
0.03937007874016
  9
$DIMLFAC
 40
1.0
  9
$DIMTOFL
 70
     1
  9
$DIMTVP
 40
0.0
  9
$DIMTIX
 70
     0
  9
$DIMSOXD
 70
     0
  9
$DIMSAH
 70
     0
  9
$DIMBLK1
  1

  9
$DIMBLK2
  1

  9
$DIMSTYLE
  2
ISO-25
  9
$DIMCLRD
 70
     0
  9
$DIMCLRE
 70
     0
  9
$DIMCLRT
 70
     0
  9
$DIMTFAC
 40
1.0
  9
$DIMGAP
 40
0.625
  9
$DIMJUST
 70
     0
  9
$DIMSD1
 70
     0
  9
$DIMSD2
 70
     0
  9
$DIMTOLJ
 70
     0
  9
$DIMTZIN
 70
     8
  9
$DIMALTZ
 70
     0
  9
$DIMALTTZ
 70
     0
  9
$DIMUPT
 70
     0
  9
$DIMDEC
 70
     2
  9
$DIMTDEC
 70
     2
  9
$DIMALTU
 70
     2
  9
$DIMALTTD
 70
     3
  9
$DIMTXSTY
  7
Standard
  9
$DIMAUNIT
 70
     0
  9
$DIMADEC
 70
     0
  9
$DIMALTRND
 40
0.0
  9
$DIMAZIN
 70
     0
  9
$DIMDSEP
 70
    44
  9
$DIMATFIT
 70
     3
  9
$DIMFRAC
 70
     0
  9
$DIMLDRBLK
  1

  9
$DIMLUNIT
 70
     2
  9
$DIMLWD
 70
    -2
  9
$DIMLWE
 70
    -2
  9
$DIMTMOVE
 70
     0
  9
$DIMFXL
 40
1.0
  9
$DIMFXLON
 70
     0
  9
$DIMJOGANG
 40
0.7853981633974483
  9
$DIMTFILL
 70
     0
  9
$DIMTFILLCLR
 70
     0
  9
$DIMARCSYM
 70
     0
  9
$DIMLTYPE
  6

  9
$DIMLTEX1
  6

  9
$DIMLTEX2
  6

  9
$LUNITS
 70
     2
  9
$LUPREC
 70
     4
  9
$SKETCHINC
 40
1.0
  9
$FILLETRAD
 40
10.0
  9
$AUNITS
 70
     0
  9
$AUPREC
 70
     0
  9
$MENU
  1
.
  9
$ELEVATION
 40
0.0
  9
$PELEVATION
 40
0.0
  9
$THICKNESS
 40
0.0
  9
$LIMCHECK
 70
     0
  9
$CHAMFERA
 40
10.0
  9
$CHAMFERB
 40
10.0
  9
$CHAMFERC
 40
20.0
  9
$CHAMFERD
 40
0.0
  9
$SKPOLY
 70
     0
  9
$TDCREATE
 40
2458825.365135868
  9
$TDUCREATE
 40
2458824.990135868
  9
$TDUPDATE
 40
2458825.36513588
  9
$TDUUPDATE
 40
2458824.99013588
  9
$TDINDWG
 40
0.0000000116
  9
$TDUSRTIMER
 40
0.0000000116
  9
$USRTIMER
 70
     1
  9
$ANGBASE
 50
0.0
  9
$ANGDIR
 70
     0
  9
$PDMODE
 70
     0
  9
$PDSIZE
 40
0.0
  9
$PLINEWID
 40
0.0
  9
$SPLFRAME
 70
     0
  9
$SPLINETYPE
 70
     6
  9
$SPLINESEGS
 70
     8
  9
$HANDSEED
  5
3FF
  9
$SURFTAB1
 70
     6
  9
$SURFTAB2
 70
     6
  9
$SURFTYPE
 70
     6
  9
$SURFU
 70
     6
  9
$SURFV
 70
     6
  9
$UCSBASE
  2

  9
$UCSNAME
  2

  9
$UCSORG
 10
0.0
 20
0.0
 30
0.0
  9
$UCSXDIR
 10
1.0
 20
0.0
 30
0.0
  9
$UCSYDIR
 10
0.0
 20
1.0
 30
0.0
  9
$UCSORTHOREF
  2

  9
$UCSORTHOVIEW
 70
     0
  9
$UCSORGTOP
 10
0.0
 20
0.0
 30
0.0
  9
$UCSORGBOTTOM
 10
0.0
 20
0.0
 30
0.0
  9
$UCSORGLEFT
 10
0.0
 20
0.0
 30
0.0
  9
$UCSORGRIGHT
 10
0.0
 20
0.0
 30
0.0
  9
$UCSORGFRONT
 10
0.0
 20
0.0
 30
0.0
  9
$UCSORGBACK
 10
0.0
 20
0.0
 30
0.0
  9
$PUCSBASE
  2

  9
$PUCSNAME
  2

  9
$PUCSORG
 10
0.0
 20
0.0
 30
0.0
  9
$PUCSXDIR
 10
1.0
 20
0.0
 30
0.0
  9
$PUCSYDIR
 10
0.0
 20
1.0
 30
0.0
  9
$PUCSORTHOREF
  2

  9
$PUCSORTHOVIEW
 70
     0
  9
$PUCSORGTOP
 10
0.0
 20
0.0
 30
0.0
  9
$PUCSORGBOTTOM
 10
0.0
 20
0.0
 30
0.0
  9
$PUCSORGLEFT
 10
0.0
 20
0.0
 30
0.0
  9
$PUCSORGRIGHT
 10
0.0
 20
0.0
 30
0.0
  9
$PUCSORGFRONT
 10
0.0
 20
0.0
 30
0.0
  9
$PUCSORGBACK
 10
0.0
 20
0.0
 30
0.0
  9
$USERI1
 70
     0
  9
$USERI2
 70
     0
  9
$USERI3
 70
     0
  9
$USERI4
 70
     0
  9
$USERI5
 70
     0
  9
$USERR1
 40
0.0
  9
$USERR2
 40
0.0
  9
$USERR3
 40
0.0
  9
$USERR4
 40
0.0
  9
$USERR5
 40
0.0
  9
$WORLDVIEW
 70
     1
  9
$SHADEDGE
 70
     3
  9
$SHADEDIF
 70
    70
  9
$TILEMODE
 70
     1
  9
$MAXACTVP
 70
    64
  9
$PINSBASE
 10
0.0
 20
0.0
 30
0.0
  9
$PLIMCHECK
 70
     0
  9
$PEXTMIN
 10
1.000000000000000E+20
 20
1.000000000000000E+20
 30
1.000000000000000E+20
  9
$PEXTMAX
 10
-1.000000000000000E+20
 20
-1.000000000000000E+20
 30
-1.000000000000000E+20
  9
$PLIMMIN
 10
0.0
 20
0.0
  9
$PLIMMAX
 10
420.0
 20
297.0
  9
$UNITMODE
 70
     0
  9
$VISRETAIN
 70
     1
  9
$PLINEGEN
 70
     0
  9
$PSLTSCALE
 70
     1
  9
$TREEDEPTH
 70
  3020
  9
$CMLSTYLE
  2
Standard
  9
$CMLJUST
 70
     0
  9
$CMLSCALE
 40
20.0
  9
$PROXYGRAPHICS
 70
     1
  9
$MEASUREMENT
 70
     1
  9
$CELWEIGHT
370
    -1
  9
$ENDCAPS
280
     0
  9
$JOINSTYLE
280
     0
  9
$LWDISPLAY
290
     0
  9
$INSUNITS
 70
     4
  9
$HYPERLINKBASE
  1

  9
$STYLESHEET
  1

  9
$XEDIT
290
     1
  9
$CEPSNTYPE
380
     0
  9
$PSTYLEMODE
290
     1
  9
$FINGERPRINTGUID
  2
{4CA49682-D699-4E44-AA20-32A1F55FE903}
  9
$VERSIONGUID
  2
{FAEB1C32-E019-11D5-929B-00C0DF256EC4}
  9
$EXTNAMES
290
     1
  9
$PSVPSCALE
 40
0.0
  9
$OLESTARTUP
290
     0
  9
$SORTENTS
280
   127
  9
$INDEXCTL
280
     0
  9
$HIDETEXT
280
     1
  9
$XCLIPFRAME
290
     0
  9
$HALOGAP
280
     0
  9
$OBSCOLOR
 70
   257
  9
$OBSLTYPE
280
     0
  9
$INTERSECTIONDISPLAY
280
     0
  9
$INTERSECTIONCOLOR
 70
   257
  9
$DIMASSOC
280
     2
  9
$PROJECTNAME
  1

  9
$CAMERADISPLAY
290
     0
  9
$LENSLENGTH
 40
50.0
  9
$CAMERAHEIGHT
 40
0.0
  9
$STEPSPERSEC
 40
2.0
  9
$STEPSIZE
 40
6.0
  9
$3DDWFPREC
 40
2.0
  9
$PSOLWIDTH
 40
5.0
  9
$PSOLHEIGHT
 40
80.0
  9
$LOFTANG1
 40
1.570796326794897
  9
$LOFTANG2
 40
1.570796326794897
  9
$LOFTMAG1
 40
0.0
  9
$LOFTMAG2
 40
0.0
  9
$LOFTPARAM
 70
     7
  9
$LOFTNORMALS
280
     1
  9
$LATITUDE
 40
37.795
  9
$LONGITUDE
 40
-122.394
  9
$NORTHDIRECTION
 40
0.0
  9
$TIMEZONE
 70
 -8000
  9
$LIGHTGLYPHDISPLAY
280
     1
  9
$TILEMODELIGHTSYNCH
280
     1
  9
$SOLIDHIST
280
     1
  9
$SHOWHIST
280
     1
  9
$DWFFRAME
280
     2
  9
$DGNFRAME
280
     2
  9
$REALWORLDSCALE
290
     1
  9
$INTERFERECOLOR
 62
   256
  9
$CSHADOW
280
     0
  9
$SHADOWPLANELOCATION
 40
0.0
  0
ENDSEC
  0
SECTION
  2
CLASSES
  0
CLASS
  1
ACDBDICTIONARYWDFLT
  2
AcDbDictionaryWithDefault
  3
ObjectDBX Classes
 90
        0
 91
        4
280
     0
281
     0
  0
CLASS
  1
VISUALSTYLE
  2
AcDbVisualStyle
  3
ObjectDBX Classes
 90
     4095
 91
        4
280
     0
281
     0
  0
ENDSEC
  0
SECTION
  2
TABLES
  0
TABLE
  2
VPORT
  5
8
330
0
100
AcDbSymbolTable
 70
     1
  0
VPORT
  5
29
330
8
100
AcDbSymbolTableRecord
100
AcDbViewportTableRecord
  2
*Active
 70
     0
 10
0.0
 20
0.0
 11
1.0
 21
1.0
 12
0.0
 22
0.0
 13
0.0
 23
0.0
 14
10.0
 24
10.0
 15
10.0
 25
10.0
 16
0.0
 26
0.0
 36
1.0
 17
0.0
 27
0.0
 37
0.0
 40
3267.0
 41
1.414141414141414
 42
50.0
 43
0.0
 44
0.0
 50
0.0
 51
0.0
 71
     0
 72
 10000
 73
     1
 74
     3
 75
     0
 76
     0
 77
     0
 78
     0
281
     0
 65
     1
110
0.0
120
0.0
130
0.0
111
1.0
121
0.0
131
0.0
112
0.0
122
1.0
132
0.0
 79
     0
146
0.0
 60
     3
 61
     5
292
     1
282
     1
141
0.0
142
0.0
 63
   256
  0
ENDTAB
  0
TABLE
  2
LTYPE
  5
5
330
0
100
AcDbSymbolTable
 70
     8
  0
LTYPE
  5
14
330
5
100
AcDbSymbolTableRecord
100
AcDbLinetypeTableRecord
  2
ByBlock
 70
     0
  3

 72
    65
 73
     0
 40
0.0
  0
LTYPE
  5
15
330
5
100
AcDbSymbolTableRecord
100
AcDbLinetypeTableRecord
  2
ByLayer
 70
     0
  3

 72
    65
 73
     0
 40
0.0
  0
LTYPE
  5
16
330
5
100
AcDbSymbolTableRecord
100
AcDbLinetypeTableRecord
  2
Continuous
 70
     0
  3
Solid line
 72
    65
 73
     0
 40
0.0
  0
LTYPE
  5
3C
330
5
100
AcDbSymbolTableRecord
100
AcDbLinetypeTableRecord
  2
JWW_CENTER1
 70
     0
  3
-----  --  ----------  --  -----
 72
    65
 73
     4
 40
6.773333333333333
 49
4.233333333333333
 74
     0
 49
-0.8466666666666667
 74
     0
 49
0.8466666666666667
 74
     0
 49
-0.8466666666666667
 74
     0
  0
LTYPE
  5
3D
330
5
100
AcDbSymbolTableRecord
100
AcDbLinetypeTableRecord
  2
JWW_DASHED1
 70
     0
  3
-  --  --  --  --  --  --  --  -
 72
    65
 73
     2
 40
1.693333333333333
 49
0.8466666666666667
 74
     0
 49
-0.8466666666666667
 74
     0
  0
LTYPE
  5
3E
330
5
100
AcDbSymbolTableRecord
100
AcDbLinetypeTableRecord
  2
JWW_HOJO
 70
     0
  3
  -   -   -   -   -   -   -   - 
 72
    65
 73
     2
 40
1.693333333333333
 49
-1.27
 74
     0
 49
0.4233333333333333
 74
     0
  0
LTYPE
  5
3F
330
5
100
AcDbSymbolTableRecord
100
AcDbLinetypeTableRecord
  2
JWW_DASHED2
 70
     0
  3
--    ----    ----    ----    --
 72
    65
 73
     2
 40
3.386666666666667
 49
1.693333333333333
 74
     0
 49
-1.693333333333333
 74
     0
  0
LTYPE
  5
40
330
5
100
AcDbSymbolTableRecord
100
AcDbLinetypeTableRecord
  2
JWW_CENTER2
 70
     0
  3
-------------  --  -------------
 72
    65
 73
     4
 40
13.54666666666667
 49
11.00666666666667
 74
     0
 49
-0.8466666666666667
 74
     0
 49
0.8466666666666667
 74
     0
 49
-0.8466666666666667
 74
     0
  0
LTYPE
  5
41
330
5
100
AcDbSymbolTableRecord
100
AcDbLinetypeTableRecord
  2
JWW_PHANTOM2
 70
     0
  3
------------  -  -  ------------
 72
    65
 73
     6
 40
13.54666666666667
 49
10.16
 74
     0
 49
-0.8466666666666667
 74
     0
 49
0.4233333333333333
 74
     0
 49
-0.8466666666666667
 74
     0
 49
0.4233333333333333
 74
     0
 49
-0.8466666666666667
 74
     0
  0
LTYPE
  5
42
330
5
100
AcDbSymbolTableRecord
100
AcDbLinetypeTableRecord
  2
JWW_PHANTOM1
 70
     0
  3
----  -  -  --------  -  -  ----
 72
    65
 73
     6
 40
6.773333333333333
 49
3.386666666666667
 74
     0
 49
-0.8466666666666667
 74
     0
 49
0.4233333333333333
 74
     0
 49
-0.8466666666666667
 74
     0
 49
0.4233333333333333
 74
     0
 49
-0.8466666666666667
 74
     0
  0
ENDTAB
  0
TABLE
  2
LAYER
  5
2
330
0
100
AcDbSymbolTable
 70
    28
  0
LAYER
  5
10
330
2
100
AcDbSymbolTableRecord
100
AcDbLayerTableRecord
  2
0
 70
     0
 62
     7
  6
Continuous
370
    -3
390
F
347
0
  0
LAYER
  5
43
330
2
100
AcDbSymbolTableRecord
100
AcDbLayerTableRecord
  2
D-6
 70
     0
 62
     7
  6
Continuous
370
    -1
390
F
347
0
  0
LAYER
  5
44
330
2
100
AcDbSymbolTableRecord
100
AcDbLayerTableRecord
  2
D-3
 70
     0
 62
     7
  6
Continuous
370
    -1
390
F
347
0
  0
LAYER
  5
45
330
2
100
AcDbSymbolTableRecord
100
AcDbLayerTableRecord
  2
E-C
 70
     0
 62
     7
  6
Continuous
370
    -1
390
F
347
0
  0
LAYER
  5
46
330
2
100
AcDbSymbolTableRecord
100
AcDbLayerTableRecord
  2
E-1
 70
     0
 62
     7
  6
Continuous
370
    -1
390
F
347
0
  0
LAYER
  5
47
330
2
100
AcDbSymbolTableRecord
100
AcDbLayerTableRecord
  2
E-4
 70
     0
 62
     7
  6
Continuous
370
    -1
390
F
347
0
  0
LAYER
  5
48
330
2
100
AcDbSymbolTableRecord
100
AcDbLayerTableRecord
  2
E-2
 70
     0
 62
     7
  6
Continuous
370
    -1
390
F
347
0
  0
LAYER
  5
49
330
2
100
AcDbSymbolTableRecord
100
AcDbLayerTableRecord
  2
E-F
 70
     0
 62
     7
  6
Continuous
370
    -1
390
F
347
0
  0
LAYER
  5
4A
330
2
100
AcDbSymbolTableRecord
100
AcDbLayerTableRecord
  2
C-5
 70
     0
 62
     7
  6
Continuous
370
    -1
390
F
347
0
  0
LAYER
  5
4B
330
2
100
AcDbSymbolTableRecord
100
AcDbLayerTableRecord
  2
C-1
 70
     0
 62
     7
  6
Continuous
370
    -1
390
F
347
0
  0
LAYER
  5
4C
330
2
100
AcDbSymbolTableRecord
100
AcDbLayerTableRecord
  2
C-0
 70
     0
 62
     7
  6
Continuous
370
    -1
390
F
347
0
  0
LAYER
  5
4D
330
2
100
AcDbSymbolTableRecord
100
AcDbLayerTableRecord
  2
C-2
 70
     0
 62
     7
  6
Continuous
370
    -1
390
F
347
0
  0
LAYER
  5
4E
330
2
100
AcDbSymbolTableRecord
100
AcDbLayerTableRecord
  2
C-4
 70
     0
 62
     7
  6
Continuous
370
    -1
390
F
347
0
  0
LAYER
  5
4F
330
2
100
AcDbSymbolTableRecord
100
AcDbLayerTableRecord
  2
D-5
 70
     0
 62
     7
  6
Continuous
370
    -1
390
F
347
0
  0
LAYER
  5
50
330
2
100
AcDbSymbolTableRecord
100
AcDbLayerTableRecord
  2
D-4
 70
     0
 62
     7
  6
Continuous
370
    -1
390
F
347
0
  0
LAYER
  5
51
330
2
100
AcDbSymbolTableRecord
100
AcDbLayerTableRecord
  2
D-2
 70
     0
 62
     7
  6
Continuous
370
    -1
390
F
347
0
  0
LAYER
  5
52
330
2
100
AcDbSymbolTableRecord
100
AcDbLayerTableRecord
  2
D-0
 70
     0
 62
     7
  6
Continuous
370
    -1
390
F
347
0
  0
LAYER
  5
53
330
2
100
AcDbSymbolTableRecord
100
AcDbLayerTableRecord
  2
D-1
 70
     0
 62
     7
  6
Continuous
370
    -1
390
F
347
0
  0
LAYER
  5
54
330
2
100
AcDbSymbolTableRecord
100
AcDbLayerTableRecord
  2
D-9
 70
     0
 62
     7
  6
Continuous
370
    -1
390
F
347
0
  0
LAYER
  5
55
330
2
100
AcDbSymbolTableRecord
100
AcDbLayerTableRecord
  2
E-5
 70
     0
 62
     7
  6
Continuous
370
    -1
390
F
347
0
  0
LAYER
  5
56
330
2
100
AcDbSymbolTableRecord
100
AcDbLayerTableRecord
  2
D-8
 70
     0
 62
     7
  6
Continuous
370
    -1
390
F
347
0
  0
LAYER
  5
57
330
2
100
AcDbSymbolTableRecord
100
AcDbLayerTableRecord
  2
C-8
 70
     0
 62
     7
  6
Continuous
370
    -1
390
F
347
0
  0
LAYER
  5
58
330
2
100
AcDbSymbolTableRecord
100
AcDbLayerTableRecord
  2
C-C
 70
     0
 62
     7
  6
Continuous
370
    -1
390
F
347
0
  0
LAYER
  5
59
330
2
100
AcDbSymbolTableRecord
100
AcDbLayerTableRecord
  2
C-F
 70
     0
 62
     7
  6
Continuous
370
    -1
390
F
347
0
  0
LAYER
  5
5A
330
2
100
AcDbSymbolTableRecord
100
AcDbLayerTableRecord
  2
E-A
 70
     0
 62
     7
  6
Continuous
370
    -1
390
F
347
0
  0
LAYER
  5
5B
330
2
100
AcDbSymbolTableRecord
100
AcDbLayerTableRecord
  2
E-B
 70
     0
 62
     7
  6
Continuous
370
    -1
390
F
347
0
  0
LAYER
  5
5C
330
2
100
AcDbSymbolTableRecord
100
AcDbLayerTableRecord
  2
E-3
 70
     0
 62
     7
  6
Continuous
370
    -1
390
F
347
0
  0
LAYER
  5
5D
330
2
100
AcDbSymbolTableRecord
100
AcDbLayerTableRecord
  2
F-5ﾚｲﾔ
 70
     0
 62
     7
  6
Continuous
370
    -1
390
F
347
0
  0
ENDTAB
  0
TABLE
  2
STYLE
  5
3
330
0
100
AcDbSymbolTable
 70
     2
  0
STYLE
  5
11
330
3
100
AcDbSymbolTableRecord
100
AcDbTextStyleTableRecord
  2
Standard
 70
     0
 40
0.0
 41
1.0
 50
0.0
 71
     0
 42
2.5
  3
txt
  4

1001
ACAD
1000

1071
        0
  0
STYLE
  5
3B
330
3
100
AcDbSymbolTableRecord
100
AcDbTextStyleTableRecord
  2
ＭＳ ゴシック
 70
     0
 40
1.0
 41
1.0
 50
0.0
 71
     0
 42
10.0
  3

  4

1001
ACAD
1000
MS Gothic
1071
    32817
  0
ENDTAB
  0
TABLE
  2
VIEW
  5
6
330
0
100
AcDbSymbolTable
 70
     0
  0
ENDTAB
  0
TABLE
  2
UCS
  5
7
330
0
100
AcDbSymbolTable
 70
     0
  0
ENDTAB
  0
TABLE
  2
APPID
  5
9
330
0
100
AcDbSymbolTable
 70
     1
  0
APPID
  5
12
330
9
100
AcDbSymbolTableRecord
100
AcDbRegAppTableRecord
  2
ACAD
 70
     0
  0
ENDTAB
  0
TABLE
  2
DIMSTYLE
  5
A
330
0
100
AcDbSymbolTable
 70
     1
100
AcDbDimStyleTable
  0
DIMSTYLE
105
27
330
A
100
AcDbSymbolTableRecord
100
AcDbDimStyleTableRecord
  2
ISO-25
 70
     0
 41
2.5
 42
0.625
 43
3.75
 44
1.25
 73
     0
 74
     0
 77
     1
 78
     8
140
2.5
141
2.5
143
0.03937007874016
147
0.625
171
     3
172
     1
271
     2
272
     2
274
     3
278
    44
283
     0
284
     8
340
11
  0
ENDTAB
  0
TABLE
  2
BLOCK_RECORD
  5
1
330
0
100
AcDbSymbolTable
 70
     1
  0
BLOCK_RECORD
  5
1F
330
1
100
AcDbSymbolTableRecord
100
AcDbBlockTableRecord
  2
*Model_Space
340
22
 70
     0
280
     1
281
     0
  0
BLOCK_RECORD
  5
1B
330
1
100
AcDbSymbolTableRecord
100
AcDbBlockTableRecord
  2
*Paper_Space
340
1E
 70
     0
280
     1
281
     0
  0
BLOCK_RECORD
  5
23
330
1
100
AcDbSymbolTableRecord
100
AcDbBlockTableRecord
  2
*Paper_Space0
340
26
 70
     0
280
     1
281
     0
  0
ENDTAB
  0
ENDSEC
  0
SECTION
  2
BLOCKS
  0
BLOCK
  5
20
330
1F
100
AcDbEntity
  8
0
100
AcDbBlockBegin
  2
*Model_Space
 70
     0
 10
0.0
 20
0.0
 30
0.0
  3
*Model_Space
  1

  0
ENDBLK
  5
21
330
1F
100
AcDbEntity
  8
0
100
AcDbBlockEnd
  0
BLOCK
  5
1C
330
1B
100
AcDbEntity
 67
     1
  8
0
100
AcDbBlockBegin
  2
*Paper_Space
 70
     0
 10
0.0
 20
0.0
 30
0.0
  3
*Paper_Space
  1

  0
ENDBLK
  5
1D
330
1B
100
AcDbEntity
 67
     1
  8
0
100
AcDbBlockEnd
  0
BLOCK
  5
24
330
23
100
AcDbEntity
  8
0
100
AcDbBlockBegin
  2
*Paper_Space0
 70
     0
 10
0.0
 20
0.0
 30
0.0
  3
*Paper_Space0
  1

  0
ENDBLK
  5
25
330
23
100
AcDbEntity
  8
0
100
AcDbBlockEnd
  0
ENDSEC
  0
SECTION
  2
ENTITIES
  0
LINE
  5
5E
330
1F
100
AcDbEntity
  8
D-6
  6
Continuous
 62
     6
370
     9
100
AcDbLine
 10
-894.2581959885489
 20
-864.0538648011221
 30
0.0
 11
-1044.258224267386
 21
-1014.053893079959
 31
0.0
  0
LINE
  5
5F
330
1F
100
AcDbEntity
  8
D-6
  6
Continuous
 62
     6
370
     9
100
AcDbLine
 10
-880.1163420374296
 20
-864.0538648011221
 30
0.0
 11
-1030.116195340963
 21
-1014.053893079959
 31
0.0
  0
LINE
  5
60
330
1F
100
AcDbEntity
  8
D-6
  6
Continuous
 62
     6
370
     9
100
AcDbLine
 10
-865.9744880863109
 20
-864.0538648011221
 30
0.0
 11
-1015.974516365147
 21
-1014.053893079959
 31
0.0
  0
LINE
  5
61
330
1F
100
AcDbEntity
  8
D-6
  6
Continuous
 62
     6
370
     9
100
AcDbLine
 10
-469.9948785416382
 20
-864.0538648011221
 30
0.0
 11
-619.9949068204746
 21
-1014.053893079959
 31
0.0
  0
LINE
  5
62
330
1F
100
AcDbEntity
  8
D-6
  6
Continuous
 62
     6
370
     9
100
AcDbLine
 10
-455.852324689306
 20
-864.0538648011221
 30
0.0
 11
-605.8527029187492
 21
-1014.053893079959
 31
0.0
  0
LINE
  5
63
330
1F
100
AcDbEntity
  8
D-6
  6
Continuous
 62
     6
370
     9
100
AcDbLine
 10
-441.7104707381873
 20
-864.0538648011221
 30
0.0
 11
-591.7104990170237
 21
-1014.053893079959
 31
0.0
  0
LINE
  5
64
330
1F
100
AcDbEntity
  8
D-6
  6
Continuous
 62
     6
370
     9
100
AcDbLine
 10
-52.4016196507705
 20
-870.7246232583788
 30
0.0
 11
-195.7308894723496
 21
-1014.053893079959
 31
0.0
  0
LINE
  5
65
330
1F
100
AcDbEntity
  8
D-6
  6
Continuous
 62
     6
370
     9
100
AcDbLine
 10
-52.4016196507705
 20
-884.8668271601042
 30
0.0
 11
-181.5886855706253
 21
-1014.053893079959
 31
0.0
  0
LINE
  5
66
330
1F
100
AcDbEntity
  8
D-6
  6
Continuous
 62
     6
370
     9
100
AcDbLine
 10
-52.4016196507705
 20
-899.0090310618297
 30
0.0
 11
-167.4464816688987
 21
-1014.053893079959
 31
0.0
  0
LINE
  5
67
330
1F
100
AcDbEntity
  8
D-6
  6
Continuous
 62
     6
370
     9
100
AcDbLine
 10
-52.4016196507705
 20
-864.0538648011221
 30
0.0
 11
-1190.071525383269
 21
-864.0538648011221
 31
0.0
  0
LINE
  5
68
330
1F
100
AcDbEntity
  8
D-3
  6
Continuous
 62
     2
370
     9
100
AcDbLine
 10
-437.4025787746542
 20
-421.554813320443
 30
0.0
 11
-284.6347484272906
 21
-421.554813320443
 31
0.0
  0
LINE
  5
69
330
1F
100
AcDbEntity
  8
E-C
  6
JWW_CENTER1
 62
     3
370
     9
100
AcDbLine
 10
1003.401293385112
 20
1152.165628878315
 30
0.0
 11
1003.401293385112
 21
846.1492214971647
 31
0.0
  0
LINE
  5
6A
330
1F
100
AcDbEntity
  8
E-C
  6
Continuous
 62
     2
370
     9
100
AcDbLine
 10
1261.401677977298
 20
892.4266896740439
 30
0.0
 11
1261.401677977298
 21
1097.427754843573
 31
0.0
  0
LINE
  5
6B
330
1F
100
AcDbEntity
  8
E-C
  6
Continuous
 62
     2
370
     9
100
AcDbLine
 10
1261.401677977298
 20
1097.427754843573
 30
0.0
 11
1101.675822448223
 21
1097.427754843573
 31
0.0
  0
LINE
  5
6C
330
1F
100
AcDbEntity
  8
E-C
  6
Continuous
 62
     2
370
     9
100
AcDbLine
 10
1261.401677977298
 20
892.4266896740439
 30
0.0
 11
1101.675822448223
 21
892.4266896740439
 31
0.0
  0
LINE
  5
6D
330
1F
100
AcDbEntity
  8
E-C
  6
Continuous
 62
     7
370
     9
100
AcDbLine
 10
1256.401583714509
 20
894.9267368054441
 30
0.0
 11
1256.401583714509
 21
1094.927707712173
 31
0.0
  0
LINE
  5
6E
330
1F
100
AcDbEntity
  8
E-C
  6
Continuous
 62
     7
370
     9
100
AcDbLine
 10
1258.459293279551
 20
894.9267368054441
 30
0.0
 11
1258.459293279551
 21
1094.927707712173
 31
0.0
  0
LINE
  5
6F
330
1F
100
AcDbEntity
  8
E-C
  6
Continuous
 62
     7
370
     9
100
AcDbLine
 10
1258.45929327954
 20
1094.927707712173
 30
0.0
 11
1101.380464136499
 21
1094.927707712173
 31
0.0
  0
LINE
  5
70
330
1F
100
AcDbEntity
  8
E-C
  6
Continuous
 62
     7
370
     9
100
AcDbLine
 10
1258.459293279551
 20
894.9267368054441
 30
0.0
 11
1101.380464136499
 21
894.9267368054441
 31
0.0
  0
ARC
  5
71
330
1F
100
AcDbEntity
  8
E-C
  6
Continuous
 62
     2
370
     9
100
AcDbCircle
 10
943.4015620340654
 20
994.927222258814
 30
0.0
 40
59.99999928198267
100
AcDbArc
 50
278.7304229736328
 51
81.2695617675781
  0
ARC
  5
72
330
1F
100
AcDbEntity
  8
E-C
  6
Continuous
 62
     2
370
     9
100
AcDbCircle
 10
1003.401293385112
 20
994.927222258814
 30
0.0
 40
94.99999749614466
100
AcDbArc
 50
234.4873657226563
 51
125.5126190185547
  0
ARC
  5
73
330
1F
100
AcDbEntity
  8
E-C
  6
Continuous
 62
     2
370
     9
100
AcDbCircle
 10
954.0267623424904
 20
925.7391877887962
 30
0.0
 40
9.999999880330446
100
AcDbArc
 50
98.73042297363281
 51
234.4873657226563
  0
ARC
  5
74
330
1F
100
AcDbEntity
  8
E-C
  6
Continuous
 62
     2
370
     9
100
AcDbCircle
 10
954.0267623424904
 20
1064.116656531251
 30
0.0
 40
9.999999880330446
100
AcDbArc
 50
125.5126190185547
 51
261.2695617675781
  0
CIRCLE
  5
75
330
1F
100
AcDbEntity
  8
E-C
  6
Continuous
 62
     7
370
     9
100
AcDbCircle
 10
1003.401293385112
 20
994.927222258814
 30
0.0
 40
100.0000042712827
  0
ARC
  5
76
330
1F
100
AcDbEntity
  8
E-C
  6
Continuous
 62
     2
370
     9
100
AcDbCircle
 10
1003.401293385112
 20
994.927222258814
 30
0.0
 40
142.0000043154683
100
AcDbArc
 50
46.20585632324219
 51
313.7941284179688
  0
ARC
  5
77
330
1F
100
AcDbEntity
  8
E-C
  6
Continuous
 62
     7
370
     9
100
AcDbCircle
 10
1003.401293385112
 20
994.927222258814
 30
0.0
 40
139.999992856648
100
AcDbArc
 50
45.58468627929688
 51
314.4152984619141
  0
LINE
  5
78
330
1F
100
AcDbEntity
  8
E-1
  6
JWW_CENTER1
 62
     3
370
     9
100
AcDbLine
 10
678.4138942925133
 20
994.927222258814
 30
0.0
 11
1455.088441179826
 21
994.927222258814
 31
0.0
  0
LINE
  5
79
330
1F
100
AcDbEntity
  8
E-4
  6
Continuous
 62
     7
370
     9
100
AcDbLine
 10
1311.401220802767
 20
764.927222258814
 30
0.0
 11
1311.401220802767
 21
764.926842851087
 31
0.0
  0
LINE
  5
7A
330
1F
100
AcDbEntity
  8
E-2
  6
Continuous
 62
     3
370
     9
100
AcDbLine
 10
1296.4009380144
 20
764.927222258814
 30
0.0
 11
1296.4009380144
 21
819.9281224684503
 31
0.0
  0
LINE
  5
7B
330
1F
100
AcDbEntity
  8
E-2
  6
Continuous
 62
     3
370
     9
100
AcDbLine
 10
1296.4009380144
 20
1169.927721851598
 30
0.0
 11
1296.4009380144
 21
1224.927222258814
 31
0.0
  0
LINE
  5
7C
330
1F
100
AcDbEntity
  8
E-1
  6
Continuous
 62
     6
370
     9
100
AcDbLine
 10
1331.401597853923
 20
764.927222258814
 30
0.0
 11
1331.401597853923
 21
1224.927222258814
 31
0.0
  0
LINE
  5
7D
330
1F
100
AcDbEntity
  8
E-1
  6
Continuous
 62
     6
370
     9
100
AcDbLine
 10
1311.401220802767
 20
764.927222258814
 30
0.0
 11
1311.401220802767
 21
1224.927222258814
 31
0.0
  0
LINE
  5
7E
330
1F
100
AcDbEntity
  8
E-4
  6
Continuous
 62
     7
370
     9
100
AcDbLine
 10
590.0079093004633
 20
1169.927721851598
 30
0.0
 11
590.0079093004633
 21
819.9281224684503
 31
0.0
  0
LWPOLYLINE
  5
7F
330
1F
100
AcDbEntity
  8
E-4
  6
Continuous
 62
     7
370
     9
100
AcDbPolyline
 90
        4
 70
     1
 43
1.0
 10
590.5079093004633
 20
1169.927721851598
 42
0.4142135623731
 10
590.0079093004633
 20
1170.427721851598
 42
0.4142135623731
 10
589.5079093004633
 20
1169.927721851598
 42
0.4142135623731
 10
590.0079093004633
 20
1169.427721851598
 42
0.4142135623731
  0
LWPOLYLINE
  5
80
330
1F
100
AcDbEntity
  8
E-4
  6
Continuous
 62
     7
370
     9
100
AcDbPolyline
 90
        4
 70
     1
 43
1.0
 10
590.5079093004633
 20
819.9281224684503
 42
0.4142135623731
 10
590.0079093004633
 20
820.4281224684503
 42
0.4142135623731
 10
589.5079093004633
 20
819.9281224684503
 42
0.4142135623731
 10
590.0079093004633
 20
819.4281224684504
 42
0.4142135623731
  0
LINE
  5
81
330
1F
100
AcDbEntity
  8
E-4
  6
Continuous
 62
     7
370
     9
100
AcDbLine
 10
587.0079093004632
 20
1169.927721851598
 30
0.0
 11
791.40159314078
 21
1169.927721851598
 31
0.0
  0
LINE
  5
82
330
1F
100
AcDbEntity
  8
E-4
  6
Continuous
 62
     7
370
     9
100
AcDbLine
 10
587.0079093004632
 20
819.9281224684503
 30
0.0
 11
791.40159314078
 21
819.9281224684503
 31
0.0
  0
TEXT
  5
83
330
1F
100
AcDbEntity
  8
E-4
  6
Continuous
 62
     2
370
   211
100
AcDbText
 10
578.3679093004633
 20
973.6779221600241
 30
0.0
 40
30.48
  1
35
 50
90.0
 41
1.0625
  7
ＭＳ ゴシック
100
AcDbText
  0
TEXT
  5
84
330
1F
100
AcDbEntity
  8
E-F
  6
Continuous
 62
     2
370
     9
100
AcDbText
 10
1219.947109660216
 20
902.4272224490554
 30
0.0
 40
30.48
  1
ＫＡＮＥＳＯ
 50
90.0000025
 41
0.7708333333333334
  7
ＭＳ ゴシック
100
AcDbText
  0
TEXT
  5
85
330
1F
100
AcDbEntity
  8
C-5
  6
Continuous
 62
     2
370
     9
100
AcDbText
 10
-886.0037696795229
 20
264.0722868065401
 30
0.0
 40
30.48
  1
平面詳細図　Ｓ＝１：１０
 41
1.114583333333333
  7
ＭＳ ゴシック
100
AcDbText
  0
LINE
  5
86
330
1F
100
AcDbEntity
  8
C-5
  6
Continuous
 62
     7
370
     9
100
AcDbLine
 10
-904.0037696795235
 20
313.4322868065402
 30
0.0
 11
-333.0037696795233
 21
313.4322868065402
 31
0.0
  0
LINE
  5
87
330
1F
100
AcDbEntity
  8
C-5
  6
Continuous
 62
     7
370
     9
100
AcDbLine
 10
-904.0037696795235
 20
243.4322868065402
 30
0.0
 11
-333.0037696795233
 21
243.4322868065402
 31
0.0
  0
LINE
  5
88
330
1F
100
AcDbEntity
  8
C-5
  6
Continuous
 62
     7
370
     9
100
AcDbLine
 10
-904.0037696795235
 20
313.4322868065402
 30
0.0
 11
-904.0037696795235
 21
243.4322868065402
 31
0.0
  0
LINE
  5
89
330
1F
100
AcDbEntity
  8
C-5
  6
Continuous
 62
     7
370
     9
100
AcDbLine
 10
-333.0037696795233
 20
313.4322868065402
 30
0.0
 11
-333.0037696795233
 21
243.4322868065402
 31
0.0
  0
LINE
  5
8A
330
1F
100
AcDbEntity
  8
C-1
  6
Continuous
 62
     6
370
     9
100
AcDbLine
 10
-918.253786528997
 20
910.7186379036699
 30
0.0
 11
-916.2537488238814
 21
910.7186379036699
 31
0.0
  0
LINE
  5
8B
330
1F
100
AcDbEntity
  8
C-1
  6
Continuous
 62
     6
370
     9
100
AcDbLine
 10
-918.7537259651543
 20
910.7186379036699
 30
0.0
 11
-920.753763670271
 21
910.7186379036699
 31
0.0
  0
LINE
  5
8C
330
1F
100
AcDbEntity
  8
C-0
  6
Continuous
 62
     4
370
     9
100
AcDbLine
 10
-916.2537488238814
 20
908.7183202380692
 30
0.0
 11
-320.753860525287
 21
908.7183202380692
 31
0.0
  0
LINE
  5
8D
330
1F
100
AcDbEntity
  8
C-0
  6
Continuous
 62
     4
370
     9
100
AcDbLine
 10
-916.2537488238814
 20
910.7182179629427
 30
0.0
 11
-320.753860525287
 21
910.7182179629427
 31
0.0
  0
LINE
  5
8E
330
1F
100
AcDbEntity
  8
C-0
  6
Continuous
 62
     4
370
     9
100
AcDbLine
 10
-916.2537488238814
 20
910.7182179629427
 30
0.0
 11
-916.2537488238814
 21
885.718446550207
 31
0.0
  0
LINE
  5
8F
330
1F
100
AcDbEntity
  8
C-0
  6
Continuous
 62
     4
370
     9
100
AcDbLine
 10
-320.753860525287
 20
910.7182179629427
 30
0.0
 11
-320.753860525287
 21
885.718446550207
 31
0.0
  0
LINE
  5
90
330
1F
100
AcDbEntity
  8
C-1
  6
Continuous
 62
     6
370
     9
100
AcDbLine
 10
-318.7538228201714
 20
910.7186379036699
 30
0.0
 11
-320.753860525287
 21
910.7186379036699
 31
0.0
  0
LINE
  5
91
330
1F
100
AcDbEntity
  8
C-0
  6
Continuous
 62
     4
370
     9
100
AcDbLine
 10
-916.2537488238814
 20
885.718446550207
 30
0.0
 11
-913.2538322464501
 21
885.718446550207
 31
0.0
  0
LINE
  5
92
330
1F
100
AcDbEntity
  8
C-0
  6
Continuous
 62
     4
370
     9
100
AcDbLine
 10
-323.7537771027183
 20
885.718446550207
 30
0.0
 11
-320.753860525287
 21
885.718446550207
 31
0.0
  0
LINE
  5
93
330
1F
100
AcDbEntity
  8
C-1
  6
Continuous
 62
     6
370
     9
100
AcDbLine
 10
-913.2538322464501
 20
885.718446550207
 30
0.0
 11
-916.2537488238814
 21
885.718446550207
 31
0.0
  0
LINE
  5
94
330
1F
100
AcDbEntity
  8
C-1
  6
JWW_DASHED1
 62
     6
370
     9
100
AcDbLine
 10
-893.2538751360192
 20
885.718446550207
 30
0.0
 11
-913.2538322464501
 21
885.718446550207
 31
0.0
  0
LINE
  5
95
330
1F
100
AcDbEntity
  8
C-1
  6
Continuous
 62
     6
370
     9
100
AcDbLine
 10
-323.7537771027183
 20
885.718446550207
 30
0.0
 11
-320.753860525287
 21
885.718446550207
 31
0.0
  0
LINE
  5
96
330
1F
100
AcDbEntity
  8
C-1
  6
JWW_DASHED1
 62
     6
370
     9
100
AcDbLine
 10
-343.7538741933912
 20
885.718446550207
 30
0.0
 11
-323.7537771027183
 21
885.718446550207
 31
0.0
  0
LINE
  5
97
330
1F
100
AcDbEntity
  8
C-0
  6
JWW_DASHED1
 62
     4
370
     9
100
AcDbLine
 10
-893.2538751360192
 20
885.718446550207
 30
0.0
 11
-343.7538741933912
 21
885.718446550207
 31
0.0
  0
LINE
  5
98
330
1F
100
AcDbEntity
  8
C-1
  6
Continuous
 62
     6
370
     9
100
AcDbLine
 10
-318.2538133938925
 20
910.7186379036699
 30
0.0
 11
-316.2537756887758
 21
910.7186379036699
 31
0.0
  0
LINE
  5
99
330
1F
100
AcDbEntity
  8
C-0
  6
Continuous
 62
     4
370
     9
100
AcDbLine
 10
-316.2537756887758
 20
910.7182179629427
 30
0.0
 11
-316.2537756887758
 21
885.718446550207
 31
0.0
  0
LINE
  5
9A
330
1F
100
AcDbEntity
  8
C-0
  6
Continuous
 62
     4
370
     9
100
AcDbLine
 10
-316.2537756887758
 20
885.718446550207
 30
0.0
 11
-313.2538591113444
 21
885.718446550207
 31
0.0
  0
LINE
  5
9B
330
1F
100
AcDbEntity
  8
C-1
  6
Continuous
 62
     6
370
     9
100
AcDbLine
 10
-313.2538591113444
 20
885.718446550207
 30
0.0
 11
-316.2537756887758
 21
885.718446550207
 31
0.0
  0
LINE
  5
9C
330
1F
100
AcDbEntity
  8
C-1
  6
JWW_DASHED1
 62
     6
370
     9
100
AcDbLine
 10
-293.2539020009136
 20
885.718446550207
 30
0.0
 11
-313.2538591113444
 21
885.718446550207
 31
0.0
  0
LINE
  5
9D
330
1F
100
AcDbEntity
  8
C-0
  6
Continuous
 62
     4
370
     9
100
AcDbLine
 10
-920.753763670271
 20
910.7182179629427
 30
0.0
 11
-920.753763670271
 21
885.718446550207
 31
0.0
  0
LINE
  5
9E
330
1F
100
AcDbEntity
  8
C-0
  6
Continuous
 62
     4
370
     9
100
AcDbLine
 10
-920.753763670271
 20
885.718446550207
 30
0.0
 11
-923.7536802477013
 21
885.718446550207
 31
0.0
  0
LINE
  5
9F
330
1F
100
AcDbEntity
  8
C-1
  6
Continuous
 62
     6
370
     9
100
AcDbLine
 10
-923.7536802477013
 20
885.718446550207
 30
0.0
 11
-920.753763670271
 21
885.718446550207
 31
0.0
  0
LINE
  5
A0
330
1F
100
AcDbEntity
  8
C-1
  6
JWW_DASHED1
 62
     6
370
     9
100
AcDbLine
 10
-943.7536373581321
 20
885.718446550207
 30
0.0
 11
-923.7536802477013
 21
885.718446550207
 31
0.0
  0
LINE
  5
A1
330
1F
100
AcDbEntity
  8
C-2
  6
Continuous
 62
     3
370
     9
100
AcDbLine
 10
-914.7537555401055
 20
907.2182919592325
 30
0.0
 11
-322.2538888041237
 21
907.2182919592325
 31
0.0
  0
LWPOLYLINE
  5
A2
330
1F
100
AcDbEntity
  8
C-4
  6
Continuous
 62
     7
370
     9
100
AcDbPolyline
 90
        4
 70
     1
 43
1.0
 10
-918.2537259651543
 20
1015.928809664412
 42
0.4142135623731
 10
-918.7537259651543
 20
1016.428809664412
 42
0.4142135623731
 10
-919.2537259651543
 20
1015.928809664412
 42
0.4142135623731
 10
-918.7537259651543
 20
1015.428809664412
 42
0.4142135623731
  0
LINE
  5
A3
330
1F
100
AcDbEntity
  8
C-4
  6
Continuous
 62
     7
370
     9
100
AcDbLine
 10
-918.7537259651543
 20
1018.928809664412
 30
0.0
 11
-918.7537259651543
 21
930.7186379036699
 31
0.0
  0
LINE
  5
A4
330
1F
100
AcDbEntity
  8
C-4
  6
Continuous
 62
     7
370
     9
100
AcDbLine
 10
-918.7537259651543
 20
1015.928809664412
 30
0.0
 11
-918.253786528997
 21
1015.928809664412
 31
0.0
  0
LWPOLYLINE
  5
A5
330
1F
100
AcDbEntity
  8
C-4
  6
Continuous
 62
     7
370
     9
100
AcDbPolyline
 90
        4
 70
     1
 43
1.0
 10
-917.753786528997
 20
1015.928809664412
 42
0.4142135623731
 10
-918.253786528997
 20
1016.428809664412
 42
0.4142135623731
 10
-918.753786528997
 20
1015.928809664412
 42
0.4142135623731
 10
-918.253786528997
 20
1015.428809664412
 42
0.4142135623731
  0
LINE
  5
A6
330
1F
100
AcDbEntity
  8
C-4
  6
Continuous
 62
     7
370
     9
100
AcDbLine
 10
-918.253786528997
 20
1018.928809664412
 30
0.0
 11
-918.253786528997
 21
930.7186379036699
 31
0.0
  0
TEXT
  5
A7
330
1F
100
AcDbEntity
  8
C-4
  6
Continuous
 62
     2
370
   211
100
AcDbText
 10
-951.0037562470762
 20
1026.568809664412
 30
0.0
 40
30.48
  1
0.5
 41
1.083333333333333
  7
ＭＳ ゴシック
100
AcDbText
  0
LINE
  5
A8
330
1F
100
AcDbEntity
  8
C-4
  6
Continuous
 62
     7
370
     9
100
AcDbLine
 10
-918.253786528997
 20
1015.928809664412
 30
0.0
 11
-318.7538228201714
 21
1015.928809664412
 31
0.0
  0
LWPOLYLINE
  5
A9
330
1F
100
AcDbEntity
  8
C-4
  6
Continuous
 62
     7
370
     9
100
AcDbPolyline
 90
        4
 70
     1
 43
1.0
 10
-318.2538228201714
 20
1015.928809664412
 42
0.4142135623731
 10
-318.7538228201714
 20
1016.428809664412
 42
0.4142135623731
 10
-319.2538228201714
 20
1015.928809664412
 42
0.4142135623731
 10
-318.7538228201714
 20
1015.428809664412
 42
0.4142135623731
  0
LINE
  5
AA
330
1F
100
AcDbEntity
  8
C-4
  6
Continuous
 62
     7
370
     9
100
AcDbLine
 10
-318.7538228201714
 20
1018.928809664412
 30
0.0
 11
-318.7538228201714
 21
930.7186379036699
 31
0.0
  0
TEXT
  5
AB
330
1F
100
AcDbEntity
  8
C-4
  6
Continuous
 62
     2
370
   211
100
AcDbText
 10
-673.5038046745836
 20
1026.568809664412
 30
0.0
 40
30.48
  1
599.5
 41
1.1
  7
ＭＳ ゴシック
100
AcDbText
  0
LINE
  5
AC
330
1F
100
AcDbEntity
  8
C-4
  6
Continuous
 62
     7
370
     9
100
AcDbLine
 10
-318.7538228201714
 20
1015.928809664412
 30
0.0
 11
-318.2538133938925
 21
1015.928809664412
 31
0.0
  0
LWPOLYLINE
  5
AD
330
1F
100
AcDbEntity
  8
C-4
  6
Continuous
 62
     7
370
     9
100
AcDbPolyline
 90
        4
 70
     1
 43
1.0
 10
-317.7538133938925
 20
1015.928809664412
 42
0.4142135623731
 10
-318.2538133938925
 20
1016.428809664412
 42
0.4142135623731
 10
-318.7538133938925
 20
1015.928809664412
 42
0.4142135623731
 10
-318.2538133938925
 20
1015.428809664412
 42
0.4142135623731
  0
LINE
  5
AE
330
1F
100
AcDbEntity
  8
C-4
  6
Continuous
 62
     7
370
     9
100
AcDbLine
 10
-318.2538133938925
 20
1018.928809664412
 30
0.0
 11
-318.2538133938925
 21
930.7186379036699
 31
0.0
  0
TEXT
  5
AF
330
1F
100
AcDbEntity
  8
C-4
  6
Continuous
 62
     2
370
   211
100
AcDbText
 10
-351.0038181070314
 20
1026.568809664412
 30
0.0
 40
30.48
  1
0.5
 41
1.083333333333334
  7
ＭＳ ゴシック
100
AcDbText
  0
LINE
  5
B0
330
1F
100
AcDbEntity
  8
C-0
  6
Continuous
 62
     4
370
     9
100
AcDbLine
 10
-316.2537756887758
 20
908.7183202380692
 30
0.0
 11
-138.253844971926
 21
908.7183202380692
 31
0.0
  0
LINE
  5
B1
330
1F
100
AcDbEntity
  8
C-0
  6
Continuous
 62
     4
370
     9
100
AcDbLine
 10
-316.2537756887758
 20
910.7182179629427
 30
0.0
 11
-138.253844971926
 21
910.7182179629427
 31
0.0
  0
LINE
  5
B2
330
1F
100
AcDbEntity
  8
C-0
  6
JWW_DASHED1
 62
     4
370
     9
100
AcDbLine
 10
-293.2539020009136
 20
885.718446550207
 30
0.0
 11
-138.253844971926
 21
885.718446550207
 31
0.0
  0
LINE
  5
B3
330
1F
100
AcDbEntity
  8
C-2
  6
Continuous
 62
     3
370
     9
100
AcDbLine
 10
-314.7537474099391
 20
907.2182919592325
 30
0.0
 11
-138.253844971926
 21
907.2182919592325
 31
0.0
  0
LINE
  5
B4
330
1F
100
AcDbEntity
  8
C-4
  6
Continuous
 62
     7
370
     9
100
AcDbLine
 10
-318.2538133938925
 20
1015.928809664412
 30
0.0
 11
-138.253844971926
 21
1015.928809664412
 31
0.0
  0
LINE
  5
B5
330
1F
100
AcDbEntity
  8
C-0
  6
Continuous
 62
     4
370
     9
100
AcDbLine
 10
-920.753763670271
 20
908.7183202380692
 30
0.0
 11
-1099.2537038134
 21
908.7183202380692
 31
0.0
  0
LINE
  5
B6
330
1F
100
AcDbEntity
  8
C-0
  6
Continuous
 62
     4
370
     9
100
AcDbLine
 10
-920.753763670271
 20
910.7182179629427
 30
0.0
 11
-1099.2537038134
 21
910.7182179629427
 31
0.0
  0
LINE
  5
B7
330
1F
100
AcDbEntity
  8
C-0
  6
JWW_DASHED1
 62
     4
370
     9
100
AcDbLine
 10
-943.7536373581321
 20
885.718446550207
 30
0.0
 11
-1099.2537038134
 21
885.718446550207
 31
0.0
  0
LINE
  5
B8
330
1F
100
AcDbEntity
  8
C-2
  6
Continuous
 62
     3
370
     9
100
AcDbLine
 10
-922.2537569540469
 20
907.2182919592325
 30
0.0
 11
-1099.2537038134
 21
907.2182919592325
 31
0.0
  0
LINE
  5
B9
330
1F
100
AcDbEntity
  8
C-4
  6
Continuous
 62
     7
370
     9
100
AcDbLine
 10
-1099.25377380352
 20
1015.928809664412
 30
0.0
 11
-918.7537259651543
 21
1015.928809664412
 31
0.0
  0
LINE
  5
BA
330
1F
100
AcDbEntity
  8
C-0
  6
Continuous
 62
     2
370
     9
100
AcDbLine
 10
-138.253844971926
 20
916.7186110387752
 30
0.0
 11
-1099.25377380352
 21
916.7186110387752
 31
0.0
  0
LINE
  5
BB
330
1F
100
AcDbEntity
  8
C-0
  6
Continuous
 62
     2
370
     9
100
AcDbLine
 10
-138.253844971926
 20
911.7185167759857
 30
0.0
 11
-1099.25377380352
 21
911.7185167759857
 31
0.0
  0
LINE
  5
BC
330
1F
100
AcDbEntity
  8
D-5
  6
Continuous
 62
     7
370
     9
100
AcDbLine
 10
387.4214233234827
 20
-431.2213766821873
 30
0.0
 11
162.4211181477014
 21
-431.2213766821873
 31
0.0
  0
LINE
  5
BD
330
1F
100
AcDbEntity
  8
D-5
  6
Continuous
 62
     7
370
     9
100
AcDbLine
 10
387.4214233234827
 20
-381.2216437109959
 30
0.0
 11
387.4214233234827
 21
-431.2213766821873
 31
0.0
  0
LINE
  5
BE
330
1F
100
AcDbEntity
  8
D-5
  6
Continuous
 62
     7
370
     9
100
AcDbLine
 10
162.4211181477014
 20
-381.2216437109959
 30
0.0
 11
387.4214233234827
 21
-381.2216437109959
 31
0.0
  0
LINE
  5
BF
330
1F
100
AcDbEntity
  8
D-5
  6
Continuous
 62
     7
370
     9
100
AcDbLine
 10
162.4211181477014
 20
-431.2213766821873
 30
0.0
 11
162.4211181477014
 21
-381.2216437109959
 31
0.0
  0
TEXT
  5
C0
330
1F
100
AcDbEntity
  8
D-5
  6
Continuous
 62
     2
370
     9
100
AcDbText
 10
209.9207366779748
 20
-420.5816055640232
 30
0.0
 40
30.48
  1
仕　様
 41
1.083333333333333
  7
ＭＳ ゴシック
100
AcDbText
  0
TEXT
  5
C1
330
1F
100
AcDbEntity
  8
D-5
  6
Continuous
 62
     2
370
     9
100
AcDbText
 10
324.2234100178186
 20
-677.9174429005561
 30
0.0
 40
30.48
  1
定尺：５９９．５
 41
1.109375
  7
ＭＳ ゴシック
100
AcDbText
  0
TEXT
  5
C2
330
1F
100
AcDbEntity
  8
D-5
  6
Continuous
 62
     2
370
     9
100
AcDbText
 10
264.0635742023889
 20
-768.8963569216886
 30
0.0
 40
30.48
  1
ステンレス製受枠　ＳＦ２０Ｂ
 41
1.116071428571428
  7
ＭＳ ゴシック
100
AcDbText
  0
TEXT
  5
C3
330
1F
100
AcDbEntity
  8
D-5
  6
Continuous
 62
     2
370
     9
100
AcDbText
 10
323.7754792425123
 20
-898.8964713626137
 30
0.0
 40
30.48
  1
定尺：３０００
 50
0.0000916567554115
 41
1.107142857142857
  7
ＭＳ ゴシック
100
AcDbText
  0
TEXT
  5
C4
330
1F
100
AcDbEntity
  8
D-5
  6
Continuous
 62
     2
370
     9
100
AcDbText
 10
323.7754882648889
 20
-833.8959373049894
 30
0.0
 40
30.48
  1
材質：冷間圧延ステンレス鋼板（ＳＵＳ３０４－２Ｂ）
 41
1.12
  7
ＭＳ ゴシック
100
AcDbText
  0
LINE
  5
C5
330
1F
100
AcDbEntity
  8
D-4
  6
Continuous
 62
     7
370
     9
100
AcDbLine
 10
-617.4032495501394
 20
-363.5981091567992
 30
0.0
 11
-617.4032495501394
 21
-255.13404217453
 31
0.0
  0
LINE
  5
C6
330
1F
100
AcDbEntity
  8
D-3
  6
Continuous
 62
     2
370
     9
100
AcDbLine
 10
-437.4025787746542
 20
-421.554813320443
 30
0.0
 11
-437.4025787746542
 21
-371.5545705937591
 31
0.0
  0
LINE
  5
C7
330
1F
100
AcDbEntity
  8
D-3
  6
Continuous
 62
     2
370
     9
100
AcDbLine
 10
-437.4025787746542
 20
-371.5545705937591
 30
0.0
 11
-47.40117543737597
 21
-371.5545705937591
 31
0.0
  0
LINE
  5
C8
330
1F
100
AcDbEntity
  8
D-3
  6
Continuous
 62
     2
370
     9
100
AcDbLine
 10
-163.630270307217
 20
-371.5545705937591
 30
0.0
 11
-213.6305130338997
 21
-421.554813320443
 31
0.0
  0
LINE
  5
C9
330
1F
100
AcDbEntity
  8
D-3
  6
Continuous
 62
     2
370
     9
100
AcDbLine
 10
-149.4880664054926
 20
-371.5545705937591
 30
0.0
 11
-199.4879591815697
 21
-421.554813320443
 31
0.0
  0
LINE
  5
CA
330
1F
100
AcDbEntity
  8
D-3
  6
Continuous
 62
     2
370
     9
100
AcDbLine
 10
-92.91925079859084
 20
-371.5545705937591
 30
0.0
 11
-142.9194935252735
 21
-421.554813320443
 31
0.0
  0
LINE
  5
CB
330
1F
100
AcDbEntity
  8
D-3
  6
Continuous
 62
     2
370
     9
100
AcDbLine
 10
-78.77704689686425
 20
-371.5545705937591
 30
0.0
 11
-128.7772896235469
 21
-421.554813320443
 31
0.0
  0
LINE
  5
CC
330
1F
100
AcDbEntity
  8
D-3
  6
Continuous
 62
     2
370
     9
100
AcDbLine
 10
-47.40117543737597
 20
-396.7475147411715
 30
0.0
 11
-72.20847401664741
 21
-421.554813320443
 31
0.0
  0
LINE
  5
CD
330
1F
100
AcDbEntity
  8
D-5
  6
Continuous
 62
     6
370
     9
100
AcDbLine
 10
-510.9947416249367
 20
-381.1271194784427
 30
0.0
 11
-502.4027543391009
 21
-389.7191067642773
 31
0.0
  0
LINE
  5
CE
330
1F
100
AcDbEntity
  8
D-5
  6
Continuous
 62
     6
370
     9
100
AcDbLine
 10
-523.1362779104536
 20
-379.575788440722
 30
0.0
 11
-527.4025257518367
 21
-383.8420362821039
 31
0.0
  0
LINE
  5
CF
330
1F
100
AcDbEntity
  8
D-5
  6
Continuous
 62
     6
370
     9
100
AcDbLine
 10
-457.0691029474052
 20
-375.0775233473638
 30
0.0
 11
-462.4027001379978
 21
-380.4111205379564
 31
0.0
  0
LINE
  5
D0
330
1F
100
AcDbEntity
  8
D-5
  6
Continuous
 62
     6
370
     9
100
AcDbLine
 10
-437.4025787746542
 20
-411.9787649296966
 30
0.0
 11
-446.9786271654016
 21
-421.554813320443
 31
0.0
  0
LINE
  5
D1
330
1F
100
AcDbEntity
  8
D-5
  6
Continuous
 62
     6
370
     9
100
AcDbLine
 10
-462.4027001379978
 20
-386.4344703735611
 30
0.0
 11
-437.4025787746542
 21
-411.4345917369035
 31
0.0
  0
LINE
  5
D2
330
1F
100
AcDbEntity
  8
D-5
  6
Continuous
 62
     6
370
     9
100
AcDbLine
 10
-444.746992149037
 20
-375.8057705590709
 30
0.0
 11
-437.4025787746542
 21
-383.1501839334526
 31
0.0
  0
LINE
  5
D3
330
1F
100
AcDbEntity
  8
D-2
  6
Continuous
 62
     3
370
     9
100
AcDbLine
 10
-509.9028957332854
 20
-441.5541405197819
 30
0.0
 11
-509.9028957332854
 21
-464.0538648011221
 31
0.0
  0
LINE
  5
D4
330
1F
100
AcDbEntity
  8
D-3
  6
Continuous
 62
     2
370
     9
100
AcDbLine
 10
-47.40117543737597
 20
-410.889718642897
 30
0.0
 11
-58.06627011492083
 21
-421.554813320443
 31
0.0
  0
LINE
  5
D5
330
1F
100
AcDbEntity
  8
D-5
  6
Continuous
 62
     6
370
     9
100
AcDbLine
 10
-465.4024767351848
 20
-371.5535207419401
 30
0.0
 11
-462.4027001379978
 21
-371.5535207419401
 31
0.0
  0
LINE
  5
D6
330
1F
100
AcDbEntity
  8
D-5
  6
Continuous
 62
     6
370
     9
100
AcDbLine
 10
-463.1414458678933
 20
-371.5535207419401
 30
0.0
 11
-437.4025787746542
 21
-397.2923878351781
 31
0.0
  0
LINE
  5
D7
330
1F
100
AcDbEntity
  8
D-4
  6
Continuous
 62
     7
370
     9
100
AcDbLine
 10
-437.4025787746542
 20
-421.554813320443
 30
0.0
 11
-454.9025587438132
 21
-421.554813320443
 31
0.0
  0
LINE
  5
D8
330
1F
100
AcDbEntity
  8
D-5
  6
Continuous
 62
     6
370
     9
100
AcDbLine
 10
-437.4025787746542
 20
-397.8369109785779
 30
0.0
 11
-458.0115199301668
 21
-418.4458521340894
 31
0.0
  0
LINE
  5
D9
330
1F
100
AcDbEntity
  8
D-5
  6
Continuous
 62
     6
370
     9
100
AcDbLine
 10
-437.4025787746542
 20
-383.6950570274592
 30
0.0
 11
-465.082621881029
 21
-411.3751001338329
 31
0.0
  0
LINE
  5
DA
330
1F
100
AcDbEntity
  8
D-5
  6
Continuous
 62
     6
370
     9
100
AcDbLine
 10
-443.0651295351664
 20
-375.215403886246
 30
0.0
 11
-462.4027001379978
 21
-394.5529744890751
 31
0.0
  0
LINE
  5
DB
330
1F
100
AcDbEntity
  8
D-5
  6
Continuous
 62
     6
370
     9
100
AcDbLine
 10
-463.9256851766073
 20
-399.053689236677
 30
0.0
 11
-441.4245610928402
 21
-421.554813320443
 31
0.0
  0
ARC
  5
DC
330
1F
100
AcDbEntity
  8
D-5
  6
Continuous
 62
     6
370
     9
100
AcDbCircle
 10
-514.9029899960744
 20
-363.4287175155139
 30
0.0
 40
18.12490426435433
100
AcDbArc
 50
226.3968200683594
 51
313.6031799316406
  0
ARC
  5
DD
330
1F
100
AcDbEntity
  8
D-5
  6
Continuous
 62
     6
370
     9
100
AcDbCircle
 10
-449.9028144316299
 20
-358.4296731045429
 30
0.0
 40
18.12490426435433
100
AcDbArc
 50
226.3925323486328
 51
313.6035766601562
  0
LINE
  5
DE
330
1F
100
AcDbEntity
  8
D-4
  6
Continuous
 62
     7
370
     9
100
AcDbLine
 10
-1190.070991325652
 20
-258.1346067497253
 30
0.0
 11
-617.4032495501394
 21
-258.1346067497253
 31
0.0
  0
LINE
  5
DF
330
1F
100
AcDbEntity
  8
D-4
  6
Continuous
 62
     7
370
     9
100
AcDbLine
 10
-617.4032495501394
 20
-258.1346067497253
 30
0.0
 11
-492.4029157641286
 21
-258.1346067497253
 31
0.0
  0
LINE
  5
E0
330
1F
100
AcDbEntity
  8
D-4
  6
Continuous
 62
     7
370
     9
100
AcDbLine
 10
-492.4029157641286
 20
-363.5981091567992
 30
0.0
 11
-492.4029157641286
 21
-146.3826211997985
 31
0.0
  0
LINE
  5
E1
330
1F
100
AcDbEntity
  8
D-4
  6
Continuous
 62
     7
370
     9
100
AcDbLine
 10
-487.4026451590408
 20
-363.5981091567992
 30
0.0
 11
-487.4026451590408
 21
-146.3826211997985
 31
0.0
  0
LWPOLYLINE
  5
E2
330
1F
100
AcDbEntity
  8
D-4
  6
Continuous
 62
     7
370
     9
100
AcDbPolyline
 90
        4
 70
     1
 43
1.0
 10
-486.9026451590408
 20
-149.3821939537048
 42
0.4142135623731
 10
-487.4026451590408
 20
-148.8821939537047
 42
0.4142135623731
 10
-487.9026451590408
 20
-149.3821939537048
 42
0.4142135623731
 10
-487.4026451590408
 20
-149.8821939537048
 42
0.4142135623731
  0
LWPOLYLINE
  5
E3
330
1F
100
AcDbEntity
  8
D-4
  6
Continuous
 62
     7
370
     9
100
AcDbPolyline
 90
        4
 70
     1
 43
1.0
 10
-491.9029157641287
 20
-149.3821939537048
 42
0.4142135623731
 10
-492.4029157641286
 20
-148.8821939537047
 42
0.4142135623731
 10
-492.9029157641286
 20
-149.3821939537048
 42
0.4142135623731
 10
-492.4029157641286
 20
-149.8821939537048
 42
0.4142135623731
  0
LWPOLYLINE
  5
E4
330
1F
100
AcDbEntity
  8
D-4
  6
Continuous
 62
     7
370
     9
100
AcDbPolyline
 90
        4
 70
     1
 43
1.0
 10
-616.9032495501394
 20
-258.1346067497253
 42
0.4142135623731
 10
-617.4032495501394
 20
-257.6346067497253
 42
0.4142135623731
 10
-617.9032495501393
 20
-258.1346067497253
 42
0.4142135623731
 10
-617.4032495501394
 20
-258.6346067497253
 42
0.4142135623731
  0
LWPOLYLINE
  5
E5
330
1F
100
AcDbEntity
  8
D-4
  6
Continuous
 62
     7
370
     9
100
AcDbPolyline
 90
        4
 70
     1
 43
1.0
 10
-491.9029157641287
 20
-258.1346067497253
 42
0.4142135623731
 10
-492.4029157641286
 20
-257.6346067497253
 42
0.4142135623731
 10
-492.9029157641286
 20
-258.1346067497253
 42
0.4142135623731
 10
-492.4029157641286
 20
-258.6346067497253
 42
0.4142135623731
  0
TEXT
  5
E6
330
1F
100
AcDbEntity
  8
D-4
  6
Continuous
 62
     2
370
     9
100
AcDbText
 10
-525.3481219294424
 20
-138.7429187461852
 30
0.0
 40
30.48
  1
1
 41
0.9999999999999998
  7
ＭＳ ゴシック
100
AcDbText
  0
TEXT
  5
E7
330
1F
100
AcDbEntity
  8
D-4
  6
Continuous
 62
     2
370
     9
100
AcDbText
 10
-576.1524961474295
 20
-247.4943301841735
 30
0.0
 40
30.48
  1
25
 41
1.0625
  7
ＭＳ ゴシック
100
AcDbText
  0
LINE
  5
E8
330
1F
100
AcDbEntity
  8
D-4
  6
Continuous
 62
     7
370
     9
100
AcDbLine
 10
-1190.070991325652
 20
-38.68652668685961
 30
0.0
 11
-462.4027001379978
 21
-38.68652668685961
 31
0.0
  0
LINE
  5
E9
330
1F
100
AcDbEntity
  8
D-4
  6
Continuous
 62
     7
370
     9
100
AcDbLine
 10
-462.4027001379978
 20
-363.5981091567992
 30
0.0
 11
-462.4027001379978
 21
-35.6859621116643
 31
0.0
  0
LWPOLYLINE
  5
EA
330
1F
100
AcDbEntity
  8
D-4
  6
Continuous
 62
     7
370
     9
100
AcDbPolyline
 90
        4
 70
     1
 43
1.0
 10
-461.9027001379978
 20
-38.68652668685961
 42
0.4142135623731
 10
-462.4027001379978
 20
-38.18652668685961
 42
0.4142135623731
 10
-462.9027001379978
 20
-38.68652668685961
 42
0.4142135623731
 10
-462.4027001379978
 20
-39.18652668685961
 42
0.4142135623731
  0
LWPOLYLINE
  5
EB
330
1F
100
AcDbEntity
  8
D-4
  6
Continuous
 62
     7
370
     9
100
AcDbPolyline
 90
        4
 70
     1
 43
1.0
 10
-461.9027001379978
 20
-149.3821939537048
 42
0.4142135623731
 10
-462.4027001379978
 20
-148.8821939537047
 42
0.4142135623731
 10
-462.9027001379978
 20
-149.3821939537048
 42
0.4142135623731
 10
-462.4027001379978
 20
-149.8821939537048
 42
0.4142135623731
  0
LINE
  5
EC
330
1F
100
AcDbEntity
  8
D-4
  6
Continuous
 62
     7
370
     9
100
AcDbLine
 10
-1190.070991325652
 20
-149.3821939537048
 30
0.0
 11
-492.4029157641286
 21
-149.3821939537048
 31
0.0
  0
LINE
  5
ED
330
1F
100
AcDbEntity
  8
D-4
  6
Continuous
 62
     7
370
     9
100
AcDbLine
 10
-492.4029157641286
 20
-149.3821939537048
 30
0.0
 11
-487.4026451590408
 21
-149.3821939537048
 31
0.0
  0
LINE
  5
EE
330
1F
100
AcDbEntity
  8
D-4
  6
Continuous
 62
     7
370
     9
100
AcDbLine
 10
-487.4026451590408
 20
-149.3821939537048
 30
0.0
 11
-462.4027001379978
 21
-149.3821939537048
 31
0.0
  0
TEXT
  5
EF
330
1F
100
AcDbEntity
  8
D-4
  6
Continuous
 62
     2
370
   211
100
AcDbText
 10
-488.6038380185881
 20
-139.0160997317965
 30
0.0
 40
30.48
  1
5
 41
0.9999999999999998
  7
ＭＳ ゴシック
100
AcDbText
  0
LWPOLYLINE
  5
F0
330
1F
100
AcDbEntity
  8
D-4
  6
Continuous
 62
     7
370
     9
100
AcDbPolyline
 90
        4
 70
     1
 43
1.0
 10
-1052.712891516529
 20
-464.0538648011221
 42
0.4142135623731
 10
-1053.212891516529
 20
-463.5538648011221
 42
0.4142135623731
 10
-1053.712891516529
 20
-464.0538648011221
 42
0.4142135623731
 10
-1053.212891516529
 20
-464.553864801122
 42
0.4142135623731
  0
LWPOLYLINE
  5
F1
330
1F
100
AcDbEntity
  8
D-4
  6
Continuous
 62
     7
370
     9
100
AcDbPolyline
 90
        4
 70
     1
 43
1.0
 10
-1052.712891516529
 20
-441.5541405197819
 42
0.4142135623731
 10
-1053.212891516529
 20
-441.0541405197819
 42
0.4142135623731
 10
-1053.712891516529
 20
-441.5541405197819
 42
0.4142135623731
 10
-1053.212891516529
 20
-442.0541405197819
 42
0.4142135623731
  0
LWPOLYLINE
  5
F2
330
1F
100
AcDbEntity
  8
D-4
  6
Continuous
 62
     7
370
     9
100
AcDbPolyline
 90
        4
 70
     1
 43
1.0
 10
-1052.712891516529
 20
-376.5536150047301
 42
0.4142135623731
 10
-1053.212891516529
 20
-376.0536150047301
 42
0.4142135623731
 10
-1053.712891516529
 20
-376.5536150047301
 42
0.4142135623731
 10
-1053.212891516529
 20
-377.0536150047301
 42
0.4142135623731
  0
LINE
  5
F3
330
1F
100
AcDbEntity
  8
D-4
  6
Continuous
 62
     7
370
     9
100
AcDbLine
 10
-1293.312339592253
 20
-474.0540533267022
 30
0.0
 11
-1293.312339592253
 21
-376.5536150047301
 31
0.0
  0
LWPOLYLINE
  5
F4
330
1F
100
AcDbEntity
  8
D-4
  6
Continuous
 62
     7
370
     9
100
AcDbPolyline
 90
        4
 70
     1
 43
1.0
 10
-1292.812339592253
 20
-474.0540533267022
 42
0.4142135623731
 10
-1293.312339592253
 20
-473.5540533267022
 42
0.4142135623731
 10
-1293.812339592254
 20
-474.0540533267022
 42
0.4142135623731
 10
-1293.312339592253
 20
-474.5540533267022
 42
0.4142135623731
  0
LWPOLYLINE
  5
F5
330
1F
100
AcDbEntity
  8
D-4
  6
Continuous
 62
     7
370
     9
100
AcDbPolyline
 90
        4
 70
     1
 43
1.0
 10
-1292.812339592253
 20
-376.5536150047301
 42
0.4142135623731
 10
-1293.312339592253
 20
-376.0536150047301
 42
0.4142135623731
 10
-1293.812339592254
 20
-376.5536150047301
 42
0.4142135623731
 10
-1293.312339592253
 20
-377.0536150047301
 42
0.4142135623731
  0
LINE
  5
F6
330
1F
100
AcDbEntity
  8
D-4
  6
Continuous
 62
     7
370
     9
100
AcDbLine
 10
-1296.312339592254
 20
-474.0540533267022
 30
0.0
 11
-1210.071525383269
 21
-474.0540533267022
 31
0.0
  0
LINE
  5
F7
330
1F
100
AcDbEntity
  8
D-4
  6
Continuous
 62
     7
370
     9
100
AcDbLine
 10
-1296.312339592254
 20
-376.5536150047301
 30
0.0
 11
-1210.071525383269
 21
-376.5536150047301
 31
0.0
  0
TEXT
  5
F8
330
1F
100
AcDbEntity
  8
D-4
  6
Continuous
 62
     2
370
   211
100
AcDbText
 10
-1303.952339592254
 20
-469.0538341657162
 30
0.0
 40
30.48
  1
19.5
 50
90.0
 41
1.09375
  7
ＭＳ ゴシック
100
AcDbText
  0
LINE
  5
F9
330
1F
100
AcDbEntity
  8
D-0
  6
Continuous
 62
     7
370
     9
100
AcDbLine
 10
-166.4310618268746
 20
-589.9008609224875
 30
0.0
 11
-166.4310618268746
 21
-588.4005786348898
 31
0.0
  0
LINE
  5
FA
330
1F
100
AcDbEntity
  8
D-0
  6
Continuous
 62
     7
370
     9
100
AcDbLine
 10
-166.4310618268746
 20
-588.4005786348898
 30
0.0
 11
-164.930779539277
 21
-588.4005786348898
 31
0.0
  0
LINE
  5
FB
330
1F
100
AcDbEntity
  8
D-0
  6
Continuous
 62
     7
370
     9
100
AcDbLine
 10
-164.930779539277
 20
-588.4005786348898
 30
0.0
 11
-164.930779539277
 21
-589.9008609224875
 31
0.0
  0
LINE
  5
FC
330
1F
100
AcDbEntity
  8
D-0
  6
Continuous
 62
     7
370
     9
100
AcDbLine
 10
-164.930779539277
 20
-589.9008609224875
 30
0.0
 11
-166.4310618268746
 21
-589.9008609224875
 31
0.0
  0
LINE
  5
FD
330
1F
100
AcDbEntity
  8
D-0
  6
Continuous
 62
     7
370
     9
100
AcDbLine
 10
-114.7998561531153
 20
-461.4847852723693
 30
0.0
 11
-114.7998561531153
 21
-459.9845029847716
 31
0.0
  0
LINE
  5
FE
330
1F
100
AcDbEntity
  8
D-0
  6
Continuous
 62
     7
370
     9
100
AcDbLine
 10
-114.7998561531153
 20
-459.9845029847716
 30
0.0
 11
-113.2995738655177
 21
-459.9845029847716
 31
0.0
  0
LINE
  5
FF
330
1F
100
AcDbEntity
  8
D-0
  6
Continuous
 62
     7
370
     9
100
AcDbLine
 10
-113.2995738655177
 20
-459.9845029847716
 30
0.0
 11
-113.2995738655177
 21
-461.4847852723693
 31
0.0
  0
LINE
  5
100
330
1F
100
AcDbEntity
  8
D-0
  6
Continuous
 62
     7
370
     9
100
AcDbLine
 10
-113.2995738655177
 20
-461.4847852723693
 30
0.0
 11
-114.7998561531153
 21
-461.4847852723693
 31
0.0
  0
LINE
  5
101
330
1F
100
AcDbEntity
  8
D-0
  6
Continuous
 62
     7
370
     9
100
AcDbLine
 10
-102.8849625360942
 20
-615.0545252250878
 30
0.0
 11
-102.8849625360942
 21
-613.5542429374901
 31
0.0
  0
LINE
  5
102
330
1F
100
AcDbEntity
  8
D-0
  6
Continuous
 62
     7
370
     9
100
AcDbLine
 10
-102.8849625360942
 20
-613.5542429374901
 30
0.0
 11
-101.3846802484966
 21
-613.5542429374901
 31
0.0
  0
LINE
  5
103
330
1F
100
AcDbEntity
  8
D-0
  6
Continuous
 62
     7
370
     9
100
AcDbLine
 10
-101.3846802484966
 20
-613.5542429374901
 30
0.0
 11
-101.3846802484966
 21
-615.0545252250878
 31
0.0
  0
LINE
  5
104
330
1F
100
AcDbEntity
  8
D-0
  6
Continuous
 62
     7
370
     9
100
AcDbLine
 10
-101.3846802484966
 20
-615.0545252250878
 30
0.0
 11
-102.8849625360942
 21
-615.0545252250878
 31
0.0
  0
LINE
  5
105
330
1F
100
AcDbEntity
  8
D-0
  6
Continuous
 62
     7
370
     9
100
AcDbLine
 10
-141.2773975242737
 20
-691.8393952014475
 30
0.0
 11
-141.2773975242737
 21
-690.3391129138498
 31
0.0
  0
LINE
  5
106
330
1F
100
AcDbEntity
  8
D-0
  6
Continuous
 62
     7
370
     9
100
AcDbLine
 10
-141.2773975242737
 20
-690.3391129138498
 30
0.0
 11
-139.7771152366761
 21
-690.3391129138498
 31
0.0
  0
LINE
  5
107
330
1F
100
AcDbEntity
  8
D-0
  6
Continuous
 62
     7
370
     9
100
AcDbLine
 10
-139.7771152366761
 20
-690.3391129138498
 30
0.0
 11
-139.7771152366761
 21
-691.8393952014475
 31
0.0
  0
LINE
  5
108
330
1F
100
AcDbEntity
  8
D-0
  6
Continuous
 62
     7
370
     9
100
AcDbLine
 10
-139.7771152366761
 20
-691.8393952014475
 30
0.0
 11
-141.2773975242737
 21
-691.8393952014475
 31
0.0
  0
LINE
  5
109
330
1F
100
AcDbEntity
  8
D-0
  6
Continuous
 62
     7
370
     9
100
AcDbLine
 10
-256.4547024888122
 20
-603.1396316080667
 30
0.0
 11
-256.4547024888122
 21
-601.639349320469
 31
0.0
  0
LINE
  5
10A
330
1F
100
AcDbEntity
  8
D-0
  6
Continuous
 62
     7
370
     9
100
AcDbLine
 10
-256.4547024888122
 20
-601.639349320469
 30
0.0
 11
-254.9544202012146
 21
-601.639349320469
 31
0.0
  0
LINE
  5
10B
330
1F
100
AcDbEntity
  8
D-0
  6
Continuous
 62
     7
370
     9
100
AcDbLine
 10
-254.9544202012146
 20
-601.639349320469
 30
0.0
 11
-254.9544202012146
 21
-603.1396316080667
 31
0.0
  0
LINE
  5
10C
330
1F
100
AcDbEntity
  8
D-0
  6
Continuous
 62
     7
370
     9
100
AcDbLine
 10
-254.9544202012146
 20
-603.1396316080667
 30
0.0
 11
-256.4547024888122
 21
-603.1396316080667
 31
0.0
  0
LINE
  5
10D
330
1F
100
AcDbEntity
  8
D-0
  6
Continuous
 62
     7
370
     9
100
AcDbLine
 10
-267.0457190372758
 20
-706.4020429555848
 30
0.0
 11
-267.0457190372758
 21
-704.9017606679871
 31
0.0
  0
LINE
  5
10E
330
1F
100
AcDbEntity
  8
D-0
  6
Continuous
 62
     7
370
     9
100
AcDbLine
 10
-267.0457190372758
 20
-704.9017606679871
 30
0.0
 11
-265.5454367496782
 21
-704.9017606679871
 31
0.0
  0
LINE
  5
10F
330
1F
100
AcDbEntity
  8
D-0
  6
Continuous
 62
     7
370
     9
100
AcDbLine
 10
-265.5454367496782
 20
-704.9017606679871
 30
0.0
 11
-265.5454367496782
 21
-706.4020429555848
 31
0.0
  0
LINE
  5
110
330
1F
100
AcDbEntity
  8
D-0
  6
Continuous
 62
     7
370
     9
100
AcDbLine
 10
-265.5454367496782
 20
-706.4020429555848
 30
0.0
 11
-267.0457190372758
 21
-706.4020429555848
 31
0.0
  0
LINE
  5
111
330
1F
100
AcDbEntity
  8
D-0
  6
Continuous
 62
     7
370
     9
100
AcDbLine
 10
-464.3034022524058
 20
-665.3618538302891
 30
0.0
 11
-464.3034022524058
 21
-663.8615715426914
 31
0.0
  0
LINE
  5
112
330
1F
100
AcDbEntity
  8
D-0
  6
Continuous
 62
     7
370
     9
100
AcDbLine
 10
-464.3034022524058
 20
-663.8615715426914
 30
0.0
 11
-462.8031199648081
 21
-663.8615715426914
 31
0.0
  0
LINE
  5
113
330
1F
100
AcDbEntity
  8
D-0
  6
Continuous
 62
     7
370
     9
100
AcDbLine
 10
-462.8031199648081
 20
-663.8615715426914
 30
0.0
 11
-462.8031199648081
 21
-665.3618538302891
 31
0.0
  0
LINE
  5
114
330
1F
100
AcDbEntity
  8
D-0
  6
Continuous
 62
     7
370
     9
100
AcDbLine
 10
-462.8031199648081
 20
-665.3618538302891
 30
0.0
 11
-464.3034022524058
 21
-665.3618538302891
 31
0.0
  0
LINE
  5
115
330
1F
100
AcDbEntity
  8
D-0
  6
Continuous
 62
     7
370
     9
100
AcDbLine
 10
-518.5823620632807
 20
-661.3902226246154
 30
0.0
 11
-518.5823620632807
 21
-659.8899403370177
 31
0.0
  0
LINE
  5
116
330
1F
100
AcDbEntity
  8
D-0
  6
Continuous
 62
     7
370
     9
100
AcDbLine
 10
-518.5823620632807
 20
-659.8899403370177
 30
0.0
 11
-517.082079775683
 21
-659.8899403370177
 31
0.0
  0
LINE
  5
117
330
1F
100
AcDbEntity
  8
D-0
  6
Continuous
 62
     7
370
     9
100
AcDbLine
 10
-517.082079775683
 20
-659.8899403370177
 30
0.0
 11
-517.082079775683
 21
-661.3902226246154
 31
0.0
  0
LINE
  5
118
330
1F
100
AcDbEntity
  8
D-0
  6
Continuous
 62
     7
370
     9
100
AcDbLine
 10
-517.082079775683
 20
-661.3902226246154
 30
0.0
 11
-518.5823620632807
 21
-661.3902226246154
 31
0.0
  0
LINE
  5
119
330
1F
100
AcDbEntity
  8
D-0
  6
Continuous
 62
     7
370
     9
100
AcDbLine
 10
-566.2419365313657
 20
-633.5888041848988
 30
0.0
 11
-566.2419365313657
 21
-632.0885218973011
 31
0.0
  0
LINE
  5
11A
330
1F
100
AcDbEntity
  8
D-0
  6
Continuous
 62
     7
370
     9
100
AcDbLine
 10
-566.2419365313657
 20
-632.0885218973011
 30
0.0
 11
-564.741654243768
 21
-632.0885218973011
 31
0.0
  0
LINE
  5
11B
330
1F
100
AcDbEntity
  8
D-0
  6
Continuous
 62
     7
370
     9
100
AcDbLine
 10
-564.741654243768
 20
-632.0885218973011
 30
0.0
 11
-564.741654243768
 21
-633.5888041848988
 31
0.0
  0
LINE
  5
11C
330
1F
100
AcDbEntity
  8
D-0
  6
Continuous
 62
     7
370
     9
100
AcDbLine
 10
-564.741654243768
 20
-633.5888041848988
 30
0.0
 11
-566.2419365313657
 21
-633.5888041848988
 31
0.0
  0
LINE
  5
11D
330
1F
100
AcDbEntity
  8
D-0
  6
Continuous
 62
     7
370
     9
100
AcDbLine
 10
-591.3956008339666
 20
-711.697551229816
 30
0.0
 11
-591.3956008339666
 21
-710.1972689422183
 31
0.0
  0
LINE
  5
11E
330
1F
100
AcDbEntity
  8
D-0
  6
Continuous
 62
     7
370
     9
100
AcDbLine
 10
-591.3956008339666
 20
-710.1972689422183
 30
0.0
 11
-589.8953185463689
 21
-710.1972689422183
 31
0.0
  0
LINE
  5
11F
330
1F
100
AcDbEntity
  8
D-0
  6
Continuous
 62
     7
370
     9
100
AcDbLine
 10
-589.8953185463689
 20
-710.1972689422183
 30
0.0
 11
-589.8953185463689
 21
-711.697551229816
 31
0.0
  0
LINE
  5
120
330
1F
100
AcDbEntity
  8
D-0
  6
Continuous
 62
     7
370
     9
100
AcDbLine
 10
-589.8953185463689
 20
-711.697551229816
 30
0.0
 11
-591.3956008339666
 21
-711.697551229816
 31
0.0
  0
LINE
  5
121
330
1F
100
AcDbEntity
  8
D-0
  6
Continuous
 62
     7
370
     9
100
AcDbLine
 10
-485.4854353493329
 20
-538.2696552487288
 30
0.0
 11
-485.4854353493329
 21
-536.7693729611311
 31
0.0
  0
LINE
  5
122
330
1F
100
AcDbEntity
  8
D-0
  6
Continuous
 62
     7
370
     9
100
AcDbLine
 10
-485.4854353493329
 20
-536.7693729611311
 30
0.0
 11
-483.9851530617353
 21
-536.7693729611311
 31
0.0
  0
LINE
  5
123
330
1F
100
AcDbEntity
  8
D-0
  6
Continuous
 62
     7
370
     9
100
AcDbLine
 10
-483.9851530617353
 20
-536.7693729611311
 30
0.0
 11
-483.9851530617353
 21
-538.2696552487288
 31
0.0
  0
LINE
  5
124
330
1F
100
AcDbEntity
  8
D-0
  6
Continuous
 62
     7
370
     9
100
AcDbLine
 10
-483.9851530617353
 20
-538.2696552487288
 30
0.0
 11
-485.4854353493329
 21
-538.2696552487288
 31
0.0
  0
LINE
  5
125
330
1F
100
AcDbEntity
  8
D-0
  6
Continuous
 62
     7
370
     9
100
AcDbLine
 10
-588.7478466968504
 20
-515.7637450832441
 30
0.0
 11
-588.7478466968504
 21
-514.2634627956464
 31
0.0
  0
LINE
  5
126
330
1F
100
AcDbEntity
  8
D-0
  6
Continuous
 62
     7
370
     9
100
AcDbLine
 10
-588.7478466968504
 20
-514.2634627956464
 30
0.0
 11
-587.2475644092527
 21
-514.2634627956464
 31
0.0
  0
LINE
  5
127
330
1F
100
AcDbEntity
  8
D-0
  6
Continuous
 62
     7
370
     9
100
AcDbLine
 10
-587.2475644092527
 20
-514.2634627956464
 30
0.0
 11
-587.2475644092527
 21
-515.7637450832441
 31
0.0
  0
LINE
  5
128
330
1F
100
AcDbEntity
  8
D-0
  6
Continuous
 62
     7
370
     9
100
AcDbLine
 10
-587.2475644092527
 20
-515.7637450832441
 30
0.0
 11
-588.7478466968504
 21
-515.7637450832441
 31
0.0
  0
LINE
  5
129
330
1F
100
AcDbEntity
  8
D-0
  6
Continuous
 62
     7
370
     9
100
AcDbLine
 10
-322.6485559167088
 20
-642.8559436648043
 30
0.0
 11
-322.6485559167088
 21
-641.3556613772066
 31
0.0
  0
LINE
  5
12A
330
1F
100
AcDbEntity
  8
D-0
  6
Continuous
 62
     7
370
     9
100
AcDbLine
 10
-322.6485559167088
 20
-641.3556613772066
 30
0.0
 11
-321.1482736291111
 21
-641.3556613772066
 31
0.0
  0
LINE
  5
12B
330
1F
100
AcDbEntity
  8
D-0
  6
Continuous
 62
     7
370
     9
100
AcDbLine
 10
-321.1482736291111
 20
-641.3556613772066
 30
0.0
 11
-321.1482736291111
 21
-642.8559436648043
 31
0.0
  0
LINE
  5
12C
330
1F
100
AcDbEntity
  8
D-0
  6
Continuous
 62
     7
370
     9
100
AcDbLine
 10
-321.1482736291111
 20
-642.8559436648043
 30
0.0
 11
-322.6485559167088
 21
-642.8559436648043
 31
0.0
  0
LINE
  5
12D
330
1F
100
AcDbEntity
  8
D-0
  6
Continuous
 62
     7
370
     9
100
AcDbLine
 10
-335.8873266022874
 20
-716.9930595040478
 30
0.0
 11
-335.8873266022874
 21
-715.4927772164501
 31
0.0
  0
LINE
  5
12E
330
1F
100
AcDbEntity
  8
D-0
  6
Continuous
 62
     7
370
     9
100
AcDbLine
 10
-335.8873266022874
 20
-715.4927772164501
 30
0.0
 11
-334.3870443146898
 21
-715.4927772164501
 31
0.0
  0
LINE
  5
12F
330
1F
100
AcDbEntity
  8
D-0
  6
Continuous
 62
     7
370
     9
100
AcDbLine
 10
-334.3870443146898
 20
-715.4927772164501
 30
0.0
 11
-334.3870443146898
 21
-716.9930595040478
 31
0.0
  0
LINE
  5
130
330
1F
100
AcDbEntity
  8
D-0
  6
Continuous
 62
     7
370
     9
100
AcDbLine
 10
-334.3870443146898
 20
-716.9930595040478
 30
0.0
 11
-335.8873266022874
 21
-716.9930595040478
 31
0.0
  0
LINE
  5
131
330
1F
100
AcDbEntity
  8
D-0
  6
Continuous
 62
     7
370
     9
100
AcDbLine
 10
-329.2679412594987
 20
-559.4516883456554
 30
0.0
 11
-329.2679412594987
 21
-557.9514060580577
 31
0.0
  0
LINE
  5
132
330
1F
100
AcDbEntity
  8
D-0
  6
Continuous
 62
     7
370
     9
100
AcDbLine
 10
-329.2679412594987
 20
-557.9514060580577
 30
0.0
 11
-327.767658971901
 21
-557.9514060580577
 31
0.0
  0
LINE
  5
133
330
1F
100
AcDbEntity
  8
D-0
  6
Continuous
 62
     7
370
     9
100
AcDbLine
 10
-327.767658971901
 20
-557.9514060580577
 30
0.0
 11
-327.767658971901
 21
-559.4516883456554
 31
0.0
  0
LINE
  5
134
330
1F
100
AcDbEntity
  8
D-0
  6
Continuous
 62
     7
370
     9
100
AcDbLine
 10
-327.767658971901
 20
-559.4516883456554
 30
0.0
 11
-329.2679412594987
 21
-559.4516883456554
 31
0.0
  0
LINE
  5
135
330
1F
100
AcDbEntity
  8
D-0
  6
Continuous
 62
     7
370
     9
100
AcDbLine
 10
-199.5279885408218
 20
-656.0947143503836
 30
0.0
 11
-199.5279885408218
 21
-654.5944320627859
 31
0.0
  0
LINE
  5
136
330
1F
100
AcDbEntity
  8
D-0
  6
Continuous
 62
     7
370
     9
100
AcDbLine
 10
-199.5279885408218
 20
-654.5944320627859
 30
0.0
 11
-198.0277062532241
 21
-654.5944320627859
 31
0.0
  0
LINE
  5
137
330
1F
100
AcDbEntity
  8
D-0
  6
Continuous
 62
     7
370
     9
100
AcDbLine
 10
-198.0277062532241
 20
-654.5944320627859
 30
0.0
 11
-198.0277062532241
 21
-656.0947143503836
 31
0.0
  0
LINE
  5
138
330
1F
100
AcDbEntity
  8
D-0
  6
Continuous
 62
     7
370
     9
100
AcDbLine
 10
-198.0277062532241
 20
-656.0947143503836
 30
0.0
 11
-199.5279885408218
 21
-656.0947143503836
 31
0.0
  0
LINE
  5
139
330
1F
100
AcDbEntity
  8
D-0
  6
Continuous
 62
     7
370
     9
100
AcDbLine
 10
-199.5279885408218
 20
-716.9930595040478
 30
0.0
 11
-199.5279885408218
 21
-715.4927772164501
 31
0.0
  0
LINE
  5
13A
330
1F
100
AcDbEntity
  8
D-0
  6
Continuous
 62
     7
370
     9
100
AcDbLine
 10
-199.5279885408218
 20
-715.4927772164501
 30
0.0
 11
-198.0277062532241
 21
-715.4927772164501
 31
0.0
  0
LINE
  5
13B
330
1F
100
AcDbEntity
  8
D-0
  6
Continuous
 62
     7
370
     9
100
AcDbLine
 10
-198.0277062532241
 20
-715.4927772164501
 30
0.0
 11
-198.0277062532241
 21
-716.9930595040478
 31
0.0
  0
LINE
  5
13C
330
1F
100
AcDbEntity
  8
D-0
  6
Continuous
 62
     7
370
     9
100
AcDbLine
 10
-198.0277062532241
 20
-716.9930595040478
 30
0.0
 11
-199.5279885408218
 21
-716.9930595040478
 31
0.0
  0
LINE
  5
13D
330
1F
100
AcDbEntity
  8
D-0
  6
Continuous
 62
     7
370
     9
100
AcDbLine
 10
-80.37905237060954
 20
-714.3453053669322
 30
0.0
 11
-80.37905237060954
 21
-712.8450230793345
 31
0.0
  0
LINE
  5
13E
330
1F
100
AcDbEntity
  8
D-0
  6
Continuous
 62
     7
370
     9
100
AcDbLine
 10
-80.37905237060954
 20
-712.8450230793345
 30
0.0
 11
-78.87877008301189
 21
-712.8450230793345
 31
0.0
  0
LINE
  5
13F
330
1F
100
AcDbEntity
  8
D-0
  6
Continuous
 62
     7
370
     9
100
AcDbLine
 10
-78.87877008301189
 20
-712.8450230793345
 30
0.0
 11
-78.87877008301189
 21
-714.3453053669322
 31
0.0
  0
LINE
  5
140
330
1F
100
AcDbEntity
  8
D-0
  6
Continuous
 62
     7
370
     9
100
AcDbLine
 10
-78.87877008301189
 20
-714.3453053669322
 30
0.0
 11
-80.37905237060954
 21
-714.3453053669322
 31
0.0
  0
LINE
  5
141
330
1F
100
AcDbEntity
  8
D-0
  6
Continuous
 62
     7
370
     9
100
AcDbLine
 10
-94.94170012474683
 20
-551.508425934308
 30
0.0
 11
-94.94170012474683
 21
-550.0081436467103
 31
0.0
  0
LINE
  5
142
330
1F
100
AcDbEntity
  8
D-0
  6
Continuous
 62
     7
370
     9
100
AcDbLine
 10
-94.94170012474683
 20
-550.0081436467103
 30
0.0
 11
-93.44141783714917
 21
-550.0081436467103
 31
0.0
  0
LINE
  5
143
330
1F
100
AcDbEntity
  8
D-0
  6
Continuous
 62
     7
370
     9
100
AcDbLine
 10
-93.44141783714917
 20
-550.0081436467103
 30
0.0
 11
-93.44141783714917
 21
-551.508425934308
 31
0.0
  0
LINE
  5
144
330
1F
100
AcDbEntity
  8
D-0
  6
Continuous
 62
     7
370
     9
100
AcDbLine
 10
-93.44141783714917
 20
-551.508425934308
 30
0.0
 11
-94.94170012474683
 21
-551.508425934308
 31
0.0
  0
LINE
  5
145
330
1F
100
AcDbEntity
  8
D-0
  6
Continuous
 62
     7
370
     9
100
AcDbLine
 10
-142.6012745928313
 20
-509.1443597404543
 30
0.0
 11
-142.6012745928313
 21
-507.6440774528566
 31
0.0
  0
LINE
  5
146
330
1F
100
AcDbEntity
  8
D-0
  6
Continuous
 62
     7
370
     9
100
AcDbLine
 10
-142.6012745928313
 20
-507.6440774528566
 30
0.0
 11
-141.1009923052336
 21
-507.6440774528566
 31
0.0
  0
LINE
  5
147
330
1F
100
AcDbEntity
  8
D-0
  6
Continuous
 62
     7
370
     9
100
AcDbLine
 10
-141.1009923052336
 20
-507.6440774528566
 30
0.0
 11
-141.1009923052336
 21
-509.1443597404543
 31
0.0
  0
LINE
  5
148
330
1F
100
AcDbEntity
  8
D-0
  6
Continuous
 62
     7
370
     9
100
AcDbLine
 10
-141.1009923052336
 20
-509.1443597404543
 30
0.0
 11
-142.6012745928313
 21
-509.1443597404543
 31
0.0
  0
LINE
  5
149
330
1F
100
AcDbEntity
  8
D-0
  6
Continuous
 62
     7
370
     9
100
AcDbLine
 10
-361.0409909048883
 20
-441.6266292440008
 30
0.0
 11
-361.0409909048883
 21
-440.1263469564031
 31
0.0
  0
LINE
  5
14A
330
1F
100
AcDbEntity
  8
D-0
  6
Continuous
 62
     7
370
     9
100
AcDbLine
 10
-361.0409909048883
 20
-440.1263469564031
 30
0.0
 11
-359.5407086172906
 21
-440.1263469564031
 31
0.0
  0
LINE
  5
14B
330
1F
100
AcDbEntity
  8
D-0
  6
Continuous
 62
     7
370
     9
100
AcDbLine
 10
-359.5407086172906
 20
-440.1263469564031
 30
0.0
 11
-359.5407086172906
 21
-441.6266292440008
 31
0.0
  0
LINE
  5
14C
330
1F
100
AcDbEntity
  8
D-0
  6
Continuous
 62
     7
370
     9
100
AcDbLine
 10
-359.5407086172906
 20
-441.6266292440008
 30
0.0
 11
-361.0409909048883
 21
-441.6266292440008
 31
0.0
  0
LINE
  5
14D
330
1F
100
AcDbEntity
  8
D-0
  6
Continuous
 62
     7
370
     9
100
AcDbLine
 10
-71.11191289070348
 20
-491.9339578492014
 30
0.0
 11
-71.11191289070348
 21
-490.4336755616037
 31
0.0
  0
LINE
  5
14E
330
1F
100
AcDbEntity
  8
D-0
  6
Continuous
 62
     7
370
     9
100
AcDbLine
 10
-71.11191289070348
 20
-490.4336755616037
 30
0.0
 11
-69.61163060310582
 21
-490.4336755616037
 31
0.0
  0
LINE
  5
14F
330
1F
100
AcDbEntity
  8
D-0
  6
Continuous
 62
     7
370
     9
100
AcDbLine
 10
-69.61163060310582
 20
-490.4336755616037
 30
0.0
 11
-69.61163060310582
 21
-491.9339578492014
 31
0.0
  0
LINE
  5
150
330
1F
100
AcDbEntity
  8
D-0
  6
Continuous
 62
     7
370
     9
100
AcDbLine
 10
-69.61163060310582
 20
-491.9339578492014
 30
0.0
 11
-71.11191289070348
 21
-491.9339578492014
 31
0.0
  0
LINE
  5
151
330
1F
100
AcDbEntity
  8
D-0
  6
Continuous
 62
     7
370
     9
100
AcDbLine
 10
-434.5779695699253
 20
-706.1670956363179
 30
0.0
 11
-434.5779695699253
 21
-704.6668133487202
 31
0.0
  0
LINE
  5
152
330
1F
100
AcDbEntity
  8
D-0
  6
Continuous
 62
     7
370
     9
100
AcDbLine
 10
-434.5779695699253
 20
-704.6668133487202
 30
0.0
 11
-433.0776872823276
 21
-704.6668133487202
 31
0.0
  0
LINE
  5
153
330
1F
100
AcDbEntity
  8
D-0
  6
Continuous
 62
     7
370
     9
100
AcDbLine
 10
-433.0776872823276
 20
-704.6668133487202
 30
0.0
 11
-433.0776872823276
 21
-706.1670956363179
 31
0.0
  0
LINE
  5
154
330
1F
100
AcDbEntity
  8
D-0
  6
Continuous
 62
     7
370
     9
100
AcDbLine
 10
-433.0776872823276
 20
-706.1670956363179
 30
0.0
 11
-434.5779695699253
 21
-706.1670956363179
 31
0.0
  0
LINE
  5
155
330
1F
100
AcDbEntity
  8
D-4
  6
Continuous
 62
     7
370
     9
100
AcDbLine
 10
-462.4020042319058
 20
-512.022372258546
 30
0.0
 11
-462.4020042319058
 21
-589.2390037807188
 31
0.0
  0
LINE
  5
156
330
1F
100
AcDbEntity
  8
D-4
  6
Continuous
 62
     7
370
     9
100
AcDbLine
 10
-462.4020042319058
 20
-586.238935116168
 30
0.0
 11
-317.4020662207363
 21
-586.238935116168
 31
0.0
  0
LINE
  5
157
330
1F
100
AcDbEntity
  8
D-4
  6
Continuous
 62
     7
370
     9
100
AcDbLine
 10
-317.4020662207363
 20
-518.9306936391613
 30
0.0
 11
-317.4020662207363
 21
-589.2390037807188
 31
0.0
  0
LWPOLYLINE
  5
158
330
1F
100
AcDbEntity
  8
D-4
  6
Continuous
 62
     7
370
     9
100
AcDbPolyline
 90
        4
 70
     1
 43
1.0
 10
-461.9020042319058
 20
-586.238935116168
 42
0.4142135623731
 10
-462.4020042319058
 20
-585.738935116168
 42
0.4142135623731
 10
-462.9020042319058
 20
-586.238935116168
 42
0.4142135623731
 10
-462.4020042319058
 20
-586.738935116168
 42
0.4142135623731
  0
LWPOLYLINE
  5
159
330
1F
100
AcDbEntity
  8
D-4
  6
Continuous
 62
     7
370
     9
100
AcDbPolyline
 90
        4
 70
     1
 43
1.0
 10
-316.9020662207363
 20
-586.238935116168
 42
0.4142135623731
 10
-317.4020662207363
 20
-585.738935116168
 42
0.4142135623731
 10
-317.9020662207363
 20
-586.238935116168
 42
0.4142135623731
 10
-317.4020662207363
 20
-586.738935116168
 42
0.4142135623731
  0
TEXT
  5
15A
330
1F
100
AcDbEntity
  8
D-4
  6
Continuous
 62
     2
370
     9
100
AcDbText
 10
-438.4123983282803
 20
-575.599163998004
 30
0.0
 40
30.48
  1
29
 41
1.062500000000002
  7
ＭＳ ゴシック
100
AcDbText
  0
LINE
  5
15B
330
1F
100
AcDbEntity
  8
D-4
  6
Continuous
 62
     7
370
     9
100
AcDbLine
 10
-305.5752267737148
 20
-456.5536661772733
 30
0.0
 11
-225.0062568157239
 21
-456.5536661772733
 31
0.0
  0
LINE
  5
15C
330
1F
100
AcDbEntity
  8
D-4
  6
Continuous
 62
     7
370
     9
100
AcDbLine
 10
-305.5752267737148
 20
-506.5533991484647
 30
0.0
 11
-225.0062568157239
 21
-506.5533991484647
 31
0.0
  0
LINE
  5
15D
330
1F
100
AcDbEntity
  8
D-4
  6
Continuous
 62
     7
370
     9
100
AcDbLine
 10
-228.0058104961438
 20
-456.5536661772733
 30
0.0
 11
-228.0058104961438
 21
-371.5535207419401
 31
0.0
  0
LINE
  5
15E
330
1F
100
AcDbEntity
  8
D-4
  6
Continuous
 62
     7
370
     9
100
AcDbLine
 10
-228.0058104961438
 20
-506.5533991484647
 30
0.0
 11
-228.0058104961438
 21
-456.5536661772733
 31
0.0
  0
LWPOLYLINE
  5
15F
330
1F
100
AcDbEntity
  8
D-4
  6
Continuous
 62
     7
370
     9
100
AcDbPolyline
 90
        4
 70
     1
 43
1.0
 10
-227.5058104961438
 20
-371.5535207419401
 42
0.4142135623731
 10
-228.0058104961438
 20
-371.0535207419401
 42
0.4142135623731
 10
-228.5058104961438
 20
-371.5535207419401
 42
0.4142135623731
 10
-228.0058104961438
 20
-372.05352074194
 42
0.4142135623731
  0
LWPOLYLINE
  5
160
330
1F
100
AcDbEntity
  8
D-4
  6
Continuous
 62
     7
370
     9
100
AcDbPolyline
 90
        4
 70
     1
 43
1.0
 10
-227.5058104961438
 20
-456.5536661772733
 42
0.4142135623731
 10
-228.0058104961438
 20
-456.0536661772733
 42
0.4142135623731
 10
-228.5058104961438
 20
-456.5536661772733
 42
0.4142135623731
 10
-228.0058104961438
 20
-457.0536661772733
 42
0.4142135623731
  0
LWPOLYLINE
  5
161
330
1F
100
AcDbEntity
  8
D-4
  6
Continuous
 62
     7
370
     9
100
AcDbPolyline
 90
        4
 70
     1
 43
1.0
 10
-227.5058104961438
 20
-506.5533991484647
 42
0.4142135623731
 10
-228.0058104961438
 20
-506.0533991484647
 42
0.4142135623731
 10
-228.5058104961438
 20
-506.5533991484647
 42
0.4142135623731
 10
-228.0058104961438
 20
-507.0533991484647
 42
0.4142135623731
  0
TEXT
  5
162
330
1F
100
AcDbEntity
  8
D-4
  6
Continuous
 62
     2
370
     9
100
AcDbText
 10
-238.6460965984387
 20
-502.8031991233905
 30
0.0
 40
30.48
  1
10
 50
90.00000250447789
 41
1.062500000000001
  7
ＭＳ ゴシック
100
AcDbText
  0
TEXT
  5
163
330
1F
100
AcDbEntity
  8
D-4
  6
Continuous
 62
     2
370
     9
100
AcDbText
 10
-238.6460965984387
 20
-435.3035042991718
 30
0.0
 40
30.48
  1
17
 50
90.00000250447789
 41
1.062500000000001
  7
ＭＳ ゴシック
100
AcDbText
  0
LINE
  5
164
330
1F
100
AcDbEntity
  8
D-3
  6
Continuous
 62
     2
370
     9
100
AcDbLine
 10
-219.5196096478492
 20
-421.554813320443
 30
0.0
 11
-47.40117543737597
 21
-421.554813320443
 31
0.0
  0
LINE
  5
165
330
1F
100
AcDbEntity
  8
D-0
  6
Continuous
 62
     7
370
     9
100
AcDbLine
 10
-510.3091518948805
 20
-613.2860075172936
 30
0.0
 11
-510.3091518948805
 21
-611.7857252296959
 31
0.0
  0
LINE
  5
166
330
1F
100
AcDbEntity
  8
D-0
  6
Continuous
 62
     7
370
     9
100
AcDbLine
 10
-510.3091518948805
 20
-611.7857252296959
 30
0.0
 11
-508.8088696072828
 21
-611.7857252296959
 31
0.0
  0
LINE
  5
167
330
1F
100
AcDbEntity
  8
D-0
  6
Continuous
 62
     7
370
     9
100
AcDbLine
 10
-508.8088696072828
 20
-611.7857252296959
 30
0.0
 11
-508.8088696072828
 21
-613.2860075172936
 31
0.0
  0
LINE
  5
168
330
1F
100
AcDbEntity
  8
D-0
  6
Continuous
 62
     7
370
     9
100
AcDbLine
 10
-508.8088696072828
 20
-613.2860075172936
 30
0.0
 11
-510.3091518948805
 21
-613.2860075172936
 31
0.0
  0
LINE
  5
169
330
1F
100
AcDbEntity
  8
D-4
  6
Continuous
 62
     7
370
     9
100
AcDbLine
 10
-462.4020042319058
 20
-586.238935116168
 30
0.0
 11
-617.4021227784108
 21
-586.238935116168
 31
0.0
  0
LWPOLYLINE
  5
16A
330
1F
100
AcDbEntity
  8
D-4
  6
Continuous
 62
     7
370
     9
100
AcDbPolyline
 90
        4
 70
     1
 43
1.0
 10
-616.9021227784108
 20
-586.238935116168
 42
0.4142135623731
 10
-617.4021227784108
 20
-585.738935116168
 42
0.4142135623731
 10
-617.9021227784107
 20
-586.238935116168
 42
0.4142135623731
 10
-617.4021227784108
 20
-586.738935116168
 42
0.4142135623731
  0
TEXT
  5
16B
330
1F
100
AcDbEntity
  8
D-4
  6
Continuous
 62
     2
370
   211
100
AcDbText
 10
-561.152063505158
 20
-575.598935116168
 30
0.0
 40
30.48
  1
31
 41
1.0625
  7
ＭＳ ゴシック
100
AcDbText
  0
LINE
  5
16C
330
1F
100
AcDbEntity
  8
D-1
  6
Continuous
 62
     2
370
     9
100
AcDbLine
 10
-467.4027944007867
 20
-376.5539649553369
 30
0.0
 11
-482.4023772879423
 21
-376.5539649553369
 31
0.0
  0
LINE
  5
16D
330
1F
100
AcDbEntity
  8
D-1
  6
Continuous
 62
     2
370
     9
100
AcDbLine
 10
-462.4027001379978
 20
-469.0539590639121
 30
0.0
 11
-467.4027944007867
 21
-469.0539590639121
 31
0.0
  0
LINE
  5
16E
330
1F
100
AcDbEntity
  8
D-1
  6
Continuous
 62
     2
370
     9
100
AcDbLine
 10
-467.4027944007867
 20
-491.5536833452523
 30
0.0
 11
-467.4027944007867
 21
-469.0539590639121
 31
0.0
  0
LINE
  5
16F
330
1F
100
AcDbEntity
  8
D-1
  6
Continuous
 62
     2
370
     9
100
AcDbLine
 10
-462.4027001379978
 20
-399.053689236677
 30
0.0
 11
-467.4027944007867
 21
-399.053689236677
 31
0.0
  0
LINE
  5
170
330
1F
100
AcDbEntity
  8
D-1
  6
Continuous
 62
     2
370
     9
100
AcDbLine
 10
-467.4027944007867
 20
-399.053689236677
 30
0.0
 11
-467.4027944007867
 21
-376.5539649553369
 31
0.0
  0
LINE
  5
171
330
1F
100
AcDbEntity
  8
D-1
  6
Continuous
 62
     2
370
     9
100
AcDbLine
 10
-462.4027001379978
 20
-374.553647289735
 30
0.0
 11
-462.4027001379978
 21
-399.053689236677
 31
0.0
  0
LINE
  5
172
330
1F
100
AcDbEntity
  8
D-1
  6
Continuous
 62
     2
370
     9
100
AcDbLine
 10
-462.4027001379978
 20
-493.554001010853
 30
0.0
 11
-462.4027001379978
 21
-469.0539590639121
 31
0.0
  0
LINE
  5
173
330
1F
100
AcDbEntity
  8
D-1
  6
Continuous
 62
     2
370
     9
100
AcDbLine
 10
-487.4031714519447
 20
-486.553939033069
 30
0.0
 11
-537.4027142774157
 21
-486.553939033069
 31
0.0
  0
LINE
  5
174
330
1F
100
AcDbEntity
  8
D-1
  6
Continuous
 62
     2
370
     9
100
AcDbLine
 10
-482.4023772879423
 20
-486.553939033069
 30
0.0
 11
-482.4023772879423
 21
-376.5539649553369
 31
0.0
  0
LINE
  5
175
330
1F
100
AcDbEntity
  8
D-1
  6
Continuous
 62
     2
370
     9
100
AcDbLine
 10
-487.4031714519447
 20
-486.553939033069
 30
0.0
 11
-487.4031714519447
 21
-374.553647289735
 31
0.0
  0
LINE
  5
176
330
1F
100
AcDbEntity
  8
D-1
  6
Continuous
 62
     2
370
     9
100
AcDbLine
 10
-557.6900508257388
 20
-479.3428568396876
 30
0.0
 11
-537.4027142774157
 21
-486.553939033069
 31
0.0
  0
LINE
  5
177
330
1F
100
AcDbEntity
  8
D-1
  6
Continuous
 62
     2
370
     9
100
AcDbLine
 10
-538.7731208516796
 20
-491.2653240456626
 30
0.0
 11
-559.068856214554
 21
-484.0538919016745
 31
0.0
  0
LINE
  5
178
330
1F
100
AcDbEntity
  8
D-1
  6
Continuous
 62
     2
370
     9
100
AcDbLine
 10
-612.4027284168342
 20
-491.5536833452523
 30
0.0
 11
-467.4027944007867
 21
-491.5536833452523
 31
0.0
  0
LINE
  5
179
330
1F
100
AcDbEntity
  8
D-1
  6
Continuous
 62
     2
370
     9
100
AcDbLine
 10
-612.4027284168342
 20
-491.5536833452523
 30
0.0
 11
-612.4027284168342
 21
-484.0538919016745
 31
0.0
  0
LINE
  5
17A
330
1F
100
AcDbEntity
  8
D-1
  6
Continuous
 62
     2
370
     9
100
AcDbLine
 10
-612.4027284168342
 20
-496.554127558648
 30
0.0
 11
-465.4024767351848
 21
-496.554127558648
 31
0.0
  0
LINE
  5
17B
330
1F
100
AcDbEntity
  8
D-1
  6
Continuous
 62
     2
370
     9
100
AcDbLine
 10
-617.4028226796243
 20
-491.5536833452523
 30
0.0
 11
-617.4028226796243
 21
-484.0538919016745
 31
0.0
  0
LINE
  5
17C
330
1F
100
AcDbEntity
  8
D-1
  6
Continuous
 62
     2
370
     9
100
AcDbLine
 10
-575.5725268075794
 20
-479.7239530499456
 30
0.0
 11
-587.4029570040984
 21
-486.553939033069
 31
0.0
  0
LINE
  5
17D
330
1F
100
AcDbEntity
  8
D-1
  6
Continuous
 62
     2
370
     9
100
AcDbLine
 10
-584.902909872704
 20
-490.8838778847979
 30
0.0
 11
-573.0724796761849
 21
-484.0538919016745
 31
0.0
  0
LINE
  5
17E
330
1F
100
AcDbEntity
  8
D-1
  6
Continuous
 62
     2
370
     9
100
AcDbLine
 10
-589.9023042342806
 20
-490.8838778847979
 30
0.0
 11
-601.7327344307996
 21
-484.0538919016745
 31
0.0
  0
LINE
  5
17F
330
1F
100
AcDbEntity
  8
D-1
  6
Continuous
 62
     2
370
     9
100
AcDbLine
 10
-599.2326872994051
 20
-479.7239530499456
 30
0.0
 11
-587.4029570040984
 21
-486.553939033069
 31
0.0
  0
LINE
  5
180
330
1F
100
AcDbEntity
  8
D-1
  6
Continuous
 62
     2
370
     9
100
AcDbLine
 10
-559.068856214554
 20
-484.0538919016745
 30
0.0
 11
-573.0724796761849
 21
-484.0538919016745
 31
0.0
  0
LINE
  5
181
330
1F
100
AcDbEntity
  8
D-1
  6
Continuous
 62
     2
370
     9
100
AcDbLine
 10
-601.7327344307996
 20
-484.0538919016745
 30
0.0
 11
-612.4027284168342
 21
-484.0538919016745
 31
0.0
  0
LINE
  5
182
330
1F
100
AcDbEntity
  8
D-1
  6
Continuous
 62
     2
370
     9
100
AcDbLine
 10
-559.3649144274816
 20
-479.0541475894912
 30
0.0
 11
-573.0724796761849
 21
-479.0541475894912
 31
0.0
  0
LINE
  5
183
330
1F
100
AcDbEntity
  8
D-1
  6
Continuous
 62
     2
370
     9
100
AcDbLine
 10
-601.7327344307996
 20
-479.0541475894912
 30
0.0
 11
-612.4027284168342
 21
-479.0541475894912
 31
0.0
  0
LINE
  5
184
330
1F
100
AcDbEntity
  8
D-1
  6
Continuous
 62
     2
370
     9
100
AcDbLine
 10
-484.4019950523307
 20
-371.5545705937591
 30
0.0
 11
-465.4024767351848
 21
-371.5545705937591
 31
0.0
  0
ARC
  5
185
330
1F
100
AcDbEntity
  8
D-1
  6
Continuous
 62
     2
370
     9
100
AcDbCircle
 10
-612.4027284168342
 20
-484.0538919016745
 30
0.0
 40
4.999999940165221
100
AcDbArc
 50
90.0
 51
180.0
  0
ARC
  5
186
330
1F
100
AcDbEntity
  8
D-1
  6
Continuous
 62
     2
370
     9
100
AcDbCircle
 10
-465.4024767351848
 20
-374.553647289735
 30
0.0
 40
3.000000100798588
100
AcDbArc
 50
0.0
 51
90.0
  0
ARC
  5
187
330
1F
100
AcDbEntity
  8
D-1
  6
Continuous
 62
     2
370
     9
100
AcDbCircle
 10
-484.4019950523307
 20
-374.553647289735
 30
0.0
 40
3.000000100798588
100
AcDbArc
 50
90.0
 51
180.0
  0
ARC
  5
188
330
1F
100
AcDbEntity
  8
D-1
  6
Continuous
 62
     2
370
     9
100
AcDbCircle
 10
-465.4024767351848
 20
-493.554001010853
 30
0.0
 40
3.000000100798588
100
AcDbArc
 50
270.0
 51
0.0
  0
ARC
  5
189
330
1F
100
AcDbEntity
  8
D-1
  6
Continuous
 62
     2
370
     9
100
AcDbCircle
 10
-487.4031714519447
 20
-486.553939033069
 30
0.0
 40
4.999999940165221
100
AcDbArc
 50
270.0
 51
0.0
  0
ARC
  5
18A
330
1F
100
AcDbEntity
  8
D-1
  6
Continuous
 62
     2
370
     9
100
AcDbCircle
 10
-559.3649144274816
 20
-484.0538919016745
 30
0.0
 40
4.999999940165221
100
AcDbArc
 50
70.43162536621094
 51
90.0
  0
ARC
  5
18B
330
1F
100
AcDbEntity
  8
D-1
  6
Continuous
 62
     2
370
     9
100
AcDbCircle
 10
-537.0989571511479
 20
-486.553939033069
 30
0.0
 40
4.999999940165221
100
AcDbArc
 50
250.4390106201172
 51
270.0
  0
ARC
  5
18C
330
1F
100
AcDbEntity
  8
D-1
  6
Continuous
 62
     2
370
     9
100
AcDbCircle
 10
-612.4027284168342
 20
-491.5536833452523
 30
0.0
 40
4.999999940165221
100
AcDbArc
 50
180.0
 51
270.0
  0
ARC
  5
18D
330
1F
100
AcDbEntity
  8
D-1
  6
Continuous
 62
     2
370
     9
100
AcDbCircle
 10
-601.7327344307996
 20
-484.0538919016745
 30
0.0
 40
4.999999940165221
100
AcDbArc
 50
59.99996948242189
 51
90.00000000000001
  0
ARC
  5
18E
330
1F
100
AcDbEntity
  8
D-1
  6
Continuous
 62
     2
370
     9
100
AcDbCircle
 10
-573.0724796761849
 20
-484.0538919016745
 30
0.0
 40
4.999999940165221
100
AcDbArc
 50
90.0
 51
120.0000305175781
  0
ARC
  5
18F
330
1F
100
AcDbEntity
  8
D-1
  6
Continuous
 62
     2
370
     9
100
AcDbCircle
 10
-587.4029570040984
 20
-486.553939033069
 30
0.0
 40
4.999999940165221
100
AcDbArc
 50
239.9999694824219
 51
300.0000305175781
  0
LINE
  5
190
330
1F
100
AcDbEntity
  8
D-9
  6
Continuous
 62
     4
370
     9
100
AcDbLine
 10
-487.4017716495201
 20
-482.9291506530324
 30
0.0
 11
-491.0265600295572
 21
-486.553939033069
 31
0.0
  0
LINE
  5
191
330
1F
100
AcDbEntity
  8
D-9
  6
Continuous
 62
     4
370
     9
100
AcDbLine
 10
-602.4018399900417
 20
-474.0540533267022
 30
0.0
 11
-487.4017716495201
 21
-474.0540533267022
 31
0.0
  0
LINE
  5
192
330
1F
100
AcDbEntity
  8
D-9
  6
Continuous
 62
     4
370
     9
100
AcDbLine
 10
-487.4017716495201
 20
-475.8583986527759
 30
0.0
 11
-498.0983618816328
 21
-486.553939033069
 31
0.0
  0
LINE
  5
193
330
1F
100
AcDbEntity
  8
D-9
  6
Continuous
 62
     4
370
     9
100
AcDbLine
 10
-492.668528274308
 20
-474.0540533267022
 30
0.0
 11
-505.169463832495
 21
-486.553939033069
 31
0.0
  0
LINE
  5
194
330
1F
100
AcDbEntity
  8
D-9
  6
Continuous
 62
     4
370
     9
100
AcDbLine
 10
-499.7403301263836
 20
-474.0540533267022
 30
0.0
 11
-512.2405657833572
 21
-486.553939033069
 31
0.0
  0
LINE
  5
195
330
1F
100
AcDbEntity
  8
D-9
  6
Continuous
 62
     4
370
     9
100
AcDbLine
 10
-506.8114320772458
 20
-474.0540533267022
 30
0.0
 11
-519.3109678330081
 21
-486.553939033069
 31
0.0
  0
LINE
  5
196
330
1F
100
AcDbEntity
  8
D-9
  6
Continuous
 62
     4
370
     9
100
AcDbLine
 10
-513.8818341268968
 20
-474.0540533267022
 30
0.0
 11
-526.3820697838703
 21
-486.553939033069
 31
0.0
  0
LINE
  5
197
330
1F
100
AcDbEntity
  8
D-9
  6
Continuous
 62
     4
370
     9
100
AcDbLine
 10
-520.952936077759
 20
-474.0540533267022
 30
0.0
 11
-533.4538716359459
 21
-486.553939033069
 31
0.0
  0
LINE
  5
198
330
1F
100
AcDbEntity
  8
D-9
  6
Continuous
 62
     4
370
     9
100
AcDbLine
 10
-528.0240380286223
 20
-474.0540533267022
 30
0.0
 11
-539.5094169273314
 21
-485.5383823735922
 31
0.0
  0
LINE
  5
199
330
1F
100
AcDbEntity
  8
D-9
  6
Continuous
 62
     4
370
     9
100
AcDbLine
 10
-535.0958398806968
 20
-474.0540533267022
 30
0.0
 11
-544.9231528067646
 21
-483.8810163021633
 31
0.0
  0
LINE
  5
19A
330
1F
100
AcDbEntity
  8
D-9
  6
Continuous
 62
     4
370
     9
100
AcDbLine
 10
-542.1662419303477
 20
-474.0540533267022
 30
0.0
 11
-550.1388166430349
 21
-482.026977989995
 31
0.0
  0
LINE
  5
19B
330
1F
100
AcDbEntity
  8
D-9
  6
Continuous
 62
     4
370
     9
100
AcDbLine
 10
-549.2373438812099
 20
-474.0540533267022
 30
0.0
 11
-555.3551803805165
 21
-480.17258972722
 31
0.0
  0
LINE
  5
19C
330
1F
100
AcDbEntity
  8
D-9
  6
Continuous
 62
     4
370
     9
100
AcDbLine
 10
-556.308445832072
 20
-474.0540533267022
 30
0.0
 11
-561.3092399960744
 21
-479.0541475894912
 31
0.0
  0
LINE
  5
19D
330
1F
100
AcDbEntity
  8
D-9
  6
Continuous
 62
     4
370
     9
100
AcDbLine
 10
-563.3802476841477
 20
-474.0540533267022
 30
0.0
 11
-568.3796420457254
 21
-479.0541475894912
 31
0.0
  0
LINE
  5
19E
330
1F
100
AcDbEntity
  8
D-9
  6
Continuous
 62
     4
370
     9
100
AcDbLine
 10
-598.7357574384607
 20
-474.0540533267022
 30
0.0
 11
-603.7351518000385
 21
-479.0541475894912
 31
0.0
  0
LINE
  5
19F
330
1F
100
AcDbEntity
  8
D-9
  6
Continuous
 62
     4
370
     9
100
AcDbLine
 10
-570.4506497337986
 20
-474.0540533267022
 30
0.0
 11
-576.8687438533091
 21
-480.4721474462115
 31
0.0
  0
LINE
  5
1A0
330
1F
100
AcDbEntity
  8
D-9
  6
Continuous
 62
     4
370
     9
100
AcDbLine
 10
-577.5217516846608
 20
-474.0540533267022
 30
0.0
 11
-589.0631226803778
 21
-485.5954243224181
 31
0.0
  0
LINE
  5
1A1
330
1F
100
AcDbEntity
  8
D-9
  6
Continuous
 62
     4
370
     9
100
AcDbLine
 10
-584.5928536355229
 20
-474.0540533267022
 30
0.0
 11
-593.5459899470591
 21
-483.0068396876305
 31
0.0
  0
LINE
  5
1A2
330
1F
100
AcDbEntity
  8
D-9
  6
Continuous
 62
     4
370
     9
100
AcDbLine
 10
-591.6646554875986
 20
-474.0540533267022
 30
0.0
 11
-598.0281573125269
 21
-480.4193049046608
 31
0.0
  0
ARC
  5
1A3
330
1F
100
AcDbEntity
  8
D-9
  6
Continuous
 62
     4
370
     9
100
AcDbCircle
 10
-602.4018399900417
 20
-479.0541475894912
 30
0.0
 40
4.999999940165221
100
AcDbArc
 50
90.0
 51
180.0
  0
LINE
  5
1A4
330
1F
100
AcDbEntity
  8
D-2
  6
Continuous
 62
     4
370
     9
100
AcDbLine
 10
-617.4028226796243
 20
-474.0540533267022
 30
0.0
 11
-617.4028226796243
 21
-464.0538648011221
 31
0.0
  0
LINE
  5
1A5
330
1F
100
AcDbEntity
  8
D-2
  6
Continuous
 62
     4
370
     9
100
AcDbLine
 10
-492.4029157641286
 20
-376.5536150047301
 30
0.0
 11
-492.4029157641286
 21
-461.5545175709399
 31
0.0
  0
LINE
  5
1A6
330
1F
100
AcDbEntity
  8
D-2
  6
Continuous
 62
     4
370
     9
100
AcDbLine
 10
-502.4027543391009
 20
-461.5545175709399
 30
0.0
 11
-502.4027543391009
 21
-376.5536150047301
 31
0.0
  0
ARC
  5
1A7
330
1F
100
AcDbEntity
  8
D-2
  6
Continuous
 62
     4
370
     9
100
AcDbCircle
 10
-504.9028014704965
 20
-461.5545175709399
 30
0.0
 40
2.499999970082611
100
AcDbArc
 50
270.0
 51
0.0
  0
ARC
  5
1A8
330
1F
100
AcDbEntity
  8
D-2
  6
Continuous
 62
     4
370
     9
100
AcDbCircle
 10
-504.9028014704965
 20
-461.5545175709399
 30
0.0
 40
12.50000053391033
100
AcDbArc
 50
270.0
 51
0.0
  0
LINE
  5
1A9
330
1F
100
AcDbEntity
  8
D-3
  6
Continuous
 62
     3
370
     9
100
AcDbLine
 10
-467.4027944007867
 20
-406.5545305320739
 30
0.0
 11
-467.4027944007867
 21
-376.5539649553369
 31
0.0
  0
LINE
  5
1AA
330
1F
100
AcDbEntity
  8
D-3
  6
Continuous
 62
     3
370
     9
100
AcDbLine
 10
-317.4020662207363
 20
-495.0545892106612
 30
0.0
 11
-442.4023230868375
 21
-495.0545892106612
 31
0.0
  0
LINE
  5
1AB
330
1F
100
AcDbEntity
  8
D-3
  6
Continuous
 62
     3
370
     9
100
AcDbLine
 10
-445.3321095627667
 20
-478.6251081461699
 30
0.0
 11
-467.4027944007867
 21
-456.554423308151
 31
0.0
  0
LINE
  5
1AC
330
1F
100
AcDbEntity
  8
D-3
  6
Continuous
 62
     3
370
     9
100
AcDbLine
 10
-442.4023230868375
 20
-506.5539661336214
 30
0.0
 11
-442.4023230868375
 21
-485.6962100970321
 31
0.0
  0
LINE
  5
1AD
330
1F
100
AcDbEntity
  8
D-3
  6
Continuous
 62
     3
370
     9
100
AcDbLine
 10
-317.4020662207363
 20
-506.5539661336214
 30
0.0
 11
-442.4023230868375
 21
-506.5539661336214
 31
0.0
  0
LINE
  5
1AE
330
1F
100
AcDbEntity
  8
D-3
  6
Continuous
 62
     3
370
     9
100
AcDbLine
 10
-467.4027944007867
 20
-489.0536362138578
 30
0.0
 11
-467.4027944007867
 21
-456.554423308151
 31
0.0
  0
LINE
  5
1AF
330
1F
100
AcDbEntity
  8
D-3
  6
Continuous
 62
     3
370
     9
100
AcDbLine
 10
-467.4027944007867
 20
-489.0536362138578
 30
0.0
 11
-478.9021713237481
 21
-489.0536362138578
 31
0.0
  0
LINE
  5
1B0
330
1F
100
AcDbEntity
  8
D-3
  6
Continuous
 62
     3
370
     9
100
AcDbLine
 10
-478.9021713237481
 20
-376.5539649553369
 30
0.0
 11
-478.9021713237481
 21
-489.0536362138578
 31
0.0
  0
LINE
  5
1B1
330
1F
100
AcDbEntity
  8
D-3
  6
Continuous
 62
     3
370
     9
100
AcDbLine
 10
-404.9765055456646
 20
-456.554423308151
 30
0.0
 11
-327.4029546475276
 21
-456.554423308151
 31
0.0
  0
LINE
  5
1B2
330
1F
100
AcDbEntity
  8
D-3
  6
Continuous
 62
     3
370
     9
100
AcDbLine
 10
-478.9021713237481
 20
-376.5539649553369
 30
0.0
 11
-467.4027944007867
 21
-376.5539649553369
 31
0.0
  0
LINE
  5
1B3
330
1F
100
AcDbEntity
  8
D-3
  6
Continuous
 62
     3
370
     9
100
AcDbLine
 10
-317.4020662207363
 20
-466.55461183373
 30
0.0
 11
-317.4020662207363
 21
-506.5539661336214
 31
0.0
  0
LINE
  5
1B4
330
1F
100
AcDbEntity
  8
D-3
  6
JWW_DASHED1
 62
     3
370
     9
100
AcDbLine
 10
-467.4027944007867
 20
-406.5545305320739
 30
0.0
 11
-467.4027944007867
 21
-456.554423308151
 31
0.0
  0
ARC
  5
1B5
330
1F
100
AcDbEntity
  8
D-3
  6
Continuous
 62
     3
370
     9
100
AcDbCircle
 10
-452.4025116124176
 20
-485.6962100970321
 30
0.0
 40
9.999999880330442
100
AcDbArc
 50
0.0
 51
45.0
  0
ARC
  5
1B6
330
1F
100
AcDbEntity
  8
D-3
  6
Continuous
 62
     3
370
     9
100
AcDbCircle
 10
-404.9765055456646
 20
-426.554907583233
 30
0.0
 40
29.99999964099133
100
AcDbArc
 50
224.9996643066406
 51
270.0
  0
ARC
  5
1B7
330
1F
100
AcDbEntity
  8
D-3
  6
Continuous
 62
     3
370
     9
100
AcDbCircle
 10
-327.4029546475276
 20
-466.55461183373
 30
0.0
 40
9.999999880330442
100
AcDbArc
 50
0.0
 51
90.0
  0
LINE
  5
1B8
330
1F
100
AcDbEntity
  8
D-2
  6
Continuous
 62
     7
370
     9
100
AcDbLine
 10
-509.9028957332854
 20
-451.5357816632268
 30
0.0
 11
-502.4027543391009
 21
-459.0359230574114
 31
0.0
  0
LINE
  5
1B9
330
1F
100
AcDbEntity
  8
D-4
  6
Continuous
 62
     7
370
     9
100
AcDbLine
 10
-622.3259767078498
 20
-496.5539599108041
 30
0.0
 11
-719.090162085369
 21
-496.5539599108041
 31
0.0
  0
LINE
  5
1BA
330
1F
100
AcDbEntity
  8
D-4
  6
Continuous
 62
     7
370
     9
100
AcDbLine
 10
-499.6816017412283
 20
-371.5541196512521
 30
0.0
 11
-719.090162085369
 21
-371.5541196512521
 31
0.0
  0
LWPOLYLINE
  5
1BB
330
1F
100
AcDbEntity
  8
D-4
  6
Continuous
 62
     7
370
     9
100
AcDbPolyline
 90
        4
 70
     1
 43
1.0
 10
-715.5905893314628
 20
-496.5539599108041
 42
0.4142135623731
 10
-716.0905893314628
 20
-496.0539599108041
 42
0.4142135623731
 10
-716.5905893314628
 20
-496.5539599108041
 42
0.4142135623731
 10
-716.0905893314628
 20
-497.053959910804
 42
0.4142135623731
  0
LWPOLYLINE
  5
1BC
330
1F
100
AcDbEntity
  8
D-4
  6
Continuous
 62
     7
370
     9
100
AcDbPolyline
 90
        4
 70
     1
 43
1.0
 10
-715.5905893314628
 20
-371.5541196512521
 42
0.4142135623731
 10
-716.0905893314628
 20
-371.0541196512521
 42
0.4142135623731
 10
-716.5905893314628
 20
-371.5541196512521
 42
0.4142135623731
 10
-716.0905893314628
 20
-372.054119651252
 42
0.4142135623731
  0
LINE
  5
1BD
330
1F
100
AcDbEntity
  8
D-4
  6
Continuous
 62
     7
370
     9
100
AcDbLine
 10
-716.0905893314628
 20
-554.2847646019037
 30
0.0
 11
-716.0905893314628
 21
-371.5541196512521
 31
0.0
  0
TEXT
  5
1BE
330
1F
100
AcDbEntity
  8
D-4
  6
Continuous
 62
     2
370
     9
100
AcDbText
 10
-726.7308563602713
 20
-552.5195954232512
 30
0.0
 40
30.48
  1
25
 50
90.00000250000025
 41
1.062499999999999
  7
ＭＳ ゴシック
100
AcDbText
  0
LINE
  5
1BF
330
1F
100
AcDbEntity
  8
D-2
  6
Continuous
 62
     7
370
     9
100
AcDbLine
 10
-1128.857276313642
 20
-426.5536150047301
 30
0.0
 11
-1113.85675079859
 21
-441.5541405197819
 31
0.0
  0
LINE
  5
1C0
330
1F
100
AcDbEntity
  8
D-2
  6
Continuous
 62
     7
370
     9
100
AcDbLine
 10
-1150.070232209961
 20
-426.5536150047301
 30
0.0
 11
-1135.070056651178
 21
-441.5541405197819
 31
0.0
  0
LINE
  5
1C1
330
1F
100
AcDbEntity
  8
D-2
  6
Continuous
 62
     7
370
     9
100
AcDbLine
 10
-1171.283538062549
 20
-426.5536150047301
 30
0.0
 11
-1156.283362503767
 21
-441.5541405197819
 31
0.0
  0
LINE
  5
1C2
330
1F
100
AcDbEntity
  8
D-2
  6
Continuous
 62
     7
370
     9
100
AcDbLine
 10
-1044.004052897627
 20
-426.5536150047301
 30
0.0
 11
-1029.003877338844
 21
-441.5541405197819
 31
0.0
  0
LINE
  5
1C3
330
1F
100
AcDbEntity
  8
D-2
  6
Continuous
 62
     7
370
     9
100
AcDbLine
 10
-513.6714065735125
 20
-426.5536150047301
 30
0.0
 11
-502.4027543391009
 21
-437.8229671554305
 31
0.0
  0
LINE
  5
1C4
330
1F
100
AcDbEntity
  8
D-2
  6
Continuous
 62
     7
370
     9
100
AcDbLine
 10
-534.8850623861194
 20
-426.5536150047301
 30
0.0
 11
-519.8848868273371
 21
-441.5541405197819
 31
0.0
  0
LINE
  5
1C5
330
1F
100
AcDbEntity
  8
D-2
  6
Continuous
 62
     7
370
     9
100
AcDbLine
 10
-556.0983682387082
 20
-426.5536150047301
 30
0.0
 11
-541.0981926799248
 21
-441.5541405197819
 31
0.0
  0
LINE
  5
1C6
330
1F
100
AcDbEntity
  8
D-2
  6
Continuous
 62
     7
370
     9
100
AcDbLine
 10
-577.3116740912958
 20
-426.5536150047301
 30
0.0
 11
-562.3114985325135
 21
-441.5541405197819
 31
0.0
  0
LINE
  5
1C7
330
1F
100
AcDbEntity
  8
D-2
  6
Continuous
 62
     7
370
     9
100
AcDbLine
 10
-598.5253299001529
 20
-426.5536150047301
 30
0.0
 11
-583.5248043851011
 21
-441.5541405197819
 31
0.0
  0
LINE
  5
1C8
330
1F
100
AcDbEntity
  8
D-2
  6
Continuous
 62
     7
370
     9
100
AcDbLine
 10
-619.7382858021349
 20
-426.5536150047301
 30
0.0
 11
-604.7377602870831
 21
-441.5541405197819
 31
0.0
  0
LINE
  5
1C9
330
1F
100
AcDbEntity
  8
D-2
  6
Continuous
 62
     7
370
     9
100
AcDbLine
 10
-640.9515916547224
 20
-426.5536150047301
 30
0.0
 11
-625.9510661396719
 21
-441.5541405197819
 31
0.0
  0
LINE
  5
1CA
330
1F
100
AcDbEntity
  8
D-2
  6
Continuous
 62
     7
370
     9
100
AcDbLine
 10
-662.1652474579167
 20
-426.5536150047301
 30
0.0
 11
-647.1647219428661
 21
-441.5541405197819
 31
0.0
  0
LINE
  5
1CB
330
1F
100
AcDbEntity
  8
D-2
  6
Continuous
 62
     7
370
     9
100
AcDbLine
 10
-683.3782033542359
 20
-426.5536150047301
 30
0.0
 11
-668.3780277954537
 21
-441.5541405197819
 31
0.0
  0
LINE
  5
1CC
330
1F
100
AcDbEntity
  8
D-2
  6
Continuous
 62
     7
370
     9
100
AcDbLine
 10
-725.8048150594117
 20
-426.5536150047301
 30
0.0
 11
-710.8046395006294
 21
-441.5541405197819
 31
0.0
  0
LINE
  5
1CD
330
1F
100
AcDbEntity
  8
D-2
  6
Continuous
 62
     7
370
     9
100
AcDbLine
 10
-704.5915092068241
 20
-426.5536150047301
 30
0.0
 11
-689.5913336480412
 21
-441.5541405197819
 31
0.0
  0
LINE
  5
1CE
330
1F
100
AcDbEntity
  8
D-2
  6
Continuous
 62
     7
370
     9
100
AcDbLine
 10
-747.0181209119999
 20
-426.5536150047301
 30
0.0
 11
-732.0179453532176
 21
-441.5541405197819
 31
0.0
  0
LINE
  5
1CF
330
1F
100
AcDbEntity
  8
D-2
  6
Continuous
 62
     7
370
     9
100
AcDbLine
 10
-768.231426764588
 20
-426.5536150047301
 30
0.0
 11
-753.2312512058057
 21
-441.5541405197819
 31
0.0
  0
LINE
  5
1D0
330
1F
100
AcDbEntity
  8
D-2
  6
Continuous
 62
     7
370
     9
100
AcDbLine
 10
-789.4447326171762
 20
-426.5536150047301
 30
0.0
 11
-774.4445570583939
 21
-441.5541405197819
 31
0.0
  0
LINE
  5
1D1
330
1F
100
AcDbEntity
  8
D-2
  6
Continuous
 62
     7
370
     9
100
AcDbLine
 10
-810.6580384697644
 20
-426.5536150047301
 30
0.0
 11
-795.6578629109821
 21
-441.5541405197819
 31
0.0
  0
LINE
  5
1D2
330
1F
100
AcDbEntity
  8
D-2
  6
Continuous
 62
     7
370
     9
100
AcDbLine
 10
-831.8713443223526
 20
-426.5536150047301
 30
0.0
 11
-816.8711687635697
 21
-441.5541405197819
 31
0.0
  0
LINE
  5
1D3
330
1F
100
AcDbEntity
  8
D-2
  6
Continuous
 62
     7
370
     9
100
AcDbLine
 10
-874.2979560275284
 20
-426.5536150047301
 30
0.0
 11
-859.297780468746
 21
-441.5541405197819
 31
0.0
  0
LINE
  5
1D4
330
1F
100
AcDbEntity
  8
D-2
  6
Continuous
 62
     7
370
     9
100
AcDbLine
 10
-853.0846501749402
 20
-426.5536150047301
 30
0.0
 11
-838.0844746161579
 21
-441.5541405197819
 31
0.0
  0
LINE
  5
1D5
330
1F
100
AcDbEntity
  8
D-2
  6
Continuous
 62
     7
370
     9
100
AcDbLine
 10
-895.5112618801165
 20
-426.5536150047301
 30
0.0
 11
-880.5110863213342
 21
-441.5541405197819
 31
0.0
  0
LINE
  5
1D6
330
1F
100
AcDbEntity
  8
D-2
  6
Continuous
 62
     7
370
     9
100
AcDbLine
 10
-916.7245677383675
 20
-426.5536150047301
 30
0.0
 11
-901.7240422233157
 21
-441.5541405197819
 31
0.0
  0
LINE
  5
1D7
330
1F
100
AcDbEntity
  8
D-2
  6
Continuous
 62
     7
370
     9
100
AcDbLine
 10
-937.9378735909556
 20
-426.5536150047301
 30
0.0
 11
-922.9373480759039
 21
-441.5541405197819
 31
0.0
  0
LINE
  5
1D8
330
1F
100
AcDbEntity
  8
D-2
  6
Continuous
 62
     7
370
     9
100
AcDbLine
 10
-959.1511794435432
 20
-426.5536150047301
 30
0.0
 11
-944.150653928492
 21
-441.5541405197819
 31
0.0
  0
LINE
  5
1D9
330
1F
100
AcDbEntity
  8
D-2
  6
Continuous
 62
     7
370
     9
100
AcDbLine
 10
-980.3641353398625
 20
-426.5536150047301
 30
0.0
 11
-965.3639597810802
 21
-441.5541405197819
 31
0.0
  0
LINE
  5
1DA
330
1F
100
AcDbEntity
  8
D-2
  6
Continuous
 62
     7
370
     9
100
AcDbLine
 10
-1001.577441192451
 20
-426.5536150047301
 30
0.0
 11
-986.5772656336684
 21
-441.5541405197819
 31
0.0
  0
LINE
  5
1DB
330
1F
100
AcDbEntity
  8
D-2
  6
Continuous
 62
     7
370
     9
100
AcDbLine
 10
-1022.790747045039
 20
-426.5536150047301
 30
0.0
 11
-1007.790571486257
 21
-441.5541405197819
 31
0.0
  0
LINE
  5
1DC
330
1F
100
AcDbEntity
  8
D-2
  6
Continuous
 62
     2
370
     9
100
AcDbLine
 10
-527.4025257518367
 20
-376.5536150047301
 30
0.0
 11
-527.4025257518367
 21
-426.5536150047301
 31
0.0
  0
LINE
  5
1DD
330
1F
100
AcDbEntity
  8
D-2
  6
Continuous
 62
     2
370
     9
100
AcDbLine
 10
-1190.071525383269
 20
-426.5536150047301
 30
0.0
 11
-502.4027543391009
 21
-426.5536150047301
 31
0.0
  0
LINE
  5
1DE
330
1F
100
AcDbEntity
  8
D-5
  6
Continuous
 62
     6
370
     9
100
AcDbLine
 10
-510.4050748533229
 20
-380.9867892853168
 30
0.0
 11
-527.4025257518367
 21
-397.9842401838294
 31
0.0
  0
LINE
  5
1DF
330
1F
100
AcDbEntity
  8
D-5
  6
Continuous
 62
     6
370
     9
100
AcDbLine
 10
-502.4027543391009
 20
-387.1259727716068
 30
0.0
 11
-527.4025257518367
 21
-412.1257441843425
 31
0.0
  0
LINE
  5
1E0
330
1F
100
AcDbEntity
  8
D-5
  6
Continuous
 62
     6
370
     9
100
AcDbLine
 10
-502.4027543391009
 20
-401.2674767721199
 30
0.0
 11
-527.4025257518367
 21
-426.2672481848556
 31
0.0
  0
LINE
  5
1E1
330
1F
100
AcDbEntity
  8
D-5
  6
Continuous
 62
     6
370
     9
100
AcDbLine
 10
-502.4027543391009
 20
-415.408980772633
 30
0.0
 11
-513.5473885711981
 21
-426.5536150047301
 31
0.0
  0
LINE
  5
1E2
330
1F
100
AcDbEntity
  8
D-5
  6
Continuous
 62
     6
370
     9
100
AcDbLine
 10
-527.4025257518367
 20
-393.0037431549925
 30
0.0
 11
-502.4027543391009
 21
-418.0035145677282
 31
0.0
  0
LINE
  5
1E3
330
1F
100
AcDbEntity
  8
D-5
  6
Continuous
 62
     6
370
     9
100
AcDbLine
 10
-527.4025257518367
 20
-378.861539253267
 30
0.0
 11
-502.4027543391009
 21
-403.8613106660028
 31
0.0
  0
LINE
  5
1E4
330
1F
100
AcDbEntity
  8
D-5
  6
Continuous
 62
     6
370
     9
100
AcDbLine
 10
-527.4025257518367
 20
-421.2881509584434
 30
0.0
 11
-522.13706170555
 21
-426.5536150047301
 31
0.0
  0
LINE
  5
1E5
330
1F
100
AcDbEntity
  8
D-5
  6
Continuous
 62
     6
370
     9
100
AcDbLine
 10
-527.4025257518367
 20
-407.1459470567179
 30
0.0
 11
-507.9948578038245
 21
-426.5536150047301
 31
0.0
  0
LINE
  5
1E6
330
1F
100
AcDbEntity
  8
D-2
  6
Continuous
 62
     2
370
     9
100
AcDbLine
 10
-527.4025257518367
 20
-395.9125325945438
 30
0.0
 11
-558.043608162023
 21
-426.5536150047301
 31
0.0
  0
LINE
  5
1E7
330
1F
100
AcDbEntity
  8
D-2
  6
Continuous
 62
     2
370
     9
100
AcDbLine
 10
-946.4487795600529
 20
-376.5536150047301
 30
0.0
 11
-996.4487795600535
 21
-426.5536150047301
 31
0.0
  0
LINE
  5
1E8
330
1F
100
AcDbEntity
  8
D-2
  6
Continuous
 62
     2
370
     9
100
AcDbLine
 10
-932.3067506336308
 20
-376.5536150047301
 30
0.0
 11
-982.306925608085
 21
-426.5536150047301
 31
0.0
  0
LINE
  5
1E9
330
1F
100
AcDbEntity
  8
D-2
  6
Continuous
 62
     2
370
     9
100
AcDbLine
 10
-875.7381100020324
 20
-376.5536150047301
 30
0.0
 11
-925.7381100020324
 21
-426.5536150047301
 31
0.0
  0
LINE
  5
1EA
330
1F
100
AcDbEntity
  8
D-2
  6
Continuous
 62
     2
370
     9
100
AcDbLine
 10
-861.5962560509131
 20
-376.5536150047301
 30
0.0
 11
-911.5962560509137
 21
-426.5536150047301
 31
0.0
  0
LINE
  5
1EB
330
1F
100
AcDbEntity
  8
D-2
  6
Continuous
 62
     2
370
     9
100
AcDbLine
 10
-805.0274404440113
 20
-376.5536150047301
 30
0.0
 11
-855.0274404440119
 21
-426.5536150047301
 31
0.0
  0
LINE
  5
1EC
330
1F
100
AcDbEntity
  8
D-2
  6
Continuous
 62
     2
370
     9
100
AcDbLine
 10
-790.8859364434987
 20
-376.5536150047301
 30
0.0
 11
-840.8859364434993
 21
-426.5536150047301
 31
0.0
  0
LINE
  5
1ED
330
1F
100
AcDbEntity
  8
D-2
  6
Continuous
 62
     2
370
     9
100
AcDbLine
 10
-734.3171208365969
 20
-376.5536150047301
 30
0.0
 11
-784.3171208365975
 21
-426.5536150047301
 31
0.0
  0
LINE
  5
1EE
330
1F
100
AcDbEntity
  8
D-2
  6
Continuous
 62
     2
370
     9
100
AcDbLine
 10
-720.1752668854782
 20
-376.5536150047301
 30
0.0
 11
-770.1752668854788
 21
-426.5536150047301
 31
0.0
  0
LINE
  5
1EF
330
1F
100
AcDbEntity
  8
D-2
  6
Continuous
 62
     2
370
     9
100
AcDbLine
 10
-663.6068012291827
 20
-376.5536150047301
 30
0.0
 11
-713.6068012291831
 21
-426.5536150047301
 31
0.0
  0
LINE
  5
1F0
330
1F
100
AcDbEntity
  8
D-2
  6
Continuous
 62
     2
370
     9
100
AcDbLine
 10
-649.4645973274584
 20
-376.5536150047301
 30
0.0
 11
-699.4645973274583
 21
-426.5536150047301
 31
0.0
  0
LINE
  5
1F1
330
1F
100
AcDbEntity
  8
D-2
  6
Continuous
 62
     2
370
     9
100
AcDbLine
 10
-592.8961316711623
 20
-376.5536150047301
 30
0.0
 11
-642.8961316711625
 21
-426.5536150047301
 31
0.0
  0
LINE
  5
1F2
330
1F
100
AcDbEntity
  8
D-2
  6
Continuous
 62
     2
370
     9
100
AcDbLine
 10
-578.7542777200435
 20
-376.5536150047301
 30
0.0
 11
-628.7542777200435
 21
-426.5536150047301
 31
0.0
  0
LINE
  5
1F3
330
1F
100
AcDbEntity
  8
D-2
  6
Continuous
 62
     2
370
     9
100
AcDbLine
 10
-1003.017245216348
 20
-376.5536150047301
 30
0.0
 11
-1053.017499129144
 21
-426.5536150047301
 31
0.0
  0
LINE
  5
1F4
330
1F
100
AcDbEntity
  8
D-2
  6
Continuous
 62
     2
370
     9
100
AcDbLine
 10
-527.4025257518367
 20
-381.7706786434251
 30
0.0
 11
-572.1854621131417
 21
-426.5536150047301
 31
0.0
  0
LINE
  5
1F5
330
1F
100
AcDbEntity
  8
D-2
  6
Continuous
 62
     2
370
     9
100
AcDbLine
 10
-1158.580438283508
 20
-376.5536150047301
 30
0.0
 11
-1190.071525383269
 21
-408.0448123075916
 31
0.0
  0
LINE
  5
1F6
330
1F
100
AcDbEntity
  8
D-2
  6
Continuous
 62
     2
370
     9
100
AcDbLine
 10
-1144.438234381783
 20
-376.5536150047301
 30
0.0
 11
-1190.071525383269
 21
-422.186906006216
 31
0.0
  0
LINE
  5
1F7
330
1F
100
AcDbEntity
  8
D-2
  6
Continuous
 62
     7
370
     9
100
AcDbLine
 10
-1190.071525383269
 20
-428.9789901196309
 30
0.0
 11
-1177.496668356355
 21
-441.5541405197819
 31
0.0
  0
LINE
  5
1F8
330
1F
100
AcDbEntity
  8
D-2
  6
Continuous
 62
     7
370
     9
100
AcDbLine
 10
-1107.643970455392
 20
-426.5536150047301
 30
0.0
 11
-1092.643794896609
 21
-441.5541405197819
 31
0.0
  0
LINE
  5
1F9
330
1F
100
AcDbEntity
  8
D-2
  6
Continuous
 62
     7
370
     9
100
AcDbLine
 10
-1086.430664602803
 20
-426.5536150047301
 30
0.0
 11
-1071.430489044021
 21
-441.5541405197819
 31
0.0
  0
TEXT
  5
1FA
330
1F
100
AcDbEntity
  8
D-4
  6
Continuous
 62
     2
370
   211
100
AcDbText
 10
-1063.852891516529
 20
-422.8311044476101
 30
0.0
 40
30.48
  1
13
 50
90.0
 41
1.0625
  7
ＭＳ ゴシック
100
AcDbText
  0
LINE
  5
1FB
330
1F
100
AcDbEntity
  8
D-2
  6
Continuous
 62
     2
370
     9
100
AcDbLine
 10
-1064.651615958703
 20
-424.045848334706
 30
0.0
 11
-1067.159397596536
 21
-426.5536150047301
 31
0.0
  0
LINE
  5
1FC
330
1F
100
AcDbEntity
  8
D-2
  6
Continuous
 62
     2
370
     9
100
AcDbLine
 10
-1017.159099167467
 20
-376.5536150047301
 30
0.0
 11
-1058.630611350512
 21
-418.0248796631572
 31
0.0
  0
LINE
  5
1FD
330
1F
100
AcDbEntity
  8
D-2
  6
Continuous
 62
     2
370
     9
100
AcDbLine
 10
-1108.585107625765
 20
-397.2691802130765
 30
0.0
 11
-1137.86971720395
 21
-426.5536150047301
 31
0.0
  0
LINE
  5
1FE
330
1F
100
AcDbEntity
  8
D-2
  6
Continuous
 62
     2
370
     9
100
AcDbLine
 10
-1108.585107625765
 20
-411.410980792108
 30
0.0
 11
-1123.727818736559
 21
-426.5536150047301
 31
0.0
  0
LINE
  5
1FF
330
1F
100
AcDbEntity
  8
D-2
  6
Continuous
 62
     4
370
     9
100
AcDbLine
 10
-1190.071525383269
 20
-376.5536150047301
 30
0.0
 11
-492.4029157641286
 21
-376.5536150047301
 31
0.0
  0
LINE
  5
200
330
1F
100
AcDbEntity
  8
D-3
  6
Continuous
 62
     3
370
     9
100
AcDbLine
 10
-467.4027944007867
 20
-406.5545305320739
 30
0.0
 11
-426.1905112994646
 21
-447.7671635840016
 31
0.0
  0
LINE
  5
201
330
1F
100
AcDbEntity
  8
D-5
  6
Continuous
 62
     7
370
     9
100
AcDbLine
 10
-504.2266508717928
 20
-474.0540533267023
 30
0.0
 11
-490.4139730115328
 21
-453.2161169253351
 31
0.0
  0
LINE
  5
202
330
1F
100
AcDbEntity
  8
D-5
  6
Continuous
 62
     7
370
     9
100
AcDbLine
 10
-504.2266508717928
 20
-474.0540533267023
 30
0.0
 11
-485.4929771800432
 21
-457.4999456606866
 31
0.0
  0
LINE
  5
203
330
1F
100
AcDbEntity
  8
D-5
  6
Continuous
 62
     7
370
     9
100
AcDbLine
 10
-492.4029157641286
 20
-376.5536150047301
 30
0.0
 11
-478.6744688036788
 21
-355.6606873580932
 31
0.0
  0
LINE
  5
204
330
1F
100
AcDbEntity
  8
D-5
  6
Continuous
 62
     7
370
     9
100
AcDbLine
 10
-492.4029157641286
 20
-376.5536150047301
 30
0.0
 11
-473.733653831755
 21
-359.9256834098815
 31
0.0
  0
LINE
  5
205
330
1F
100
AcDbEntity
  8
D-5
  6
Continuous
 62
     7
370
     9
100
AcDbLine
 10
-417.117601069951
 20
-289.3633981469993
 30
0.0
 11
-492.4029157641286
 21
-376.5536150047301
 31
0.0
  0
LINE
  5
206
330
1F
100
AcDbEntity
  8
D-5
  6
Continuous
 62
     7
370
     9
100
AcDbLine
 10
-315.0946223945266
 20
-321.7532685219271
 30
0.0
 11
71.60635111621559
 21
-321.7532685219271
 31
0.0
  0
TEXT
  5
207
330
1F
100
AcDbEntity
  8
D-5
  6
Continuous
 62
     7
370
     9
100
AcDbText
 10
-314.6526706428176
 20
-351.2835193287356
 30
0.0
 40
22.86
  1
ｔ＝２．３（ＳＰＨＣ）
 41
1.151515151515152
  7
ＭＳ ゴシック
100
AcDbText
  0
TEXT
  5
208
330
1F
100
AcDbEntity
  8
D-5
  6
Continuous
 62
     7
370
     9
100
AcDbText
 10
-314.6526706428176
 20
-310.0595272194369
 30
0.0
 40
22.86
  1
溶接用アンカー＠５００
 41
1.151515151515152
  7
ＭＳ ゴシック
100
AcDbText
  0
TEXT
  5
209
330
1F
100
AcDbEntity
  8
D-5
  6
Continuous
 62
     7
370
     9
100
AcDbText
 10
-314.2622363776809
 20
-249.0013698286598
 30
0.0
 40
22.86
  1
塩ビクッション
 41
1.142857142857143
  7
ＭＳ ゴシック
100
AcDbText
  0
TEXT
  5
20A
330
1F
100
AcDbEntity
  8
D-5
  6
Continuous
 62
     7
370
     9
100
AcDbText
 10
-315.0974744091195
 20
-119.4567553811645
 30
0.0
 40
22.86
  1
ステンレス形鋼蓋フレーム
 41
1.152777777777778
  7
ＭＳ ゴシック
100
AcDbText
  0
LINE
  5
20B
330
1F
100
AcDbEntity
  8
D-5
  6
Continuous
 62
     7
370
     9
100
AcDbLine
 10
-417.117601069951
 20
-244.9899913260329
 30
0.0
 11
-315.0248096426231
 21
-126.7532188516234
 31
0.0
  0
LINE
  5
20C
330
1F
100
AcDbEntity
  8
D-5
  6
Continuous
 62
     7
370
     9
100
AcDbLine
 10
106.5345529456044
 20
-126.7532188516234
 30
0.0
 11
-315.0248096426231
 21
-126.7532188516234
 31
0.0
  0
LINE
  5
20D
330
1F
100
AcDbEntity
  8
D-5
  6
Continuous
 62
     7
370
     9
100
AcDbLine
 10
-504.2266508717928
 20
-474.0540533267023
 30
0.0
 11
-315.0946223945266
 21
-256.753165101487
 31
0.0
  0
LINE
  5
20E
330
1F
100
AcDbEntity
  8
D-5
  6
Continuous
 62
     7
370
     9
100
AcDbLine
 10
-55.713251850093
 20
-256.753165101487
 30
0.0
 11
-315.0946223945266
 21
-256.753165101487
 31
0.0
  0
LINE
  5
20F
330
1F
100
AcDbEntity
  8
D-5
  6
Continuous
 62
     7
370
     9
100
AcDbLine
 10
-471.5873725703692
 20
-371.5545705937593
 30
0.0
 11
-457.7766783526873
 21
-350.716145024523
 31
0.0
  0
LINE
  5
210
330
1F
100
AcDbEntity
  8
D-5
  6
Continuous
 62
     7
370
     9
100
AcDbLine
 10
-471.5873725703692
 20
-371.5545705937593
 30
0.0
 11
-452.8527100375628
 21
-355.0004637100546
 31
0.0
  0
TEXT
  5
211
330
1F
100
AcDbEntity
  8
D-5
  6
Continuous
 62
     7
370
     9
100
AcDbText
 10
-315.4563129157669
 20
-182.765242319641
 30
0.0
 40
22.86
  1
ステンレス製受枠ＳＦ２０Ｂ
 41
1.153846153846154
  7
ＭＳ ゴシック
100
AcDbText
  0
LINE
  5
212
330
1F
100
AcDbEntity
  8
D-5
  6
Continuous
 62
     7
370
     9
100
AcDbLine
 10
-471.587372570369
 20
-371.5545705937591
 30
0.0
 11
-315.0946223945267
 21
-191.7532188516234
 31
0.0
  0
LINE
  5
213
330
1F
100
AcDbEntity
  8
D-5
  6
Continuous
 62
     7
370
     9
100
AcDbLine
 10
133.6935436516159
 20
-191.7532188516234
 30
0.0
 11
-315.0946223945267
 21
-191.7532188516234
 31
0.0
  0
LINE
  5
214
330
1F
100
AcDbEntity
  8
D-3
  6
Continuous
 62
     2
370
     9
100
AcDbLine
 10
-318.6458964464057
 20
-371.5545705937591
 30
0.0
 11
-368.6461391730884
 21
-421.554813320443
 31
0.0
  0
LINE
  5
215
330
1F
100
AcDbEntity
  8
D-3
  6
Continuous
 62
     2
370
     9
100
AcDbLine
 10
-304.504042495287
 20
-371.5545705937591
 30
0.0
 11
-354.5042852219697
 21
-421.554813320443
 31
0.0
  0
LINE
  5
216
330
1F
100
AcDbEntity
  8
D-3
  6
Continuous
 62
     2
370
     9
100
AcDbLine
 10
-375.2147120533076
 20
-371.5545705937591
 30
0.0
 11
-425.2149547799903
 21
-421.554813320443
 31
0.0
  0
LINE
  5
217
330
1F
100
AcDbEntity
  8
D-3
  6
Continuous
 62
     2
370
     9
100
AcDbLine
 10
-389.3565660044263
 20
-371.5545705937591
 30
0.0
 11
-437.4025787746542
 21
-419.600583363988
 31
0.0
  0
LINE
  5
218
330
1F
100
AcDbEntity
  8
D-5
  6
Continuous
 62
     7
370
     9
100
AcDbLine
 10
-315.0946223945266
 20
-321.7532685219271
 30
0.0
 11
-425.4196726453221
 21
-448.5111572036706
 31
0.0
  0
LINE
  5
219
330
1F
100
AcDbEntity
  8
D-5
  6
Continuous
 62
     7
370
     9
100
AcDbLine
 10
-411.6089760434544
 20
-427.6717378387414
 30
0.0
 11
-425.4196726453221
 21
-448.5111572036706
 31
0.0
  0
LINE
  5
21A
330
1F
100
AcDbEntity
  8
D-5
  6
Continuous
 62
     7
370
     9
100
AcDbLine
 10
-406.6850077283299
 20
-431.957049537655
 30
0.0
 11
-425.4196726453221
 21
-448.5111572036707
 31
0.0
  0
LINE
  5
21B
330
1F
100
AcDbEntity
  8
D-5
  6
Continuous
 62
     7
370
     9
100
AcDbLine
 10
-417.117601069951
 20
-244.9899913260329
 30
0.0
 11
-417.117601069951
 21
-289.3633981469994
 31
0.0
  0
LINE
  5
21C
330
1F
100
AcDbEntity
  8
E-5
  6
Continuous
 62
     7
370
     9
100
AcDbLine
 10
903.1716502274361
 20
819.9281224684503
 30
0.0
 11
893.6045644183088
 21
796.8311341556681
 31
0.0
  0
LINE
  5
21D
330
1F
100
AcDbEntity
  8
E-5
  6
Continuous
 62
     7
370
     9
100
AcDbLine
 10
903.1716502274361
 20
819.9281224684503
 30
0.0
 11
887.9526145022179
 21
800.0942889611695
 31
0.0
  0
LINE
  5
21E
330
1F
100
AcDbEntity
  8
E-5
  6
Continuous
 62
     7
370
     9
100
AcDbLine
 10
826.552523737982
 20
687.2199025571696
 30
0.0
 11
903.1716502274361
 21
819.9281224684503
 31
0.0
  0
TEXT
  5
21F
330
1F
100
AcDbEntity
  8
E-5
  6
Continuous
 62
     2
370
     9
100
AcDbText
 10
606.552523737982
 20
699.8599025571694
 30
0.0
 40
30.48
  1
把手
 41
1.0625
  7
ＭＳ ゴシック
100
AcDbText
  0
TEXT
  5
220
330
1F
100
AcDbEntity
  8
E-5
  6
Continuous
 62
     2
370
     9
100
AcDbText
 10
606.552523737982
 20
642.9313311285981
 30
0.0
 40
30.48
  1
ＳＣＳ１３
 41
1.1
  7
ＭＳ ゴシック
100
AcDbText
  0
LINE
  5
221
330
1F
100
AcDbEntity
  8
E-5
  6
Continuous
 62
     7
370
     9
100
AcDbLine
 10
606.552523737982
 20
687.2199025571696
 30
0.0
 11
826.552523737982
 21
687.2199025571696
 31
0.0
  0
LINE
  5
222
330
1F
100
AcDbEntity
  8
C-1
  6
Continuous
 62
     6
370
     9
100
AcDbLine
 10
-318.7538228201714
 20
460.7180779827002
 30
0.0
 11
-320.753860525287
 21
460.7180779827002
 31
0.0
  0
LINE
  5
223
330
1F
100
AcDbEntity
  8
C-0
  6
Continuous
 62
     4
370
     9
100
AcDbLine
 10
-320.753860525287
 20
460.7182179629427
 30
0.0
 11
-320.753860525287
 21
485.7180593657995
 31
0.0
  0
LINE
  5
224
330
1F
100
AcDbEntity
  8
C-1
  6
Continuous
 62
     6
370
     9
100
AcDbLine
 10
-318.2538133938925
 20
460.7180779827002
 30
0.0
 11
-316.2537756887758
 21
460.7180779827002
 31
0.0
  0
LINE
  5
225
330
1F
100
AcDbEntity
  8
C-0
  6
Continuous
 62
     4
370
     9
100
AcDbLine
 10
-316.2537756887758
 20
460.7182179629427
 30
0.0
 11
-316.2537756887758
 21
485.7180593657995
 31
0.0
  0
LINE
  5
226
330
1F
100
AcDbEntity
  8
C-4
  6
Continuous
 62
     7
370
     9
100
AcDbLine
 10
-320.753860525287
 20
383.964323753998
 30
0.0
 11
-320.753860525287
 21
687.7185344502584
 31
0.0
  0
LINE
  5
227
330
1F
100
AcDbEntity
  8
C-0
  6
Continuous
 62
     4
370
     9
100
AcDbLine
 10
-316.2537756887758
 20
460.7182179629427
 30
0.0
 11
-138.253844971926
 21
460.7182179629427
 31
0.0
  0
LINE
  5
228
330
1F
100
AcDbEntity
  8
C-0
  6
Continuous
 62
     4
370
     9
100
AcDbLine
 10
-916.2537488238814
 20
460.7182179629427
 30
0.0
 11
-320.753860525287
 21
460.7182179629427
 31
0.0
  0
LINE
  5
229
330
1F
100
AcDbEntity
  8
C-1
  6
Continuous
 62
     6
370
     9
100
AcDbLine
 10
-918.253786528997
 20
460.7180779827002
 30
0.0
 11
-916.2537488238814
 21
460.7180779827002
 31
0.0
  0
LINE
  5
22A
330
1F
100
AcDbEntity
  8
C-0
  6
Continuous
 62
     4
370
     9
100
AcDbLine
 10
-916.2537488238814
 20
460.7182179629427
 30
0.0
 11
-916.2537488238814
 21
485.7180593657995
 31
0.0
  0
LINE
  5
22B
330
1F
100
AcDbEntity
  8
C-0
  6
Continuous
 62
     4
370
     9
100
AcDbLine
 10
-323.7537771027183
 20
485.7180593657995
 30
0.0
 11
-320.753860525287
 21
485.7180593657995
 31
0.0
  0
LINE
  5
22C
330
1F
100
AcDbEntity
  8
C-0
  6
Continuous
 62
     4
370
     9
100
AcDbLine
 10
-916.2537488238814
 20
485.7180593657995
 30
0.0
 11
-913.2538322464501
 21
485.7180593657995
 31
0.0
  0
LINE
  5
22D
330
1F
100
AcDbEntity
  8
C-1
  6
Continuous
 62
     6
370
     9
100
AcDbLine
 10
-913.2538322464501
 20
485.7180593657995
 30
0.0
 11
-916.2537488238814
 21
485.7180593657995
 31
0.0
  0
LINE
  5
22E
330
1F
100
AcDbEntity
  8
C-1
  6
JWW_DASHED1
 62
     6
370
     9
100
AcDbLine
 10
-893.2538751360192
 20
485.7180593657995
 30
0.0
 11
-913.2538322464501
 21
485.7180593657995
 31
0.0
  0
LINE
  5
22F
330
1F
100
AcDbEntity
  8
C-1
  6
Continuous
 62
     6
370
     9
100
AcDbLine
 10
-323.7537771027183
 20
485.7180593657995
 30
0.0
 11
-320.753860525287
 21
485.7180593657995
 31
0.0
  0
LINE
  5
230
330
1F
100
AcDbEntity
  8
C-1
  6
JWW_DASHED1
 62
     6
370
     9
100
AcDbLine
 10
-343.7538741933912
 20
485.7180593657995
 30
0.0
 11
-323.7537771027183
 21
485.7180593657995
 31
0.0
  0
LINE
  5
231
330
1F
100
AcDbEntity
  8
C-0
  6
Continuous
 62
     4
370
     9
100
AcDbLine
 10
-316.2537756887758
 20
485.7180593657995
 30
0.0
 11
-313.2538591113444
 21
485.7180593657995
 31
0.0
  0
LINE
  5
232
330
1F
100
AcDbEntity
  8
C-1
  6
Continuous
 62
     6
370
     9
100
AcDbLine
 10
-313.2538591113444
 20
485.7180593657995
 30
0.0
 11
-316.2537756887758
 21
485.7180593657995
 31
0.0
  0
LINE
  5
233
330
1F
100
AcDbEntity
  8
C-1
  6
JWW_DASHED1
 62
     6
370
     9
100
AcDbLine
 10
-293.2539020009136
 20
485.7180593657995
 30
0.0
 11
-313.2538591113444
 21
485.7180593657995
 31
0.0
  0
LINE
  5
234
330
1F
100
AcDbEntity
  8
C-1
  6
Continuous
 62
     6
370
     9
100
AcDbLine
 10
-918.7537259651543
 20
460.7180779827002
 30
0.0
 11
-920.753763670271
 21
460.7180779827002
 31
0.0
  0
LINE
  5
235
330
1F
100
AcDbEntity
  8
C-0
  6
Continuous
 62
     4
370
     9
100
AcDbLine
 10
-920.753763670271
 20
460.7182179629427
 30
0.0
 11
-920.753763670271
 21
485.7180593657995
 31
0.0
  0
LINE
  5
236
330
1F
100
AcDbEntity
  8
C-0
  6
Continuous
 62
     4
370
     9
100
AcDbLine
 10
-920.753763670271
 20
485.7180593657995
 30
0.0
 11
-923.7536802477013
 21
485.7180593657995
 31
0.0
  0
LINE
  5
237
330
1F
100
AcDbEntity
  8
C-1
  6
Continuous
 62
     6
370
     9
100
AcDbLine
 10
-923.7536802477013
 20
485.7180593657995
 30
0.0
 11
-920.753763670271
 21
485.7180593657995
 31
0.0
  0
LINE
  5
238
330
1F
100
AcDbEntity
  8
C-1
  6
JWW_DASHED1
 62
     6
370
     9
100
AcDbLine
 10
-943.7536373581321
 20
485.7180593657995
 30
0.0
 11
-923.7536802477013
 21
485.7180593657995
 31
0.0
  0
LINE
  5
239
330
1F
100
AcDbEntity
  8
C-0
  6
Continuous
 62
     4
370
     9
100
AcDbLine
 10
-316.2537756887758
 20
462.7181856779373
 30
0.0
 11
-138.253844971926
 21
462.7181856779373
 31
0.0
  0
LINE
  5
23A
330
1F
100
AcDbEntity
  8
C-2
  6
Continuous
 62
     3
370
     9
100
AcDbLine
 10
-314.7537474099391
 20
464.2181789617138
 30
0.0
 11
-138.253844971926
 21
464.2181789617138
 31
0.0
  0
LINE
  5
23B
330
1F
100
AcDbEntity
  8
C-0
  6
JWW_DASHED1
 62
     4
370
     9
100
AcDbLine
 10
-293.2539020009136
 20
485.7180593657995
 30
0.0
 11
-138.253844971926
 21
485.7180593657995
 31
0.0
  0
LINE
  5
23C
330
1F
100
AcDbEntity
  8
C-0
  6
Continuous
 62
     4
370
     9
100
AcDbLine
 10
-920.753763670271
 20
462.7181856779373
 30
0.0
 11
-1099.2537038134
 21
462.7181856779373
 31
0.0
  0
LINE
  5
23D
330
1F
100
AcDbEntity
  8
C-0
  6
Continuous
 62
     4
370
     9
100
AcDbLine
 10
-920.753763670271
 20
460.7182179629427
 30
0.0
 11
-1099.2537038134
 21
460.7182179629427
 31
0.0
  0
LINE
  5
23E
330
1F
100
AcDbEntity
  8
C-0
  6
JWW_DASHED1
 62
     4
370
     9
100
AcDbLine
 10
-943.7536373581321
 20
485.7180593657995
 30
0.0
 11
-1099.2537038134
 21
485.7180593657995
 31
0.0
  0
LINE
  5
23F
330
1F
100
AcDbEntity
  8
C-2
  6
Continuous
 62
     3
370
     9
100
AcDbLine
 10
-922.2537569540469
 20
464.2181789617138
 30
0.0
 11
-1099.2537038134
 21
464.2181789617138
 31
0.0
  0
LINE
  5
240
330
1F
100
AcDbEntity
  8
C-0
  6
JWW_DASHED1
 62
     4
370
     9
100
AcDbLine
 10
-893.2538751360192
 20
485.7180593657995
 30
0.0
 11
-343.7538741933912
 21
485.7180593657995
 31
0.0
  0
LINE
  5
241
330
1F
100
AcDbEntity
  8
C-0
  6
Continuous
 62
     4
370
     9
100
AcDbLine
 10
-916.2537488238814
 20
462.7181856779373
 30
0.0
 11
-320.753860525287
 21
462.7181856779373
 31
0.0
  0
LINE
  5
242
330
1F
100
AcDbEntity
  8
C-2
  6
Continuous
 62
     3
370
     9
100
AcDbLine
 10
-914.7537555401055
 20
464.2181789617138
 30
0.0
 11
-322.2538888041237
 21
464.2181789617138
 31
0.0
  0
LINE
  5
243
330
1F
100
AcDbEntity
  8
C-0
  6
Continuous
 62
     2
370
     9
100
AcDbLine
 10
-138.253844971926
 20
454.718244827838
 30
0.0
 11
-1099.25377380352
 21
454.718244827838
 31
0.0
  0
LINE
  5
244
330
1F
100
AcDbEntity
  8
C-0
  6
Continuous
 62
     2
370
     9
100
AcDbLine
 10
-138.253844971926
 20
459.7181291202639
 30
0.0
 11
-1099.25377380352
 21
459.7181291202639
 31
0.0
  0
LINE
  5
245
330
1F
100
AcDbEntity
  8
C-4
  6
Continuous
 62
     7
370
     9
100
AcDbLine
 10
-320.753860525287
 20
384.9822871276604
 30
0.0
 11
-370.7538232914857
 21
384.9822871276604
 31
0.0
  0
LWPOLYLINE
  5
246
330
1F
100
AcDbEntity
  8
C-4
  6
Continuous
 62
     7
370
     9
100
AcDbPolyline
 90
        4
 70
     1
 43
1.0
 10
-320.253860525287
 20
384.9822871276604
 42
0.4142135623731
 10
-320.753860525287
 20
385.4822871276604
 42
0.4142135623731
 10
-321.253860525287
 20
384.9822871276604
 42
0.4142135623731
 10
-320.753860525287
 20
384.4822871276604
 42
0.4142135623731
  0
LWPOLYLINE
  5
247
330
1F
100
AcDbEntity
  8
C-4
  6
Continuous
 62
     7
370
     9
100
AcDbPolyline
 90
        4
 70
     1
 43
1.0
 10
-370.2538232914857
 20
384.9822871276604
 42
0.4142135623731
 10
-370.7538232914857
 20
385.4822871276604
 42
0.4142135623731
 10
-371.2538232914857
 20
384.9822871276604
 42
0.4142135623731
 10
-370.7538232914857
 20
384.4822871276604
 42
0.4142135623731
  0
TEXT
  5
248
330
1F
100
AcDbEntity
  8
C-4
  6
Continuous
 62
     2
370
   211
100
AcDbText
 10
-367.0038419083863
 20
396.6222871276606
 30
0.0
 40
30.48
  1
50
 41
1.0625
  7
ＭＳ ゴシック
100
AcDbText
  0
LINE
  5
249
330
1F
100
AcDbEntity
  8
C-1
  6
Continuous
 62
     6
370
     9
100
AcDbLine
 10
-318.7538228201714
 20
460.7180779827002
 30
0.0
 11
-318.7538228201714
 21
910.7186379036699
 31
0.0
  0
LINE
  5
24A
330
1F
100
AcDbEntity
  8
C-1
  6
Continuous
 62
     6
370
     9
100
AcDbLine
 10
-318.2538133938925
 20
460.7180779827002
 30
0.0
 11
-318.2538133938925
 21
910.7186379036699
 31
0.0
  0
LINE
  5
24B
330
1F
100
AcDbEntity
  8
C-1
  6
Continuous
 62
     6
370
     9
100
AcDbLine
 10
-316.2537756887758
 20
460.7180779827002
 30
0.0
 11
-316.2537756887758
 21
910.7186379036699
 31
0.0
  0
LINE
  5
24C
330
1F
100
AcDbEntity
  8
C-1
  6
Continuous
 62
     6
370
     9
100
AcDbLine
 10
-320.753860525287
 20
460.7180779827002
 30
0.0
 11
-320.753860525287
 21
910.7186379036699
 31
0.0
  0
LINE
  5
24D
330
1F
100
AcDbEntity
  8
C-1
  6
Continuous
 62
     6
370
     9
100
AcDbLine
 10
-918.253786528997
 20
460.7180779827002
 30
0.0
 11
-918.253786528997
 21
910.7186379036699
 31
0.0
  0
LINE
  5
24E
330
1F
100
AcDbEntity
  8
C-1
  6
Continuous
 62
     6
370
     9
100
AcDbLine
 10
-916.2537488238814
 20
460.7180779827002
 30
0.0
 11
-916.2537488238814
 21
910.7186379036699
 31
0.0
  0
LINE
  5
24F
330
1F
100
AcDbEntity
  8
C-1
  6
JWW_DASHED1
 62
     6
370
     9
100
AcDbLine
 10
-893.2538751360192
 20
485.7180593657995
 30
0.0
 11
-893.2538751360192
 21
885.718446550207
 31
0.0
  0
LINE
  5
250
330
1F
100
AcDbEntity
  8
C-1
  6
JWW_DASHED1
 62
     6
370
     9
100
AcDbLine
 10
-343.7538741933912
 20
485.7180593657995
 30
0.0
 11
-343.7538741933912
 21
885.718446550207
 31
0.0
  0
LINE
  5
251
330
1F
100
AcDbEntity
  8
C-1
  6
JWW_DASHED1
 62
     6
370
     9
100
AcDbLine
 10
-293.2539020009136
 20
485.7180593657995
 30
0.0
 11
-293.2539020009136
 21
885.718446550207
 31
0.0
  0
LINE
  5
252
330
1F
100
AcDbEntity
  8
C-1
  6
Continuous
 62
     6
370
     9
100
AcDbLine
 10
-918.7537259651543
 20
460.7180779827002
 30
0.0
 11
-918.7537259651543
 21
910.7186379036699
 31
0.0
  0
LINE
  5
253
330
1F
100
AcDbEntity
  8
C-1
  6
Continuous
 62
     6
370
     9
100
AcDbLine
 10
-920.753763670271
 20
460.7180779827002
 30
0.0
 11
-920.753763670271
 21
910.7186379036699
 31
0.0
  0
LINE
  5
254
330
1F
100
AcDbEntity
  8
C-1
  6
JWW_DASHED1
 62
     6
370
     9
100
AcDbLine
 10
-943.7536373581321
 20
485.7180593657995
 30
0.0
 11
-943.7536373581321
 21
885.718446550207
 31
0.0
  0
LINE
  5
255
330
1F
100
AcDbEntity
  8
C-2
  6
Continuous
 62
     3
370
     9
100
AcDbLine
 10
-314.7537474099391
 20
464.2181789617138
 30
0.0
 11
-314.7537474099391
 21
907.2182919592325
 31
0.0
  0
LINE
  5
256
330
1F
100
AcDbEntity
  8
C-2
  6
Continuous
 62
     3
370
     9
100
AcDbLine
 10
-914.7537555401055
 20
464.2181789617138
 30
0.0
 11
-914.7537555401055
 21
907.2182919592325
 31
0.0
  0
LINE
  5
257
330
1F
100
AcDbEntity
  8
C-2
  6
Continuous
 62
     3
370
     9
100
AcDbLine
 10
-922.2537569540469
 20
464.2181789617138
 30
0.0
 11
-922.2537569540469
 21
907.2182919592325
 31
0.0
  0
TEXT
  5
258
330
1F
100
AcDbEntity
  8
D-4
  6
Continuous
 62
     2
370
     9
100
AcDbText
 10
-1180.070991325652
 20
-138.6946067497253
 30
0.0
 40
30.48
  1
450
 41
1.083333333333333
  7
ＭＳ ゴシック
100
AcDbText
  0
TEXT
  5
259
330
1F
100
AcDbEntity
  8
D-4
  6
Continuous
 62
     2
370
     9
100
AcDbText
 10
-1180.070991325652
 20
-27.99460674972526
 30
0.0
 40
30.48
  1
462
 41
1.083333333333333
  7
ＭＳ ゴシック
100
AcDbText
  0
TEXT
  5
25A
330
1F
100
AcDbEntity
  8
D-4
  6
Continuous
 62
     2
370
     9
100
AcDbText
 10
-1180.070991325652
 20
-247.4946067497253
 30
0.0
 40
30.48
  1
400
 41
1.083333333333333
  7
ＭＳ ゴシック
100
AcDbText
  0
LINE
  5
25B
330
1F
100
AcDbEntity
  8
D-2
  6
Continuous
 62
     4
370
     9
100
AcDbLine
 10
-1190.071525383269
 20
-638.0811313888481
 30
0.0
 11
-1190.071525383269
 21
-326.5536150047301
 31
0.0
  0
LINE
  5
25C
330
1F
100
AcDbEntity
  8
D-8
  6
Continuous
 62
    30
370
     5
100
AcDbLine
 10
-667.4021227784107
 20
-614.053864801122
 30
0.0
 11
-1190.071525383269
 21
-614.053864801122
 31
0.0
  0
LINE
  5
25D
330
1F
100
AcDbEntity
  8
D-8
  6
Continuous
 62
    30
370
     5
100
AcDbLine
 10
-667.4021227784107
 20
-464.0538648011221
 30
0.0
 11
-667.4021227784107
 21
-614.053864801122
 31
0.0
  0
LINE
  5
25E
330
1F
100
AcDbEntity
  8
D-2
  6
Continuous
 62
     4
370
     9
100
AcDbLine
 10
-667.4021227784107
 20
-474.0540533267022
 30
0.0
 11
-504.9028014704965
 21
-474.0540533267022
 31
0.0
  0
LWPOLYLINE
  5
25F
330
1F
100
AcDbEntity
  8
D-4
  6
Continuous
 62
     7
370
     9
100
AcDbPolyline
 90
        4
 70
     1
 43
1.0
 10
-1052.712891516529
 20
-614.053864801122
 42
0.4142135623731
 10
-1053.212891516529
 20
-613.5538648011221
 42
0.4142135623731
 10
-1053.712891516529
 20
-614.053864801122
 42
0.4142135623731
 10
-1053.212891516529
 20
-614.553864801122
 42
0.4142135623731
  0
LINE
  5
260
330
1F
100
AcDbEntity
  8
D-2
  6
Continuous
 62
     3
370
     9
100
AcDbLine
 10
-509.9028957332854
 20
-464.0538648011221
 30
0.0
 11
-1190.071525383269
 21
-464.0538648011221
 31
0.0
  0
LINE
  5
261
330
1F
100
AcDbEntity
  8
D-2
  6
Continuous
 62
     4
370
     9
100
AcDbLine
 10
-1190.071525383269
 20
-464.0538648011221
 30
0.0
 11
-504.9028014704966
 21
-464.0538648011221
 31
0.0
  0
LINE
  5
262
330
1F
100
AcDbEntity
  8
D-4
  6
Continuous
 62
     7
370
     9
100
AcDbLine
 10
-1053.212891516529
 20
-464.0538648011221
 30
0.0
 11
-1053.212891516529
 21
-614.053864801122
 31
0.0
  0
LINE
  5
263
330
1F
100
AcDbEntity
  8
D-4
  6
Continuous
 62
     7
370
     9
100
AcDbLine
 10
-1053.212891516529
 20
-376.5536150047301
 30
0.0
 11
-1053.212891516529
 21
-441.5541405197819
 31
0.0
  0
LINE
  5
264
330
1F
100
AcDbEntity
  8
D-2
  6
Continuous
 62
     7
370
     9
100
AcDbLine
 10
-1065.217358750215
 20
-426.5536150047301
 30
0.0
 11
-1050.217183191433
 21
-441.5541405197819
 31
0.0
  0
LINE
  5
265
330
1F
100
AcDbEntity
  8
D-2
  6
Continuous
 62
     3
370
     9
100
AcDbLine
 10
-1190.071525383269
 20
-441.5541405197819
 30
0.0
 11
-509.9028957332855
 21
-441.5541405197819
 31
0.0
  0
LINE
  5
266
330
1F
100
AcDbEntity
  8
D-4
  6
Continuous
 62
     7
370
     9
100
AcDbLine
 10
-1053.212891516529
 20
-441.5541405197819
 30
0.0
 11
-1053.212891516529
 21
-464.0538648011221
 31
0.0
  0
LINE
  5
267
330
1F
100
AcDbEntity
  8
D-4
  6
Continuous
 62
     7
370
     9
100
AcDbLine
 10
-1053.212891516529
 20
-452.804002660452
 30
0.0
 11
-980.1919269468056
 21
-494.9626762112677
 31
0.0
  0
LINE
  5
268
330
1F
100
AcDbEntity
  8
D-4
  6
Continuous
 62
     7
370
     9
100
AcDbLine
 10
-980.1919269468056
 20
-494.9626762112677
 30
0.0
 11
-980.1919269468056
 21
-566.4037488613741
 31
0.0
  0
TEXT
  5
269
330
1F
100
AcDbEntity
  8
D-4
  6
Continuous
 62
     2
370
   211
100
AcDbText
 10
-990.5752274495469
 20
-562.6055780374888
 30
0.0
 40
30.48
  1
4.5
 50
90.0
 41
1.083333333333332
  7
ＭＳ ゴシック
100
AcDbText
  0
TEXT
  5
26A
330
1F
100
AcDbEntity
  8
D-4
  6
Continuous
 62
     2
370
   211
100
AcDbText
 10
-1064.852891516529
 20
-560.303864801122
 30
0.0
 40
30.48
  1
30
 50
90.0
 41
1.0625
  7
ＭＳ ゴシック
100
AcDbText
  0
LINE
  5
26B
330
1F
100
AcDbEntity
  8
D-5
  6
Continuous
 62
     7
370
     9
100
AcDbLine
 10
-915.697436729055
 20
-634.8925024323576
 30
0.0
 11
-901.886166632715
 21
-614.0538648011218
 31
0.0
  0
LINE
  5
26C
330
1F
100
AcDbEntity
  8
D-5
  6
Continuous
 62
     7
370
     9
100
AcDbLine
 10
-920.6202654055777
 20
-630.6078233358239
 30
0.0
 11
-901.8861666327152
 21
-614.053864801122
 31
0.0
  0
LINE
  5
26D
330
1F
100
AcDbEntity
  8
C-8
  6
JWW_DASHED1
 62
    30
370
     5
100
AcDbLine
 10
-853.2537865289971
 20
875.7180176545148
 30
0.0
 11
-853.2537865289971
 21
495.7180593657995
 31
0.0
  0
LINE
  5
26E
330
1F
100
AcDbEntity
  8
C-8
  6
JWW_DASHED1
 62
    30
370
     5
100
AcDbLine
 10
-850.0537865289972
 20
875.7180176545148
 30
0.0
 11
-850.0537865289972
 21
495.7180593657995
 31
0.0
  0
LINE
  5
26F
330
1F
100
AcDbEntity
  8
C-8
  6
JWW_DASHED1
 62
    30
370
     5
100
AcDbLine
 10
-853.2537865289971
 20
875.7180176545148
 30
0.0
 11
-823.2537865289971
 21
875.7180176545148
 31
0.0
  0
LINE
  5
270
330
1F
100
AcDbEntity
  8
C-8
  6
JWW_DASHED1
 62
    30
370
     5
100
AcDbLine
 10
-823.2537865289971
 20
875.7180176545148
 30
0.0
 11
-823.2537865289971
 21
495.7180593657995
 31
0.0
  0
LINE
  5
271
330
1F
100
AcDbEntity
  8
C-8
  6
JWW_DASHED1
 62
    30
370
     5
100
AcDbLine
 10
-823.2537865289971
 20
495.7180593657995
 30
0.0
 11
-853.2537865289971
 21
495.7180593657995
 31
0.0
  0
LINE
  5
272
330
1F
100
AcDbEntity
  8
C-8
  6
JWW_DASHED1
 62
    30
370
     5
100
AcDbLine
 10
-383.7538228201709
 20
875.7180176545148
 30
0.0
 11
-383.7538228201709
 21
495.7180593657995
 31
0.0
  0
LINE
  5
273
330
1F
100
AcDbEntity
  8
C-8
  6
JWW_DASHED1
 62
    30
370
     5
100
AcDbLine
 10
-386.9538228201709
 20
875.7180176545148
 30
0.0
 11
-386.9538228201709
 21
495.7180593657995
 31
0.0
  0
LINE
  5
274
330
1F
100
AcDbEntity
  8
C-8
  6
JWW_DASHED1
 62
    30
370
     5
100
AcDbLine
 10
-383.7538228201709
 20
875.7180176545148
 30
0.0
 11
-413.7538228201709
 21
875.7180176545148
 31
0.0
  0
LINE
  5
275
330
1F
100
AcDbEntity
  8
C-8
  6
JWW_DASHED1
 62
    30
370
     5
100
AcDbLine
 10
-413.7538228201709
 20
875.7180176545148
 30
0.0
 11
-413.7538228201709
 21
495.7180593657995
 31
0.0
  0
LINE
  5
276
330
1F
100
AcDbEntity
  8
C-8
  6
JWW_DASHED1
 62
    30
370
     5
100
AcDbLine
 10
-413.7538228201709
 20
495.7180593657995
 30
0.0
 11
-383.7538228201709
 21
495.7180593657995
 31
0.0
  0
LINE
  5
277
330
1F
100
AcDbEntity
  8
C-8
  6
JWW_DASHED1
 62
    30
370
     5
100
AcDbLine
 10
-706.7537865289972
 20
875.7180176545148
 30
0.0
 11
-706.7537865289972
 21
495.7180593657995
 31
0.0
  0
LINE
  5
278
330
1F
100
AcDbEntity
  8
C-8
  6
JWW_DASHED1
 62
    30
370
     5
100
AcDbLine
 10
-703.5537865289973
 20
875.7180176545148
 30
0.0
 11
-703.5537865289973
 21
495.7180593657995
 31
0.0
  0
LINE
  5
279
330
1F
100
AcDbEntity
  8
C-8
  6
JWW_DASHED1
 62
    30
370
     5
100
AcDbLine
 10
-706.7537865289972
 20
875.7180176545148
 30
0.0
 11
-676.7537865289972
 21
875.7180176545148
 31
0.0
  0
LINE
  5
27A
330
1F
100
AcDbEntity
  8
C-8
  6
JWW_DASHED1
 62
    30
370
     5
100
AcDbLine
 10
-676.7537865289972
 20
875.7180176545148
 30
0.0
 11
-676.7537865289972
 21
495.7180593657995
 31
0.0
  0
LINE
  5
27B
330
1F
100
AcDbEntity
  8
C-8
  6
JWW_DASHED1
 62
    30
370
     5
100
AcDbLine
 10
-676.7537865289972
 20
495.7180593657995
 30
0.0
 11
-706.7537865289972
 21
495.7180593657995
 31
0.0
  0
LINE
  5
27C
330
1F
100
AcDbEntity
  8
C-8
  6
JWW_DASHED1
 62
    30
370
     5
100
AcDbLine
 10
-530.2538228201709
 20
875.7180176545148
 30
0.0
 11
-530.2538228201709
 21
495.7180593657995
 31
0.0
  0
LINE
  5
27D
330
1F
100
AcDbEntity
  8
C-8
  6
JWW_DASHED1
 62
    30
370
     5
100
AcDbLine
 10
-533.4538228201709
 20
875.7180176545148
 30
0.0
 11
-533.4538228201709
 21
495.7180593657995
 31
0.0
  0
LINE
  5
27E
330
1F
100
AcDbEntity
  8
C-8
  6
JWW_DASHED1
 62
    30
370
     5
100
AcDbLine
 10
-530.2538228201709
 20
875.7180176545148
 30
0.0
 11
-560.2538228201709
 21
875.7180176545148
 31
0.0
  0
LINE
  5
27F
330
1F
100
AcDbEntity
  8
C-8
  6
JWW_DASHED1
 62
    30
370
     5
100
AcDbLine
 10
-560.2538228201709
 20
875.7180176545148
 30
0.0
 11
-560.2538228201709
 21
495.7180593657995
 31
0.0
  0
LINE
  5
280
330
1F
100
AcDbEntity
  8
C-8
  6
JWW_DASHED1
 62
    30
370
     5
100
AcDbLine
 10
-560.2538228201709
 20
495.7180593657995
 30
0.0
 11
-530.2538228201709
 21
495.7180593657995
 31
0.0
  0
LINE
  5
281
330
1F
100
AcDbEntity
  8
C-8
  6
JWW_DASHED1
 62
    30
370
     5
100
AcDbLine
 10
-253.2538133938915
 20
875.7180176545148
 30
0.0
 11
-253.2538133938915
 21
495.7180593657995
 31
0.0
  0
LINE
  5
282
330
1F
100
AcDbEntity
  8
C-8
  6
JWW_DASHED1
 62
    30
370
     5
100
AcDbLine
 10
-250.0538133938916
 20
875.7180176545148
 30
0.0
 11
-250.0538133938916
 21
495.7180593657995
 31
0.0
  0
LINE
  5
283
330
1F
100
AcDbEntity
  8
C-8
  6
JWW_DASHED1
 62
    30
370
     5
100
AcDbLine
 10
-253.2538133938915
 20
875.7180176545148
 30
0.0
 11
-223.2538133938915
 21
875.7180176545148
 31
0.0
  0
LINE
  5
284
330
1F
100
AcDbEntity
  8
C-8
  6
JWW_DASHED1
 62
    30
370
     5
100
AcDbLine
 10
-223.2538133938915
 20
875.7180176545148
 30
0.0
 11
-223.2538133938915
 21
495.7180593657995
 31
0.0
  0
LINE
  5
285
330
1F
100
AcDbEntity
  8
C-8
  6
JWW_DASHED1
 62
    30
370
     5
100
AcDbLine
 10
-223.2538133938915
 20
495.7180593657995
 30
0.0
 11
-253.2538133938915
 21
495.7180593657995
 31
0.0
  0
LINE
  5
286
330
1F
100
AcDbEntity
  8
C-8
  6
JWW_DASHED1
 62
    30
370
     5
100
AcDbLine
 10
-983.7535859849118
 20
875.7180176545148
 30
0.0
 11
-983.7535859849118
 21
495.7180593657995
 31
0.0
  0
LINE
  5
287
330
1F
100
AcDbEntity
  8
C-8
  6
JWW_DASHED1
 62
    30
370
     5
100
AcDbLine
 10
-986.9535859849118
 20
875.7180176545148
 30
0.0
 11
-986.9535859849118
 21
495.7180593657995
 31
0.0
  0
LINE
  5
288
330
1F
100
AcDbEntity
  8
C-8
  6
JWW_DASHED1
 62
    30
370
     5
100
AcDbLine
 10
-983.7535859849118
 20
875.7180176545148
 30
0.0
 11
-1013.753585984912
 21
875.7180176545148
 31
0.0
  0
LINE
  5
289
330
1F
100
AcDbEntity
  8
C-8
  6
JWW_DASHED1
 62
    30
370
     5
100
AcDbLine
 10
-1013.753585984912
 20
875.7180176545148
 30
0.0
 11
-1013.753585984912
 21
495.7180593657995
 31
0.0
  0
LINE
  5
28A
330
1F
100
AcDbEntity
  8
C-8
  6
JWW_DASHED1
 62
    30
370
     5
100
AcDbLine
 10
-1013.753585984912
 20
495.7180593657995
 30
0.0
 11
-983.7535859849118
 21
495.7180593657995
 31
0.0
  0
TEXT
  5
28B
330
1F
100
AcDbEntity
  8
D-5
  6
Continuous
 62
     2
370
     9
100
AcDbText
 10
-863.5037696795234
 20
-1107.231963363714
 30
0.0
 40
30.48
  1
断面詳細図　Ｓ＝１：２
 41
1.113636363636364
  7
ＭＳ ゴシック
100
AcDbText
  0
LINE
  5
28C
330
1F
100
AcDbEntity
  8
D-5
  6
Continuous
 62
     7
370
     9
100
AcDbLine
 10
-881.5037696795234
 20
-1057.871963363714
 30
0.0
 11
-355.5037696795234
 21
-1057.871963363714
 31
0.0
  0
LINE
  5
28D
330
1F
100
AcDbEntity
  8
D-5
  6
Continuous
 62
     7
370
     9
100
AcDbLine
 10
-881.5037696795234
 20
-1127.871963363714
 30
0.0
 11
-355.5037696795234
 21
-1127.871963363714
 31
0.0
  0
LINE
  5
28E
330
1F
100
AcDbEntity
  8
D-5
  6
Continuous
 62
     7
370
     9
100
AcDbLine
 10
-881.5037696795234
 20
-1057.871963363714
 30
0.0
 11
-881.5037696795234
 21
-1127.871963363714
 31
0.0
  0
LINE
  5
28F
330
1F
100
AcDbEntity
  8
D-5
  6
Continuous
 62
     7
370
     9
100
AcDbLine
 10
-355.5037696795234
 20
-1057.871963363714
 30
0.0
 11
-355.5037696795234
 21
-1127.871963363714
 31
0.0
  0
LINE
  5
290
330
1F
100
AcDbEntity
  8
D-6
  6
Continuous
 62
     6
370
     9
100
AcDbLine
 10
-617.4021227784108
 20
-491.5543832464646
 30
0.0
 11
-617.4021227784108
 21
-864.0538648011221
 31
0.0
  0
LINE
  5
291
330
1F
100
AcDbEntity
  8
D-6
  6
Continuous
 62
     6
370
     9
100
AcDbLine
 10
-345.3266162215073
 20
-864.0538648011221
 30
0.0
 11
-345.3266162215073
 21
-506.5539661336214
 31
0.0
  0
LINE
  5
292
330
1F
100
AcDbEntity
  8
D-6
  6
Continuous
 62
     6
370
     9
100
AcDbLine
 10
-390.3274645866145
 20
-864.0538648011221
 30
0.0
 11
-390.3274645866145
 21
-506.5539661336214
 31
0.0
  0
LINE
  5
293
330
1F
100
AcDbEntity
  8
D-0
  6
Continuous
 62
     7
370
     9
100
AcDbLine
 10
-402.3343565337491
 20
-801.5372393557788
 30
0.0
 11
-402.3343565337491
 21
-800.0369570681811
 31
0.0
  0
LINE
  5
294
330
1F
100
AcDbEntity
  8
D-0
  6
Continuous
 62
     7
370
     9
100
AcDbLine
 10
-402.3343565337491
 20
-800.0369570681811
 30
0.0
 11
-400.8340742461514
 21
-800.0369570681811
 31
0.0
  0
LINE
  5
295
330
1F
100
AcDbEntity
  8
D-0
  6
Continuous
 62
     7
370
     9
100
AcDbLine
 10
-400.8340742461514
 20
-800.0369570681811
 30
0.0
 11
-400.8340742461514
 21
-801.5372393557788
 31
0.0
  0
LINE
  5
296
330
1F
100
AcDbEntity
  8
D-0
  6
Continuous
 62
     7
370
     9
100
AcDbLine
 10
-400.8340742461514
 20
-801.5372393557788
 30
0.0
 11
-402.3343565337491
 21
-801.5372393557788
 31
0.0
  0
LINE
  5
297
330
1F
100
AcDbEntity
  8
D-0
  6
Continuous
 62
     7
370
     9
100
AcDbLine
 10
-528.1026780467512
 20
-816.099887109916
 30
0.0
 11
-528.1026780467512
 21
-814.5996048223184
 31
0.0
  0
LINE
  5
298
330
1F
100
AcDbEntity
  8
D-0
  6
Continuous
 62
     7
370
     9
100
AcDbLine
 10
-528.1026780467512
 20
-814.5996048223184
 30
0.0
 11
-526.6023957591535
 21
-814.5996048223184
 31
0.0
  0
LINE
  5
299
330
1F
100
AcDbEntity
  8
D-0
  6
Continuous
 62
     7
370
     9
100
AcDbLine
 10
-526.6023957591535
 20
-814.5996048223184
 30
0.0
 11
-526.6023957591535
 21
-816.099887109916
 31
0.0
  0
LINE
  5
29A
330
1F
100
AcDbEntity
  8
D-0
  6
Continuous
 62
     7
370
     9
100
AcDbLine
 10
-526.6023957591535
 20
-816.099887109916
 30
0.0
 11
-528.1026780467512
 21
-816.099887109916
 31
0.0
  0
LINE
  5
29B
330
1F
100
AcDbEntity
  8
D-0
  6
Continuous
 62
     7
370
     9
100
AcDbLine
 10
-583.7055149261842
 20
-752.5537878191356
 30
0.0
 11
-583.7055149261842
 21
-751.0535055315379
 31
0.0
  0
LINE
  5
29C
330
1F
100
AcDbEntity
  8
D-0
  6
Continuous
 62
     7
370
     9
100
AcDbLine
 10
-583.7055149261842
 20
-751.0535055315379
 30
0.0
 11
-582.2052326385865
 21
-751.0535055315379
 31
0.0
  0
LINE
  5
29D
330
1F
100
AcDbEntity
  8
D-0
  6
Continuous
 62
     7
370
     9
100
AcDbLine
 10
-582.2052326385865
 20
-751.0535055315379
 30
0.0
 11
-582.2052326385865
 21
-752.5537878191356
 31
0.0
  0
LINE
  5
29E
330
1F
100
AcDbEntity
  8
D-0
  6
Continuous
 62
     7
370
     9
100
AcDbLine
 10
-582.2052326385865
 20
-752.5537878191356
 30
0.0
 11
-583.7055149261842
 21
-752.5537878191356
 31
0.0
  0
LINE
  5
29F
330
1F
100
AcDbEntity
  8
D-0
  6
Continuous
 62
     7
370
     9
100
AcDbLine
 10
-596.9442856117628
 20
-826.690903658379
 30
0.0
 11
-596.9442856117628
 21
-825.1906213707814
 31
0.0
  0
LINE
  5
2A0
330
1F
100
AcDbEntity
  8
D-0
  6
Continuous
 62
     7
370
     9
100
AcDbLine
 10
-596.9442856117628
 20
-825.1906213707814
 30
0.0
 11
-595.4440033241651
 21
-825.1906213707814
 31
0.0
  0
LINE
  5
2A1
330
1F
100
AcDbEntity
  8
D-0
  6
Continuous
 62
     7
370
     9
100
AcDbLine
 10
-595.4440033241651
 20
-825.1906213707814
 30
0.0
 11
-595.4440033241651
 21
-826.690903658379
 31
0.0
  0
LINE
  5
2A2
330
1F
100
AcDbEntity
  8
D-0
  6
Continuous
 62
     7
370
     9
100
AcDbLine
 10
-595.4440033241651
 20
-826.690903658379
 30
0.0
 11
-596.9442856117628
 21
-826.690903658379
 31
0.0
  0
LINE
  5
2A3
330
1F
100
AcDbEntity
  8
D-0
  6
Continuous
 62
     7
370
     9
100
AcDbLine
 10
-460.5849475502971
 20
-765.7925585047149
 30
0.0
 11
-460.5849475502971
 21
-764.2922762171172
 31
0.0
  0
LINE
  5
2A4
330
1F
100
AcDbEntity
  8
D-0
  6
Continuous
 62
     7
370
     9
100
AcDbLine
 10
-460.5849475502971
 20
-764.2922762171172
 30
0.0
 11
-459.0846652626994
 21
-764.2922762171172
 31
0.0
  0
LINE
  5
2A5
330
1F
100
AcDbEntity
  8
D-0
  6
Continuous
 62
     7
370
     9
100
AcDbLine
 10
-459.0846652626994
 20
-764.2922762171172
 30
0.0
 11
-459.0846652626994
 21
-765.7925585047149
 31
0.0
  0
LINE
  5
2A6
330
1F
100
AcDbEntity
  8
D-0
  6
Continuous
 62
     7
370
     9
100
AcDbLine
 10
-459.0846652626994
 20
-765.7925585047149
 30
0.0
 11
-460.5849475502971
 21
-765.7925585047149
 31
0.0
  0
LINE
  5
2A7
330
1F
100
AcDbEntity
  8
D-0
  6
Continuous
 62
     7
370
     9
100
AcDbLine
 10
-460.5849475502971
 20
-826.690903658379
 30
0.0
 11
-460.5849475502971
 21
-825.1906213707814
 31
0.0
  0
LINE
  5
2A8
330
1F
100
AcDbEntity
  8
D-0
  6
Continuous
 62
     7
370
     9
100
AcDbLine
 10
-460.5849475502971
 20
-825.1906213707814
 30
0.0
 11
-459.0846652626994
 21
-825.1906213707814
 31
0.0
  0
LINE
  5
2A9
330
1F
100
AcDbEntity
  8
D-0
  6
Continuous
 62
     7
370
     9
100
AcDbLine
 10
-459.0846652626994
 20
-825.1906213707814
 30
0.0
 11
-459.0846652626994
 21
-826.690903658379
 31
0.0
  0
LINE
  5
2AA
330
1F
100
AcDbEntity
  8
D-0
  6
Continuous
 62
     7
370
     9
100
AcDbLine
 10
-459.0846652626994
 20
-826.690903658379
 30
0.0
 11
-460.5849475502971
 21
-826.690903658379
 31
0.0
  0
LINE
  5
2AB
330
1F
100
AcDbEntity
  8
D-0
  6
Continuous
 62
     7
370
     9
100
AcDbLine
 10
-521.4645570773233
 20
-752.9554378408466
 30
0.0
 11
-521.4645570773233
 21
-751.4551555532489
 31
0.0
  0
LINE
  5
2AC
330
1F
100
AcDbEntity
  8
D-0
  6
Continuous
 62
     7
370
     9
100
AcDbLine
 10
-521.4645570773233
 20
-751.4551555532489
 30
0.0
 11
-519.9642747897257
 21
-751.4551555532489
 31
0.0
  0
LINE
  5
2AD
330
1F
100
AcDbEntity
  8
D-0
  6
Continuous
 62
     7
370
     9
100
AcDbLine
 10
-519.9642747897257
 20
-751.4551555532489
 30
0.0
 11
-519.9642747897257
 21
-752.9554378408466
 31
0.0
  0
LINE
  5
2AE
330
1F
100
AcDbEntity
  8
D-0
  6
Continuous
 62
     7
370
     9
100
AcDbLine
 10
-519.9642747897257
 20
-752.9554378408466
 30
0.0
 11
-521.4645570773233
 21
-752.9554378408466
 31
0.0
  0
LINE
  5
2AF
330
1F
100
AcDbEntity
  8
D-0
  6
Continuous
 62
     7
370
     9
100
AcDbLine
 10
-487.3421080977315
 20
-702.07108409935
 30
0.0
 11
-487.3421080977315
 21
-700.5708018117523
 31
0.0
  0
LINE
  5
2B0
330
1F
100
AcDbEntity
  8
D-0
  6
Continuous
 62
     7
370
     9
100
AcDbLine
 10
-487.3421080977315
 20
-700.5708018117523
 30
0.0
 11
-485.8418258101338
 21
-700.5708018117523
 31
0.0
  0
LINE
  5
2B1
330
1F
100
AcDbEntity
  8
D-0
  6
Continuous
 62
     7
370
     9
100
AcDbLine
 10
-485.8418258101338
 20
-700.5708018117523
 30
0.0
 11
-485.8418258101338
 21
-702.07108409935
 31
0.0
  0
LINE
  5
2B2
330
1F
100
AcDbEntity
  8
D-0
  6
Continuous
 62
     7
370
     9
100
AcDbLine
 10
-485.8418258101338
 20
-702.07108409935
 30
0.0
 11
-487.3421080977315
 21
-702.07108409935
 31
0.0
  0
LINE
  5
2B3
330
1F
100
AcDbEntity
  8
D-0
  6
Continuous
 62
     7
370
     9
100
AcDbLine
 10
-420.2944890501124
 20
-617.6629208340438
 30
0.0
 11
-420.2944890501124
 21
-616.1626385464461
 31
0.0
  0
LINE
  5
2B4
330
1F
100
AcDbEntity
  8
D-0
  6
Continuous
 62
     7
370
     9
100
AcDbLine
 10
-420.2944890501124
 20
-616.1626385464461
 30
0.0
 11
-418.7942067625148
 21
-616.1626385464461
 31
0.0
  0
LINE
  5
2B5
330
1F
100
AcDbEntity
  8
D-0
  6
Continuous
 62
     7
370
     9
100
AcDbLine
 10
-418.7942067625148
 20
-616.1626385464461
 30
0.0
 11
-418.7942067625148
 21
-617.6629208340438
 31
0.0
  0
LINE
  5
2B6
330
1F
100
AcDbEntity
  8
D-0
  6
Continuous
 62
     7
370
     9
100
AcDbLine
 10
-418.7942067625148
 20
-617.6629208340438
 30
0.0
 11
-420.2944890501124
 21
-617.6629208340438
 31
0.0
  0
LINE
  5
2B7
330
1F
100
AcDbEntity
  8
D-0
  6
Continuous
 62
     7
370
     9
100
AcDbLine
 10
-116.9312430424897
 20
-801.6656226239796
 30
0.0
 11
-116.9312430424897
 21
-800.165340336382
 31
0.0
  0
LINE
  5
2B8
330
1F
100
AcDbEntity
  8
D-0
  6
Continuous
 62
     7
370
     9
100
AcDbLine
 10
-116.9312430424897
 20
-800.165340336382
 30
0.0
 11
-115.430960754892
 21
-800.165340336382
 31
0.0
  0
LINE
  5
2B9
330
1F
100
AcDbEntity
  8
D-0
  6
Continuous
 62
     7
370
     9
100
AcDbLine
 10
-115.430960754892
 20
-800.165340336382
 30
0.0
 11
-115.430960754892
 21
-801.6656226239796
 31
0.0
  0
LINE
  5
2BA
330
1F
100
AcDbEntity
  8
D-0
  6
Continuous
 62
     7
370
     9
100
AcDbLine
 10
-115.430960754892
 20
-801.6656226239796
 30
0.0
 11
-116.9312430424897
 21
-801.6656226239796
 31
0.0
  0
LINE
  5
2BB
330
1F
100
AcDbEntity
  8
D-0
  6
Continuous
 62
     7
370
     9
100
AcDbLine
 10
-242.6995645554918
 20
-816.2282703781169
 30
0.0
 11
-242.6995645554918
 21
-814.7279880905193
 31
0.0
  0
LINE
  5
2BC
330
1F
100
AcDbEntity
  8
D-0
  6
Continuous
 62
     7
370
     9
100
AcDbLine
 10
-242.6995645554918
 20
-814.7279880905193
 30
0.0
 11
-241.1992822678941
 21
-814.7279880905193
 31
0.0
  0
LINE
  5
2BD
330
1F
100
AcDbEntity
  8
D-0
  6
Continuous
 62
     7
370
     9
100
AcDbLine
 10
-241.1992822678941
 20
-814.7279880905193
 30
0.0
 11
-241.1992822678941
 21
-816.2282703781169
 31
0.0
  0
LINE
  5
2BE
330
1F
100
AcDbEntity
  8
D-0
  6
Continuous
 62
     7
370
     9
100
AcDbLine
 10
-241.1992822678941
 20
-816.2282703781169
 30
0.0
 11
-242.6995645554918
 21
-816.2282703781169
 31
0.0
  0
LINE
  5
2BF
330
1F
100
AcDbEntity
  8
D-0
  6
Continuous
 62
     7
370
     9
100
AcDbLine
 10
-298.3024014349247
 20
-752.6821710873364
 30
0.0
 11
-298.3024014349247
 21
-751.1818887997388
 31
0.0
  0
LINE
  5
2C0
330
1F
100
AcDbEntity
  8
D-0
  6
Continuous
 62
     7
370
     9
100
AcDbLine
 10
-298.3024014349247
 20
-751.1818887997388
 30
0.0
 11
-296.8021191473271
 21
-751.1818887997388
 31
0.0
  0
LINE
  5
2C1
330
1F
100
AcDbEntity
  8
D-0
  6
Continuous
 62
     7
370
     9
100
AcDbLine
 10
-296.8021191473271
 20
-751.1818887997388
 30
0.0
 11
-296.8021191473271
 21
-752.6821710873364
 31
0.0
  0
LINE
  5
2C2
330
1F
100
AcDbEntity
  8
D-0
  6
Continuous
 62
     7
370
     9
100
AcDbLine
 10
-296.8021191473271
 20
-752.6821710873364
 30
0.0
 11
-298.3024014349247
 21
-752.6821710873364
 31
0.0
  0
LINE
  5
2C3
330
1F
100
AcDbEntity
  8
D-0
  6
Continuous
 62
     7
370
     9
100
AcDbLine
 10
-311.5411721205033
 20
-826.8192869265799
 30
0.0
 11
-311.5411721205033
 21
-825.3190046389823
 31
0.0
  0
LINE
  5
2C4
330
1F
100
AcDbEntity
  8
D-0
  6
Continuous
 62
     7
370
     9
100
AcDbLine
 10
-311.5411721205033
 20
-825.3190046389823
 30
0.0
 11
-310.0408898329057
 21
-825.3190046389823
 31
0.0
  0
LINE
  5
2C5
330
1F
100
AcDbEntity
  8
D-0
  6
Continuous
 62
     7
370
     9
100
AcDbLine
 10
-310.0408898329057
 20
-825.3190046389823
 30
0.0
 11
-310.0408898329057
 21
-826.8192869265799
 31
0.0
  0
LINE
  5
2C6
330
1F
100
AcDbEntity
  8
D-0
  6
Continuous
 62
     7
370
     9
100
AcDbLine
 10
-310.0408898329057
 20
-826.8192869265799
 30
0.0
 11
-311.5411721205033
 21
-826.8192869265799
 31
0.0
  0
LINE
  5
2C7
330
1F
100
AcDbEntity
  8
D-0
  6
Continuous
 62
     7
370
     9
100
AcDbLine
 10
-175.1818340590377
 20
-765.9209417729157
 30
0.0
 11
-175.1818340590377
 21
-764.4206594853181
 31
0.0
  0
LINE
  5
2C8
330
1F
100
AcDbEntity
  8
D-0
  6
Continuous
 62
     7
370
     9
100
AcDbLine
 10
-175.1818340590377
 20
-764.4206594853181
 30
0.0
 11
-173.68155177144
 21
-764.4206594853181
 31
0.0
  0
LINE
  5
2C9
330
1F
100
AcDbEntity
  8
D-0
  6
Continuous
 62
     7
370
     9
100
AcDbLine
 10
-173.68155177144
 20
-764.4206594853181
 30
0.0
 11
-173.68155177144
 21
-765.9209417729157
 31
0.0
  0
LINE
  5
2CA
330
1F
100
AcDbEntity
  8
D-0
  6
Continuous
 62
     7
370
     9
100
AcDbLine
 10
-173.68155177144
 20
-765.9209417729157
 30
0.0
 11
-175.1818340590377
 21
-765.9209417729157
 31
0.0
  0
LINE
  5
2CB
330
1F
100
AcDbEntity
  8
D-0
  6
Continuous
 62
     7
370
     9
100
AcDbLine
 10
-175.1818340590377
 20
-826.8192869265799
 30
0.0
 11
-175.1818340590377
 21
-825.3190046389823
 31
0.0
  0
LINE
  5
2CC
330
1F
100
AcDbEntity
  8
D-0
  6
Continuous
 62
     7
370
     9
100
AcDbLine
 10
-175.1818340590377
 20
-825.3190046389823
 30
0.0
 11
-173.68155177144
 21
-825.3190046389823
 31
0.0
  0
LINE
  5
2CD
330
1F
100
AcDbEntity
  8
D-0
  6
Continuous
 62
     7
370
     9
100
AcDbLine
 10
-173.68155177144
 20
-825.3190046389823
 30
0.0
 11
-173.68155177144
 21
-826.8192869265799
 31
0.0
  0
LINE
  5
2CE
330
1F
100
AcDbEntity
  8
D-0
  6
Continuous
 62
     7
370
     9
100
AcDbLine
 10
-173.68155177144
 20
-826.8192869265799
 30
0.0
 11
-175.1818340590377
 21
-826.8192869265799
 31
0.0
  0
LINE
  5
2CF
330
1F
100
AcDbEntity
  8
D-0
  6
Continuous
 62
     7
370
     9
100
AcDbLine
 10
-56.03289788882549
 20
-824.1715327894643
 30
0.0
 11
-56.03289788882549
 21
-822.6712505018667
 31
0.0
  0
LINE
  5
2D0
330
1F
100
AcDbEntity
  8
D-0
  6
Continuous
 62
     7
370
     9
100
AcDbLine
 10
-56.03289788882549
 20
-822.6712505018667
 30
0.0
 11
-54.53261560122783
 21
-822.6712505018667
 31
0.0
  0
LINE
  5
2D1
330
1F
100
AcDbEntity
  8
D-0
  6
Continuous
 62
     7
370
     9
100
AcDbLine
 10
-54.53261560122783
 20
-822.6712505018667
 30
0.0
 11
-54.53261560122783
 21
-824.1715327894643
 31
0.0
  0
LINE
  5
2D2
330
1F
100
AcDbEntity
  8
D-0
  6
Continuous
 62
     7
370
     9
100
AcDbLine
 10
-54.53261560122783
 20
-824.1715327894643
 30
0.0
 11
-56.03289788882549
 21
-824.1715327894643
 31
0.0
  0
LINE
  5
2D3
330
1F
100
AcDbEntity
  8
D-5
  6
Continuous
 62
     7
370
     9
100
AcDbLine
 10
-901.8861666327148
 20
-614.0538648011216
 30
0.0
 11
-1064.451090474216
 21
-800.8308090840881
 31
0.0
  0
TEXT
  5
2D4
330
1F
100
AcDbEntity
  8
D-5
  6
Continuous
 62
     7
370
     9
100
AcDbText
 10
-1377.099838048644
 20
-834.2788420364741
 30
0.0
 40
22.86
  1
Ｌ型30×30×3.2
 41
1.155555555555555
  7
ＭＳ ゴシック
100
AcDbText
  0
TEXT
  5
2D5
330
1F
100
AcDbEntity
  8
D-5
  6
Continuous
 62
     7
370
     9
100
AcDbText
 10
-1377.099838048644
 20
-788.9228132476752
 30
0.0
 40
22.86
  1
補強材（ＳＧＨＣ）
 41
1.148148148148149
  7
ＭＳ ゴシック
100
AcDbText
  0
LINE
  5
2D6
330
1F
100
AcDbEntity
  8
D-5
  6
Continuous
 62
     7
370
     9
100
AcDbLine
 10
-1389.538514960785
 20
-800.8308090840881
 30
0.0
 11
-1064.451090474216
 21
-800.8308090840881
 31
0.0
  0
LINE
  5
2D7
330
1F
100
AcDbEntity
  8
D-5
  6
Continuous
 62
     7
370
     9
100
AcDbLine
 10
-865.3541705799556
 20
-484.8925024323577
 30
0.0
 11
-851.5429004836155
 21
-464.053864801122
 31
0.0
  0
LINE
  5
2D8
330
1F
100
AcDbEntity
  8
D-5
  6
Continuous
 62
     7
370
     9
100
AcDbLine
 10
-870.2769992564782
 20
-480.607823335824
 30
0.0
 11
-851.5429004836158
 21
-464.0538648011221
 31
0.0
  0
LINE
  5
2D9
330
1F
100
AcDbEntity
  8
D-5
  6
Continuous
 62
     7
370
     9
100
AcDbLine
 10
-1064.451090474216
 20
-708.6720776330197
 30
0.0
 11
-851.5429004836153
 21
-464.0538648011217
 31
0.0
  0
TEXT
  5
2DA
330
1F
100
AcDbEntity
  8
D-5
  6
Continuous
 62
     7
370
     9
100
AcDbText
 10
-1412.345917253097
 20
-697.5595245324338
 30
0.0
 40
22.86
  1
プレート　ｔ＝４．５
 41
1.15
  7
ＭＳ ゴシック
100
AcDbText
  0
LINE
  5
2DB
330
1F
100
AcDbEntity
  8
D-5
  6
Continuous
 62
     7
370
     9
100
AcDbLine
 10
-1414.498978477587
 20
-708.6720776330197
 30
0.0
 11
-1064.451090474216
 21
-708.6720776330197
 31
0.0
  0
LINE
  5
2DC
330
1F
100
AcDbEntity
  8
C-1
  6
JWW_CENTER1
 62
     3
370
     9
100
AcDbLine
 10
-1111.516043048212
 20
685.7182354604731
 30
0.0
 11
-111.1067766389447
 21
685.7182354604731
 31
0.0
  0
LINE
  5
2DD
330
1F
100
AcDbEntity
  8
C-C
  6
JWW_CENTER1
 62
     3
370
     9
100
AcDbLine
 10
-351.5538532670524
 20
801.4420061323023
 30
0.0
 11
-351.5538532670524
 21
770.8403653941872
 31
0.0
  0
LINE
  5
2DE
330
1F
100
AcDbEntity
  8
C-C
  6
JWW_HOJO
 62
     7
370
     9
100
AcDbLine
 10
-359.5538641072727
 20
791.7182785856988
 30
0.0
 11
-360.7733719801007
 21
791.7182785856988
 31
0.0
  0
LINE
  5
2DF
330
1F
100
AcDbEntity
  8
C-C
  6
JWW_HOJO
 62
     7
370
     9
100
AcDbLine
 10
-359.5538641072727
 20
779.7181923352462
 30
0.0
 11
-360.7733719801007
 21
779.7181923352462
 31
0.0
  0
LINE
  5
2E0
330
1F
100
AcDbEntity
  8
C-C
  6
JWW_HOJO
 62
     2
370
     9
100
AcDbLine
 10
-368.2537761600901
 20
800.7181682982349
 30
0.0
 11
-368.2537761600901
 21
770.7181626424682
 31
0.0
  0
LINE
  5
2E1
330
1F
100
AcDbEntity
  8
C-C
  6
JWW_HOJO
 62
     2
370
     9
100
AcDbLine
 10
-323.2538376665599
 20
770.7181626424682
 30
0.0
 11
-368.2537761600901
 21
770.7181626424682
 31
0.0
  0
LINE
  5
2E2
330
1F
100
AcDbEntity
  8
C-C
  6
JWW_HOJO
 62
     2
370
     9
100
AcDbLine
 10
-323.253837666561
 20
800.7181682982349
 30
0.0
 11
-323.253837666561
 21
770.7181626424682
 31
0.0
  0
LINE
  5
2E3
330
1F
100
AcDbEntity
  8
C-C
  6
JWW_HOJO
 62
     2
370
     9
100
AcDbLine
 10
-323.253837666561
 20
800.7181682982349
 30
0.0
 11
-368.2537761600901
 21
800.7181682982349
 31
0.0
  0
LINE
  5
2E4
330
1F
100
AcDbEntity
  8
C-C
  6
Continuous
 62
     2
370
     9
100
AcDbLine
 10
-325.7538148078339
 20
775.4681122118751
 30
0.0
 11
-325.7538148078339
 21
795.968218728828
 31
0.0
  0
LINE
  5
2E5
330
1F
100
AcDbEntity
  8
C-C
  6
Continuous
 62
     2
370
     9
100
AcDbLine
 10
-325.7538148078339
 20
795.968218728828
 30
0.0
 11
-341.7264003607414
 21
795.968218728828
 31
0.0
  0
LINE
  5
2E6
330
1F
100
AcDbEntity
  8
C-C
  6
Continuous
 62
     2
370
     9
100
AcDbLine
 10
-325.7538148078339
 20
775.4681122118751
 30
0.0
 11
-341.7264003607414
 21
775.4681122118751
 31
0.0
  0
LINE
  5
2E7
330
1F
100
AcDbEntity
  8
C-C
  6
Continuous
 62
     7
370
     9
100
AcDbLine
 10
-326.2538242341128
 20
775.7181169250151
 30
0.0
 11
-326.2538242341128
 21
795.718214015688
 31
0.0
  0
LINE
  5
2E8
330
1F
100
AcDbEntity
  8
C-C
  6
Continuous
 62
     7
370
     9
100
AcDbLine
 10
-326.0480532776086
 20
775.7181169250151
 30
0.0
 11
-326.0480532776086
 21
795.718214015688
 31
0.0
  0
LINE
  5
2E9
330
1F
100
AcDbEntity
  8
C-C
  6
JWW_HOJO
 62
     3
370
     9
100
AcDbLine
 10
-330.1038408243636
 20
775.7181169250151
 30
0.0
 11
-330.1038408243636
 21
795.718214015688
 31
0.0
  0
LINE
  5
2EA
330
1F
100
AcDbEntity
  8
C-C
  6
JWW_HOJO
 62
     3
370
     9
100
AcDbLine
 10
-334.403823904193
 20
775.7181169250151
 30
0.0
 11
-334.403823904193
 21
795.718214015688
 31
0.0
  0
LINE
  5
2EB
330
1F
100
AcDbEntity
  8
C-C
  6
JWW_HOJO
 62
     3
370
     9
100
AcDbLine
 10
-336.7538122156071
 20
775.7181169250151
 30
0.0
 11
-336.7538122156071
 21
795.718214015688
 31
0.0
  0
LINE
  5
2EC
330
1F
100
AcDbEntity
  8
C-C
  6
Continuous
 62
     7
370
     9
100
AcDbLine
 10
-326.0480532776097
 20
795.718214015688
 30
0.0
 11
-341.7559361919137
 21
795.718214015688
 31
0.0
  0
LINE
  5
2ED
330
1F
100
AcDbEntity
  8
C-C
  6
Continuous
 62
     7
370
     9
100
AcDbLine
 10
-326.0480532776086
 20
775.7181169250151
 30
0.0
 11
-341.7559361919137
 21
775.7181169250151
 31
0.0
  0
LINE
  5
2EE
330
1F
100
AcDbEntity
  8
C-C
  6
JWW_HOJO
 62
     2
370
     9
100
AcDbLine
 10
-340.7538176357178
 20
795.968218728828
 30
0.0
 11
-340.7538176357178
 21
775.4681122118751
 31
0.0
  0
CIRCLE
  5
2EF
330
1F
100
AcDbEntity
  8
C-C
  6
JWW_HOJO
 62
    30
370
     5
100
AcDbCircle
 10
-356.5538075495982
 20
785.7181654703521
 30
0.0
 40
5.000000213564134
  0
ARC
  5
2F0
330
1F
100
AcDbEntity
  8
C-C
  6
Continuous
 62
     2
370
     9
100
AcDbCircle
 10
-357.5538264021571
 20
785.7181654703521
 30
0.0
 40
5.999999928198267
100
AcDbArc
 50
278.7304229736328
 51
81.2695617675781
  0
ARC
  5
2F1
330
1F
100
AcDbEntity
  8
C-C
  6
Continuous
 62
     2
370
     9
100
AcDbCircle
 10
-351.5538532670524
 20
785.7181654703521
 30
0.0
 40
9.499999749614465
100
AcDbArc
 50
234.4873657226563
 51
125.5126190185547
  0
ARC
  5
2F2
330
1F
100
AcDbEntity
  8
C-C
  6
Continuous
 62
     2
370
     9
100
AcDbCircle
 10
-356.4913063713146
 20
778.7993620233503
 30
0.0
 40
0.9999999880330446
100
AcDbArc
 50
98.73042297363281
 51
234.4873657226563
  0
ARC
  5
2F3
330
1F
100
AcDbEntity
  8
C-C
  6
Continuous
 62
     2
370
     9
100
AcDbCircle
 10
-356.4913063713146
 20
792.6371088975958
 30
0.0
 40
0.9999999880330446
100
AcDbArc
 50
125.5126190185547
 51
261.2695617675781
  0
CIRCLE
  5
2F4
330
1F
100
AcDbEntity
  8
C-C
  6
Continuous
 62
     7
370
     9
100
AcDbCircle
 10
-351.5538532670524
 20
785.7181654703521
 30
0.0
 40
10.00000042712827
  0
ARC
  5
2F5
330
1F
100
AcDbEntity
  8
C-C
  6
JWW_HOJO
 62
     7
370
     9
100
AcDbCircle
 10
-351.5538532670524
 20
785.7181654703521
 30
0.0
 40
11.00000068856022
100
AcDbArc
 50
146.9442596435547
 51
213.0557250976562
  0
ARC
  5
2F6
330
1F
100
AcDbEntity
  8
C-C
  6
Continuous
 62
     2
370
     9
100
AcDbCircle
 10
-351.5538532670524
 20
785.7181654703521
 30
0.0
 40
14.20000043154683
100
AcDbArc
 50
46.20585632324219
 51
313.7941284179688
  0
ARC
  5
2F7
330
1F
100
AcDbEntity
  8
C-C
  6
Continuous
 62
     7
370
     9
100
AcDbCircle
 10
-351.5538532670524
 20
785.7181654703521
 30
0.0
 40
13.9999992856648
100
AcDbArc
 50
45.58468627929688
 51
314.4152984619141
  0
TEXT
  5
2F8
330
1F
100
AcDbEntity
  8
C-F
  6
Continuous
 62
     4
370
     9
100
AcDbText
 10
-329.6358145460347
 20
779.7181654580473
 30
0.0
 40
1.524
  1
ＫＡＮＥＳＯ
 50
90.00000249999803
 41
1.000000000000039
  7
ＭＳ ゴシック
100
AcDbText
  0
LINE
  5
2F9
330
1F
100
AcDbEntity
  8
C-C
  6
JWW_CENTER1
 62
     3
370
     9
100
AcDbLine
 10
-351.5538532670524
 20
601.4420061323023
 30
0.0
 11
-351.5538532670524
 21
570.8403653941872
 31
0.0
  0
LINE
  5
2FA
330
1F
100
AcDbEntity
  8
C-C
  6
JWW_HOJO
 62
     7
370
     9
100
AcDbLine
 10
-359.5538641072727
 20
591.7182785856988
 30
0.0
 11
-360.7733719801007
 21
591.7182785856988
 31
0.0
  0
LINE
  5
2FB
330
1F
100
AcDbEntity
  8
C-C
  6
JWW_HOJO
 62
     7
370
     9
100
AcDbLine
 10
-359.5538641072727
 20
579.7181923352462
 30
0.0
 11
-360.7733719801007
 21
579.7181923352462
 31
0.0
  0
LINE
  5
2FC
330
1F
100
AcDbEntity
  8
C-C
  6
JWW_HOJO
 62
     2
370
     9
100
AcDbLine
 10
-368.2537761600901
 20
600.7181682982349
 30
0.0
 11
-368.2537761600901
 21
570.7181626424682
 31
0.0
  0
LINE
  5
2FD
330
1F
100
AcDbEntity
  8
C-C
  6
JWW_HOJO
 62
     2
370
     9
100
AcDbLine
 10
-323.2538376665599
 20
570.7181626424682
 30
0.0
 11
-368.2537761600901
 21
570.7181626424682
 31
0.0
  0
LINE
  5
2FE
330
1F
100
AcDbEntity
  8
C-C
  6
JWW_HOJO
 62
     2
370
     9
100
AcDbLine
 10
-323.253837666561
 20
600.7181682982349
 30
0.0
 11
-323.253837666561
 21
570.7181626424682
 31
0.0
  0
LINE
  5
2FF
330
1F
100
AcDbEntity
  8
C-C
  6
JWW_HOJO
 62
     2
370
     9
100
AcDbLine
 10
-323.253837666561
 20
600.7181682982349
 30
0.0
 11
-368.2537761600901
 21
600.7181682982349
 31
0.0
  0
LINE
  5
300
330
1F
100
AcDbEntity
  8
C-C
  6
Continuous
 62
     2
370
     9
100
AcDbLine
 10
-325.7538148078339
 20
575.4681122118751
 30
0.0
 11
-325.7538148078339
 21
595.968218728828
 31
0.0
  0
LINE
  5
301
330
1F
100
AcDbEntity
  8
C-C
  6
Continuous
 62
     2
370
     9
100
AcDbLine
 10
-325.7538148078339
 20
595.968218728828
 30
0.0
 11
-341.7264003607414
 21
595.968218728828
 31
0.0
  0
LINE
  5
302
330
1F
100
AcDbEntity
  8
C-C
  6
Continuous
 62
     2
370
     9
100
AcDbLine
 10
-325.7538148078339
 20
575.4681122118751
 30
0.0
 11
-341.7264003607414
 21
575.4681122118751
 31
0.0
  0
LINE
  5
303
330
1F
100
AcDbEntity
  8
C-C
  6
Continuous
 62
     7
370
     9
100
AcDbLine
 10
-326.2538242341128
 20
575.7181169250151
 30
0.0
 11
-326.2538242341128
 21
595.718214015688
 31
0.0
  0
LINE
  5
304
330
1F
100
AcDbEntity
  8
C-C
  6
Continuous
 62
     7
370
     9
100
AcDbLine
 10
-326.0480532776086
 20
575.7181169250151
 30
0.0
 11
-326.0480532776086
 21
595.718214015688
 31
0.0
  0
LINE
  5
305
330
1F
100
AcDbEntity
  8
C-C
  6
JWW_HOJO
 62
     3
370
     9
100
AcDbLine
 10
-330.1038408243636
 20
575.7181169250151
 30
0.0
 11
-330.1038408243636
 21
595.718214015688
 31
0.0
  0
LINE
  5
306
330
1F
100
AcDbEntity
  8
C-C
  6
JWW_HOJO
 62
     3
370
     9
100
AcDbLine
 10
-334.403823904193
 20
575.7181169250151
 30
0.0
 11
-334.403823904193
 21
595.718214015688
 31
0.0
  0
LINE
  5
307
330
1F
100
AcDbEntity
  8
C-C
  6
JWW_HOJO
 62
     3
370
     9
100
AcDbLine
 10
-336.7538122156071
 20
575.7181169250151
 30
0.0
 11
-336.7538122156071
 21
595.718214015688
 31
0.0
  0
LINE
  5
308
330
1F
100
AcDbEntity
  8
C-C
  6
Continuous
 62
     7
370
     9
100
AcDbLine
 10
-326.0480532776097
 20
595.718214015688
 30
0.0
 11
-341.7559361919137
 21
595.718214015688
 31
0.0
  0
LINE
  5
309
330
1F
100
AcDbEntity
  8
C-C
  6
Continuous
 62
     7
370
     9
100
AcDbLine
 10
-326.0480532776086
 20
575.7181169250151
 30
0.0
 11
-341.7559361919137
 21
575.7181169250151
 31
0.0
  0
LINE
  5
30A
330
1F
100
AcDbEntity
  8
C-C
  6
JWW_HOJO
 62
     2
370
     9
100
AcDbLine
 10
-340.7538176357178
 20
595.968218728828
 30
0.0
 11
-340.7538176357178
 21
575.4681122118751
 31
0.0
  0
CIRCLE
  5
30B
330
1F
100
AcDbEntity
  8
C-C
  6
JWW_HOJO
 62
    30
370
     5
100
AcDbCircle
 10
-356.5538075495982
 20
585.7181654703521
 30
0.0
 40
5.000000213564134
  0
ARC
  5
30C
330
1F
100
AcDbEntity
  8
C-C
  6
Continuous
 62
     2
370
     9
100
AcDbCircle
 10
-357.5538264021571
 20
585.7181654703521
 30
0.0
 40
5.999999928198267
100
AcDbArc
 50
278.7304229736328
 51
81.2695617675781
  0
ARC
  5
30D
330
1F
100
AcDbEntity
  8
C-C
  6
Continuous
 62
     2
370
     9
100
AcDbCircle
 10
-351.5538532670524
 20
585.7181654703521
 30
0.0
 40
9.499999749614465
100
AcDbArc
 50
234.4873657226563
 51
125.5126190185547
  0
ARC
  5
30E
330
1F
100
AcDbEntity
  8
C-C
  6
Continuous
 62
     2
370
     9
100
AcDbCircle
 10
-356.4913063713146
 20
578.7993620233503
 30
0.0
 40
0.9999999880330446
100
AcDbArc
 50
98.73042297363281
 51
234.4873657226563
  0
ARC
  5
30F
330
1F
100
AcDbEntity
  8
C-C
  6
Continuous
 62
     2
370
     9
100
AcDbCircle
 10
-356.4913063713146
 20
592.6371088975958
 30
0.0
 40
0.9999999880330446
100
AcDbArc
 50
125.5126190185547
 51
261.2695617675781
  0
CIRCLE
  5
310
330
1F
100
AcDbEntity
  8
C-C
  6
Continuous
 62
     7
370
     9
100
AcDbCircle
 10
-351.5538532670524
 20
585.7181654703521
 30
0.0
 40
10.00000042712827
  0
ARC
  5
311
330
1F
100
AcDbEntity
  8
C-C
  6
JWW_HOJO
 62
     7
370
     9
100
AcDbCircle
 10
-351.5538532670524
 20
585.7181654703521
 30
0.0
 40
11.00000068856022
100
AcDbArc
 50
146.9442596435547
 51
213.0557250976562
  0
ARC
  5
312
330
1F
100
AcDbEntity
  8
C-C
  6
Continuous
 62
     2
370
     9
100
AcDbCircle
 10
-351.5538532670524
 20
585.7181654703521
 30
0.0
 40
14.20000043154683
100
AcDbArc
 50
46.20585632324219
 51
313.7941284179688
  0
ARC
  5
313
330
1F
100
AcDbEntity
  8
C-C
  6
Continuous
 62
     7
370
     9
100
AcDbCircle
 10
-351.5538532670524
 20
585.7181654703521
 30
0.0
 40
13.9999992856648
100
AcDbArc
 50
45.58468627929688
 51
314.4152984619141
  0
TEXT
  5
314
330
1F
100
AcDbEntity
  8
C-F
  6
Continuous
 62
     4
370
     9
100
AcDbText
 10
-329.6358145460347
 20
579.7181654580473
 30
0.0
 40
1.524
  1
ＫＡＮＥＳＯ
 50
90.00000249999803
 41
1.000000000000039
  7
ＭＳ ゴシック
100
AcDbText
  0
LINE
  5
315
330
1F
100
AcDbEntity
  8
C-2
  6
Continuous
 62
     3
370
     9
100
AcDbLine
 10
-322.2538888041237
 20
464.2181789617138
 30
0.0
 11
-322.2538888041237
 21
568.2182554913157
 31
0.0
  0
LINE
  5
316
330
1F
100
AcDbEntity
  8
C-2
  6
Continuous
 62
     3
370
     9
100
AcDbLine
 10
-322.2538888041237
 20
803.2182154296305
 30
0.0
 11
-322.2538888041237
 21
907.2182919592325
 31
0.0
  0
LINE
  5
317
330
1F
100
AcDbEntity
  8
C-2
  6
Continuous
 62
     3
370
     9
100
AcDbLine
 10
-322.2538888041237
 20
603.2182154296305
 30
0.0
 11
-322.2538888041237
 21
768.2182554913157
 31
0.0
  0
LINE
  5
318
330
1F
100
AcDbEntity
  8
C-4
  6
Continuous
 62
     7
370
     9
100
AcDbLine
 10
-370.7538232914857
 20
381.9822871276602
 30
0.0
 11
-370.7538232914857
 21
559.8447543933478
 31
0.0
  0
LINE
  5
319
330
1F
100
AcDbEntity
  8
D-6
  6
JWW_DASHED2
 62
     6
370
     9
100
AcDbLine
 10
-390.3274645866145
 20
-864.0538648011221
 30
0.0
 11
-390.3274645866145
 21
-939.0538648011221
 31
0.0
  0
LINE
  5
31A
330
1F
100
AcDbEntity
  8
D-6
  6
JWW_DASHED2
 62
     6
370
     9
100
AcDbLine
 10
-345.3266162215073
 20
-864.0538648011221
 30
0.0
 11
-345.3266162215073
 21
-939.0538648011221
 31
0.0
  0
LINE
  5
31B
330
1F
100
AcDbEntity
  8
C-4
  6
Continuous
 62
     7
370
     9
100
AcDbLine
 10
-438.7538228201709
 20
603.2182154296305
 30
0.0
 11
-438.7538228201709
 21
568.2182554913157
 31
0.0
  0
LWPOLYLINE
  5
31C
330
1F
100
AcDbEntity
  8
C-4
  6
Continuous
 62
     7
370
     9
100
AcDbPolyline
 90
        4
 70
     1
 43
1.0
 10
-438.253822820171
 20
603.2182154296305
 42
0.4142135623731
 10
-438.7538228201709
 20
603.7182154296305
 42
0.4142135623731
 10
-439.2538228201709
 20
603.2182154296305
 42
0.4142135623731
 10
-438.7538228201709
 20
602.7182154296305
 42
0.4142135623731
  0
LWPOLYLINE
  5
31D
330
1F
100
AcDbEntity
  8
C-4
  6
Continuous
 62
     7
370
     9
100
AcDbPolyline
 90
        4
 70
     1
 43
1.0
 10
-438.253822820171
 20
568.2182554913157
 42
0.4142135623731
 10
-438.7538228201709
 20
568.7182554913157
 42
0.4142135623731
 10
-439.2538228201709
 20
568.2182554913157
 42
0.4142135623731
 10
-438.7538228201709
 20
567.7182554913157
 42
0.4142135623731
  0
TEXT
  5
31E
330
1F
100
AcDbEntity
  8
C-4
  6
Continuous
 62
     2
370
   211
100
AcDbText
 10
-450.3938228201711
 20
564.4682354604731
 30
0.0
 40
30.48
  1
35
 50
90.0
 41
1.0625
  7
ＭＳ ゴシック
100
AcDbText
  0
LINE
  5
31F
330
1F
100
AcDbEntity
  8
C-4
  6
Continuous
 62
     7
370
     9
100
AcDbLine
 10
-441.7538228201705
 20
603.2182154296305
 30
0.0
 11
-380.3238720493522
 21
603.2182154296305
 31
0.0
  0
LINE
  5
320
330
1F
100
AcDbEntity
  8
C-4
  6
Continuous
 62
     7
370
     9
100
AcDbLine
 10
-441.7538228201705
 20
568.2182554913157
 30
0.0
 11
-380.3238720493522
 21
568.2182554913157
 31
0.0
  0
LINE
  5
321
330
1F
100
AcDbEntity
  8
D-6
  6
JWW_CENTER2
 62
     6
370
     9
100
AcDbLine
 10
-367.8270404040609
 20
-506.5539661336214
 30
0.0
 11
-367.8270404040609
 21
-954.2888364066932
 31
0.0
  0
LINE
  5
322
330
1F
100
AcDbEntity
  8
E-F
  6
Continuous
 62
     7
370
     9
100
AcDbLine
 10
1311.401920703977
 20
269.305356233368
 30
0.0
 11
1311.401920703977
 21
566.4099214745299
 31
0.0
  0
LINE
  5
323
330
1F
100
AcDbEntity
  8
E-F
  6
Continuous
 62
     7
370
     9
100
AcDbLine
 10
811.4014181654807
 20
269.3051812580646
 30
0.0
 11
811.4014181654807
 21
566.4099214745299
 31
0.0
  0
LINE
  5
324
330
1F
100
AcDbEntity
  8
E-4
  6
Continuous
 62
     7
370
     9
100
AcDbLine
 10
811.4014181654807
 20
566.4099214745299
 30
0.0
 11
1311.401920703977
 21
566.4099214745299
 31
0.0
  0
LWPOLYLINE
  5
325
330
1F
100
AcDbEntity
  8
E-4
  6
Continuous
 62
     7
370
     9
100
AcDbPolyline
 90
        4
 70
     1
 43
1.0
 10
811.9014181654807
 20
566.4099214745299
 42
0.4142135623731
 10
811.4014181654807
 20
566.9099214745299
 42
0.4142135623731
 10
810.9014181654807
 20
566.4099214745299
 42
0.4142135623731
 10
811.4014181654807
 20
565.9099214745299
 42
0.4142135623731
  0
LWPOLYLINE
  5
326
330
1F
100
AcDbEntity
  8
E-4
  6
Continuous
 62
     7
370
     9
100
AcDbPolyline
 90
        4
 70
     1
 43
1.0
 10
1311.901920703978
 20
566.4099214745299
 42
0.4142135623731
 10
1311.401920703977
 20
566.9099214745299
 42
0.4142135623731
 10
1310.901920703977
 20
566.4099214745299
 42
0.4142135623731
 10
1311.401920703977
 20
565.9099214745299
 42
0.4142135623731
  0
TEXT
  5
327
330
1F
100
AcDbEntity
  8
E-4
  6
Continuous
 62
     2
370
   211
100
AcDbText
 10
1040.15166943473
 20
577.0499214745299
 30
0.0
 40
30.48
  1
50
 41
1.062499999999986
  7
ＭＳ ゴシック
100
AcDbText
  0
LINE
  5
328
330
1F
100
AcDbEntity
  8
E-4
  6
Continuous
 62
     7
370
     9
100
AcDbLine
 10
585.0084778229115
 20
234.3052213197504
 30
0.0
 11
585.0084778229115
 21
104.3040828019949
 31
0.0
  0
LWPOLYLINE
  5
329
330
1F
100
AcDbEntity
  8
E-4
  6
Continuous
 62
     7
370
     9
100
AcDbPolyline
 90
        4
 70
     1
 43
1.0
 10
585.5084778229115
 20
234.3052213197504
 42
0.4142135623731
 10
585.0084778229115
 20
234.8052213197504
 42
0.4142135623731
 10
584.5084778229115
 20
234.3052213197504
 42
0.4142135623731
 10
585.0084778229115
 20
233.8052213197504
 42
0.4142135623731
  0
LWPOLYLINE
  5
32A
330
1F
100
AcDbEntity
  8
E-4
  6
Continuous
 62
     7
370
     9
100
AcDbPolyline
 90
        4
 70
     1
 43
1.0
 10
585.5084778229115
 20
104.3040828019949
 42
0.4142135623731
 10
585.0084778229115
 20
104.8040828019949
 42
0.4142135623731
 10
584.5084778229115
 20
104.3040828019949
 42
0.4142135623731
 10
585.0084778229115
 20
103.8040828019949
 42
0.4142135623731
  0
LINE
  5
32B
330
1F
100
AcDbEntity
  8
E-4
  6
Continuous
 62
     7
370
     9
100
AcDbLine
 10
582.0084778229113
 20
234.3052213197504
 30
0.0
 11
636.4023083596999
 21
234.3052213197504
 31
0.0
  0
LINE
  5
32C
330
1F
100
AcDbEntity
  8
E-4
  6
Continuous
 62
     7
370
     9
100
AcDbLine
 10
582.0084778229113
 20
104.3040828019949
 30
0.0
 11
636.4023083596999
 21
104.3040828019949
 31
0.0
  0
TEXT
  5
32D
330
1F
100
AcDbEntity
  8
E-4
  6
Continuous
 62
     2
370
   211
100
AcDbText
 10
573.3684778229112
 20
148.0546520608726
 30
0.0
 40
30.48
  1
13
 50
90.0
 41
1.0625
  7
ＭＳ ゴシック
100
AcDbText
  0
LWPOLYLINE
  5
32E
330
1F
100
AcDbEntity
  8
E-4
  6
Continuous
 62
     7
370
     9
100
AcDbPolyline
 90
        4
 70
     1
 43
1.0
 10
585.5084778229115
 20
59.3047217269654
 42
0.4142135623731
 10
585.0084778229115
 20
59.8047217269654
 42
0.4142135623731
 10
584.5084778229115
 20
59.3047217269654
 42
0.4142135623731
 10
585.0084778229115
 20
58.8047217269654
 42
0.4142135623731
  0
LINE
  5
32F
330
1F
100
AcDbEntity
  8
E-4
  6
Continuous
 62
     7
370
     9
100
AcDbLine
 10
582.0084778229113
 20
59.3047217269654
 30
0.0
 11
636.4023083596999
 21
59.3047217269654
 31
0.0
  0
TEXT
  5
330
330
1F
100
AcDbEntity
  8
E-4
  6
Continuous
 62
     2
370
   211
100
AcDbText
 10
573.3684778229112
 20
-17.72355653738458
 30
0.0
 40
30.48
  1
4.5
 50
90.0
 41
1.083333333333333
  7
ＭＳ ゴシック
100
AcDbText
  0
LINE
  5
331
330
1F
100
AcDbEntity
  8
E-4
  6
Continuous
 62
     7
370
     9
100
AcDbLine
 10
585.0084778229115
 20
104.3040828019949
 30
0.0
 11
585.0084778229115
 21
-17.72355653738458
 31
0.0
  0
LINE
  5
332
330
1F
100
AcDbEntity
  8
E-2
  6
Continuous
 62
     3
370
     9
100
AcDbLine
 10
1296.40163791561
 20
104.3041702896467
 30
0.0
 11
1296.40163791561
 21
59.30472172696639
 31
0.0
  0
LINE
  5
333
330
1F
100
AcDbEntity
  8
E-1
  6
Continuous
 62
     6
370
     9
100
AcDbLine
 10
1081.401784022933
 20
39.30434467580781
 30
0.0
 11
1081.401784022933
 21
59.30472172696639
 31
0.0
  0
LINE
  5
334
330
1F
100
AcDbEntity
  8
E-1
  6
Continuous
 62
     6
370
     9
100
AcDbLine
 10
1331.401597853923
 20
234.3052213197504
 30
0.0
 11
1331.401597853923
 21
64.30341618733095
 31
0.0
  0
LINE
  5
335
330
1F
100
AcDbEntity
  8
E-1
  6
Continuous
 62
     6
370
     9
100
AcDbLine
 10
1311.401920703977
 20
64.30341618733095
 30
0.0
 11
1311.401920703977
 21
234.3052213197504
 31
0.0
  0
ARC
  5
336
330
1F
100
AcDbEntity
  8
E-1
  6
Continuous
 62
     6
370
     9
100
AcDbCircle
 10
1306.401826441187
 20
64.30341618733095
 30
0.0
 40
4.999999940165221
100
AcDbArc
 50
270.0
 51
0.0
  0
ARC
  5
337
330
1F
100
AcDbEntity
  8
E-1
  6
Continuous
 62
     6
370
     9
100
AcDbCircle
 10
1306.401826441187
 20
64.30341618733095
 30
0.0
 40
25.00000106782067
100
AcDbArc
 50
270.0
 51
0.0
  0
LINE
  5
338
330
1F
100
AcDbEntity
  8
E-2
  6
Continuous
 62
     3
370
     9
100
AcDbLine
 10
836.4022930419964
 20
104.3051326538135
 30
0.0
 11
836.4022930419964
 21
59.30577157878432
 31
0.0
  0
LINE
  5
339
330
1F
100
AcDbEntity
  8
E-2
  6
Continuous
 62
     3
370
     9
100
AcDbLine
 10
906.4022930419964
 20
104.3051326538135
 30
0.0
 11
906.4022930419964
 21
59.30577157878432
 31
0.0
  0
LINE
  5
33A
330
1F
100
AcDbEntity
  8
E-2
  6
Continuous
 62
     3
370
     9
100
AcDbLine
 10
976.4022977551355
 20
104.3051326538135
 30
0.0
 11
976.4022977551355
 21
59.30577157878432
 31
0.0
  0
LINE
  5
33B
330
1F
100
AcDbEntity
  8
E-2
  6
Continuous
 62
     3
370
     9
100
AcDbLine
 10
1046.402297755135
 20
104.3051326538135
 30
0.0
 11
1046.402297755135
 21
59.30577157878432
 31
0.0
  0
LINE
  5
33C
330
1F
100
AcDbEntity
  8
E-A
  6
Continuous
 62
     2
370
     9
100
AcDbLine
 10
1057.402297755136
 20
51.30577157878449
 30
0.0
 11
1057.402297755136
 21
38.30577157878437
 31
0.0
  0
LINE
  5
33D
330
1F
100
AcDbEntity
  8
E-A
  6
Continuous
 62
     2
370
     9
100
AcDbLine
 10
965.4022977551352
 20
51.30577157878449
 30
0.0
 11
965.4022977551352
 21
38.30577157878437
 31
0.0
  0
LINE
  5
33E
330
1F
100
AcDbEntity
  8
E-A
  6
Continuous
 62
     2
370
     9
100
AcDbLine
 10
1071.402297755135
 20
51.30577157878449
 30
0.0
 11
951.4022977551355
 21
51.30577157878449
 31
0.0
  0
LINE
  5
33F
330
1F
100
AcDbEntity
  8
E-A
  6
Continuous
 62
     2
370
     9
100
AcDbLine
 10
1071.402297755135
 20
59.30577157878432
 30
0.0
 11
1071.402297755135
 21
51.30577157878449
 31
0.0
  0
LINE
  5
340
330
1F
100
AcDbEntity
  8
E-A
  6
Continuous
 62
     2
370
     9
100
AcDbLine
 10
951.4022977551355
 20
59.30577157878432
 30
0.0
 11
951.4022977551355
 21
51.30577157878449
 31
0.0
  0
LINE
  5
341
330
1F
100
AcDbEntity
  8
E-A
  6
Continuous
 62
     2
370
     9
100
AcDbLine
 10
1021.402297755135
 20
51.30577157878449
 30
0.0
 11
1021.402297755135
 21
38.30577157878437
 31
0.0
  0
LINE
  5
342
330
1F
100
AcDbEntity
  8
E-A
  6
Continuous
 62
     2
370
     9
100
AcDbLine
 10
1031.402297755135
 20
51.30577157878449
 30
0.0
 11
1031.402297755135
 21
38.30577157878437
 31
0.0
  0
LINE
  5
343
330
1F
100
AcDbEntity
  8
E-A
  6
Continuous
 62
     2
370
     9
100
AcDbLine
 10
1006.445999582662
 20
1.459739436145497
 30
0.0
 11
1006.445999582662
 21
5.478983153338532
 31
0.0
  0
LINE
  5
344
330
1F
100
AcDbEntity
  8
E-A
  6
Continuous
 62
     2
370
     9
100
AcDbLine
 10
1016.358843584908
 20
5.478983153338532
 30
0.0
 11
1006.445999582662
 21
5.478983153338532
 31
0.0
  0
LINE
  5
345
330
1F
100
AcDbEntity
  8
E-A
  6
Continuous
 62
     2
370
     9
100
AcDbLine
 10
1016.358843584908
 20
1.459739436145497
 30
0.0
 11
1016.358843584908
 21
5.478983153338532
 31
0.0
  0
ARC
  5
346
330
1F
100
AcDbEntity
  8
E-A
  6
Continuous
 62
     2
370
     9
100
AcDbCircle
 10
1011.402297755135
 20
81.30602144145499
 30
0.0
 40
80.0
100
AcDbArc
 50
233.5764007568359
 51
266.4480133056641
  0
ARC
  5
347
330
1F
100
AcDbEntity
  8
E-A
  6
Continuous
 62
     2
370
     9
100
AcDbCircle
 10
1011.402297755135
 20
81.30602144145499
 30
0.0
 40
80.0
100
AcDbArc
 50
273.5519866943359
 51
306.4235992431641
  0
LINE
  5
348
330
1F
100
AcDbEntity
  8
E-A
  6
Continuous
 62
     2
370
     9
100
AcDbLine
 10
1058.902269144906
 20
16.93372510814228
 30
0.0
 11
1058.902269144906
 21
38.30577157878437
 31
0.0
  0
LINE
  5
349
330
1F
100
AcDbEntity
  8
E-A
  6
Continuous
 62
     2
370
     9
100
AcDbLine
 10
1058.902269144906
 20
38.30577157878437
 30
0.0
 11
963.902326365365
 21
38.30577157878437
 31
0.0
  0
LINE
  5
34A
330
1F
100
AcDbEntity
  8
E-A
  6
Continuous
 62
     2
370
     9
100
AcDbLine
 10
963.902326365365
 20
16.93372510814228
 30
0.0
 11
963.902326365365
 21
38.30577157878437
 31
0.0
  0
LINE
  5
34B
330
1F
100
AcDbEntity
  8
E-A
  6
Continuous
 62
     2
370
     9
100
AcDbLine
 10
917.4022930419966
 20
51.30577157878449
 30
0.0
 11
917.4022930419966
 21
38.30577157878437
 31
0.0
  0
LINE
  5
34C
330
1F
100
AcDbEntity
  8
E-A
  6
Continuous
 62
     2
370
     9
100
AcDbLine
 10
825.4022930419967
 20
51.30577157878449
 30
0.0
 11
825.4022930419967
 21
38.30577157878437
 31
0.0
  0
LINE
  5
34D
330
1F
100
AcDbEntity
  8
E-A
  6
Continuous
 62
     2
370
     9
100
AcDbLine
 10
931.4022930419964
 20
51.30577157878449
 30
0.0
 11
811.4022930419964
 21
51.30577157878449
 31
0.0
  0
LINE
  5
34E
330
1F
100
AcDbEntity
  8
E-A
  6
Continuous
 62
     2
370
     9
100
AcDbLine
 10
931.4022930419964
 20
59.30577157878432
 30
0.0
 11
931.4022930419964
 21
51.30577157878449
 31
0.0
  0
LINE
  5
34F
330
1F
100
AcDbEntity
  8
E-A
  6
Continuous
 62
     2
370
     9
100
AcDbLine
 10
811.4022930419964
 20
59.30577157878432
 30
0.0
 11
811.4022930419964
 21
51.30577157878449
 31
0.0
  0
LINE
  5
350
330
1F
100
AcDbEntity
  8
E-A
  6
Continuous
 62
     2
370
     9
100
AcDbLine
 10
881.4022930419964
 20
51.30577157878449
 30
0.0
 11
881.4022930419964
 21
38.30577157878437
 31
0.0
  0
LINE
  5
351
330
1F
100
AcDbEntity
  8
E-A
  6
Continuous
 62
     2
370
     9
100
AcDbLine
 10
891.4022930419964
 20
51.30577157878449
 30
0.0
 11
891.4022930419964
 21
38.30577157878437
 31
0.0
  0
LINE
  5
352
330
1F
100
AcDbEntity
  8
E-A
  6
Continuous
 62
     2
370
     9
100
AcDbLine
 10
866.4459948695225
 20
1.459739436145497
 30
0.0
 11
866.4459948695225
 21
5.478983153338532
 31
0.0
  0
LINE
  5
353
330
1F
100
AcDbEntity
  8
E-A
  6
Continuous
 62
     2
370
     9
100
AcDbLine
 10
876.3588388717693
 20
5.478983153338532
 30
0.0
 11
866.4459948695225
 21
5.478983153338532
 31
0.0
  0
LINE
  5
354
330
1F
100
AcDbEntity
  8
E-A
  6
Continuous
 62
     2
370
     9
100
AcDbLine
 10
876.3588388717693
 20
1.459739436145497
 30
0.0
 11
876.3588388717693
 21
5.478983153338532
 31
0.0
  0
ARC
  5
355
330
1F
100
AcDbEntity
  8
E-A
  6
Continuous
 62
     2
370
     9
100
AcDbCircle
 10
871.4022930419964
 20
81.30602144145499
 30
0.0
 40
80.0
100
AcDbArc
 50
233.5764007568359
 51
266.4480133056641
  0
ARC
  5
356
330
1F
100
AcDbEntity
  8
E-A
  6
Continuous
 62
     2
370
     9
100
AcDbCircle
 10
871.4022930419964
 20
81.30602144145499
 30
0.0
 40
80.0
100
AcDbArc
 50
273.5519866943359
 51
306.4235992431641
  0
LINE
  5
357
330
1F
100
AcDbEntity
  8
E-A
  6
Continuous
 62
     2
370
     9
100
AcDbLine
 10
918.9022644317669
 20
16.93372510814228
 30
0.0
 11
918.9022644317669
 21
38.30577157878437
 31
0.0
  0
LINE
  5
358
330
1F
100
AcDbEntity
  8
E-A
  6
Continuous
 62
     2
370
     9
100
AcDbLine
 10
918.9022644317669
 20
38.30577157878437
 30
0.0
 11
823.9023216522259
 21
38.30577157878437
 31
0.0
  0
LINE
  5
359
330
1F
100
AcDbEntity
  8
E-A
  6
Continuous
 62
     2
370
     9
100
AcDbLine
 10
823.9023216522259
 20
16.93372510814228
 30
0.0
 11
823.9023216522259
 21
38.30577157878437
 31
0.0
  0
LINE
  5
35A
330
1F
100
AcDbEntity
  8
E-A
  6
Continuous
 62
     2
370
     9
100
AcDbLine
 10
896.4022930419964
 20
138.3057715787844
 30
0.0
 11
846.4022930419958
 21
138.3057715787844
 31
0.0
  0
LINE
  5
35B
330
1F
100
AcDbEntity
  8
E-A
  6
Continuous
 62
     2
370
     9
100
AcDbLine
 10
1036.402297755135
 20
138.3057715787844
 30
0.0
 11
986.4022977551355
 21
138.3057715787844
 31
0.0
  0
LINE
  5
35C
330
1F
100
AcDbEntity
  8
E-A
  6
Continuous
 62
     2
370
     9
100
AcDbLine
 10
1036.402297755135
 20
138.3057715787844
 30
0.0
 11
1036.402297755135
 21
59.30577157878432
 31
0.0
  0
LINE
  5
35D
330
1F
100
AcDbEntity
  8
E-A
  6
Continuous
 62
     2
370
     9
100
AcDbLine
 10
986.4022977551355
 20
138.3057715787844
 30
0.0
 11
986.4022977551355
 21
59.30577157878432
 31
0.0
  0
LINE
  5
35E
330
1F
100
AcDbEntity
  8
E-A
  6
Continuous
 62
     2
370
     9
100
AcDbLine
 10
896.4022930419964
 20
138.3057715787844
 30
0.0
 11
896.4022930419964
 21
59.30577157878432
 31
0.0
  0
LINE
  5
35F
330
1F
100
AcDbEntity
  8
E-A
  6
Continuous
 62
     2
370
     9
100
AcDbLine
 10
846.4022930419958
 20
138.3057715787844
 30
0.0
 11
846.4022930419958
 21
59.30577157878432
 31
0.0
  0
LINE
  5
360
330
1F
100
AcDbEntity
  8
E-C
  6
Continuous
 62
     2
370
     9
100
AcDbLine
 10
1286.401961943948
 20
204.3050914138433
 30
0.0
 11
1286.401961943948
 21
104.3051326538135
 31
0.0
  0
LINE
  5
361
330
1F
100
AcDbEntity
  8
E-C
  6
JWW_CENTER1
 62
     2
370
     9
100
AcDbLine
 10
1191.401895959995
 20
199.4896650255407
 30
0.0
 11
1191.401895959995
 21
139.1205342981338
 31
0.0
  0
LINE
  5
362
330
1F
100
AcDbEntity
  8
E-C
  6
JWW_CENTER1
 62
     2
370
     9
100
AcDbLine
 10
1161.217330596292
 20
169.3050996618369
 30
0.0
 11
1221.586461323699
 21
169.3050996618369
 31
0.0
  0
LINE
  5
363
330
1F
100
AcDbEntity
  8
E-C
  6
Continuous
 62
     2
370
     9
100
AcDbLine
 10
1093.401869566414
 20
229.3050501738728
 30
0.0
 11
1093.401869566414
 21
189.3051656457899
 31
0.0
  0
LINE
  5
364
330
1F
100
AcDbEntity
  8
E-C
  6
Continuous
 62
     2
370
     9
100
AcDbLine
 10
1301.401887712001
 20
229.3050501738728
 30
0.0
 11
821.4018505960274
 21
229.3050501738728
 31
0.0
  0
LINE
  5
365
330
1F
100
AcDbEntity
  8
E-C
  6
Continuous
 62
     2
370
     9
100
AcDbLine
 10
1256.401801108063
 20
229.3050501738728
 30
0.0
 11
1286.401961943948
 21
204.3050914138433
 31
0.0
  0
LINE
  5
366
330
1F
100
AcDbEntity
  8
E-C
  6
Continuous
 62
     2
370
     9
100
AcDbLine
 10
1311.401920703977
 20
219.3051409018076
 30
0.0
 11
1311.401920703977
 21
104.3051326538135
 31
0.0
  0
LINE
  5
367
330
1F
100
AcDbEntity
  8
E-C
  6
Continuous
 62
     2
370
     9
100
AcDbLine
 10
831.4018835880046
 20
104.3051326538135
 30
0.0
 11
811.4018794640077
 21
104.3051326538135
 31
0.0
  0
LINE
  5
368
330
1F
100
AcDbEntity
  8
E-C
  6
Continuous
 62
     2
370
     9
100
AcDbLine
 10
853.4019437983608
 20
229.3050501738728
 30
0.0
 11
858.4018984343936
 21
189.3051656457899
 31
0.0
  0
LINE
  5
369
330
1F
100
AcDbEntity
  8
E-C
  6
Continuous
 62
     2
370
     9
100
AcDbLine
 10
858.4018984343936
 20
189.3051656457899
 30
0.0
 11
941.8333485307301
 21
189.3051656457899
 31
0.0
  0
CIRCLE
  5
36A
330
1F
100
AcDbEntity
  8
E-C
  6
Continuous
 62
     2
370
     9
100
AcDbCircle
 10
1191.401895959995
 20
169.3050996618369
 30
0.0
 40
20.9999993040755
  0
ARC
  5
36B
330
1F
100
AcDbEntity
  8
E-C
  6
Continuous
 62
     2
370
     9
100
AcDbCircle
 10
941.8333485307301
 20
249.3051161578251
 30
0.0
 40
60.00000463949668
100
AcDbArc
 50
270.0
 51
340.5287628173828
  0
ARC
  5
36C
330
1F
100
AcDbEntity
  8
E-C
  6
Continuous
 62
     2
370
     9
100
AcDbCircle
 10
881.7569391135004
 20
233.8955537633993
 30
0.0
 40
49.56623283592431
100
AcDbArc
 50
295.8926849365234
 51
354.6860961914062
  0
ARC
  5
36D
330
1F
100
AcDbEntity
  8
E-C
  6
Continuous
 62
     2
370
     9
100
AcDbCircle
 10
821.4018505960274
 20
219.3051409018076
 30
0.0
 40
10.00000012887491
100
AcDbArc
 50
90.0
 51
180.0
  0
ARC
  5
36E
330
1F
100
AcDbEntity
  8
E-C
  6
Continuous
 62
     2
370
     9
100
AcDbCircle
 10
1301.401887712001
 20
219.3051409018076
 30
0.0
 40
10.00000012887491
100
AcDbArc
 50
0.0
 51
90.0
  0
LINE
  5
36F
330
1F
100
AcDbEntity
  8
E-C
  6
Continuous
 62
     2
370
     9
100
AcDbLine
 10
993.4022977551359
 20
164.3050831658492
 30
0.0
 11
1011.402297755136
 21
174.6973880112621
 31
0.0
  0
LINE
  5
370
330
1F
100
AcDbEntity
  8
E-C
  6
Continuous
 62
     2
370
     9
100
AcDbLine
 10
986.402297755136
 20
154.3051326538135
 30
0.0
 11
1036.402297755136
 21
154.3051326538135
 31
0.0
  0
LINE
  5
371
330
1F
100
AcDbEntity
  8
E-C
  6
Continuous
 62
     2
370
     9
100
AcDbLine
 10
889.4022930419965
 20
164.3050831658492
 30
0.0
 11
871.4022930419964
 21
174.6973880112621
 31
0.0
  0
LINE
  5
372
330
1F
100
AcDbEntity
  8
E-C
  6
Continuous
 62
     2
370
     9
100
AcDbLine
 10
853.4022930419968
 20
164.3050831658492
 30
0.0
 11
871.4022930419964
 21
174.6973880112621
 31
0.0
  0
LINE
  5
373
330
1F
100
AcDbEntity
  8
E-C
  6
Continuous
 62
     2
370
     9
100
AcDbLine
 10
846.4022930419964
 20
154.3051326538135
 30
0.0
 11
896.4022930419964
 21
154.3051326538135
 31
0.0
  0
LINE
  5
374
330
1F
100
AcDbEntity
  8
E-C
  6
Continuous
 62
     2
370
     9
100
AcDbLine
 10
846.4022930419964
 20
154.3051326538135
 30
0.0
 11
846.4022930419964
 21
104.3051326538135
 31
0.0
  0
LINE
  5
375
330
1F
100
AcDbEntity
  8
E-C
  6
Continuous
 62
     2
370
     9
100
AcDbLine
 10
896.4022930419964
 20
154.3051326538135
 30
0.0
 11
896.4022930419964
 21
104.3051326538135
 31
0.0
  0
LINE
  5
376
330
1F
100
AcDbEntity
  8
E-C
  6
JWW_DASHED2
 62
     2
370
     9
100
AcDbLine
 10
1058.401877814408
 20
189.3051656457899
 30
0.0
 11
1002.041334073646
 21
189.3051656457899
 31
0.0
  0
LINE
  5
377
330
1F
100
AcDbEntity
  8
E-C
  6
Continuous
 62
     2
370
     9
100
AcDbLine
 10
1029.402297755136
 20
164.3050831658492
 30
0.0
 11
1011.402297755136
 21
174.6973880112621
 31
0.0
  0
LINE
  5
378
330
1F
100
AcDbEntity
  8
E-C
  6
Continuous
 62
     2
370
     9
100
AcDbLine
 10
993.4022977551359
 20
164.3050831658492
 30
0.0
 11
1029.402297755136
 21
164.3050831658492
 31
0.0
  0
LINE
  5
379
330
1F
100
AcDbEntity
  8
E-C
  6
Continuous
 62
     2
370
     9
100
AcDbLine
 10
853.4022930419968
 20
164.3050831658492
 30
0.0
 11
889.4022930419965
 21
164.3050831658492
 31
0.0
  0
LINE
  5
37A
330
1F
100
AcDbEntity
  8
E-C
  6
Continuous
 62
     2
370
     9
100
AcDbLine
 10
1036.402297755136
 20
119.5644516021837
 30
0.0
 11
1036.402297755136
 21
104.3051326538135
 31
0.0
  0
LINE
  5
37B
330
1F
100
AcDbEntity
  8
E-C
  6
Continuous
 62
     2
370
     9
100
AcDbLine
 10
1133.279114431113
 20
178.7179456534135
 30
0.0
 11
1128.901891835998
 21
104.3051326538135
 31
0.0
  0
ARC
  5
37C
330
1F
100
AcDbEntity
  8
E-C
  6
Continuous
 62
     2
370
     9
100
AcDbCircle
 10
1123.296370686002
 20
179.3051656457898
 30
0.0
 40
10.0
100
AcDbArc
 50
356.6335406402256
 51
90.0
  0
ARC
  5
37D
330
1F
100
AcDbEntity
  8
E-C
  6
Continuous
 62
     2
370
     9
100
AcDbCircle
 10
1143.901891835998
 20
114.3051326538135
 30
0.0
 40
10.00000000000004
100
AcDbArc
 50
0.0
 51
180.0
  0
LINE
  5
37E
330
1F
100
AcDbEntity
  8
E-C
  6
Continuous
 62
     2
370
     9
100
AcDbLine
 10
1133.901891835998
 20
104.3051326538135
 30
0.0
 11
1133.901891835998
 21
114.3051326538135
 31
0.0
  0
LINE
  5
37F
330
1F
100
AcDbEntity
  8
E-C
  6
Continuous
 62
     2
370
     9
100
AcDbLine
 10
1153.901891835998
 20
104.3051326538135
 30
0.0
 11
1153.901891835998
 21
114.3051326538135
 31
0.0
  0
LINE
  5
380
330
1F
100
AcDbEntity
  8
E-C
  6
Continuous
 62
     2
370
     9
100
AcDbLine
 10
1153.901891835998
 20
104.3051326538135
 30
0.0
 11
1311.401920703977
 21
104.3051326538135
 31
0.0
  0
LINE
  5
381
330
1F
100
AcDbEntity
  8
E-C
  6
Continuous
 62
     2
370
     9
100
AcDbLine
 10
1123.901891835998
 20
189.3051656457899
 30
0.0
 11
1093.401869566414
 21
189.3051656457899
 31
0.0
  0
LINE
  5
382
330
1F
100
AcDbEntity
  8
E-C
  6
Continuous
 62
     2
370
     9
100
AcDbLine
 10
811.4018794640077
 20
219.3051409018076
 30
0.0
 11
811.4018794640077
 21
104.3051326538135
 31
0.0
  0
LINE
  5
383
330
1F
100
AcDbEntity
  8
E-B
  6
JWW_CENTER1
 62
     7
370
     9
100
AcDbLine
 10
1257.464369566414
 20
169.3050996618369
 30
0.0
 11
1127.745527188881
 21
169.3050996618369
 31
0.0
  0
LINE
  5
384
330
1F
100
AcDbEntity
  8
E-B
  6
JWW_HOJO
 62
     7
370
     9
100
AcDbLine
 10
1251.401599032209
 20
229.3054213336063
 30
0.0
 11
1251.401599032209
 21
197.4314605808615
 31
0.0
  0
LINE
  5
385
330
1F
100
AcDbEntity
  8
E-B
  6
JWW_CENTER1
 62
     7
370
     9
100
AcDbLine
 10
1191.401895959995
 20
237.6985801173902
 30
0.0
 11
1191.401895959995
 21
109.4247863040458
 31
0.0
  0
LINE
  5
386
330
1F
100
AcDbEntity
  8
E-B
  6
Continuous
 62
     7
370
     9
100
AcDbLine
 10
1251.401846472031
 20
199.3054460775889
 30
0.0
 11
1191.401895959995
 21
199.3054460775889
 31
0.0
  0
LINE
  5
387
330
1F
100
AcDbEntity
  8
E-B
  6
Continuous
 62
     7
370
     9
100
AcDbLine
 10
1251.705393274448
 20
204.3307632954409
 30
0.0
 11
1191.401895959995
 21
199.3054460775889
 31
0.0
  0
CIRCLE
  5
388
330
1F
100
AcDbEntity
  8
E-B
  6
Continuous
 62
     7
370
     9
100
AcDbCircle
 10
1191.401895959995
 20
169.3050996618369
 30
0.0
 40
21.49999979380015
  0
ARC
  5
389
330
1F
100
AcDbEntity
  8
E-B
  6
Continuous
 62
     7
370
     9
100
AcDbCircle
 10
1132.214042945849
 20
215.3680021639482
 30
0.0
 40
120.0000015464989
100
AcDbArc
 50
322.1082000732422
 51
6.669677734375
  0
ARC
  5
38A
330
1F
100
AcDbEntity
  8
E-B
  6
Continuous
 62
     7
370
     9
100
AcDbCircle
 10
1126.401867092016
 20
169.3054089616147
 30
0.0
 40
20.00000025774982
100
AcDbArc
 50
359.9996490478516
 51
90.0
  0
ARC
  5
38B
330
1F
100
AcDbEntity
  8
E-B
  6
Continuous
 62
     7
370
     9
100
AcDbCircle
 10
1191.401895959995
 20
169.3050996618369
 30
0.0
 40
30.00000038662472
100
AcDbArc
 50
90.0
 51
138.1888732910156
  0
ARC
  5
38C
330
1F
100
AcDbEntity
  8
E-B
  6
Continuous
 62
     7
370
     9
100
AcDbCircle
 10
1191.401895959995
 20
169.3050996618369
 30
0.0
 40
45.00000154649889
100
AcDbArc
 50
179.9997711181641
 51
322.1082153320312
  0
ARC
  5
38D
330
1F
100
AcDbEntity
  8
E-B
  6
JWW_PHANTOM2
 62
     7
370
     9
100
AcDbCircle
 10
1191.401895959995
 20
169.3050996618369
 30
0.0
 40
45.00000154649889
100
AcDbArc
 50
322.1081848144531
 51
179.9997711181641
  0
LINE
  5
38E
330
1F
100
AcDbEntity
  8
E-B
  6
Continuous
 62
     7
370
     9
100
AcDbLine
 10
1251.401846472031
 20
229.3054213336063
 30
0.0
 11
855.9018365744379
 21
229.3054213336063
 31
0.0
  0
LINE
  5
38F
330
1F
100
AcDbEntity
  8
E-B
  6
Continuous
 62
     7
370
     9
100
AcDbLine
 10
855.9018365744379
 20
229.3054213336063
 30
0.0
 11
865.9018077064587
 21
189.3054130856123
 31
0.0
  0
LINE
  5
390
330
1F
100
AcDbEntity
  8
E-B
  6
Continuous
 62
     7
370
     9
100
AcDbLine
 10
1169.041501507927
 20
189.3054130856123
 30
0.0
 11
865.9018077064587
 21
189.3054130856123
 31
0.0
  0
LINE
  5
391
330
1F
100
AcDbEntity
  8
E-B
  6
Continuous
 62
     7
370
     9
100
AcDbLine
 10
1095.901808737457
 20
229.3054213336063
 30
0.0
 11
1095.901808737457
 21
189.3054130856123
 31
0.0
  0
LINE
  5
392
330
1F
100
AcDbEntity
  8
E-B
  6
Continuous
 62
     7
370
     9
100
AcDbLine
 10
900.9017984274658
 20
209.305355349654
 30
0.0
 11
890.9020128753116
 21
209.305355349654
 31
0.0
  0
LINE
  5
393
330
1F
100
AcDbEntity
  8
E-B
  6
Continuous
 62
     7
370
     9
100
AcDbLine
 10
890.9020128753116
 20
194.3054295816006
 30
0.0
 11
890.9020128753116
 21
209.305355349654
 31
0.0
  0
LINE
  5
394
330
1F
100
AcDbEntity
  8
E-B
  6
Continuous
 62
     7
370
     9
100
AcDbLine
 10
900.9017984274658
 20
229.3054213336063
 30
0.0
 11
900.9017984274658
 21
209.305355349654
 31
0.0
  0
LINE
  5
395
330
1F
100
AcDbEntity
  8
E-B
  6
JWW_PHANTOM1
 62
     7
370
     9
100
AcDbLine
 10
900.9017984274658
 20
209.305355349654
 30
0.0
 11
900.9017984274658
 21
189.3054130856123
 31
0.0
  0
ARC
  5
396
330
1F
100
AcDbEntity
  8
E-B
  6
Continuous
 62
     7
370
     9
100
AcDbCircle
 10
885.9017489395006
 20
194.3054295816006
 30
0.0
 40
5.000000064437454
100
AcDbArc
 50
270.0
 51
0.0
  0
LINE
  5
397
330
1F
100
AcDbEntity
  8
E-C
  6
JWW_CENTER1
 62
     2
370
     9
100
AcDbLine
 10
871.4022930419964
 20
181.2342319922614
 30
0.0
 11
871.4022930419964
 21
-10.00101114253241
 31
0.0
  0
LINE
  5
398
330
1F
100
AcDbEntity
  8
E-C
  6
Continuous
 62
     2
370
     9
100
AcDbLine
 10
1036.402297755136
 20
154.3051326538135
 30
0.0
 11
1036.402297755136
 21
138.3057715787844
 31
0.0
  0
LINE
  5
399
330
1F
100
AcDbEntity
  8
E-C
  6
Continuous
 62
     2
370
     9
100
AcDbLine
 10
986.402297755136
 20
154.3051326538135
 30
0.0
 11
986.402297755136
 21
138.3057715787844
 31
0.0
  0
LINE
  5
39A
330
1F
100
AcDbEntity
  8
E-C
  6
Continuous
 62
     2
370
     9
100
AcDbLine
 10
1029.402297755136
 20
104.3051326538135
 30
0.0
 11
1133.901891835998
 21
104.3051326538135
 31
0.0
  0
LINE
  5
39B
330
1F
100
AcDbEntity
  8
E-C
  6
Continuous
 62
     2
370
     9
100
AcDbLine
 10
1029.402297755136
 20
164.3050831658492
 30
0.0
 11
1029.402297755136
 21
59.30577157878432
 31
0.0
  0
LINE
  5
39C
330
1F
100
AcDbEntity
  8
E-C
  6
Continuous
 62
     2
370
     9
100
AcDbLine
 10
993.4022977551359
 20
164.3050831658492
 30
0.0
 11
993.4022977551359
 21
59.30577157878432
 31
0.0
  0
LINE
  5
39D
330
1F
100
AcDbEntity
  8
E-C
  6
Continuous
 62
     2
370
     9
100
AcDbLine
 10
889.4022930419965
 20
164.3050831658492
 30
0.0
 11
889.4022930419965
 21
59.30577157878432
 31
0.0
  0
LINE
  5
39E
330
1F
100
AcDbEntity
  8
E-C
  6
Continuous
 62
     2
370
     9
100
AcDbLine
 10
853.4022930419968
 20
164.3050831658492
 30
0.0
 11
853.4022930419968
 21
59.30577157878432
 31
0.0
  0
LINE
  5
39F
330
1F
100
AcDbEntity
  8
E-C
  6
Continuous
 62
     2
370
     9
100
AcDbLine
 10
831.4018835880046
 20
104.3051326538135
 30
0.0
 11
853.4022930419968
 21
104.3051326538135
 31
0.0
  0
LINE
  5
3A0
330
1F
100
AcDbEntity
  8
E-C
  6
Continuous
 62
     2
370
     9
100
AcDbLine
 10
889.4022930419965
 20
104.3051326538135
 30
0.0
 11
993.4022977551359
 21
104.3051326538135
 31
0.0
  0
LINE
  5
3A1
330
1F
100
AcDbEntity
  8
E-1
  6
Continuous
 62
     6
370
     9
100
AcDbLine
 10
1057.402297755136
 20
39.30434467580866
 30
0.0
 11
1306.401826441187
 21
39.30434467580866
 31
0.0
  0
LINE
  5
3A2
330
1F
100
AcDbEntity
  8
E-2
  6
Continuous
 62
     3
370
     9
100
AcDbLine
 10
896.4022930419964
 20
104.3041702896467
 30
0.0
 11
986.4022977551355
 21
104.3041702896467
 31
0.0
  0
LINE
  5
3A3
330
1F
100
AcDbEntity
  8
E-2
  6
Continuous
 62
     3
370
     9
100
AcDbLine
 10
1036.402297755135
 20
104.3041702896467
 30
0.0
 11
1296.40163791561
 21
104.3041702896467
 31
0.0
  0
LINE
  5
3A4
330
1F
100
AcDbEntity
  8
E-1
  6
Continuous
 62
     6
370
     9
100
AcDbLine
 10
917.4022930419977
 20
39.30434467580866
 30
0.0
 11
965.4022977551352
 21
39.30434467580866
 31
0.0
  0
LINE
  5
3A5
330
1F
100
AcDbEntity
  8
E-C
  6
JWW_CENTER1
 62
     2
370
     9
100
AcDbLine
 10
1011.402297755136
 20
181.2342319922614
 30
0.0
 11
1011.402297755136
 21
-10.00101114253241
 31
0.0
  0
LINE
  5
3A6
330
1F
100
AcDbEntity
  8
E-1
  6
Continuous
 62
     6
370
     9
100
AcDbLine
 10
661.4019419131057
 20
234.3052213197504
 30
0.0
 11
1331.401597853923
 21
234.3052213197504
 31
0.0
  0
LINE
  5
3A7
330
1F
100
AcDbEntity
  8
E-1
  6
Continuous
 62
     6
370
     9
100
AcDbLine
 10
661.4019419131057
 20
39.30434467580866
 30
0.0
 11
825.4022930419973
 21
39.30434467580866
 31
0.0
  0
LINE
  5
3A8
330
1F
100
AcDbEntity
  8
E-2
  6
Continuous
 62
     3
370
     9
100
AcDbLine
 10
1296.40163791561
 20
59.30472172696639
 30
0.0
 11
661.4019419131057
 21
59.3047217269666
 31
0.0
  0
LINE
  5
3A9
330
1F
100
AcDbEntity
  8
E-1
  6
Continuous
 62
     6
370
     9
100
AcDbLine
 10
661.4019419131057
 20
59.3047217269666
 30
0.0
 11
1306.401826441187
 21
59.30472172696639
 31
0.0
  0
LINE
  5
3AA
330
1F
100
AcDbEntity
  8
E-2
  6
Continuous
 62
     3
370
     9
100
AcDbLine
 10
661.4019419131057
 20
104.3041702896467
 30
0.0
 11
846.4022930419964
 21
104.3041702896467
 31
0.0
  0
LINE
  5
3AB
330
1F
100
AcDbEntity
  8
E-C
  6
JWW_HOJO
 62
     7
370
     9
100
AcDbLine
 10
1221.400683504865
 20
254.6645669804573
 30
0.0
 11
1221.400683504865
 21
233.5301749895891
 31
0.0
  0
LINE
  5
3AC
330
1F
100
AcDbEntity
  8
E-C
  6
JWW_HOJO
 62
     7
370
     9
100
AcDbLine
 10
1251.401599032209
 20
254.6645669804573
 30
0.0
 11
1251.401599032209
 21
104.3039213769677
 31
0.0
  0
LINE
  5
3AD
330
1F
100
AcDbEntity
  8
E-C
  6
JWW_PHANTOM1
 62
     7
370
     9
100
AcDbLine
 10
998.3614143336996
 20
447.1968920475722
 30
0.0
 11
987.7547614074052
 21
415.3769332686901
 31
0.0
  0
LINE
  5
3AE
330
1F
100
AcDbEntity
  8
E-C
  6
JWW_PHANTOM1
 62
     7
370
     9
100
AcDbLine
 10
1168.067161253191
 20
277.4913201033829
 30
0.0
 11
1146.853855400602
 21
256.2780142507953
 31
0.0
  0
LINE
  5
3AF
330
1F
100
AcDbEntity
  8
E-C
  6
JWW_PHANTOM1
 62
     7
370
     9
100
AcDbLine
 10
1026.645472186544
 20
418.9123092688184
 30
0.0
 11
1005.432516284562
 21
397.6991783915336
 31
0.0
  0
LINE
  5
3B0
330
1F
100
AcDbEntity
  8
E-C
  6
JWW_PHANTOM1
 62
     7
370
     9
100
AcDbLine
 10
1019.574720186287
 20
411.8415572685618
 30
0.0
 11
1012.503618235425
 21
418.9126592194245
 31
0.0
  0
LINE
  5
3B1
330
1F
100
AcDbEntity
  8
E-C
  6
JWW_PHANTOM1
 62
     7
370
     9
100
AcDbLine
 10
1001.896265407918
 20
408.3058313178274
 30
0.0
 11
1012.503618235425
 21
418.9126592194245
 31
0.0
  0
LINE
  5
3B2
330
1F
100
AcDbEntity
  8
E-C
  6
JWW_PHANTOM1
 62
     7
370
     9
100
AcDbLine
 10
1251.401424056906
 20
502.3036140213599
 30
0.0
 11
1221.401383406078
 21
487.3035062082942
 31
0.0
  0
LINE
  5
3B3
330
1F
100
AcDbEntity
  8
E-C
  6
JWW_PHANTOM1
 62
     7
370
     9
100
AcDbLine
 10
1251.401074106299
 20
462.3035598202556
 30
0.0
 11
1221.401383406078
 21
462.3033848449522
 31
0.0
  0
LINE
  5
3B4
330
1F
100
AcDbEntity
  8
E-C
  6
JWW_PHANTOM1
 62
     7
370
     9
100
AcDbLine
 10
1241.401585481934
 20
462.3035598202556
 30
0.0
 11
1241.401585481934
 21
472.3035733705312
 31
0.0
  0
LINE
  5
3B5
330
1F
100
AcDbEntity
  8
E-C
  6
JWW_PHANTOM1
 62
     7
370
     9
100
AcDbLine
 10
1226.400777767655
 20
472.303923321138
 30
0.0
 11
1241.401585481934
 21
472.3035733705312
 31
0.0
  0
LINE
  5
3B6
330
1F
100
AcDbEntity
  8
E-C
  6
JWW_PHANTOM1
 62
     7
370
     9
100
AcDbLine
 10
998.3614143336996
 20
447.1968920475722
 30
0.0
 11
1182.209365154916
 21
263.3491162016575
 31
0.0
  0
LINE
  5
3B7
330
1F
100
AcDbEntity
  8
E-C
  6
JWW_PHANTOM1
 62
     7
370
     9
100
AcDbLine
 10
987.7547614074052
 20
415.3769332686901
 30
0.0
 11
1160.995709351722
 21
242.1354603984631
 31
0.0
  0
LINE
  5
3B8
330
1F
100
AcDbEntity
  8
E-C
  6
JWW_PHANTOM1
 62
     7
370
     9
100
AcDbLine
 10
1221.401383406078
 20
487.3035062082942
 30
0.0
 11
1221.400683504865
 21
254.6645669804573
 31
0.0
  0
LINE
  5
3B9
330
1F
100
AcDbEntity
  8
E-C
  6
JWW_PHANTOM1
 62
     7
370
     9
100
AcDbLine
 10
1251.401424056906
 20
502.3036140213599
 30
0.0
 11
1251.401599032209
 21
254.6645669804573
 31
0.0
  0
ARC
  5
3BA
330
1F
100
AcDbEntity
  8
E-C
  6
JWW_PHANTOM1
 62
     7
370
     9
100
AcDbCircle
 10
998.3607144324873
 20
411.841382293259
 30
0.0
 40
4.99999994016522
100
AcDbArc
 50
225.0
 51
315.0
  0
ARC
  5
3BB
330
1F
100
AcDbEntity
  8
E-C
  6
JWW_PHANTOM1
 62
     7
370
     9
100
AcDbCircle
 10
1226.400777767655
 20
477.3040175839275
 30
0.0
 40
4.999999940165221
100
AcDbArc
 50
180.0
 51
270.0
  0
LINE
  5
3BC
330
1F
100
AcDbEntity
  8
E-C
  6
JWW_PHANTOM1
 62
     7
370
     9
100
AcDbLine
 10
1251.401599032209
 20
257.303638765342
 30
0.0
 11
1221.401383406078
 21
257.303638765342
 31
0.0
  0
TEXT
  5
3BD
330
1F
100
AcDbEntity
  8
E-5
  6
Continuous
 62
     2
370
     9
100
AcDbText
 10
816.4017840229337
 20
-284.7186623848644
 30
0.0
 40
30.48
  1
把手詳細図　Ｓ＝１：１
 41
1.113636363636362
  7
ＭＳ ゴシック
100
AcDbText
  0
LINE
  5
3BE
330
1F
100
AcDbEntity
  8
E-5
  6
Continuous
 62
     7
370
     9
100
AcDbLine
 10
1324.401784022933
 20
-235.3586623848644
 30
0.0
 11
798.401784022933
 21
-235.3586623848644
 31
0.0
  0
LINE
  5
3BF
330
1F
100
AcDbEntity
  8
E-5
  6
Continuous
 62
     7
370
     9
100
AcDbLine
 10
1324.401784022933
 20
-305.3586623848644
 30
0.0
 11
798.401784022933
 21
-305.3586623848644
 31
0.0
  0
LINE
  5
3C0
330
1F
100
AcDbEntity
  8
E-5
  6
Continuous
 62
     7
370
     9
100
AcDbLine
 10
1324.401784022933
 20
-235.3586623848644
 30
0.0
 11
1324.401784022933
 21
-305.3586623848644
 31
0.0
  0
LINE
  5
3C1
330
1F
100
AcDbEntity
  8
E-5
  6
Continuous
 62
     7
370
     9
100
AcDbLine
 10
798.401784022933
 20
-235.3586623848644
 30
0.0
 11
798.401784022933
 21
-305.3586623848644
 31
0.0
  0
LINE
  5
3C2
330
1F
100
AcDbEntity
  8
E-3
  6
Continuous
 62
     2
370
     9
100
AcDbLine
 10
761.4016367373239
 20
134.3062576212928
 30
0.0
 11
661.4025510863831
 21
134.3062576212928
 31
0.0
  0
LINE
  5
3C3
330
1F
100
AcDbEntity
  8
E-4
  6
Continuous
 62
     7
370
     9
100
AcDbLine
 10
668.8327789026971
 20
134.3062576212928
 30
0.0
 11
698.8338299313858
 21
104.3051191035373
 31
0.0
  0
LINE
  5
3C4
330
1F
100
AcDbEntity
  8
E-4
  6
Continuous
 62
     7
370
     9
100
AcDbLine
 10
753.6853024175002
 20
134.3062576212928
 30
0.0
 11
783.6860034899183
 21
104.3051191035373
 31
0.0
  0
LINE
  5
3C5
330
1F
100
AcDbEntity
  8
E-4
  6
Continuous
 62
     7
370
     9
100
AcDbLine
 10
711.2586907066611
 20
134.3062576212928
 30
0.0
 11
741.2597417353487
 21
104.3051191035373
 31
0.0
  0
LINE
  5
3C6
330
1F
100
AcDbEntity
  8
E-3
  6
Continuous
 62
     2
370
     9
100
AcDbLine
 10
761.4016367373239
 20
134.3062576212928
 30
0.0
 11
761.4016367373239
 21
234.3062576212928
 31
0.0
  0
LINE
  5
3C7
330
1F
100
AcDbEntity
  8
E-4
  6
Continuous
 62
     7
370
     9
100
AcDbLine
 10
761.4016367373239
 20
134.3062576212928
 30
0.0
 11
811.4018794640077
 21
134.3062576212928
 31
0.0
  0
LINE
  5
3C8
330
1F
100
AcDbEntity
  8
E-5
  6
Continuous
 62
     6
370
     9
100
AcDbLine
 10
769.9350942309798
 20
228.2618196215151
 30
0.0
 11
761.4025985482135
 21
219.7293239387511
 31
0.0
  0
ARC
  5
3C9
330
1F
100
AcDbEntity
  8
E-5
  6
Continuous
 62
     6
370
     9
100
AcDbCircle
 10
786.4016700597381
 20
260.5559614719311
 30
0.0
 40
36.24980852870867
100
AcDbArc
 50
226.3968200683594
 51
313.6031799316406
  0
LINE
  5
3CA
330
1F
100
AcDbEntity
  8
E-5
  6
Continuous
 62
     6
370
     9
100
AcDbLine
 10
795.397500345241
 20
225.4398179323255
 30
0.0
 11
761.4025985482135
 21
191.4449161353002
 31
0.0
  0
LINE
  5
3CB
330
1F
100
AcDbEntity
  8
E-5
  6
Continuous
 62
     6
370
     9
100
AcDbLine
 10
811.402141373685
 20
213.1614509597455
 30
0.0
 11
761.4025985482135
 21
163.161908134274
 31
0.0
  0
LINE
  5
3CC
330
1F
100
AcDbEntity
  8
E-5
  6
Continuous
 62
     6
370
     9
100
AcDbLine
 10
794.2181668020135
 20
225.1591575460736
 30
0.0
 11
811.402141373685
 21
207.9751829744043
 31
0.0
  0
LINE
  5
3CD
330
1F
100
AcDbEntity
  8
E-5
  6
Continuous
 62
     6
370
     9
100
AcDbLine
 10
761.4025985482135
 20
201.405910192974
 30
0.0
 11
811.402141373685
 21
151.4063673675025
 31
0.0
  0
LINE
  5
3CE
330
1F
100
AcDbEntity
  8
E-5
  6
Continuous
 62
     6
370
     9
100
AcDbLine
 10
761.4025985482135
 20
229.6903179964249
 30
0.0
 11
811.402141373685
 21
179.6907751709534
 31
0.0
  0
LINE
  5
3CF
330
1F
100
AcDbEntity
  8
E-5
  6
Continuous
 62
     6
370
     9
100
AcDbLine
 10
761.4025985482135
 20
173.1215023895231
 30
0.0
 11
800.2179344442379
 21
134.3061664934987
 31
0.0
  0
LINE
  5
3D0
330
1F
100
AcDbEntity
  8
E-5
  6
Continuous
 62
     6
370
     9
100
AcDbLine
 10
761.4025985482135
 20
144.8370945860722
 30
0.0
 11
771.933526640787
 21
134.3061664934987
 31
0.0
  0
LINE
  5
3D1
330
1F
100
AcDbEntity
  8
E-5
  6
Continuous
 62
     6
370
     9
100
AcDbLine
 10
811.402141373685
 20
184.8784429587192
 30
0.0
 11
761.4025985482135
 21
134.8789001332477
 31
0.0
  0
LINE
  5
3D2
330
1F
100
AcDbEntity
  8
E-5
  6
Continuous
 62
     6
370
     9
100
AcDbLine
 10
811.402141373685
 20
156.595434957693
 30
0.0
 11
789.1128729094908
 21
134.3061664934987
 31
0.0
  0
LINE
  5
3D3
330
1F
100
AcDbEntity
  8
E-2
  6
Continuous
 62
     2
370
     9
100
AcDbLine
 10
761.4025985482135
 20
195.5883313138713
 30
0.0
 11
700.1204337278409
 21
134.3061664934987
 31
0.0
  0
LINE
  5
3D4
330
1F
100
AcDbEntity
  8
E-2
  6
Continuous
 62
     2
370
     9
100
AcDbLine
 10
761.4025985482135
 20
223.8720392161088
 30
0.0
 11
671.8367258256035
 21
134.3061664934987
 31
0.0
  0
LINE
  5
3D5
330
1F
100
AcDbEntity
  8
E-4
  6
Continuous
 62
     7
370
     9
100
AcDbLine
 10
796.1119141251635
 20
134.3062576212928
 30
0.0
 11
811.4018794640077
 21
119.0159910023431
 31
0.0
  0
LINE
  5
3D6
330
1F
100
AcDbEntity
  8
E-5
  6
Continuous
 62
     6
370
     9
100
AcDbLine
 10
811.4022315561441
 20
219.3051409152254
 30
0.0
 11
811.4017033821523
 21
234.3062576212928
 31
0.0
  0
LINE
  5
3D7
330
1F
100
AcDbEntity
  8
E-5
  6
Continuous
 62
     7
370
     9
100
AcDbLine
 10
1031.310869075491
 20
3.82249599792388
 30
0.0
 11
1040.877954884619
 21
-19.27449231485838
 31
0.0
  0
LINE
  5
3D8
330
1F
100
AcDbEntity
  8
E-5
  6
Continuous
 62
     7
370
     9
100
AcDbLine
 10
1031.310869075491
 20
3.82249599792388
 30
0.0
 11
1046.529904800709
 21
-16.01133750935702
 31
0.0
  0
LINE
  5
3D9
330
1F
100
AcDbEntity
  8
E-5
  6
Continuous
 62
     7
370
     9
100
AcDbLine
 10
1031.310869075491
 20
3.822805271872163
 30
0.0
 11
1121.955060613413
 21
-153.1775398828126
 31
0.0
  0
TEXT
  5
3DA
330
1F
100
AcDbEntity
  8
E-5
  6
Continuous
 62
     2
370
     9
100
AcDbText
 10
1130.206022692364
 20
-49.57444194273428
 30
0.0
 40
30.48
  1
平座金
 41
1.083333333333331
  7
ＭＳ ゴシック
100
AcDbText
  0
TEXT
  5
3DB
330
1F
100
AcDbEntity
  8
E-5
  6
Continuous
 62
     2
370
     9
100
AcDbText
 10
1130.206022692364
 20
-95.58011026274784
 30
0.0
 40
30.48
  1
ばね座金
 41
1.093750000000002
  7
ＭＳ ゴシック
100
AcDbText
  0
TEXT
  5
3DC
330
1F
100
AcDbEntity
  8
E-5
  6
Continuous
 62
     2
370
     9
100
AcDbText
 10
1130.206022692364
 20
-141.5857785827614
 30
0.0
 40
30.48
  1
なべ小ねじ
 41
1.100000000000001
  7
ＭＳ ゴシック
100
AcDbText
  0
LINE
  5
3DD
330
1F
100
AcDbEntity
  8
E-5
  6
Continuous
 62
     7
370
     9
100
AcDbLine
 10
1392.767325941132
 20
-153.1775398828126
 30
0.0
 11
1121.955060613413
 21
-153.1775398828126
 31
0.0
  0
TEXT
  5
3DE
330
1F
100
AcDbEntity
  8
E-5
  6
Continuous
 62
     2
370
     9
100
AcDbText
 10
1130.206022692364
 20
-197.4661113113841
 30
0.0
 40
30.48
  1
ＳＵＳ３０４
 41
1.104166666666665
  7
ＭＳ ゴシック
100
AcDbText
  0
ARC
  5
3DF
330
1F
100
AcDbEntity
  8
E-C
  6
Continuous
 62
     2
370
     9
100
AcDbCircle
 10
821.40159314078
 20
1159.927721851598
 30
0.0
 40
10.0
100
AcDbArc
 50
90.0
 51
180.0
  0
LINE
  5
3E0
330
1F
100
AcDbEntity
  8
E-C
  6
Continuous
 62
     2
370
     9
100
AcDbLine
 10
811.40159314078
 20
829.9281224684503
 30
0.0
 11
811.40159314078
 21
1159.927721851598
 31
0.0
  0
ARC
  5
3E1
330
1F
100
AcDbEntity
  8
E-C
  6
Continuous
 62
     2
370
     9
100
AcDbCircle
 10
821.40159314078
 20
829.9281224684503
 30
0.0
 40
10.0
100
AcDbArc
 50
180.0
 51
270.0
  0
LINE
  5
3E2
330
1F
100
AcDbEntity
  8
E-C
  6
Continuous
 62
     2
370
     9
100
AcDbLine
 10
1301.401220802767
 20
1169.927721851598
 30
0.0
 11
821.40159314078
 21
1169.927721851598
 31
0.0
  0
ARC
  5
3E3
330
1F
100
AcDbEntity
  8
E-C
  6
Continuous
 62
     2
370
     9
100
AcDbCircle
 10
1301.401220802767
 20
1159.927721851598
 30
0.0
 40
10.0
100
AcDbArc
 50
0.0
 51
90.00000000000001
  0
LINE
  5
3E4
330
1F
100
AcDbEntity
  8
E-C
  6
Continuous
 62
     2
370
     9
100
AcDbLine
 10
1311.401220802767
 20
829.9281224684503
 30
0.0
 11
1311.401220802767
 21
1159.927721851598
 31
0.0
  0
LINE
  5
3E5
330
1F
100
AcDbEntity
  8
E-C
  6
Continuous
 62
     2
370
     9
100
AcDbLine
 10
1301.401220802767
 20
819.9281224684503
 30
0.0
 11
821.40159314078
 21
819.9281224684503
 31
0.0
  0
ARC
  5
3E6
330
1F
100
AcDbEntity
  8
E-C
  6
Continuous
 62
     2
370
     9
100
AcDbCircle
 10
1301.401220802767
 20
829.9281224684503
 30
0.0
 40
10.0
100
AcDbArc
 50
270.0
 51
0.0
  0
ARC
  5
3E7
330
1F
100
AcDbEntity
  8
C-C
  6
Continuous
 62
     2
370
     9
100
AcDbCircle
 10
-369.7538232914857
 20
802.2182154296306
 30
0.0
 40
1.0
100
AcDbArc
 50
90.0
 51
180.0
  0
LINE
  5
3E8
330
1F
100
AcDbEntity
  8
C-C
  6
Continuous
 62
     2
370
     9
100
AcDbLine
 10
-370.7538232914857
 20
769.2182554913156
 30
0.0
 11
-370.7538232914857
 21
802.2182154296306
 31
0.0
  0
ARC
  5
3E9
330
1F
100
AcDbEntity
  8
C-C
  6
Continuous
 62
     2
370
     9
100
AcDbCircle
 10
-369.7538232914857
 20
769.2182554913156
 30
0.0
 40
1.0
100
AcDbArc
 50
180.0
 51
270.0
  0
ARC
  5
3EA
330
1F
100
AcDbEntity
  8
C-C
  6
Continuous
 62
     2
370
     9
100
AcDbCircle
 10
-369.7538232914857
 20
602.2182154296305
 30
0.0
 40
1.0
100
AcDbArc
 50
90.0
 51
180.0
  0
LINE
  5
3EB
330
1F
100
AcDbEntity
  8
C-C
  6
Continuous
 62
     2
370
     9
100
AcDbLine
 10
-370.7538232914857
 20
569.2182554913157
 30
0.0
 11
-370.7538232914857
 21
602.2182154296305
 31
0.0
  0
ARC
  5
3EC
330
1F
100
AcDbEntity
  8
C-C
  6
Continuous
 62
     2
370
     9
100
AcDbCircle
 10
-369.7538232914857
 20
569.2182554913157
 30
0.0
 40
1.0
100
AcDbArc
 50
180.0
 51
270.0
  0
LINE
  5
3ED
330
1F
100
AcDbEntity
  8
C-C
  6
Continuous
 62
     2
370
     9
100
AcDbLine
 10
-321.753860525287
 20
603.2182154296305
 30
0.0
 11
-369.7538232914857
 21
603.2182154296305
 31
0.0
  0
ARC
  5
3EE
330
1F
100
AcDbEntity
  8
C-C
  6
Continuous
 62
     2
370
     9
100
AcDbCircle
 10
-321.753860525287
 20
602.2182154296305
 30
0.0
 40
1.0
100
AcDbArc
 50
0.0
 51
90.0
  0
LINE
  5
3EF
330
1F
100
AcDbEntity
  8
C-C
  6
Continuous
 62
     2
370
     9
100
AcDbLine
 10
-320.753860525287
 20
569.2182554913157
 30
0.0
 11
-320.753860525287
 21
602.2182154296305
 31
0.0
  0
LINE
  5
3F0
330
1F
100
AcDbEntity
  8
C-C
  6
Continuous
 62
     2
370
     9
100
AcDbLine
 10
-321.753860525287
 20
568.2182554913157
 30
0.0
 11
-369.7538232914857
 21
568.2182554913157
 31
0.0
  0
ARC
  5
3F1
330
1F
100
AcDbEntity
  8
C-C
  6
Continuous
 62
     2
370
     9
100
AcDbCircle
 10
-321.753860525287
 20
569.2182554913157
 30
0.0
 40
1.0
100
AcDbArc
 50
270.0
 51
0.0
  0
LINE
  5
3F2
330
1F
100
AcDbEntity
  8
C-C
  6
Continuous
 62
     2
370
     9
100
AcDbLine
 10
-321.753860525287
 20
768.2182554913157
 30
0.0
 11
-369.7538232914857
 21
768.2182554913157
 31
0.0
  0
ARC
  5
3F3
330
1F
100
AcDbEntity
  8
C-C
  6
Continuous
 62
     2
370
     9
100
AcDbCircle
 10
-321.753860525287
 20
769.2182554913156
 30
0.0
 40
1.0
100
AcDbArc
 50
270.0
 51
0.0
  0
LINE
  5
3F4
330
1F
100
AcDbEntity
  8
C-C
  6
Continuous
 62
     2
370
     9
100
AcDbLine
 10
-321.753860525287
 20
803.2182154296305
 30
0.0
 11
-369.7538232914857
 21
803.2182154296305
 31
0.0
  0
LINE
  5
3F5
330
1F
100
AcDbEntity
  8
C-C
  6
Continuous
 62
     2
370
     9
100
AcDbLine
 10
-320.753860525287
 20
802.2182154296306
 30
0.0
 11
-320.753860525287
 21
769.2182554913156
 31
0.0
  0
ARC
  5
3F6
330
1F
100
AcDbEntity
  8
C-C
  6
Continuous
 62
     2
370
     9
100
AcDbCircle
 10
-321.753860525287
 20
802.2182154296306
 30
0.0
 40
1.0
100
AcDbArc
 50
0.0
 51
90.0
  0
TEXT
  5
3F7
330
1F
100
AcDbEntity
  8
D-5
  6
Continuous
 62
     2
370
     9
100
AcDbText
 10
264.5114959553187
 20
-490.0542427405369
 30
0.0
 40
30.48
  1
タイル接着剤貼用ピット蓋　ＴＣ－Ｓ　４５０×６００
 41
1.12
  7
ＭＳ ゴシック
100
AcDbText
  0
TEXT
  5
3F8
330
1F
100
AcDbEntity
  8
D-5
  6
Continuous
 62
     2
370
     9
100
AcDbText
 10
324.2234100178186
 20
-555.0542999609958
 30
0.0
 40
30.48
  1
材質：蓋フレーム　ＳＵＳ３０４　ｔ＝２．０
 41
1.119047619047619
  7
ＭＳ ゴシック
100
AcDbText
  0
TEXT
  5
3F9
330
1F
100
AcDbEntity
  8
F-5ﾚｲﾔ
  6
Continuous
 62
     2
370
     9
100
AcDbText
 10
-832.5003505397484
 20
-1356.828085106383
 30
0.0
 40
30.48
  1
タイル接着剤貼用ピット蓋　ＴＣ－Ｓ　４５０×６００＋ＳＦ２０Ｂ
 41
0.8991935483870966
  7
ＭＳ ゴシック
100
AcDbText
  0
LINE
  5
3FA
330
1F
100
AcDbEntity
  8
D-8
  6
Continuous
 62
    30
370
     5
100
AcDbLine
 10
-885.8605849897181
 20
-480.0538648011221
 30
0.0
 11
-1190.071525383269
 21
-480.0538648011221
 31
0.0
  0
LINE
  5
3FB
330
1F
100
AcDbEntity
  8
D-8
  6
Continuous
 62
    30
370
     5
100
AcDbLine
 10
-667.4021227784107
 20
-480.0538648011221
 30
0.0
 11
-846.872637917475
 21
-480.0538648011221
 31
0.0
  0
TEXT
  5
3FC
330
1F
100
AcDbEntity
  8
D-5
  6
Continuous
 62
     2
370
     9
100
AcDbText
 10
324.2234100178186
 20
-620.0538612708104
 30
0.0
 40
30.48
  1
　　　プレート　　溶融亜鉛めっき鋼板
 41
1.118055555555555
  7
ＭＳ ゴシック
100
AcDbText
  0
ENDSEC
  0
SECTION
  2
OBJECTS
  0
DICTIONARY
  5
C
330
0
100
AcDbDictionary
281
     1
  3
ACAD_GROUP
350
D
  3
ACAD_LAYOUT
350
1A
  3
ACAD_MLEADERSTYLE
350
3FE
  3
ACAD_MLINESTYLE
350
17
  3
ACAD_PLOTSETTINGS
350
19
  3
ACAD_PLOTSTYLENAME
350
E
  3
ACAD_TABLESTYLE
350
3FD
  3
ACAD_VISUALSTYLE
350
2A
  0
DICTIONARY
  5
D
102
{ACAD_REACTORS
330
C
102
}
330
C
100
AcDbDictionary
281
     1
  0
DICTIONARY
  5
1A
102
{ACAD_REACTORS
330
C
102
}
330
C
100
AcDbDictionary
281
     1
  3
Layout1
350
1E
  3
Layout2
350
26
  3
Model
350
22
  0
DICTIONARY
  5
3FE
102
{ACAD_REACTORS
330
C
102
}
330
C
100
AcDbDictionary
281
     1
  0
DICTIONARY
  5
17
102
{ACAD_REACTORS
330
C
102
}
330
C
100
AcDbDictionary
281
     1
  3
Standard
350
18
  0
DICTIONARY
  5
19
102
{ACAD_REACTORS
330
C
102
}
330
C
100
AcDbDictionary
281
     1
  0
ACDBDICTIONARYWDFLT
  5
E
102
{ACAD_REACTORS
330
C
102
}
330
C
100
AcDbDictionary
281
     1
  3
Normal
350
F
100
AcDbDictionaryWithDefault
340
F
  0
DICTIONARY
  5
3FD
102
{ACAD_REACTORS
330
C
102
}
330
C
100
AcDbDictionary
281
     1
  0
DICTIONARY
  5
2A
102
{ACAD_REACTORS
330
C
102
}
330
C
100
AcDbDictionary
281
     1
  3
2dWireframe
350
2F
  3
3D Hidden
350
31
  3
3dWireframe
350
30
  3
Basic
350
32
  3
Brighten
350
36
  3
ColorChange
350
3A
  3
Conceptual
350
34
  3
Dim
350
35
  3
Facepattern
350
39
  3
Flat
350
2B
  3
FlatWithEdges
350
2C
  3
Gouraud
350
2D
  3
GouraudWithEdges
350
2E
  3
Linepattern
350
38
  3
Realistic
350
33
  3
Thicken
350
37
  0
LAYOUT
  5
1E
102
{ACAD_REACTORS
330
1A
102
}
330
1A
100
AcDbPlotSettings
  1

  2
none_device
  4

  6

 40
0.0
 41
0.0
 42
0.0
 43
0.0
 44
0.0
 45
0.0
 46
0.0
 47
0.0
 48
0.0
 49
0.0
140
0.0
141
0.0
142
1.0
143
1.0
 70
   688
 72
     0
 73
     0
 74
     5
  7

 75
    16
 76
     0
 77
     5
 78
   300
147
1.0
148
0.0
149
0.0
100
AcDbLayout
  1
Layout1
 70
     1
 71
     1
 10
0.0
 20
0.0
 11
420.0
 21
297.0
 12
0.0
 22
0.0
 32
0.0
 14
1.000000000000000E+20
 24
1.000000000000000E+20
 34
1.000000000000000E+20
 15
-1.000000000000000E+20
 25
-1.000000000000000E+20
 35
-1.000000000000000E+20
146
0.0
 13
0.0
 23
0.0
 33
0.0
 16
1.0
 26
0.0
 36
0.0
 17
0.0
 27
1.0
 37
0.0
 76
     0
330
1B
  0
LAYOUT
  5
26
102
{ACAD_REACTORS
330
1A
102
}
330
1A
100
AcDbPlotSettings
  1

  2
none_device
  4

  6

 40
0.0
 41
0.0
 42
0.0
 43
0.0
 44
0.0
 45
0.0
 46
0.0
 47
0.0
 48
0.0
 49
0.0
140
0.0
141
0.0
142
1.0
143
1.0
 70
   688
 72
     0
 73
     0
 74
     5
  7

 75
    16
 76
     0
 77
     5
 78
   300
147
1.0
148
0.0
149
0.0
100
AcDbLayout
  1
Layout2
 70
     1
 71
     2
 10
0.0
 20
0.0
 11
0.0
 21
0.0
 12
0.0
 22
0.0
 32
0.0
 14
0.0
 24
0.0
 34
0.0
 15
0.0
 25
0.0
 35
0.0
146
0.0
 13
0.0
 23
0.0
 33
0.0
 16
1.0
 26
0.0
 36
0.0
 17
0.0
 27
1.0
 37
0.0
 76
     0
330
23
  0
LAYOUT
  5
22
102
{ACAD_REACTORS
330
1A
102
}
330
1A
100
AcDbPlotSettings
  1

  2
none_device
  4

  6

 40
0.0
 41
0.0
 42
0.0
 43
0.0
 44
0.0
 45
0.0
 46
0.0
 47
0.0
 48
0.0
 49
0.0
140
0.0
141
0.0
142
1.0
143
1.0
 70
  1712
 72
     0
 73
     0
 74
     0
  7

 75
     0
 76
     0
 77
     5
 78
   300
147
1.0
148
0.0
149
0.0
100
AcDbLayout
  1
Model
 70
     1
 71
     0
 10
-2100.0
 20
-1485.0
 11
2100.0
 21
1485.0
 12
0.0
 22
0.0
 32
0.0
 14
-2100.0
 24
-1485.0
 34
0.0
 15
2100.0
 25
1485.0
 35
0.0
146
0.0
 13
0.0
 23
0.0
 33
0.0
 16
1.0
 26
0.0
 36
0.0
 17
0.0
 27
1.0
 37
0.0
 76
     0
330
1F
331
29
  0
MLINESTYLE
  5
18
102
{ACAD_REACTORS
330
17
102
}
330
17
100
AcDbMlineStyle
  2
Standard
 70
     0
  3

 62
   256
 51
90.0
 52
90.0
 71
     2
 49
0.5
 62
   256
  6
BYLAYER
 49
-0.5
 62
   256
  6
BYLAYER
  0
ACDBPLACEHOLDER
  5
F
102
{ACAD_REACTORS
330
E
102
}
330
E
  0
VISUALSTYLE
  5
2F
102
{ACAD_REACTORS
330
2A
102
}
330
2A
100
AcDbVisualStyle
  2
2dWireframe
 70
     4
 71
     0
 72
     2
 73
     0
 90
        0
 40
-0.6
 41
-30.0
 62
     5
 63
     7
421
 16777215
 74
     1
 91
        4
 64
     7
 65
   257
 75
     1
175
     1
 42
1.0
 92
        0
 66
   257
 43
1.0
 76
     1
 77
     6
 78
     2
 67
     7
 79
     5
170
     0
171
     0
290
     0
174
     0
 93
        1
 44
0.0
173
     0
291
     0
 45
0.0
  0
VISUALSTYLE
  5
31
102
{ACAD_REACTORS
330
2A
102
}
330
2A
100
AcDbVisualStyle
  2
3D Hidden
 70
     6
 71
     1
 72
     2
 73
     2
 90
        0
 40
-0.6
 41
-30.0
 62
     5
 63
     7
421
 16777215
 74
     2
 91
        2
 64
     7
 65
   257
 75
     2
175
     1
 42
40.0
 92
        0
 66
   257
 43
1.0
 76
     1
 77
     6
 78
     2
 67
     7
 79
     3
170
     0
171
     0
290
     0
174
     0
 93
        1
 44
0.0
173
     0
291
     0
 45
0.0
  0
VISUALSTYLE
  5
30
102
{ACAD_REACTORS
330
2A
102
}
330
2A
100
AcDbVisualStyle
  2
3dWireframe
 70
     5
 71
     0
 72
     2
 73
     0
 90
        0
 40
-0.6
 41
-30.0
 62
     5
 63
     7
421
 16777215
 74
     1
 91
        4
 64
     7
 65
   257
 75
     1
175
     1
 42
1.0
 92
        0
 66
   257
 43
1.0
 76
     1
 77
     6
 78
     2
 67
     7
 79
     5
170
     0
171
     0
290
     0
174
     0
 93
        1
 44
0.0
173
     0
291
     0
 45
0.0
  0
VISUALSTYLE
  5
32
102
{ACAD_REACTORS
330
2A
102
}
330
2A
100
AcDbVisualStyle
  2
Basic
 70
     7
 71
     1
 72
     0
 73
     1
 90
        0
 40
-0.6
 41
-30.0
 62
     5
 63
     7
421
 16777215
 74
     0
 91
        4
 64
     7
 65
   257
 75
     1
175
     1
 42
1.0
 92
        8
 66
     7
 43
1.0
 76
     1
 77
     6
 78
     2
 67
     7
 79
     5
170
     0
171
     0
290
     0
174
     0
 93
        1
 44
0.0
173
     0
291
     1
 45
0.0
  0
VISUALSTYLE
  5
36
102
{ACAD_REACTORS
330
2A
102
}
330
2A
100
AcDbVisualStyle
  2
Brighten
 70
    12
 71
     2
 72
     2
 73
     0
 90
        0
 40
-0.6
 41
-30.0
 62
     5
 63
     7
421
 16777215
 74
     1
 91
        4
 64
     7
 65
   257
 75
     1
175
     1
 42
1.0
 92
        8
 66
     7
 43
1.0
 76
     1
 77
     6
 78
     2
 67
     7
 79
     5
170
     0
171
     0
290
     0
174
     0
 93
        1
 44
50.0
173
     0
291
     1
 45
0.0
  0
VISUALSTYLE
  5
3A
102
{ACAD_REACTORS
330
2A
102
}
330
2A
100
AcDbVisualStyle
  2
ColorChange
 70
    16
 71
     2
 72
     2
 73
     3
 90
        0
 40
-0.6
 41
-30.0
 62
     5
 63
     8
421
  8421504
 74
     1
 91
        4
 64
     7
 65
   257
 75
     1
175
     1
 42
1.0
 92
        8
 66
     8
424
  8421504
 43
1.0
 76
     1
 77
     6
 78
     2
 67
     7
 79
     5
170
     0
171
     0
290
     0
174
     0
 93
        1
 44
0.0
173
     0
291
     1
 45
0.0
  0
VISUALSTYLE
  5
34
102
{ACAD_REACTORS
330
2A
102
}
330
2A
100
AcDbVisualStyle
  2
Conceptual
 70
     9
 71
     3
 72
     2
 73
     0
 90
        0
 40
-0.6
 41
-30.0
 62
     5
 63
     7
421
 16777215
 74
     2
 91
        2
 64
     7
 65
   257
 75
     1
175
     1
 42
40.0
 92
        8
 66
     7
 43
1.0
 76
     1
 77
     6
 78
     2
 67
     7
 79
     3
170
     0
171
     0
290
     0
174
     0
 93
        1
 44
0.0
173
     0
291
     0
 45
0.0
  0
VISUALSTYLE
  5
35
102
{ACAD_REACTORS
330
2A
102
}
330
2A
100
AcDbVisualStyle
  2
Dim
 70
    11
 71
     2
 72
     2
 73
     0
 90
        0
 40
-0.6
 41
-30.0
 62
     5
 63
     7
421
 16777215
 74
     1
 91
        4
 64
     7
 65
   257
 75
     1
175
     1
 42
1.0
 92
        8
 66
     7
 43
1.0
 76
     1
 77
     6
 78
     2
 67
     7
 79
     5
170
     0
171
     0
290
     0
174
     0
 93
        1
 44
-50.0
173
     0
291
     1
 45
0.0
  0
VISUALSTYLE
  5
39
102
{ACAD_REACTORS
330
2A
102
}
330
2A
100
AcDbVisualStyle
  2
Facepattern
 70
    15
 71
     2
 72
     2
 73
     0
 90
        0
 40
-0.6
 41
-30.0
 62
     5
 63
     7
421
 16777215
 74
     1
 91
        4
 64
     7
 65
   257
 75
     1
175
     1
 42
1.0
 92
        8
 66
     7
 43
1.0
 76
     1
 77
     6
 78
     2
 67
     7
 79
     5
170
     0
171
     0
290
     0
174
     0
 93
        1
 44
0.0
173
     0
291
     1
 45
0.0
  0
VISUALSTYLE
  5
2B
102
{ACAD_REACTORS
330
2A
102
}
330
2A
100
AcDbVisualStyle
  2
Flat
 70
     0
 71
     2
 72
     1
 73
     1
 90
        2
 40
-0.6
 41
30.0
 62
     5
 63
     7
421
 16777215
 74
     0
 91
        4
 64
     7
 65
   257
 75
     1
175
     1
 42
1.0
 92
        8
 66
     7
 43
1.0
 76
     1
 77
     6
 78
     2
 67
     7
 79
     5
170
     0
171
     0
290
     0
174
     0
 93
       13
 44
0.0
173
     0
291
     1
 45
0.0
  0
VISUALSTYLE
  5
2C
102
{ACAD_REACTORS
330
2A
102
}
330
2A
100
AcDbVisualStyle
  2
FlatWithEdges
 70
     1
 71
     2
 72
     1
 73
     1
 90
        2
 40
-0.6
 41
30.0
 62
     5
 63
     7
421
 16777215
 74
     1
 91
        4
 64
     7
 65
   257
 75
     1
175
     1
 42
1.0
 92
        0
 66
   257
 43
1.0
 76
     1
 77
     6
 78
     2
 67
     7
 79
     5
170
     0
171
     0
290
     0
174
     0
 93
       13
 44
0.0
173
     0
291
     1
 45
0.0
  0
VISUALSTYLE
  5
2D
102
{ACAD_REACTORS
330
2A
102
}
330
2A
100
AcDbVisualStyle
  2
Gouraud
 70
     2
 71
     2
 72
     2
 73
     1
 90
        2
 40
-0.6
 41
30.0
 62
     5
 63
     7
421
 16777215
 74
     0
 91
        4
 64
     7
 65
   257
 75
     1
175
     1
 42
1.0
 92
        0
 66
     7
 43
1.0
 76
     1
 77
     6
 78
     2
 67
     7
 79
     5
170
     0
171
     0
290
     0
174
     0
 93
       13
 44
0.0
173
     0
291
     1
 45
0.0
  0
VISUALSTYLE
  5
2E
102
{ACAD_REACTORS
330
2A
102
}
330
2A
100
AcDbVisualStyle
  2
GouraudWithEdges
 70
     3
 71
     2
 72
     2
 73
     1
 90
        2
 40
-0.6
 41
30.0
 62
     5
 63
     7
421
 16777215
 74
     1
 91
        4
 64
     7
 65
   257
 75
     1
175
     1
 42
1.0
 92
        0
 66
   257
 43
1.0
 76
     1
 77
     6
 78
     2
 67
     7
 79
     5
170
     0
171
     0
290
     0
174
     0
 93
       13
 44
0.0
173
     0
291
     1
 45
0.0
  0
VISUALSTYLE
  5
38
102
{ACAD_REACTORS
330
2A
102
}
330
2A
100
AcDbVisualStyle
  2
Linepattern
 70
    14
 71
     2
 72
     2
 73
     0
 90
        0
 40
-0.6
 41
-30.0
 62
     5
 63
     7
421
 16777215
 74
     1
 91
        4
 64
     7
 65
   257
 75
     7
175
     7
 42
1.0
 92
        8
 66
     7
 43
1.0
 76
     1
 77
     6
 78
     2
 67
     7
 79
     5
170
     0
171
     0
290
     0
174
     0
 93
        1
 44
0.0
173
     0
291
     1
 45
0.0
  0
VISUALSTYLE
  5
33
102
{ACAD_REACTORS
330
2A
102
}
330
2A
100
AcDbVisualStyle
  2
Realistic
 70
     8
 71
     2
 72
     2
 73
     0
 90
        0
 40
-0.6
 41
-30.0
 62
     5
 63
     7
421
 16777215
 74
     1
 91
        0
 64
     7
 65
   257
 75
     1
175
     1
 42
1.0
 92
        8
 66
     8
424
  7895160
 43
1.0
 76
     1
 77
     6
 78
     2
 67
     7
 79
     5
170
     0
171
     0
290
     0
174
     0
 93
       13
 44
0.0
173
     0
291
     0
 45
0.0
  0
VISUALSTYLE
  5
37
102
{ACAD_REACTORS
330
2A
102
}
330
2A
100
AcDbVisualStyle
  2
Thicken
 70
    13
 71
     2
 72
     2
 73
     0
 90
        0
 40
-0.6
 41
-30.0
 62
     5
 63
     7
421
 16777215
 74
     1
 91
        4
 64
     7
 65
   257
 75
     1
175
     1
 42
1.0
 92
       12
 66
     7
 43
1.0
 76
     1
 77
     6
 78
     2
 67
     7
 79
     5
170
     0
171
     0
290
     0
174
     0
 93
        1
 44
0.0
173
     0
291
     1
 45
0.0
  0
ENDSEC
  0
EOF
