  0
SECTION
  2
HEADER
  9
$ACADVER
  1
AC1015
  9
$ACADMAINTVER
 70
     6
  9
$DWGCODEPAGE
  3
ANSI_932
  9
$INSBASE
 10
0.0
 20
0.0
 30
0.0
  9
$EXTMIN
 10
-2100.0
 20
-1485.0
 30
0.0
  9
$EXTMAX
 10
2100.0
 20
1485.0
 30
0.0
  9
$LIMMIN
 10
-2100.0
 20
-1485.0
  9
$LIMMAX
 10
2100.0
 20
1485.0
  9
$ORTHOMODE
 70
     0
  9
$REGENMODE
 70
     1
  9
$FILLMODE
 70
     1
  9
$QTEXTMODE
 70
     0
  9
$MIRRTEXT
 70
     1
  9
$LTSCALE
 40
10.0
  9
$ATTMODE
 70
     1
  9
$TEXTSIZE
 40
2.5
  9
$TRACEWID
 40
1.0
  9
$TEXTSTYLE
  7
Standard
  9
$CLAYER
  8
0
  9
$CELTYPE
  6
ByLayer
  9
$CECOLOR
 62
   256
  9
$CELTSCALE
 40
1.0
  9
$DISPSILH
 70
     0
  9
$DIMSCALE
 40
1.0
  9
$DIMASZ
 40
2.5
  9
$DIMEXO
 40
0.625
  9
$DIMDLI
 40
3.75
  9
$DIMRND
 40
0.0
  9
$DIMDLE
 40
0.0
  9
$DIMEXE
 40
1.25
  9
$DIMTP
 40
0.0
  9
$DIMTM
 40
0.0
  9
$DIMTXT
 40
2.5
  9
$DIMCEN
 40
2.5
  9
$DIMTSZ
 40
0.0
  9
$DIMTOL
 70
     0
  9
$DIMLIM
 70
     0
  9
$DIMTIH
 70
     0
  9
$DIMTOH
 70
     0
  9
$DIMSE1
 70
     0
  9
$DIMSE2
 70
     0
  9
$DIMTAD
 70
     1
  9
$DIMZIN
 70
     8
  9
$DIMBLK
  1

  9
$DIMASO
 70
     1
  9
$DIMSHO
 70
     1
  9
$DIMPOST
  1

  9
$DIMAPOST
  1

  9
$DIMALT
 70
     0
  9
$DIMALTD
 70
     3
  9
$DIMALTF
 40
0.03937007874016
  9
$DIMLFAC
 40
1.0
  9
$DIMTOFL
 70
     1
  9
$DIMTVP
 40
0.0
  9
$DIMTIX
 70
     0
  9
$DIMSOXD
 70
     0
  9
$DIMSAH
 70
     0
  9
$DIMBLK1
  1

  9
$DIMBLK2
  1

  9
$DIMSTYLE
  2
ISO-25
  9
$DIMCLRD
 70
     0
  9
$DIMCLRE
 70
     0
  9
$DIMCLRT
 70
     0
  9
$DIMTFAC
 40
1.0
  9
$DIMGAP
 40
0.625
  9
$DIMJUST
 70
     0
  9
$DIMSD1
 70
     0
  9
$DIMSD2
 70
     0
  9
$DIMTOLJ
 70
     0
  9
$DIMTZIN
 70
     8
  9
$DIMALTZ
 70
     0
  9
$DIMALTTZ
 70
     0
  9
$DIMUPT
 70
     0
  9
$DIMDEC
 70
     2
  9
$DIMTDEC
 70
     2
  9
$DIMALTU
 70
     2
  9
$DIMALTTD
 70
     3
  9
$DIMTXSTY
  7
Standard
  9
$DIMAUNIT
 70
     0
  9
$DIMADEC
 70
     0
  9
$DIMALTRND
 40
0.0
  9
$DIMAZIN
 70
     0
  9
$DIMDSEP
 70
    44
  9
$DIMATFIT
 70
     3
  9
$DIMFRAC
 70
     0
  9
$DIMLDRBLK
  1

  9
$DIMLUNIT
 70
     2
  9
$DIMLWD
 70
    -2
  9
$DIMLWE
 70
    -2
  9
$DIMTMOVE
 70
     0
  9
$LUNITS
 70
     2
  9
$LUPREC
 70
     4
  9
$SKETCHINC
 40
1.0
  9
$FILLETRAD
 40
10.0
  9
$AUNITS
 70
     0
  9
$AUPREC
 70
     0
  9
$MENU
  1
.
  9
$ELEVATION
 40
0.0
  9
$PELEVATION
 40
0.0
  9
$THICKNESS
 40
0.0
  9
$LIMCHECK
 70
     0
  9
$CHAMFERA
 40
10.0
  9
$CHAMFERB
 40
10.0
  9
$CHAMFERC
 40
20.0
  9
$CHAMFERD
 40
0.0
  9
$SKPOLY
 70
     0
  9
$TDCREATE
 40
2456904.665751505
  9
$TDUCREATE
 40
2456904.290751505
  9
$TDUPDATE
 40
2456904.665751516
  9
$TDUUPDATE
 40
2456904.290751516
  9
$TDINDWG
 40
0.0000000116
  9
$TDUSRTIMER
 40
0.0000000116
  9
$USRTIMER
 70
     1
  9
$ANGBASE
 50
0.0
  9
$ANGDIR
 70
     0
  9
$PDMODE
 70
     0
  9
$PDSIZE
 40
0.0
  9
$PLINEWID
 40
0.0
  9
$SPLFRAME
 70
     0
  9
$SPLINETYPE
 70
     6
  9
$SPLINESEGS
 70
     8
  9
$HANDSEED
  5
13E
  9
$SURFTAB1
 70
     6
  9
$SURFTAB2
 70
     6
  9
$SURFTYPE
 70
     6
  9
$SURFU
 70
     6
  9
$SURFV
 70
     6
  9
$UCSBASE
  2

  9
$UCSNAME
  2

  9
$UCSORG
 10
0.0
 20
0.0
 30
0.0
  9
$UCSXDIR
 10
1.0
 20
0.0
 30
0.0
  9
$UCSYDIR
 10
0.0
 20
1.0
 30
0.0
  9
$UCSORTHOREF
  2

  9
$UCSORTHOVIEW
 70
     0
  9
$UCSORGTOP
 10
0.0
 20
0.0
 30
0.0
  9
$UCSORGBOTTOM
 10
0.0
 20
0.0
 30
0.0
  9
$UCSORGLEFT
 10
0.0
 20
0.0
 30
0.0
  9
$UCSORGRIGHT
 10
0.0
 20
0.0
 30
0.0
  9
$UCSORGFRONT
 10
0.0
 20
0.0
 30
0.0
  9
$UCSORGBACK
 10
0.0
 20
0.0
 30
0.0
  9
$PUCSBASE
  2

  9
$PUCSNAME
  2

  9
$PUCSORG
 10
0.0
 20
0.0
 30
0.0
  9
$PUCSXDIR
 10
1.0
 20
0.0
 30
0.0
  9
$PUCSYDIR
 10
0.0
 20
1.0
 30
0.0
  9
$PUCSORTHOREF
  2

  9
$PUCSORTHOVIEW
 70
     0
  9
$PUCSORGTOP
 10
0.0
 20
0.0
 30
0.0
  9
$PUCSORGBOTTOM
 10
0.0
 20
0.0
 30
0.0
  9
$PUCSORGLEFT
 10
0.0
 20
0.0
 30
0.0
  9
$PUCSORGRIGHT
 10
0.0
 20
0.0
 30
0.0
  9
$PUCSORGFRONT
 10
0.0
 20
0.0
 30
0.0
  9
$PUCSORGBACK
 10
0.0
 20
0.0
 30
0.0
  9
$USERI1
 70
     0
  9
$USERI2
 70
     0
  9
$USERI3
 70
     0
  9
$USERI4
 70
     0
  9
$USERI5
 70
     0
  9
$USERR1
 40
0.0
  9
$USERR2
 40
0.0
  9
$USERR3
 40
0.0
  9
$USERR4
 40
0.0
  9
$USERR5
 40
0.0
  9
$WORLDVIEW
 70
     1
  9
$SHADEDGE
 70
     3
  9
$SHADEDIF
 70
    70
  9
$TILEMODE
 70
     1
  9
$MAXACTVP
 70
    64
  9
$PINSBASE
 10
0.0
 20
0.0
 30
0.0
  9
$PLIMCHECK
 70
     0
  9
$PEXTMIN
 10
1.000000000000000E+20
 20
1.000000000000000E+20
 30
1.000000000000000E+20
  9
$PEXTMAX
 10
-1.000000000000000E+20
 20
-1.000000000000000E+20
 30
-1.000000000000000E+20
  9
$PLIMMIN
 10
0.0
 20
0.0
  9
$PLIMMAX
 10
420.0
 20
297.0
  9
$UNITMODE
 70
     0
  9
$VISRETAIN
 70
     1
  9
$PLINEGEN
 70
     0
  9
$PSLTSCALE
 70
     1
  9
$TREEDEPTH
 70
  3020
  9
$CMLSTYLE
  2
Standard
  9
$CMLJUST
 70
     0
  9
$CMLSCALE
 40
20.0
  9
$PROXYGRAPHICS
 70
     1
  9
$MEASUREMENT
 70
     1
  9
$CELWEIGHT
370
    -1
  9
$ENDCAPS
280
     0
  9
$JOINSTYLE
280
     0
  9
$LWDISPLAY
290
     0
  9
$INSUNITS
 70
     4
  9
$HYPERLINKBASE
  1

  9
$STYLESHEET
  1

  9
$XEDIT
290
     1
  9
$CEPSNTYPE
380
     0
  9
$PSTYLEMODE
290
     1
  9
$FINGERPRINTGUID
  2
{C923F9C8-D1F6-429B-B2E9-1EAB2930D0E0}
  9
$VERSIONGUID
  2
{FAEB1C32-E019-11D5-929B-00C0DF256EC4}
  9
$EXTNAMES
290
     1
  9
$PSVPSCALE
 40
0.0
  9
$OLESTARTUP
290
     0
  0
ENDSEC
  0
SECTION
  2
CLASSES
  0
CLASS
  1
ACDBDICTIONARYWDFLT
  2
AcDbDictionaryWithDefault
  3
ObjectDBX Classes
 90
        0
280
     0
281
     0
  0
CLASS
  1
VISUALSTYLE
  2
AcDbVisualStyle
  3
ObjectDBX Classes
 90
     4095
280
     0
281
     0
  0
CLASS
  1
DICTIONARYVAR
  2
AcDbDictionaryVar
  3
ObjectDBX Classes
 90
        0
280
     0
281
     0
  0
CLASS
  1
ACDBPLACEHOLDER
  2
AcDbPlaceHolder
  3
ObjectDBX Classes
 90
        0
280
     0
281
     0
  0
CLASS
  1
LAYOUT
  2
AcDbLayout
  3
ObjectDBX Classes
 90
        0
280
     0
281
     0
  0
ENDSEC
  0
SECTION
  2
TABLES
  0
TABLE
  2
VPORT
  5
8
330
0
100
AcDbSymbolTable
 70
     1
  0
VPORT
  5
29
330
8
100
AcDbSymbolTableRecord
100
AcDbViewportTableRecord
  2
*Active
 70
     0
 10
0.0
 20
0.0
 11
1.0
 21
1.0
 12
0.0
 22
0.0
 13
0.0
 23
0.0
 14
10.0
 24
10.0
 15
10.0
 25
10.0
 16
0.0
 26
0.0
 36
1.0
 17
0.0
 27
0.0
 37
0.0
 40
3267.0
 41
1.414141414141414
 42
50.0
 43
0.0
 44
0.0
 50
0.0
 51
0.0
 71
     0
 72
 10000
 73
     1
 74
     3
 75
     0
 76
     0
 77
     0
 78
     0
281
     0
 65
     1
110
0.0
120
0.0
130
0.0
111
1.0
121
0.0
131
0.0
112
0.0
122
1.0
132
0.0
 79
     0
146
0.0
  0
ENDTAB
  0
TABLE
  2
LTYPE
  5
5
330
0
100
AcDbSymbolTable
 70
     4
  0
LTYPE
  5
14
330
5
100
AcDbSymbolTableRecord
100
AcDbLinetypeTableRecord
  2
ByBlock
 70
     0
  3

 72
    65
 73
     0
 40
0.0
  0
LTYPE
  5
15
330
5
100
AcDbSymbolTableRecord
100
AcDbLinetypeTableRecord
  2
ByLayer
 70
     0
  3

 72
    65
 73
     0
 40
0.0
  0
LTYPE
  5
16
330
5
100
AcDbSymbolTableRecord
100
AcDbLinetypeTableRecord
  2
Continuous
 70
     0
  3
Solid line
 72
    65
 73
     0
 40
0.0
  0
LTYPE
  5
3C
330
5
100
AcDbSymbolTableRecord
100
AcDbLinetypeTableRecord
  2
JWW_HOJO
 70
     0
  3
  -   -   -   -   -   -   -   - 
 72
    65
 73
     2
 40
1.693333333333333
 49
-1.27
 74
     0
 49
0.4233333333333333
 74
     0
  0
LTYPE
  5
3D
330
5
100
AcDbSymbolTableRecord
100
AcDbLinetypeTableRecord
  2
JWW_CENTER1
 70
     0
  3
-----  --  ----------  --  -----
 72
    65
 73
     4
 40
6.773333333333333
 49
4.233333333333333
 74
     0
 49
-0.8466666666666667
 74
     0
 49
0.8466666666666667
 74
     0
 49
-0.8466666666666667
 74
     0
  0
LTYPE
  5
3E
330
5
100
AcDbSymbolTableRecord
100
AcDbLinetypeTableRecord
  2
JWW_DASHED1
 70
     0
  3
-  --  --  --  --  --  --  --  -
 72
    65
 73
     2
 40
1.693333333333333
 49
0.8466666666666667
 74
     0
 49
-0.8466666666666667
 74
     0
  0
ENDTAB
  0
TABLE
  2
LAYER
  5
2
330
0
100
AcDbSymbolTable
 70
     7
  0
LAYER
  5
10
330
2
100
AcDbSymbolTableRecord
100
AcDbLayerTableRecord
  2
0
 70
     0
 62
     7
  6
Continuous
370
    -3
390
F
  0
LAYER
  5
3F
330
2
100
AcDbSymbolTableRecord
100
AcDbLayerTableRecord
  2
D-4
 70
     0
 62
     7
  6
Continuous
370
    -3
390
F
  0
LAYER
  5
40
330
2
100
AcDbSymbolTableRecord
100
AcDbLayerTableRecord
  2
D-2
 70
     0
 62
     7
  6
Continuous
370
    -3
390
F
  0
LAYER
  5
41
330
2
100
AcDbSymbolTableRecord
100
AcDbLayerTableRecord
  2
D-E
 70
     0
 62
     7
  6
Continuous
370
    -3
390
F
  0
LAYER
  5
42
330
2
100
AcDbSymbolTableRecord
100
AcDbLayerTableRecord
  2
D-9
 70
     0
 62
     7
  6
Continuous
370
    -3
390
F
  0
LAYER
  5
43
330
2
100
AcDbSymbolTableRecord
100
AcDbLayerTableRecord
  2
D-0
 70
     0
 62
     7
  6
Continuous
370
    -3
390
F
  0
LAYER
  5
44
330
2
100
AcDbSymbolTableRecord
100
AcDbLayerTableRecord
  2
F-5
 70
     0
 62
     7
  6
Continuous
370
    -3
390
F
  0
ENDTAB
  0
TABLE
  2
STYLE
  5
3
330
0
100
AcDbSymbolTable
 70
     2
  0
STYLE
  5
11
330
3
100
AcDbSymbolTableRecord
100
AcDbTextStyleTableRecord
  2
Standard
 70
     0
 40
0.0
 41
1.0
 50
0.0
 71
     0
 42
2.5
  3
txt
  4

1001
ACAD
1000

1071
        0
  0
STYLE
  5
3B
330
3
100
AcDbSymbolTableRecord
100
AcDbTextStyleTableRecord
  2
ＭＳ ゴシック
 70
     0
 40
1.0
 41
1.0
 50
0.0
 71
     0
 42
10.0
  3

  4

1001
ACAD
1000
MS Gothic
1071
    32817
  0
ENDTAB
  0
TABLE
  2
VIEW
  5
6
330
0
100
AcDbSymbolTable
 70
     0
  0
ENDTAB
  0
TABLE
  2
UCS
  5
7
330
0
100
AcDbSymbolTable
 70
     0
  0
ENDTAB
  0
TABLE
  2
APPID
  5
9
330
0
100
AcDbSymbolTable
 70
     1
  0
APPID
  5
12
330
9
100
AcDbSymbolTableRecord
100
AcDbRegAppTableRecord
  2
ACAD
 70
     0
  0
ENDTAB
  0
TABLE
  2
DIMSTYLE
  5
A
330
0
100
AcDbSymbolTable
 70
     1
100
AcDbDimStyleTable
  0
DIMSTYLE
105
27
330
A
100
AcDbSymbolTableRecord
100
AcDbDimStyleTableRecord
  2
ISO-25
 70
     0
 41
2.5
 42
0.625
 43
3.75
 44
1.25
 73
     0
 74
     0
 77
     1
 78
     8
140
2.5
141
2.5
143
0.03937007874016
147
0.625
171
     3
172
     1
271
     2
272
     2
274
     3
278
    44
283
     0
284
     8
340
11
  0
ENDTAB
  0
TABLE
  2
BLOCK_RECORD
  5
1
330
0
100
AcDbSymbolTable
 70
     1
  0
BLOCK_RECORD
  5
1F
330
1
100
AcDbSymbolTableRecord
100
AcDbBlockTableRecord
  2
*Model_Space
340
22
  0
BLOCK_RECORD
  5
1B
330
1
100
AcDbSymbolTableRecord
100
AcDbBlockTableRecord
  2
*Paper_Space
340
1E
  0
BLOCK_RECORD
  5
23
330
1
100
AcDbSymbolTableRecord
100
AcDbBlockTableRecord
  2
*Paper_Space0
340
26
  0
ENDTAB
  0
ENDSEC
  0
SECTION
  2
BLOCKS
  0
BLOCK
  5
20
330
1F
100
AcDbEntity
  8
0
100
AcDbBlockBegin
  2
*Model_Space
 70
     0
 10
0.0
 20
0.0
 30
0.0
  3
*Model_Space
  1

  0
ENDBLK
  5
21
330
1F
100
AcDbEntity
  8
0
100
AcDbBlockEnd
  0
BLOCK
  5
1C
330
1B
100
AcDbEntity
 67
     1
  8
0
100
AcDbBlockBegin
  2
*Paper_Space
 70
     0
 10
0.0
 20
0.0
 30
0.0
  3
*Paper_Space
  1

  0
ENDBLK
  5
1D
330
1B
100
AcDbEntity
 67
     1
  8
0
100
AcDbBlockEnd
  0
BLOCK
  5
24
330
23
100
AcDbEntity
  8
0
100
AcDbBlockBegin
  2
*Paper_Space0
 70
     0
 10
0.0
 20
0.0
 30
0.0
  3
*Paper_Space0
  1

  0
ENDBLK
  5
25
330
23
100
AcDbEntity
  8
0
100
AcDbBlockEnd
  0
ENDSEC
  0
SECTION
  2
ENTITIES
  0
LINE
  5
45
330
1F
100
AcDbEntity
  8
D-4
  6
Continuous
 62
     7
370
     9
100
AcDbLine
 10
827.0270270270271
 20
-601.2162162162161
 30
0.0
 11
827.0270270270271
 21
-771.2164059200802
 31
0.0
  0
LINE
  5
46
330
1F
100
AcDbEntity
  8
D-4
  6
Continuous
 62
     7
370
     9
100
AcDbLine
 10
827.0270270270271
 20
-601.2162162162161
 30
0.0
 11
1827.026862067145
 21
-601.2162162162161
 31
0.0
  0
LINE
  5
47
330
1F
100
AcDbEntity
  8
D-4
  6
Continuous
 62
     7
370
     9
100
AcDbLine
 10
827.0270270270271
 20
-771.2164059200802
 30
0.0
 11
1827.026862067145
 21
-771.2164059200802
 31
0.0
  0
LINE
  5
48
330
1F
100
AcDbEntity
  8
D-4
  6
Continuous
 62
     7
370
     9
100
AcDbLine
 10
827.0270270270271
 20
-671.216199720228
 30
0.0
 11
1827.026862067145
 21
-671.216199720228
 31
0.0
  0
LINE
  5
49
330
1F
100
AcDbEntity
  8
D-4
  6
Continuous
 62
     7
370
     9
100
AcDbLine
 10
1827.026862067145
 20
-601.2162162162161
 30
0.0
 11
1827.026862067145
 21
-771.2164059200802
 31
0.0
  0
LINE
  5
4A
330
1F
100
AcDbEntity
  8
D-4
  6
Continuous
 62
     7
370
     9
100
AcDbLine
 10
827.0270270270271
 20
-666.2163069441511
 30
0.0
 11
1827.026862067145
 21
-666.2163069441511
 31
0.0
  0
LINE
  5
4B
330
1F
100
AcDbEntity
  8
D-4
  6
Continuous
 62
     7
370
     9
100
AcDbLine
 10
927.0271095069683
 20
-671.216199720228
 30
0.0
 11
927.0271095069683
 21
-771.2164059200802
 31
0.0
  0
LINE
  5
4C
330
1F
100
AcDbEntity
  8
D-4
  6
Continuous
 62
     7
370
     9
100
AcDbLine
 10
1027.026944547086
 20
-671.216199720228
 30
0.0
 11
1027.026944547086
 21
-771.2164059200802
 31
0.0
  0
LINE
  5
4D
330
1F
100
AcDbEntity
  8
D-4
  6
Continuous
 62
     7
370
     9
100
AcDbLine
 10
1127.027027027027
 20
-671.216199720228
 30
0.0
 11
1127.027027027027
 21
-771.2164059200802
 31
0.0
  0
LINE
  5
4E
330
1F
100
AcDbEntity
  8
D-4
  6
Continuous
 62
     7
370
     9
100
AcDbLine
 10
1227.027109506968
 20
-671.216199720228
 30
0.0
 11
1227.027109506968
 21
-771.2164059200802
 31
0.0
  0
LINE
  5
4F
330
1F
100
AcDbEntity
  8
D-4
  6
Continuous
 62
     7
370
     9
100
AcDbLine
 10
1327.026944547086
 20
-671.216199720228
 30
0.0
 11
1327.026944547086
 21
-771.2164059200802
 31
0.0
  0
LINE
  5
50
330
1F
100
AcDbEntity
  8
D-4
  6
Continuous
 62
     7
370
     9
100
AcDbLine
 10
1427.027027027027
 20
-671.216199720228
 30
0.0
 11
1427.027027027027
 21
-771.2164059200802
 31
0.0
  0
LINE
  5
51
330
1F
100
AcDbEntity
  8
D-4
  6
Continuous
 62
     7
370
     9
100
AcDbLine
 10
1527.027109506968
 20
-671.216199720228
 30
0.0
 11
1527.027109506968
 21
-771.2164059200802
 31
0.0
  0
LINE
  5
52
330
1F
100
AcDbEntity
  8
D-4
  6
Continuous
 62
     7
370
     9
100
AcDbLine
 10
843.105171822213
 20
-1046.962601945207
 30
0.0
 11
1653.448321368243
 21
-1046.962601945207
 31
0.0
  0
LINE
  5
53
330
1F
100
AcDbEntity
  8
D-4
  6
Continuous
 62
     7
370
     9
100
AcDbLine
 10
843.105171822213
 20
-886.9628163930531
 30
0.0
 11
1788.448271880279
 21
-886.9628163930531
 31
0.0
  0
LINE
  5
54
330
1F
100
AcDbEntity
  8
D-4
  6
Continuous
 62
     7
370
     9
100
AcDbLine
 10
843.105171822213
 20
-966.9625854492188
 30
0.0
 11
1810.948469832137
 21
-966.9625854492188
 31
0.0
  0
LINE
  5
55
330
1F
100
AcDbEntity
  8
D-4
  6
Continuous
 62
     7
370
     9
100
AcDbLine
 10
1627.027191986909
 20
-671.216199720228
 30
0.0
 11
1627.027191986909
 21
-771.2164059200802
 31
0.0
  0
LINE
  5
56
330
1F
100
AcDbEntity
  8
D-4
  6
Continuous
 62
     7
370
     9
100
AcDbLine
 10
1727.027027027027
 20
-671.216199720228
 30
0.0
 11
1727.027027027027
 21
-771.2164059200802
 31
0.0
  0
LINE
  5
57
330
1F
100
AcDbEntity
  8
D-2
  6
Continuous
 62
     4
370
     9
100
AcDbLine
 10
-331.9259231154982
 20
-533.6489373284417
 30
0.0
 11
-317.4922633815456
 21
-508.6487311285895
 31
0.0
  0
LINE
  5
58
330
1F
100
AcDbEntity
  8
D-2
  6
Continuous
 62
     4
370
     9
100
AcDbLine
 10
-331.9259231154982
 20
-533.6489373284417
 30
0.0
 11
-317.4920159417229
 21
-558.6488960884712
 31
0.0
  0
LINE
  5
59
330
1F
100
AcDbEntity
  8
D-2
  6
Continuous
 62
     4
370
     9
100
AcDbLine
 10
-317.4920159417229
 20
-558.6488960884712
 30
0.0
 11
-288.8597643053208
 21
-558.6488960884712
 31
0.0
  0
LINE
  5
5A
330
1F
100
AcDbEntity
  8
D-2
  6
Continuous
 62
     4
370
     9
100
AcDbLine
 10
-274.4258571315456
 20
-533.6489373284417
 30
0.0
 11
-288.8597643053208
 21
-558.6488960884712
 31
0.0
  0
LINE
  5
5B
330
1F
100
AcDbEntity
  8
D-2
  6
Continuous
 62
     4
370
     9
100
AcDbLine
 10
-274.4258571315456
 20
-533.6489373284417
 30
0.0
 11
-288.8597643053208
 21
-508.6487311285895
 31
0.0
  0
LINE
  5
5C
330
1F
100
AcDbEntity
  8
D-2
  6
Continuous
 62
     4
370
     9
100
AcDbLine
 10
-317.4922633815456
 20
-508.6487311285895
 30
0.0
 11
-288.8597643053208
 21
-508.6487311285895
 31
0.0
  0
LINE
  5
5D
330
1F
100
AcDbEntity
  8
D-2
  6
Continuous
 62
     4
370
     9
100
AcDbLine
 10
-231.9258406355573
 20
-533.6489373284417
 30
0.0
 11
-217.4921809016047
 21
-508.6487311285895
 31
0.0
  0
LINE
  5
5E
330
1F
100
AcDbEntity
  8
D-2
  6
Continuous
 62
     4
370
     9
100
AcDbLine
 10
-231.9258406355573
 20
-533.6489373284417
 30
0.0
 11
-217.491933461782
 21
-558.6488960884712
 31
0.0
  0
LINE
  5
5F
330
1F
100
AcDbEntity
  8
D-2
  6
Continuous
 62
     4
370
     9
100
AcDbLine
 10
-217.491933461782
 20
-558.6488960884712
 30
0.0
 11
-188.8596818253799
 21
-558.6488960884712
 31
0.0
  0
LINE
  5
60
330
1F
100
AcDbEntity
  8
D-2
  6
Continuous
 62
     4
370
     9
100
AcDbLine
 10
-174.4257746516047
 20
-533.6489373284417
 30
0.0
 11
-188.8596818253799
 21
-558.6488960884712
 31
0.0
  0
LINE
  5
61
330
1F
100
AcDbEntity
  8
D-2
  6
Continuous
 62
     4
370
     9
100
AcDbLine
 10
-174.4257746516047
 20
-533.6489373284417
 30
0.0
 11
-188.8596818253799
 21
-508.6487311285895
 31
0.0
  0
LINE
  5
62
330
1F
100
AcDbEntity
  8
D-2
  6
Continuous
 62
     4
370
     9
100
AcDbLine
 10
-217.4921809016047
 20
-508.6487311285895
 30
0.0
 11
-188.8596818253799
 21
-508.6487311285895
 31
0.0
  0
LINE
  5
63
330
1F
100
AcDbEntity
  8
D-2
  6
JWW_HOJO
 62
     4
370
     9
100
AcDbLine
 10
-275.5509660050674
 20
486.148681640625
 30
0.0
 11
-330.801061681799
 21
486.148681640625
 31
0.0
  0
LINE
  5
64
330
1F
100
AcDbEntity
  8
D-2
  6
Continuous
 62
     4
370
     9
100
AcDbLine
 10
-330.801061681799
 20
503.747839025549
 30
0.0
 11
-330.801061681799
 21
486.148681640625
 31
0.0
  0
LINE
  5
65
330
1F
100
AcDbEntity
  8
D-2
  6
Continuous
 62
     4
370
     9
100
AcDbLine
 10
-281.8634033203125
 20
506.1482527449326
 30
0.0
 11
-324.4883769267312
 21
506.1482527449326
 31
0.0
  0
LINE
  5
66
330
1F
100
AcDbEntity
  8
D-2
  6
Continuous
 62
     4
370
     9
100
AcDbLine
 10
-275.5509660050674
 20
503.747839025549
 30
0.0
 11
-275.5509660050674
 21
486.148681640625
 31
0.0
  0
LINE
  5
67
330
1F
100
AcDbEntity
  8
D-2
  6
Continuous
 62
     4
370
     9
100
AcDbLine
 10
-290.8835746146536
 20
361.1485166807432
 30
0.0
 11
-288.1760880753799
 21
363.8560032200169
 31
0.0
  0
LINE
  5
68
330
1F
100
AcDbEntity
  8
D-2
  6
Continuous
 62
     4
370
     9
100
AcDbLine
 10
-288.1760880753799
 20
363.8560032200169
 30
0.0
 11
-318.1759396114865
 21
363.8560032200169
 31
0.0
  0
LINE
  5
69
330
1F
100
AcDbEntity
  8
D-2
  6
Continuous
 62
     4
370
     9
100
AcDbLine
 10
-318.1759396114865
 20
363.8560032200169
 30
0.0
 11
-315.4684530722128
 21
361.1485166807432
 31
0.0
  0
LINE
  5
6A
330
1F
100
AcDbEntity
  8
D-2
  6
Continuous
 62
     4
370
     9
100
AcDbLine
 10
-315.4684530722128
 20
361.1485166807432
 30
0.0
 11
-290.8835746146536
 21
361.1485166807432
 31
0.0
  0
LINE
  5
6B
330
1F
100
AcDbEntity
  8
D-2
  6
JWW_HOJO
 62
     4
370
     9
100
AcDbLine
 10
-175.5508835251266
 20
486.148681640625
 30
0.0
 11
-230.8009792018581
 21
486.148681640625
 31
0.0
  0
LINE
  5
6C
330
1F
100
AcDbEntity
  8
D-2
  6
Continuous
 62
     4
370
     9
100
AcDbLine
 10
-230.8009792018581
 20
503.747839025549
 30
0.0
 11
-230.8009792018581
 21
486.148681640625
 31
0.0
  0
LINE
  5
6D
330
1F
100
AcDbEntity
  8
D-2
  6
Continuous
 62
     4
370
     9
100
AcDbLine
 10
-181.8633208403716
 20
506.1482527449326
 30
0.0
 11
-224.4882944467903
 21
506.1482527449326
 31
0.0
  0
LINE
  5
6E
330
1F
100
AcDbEntity
  8
D-2
  6
Continuous
 62
     4
370
     9
100
AcDbLine
 10
-175.5508835251266
 20
503.747839025549
 30
0.0
 11
-175.5508835251266
 21
486.148681640625
 31
0.0
  0
LINE
  5
6F
330
1F
100
AcDbEntity
  8
D-2
  6
Continuous
 62
     4
370
     9
100
AcDbLine
 10
-190.8834921347128
 20
361.1485166807432
 30
0.0
 11
-188.1760055954391
 21
363.8560032200169
 31
0.0
  0
LINE
  5
70
330
1F
100
AcDbEntity
  8
D-2
  6
Continuous
 62
     4
370
     9
100
AcDbLine
 10
-188.1760055954391
 20
363.8560032200169
 30
0.0
 11
-218.1758571315456
 21
363.8560032200169
 31
0.0
  0
LINE
  5
71
330
1F
100
AcDbEntity
  8
D-2
  6
Continuous
 62
     4
370
     9
100
AcDbLine
 10
-218.1758571315456
 20
363.8560032200169
 30
0.0
 11
-215.4683705922719
 21
361.1485166807432
 31
0.0
  0
LINE
  5
72
330
1F
100
AcDbEntity
  8
D-2
  6
Continuous
 62
     4
370
     9
100
AcDbLine
 10
-215.4683705922719
 20
361.1485166807432
 30
0.0
 11
-190.8834921347128
 21
361.1485166807432
 31
0.0
  0
LINE
  5
73
330
1F
100
AcDbEntity
  8
D-2
  6
JWW_HOJO
 62
     4
370
     9
100
AcDbLine
 10
-274.4258571315456
 20
441.1485331767315
 30
0.0
 11
-331.9256756756755
 21
441.1485331767315
 31
0.0
  0
LINE
  5
74
330
1F
100
AcDbEntity
  8
D-2
  6
Continuous
 62
     4
370
     9
100
AcDbLine
 10
-274.4258571315456
 20
418.6020639780406
 30
0.0
 11
-274.4258571315456
 21
441.1485331767315
 31
0.0
  0
LINE
  5
75
330
1F
100
AcDbEntity
  8
D-2
  6
Continuous
 62
     4
370
     9
100
AcDbLine
 10
-331.9256756756755
 20
418.6020639780406
 30
0.0
 11
-331.9256756756755
 21
441.1485331767315
 31
0.0
  0
LINE
  5
76
330
1F
100
AcDbEntity
  8
D-2
  6
Continuous
 62
     4
370
     9
100
AcDbLine
 10
-288.8595168654982
 20
418.6020639780406
 30
0.0
 11
-288.8595168654982
 21
441.1485331767315
 31
0.0
  0
LINE
  5
77
330
1F
100
AcDbEntity
  8
D-2
  6
Continuous
 62
     4
370
     9
100
AcDbLine
 10
-317.4920159417229
 20
418.6020639780406
 30
0.0
 11
-317.4920159417229
 21
441.1485331767315
 31
0.0
  0
LINE
  5
78
330
1F
100
AcDbEntity
  8
D-2
  6
Continuous
 62
     4
370
     9
100
AcDbLine
 10
-281.6426869985219
 20
416.1484506967906
 30
0.0
 11
-324.7088458086992
 21
416.1484506967906
 31
0.0
  0
LINE
  5
79
330
1F
100
AcDbEntity
  8
D-2
  6
JWW_HOJO
 62
     4
370
     9
100
AcDbLine
 10
-174.4257746516047
 20
441.1485331767315
 30
0.0
 11
-231.9255931957346
 21
441.1485331767315
 31
0.0
  0
LINE
  5
7A
330
1F
100
AcDbEntity
  8
D-2
  6
Continuous
 62
     4
370
     9
100
AcDbLine
 10
-174.4257746516047
 20
418.6020639780406
 30
0.0
 11
-174.4257746516047
 21
441.1485331767315
 31
0.0
  0
LINE
  5
7B
330
1F
100
AcDbEntity
  8
D-2
  6
Continuous
 62
     4
370
     9
100
AcDbLine
 10
-231.9255931957346
 20
418.6020639780406
 30
0.0
 11
-231.9255931957346
 21
441.1485331767315
 31
0.0
  0
LINE
  5
7C
330
1F
100
AcDbEntity
  8
D-2
  6
Continuous
 62
     4
370
     9
100
AcDbLine
 10
-188.8594343855573
 20
418.6020639780406
 30
0.0
 11
-188.8594343855573
 21
441.1485331767315
 31
0.0
  0
LINE
  5
7D
330
1F
100
AcDbEntity
  8
D-2
  6
Continuous
 62
     4
370
     9
100
AcDbLine
 10
-217.491933461782
 20
418.6020639780406
 30
0.0
 11
-217.491933461782
 21
441.1485331767315
 31
0.0
  0
LINE
  5
7E
330
1F
100
AcDbEntity
  8
D-2
  6
Continuous
 62
     4
370
     9
100
AcDbLine
 10
-181.642604518581
 20
416.1484506967906
 30
0.0
 11
-224.7087633287583
 21
416.1484506967906
 31
0.0
  0
LINE
  5
7F
330
1F
100
AcDbEntity
  8
D-2
  6
Continuous
 62
     4
370
     9
100
AcDbLine
 10
-288.1760880753799
 20
503.747839025549
 30
0.0
 11
-288.1760880753799
 21
486.148681640625
 31
0.0
  0
LINE
  5
80
330
1F
100
AcDbEntity
  8
D-2
  6
Continuous
 62
     4
370
     9
100
AcDbLine
 10
-288.1760880753799
 20
416.1484506967906
 30
0.0
 11
-288.1760880753799
 21
363.8560032200169
 31
0.0
  0
LINE
  5
81
330
1F
100
AcDbEntity
  8
D-2
  6
Continuous
 62
     4
370
     9
100
AcDbLine
 10
-318.1759396114865
 20
503.747839025549
 30
0.0
 11
-318.1759396114865
 21
486.148681640625
 31
0.0
  0
LINE
  5
82
330
1F
100
AcDbEntity
  8
D-2
  6
Continuous
 62
     4
370
     9
100
AcDbLine
 10
-318.1759396114865
 20
416.1484506967906
 30
0.0
 11
-318.1759396114865
 21
363.8560032200169
 31
0.0
  0
LINE
  5
83
330
1F
100
AcDbEntity
  8
D-2
  6
Continuous
 62
     4
370
     9
100
AcDbLine
 10
-315.4684530722128
 20
416.1484506967906
 30
0.0
 11
-315.4684530722128
 21
361.1485166807432
 31
0.0
  0
LINE
  5
84
330
1F
100
AcDbEntity
  8
D-2
  6
Continuous
 62
     4
370
     9
100
AcDbLine
 10
-290.8835746146536
 20
416.1484506967906
 30
0.0
 11
-290.8835746146536
 21
361.1485166807432
 31
0.0
  0
LINE
  5
85
330
1F
100
AcDbEntity
  8
D-2
  6
JWW_CENTER1
 62
     4
370
     9
100
AcDbLine
 10
-303.1758901235219
 20
515.1820332295188
 30
0.0
 11
-303.1758901235219
 21
353.6035816089529
 31
0.0
  0
LINE
  5
86
330
1F
100
AcDbEntity
  8
D-2
  6
JWW_CENTER1
 62
     4
370
     9
100
AcDbLine
 10
-203.175807643581
 20
515.1820332295188
 30
0.0
 11
-203.175807643581
 21
353.6035816089529
 31
0.0
  0
LINE
  5
87
330
1F
100
AcDbEntity
  8
D-2
  6
Continuous
 62
     4
370
     9
100
AcDbLine
 10
-215.4683705922719
 20
416.1484506967906
 30
0.0
 11
-215.4683705922719
 21
361.1485166807432
 31
0.0
  0
LINE
  5
88
330
1F
100
AcDbEntity
  8
D-2
  6
Continuous
 62
     4
370
     9
100
AcDbLine
 10
-190.8834921347128
 20
416.1484506967906
 30
0.0
 11
-190.8834921347128
 21
361.1485166807432
 31
0.0
  0
LINE
  5
89
330
1F
100
AcDbEntity
  8
D-2
  6
Continuous
 62
     4
370
     9
100
AcDbLine
 10
-188.1760055954391
 20
503.747839025549
 30
0.0
 11
-188.1760055954391
 21
486.148681640625
 31
0.0
  0
LINE
  5
8A
330
1F
100
AcDbEntity
  8
D-2
  6
Continuous
 62
     4
370
     9
100
AcDbLine
 10
-188.1760055954391
 20
416.1484506967906
 30
0.0
 11
-188.1760055954391
 21
363.8560032200169
 31
0.0
  0
LINE
  5
8B
330
1F
100
AcDbEntity
  8
D-2
  6
Continuous
 62
     4
370
     9
100
AcDbLine
 10
-218.1758571315456
 20
503.747839025549
 30
0.0
 11
-218.1758571315456
 21
486.148681640625
 31
0.0
  0
LINE
  5
8C
330
1F
100
AcDbEntity
  8
D-2
  6
Continuous
 62
     4
370
     9
100
AcDbLine
 10
-218.1758571315456
 20
416.1484506967906
 30
0.0
 11
-218.1758571315456
 21
363.8560032200169
 31
0.0
  0
LINE
  5
8D
330
1F
100
AcDbEntity
  8
D-2
  6
JWW_CENTER1
 62
     4
370
     9
100
AcDbLine
 10
-265.48511402027
 20
-533.6489373284417
 30
0.0
 11
-343.3257231841216
 21
-533.6489373284417
 31
0.0
  0
LINE
  5
8E
330
1F
100
AcDbEntity
  8
D-2
  6
JWW_CENTER1
 62
     4
370
     9
100
AcDbLine
 10
-303.1758901235219
 20
-498.9530491184543
 30
0.0
 11
-303.1758901235219
 21
-570.0249419341217
 31
0.0
  0
LINE
  5
8F
330
1F
100
AcDbEntity
  8
D-2
  6
JWW_CENTER1
 62
     4
370
     9
100
AcDbLine
 10
-203.175807643581
 20
-498.9530491184543
 30
0.0
 11
-203.175807643581
 21
-570.0249419341217
 31
0.0
  0
LINE
  5
90
330
1F
100
AcDbEntity
  8
D-2
  6
JWW_CENTER1
 62
     4
370
     9
100
AcDbLine
 10
-164.1740953600083
 20
-533.6489373284417
 30
0.0
 11
-240.1024895745354
 21
-533.6489373284417
 31
0.0
  0
LINE
  5
91
330
1F
100
AcDbEntity
  8
D-4
  6
Continuous
 62
     7
370
     9
100
AcDbLine
 10
-310.6756674276815
 20
328.6036228489232
 30
0.0
 11
-310.6756674276815
 21
258.1485975110854
 31
0.0
  0
LINE
  5
92
330
1F
100
AcDbEntity
  8
D-4
  6
Continuous
 62
     7
370
     9
100
AcDbLine
 10
-210.6755849477406
 20
328.6036228489232
 30
0.0
 11
-210.6755849477406
 21
258.1485975110854
 31
0.0
  0
LINE
  5
93
330
1F
100
AcDbEntity
  8
D-4
  6
Continuous
 62
     7
370
     9
100
AcDbLine
 10
-310.6756674276815
 20
261.1485579207138
 30
0.0
 11
-285.8894966744086
 21
264.4116705817146
 31
0.0
  0
LINE
  5
94
330
1F
100
AcDbEntity
  8
D-4
  6
Continuous
 62
     7
370
     9
100
AcDbLine
 10
-310.6756674276815
 20
261.1485579207138
 30
0.0
 11
-285.8894966744086
 21
257.885445259713
 31
0.0
  0
LINE
  5
95
330
1F
100
AcDbEntity
  8
D-4
  6
Continuous
 62
     7
370
     9
100
AcDbLine
 10
-210.6755849477406
 20
261.1485579207138
 30
0.0
 11
-235.4617557010135
 21
264.4116705817146
 31
0.0
  0
LINE
  5
96
330
1F
100
AcDbEntity
  8
D-4
  6
Continuous
 62
     7
370
     9
100
AcDbLine
 10
-210.6755849477406
 20
261.1485579207138
 30
0.0
 11
-235.4617557010135
 21
257.885445259713
 31
0.0
  0
LINE
  5
97
330
1F
100
AcDbEntity
  8
D-4
  6
Continuous
 62
     7
370
     9
100
AcDbLine
 10
-158.175535459776
 20
416.1484506967906
 30
0.0
 11
-158.175535459776
 21
258.1485975110854
 31
0.0
  0
LINE
  5
98
330
1F
100
AcDbEntity
  8
D-4
  6
Continuous
 62
     7
370
     9
100
AcDbLine
 10
-158.175535459776
 20
261.1485579207138
 30
0.0
 11
-133.3893647065034
 21
264.4116705817146
 31
0.0
  0
LINE
  5
99
330
1F
100
AcDbEntity
  8
D-4
  6
Continuous
 62
     7
370
     9
100
AcDbLine
 10
-158.175535459776
 20
261.1485579207138
 30
0.0
 11
-133.3893647065034
 21
257.885445259713
 31
0.0
  0
LINE
  5
9A
330
1F
100
AcDbEntity
  8
D-4
  6
Continuous
 62
     7
370
     9
100
AcDbLine
 10
-310.6756674276815
 20
261.1485579207138
 30
0.0
 11
-45.12547673405805
 21
261.1485579207138
 31
0.0
  0
LINE
  5
9B
330
1F
100
AcDbEntity
  8
D-E
  6
Continuous
 62
     7
370
     9
100
AcDbLine
 10
-303.1758901235219
 20
506.1482527449326
 30
0.0
 11
-299.9127774625211
 21
530.934299778294
 31
0.0
  0
LINE
  5
9C
330
1F
100
AcDbEntity
  8
D-E
  6
Continuous
 62
     7
370
     9
100
AcDbLine
 10
-303.1758901235219
 20
506.1482527449326
 30
0.0
 11
-293.6087531012456
 21
529.2452755489867
 31
0.0
  0
LINE
  5
9D
330
1F
100
AcDbEntity
  8
D-9
  6
Continuous
 62
     2
370
     9
100
AcDbLine
 10
-390.675807643581
 20
471.148384712838
 30
0.0
 11
-390.675807643581
 21
456.1485826646961
 31
0.0
  0
LINE
  5
9E
330
1F
100
AcDbEntity
  8
D-9
  6
Continuous
 62
     2
370
     9
100
AcDbLine
 10
-390.675807643581
 20
471.148384712838
 30
0.0
 11
94.3243078283362
 21
471.148384712838
 31
0.0
  0
LINE
  5
9F
330
1F
100
AcDbEntity
  8
D-9
  6
Continuous
 62
     2
370
     9
100
AcDbLine
 10
-390.675807643581
 20
456.1485826646961
 30
0.0
 11
94.3243078283362
 21
456.1485826646961
 31
0.0
  0
LINE
  5
A0
330
1F
100
AcDbEntity
  8
D-9
  6
Continuous
 62
     2
370
     9
100
AcDbLine
 10
94.3243078283362
 20
688.6484836887669
 30
0.0
 11
109.3243573163008
 21
688.6484836887669
 31
0.0
  0
LINE
  5
A1
330
1F
100
AcDbEntity
  8
D-9
  6
Continuous
 62
     2
370
     9
100
AcDbLine
 10
94.3243078283362
 20
688.6484836887669
 30
0.0
 11
94.3243078283362
 21
238.6484836887669
 31
0.0
  0
LINE
  5
A2
330
1F
100
AcDbEntity
  8
D-9
  6
Continuous
 62
     2
370
     9
100
AcDbLine
 10
94.3243078283362
 20
238.6484836887669
 30
0.0
 11
109.3243573163008
 21
238.6484836887669
 31
0.0
  0
LINE
  5
A3
330
1F
100
AcDbEntity
  8
D-9
  6
Continuous
 62
     2
370
     9
100
AcDbLine
 10
109.3243573163008
 20
688.6484836887669
 30
0.0
 11
109.3243573163008
 21
238.6484836887669
 31
0.0
  0
LINE
  5
A4
330
1F
100
AcDbEntity
  8
D-9
  6
Continuous
 62
     2
370
     9
100
AcDbLine
 10
109.3243573163008
 20
-483.6488960884712
 30
0.0
 11
109.3243573163008
 21
-583.6487311285895
 31
0.0
  0
LINE
  5
A5
330
1F
100
AcDbEntity
  8
D-9
  6
Continuous
 62
     2
370
     9
100
AcDbLine
 10
94.3243078283362
 20
-483.6488960884712
 30
0.0
 11
94.3243078283362
 21
-583.6487311285895
 31
0.0
  0
LINE
  5
A6
330
1F
100
AcDbEntity
  8
D-9
  6
JWW_HOJO
 62
     2
370
     9
100
AcDbLine
 10
-390.675807643581
 20
-483.6488960884712
 30
0.0
 11
-390.675807643581
 21
-583.6487311285895
 31
0.0
  0
LINE
  5
A7
330
1F
100
AcDbEntity
  8
D-9
  6
JWW_HOJO
 62
     2
370
     9
100
AcDbLine
 10
-338.1757581556164
 20
-551.1487476245776
 30
0.0
 11
-198.1757911475927
 21
-551.1487476245776
 31
0.0
  0
LINE
  5
A8
330
1F
100
AcDbEntity
  8
D-9
  6
JWW_HOJO
 62
     2
370
     9
100
AcDbLine
 10
-338.1757581556164
 20
-516.1488795924831
 30
0.0
 11
-198.1757911475927
 21
-516.1488795924831
 31
0.0
  0
LINE
  5
A9
330
1F
100
AcDbEntity
  8
D-9
  6
JWW_HOJO
 62
     2
370
     9
100
AcDbLine
 10
-355.6756921716638
 20
456.1485826646961
 30
0.0
 11
-355.6756921716638
 21
471.148384712838
 31
0.0
  0
LINE
  5
AA
330
1F
100
AcDbEntity
  8
D-9
  6
JWW_HOJO
 62
     2
370
     9
100
AcDbLine
 10
-180.6758571315456
 20
456.1485826646961
 30
0.0
 11
-180.6758571315456
 21
471.148384712838
 31
0.0
  0
LINE
  5
AB
330
1F
100
AcDbEntity
  8
D-9
  6
Continuous
 62
     2
370
     9
100
AcDbLine
 10
94.3243078283362
 20
608.648467192779
 30
0.0
 11
109.3243573163008
 21
608.648467192779
 31
0.0
  0
LINE
  5
AC
330
1F
100
AcDbEntity
  8
D-9
  6
Continuous
 62
     2
370
     9
100
AcDbLine
 10
94.3243078283362
 20
643.648582664696
 30
0.0
 11
109.3243573163008
 21
643.648582664696
 31
0.0
  0
LINE
  5
AD
330
1F
100
AcDbEntity
  8
D-9
  6
Continuous
 62
     2
370
     9
100
AcDbLine
 10
65.27759448902032
 20
626.1486486486488
 30
0.0
 11
140.5985239389781
 21
626.1486486486488
 31
0.0
  0
LINE
  5
AE
330
1F
100
AcDbEntity
  8
D-9
  6
Continuous
 62
     2
370
     9
100
AcDbLine
 10
94.3243078283362
 20
318.6485001847552
 30
0.0
 11
109.3243573163008
 21
318.6485001847552
 31
0.0
  0
LINE
  5
AF
330
1F
100
AcDbEntity
  8
D-9
  6
Continuous
 62
     2
370
     9
100
AcDbLine
 10
94.3243078283362
 20
283.648384712838
 30
0.0
 11
109.3243573163008
 21
283.648384712838
 31
0.0
  0
LINE
  5
B0
330
1F
100
AcDbEntity
  8
D-9
  6
Continuous
 62
     2
370
     9
100
AcDbLine
 10
65.27759448902032
 20
301.1484424487966
 30
0.0
 11
140.5985239389781
 21
301.1484424487966
 31
0.0
  0
LINE
  5
B1
330
1F
100
AcDbEntity
  8
D-4
  6
Continuous
 62
     7
370
     9
100
AcDbLine
 10
-390.675807643581
 20
88.64848368876693
 30
0.0
 11
109.3243573163008
 21
88.64848368876693
 31
0.0
  0
LINE
  5
B2
330
1F
100
AcDbEntity
  8
D-4
  6
Continuous
 62
     7
370
     9
100
AcDbLine
 10
-390.675807643581
 20
431.1486239046664
 30
0.0
 11
-390.675807643581
 21
85.64852327913854
 31
0.0
  0
LINE
  5
B3
330
1F
100
AcDbEntity
  8
D-4
  6
Continuous
 62
     7
370
     9
100
AcDbLine
 10
109.3243573163008
 20
213.6485249287375
 30
0.0
 11
109.3243573163008
 21
85.64852327913854
 31
0.0
  0
LINE
  5
B4
330
1F
100
AcDbEntity
  8
D-4
  6
Continuous
 62
     7
370
     9
100
AcDbLine
 10
-390.675807643581
 20
88.64848368876693
 30
0.0
 11
-365.8896368903081
 21
91.9115963497677
 31
0.0
  0
LINE
  5
B5
330
1F
100
AcDbEntity
  8
D-4
  6
Continuous
 62
     7
370
     9
100
AcDbLine
 10
-390.675807643581
 20
88.64848368876693
 30
0.0
 11
-365.8896368903081
 21
85.38537102776615
 31
0.0
  0
LINE
  5
B6
330
1F
100
AcDbEntity
  8
D-4
  6
Continuous
 62
     7
370
     9
100
AcDbLine
 10
109.3243573163008
 20
88.64848368876693
 30
0.0
 11
84.53831028293934
 21
91.9115963497677
 31
0.0
  0
LINE
  5
B7
330
1F
100
AcDbEntity
  8
D-4
  6
Continuous
 62
     7
370
     9
100
AcDbLine
 10
109.3243573163008
 20
88.64848368876693
 30
0.0
 11
84.53831028293934
 21
85.38537102776615
 31
0.0
  0
LINE
  5
B8
330
1F
100
AcDbEntity
  8
D-4
  6
Continuous
 62
     7
370
     9
100
AcDbLine
 10
259.3243573163008
 20
301.1484424487966
 30
0.0
 11
259.3243573163008
 21
626.1486486486488
 31
0.0
  0
LINE
  5
B9
330
1F
100
AcDbEntity
  8
D-4
  6
Continuous
 62
     7
370
     9
100
AcDbLine
 10
165.598606418919
 20
301.1484424487966
 30
0.0
 11
262.3243177259292
 21
301.1484424487966
 31
0.0
  0
LINE
  5
BA
330
1F
100
AcDbEntity
  8
D-4
  6
Continuous
 62
     7
370
     9
100
AcDbLine
 10
165.598606418919
 20
626.1486486486488
 30
0.0
 11
262.3243177259292
 21
626.1486486486488
 31
0.0
  0
LINE
  5
BB
330
1F
100
AcDbEntity
  8
D-4
  6
Continuous
 62
     7
370
     9
100
AcDbLine
 10
259.3243573163008
 20
301.1484424487966
 30
0.0
 11
256.0611209353885
 21
325.9346132020693
 31
0.0
  0
LINE
  5
BC
330
1F
100
AcDbEntity
  8
D-4
  6
Continuous
 62
     7
370
     9
100
AcDbLine
 10
259.3243573163008
 20
301.1484424487966
 30
0.0
 11
262.587593697213
 21
325.9346132020693
 31
0.0
  0
LINE
  5
BD
330
1F
100
AcDbEntity
  8
D-4
  6
Continuous
 62
     7
370
     9
100
AcDbLine
 10
259.3243573163008
 20
626.1486486486488
 30
0.0
 11
256.0611209353885
 21
601.3626016152873
 31
0.0
  0
LINE
  5
BE
330
1F
100
AcDbEntity
  8
D-4
  6
Continuous
 62
     7
370
     9
100
AcDbLine
 10
259.3243573163008
 20
626.1486486486488
 30
0.0
 11
262.587593697213
 21
601.3626016152873
 31
0.0
  0
LINE
  5
BF
330
1F
100
AcDbEntity
  8
D-4
  6
Continuous
 62
     7
370
     9
100
AcDbLine
 10
359.3244397962417
 20
238.6484836887669
 30
0.0
 11
359.3244397962417
 21
688.6484836887669
 31
0.0
  0
LINE
  5
C0
330
1F
100
AcDbEntity
  8
D-4
  6
Continuous
 62
     7
370
     9
100
AcDbLine
 10
134.3244397962417
 20
238.6484836887669
 30
0.0
 11
362.3244002058701
 21
238.6484836887669
 31
0.0
  0
LINE
  5
C1
330
1F
100
AcDbEntity
  8
D-4
  6
Continuous
 62
     7
370
     9
100
AcDbLine
 10
134.3244397962417
 20
688.6484836887669
 30
0.0
 11
362.3244002058701
 21
688.6484836887669
 31
0.0
  0
LINE
  5
C2
330
1F
100
AcDbEntity
  8
D-4
  6
Continuous
 62
     7
370
     9
100
AcDbLine
 10
359.3244397962417
 20
238.6484836887669
 30
0.0
 11
356.0612034153294
 21
263.4346544420399
 31
0.0
  0
LINE
  5
C3
330
1F
100
AcDbEntity
  8
D-4
  6
Continuous
 62
     7
370
     9
100
AcDbLine
 10
359.3244397962417
 20
238.6484836887669
 30
0.0
 11
362.5876761771539
 21
263.4346544420399
 31
0.0
  0
LINE
  5
C4
330
1F
100
AcDbEntity
  8
D-4
  6
Continuous
 62
     7
370
     9
100
AcDbLine
 10
359.3244397962417
 20
688.6484836887669
 30
0.0
 11
356.0612034153294
 21
663.8624366554054
 31
0.0
  0
LINE
  5
C5
330
1F
100
AcDbEntity
  8
D-4
  6
Continuous
 62
     7
370
     9
100
AcDbLine
 10
359.3244397962417
 20
688.6484836887669
 30
0.0
 11
362.5876761771539
 21
663.8624366554054
 31
0.0
  0
LINE
  5
C6
330
1F
100
AcDbEntity
  8
D-E
  6
Continuous
 62
     7
370
     9
100
AcDbLine
 10
109.3243573163008
 20
301.1484424487966
 30
0.0
 11
124.5433910472974
 21
281.3146560256547
 31
0.0
  0
LINE
  5
C7
330
1F
100
AcDbEntity
  8
D-E
  6
Continuous
 62
     7
370
     9
100
AcDbLine
 10
109.3243573163008
 20
301.1484424487966
 30
0.0
 11
118.8913706186656
 21
278.0514196447425
 31
0.0
  0
LINE
  5
C8
330
1F
100
AcDbEntity
  8
D-E
  6
Continuous
 62
     7
370
     9
100
AcDbLine
 10
109.3243573163008
 20
301.1484424487966
 30
0.0
 11
232.0112073743667
 21
88.64848368876693
 31
0.0
  0
LINE
  5
C9
330
1F
100
AcDbEntity
  8
D-E
  6
Continuous
 62
     7
370
     9
100
AcDbLine
 10
232.0112073743667
 20
88.64848368876693
 30
0.0
 11
417.9238809121622
 21
88.64848368876693
 31
0.0
  0
LINE
  5
CA
330
1F
100
AcDbEntity
  8
D-E
  6
Continuous
 62
     7
370
     9
100
AcDbLine
 10
109.3243573163008
 20
688.6484836887669
 30
0.0
 11
118.8913706186656
 21
711.745506492821
 31
0.0
  0
LINE
  5
CB
330
1F
100
AcDbEntity
  8
D-E
  6
Continuous
 62
     7
370
     9
100
AcDbLine
 10
109.3243573163008
 20
688.6484836887669
 30
0.0
 11
124.5433910472974
 21
708.4822701119089
 31
0.0
  0
LINE
  5
CC
330
1F
100
AcDbEntity
  8
D-E
  6
Continuous
 62
     7
370
     9
100
AcDbLine
 10
109.3243573163008
 20
688.6484836887669
 30
0.0
 11
167.0594911317568
 21
788.6485661687078
 31
0.0
  0
LINE
  5
CD
330
1F
100
AcDbEntity
  8
D-E
  6
Continuous
 62
     7
370
     9
100
AcDbLine
 10
-303.1758901235219
 20
506.1482527449326
 30
0.0
 11
-200.6850783889357
 21
888.6486486486488
 31
0.0
  0
LINE
  5
CE
330
1F
100
AcDbEntity
  8
D-E
  6
Continuous
 62
     7
370
     9
100
AcDbLine
 10
-200.6850783889357
 20
888.6486486486488
 30
0.0
 11
222.0651162637247
 21
888.6486486486488
 31
0.0
  0
LINE
  5
CF
330
1F
100
AcDbEntity
  8
D-E
  6
Continuous
 62
     7
370
     9
100
AcDbLine
 10
167.0594911317568
 20
788.6485661687078
 30
0.0
 11
605.4419440192146
 21
788.6485661687078
 31
0.0
  0
LINE
  5
D0
330
1F
100
AcDbEntity
  8
D-0
  6
JWW_CENTER1
 62
     3
370
     9
100
AcDbLine
 10
-740.6759726034627
 20
-604.4821744351773
 30
0.0
 11
-740.6759726034627
 21
-462.1218789590371
 31
0.0
  0
LINE
  5
D1
330
1F
100
AcDbEntity
  8
D-0
  6
Continuous
 62
     3
370
     9
100
AcDbLine
 10
-1098.175667427681
 20
-583.6489785684121
 30
0.0
 11
-158.1754117398648
 21
-583.6489785684121
 31
0.0
  0
LINE
  5
D2
330
1F
100
AcDbEntity
  8
D-0
  6
Continuous
 62
     3
370
     9
100
AcDbLine
 10
-1098.175667427681
 20
-483.6487723685599
 30
0.0
 11
-158.1754117398648
 21
-483.6487723685599
 31
0.0
  0
LINE
  5
D3
330
1F
100
AcDbEntity
  8
D-0
  6
Continuous
 62
     3
370
     9
100
AcDbLine
 10
-1098.175667427681
 20
-583.6489785684121
 30
0.0
 11
-1098.175667427681
 21
-483.6487723685599
 31
0.0
  0
LINE
  5
D4
330
1F
100
AcDbEntity
  8
D-0
  6
Continuous
 62
     3
370
     9
100
AcDbLine
 10
-158.1754117398648
 20
-583.6489785684121
 30
0.0
 11
-158.1754117398648
 21
-483.6487723685599
 31
0.0
  0
LINE
  5
D5
330
1F
100
AcDbEntity
  8
D-0
  6
JWW_DASHED1
 62
     3
370
     9
100
AcDbLine
 10
-1090.675642683699
 20
-583.6489785684121
 30
0.0
 11
-1090.675642683699
 21
-483.6487723685599
 31
0.0
  0
LINE
  5
D6
330
1F
100
AcDbEntity
  8
D-0
  6
JWW_DASHED1
 62
     3
370
     9
100
AcDbLine
 10
-390.6755602037583
 20
-583.6489785684121
 30
0.0
 11
-390.6755602037583
 21
-483.6487723685599
 31
0.0
  0
LINE
  5
D7
330
1F
100
AcDbEntity
  8
D-0
  6
Continuous
 62
     3
370
     9
100
AcDbLine
 10
-378.8843103357263
 20
479.0825426256336
 30
0.0
 11
-378.8843103357263
 21
486.1484342008023
 31
0.0
  0
LINE
  5
D8
330
1F
100
AcDbEntity
  8
D-0
  6
Continuous
 62
     3
370
     9
100
AcDbLine
 10
-378.8843103357263
 20
486.1484342008023
 30
0.0
 11
-165.6755602037583
 21
486.1484342008023
 31
0.0
  0
LINE
  5
D9
330
1F
100
AcDbEntity
  8
D-0
  6
Continuous
 62
     3
370
     9
100
AcDbLine
 10
-376.3695794182854
 20
478.6484094568203
 30
0.0
 11
-165.6755602037583
 21
478.6484094568203
 31
0.0
  0
LINE
  5
DA
330
1F
100
AcDbEntity
  8
D-0
  6
Continuous
 62
     3
370
     9
100
AcDbLine
 10
-378.8843103357263
 20
441.1482857369089
 30
0.0
 11
-165.6755602037583
 21
441.1482857369089
 31
0.0
  0
LINE
  5
DB
330
1F
100
AcDbEntity
  8
D-0
  6
Continuous
 62
     3
370
     9
100
AcDbLine
 10
-376.3695794182854
 20
448.6483104808912
 30
0.0
 11
-165.6755602037583
 21
448.6483104808912
 31
0.0
  0
LINE
  5
DC
330
1F
100
AcDbEntity
  8
D-0
  6
Continuous
 62
     3
370
     9
100
AcDbLine
 10
-378.8843103357263
 20
448.2141773120779
 30
0.0
 11
-378.8843103357263
 21
441.1482857369089
 31
0.0
  0
LINE
  5
DD
330
1F
100
AcDbEntity
  8
D-0
  6
Continuous
 62
     3
370
     9
100
AcDbLine
 10
-378.8843103357263
 20
-483.6487723685599
 30
0.0
 11
-378.8843103357263
 21
-583.6489785684121
 31
0.0
  0
LINE
  5
DE
330
1F
100
AcDbEntity
  8
D-4
  6
Continuous
 62
     7
370
     9
100
AcDbLine
 10
-1043.784806535051
 20
288.648401208826
 30
0.0
 11
-1023.951020111909
 21
303.8674349398227
 31
0.0
  0
LINE
  5
DF
330
1F
100
AcDbEntity
  8
D-4
  6
Continuous
 62
     7
370
     9
100
AcDbLine
 10
-1043.784806535051
 20
288.648401208826
 30
0.0
 11
-1020.687783730997
 21
298.2155382311024
 31
0.0
  0
LINE
  5
E0
330
1F
100
AcDbEntity
  8
D-4
  6
Continuous
 62
     7
370
     9
100
AcDbLine
 10
-437.567138671875
 20
638.6483187288852
 30
0.0
 11
-460.6641614759289
 21
629.0813054265203
 31
0.0
  0
LINE
  5
E1
330
1F
100
AcDbEntity
  8
D-4
  6
Continuous
 62
     7
370
     9
100
AcDbLine
 10
-437.567138671875
 20
638.6483187288852
 30
0.0
 11
-457.4009250950169
 21
623.4292849978885
 31
0.0
  0
LINE
  5
E2
330
1F
100
AcDbEntity
  8
D-4
  6
Continuous
 62
     7
370
     9
100
AcDbLine
 10
-431.0718433277026
 20
642.3985166807432
 30
0.0
 11
-411.2380569045607
 21
657.6175504117398
 31
0.0
  0
LINE
  5
E3
330
1F
100
AcDbEntity
  8
D-4
  6
Continuous
 62
     7
370
     9
100
AcDbLine
 10
-431.0718433277026
 20
642.3985166807432
 30
0.0
 11
-407.9748205236484
 21
651.9655299831084
 31
0.0
  0
LINE
  5
E4
330
1F
100
AcDbEntity
  8
D-4
  6
Continuous
 62
     7
370
     9
100
AcDbLine
 10
-1050.280101879223
 20
284.8984506967906
 30
0.0
 11
-1073.376753523543
 21
275.3313136745143
 31
0.0
  0
LINE
  5
E5
330
1F
100
AcDbEntity
  8
D-4
  6
Continuous
 62
     7
370
     9
100
AcDbLine
 10
-1050.280101879223
 20
284.8984506967906
 30
0.0
 11
-1070.113888302365
 21
269.679416965794
 31
0.0
  0
LINE
  5
E6
330
1F
100
AcDbEntity
  8
D-4
  6
Continuous
 62
     7
370
     9
100
AcDbLine
 10
-1134.056297508446
 20
236.5299039273648
 30
0.0
 11
-338.6815251530825
 21
695.7401090054901
 31
0.0
  0
LINE
  5
E7
330
1F
100
AcDbEntity
  8
D-E
  6
Continuous
 62
     7
370
     9
100
AcDbLine
 10
-919.4260055954392
 20
773.2526129645271
 30
0.0
 11
-934.6450393264358
 21
793.086399387669
 31
0.0
  0
LINE
  5
E8
330
1F
100
AcDbEntity
  8
D-E
  6
Continuous
 62
     7
370
     9
100
AcDbLine
 10
-919.4260055954392
 20
773.2526129645271
 30
0.0
 11
-928.9930188978041
 21
796.3496357685813
 31
0.0
  0
LINE
  5
E9
330
1F
100
AcDbEntity
  8
D-E
  6
Continuous
 62
     7
370
     9
100
AcDbLine
 10
-919.4260055954392
 20
773.2526129645271
 30
0.0
 11
-1004.813776789485
 21
921.1486321526606
 31
0.0
  0
LINE
  5
EA
330
1F
100
AcDbEntity
  8
D-E
  6
Continuous
 62
     7
370
     9
100
AcDbLine
 10
-1004.813776789485
 20
921.1486321526606
 30
0.0
 11
-1564.849028716216
 21
921.1486321526606
 31
0.0
  0
LINE
  5
EB
330
1F
100
AcDbEntity
  8
D-9
  6
Continuous
 62
     2
370
     9
100
AcDbLine
 10
-158.1754117398648
 20
-583.6487311285895
 30
0.0
 11
109.3243573163008
 21
-583.6487311285895
 31
0.0
  0
LINE
  5
EC
330
1F
100
AcDbEntity
  8
D-9
  6
Continuous
 62
     2
370
     9
100
AcDbLine
 10
-158.1754117398648
 20
-483.6488960884712
 30
0.0
 11
109.3243573163008
 21
-483.6488960884712
 31
0.0
  0
LINE
  5
ED
330
1F
100
AcDbEntity
  8
D-0
  6
Continuous
 62
     3
370
     9
100
AcDbLine
 10
-383.175535459776
 20
-583.6489785684121
 30
0.0
 11
-383.175535459776
 21
-483.6487723685599
 31
0.0
  0
LINE
  5
EE
330
1F
100
AcDbEntity
  8
D-0
  6
JWW_CENTER1
 62
     3
370
     9
100
AcDbLine
 10
-1144.829641806113
 20
463.6484836887669
 30
0.0
 11
123.9572061074747
 21
463.6484836887669
 31
0.0
  0
LINE
  5
EF
330
1F
100
AcDbEntity
  8
D-0
  6
JWW_CENTER1
 62
     3
370
     9
100
AcDbLine
 10
-740.6759726034627
 20
76.6260013064823
 30
0.0
 11
-740.6759726034627
 21
858.0009996568836
 31
0.0
  0
LINE
  5
F0
330
1F
100
AcDbEntity
  8
D-4
  6
Continuous
 62
     7
370
     9
100
AcDbLine
 10
-1248.175667427681
 20
-583.6489785684121
 30
0.0
 11
-1248.175667427681
 21
-483.6487723685599
 31
0.0
  0
LINE
  5
F1
330
1F
100
AcDbEntity
  8
D-4
  6
Continuous
 62
     7
370
     9
100
AcDbLine
 10
-1123.175688047667
 20
-583.6489785684121
 30
0.0
 11
-1251.175689697266
 21
-583.6489785684121
 31
0.0
  0
LINE
  5
F2
330
1F
100
AcDbEntity
  8
D-4
  6
Continuous
 62
     7
370
     9
100
AcDbLine
 10
-1123.175688047667
 20
-483.6487723685599
 30
0.0
 11
-1251.175689697266
 21
-483.6487723685599
 31
0.0
  0
LINE
  5
F3
330
1F
100
AcDbEntity
  8
D-4
  6
Continuous
 62
     7
370
     9
100
AcDbLine
 10
-1248.175667427681
 20
-583.6489785684121
 30
0.0
 11
-1251.438841948638
 21
-558.8628696750949
 31
0.0
  0
LINE
  5
F4
330
1F
100
AcDbEntity
  8
D-4
  6
Continuous
 62
     7
370
     9
100
AcDbLine
 10
-1248.175667427681
 20
-583.6489785684121
 30
0.0
 11
-1244.912492906725
 21
-558.8628696750949
 31
0.0
  0
LINE
  5
F5
330
1F
100
AcDbEntity
  8
D-4
  6
Continuous
 62
     7
370
     9
100
AcDbLine
 10
-1248.175667427681
 20
-483.6487723685599
 30
0.0
 11
-1251.438841948638
 21
-508.4348812618771
 31
0.0
  0
LINE
  5
F6
330
1F
100
AcDbEntity
  8
D-4
  6
Continuous
 62
     7
370
     9
100
AcDbLine
 10
-1248.175667427681
 20
-483.6487723685599
 30
0.0
 11
-1244.912492906725
 21
-508.4348812618771
 31
0.0
  0
CIRCLE
  5
F7
330
1F
100
AcDbEntity
  8
D-2
  6
Continuous
 62
     4
370
     9
100
AcDbCircle
 10
-303.05835620777
 20
-533.6489373284417
 30
0.0
 40
24.99999548937824
  0
CIRCLE
  5
F8
330
1F
100
AcDbEntity
  8
D-2
  6
Continuous
 62
     4
370
     9
100
AcDbCircle
 10
-203.0582737278291
 20
-533.6489373284417
 30
0.0
 40
24.99999548937824
  0
ARC
  5
F9
330
1F
100
AcDbEntity
  8
D-2
  6
Continuous
 62
     4
370
     9
100
AcDbCircle
 10
-324.4883769267312
 20
496.6485430743245
 30
0.0
 40
9.499999639150259
100
AcDbArc
 50
48.35789489746093
 51
131.6421203613281
  0
ARC
  5
FA
330
1F
100
AcDbEntity
  8
D-2
  6
Continuous
 62
     4
370
     9
100
AcDbCircle
 10
-281.8634033203125
 20
496.6485430743245
 30
0.0
 40
9.499999639150259
100
AcDbArc
 50
48.35787963867188
 51
131.6421051025391
  0
ARC
  5
FB
330
1F
100
AcDbEntity
  8
D-2
  6
Continuous
 62
     4
370
     9
100
AcDbCircle
 10
-303.1758901235219
 20
458.0818299989443
 30
0.0
 40
48.06661992459684
100
AcDbArc
 50
71.81625366210938
 51
108.1837463378906
  0
ARC
  5
FC
330
1F
100
AcDbEntity
  8
D-2
  6
Continuous
 62
     4
370
     9
100
AcDbCircle
 10
-224.4882944467903
 20
496.6485430743245
 30
0.0
 40
9.499999639150259
100
AcDbArc
 50
48.35789489746093
 51
131.6421203613281
  0
ARC
  5
FD
330
1F
100
AcDbEntity
  8
D-2
  6
Continuous
 62
     4
370
     9
100
AcDbCircle
 10
-181.8633208403716
 20
496.6485430743245
 30
0.0
 40
9.499999639150259
100
AcDbArc
 50
48.35787963867188
 51
131.6421051025391
  0
ARC
  5
FE
330
1F
100
AcDbEntity
  8
D-2
  6
Continuous
 62
     4
370
     9
100
AcDbCircle
 10
-203.175807643581
 20
458.0818299989443
 30
0.0
 40
48.06661992459684
100
AcDbArc
 50
71.81625366210938
 51
108.1837463378906
  0
ARC
  5
FF
330
1F
100
AcDbEntity
  8
D-2
  6
Continuous
 62
     4
370
     9
100
AcDbCircle
 10
-281.6426869985219
 20
427.9879513302365
 30
0.0
 40
11.83964465115521
100
AcDbArc
 50
232.4427795410156
 51
307.5572204589844
  0
ARC
  5
100
330
1F
100
AcDbEntity
  8
D-2
  6
Continuous
 62
     4
370
     9
100
AcDbCircle
 10
-303.1756426836992
 20
459.137903161951
 30
0.0
 40
42.98959165006071
100
AcDbArc
 50
250.5480041503907
 51
289.4519958496094
  0
ARC
  5
101
330
1F
100
AcDbEntity
  8
D-2
  6
Continuous
 62
     4
370
     9
100
AcDbCircle
 10
-324.7088458086992
 20
427.9879513302365
 30
0.0
 40
11.83964465115521
100
AcDbArc
 50
232.4427795410156
 51
307.5572204589844
  0
ARC
  5
102
330
1F
100
AcDbEntity
  8
D-2
  6
Continuous
 62
     4
370
     9
100
AcDbCircle
 10
-181.642604518581
 20
427.9879513302365
 30
0.0
 40
11.83964465115521
100
AcDbArc
 50
232.4427795410156
 51
307.5572204589844
  0
ARC
  5
103
330
1F
100
AcDbEntity
  8
D-2
  6
Continuous
 62
     4
370
     9
100
AcDbCircle
 10
-203.1755602037583
 20
459.137903161951
 30
0.0
 40
42.98959165006071
100
AcDbArc
 50
250.5480041503907
 51
289.4519958496094
  0
ARC
  5
104
330
1F
100
AcDbEntity
  8
D-2
  6
Continuous
 62
     4
370
     9
100
AcDbCircle
 10
-224.7087633287583
 20
427.9879513302365
 30
0.0
 40
11.83964465115521
100
AcDbArc
 50
232.4427795410156
 51
307.5572204589844
  0
CIRCLE
  5
105
330
1F
100
AcDbEntity
  8
D-2
  6
Continuous
 62
     4
370
     9
100
AcDbCircle
 10
-303.1758901235219
 20
-533.6489373284417
 30
0.0
 40
12.29256294869088
  0
CIRCLE
  5
106
330
1F
100
AcDbEntity
  8
D-2
  6
Continuous
 62
     4
370
     9
100
AcDbCircle
 10
-303.1758901235219
 20
-533.6489373284417
 30
0.0
 40
15.00004948796453
  0
CIRCLE
  5
107
330
1F
100
AcDbEntity
  8
D-2
  6
Continuous
 62
     4
370
     9
100
AcDbCircle
 10
-203.175807643581
 20
-533.6489373284417
 30
0.0
 40
12.29256294869088
  0
CIRCLE
  5
108
330
1F
100
AcDbEntity
  8
D-2
  6
Continuous
 62
     4
370
     9
100
AcDbCircle
 10
-203.175807643581
 20
-533.6489373284417
 30
0.0
 40
15.00004948796453
  0
ARC
  5
109
330
1F
100
AcDbEntity
  8
D-9
  6
JWW_HOJO
 62
     2
370
     9
100
AcDbCircle
 10
-338.1757581556164
 20
-533.6488136085303
 30
0.0
 40
17.49999587600296
100
AcDbArc
 50
90.0
 51
270.0
  0
ARC
  5
10A
330
1F
100
AcDbEntity
  8
D-9
  6
JWW_HOJO
 62
     2
370
     9
100
AcDbCircle
 10
-198.1757911475927
 20
-533.6488136085303
 30
0.0
 40
17.49999587600296
100
AcDbArc
 50
270.0
 51
90.0
  0
ARC
  5
10B
330
1F
100
AcDbEntity
  8
D-0
  6
Continuous
 62
     3
370
     9
100
AcDbCircle
 10
-165.6755602037583
 20
478.6484094568203
 30
0.0
 40
7.500000096656181
100
AcDbArc
 50
270.0
 51
90.0
  0
ARC
  5
10C
330
1F
100
AcDbEntity
  8
D-0
  6
Continuous
 62
     3
370
     9
100
AcDbCircle
 10
-165.6755602037583
 20
448.6483104808912
 30
0.0
 40
7.500000096656181
100
AcDbArc
 50
270.0
 51
90.0
  0
ARC
  5
10D
330
1F
100
AcDbEntity
  8
D-0
  6
Continuous
 62
     3
370
     9
100
AcDbCircle
 10
-376.3695794182854
 20
486.1484342008023
 30
0.0
 40
7.500000096656181
100
AcDbArc
 50
183.5342407226562
 51
270.0
  0
ARC
  5
10E
330
1F
100
AcDbEntity
  8
D-0
  6
Continuous
 62
     3
370
     9
100
AcDbCircle
 10
-376.3695794182854
 20
486.1484342008023
 30
0.0
 40
15.00000019331236
100
AcDbArc
 50
183.5342407226562
 51
270.0
  0
ARC
  5
10F
330
1F
100
AcDbEntity
  8
D-0
  6
Continuous
 62
     3
370
     9
100
AcDbCircle
 10
-376.3695794182854
 20
441.1482857369089
 30
0.0
 40
7.500000096656181
100
AcDbArc
 50
90.0
 51
176.4657592773438
  0
ARC
  5
110
330
1F
100
AcDbEntity
  8
D-0
  6
Continuous
 62
     3
370
     9
100
AcDbCircle
 10
-376.3695794182854
 20
441.1482857369089
 30
0.0
 40
15.00000019331236
100
AcDbArc
 50
90.0
 51
176.4657592773438
  0
ARC
  5
111
330
1F
100
AcDbEntity
  8
D-0
  6
Continuous
 62
     3
370
     9
100
AcDbCircle
 10
-740.6759726034627
 20
463.6484836887669
 30
0.0
 40
350.0000103099927
100
AcDbArc
 50
3.5341796875
 51
356.4658203124999
  0
ARC
  5
112
330
1F
100
AcDbEntity
  8
D-0
  6
Continuous
 62
     3
370
     9
100
AcDbCircle
 10
-740.6759726034627
 20
463.6484836887669
 30
0.0
 40
357.5000041239971
100
AcDbArc
 50
3.608428955078125
 51
356.4658203124999
  0
TEXT
  5
113
330
1F
100
AcDbEntity
  8
D-E
  6
Continuous
 62
     7
370
     9
100
AcDbText
 10
-196.1451721191405
 20
909.5221934385561
 30
0.0
 40
22.86
  1
六角ボルト：ＳＵＳ３０４
 41
1.152777777777778
  7
ＭＳ ゴシック
100
AcDbText
  0
TEXT
  5
114
330
1F
100
AcDbEntity
  8
D-E
  6
Continuous
 62
     7
370
     9
100
AcDbText
 10
-98.13775552285662
 20
854.576943623311
 30
0.0
 40
22.86
  1
Ｍ６×２５
 41
1.133333333333333
  7
ＭＳ ゴシック
100
AcDbText
  0
TEXT
  5
115
330
1F
100
AcDbEntity
  8
D-E
  6
Continuous
 62
     7
370
     9
100
AcDbText
 10
191.1727575353675
 20
804.6616505225929
 30
0.0
 40
22.86
  1
支持金具：ＳＵＳ３０４
 41
1.151515151515152
  7
ＭＳ ゴシック
100
AcDbText
  0
TEXT
  5
116
330
1F
100
AcDbEntity
  8
D-E
  6
Continuous
 62
     7
370
     9
100
AcDbText
 10
178.1592126794764
 20
752.1215157833617
 30
0.0
 40
22.86
  1
ヘアライン仕上＋電解研磨
 41
1.152777777777778
  7
ＭＳ ゴシック
100
AcDbText
  0
TEXT
  5
117
330
1F
100
AcDbEntity
  8
D-4
  6
Continuous
 62
     2
370
     9
100
AcDbText
 10
1262.026944547086
 20
-648.0762657041807
 30
0.0
 40
30.48
  1
Ａ寸法
 41
1.083333333333333
  7
ＭＳ ゴシック
100
AcDbText
  0
TEXT
  5
118
330
1F
100
AcDbEntity
  8
D-4
  6
Continuous
 62
     2
370
     9
100
AcDbText
 10
855.776820827175
 20
-735.5763069441512
 30
0.0
 40
30.48
  1
60
 41
1.0625
  7
ＭＳ ゴシック
100
AcDbText
  0
TEXT
  5
119
330
1F
100
AcDbEntity
  8
D-4
  6
Continuous
 62
     2
370
     9
100
AcDbText
 10
955.7771507469386
 20
-735.5763069441512
 30
0.0
 40
30.48
  1
70
 41
1.0625
  7
ＭＳ ゴシック
100
AcDbText
  0
TEXT
  5
11A
330
1F
100
AcDbEntity
  8
D-4
  6
Continuous
 62
     2
370
     9
100
AcDbText
 10
1055.776985787057
 20
-735.5763069441512
 30
0.0
 40
30.48
  1
80
 41
1.0625
  7
ＭＳ ゴシック
100
AcDbText
  0
TEXT
  5
11B
330
1F
100
AcDbEntity
  8
D-4
  6
Continuous
 62
     2
370
     9
100
AcDbText
 10
1155.776820827175
 20
-735.5763069441512
 30
0.0
 40
30.48
  1
90
 41
1.0625
  7
ＭＳ ゴシック
100
AcDbText
  0
TEXT
  5
11C
330
1F
100
AcDbEntity
  8
D-4
  6
Continuous
 62
     2
370
     9
100
AcDbText
 10
1244.527027027027
 20
-735.5763069441512
 30
0.0
 40
30.48
  1
100
 41
1.083333333333333
  7
ＭＳ ゴシック
100
AcDbText
  0
TEXT
  5
11D
330
1F
100
AcDbEntity
  8
D-4
  6
Continuous
 62
     2
370
     9
100
AcDbText
 10
1344.527109506968
 20
-735.5763069441512
 30
0.0
 40
30.48
  1
110
 41
1.083333333333333
  7
ＭＳ ゴシック
100
AcDbText
  0
TEXT
  5
11E
330
1F
100
AcDbEntity
  8
D-4
  6
Continuous
 62
     2
370
     9
100
AcDbText
 10
1444.526944547086
 20
-735.5763069441512
 30
0.0
 40
30.48
  1
120
 41
1.083333333333333
  7
ＭＳ ゴシック
100
AcDbText
  0
TEXT
  5
11F
330
1F
100
AcDbEntity
  8
D-4
  6
Continuous
 62
     2
370
     9
100
AcDbText
 10
848.4483543602198
 20
-1030.652254473712
 30
0.0
 40
30.48
  1
※御注文の際は、Ａ寸法を御指示下さい
 41
1.118055555555555
  7
ＭＳ ゴシック
100
AcDbText
  0
TEXT
  5
120
330
1F
100
AcDbEntity
  8
D-4
  6
Continuous
 62
     2
370
     9
100
AcDbText
 10
848.4484285921667
 20
-950.6522379777238
 30
0.0
 40
30.48
  1
※Ａ寸法は、0～＋10ｍｍの範囲で調節可能です
 41
1.119186046511628
  7
ＭＳ ゴシック
100
AcDbText
  0
TEXT
  5
121
330
1F
100
AcDbEntity
  8
D-4
  6
Continuous
 62
     2
370
     9
100
AcDbText
 10
848.4483296162377
 20
-870.6522214817356
 30
0.0
 40
30.48
  1
※この図面は、Ａ寸法１００で作図しています
 41
1.119047619047619
  7
ＭＳ ゴシック
100
AcDbText
  0
TEXT
  5
122
330
1F
100
AcDbEntity
  8
D-4
  6
Continuous
 62
     2
370
     9
100
AcDbText
 10
1744.526944547086
 20
-735.5763069441512
 30
0.0
 40
30.48
  1
150
 41
1.083333333333333
  7
ＭＳ ゴシック
100
AcDbText
  0
TEXT
  5
123
330
1F
100
AcDbEntity
  8
D-4
  6
Continuous
 62
     2
370
     9
100
AcDbText
 10
1544.527027027027
 20
-735.5763069441512
 30
0.0
 40
30.48
  1
130
 41
1.083333333333333
  7
ＭＳ ゴシック
100
AcDbText
  0
TEXT
  5
124
330
1F
100
AcDbEntity
  8
D-4
  6
Continuous
 62
     2
370
     9
100
AcDbText
 10
1644.527109506968
 20
-735.5763069441512
 30
0.0
 40
30.48
  1
140
 41
1.083333333333333
  7
ＭＳ ゴシック
100
AcDbText
  0
TEXT
  5
125
330
1F
100
AcDbEntity
  8
D-4
  6
Continuous
 62
     2
370
     9
100
AcDbText
 10
-281.925626187711
 20
276.7885909126901
 30
0.0
 40
30.48
  1
20
 41
1.0625
  7
ＭＳ ゴシック
100
AcDbText
  0
TEXT
  5
126
330
1F
100
AcDbEntity
  8
D-4
  6
Continuous
 62
     2
370
     9
100
AcDbText
 10
-138.3145100361591
 20
276.7885909126901
 30
0.0
 40
30.48
  1
10.5
 41
1.09375
  7
ＭＳ ゴシック
100
AcDbText
  0
TEXT
  5
127
330
1F
100
AcDbEntity
  8
D-4
  6
Continuous
 62
     2
370
     9
100
AcDbText
 10
242.5957304800856
 20
105.1775679634997
 30
0.0
 40
30.48
  1
２－φ７
 50
0.0000405064305674
 41
1.09375
  7
ＭＳ ゴシック
100
AcDbText
  0
TEXT
  5
128
330
1F
100
AcDbEntity
  8
D-4
  6
Continuous
 62
     2
370
     9
100
AcDbText
 10
-160.6757870235957
 20
104.2885166807432
 30
0.0
 40
30.48
  1
Ａ
 41
0.9999999999999998
  7
ＭＳ ゴシック
100
AcDbText
  0
TEXT
  5
129
330
1F
100
AcDbEntity
  8
D-4
  6
Continuous
 62
     2
370
     9
100
AcDbText
 10
243.6843252531916
 20
442.398607162146
 30
0.0
 40
30.48
  1
65
 50
90.00000250447816
 41
1.062499999999999
  7
ＭＳ ゴシック
100
AcDbText
  0
TEXT
  5
12A
330
1F
100
AcDbEntity
  8
D-4
  6
Continuous
 62
     2
370
     9
100
AcDbText
 10
343.6844077331324
 20
442.3984834422349
 30
0.0
 40
30.48
  1
90
 50
90.00000250447816
 41
1.062499999999999
  7
ＭＳ ゴシック
100
AcDbText
  0
TEXT
  5
12B
330
1F
100
AcDbEntity
  8
D-E
  6
Continuous
 62
     7
370
     9
100
AcDbText
 10
-1465.835719752956
 20
936.5760264463686
 30
0.0
 40
22.86
  1
本体：ＳＵＳ３０４
 41
1.148148148148148
  7
ＭＳ ゴシック
100
AcDbText
  0
TEXT
  5
12C
330
1F
100
AcDbEntity
  8
D-4
  6
Continuous
 62
     2
370
     9
100
AcDbText
 10
-684.5572823554687
 20
514.1080709435278
 30
0.0
 40
30.48
  1
φ140
 50
29.99995643859645
 41
1.1
  7
ＭＳ ゴシック
100
AcDbText
  0
TEXT
  5
12D
330
1F
100
AcDbEntity
  8
D-4
  6
Continuous
 62
     2
370
     9
100
AcDbText
 10
-413.2951984419541
 20
670.7213903043507
 30
0.0
 40
30.48
  1
1.5
 50
30.00021257069033
 41
1.083333333333333
  7
ＭＳ ゴシック
100
AcDbText
  0
TEXT
  5
12E
330
1F
100
AcDbEntity
  8
D-4
  6
Continuous
 62
     2
370
     9
100
AcDbText
 10
-1130.030853022452
 20
256.9136827524725
 30
0.0
 40
30.48
  1
1.5
 50
29.99984715556973
 41
1.083333333333333
  7
ＭＳ ゴシック
100
AcDbText
  0
TEXT
  5
12F
330
1F
100
AcDbEntity
  8
D-E
  6
Continuous
 62
     7
370
     9
100
AcDbText
 10
-1564.849041088207
 20
884.950676731419
 30
0.0
 40
22.86
  1
ヘアライン仕上＋セラミック系塗装
 41
1.15625
  7
ＭＳ ゴシック
100
AcDbText
  0
TEXT
  5
130
330
1F
100
AcDbEntity
  8
D-4
  6
Continuous
 62
     2
370
     9
100
AcDbText
 10
-1263.815637630835
 20
-554.8988757150183
 30
0.0
 40
30.48
  1
20
 50
90.00000250447816
 41
1.062499999999999
  7
ＭＳ ゴシック
100
AcDbText
  0
TEXT
  5
131
330
1F
100
AcDbEntity
  8
F-5
  6
Continuous
 62
     2
370
     9
100
AcDbText
 10
-826.0410865577489
 20
-1329.633915883657
 30
0.0
 40
30.48
  1
ステンレス　つかみ金物　バンドタイプ　Ｔ字足
 41
1.119318181818182
  7
ＭＳ ゴシック
100
AcDbText
  0
TEXT
  5
132
330
1F
100
AcDbEntity
  8
F-5
  6
Continuous
 62
     2
370
     9
100
AcDbText
 10
6.165004420924873
 20
-1370.941968359045
 30
0.0
 40
30.48
  1
ＴＳ－２Ｔ－１２５
 41
1.111111111111111
  7
ＭＳ ゴシック
100
AcDbText
  0
ENDSEC
  0
SECTION
  2
OBJECTS
  0
DICTIONARY
  5
C
330
0
100
AcDbDictionary
281
     1
  3
ACAD_GROUP
350
D
  3
ACAD_LAYOUT
350
1A
  3
ACAD_MLEADERSTYLE
350
134
  3
ACAD_MLINESTYLE
350
17
  3
ACAD_PLOTSETTINGS
350
19
  3
ACAD_PLOTSTYLENAME
350
E
  3
ACAD_TABLESTYLE
350
133
  3
ACAD_VISUALSTYLE
350
2A
  3
AcDbVariableDictionary
350
135
  0
DICTIONARY
  5
D
102
{ACAD_REACTORS
330
C
102
}
330
C
100
AcDbDictionary
281
     1
  0
DICTIONARY
  5
1A
102
{ACAD_REACTORS
330
C
102
}
330
C
100
AcDbDictionary
281
     1
  3
Layout1
350
1E
  3
Layout2
350
26
  3
Model
350
22
  0
DICTIONARY
  5
134
102
{ACAD_REACTORS
330
C
102
}
330
C
100
AcDbDictionary
281
     1
  0
DICTIONARY
  5
17
102
{ACAD_REACTORS
330
C
102
}
330
C
100
AcDbDictionary
281
     1
  3
Standard
350
18
  0
DICTIONARY
  5
19
102
{ACAD_REACTORS
330
C
102
}
330
C
100
AcDbDictionary
281
     1
  0
ACDBDICTIONARYWDFLT
  5
E
102
{ACAD_REACTORS
330
C
102
}
330
C
100
AcDbDictionary
281
     1
  3
Normal
350
F
100
AcDbDictionaryWithDefault
340
F
  0
DICTIONARY
  5
133
102
{ACAD_REACTORS
330
C
102
}
330
C
100
AcDbDictionary
281
     1
  0
DICTIONARY
  5
2A
102
{ACAD_REACTORS
330
C
102
}
330
C
100
AcDbDictionary
281
     1
  3
2dWireframe
350
2F
  3
3D Hidden
350
31
  3
3dWireframe
350
30
  3
Basic
350
32
  3
Brighten
350
36
  3
ColorChange
350
3A
  3
Conceptual
350
34
  3
Dim
350
35
  3
Facepattern
350
39
  3
Flat
350
2B
  3
FlatWithEdges
350
2C
  3
Gouraud
350
2D
  3
GouraudWithEdges
350
2E
  3
Linepattern
350
38
  3
Realistic
350
33
  3
Thicken
350
37
  0
DICTIONARY
  5
135
102
{ACAD_REACTORS
330
C
102
}
330
C
100
AcDbDictionary
281
     1
  3
PSOLHEIGHT
350
137
  3
PSOLWIDTH
350
136
  0
LAYOUT
  5
1E
102
{ACAD_REACTORS
330
1A
102
}
102
{ACAD_XDICTIONARY
360
138
102
}
330
1A
100
AcDbPlotSettings
  1

  2
none_device
  4

  6

 40
0.0
 41
0.0
 42
0.0
 43
0.0
 44
0.0
 45
0.0
 46
0.0
 47
0.0
 48
0.0
 49
0.0
140
0.0
141
0.0
142
1.0
143
1.0
 70
   688
 72
     0
 73
     0
 74
     5
  7

 75
    16
147
1.0
148
0.0
149
0.0
100
AcDbLayout
  1
Layout1
 70
     1
 71
     1
 10
0.0
 20
0.0
 11
420.0
 21
297.0
 12
0.0
 22
0.0
 32
0.0
 14
1.000000000000000E+20
 24
1.000000000000000E+20
 34
1.000000000000000E+20
 15
-1.000000000000000E+20
 25
-1.000000000000000E+20
 35
-1.000000000000000E+20
146
0.0
 13
0.0
 23
0.0
 33
0.0
 16
1.0
 26
0.0
 36
0.0
 17
0.0
 27
1.0
 37
0.0
 76
     0
330
1B
  0
LAYOUT
  5
26
102
{ACAD_REACTORS
330
1A
102
}
102
{ACAD_XDICTIONARY
360
13C
102
}
330
1A
100
AcDbPlotSettings
  1

  2
none_device
  4

  6

 40
0.0
 41
0.0
 42
0.0
 43
0.0
 44
0.0
 45
0.0
 46
0.0
 47
0.0
 48
0.0
 49
0.0
140
0.0
141
0.0
142
1.0
143
1.0
 70
   688
 72
     0
 73
     0
 74
     5
  7

 75
    16
147
1.0
148
0.0
149
0.0
100
AcDbLayout
  1
Layout2
 70
     1
 71
     2
 10
0.0
 20
0.0
 11
0.0
 21
0.0
 12
0.0
 22
0.0
 32
0.0
 14
0.0
 24
0.0
 34
0.0
 15
0.0
 25
0.0
 35
0.0
146
0.0
 13
0.0
 23
0.0
 33
0.0
 16
1.0
 26
0.0
 36
0.0
 17
0.0
 27
1.0
 37
0.0
 76
     0
330
23
  0
LAYOUT
  5
22
102
{ACAD_REACTORS
330
1A
102
}
102
{ACAD_XDICTIONARY
360
13A
102
}
330
1A
100
AcDbPlotSettings
  1

  2
none_device
  4

  6

 40
0.0
 41
0.0
 42
0.0
 43
0.0
 44
0.0
 45
0.0
 46
0.0
 47
0.0
 48
0.0
 49
0.0
140
0.0
141
0.0
142
1.0
143
1.0
 70
  1712
 72
     0
 73
     0
 74
     0
  7

 75
     0
147
1.0
148
0.0
149
0.0
100
AcDbLayout
  1
Model
 70
     1
 71
     0
 10
-2100.0
 20
-1485.0
 11
2100.0
 21
1485.0
 12
0.0
 22
0.0
 32
0.0
 14
-2100.0
 24
-1485.0
 34
0.0
 15
2100.0
 25
1485.0
 35
0.0
146
0.0
 13
0.0
 23
0.0
 33
0.0
 16
1.0
 26
0.0
 36
0.0
 17
0.0
 27
1.0
 37
0.0
 76
     0
330
1F
331
29
  0
MLINESTYLE
  5
18
102
{ACAD_REACTORS
330
17
102
}
330
17
100
AcDbMlineStyle
  2
Standard
 70
     0
  3

 62
   256
 51
90.0
 52
90.0
 71
     2
 49
0.5
 62
   256
  6
BYLAYER
 49
-0.5
 62
   256
  6
BYLAYER
  0
ACDBPLACEHOLDER
  5
F
102
{ACAD_REACTORS
330
E
102
}
330
E
  0
VISUALSTYLE
  5
2F
102
{ACAD_REACTORS
330
2A
102
}
330
2A
100
AcDbVisualStyle
  2
2dWireframe
 70
     4
 71
     0
 72
     2
 73
     0
 90
        0
 40
-0.6
 41
-30.0
 62
     5
 63
     7
 74
     1
 91
        4
 64
     7
 65
   257
 75
     1
175
     1
 42
1.0
 92
        0
 66
   257
 43
1.0
 76
     1
 77
     6
 78
     2
 67
     7
 79
     5
170
     0
171
     0
290
     0
174
     0
 93
        1
 44
0.0
173
     0
291
     0
 45
0.0
1001
ACAD
1000
AcDbSavedByObjectVersion
1070
     0
  0
VISUALSTYLE
  5
31
102
{ACAD_REACTORS
330
2A
102
}
330
2A
100
AcDbVisualStyle
  2
3D Hidden
 70
     6
 71
     1
 72
     2
 73
     2
 90
        0
 40
-0.6
 41
-30.0
 62
     5
 63
     7
 74
     2
 91
        2
 64
     7
 65
   257
 75
     2
175
     1
 42
40.0
 92
        0
 66
   257
 43
1.0
 76
     1
 77
     6
 78
     2
 67
     7
 79
     3
170
     0
171
     0
290
     0
174
     0
 93
        1
 44
0.0
173
     0
291
     0
 45
0.0
1001
ACAD
1000
AcDbSavedByObjectVersion
1070
     0
  0
VISUALSTYLE
  5
30
102
{ACAD_REACTORS
330
2A
102
}
330
2A
100
AcDbVisualStyle
  2
3dWireframe
 70
     5
 71
     0
 72
     2
 73
     0
 90
        0
 40
-0.6
 41
-30.0
 62
     5
 63
     7
 74
     1
 91
        4
 64
     7
 65
   257
 75
     1
175
     1
 42
1.0
 92
        0
 66
   257
 43
1.0
 76
     1
 77
     6
 78
     2
 67
     7
 79
     5
170
     0
171
     0
290
     0
174
     0
 93
        1
 44
0.0
173
     0
291
     0
 45
0.0
1001
ACAD
1000
AcDbSavedByObjectVersion
1070
     0
  0
VISUALSTYLE
  5
32
102
{ACAD_REACTORS
330
2A
102
}
330
2A
100
AcDbVisualStyle
  2
Basic
 70
     7
 71
     1
 72
     0
 73
     1
 90
        0
 40
-0.6
 41
-30.0
 62
     5
 63
     7
 74
     0
 91
        4
 64
     7
 65
   257
 75
     1
175
     1
 42
1.0
 92
        8
 66
     7
 43
1.0
 76
     1
 77
     6
 78
     2
 67
     7
 79
     5
170
     0
171
     0
290
     0
174
     0
 93
        1
 44
0.0
173
     0
291
     1
 45
0.0
1001
ACAD
1000
AcDbSavedByObjectVersion
1070
     0
  0
VISUALSTYLE
  5
36
102
{ACAD_REACTORS
330
2A
102
}
330
2A
100
AcDbVisualStyle
  2
Brighten
 70
    12
 71
     2
 72
     2
 73
     0
 90
        0
 40
-0.6
 41
-30.0
 62
     5
 63
     7
 74
     1
 91
        4
 64
     7
 65
   257
 75
     1
175
     1
 42
1.0
 92
        8
 66
     7
 43
1.0
 76
     1
 77
     6
 78
     2
 67
     7
 79
     5
170
     0
171
     0
290
     0
174
     0
 93
        1
 44
50.0
173
     0
291
     1
 45
0.0
1001
ACAD
1000
AcDbSavedByObjectVersion
1070
     0
  0
VISUALSTYLE
  5
3A
102
{ACAD_REACTORS
330
2A
102
}
330
2A
100
AcDbVisualStyle
  2
ColorChange
 70
    16
 71
     2
 72
     2
 73
     3
 90
        0
 40
-0.6
 41
-30.0
 62
     5
 63
     8
 74
     1
 91
        4
 64
     7
 65
   257
 75
     1
175
     1
 42
1.0
 92
        8
 66
     8
 43
1.0
 76
     1
 77
     6
 78
     2
 67
     7
 79
     5
170
     0
171
     0
290
     0
174
     0
 93
        1
 44
0.0
173
     0
291
     1
 45
0.0
1001
ACAD
1000
AcDbSavedByObjectVersion
1070
     0
  0
VISUALSTYLE
  5
34
102
{ACAD_REACTORS
330
2A
102
}
330
2A
100
AcDbVisualStyle
  2
Conceptual
 70
     9
 71
     3
 72
     2
 73
     0
 90
        0
 40
-0.6
 41
-30.0
 62
     5
 63
     7
 74
     2
 91
        2
 64
     7
 65
   257
 75
     1
175
     1
 42
40.0
 92
        8
 66
     7
 43
1.0
 76
     1
 77
     6
 78
     2
 67
     7
 79
     3
170
     0
171
     0
290
     0
174
     0
 93
        1
 44
0.0
173
     0
291
     0
 45
0.0
1001
ACAD
1000
AcDbSavedByObjectVersion
1070
     0
  0
VISUALSTYLE
  5
35
102
{ACAD_REACTORS
330
2A
102
}
330
2A
100
AcDbVisualStyle
  2
Dim
 70
    11
 71
     2
 72
     2
 73
     0
 90
        0
 40
-0.6
 41
-30.0
 62
     5
 63
     7
 74
     1
 91
        4
 64
     7
 65
   257
 75
     1
175
     1
 42
1.0
 92
        8
 66
     7
 43
1.0
 76
     1
 77
     6
 78
     2
 67
     7
 79
     5
170
     0
171
     0
290
     0
174
     0
 93
        1
 44
-50.0
173
     0
291
     1
 45
0.0
1001
ACAD
1000
AcDbSavedByObjectVersion
1070
     0
  0
VISUALSTYLE
  5
39
102
{ACAD_REACTORS
330
2A
102
}
330
2A
100
AcDbVisualStyle
  2
Facepattern
 70
    15
 71
     2
 72
     2
 73
     0
 90
        0
 40
-0.6
 41
-30.0
 62
     5
 63
     7
 74
     1
 91
        4
 64
     7
 65
   257
 75
     1
175
     1
 42
1.0
 92
        8
 66
     7
 43
1.0
 76
     1
 77
     6
 78
     2
 67
     7
 79
     5
170
     0
171
     0
290
     0
174
     0
 93
        1
 44
0.0
173
     0
291
     1
 45
0.0
1001
ACAD
1000
AcDbSavedByObjectVersion
1070
     0
  0
VISUALSTYLE
  5
2B
102
{ACAD_REACTORS
330
2A
102
}
330
2A
100
AcDbVisualStyle
  2
Flat
 70
     0
 71
     2
 72
     1
 73
     1
 90
        2
 40
-0.6
 41
30.0
 62
     5
 63
     7
 74
     0
 91
        4
 64
     7
 65
   257
 75
     1
175
     1
 42
1.0
 92
        8
 66
     7
 43
1.0
 76
     1
 77
     6
 78
     2
 67
     7
 79
     5
170
     0
171
     0
290
     0
174
     0
 93
       13
 44
0.0
173
     0
291
     1
 45
0.0
1001
ACAD
1000
AcDbSavedByObjectVersion
1070
     0
  0
VISUALSTYLE
  5
2C
102
{ACAD_REACTORS
330
2A
102
}
330
2A
100
AcDbVisualStyle
  2
FlatWithEdges
 70
     1
 71
     2
 72
     1
 73
     1
 90
        2
 40
-0.6
 41
30.0
 62
     5
 63
     7
 74
     1
 91
        4
 64
     7
 65
   257
 75
     1
175
     1
 42
1.0
 92
        0
 66
   257
 43
1.0
 76
     1
 77
     6
 78
     2
 67
     7
 79
     5
170
     0
171
     0
290
     0
174
     0
 93
       13
 44
0.0
173
     0
291
     1
 45
0.0
1001
ACAD
1000
AcDbSavedByObjectVersion
1070
     0
  0
VISUALSTYLE
  5
2D
102
{ACAD_REACTORS
330
2A
102
}
330
2A
100
AcDbVisualStyle
  2
Gouraud
 70
     2
 71
     2
 72
     2
 73
     1
 90
        2
 40
-0.6
 41
30.0
 62
     5
 63
     7
 74
     0
 91
        4
 64
     7
 65
   257
 75
     1
175
     1
 42
1.0
 92
        0
 66
     7
 43
1.0
 76
     1
 77
     6
 78
     2
 67
     7
 79
     5
170
     0
171
     0
290
     0
174
     0
 93
       13
 44
0.0
173
     0
291
     1
 45
0.0
1001
ACAD
1000
AcDbSavedByObjectVersion
1070
     0
  0
VISUALSTYLE
  5
2E
102
{ACAD_REACTORS
330
2A
102
}
330
2A
100
AcDbVisualStyle
  2
GouraudWithEdges
 70
     3
 71
     2
 72
     2
 73
     1
 90
        2
 40
-0.6
 41
30.0
 62
     5
 63
     7
 74
     1
 91
        4
 64
     7
 65
   257
 75
     1
175
     1
 42
1.0
 92
        0
 66
   257
 43
1.0
 76
     1
 77
     6
 78
     2
 67
     7
 79
     5
170
     0
171
     0
290
     0
174
     0
 93
       13
 44
0.0
173
     0
291
     1
 45
0.0
1001
ACAD
1000
AcDbSavedByObjectVersion
1070
     0
  0
VISUALSTYLE
  5
38
102
{ACAD_REACTORS
330
2A
102
}
330
2A
100
AcDbVisualStyle
  2
Linepattern
 70
    14
 71
     2
 72
     2
 73
     0
 90
        0
 40
-0.6
 41
-30.0
 62
     5
 63
     7
 74
     1
 91
        4
 64
     7
 65
   257
 75
     7
175
     7
 42
1.0
 92
        8
 66
     7
 43
1.0
 76
     1
 77
     6
 78
     2
 67
     7
 79
     5
170
     0
171
     0
290
     0
174
     0
 93
        1
 44
0.0
173
     0
291
     1
 45
0.0
1001
ACAD
1000
AcDbSavedByObjectVersion
1070
     0
  0
VISUALSTYLE
  5
33
102
{ACAD_REACTORS
330
2A
102
}
330
2A
100
AcDbVisualStyle
  2
Realistic
 70
     8
 71
     2
 72
     2
 73
     0
 90
        0
 40
-0.6
 41
-30.0
 62
     5
 63
     7
 74
     1
 91
        0
 64
     7
 65
   257
 75
     1
175
     1
 42
1.0
 92
        8
 66
     8
 43
1.0
 76
     1
 77
     6
 78
     2
 67
     7
 79
     5
170
     0
171
     0
290
     0
174
     0
 93
       13
 44
0.0
173
     0
291
     0
 45
0.0
1001
ACAD
1000
AcDbSavedByObjectVersion
1070
     0
  0
VISUALSTYLE
  5
37
102
{ACAD_REACTORS
330
2A
102
}
330
2A
100
AcDbVisualStyle
  2
Thicken
 70
    13
 71
     2
 72
     2
 73
     0
 90
        0
 40
-0.6
 41
-30.0
 62
     5
 63
     7
 74
     1
 91
        4
 64
     7
 65
   257
 75
     1
175
     1
 42
1.0
 92
       12
 66
     7
 43
1.0
 76
     1
 77
     6
 78
     2
 67
     7
 79
     5
170
     0
171
     0
290
     0
174
     0
 93
        1
 44
0.0
173
     0
291
     1
 45
0.0
1001
ACAD
1000
AcDbSavedByObjectVersion
1070
     0
  0
DICTIONARYVAR
  5
137
102
{ACAD_REACTORS
330
135
102
}
330
135
100
DictionaryVariables
280
     0
  1
80.000000
  0
DICTIONARYVAR
  5
136
102
{ACAD_REACTORS
330
135
102
}
330
135
100
DictionaryVariables
280
     0
  1
5.000000
  0
DICTIONARY
  5
138
330
1E
100
AcDbDictionary
280
     1
281
     1
  3
ACAD_XREC_ROUNDTRIP
360
139
  0
DICTIONARY
  5
13C
330
26
100
AcDbDictionary
280
     1
281
     1
  3
ACAD_XREC_ROUNDTRIP
360
13D
  0
DICTIONARY
  5
13A
330
22
100
AcDbDictionary
280
     1
281
     1
  3
ACAD_XREC_ROUNDTRIP
360
13B
  0
XRECORD
  5
139
102
{ACAD_REACTORS
330
138
102
}
330
138
100
AcDbXrecord
280
     1
102
SHADEPLOT
 70
     0
102
SHADEPLOTRESLEVEL
 70
     5
102
SHADEPLOTCUSTOMDPI
 70
   300
  0
XRECORD
  5
13D
102
{ACAD_REACTORS
330
13C
102
}
330
13C
100
AcDbXrecord
280
     1
102
SHADEPLOT
 70
     0
102
SHADEPLOTRESLEVEL
 70
     5
102
SHADEPLOTCUSTOMDPI
 70
   300
  0
XRECORD
  5
13B
102
{ACAD_REACTORS
330
13A
102
}
330
13A
100
AcDbXrecord
280
     1
102
SHADEPLOT
 70
     0
102
SHADEPLOTRESLEVEL
 70
     5
102
SHADEPLOTCUSTOMDPI
 70
   300
  0
ENDSEC
  0
EOF
