  0
SECTION
  2
HEADER
  9
$ACADVER
  1
AC1009
  9
$INSBASE
 10
0
 20
0
 30
0
  9
$EXTMIN
 10
0
 20
0
  9
$EXTMAX
 10
1782
 20
1260
  9
$LIMMIN
 10
0
 20
0
  9
$LIMMAX
 10
1782
 20
1260
  9
$LTSCALE
 40
3
  0
ENDSEC
  0
SECTION
  2
TABLES
  0
TABLE
  2
LTYPE
 70
     9
  0
LTYPE
  2
CONTINUOUS
 70
    64
  3
実線
 72
    65
 73
     0
 40
0.0
  0
LTYPE
  2
DASHED1
 70
    64
  3
--  --  --  --  --  --  --  --  
 72
    65
 73
     2
 40
2.5
 49
1.25
 49
-1.25
  0
LTYPE
  2
DASHED2
 70
    64
  3
----    ----    ----    ----    
 72
    65
 73
     2
 40
5.0
 49
2.5
 49
-2.5
  0
LTYPE
  2
DASHED3
 70
    64
  3
------  ------  ------  ------  
 72
    65
 73
     2
 40
5.0
 49
3.75
 49
-1.25
  0
LTYPE
  2
CENTER1
 70
    64
  3
----- - ----- - ----- - ----- - 
 72
    65
 73
     4
 40
10.0
 49
6.25
 49
-1.25
 49
1.25
 49
-1.25
  0
LTYPE
  2
CENTER2
 70
    64
  3
----------  --  ----------  --  
 72
    65
 73
     4
 40
20.0
 49
12.5
 49
-2.5
 49
2.5
 49
-2.5
  0
LTYPE
  2
PHANTOM1
 70
    64
  3
--- - - --- - - --- - - --- - - 
 72
    65
 73
     6
 40
10.0
 49
3.25
 49
-1.25
 49
1.25
 49
-1.25
 49
1.25
 49
-1.25
  0
LTYPE
  2
PHANTOM2
 70
    64
  3
--------  -  -  --------  -  -  
 72
    65
 73
     6
 40
20.0
 49
10.0
 49
-2.5
 49
1.25
 49
-2.5
 49
1.25
 49
-2.5
  0
LTYPE
  2
DOT
 70
    64
  3
-   -   -   -   -   -   -   -   
 72
    65
 73
     2
 40
2.5
 49
0.625
 49
-1.875
  0
LTYPE
  2
DUMMY
 70
    64
  3
ダミー
 72
    65
 73
     0
 40
0.0
  0
LTYPE
  2
RAND1
 70
    64
  3
ランダム線1
 72
    65
 73
     4
 40
10.0
 49
1.0
 49
-2.0
 49
3.0
 49
-4.0
  0
LTYPE
  2
RAND2
 70
    64
  3
ランダム線2
 72
    65
 73
     4
 40
14.0
 49
2.0
 49
-3.0
 49
4.0
 49
-5.0
  0
LTYPE
  2
RAND3
 70
    64
  3
ランダム線3
 72
    65
 73
     4
 40
18.0
 49
3.0
 49
-4.0
 49
5.0
 49
-6.0
  0
LTYPE
  2
RAND4
 70
    64
  3
ランダム線4
 72
    65
 73
     4
 40
22.0
 49
4.0
 49
-5.0
 49
6.0
 49
-7.0
  0
LTYPE
  2
RAND5
 70
    64
  3
ランダム線5
 72
    65
 73
     4
 40
26.0
 49
5.0
 49
-6.0
 49
7.0
 49
-8.0
  0
LTYPE
  2
LONG1
 70
    64
  3
----------  --  ----------  --  
 72
    65
 73
     4
 40
40.0
 49
32.5
 49
-2.5
 49
2.5
 49
-2.5
  0
LTYPE
  2
LONG2
 70
    64
  3
--------  -  -  --------  -  -  
 72
    65
 73
     6
 40
40.0
 49
30.0
 49
-2.5
 49
1.25
 49
-2.5
 49
1.25
 49
-2.5
  0
LTYPE
  2
LONG3
 70
    64
  3
+++++++++++++++..+++++++++++++++
 72
    65
 73
     2
 40
40.0
 49
37.5
 49
-2.5
  0
LTYPE
  2
LONG4
 70
    64
  3
+++++++++++++++..+++++++++++++++
 72
    65
 73
     2
 40
80.0
 49
75.0
 49
-5.0
  0
LTYPE
  2
LONG5
 70
    64
  3
----------  --  ----------  --  
 72
    65
 73
     4
 40
60.0
 49
37.5
 49
-7.5
 49
7.5
 49
-7.5
  0
LTYPE
  2
dashed
 70
   64
  3
-------   -------------   ------
 72
   65
 73
    2
 40
7.5
 49
6
 49
-1.5
  0
LTYPE
  2
dashed_spaced
 70
   64
  3
----        --------        ----
 72
   65
 73
    2
 40
12
 49
6
 49
-6
  0
LTYPE
  2
long_dashed_dotted
 70
   64
  3
------------- --- --------------
 72
   65
 73
    4
 40
15.25
 49
12
 49
-1.5
 49
0.25
 49
-1.5
  0
LTYPE
  2
long_dashed_double-dotted
 70
   64
  3
----------- --- --- ------------
 72
   65
 73
    6
 40
17
 49
12
 49
-1.5
 49
0.25
 49
-1.5
 49
0.25
 49
-1.5
  0
LTYPE
  2
long_dashed_triplicate-dotted
 70
   64
  3
--------- --- --- --- ----------
 72
   65
 73
    8
 40
18.75
 49
12
 49
-1.5
 49
0.25
 49
-1.5
 49
0.25
 49
-1.5
 49
0.25
 49
-1.5
  0
LTYPE
  2
dotted
 70
   64
  3
   -       -       -       -    
 72
   65
 73
    2
 40
1.75
 49
0.25
 49
-1.5
  0
LTYPE
  2
chain
 70
   64
  3
-------------- -- --------------
 72
   65
 73
    4
 40
18.5
 49
12
 49
-1.5
 49
3.5
 49
-1.5
  0
LTYPE
  2
chain_double_dash
 70
   64
  3
------------ -- -- -------------
 72
   65
 73
    6
 40
23.5
 49
12
 49
-1.5
 49
3.5
 49
-1.5
 49
3.5
 49
-1.5
  0
LTYPE
  2
dashed_dotted
 70
   64
  3
-----------     -     ----------
 72
   65
 73
    4
 40
9.25
 49
6
 49
-1.5
 49
0.25
 49
-1.5
  0
LTYPE
  2
double-dashed_dotted
 70
   64
  3
------   -----------   -   -----
 72
   65
 73
    6
 40
16.75
 49
6
 49
-1.5
 49
6
 49
-1.5
 49
0.25
 49
-1.5
  0
LTYPE
  2
dashed_double-dotted
 70
   64
  3
---------    -    -    ---------
 72
   65
 73
    6
 40
11
 49
6
 49
-1.5
 49
0.25
 49
-1.5
 49
0.25
 49
-1.5
  0
LTYPE
  2
double-dashed_double-dotted
 70
   64
  3
-----   ---------   -   -   ----
 72
   65
 73
    8
 40
18.5
 49
6
 49
-1.5
 49
6
 49
-1.5
 49
0.25
 49
-1.5
 49
0.25
 49
-1.5
  0
LTYPE
  2
dashed_triplicate-dotted
 70
   64
  3
-------    -    -    -    ------
 72
   65
 73
    8
 40
12.75
 49
6
 49
-1.5
 49
0.25
 49
-1.5
 49
0.25
 49
-1.5
 49
0.25
 49
-1.5
  0
LTYPE
  2
double-dashed_triplicate-dotted
 70
   64
  3
-----  ---------  -  -  -  -----
 72
   65
 73
   10
 40
20.25
 49
6
 49
-1.5
 49
6
 49
-1.5
 49
0.25
 49
-1.5
 49
0.25
 49
-1.5
 49
0.25
 49
-1.5
  0
LTYPE
  2
undefined
 70
   64
  3
--------------------------------
 72
   65
 73
    0
 40
0
  0
ENDTAB
  0
TABLE
  2
STYLE
  5
3
100
AcDbSymbolTable
 70
     1
  0
STYLE
  5
10
100
AcDbSymbolTableRecord
100
AcDbTextStyleTableRecord
  2
STANDARD
 70
     0
 40
0.0
 41
1.0
 50
0.0
 71
     0
 42
0.2
  3
txt
  4
bigfont.shx
  0
STYLE
  5
26
100
AcDbSymbolTableRecord
100
AcDbTextStyleTableRecord
  2
TATEGAKI
 70
    68
 40
0.0
 41
1.0
 50
0.0
 71
     0
 42
1.0
  3
txt
  4
bigfont.shx
  0
ENDTAB
  0
TABLE
  2
LAYER
 70
   14
  0
LAYER
  2
_0-0_
 70
   64
 62
    7
  6
CONTINUOUS
  0
LAYER
  2
_0-2_
 70
   64
 62
    7
  6
CONTINUOUS
  0
LAYER
  2
_0-3_
 70
   64
 62
    7
  6
CONTINUOUS
  0
LAYER
  2
_0-4_
 70
   64
 62
    7
  6
CONTINUOUS
  0
LAYER
  2
_0-5_
 70
   64
 62
    7
  6
CONTINUOUS
  0
LAYER
  2
_0-6_
 70
   64
 62
    7
  6
CONTINUOUS
  0
LAYER
  2
_0-7_
 70
   64
 62
    7
  6
CONTINUOUS
  0
LAYER
  2
_0-8_
 70
   64
 62
    7
  6
CONTINUOUS
  0
LAYER
  2
_0-9_
 70
   64
 62
    7
  6
CONTINUOUS
  0
LAYER
  2
_0-a_
 70
   64
 62
    7
  6
CONTINUOUS
  0
LAYER
  2
_0-e_
 70
   64
 62
    7
  6
CONTINUOUS
  0
LAYER
  2
_0-f_
 70
   64
 62
    7
  6
CONTINUOUS
  0
LAYER
  2
_f-4_
 70
   64
 62
    7
  6
CONTINUOUS
  0
LAYER
  2
ADD_LINE
 70
   64
 62
    7
  6
CONTINUOUS
  0
ENDTAB
  0
ENDSEC
  0
SECTION
  2
BLOCKS
  0
ENDSEC
  0
SECTION
  2
ENTITIES
  0
LINE
  8
_0-2_
  6
CONTINUOUS
 62
    6
 10
650.62021939875558
 20
471.77537509773623
 11
651.62017450610188
 21
471.77537509773623
  0
LINE
  8
_0-2_
  6
CONTINUOUS
 62
    6
 10
733.61986249626852
 20
389.77509254502439
 11
733.61986249626852
 21
388.77513743767776
  0
LINE
  8
_0-2_
  6
CONTINUOUS
 62
    6
 10
673.51216560957982
 20
440.92956934412393
 11
655.27420726854859
 21
441.63125224127191
  0
LINE
  8
_0-2_
  6
CONTINUOUS
 62
    6
 10
679.66331151518125
 20
438.17278100933265
 11
683.27686447767223
 21
440.11858603240819
  0
LINE
  8
_0-2_
  6
CONTINUOUS
 62
    6
 10
687.13874639656115
 20
430.6971479404379
 11
689.08455141963645
 21
434.31079999668646
  0
LINE
  8
_0-2_
  6
CONTINUOUS
 62
    6
 10
676.85539080149897
 20
439.46882826421182
 11
730.31885124506198
 21
386.00536782064864
  0
LINE
  8
_0-2_
  6
CONTINUOUS
 62
    6
 10
692.54193262024296
 20
425.29406081051371
 11
696.15558467649134
 21
427.23966764607422
  0
LINE
  8
_0-2_
  6
CONTINUOUS
 62
    6
 10
725.31005817639334
 20
392.52573706684797
 11
727.25586319946888
 21
396.13909184182393
  0
LINE
  8
_0-2_
  6
CONTINUOUS
 62
    6
 10
713.3786742996665
 20
380.98091793828871
 11
713.10210362236944
 21
382.36367223101615
  0
LINE
  8
_0-2_
  6
CONTINUOUS
 62
    6
 10
683.13317852923774
 20
440.04119380776865
 11
683.24376716265351
 21
440.1515842536694
  0
LINE
  8
_0-2_
  6
CONTINUOUS
 62
    6
 10
677.62009732844308
 20
445.77535318163763
 11
655.46644915817797
 21
446.62755949649033
  0
LINE
  8
_0-2_
  6
CONTINUOUS
 62
    6
 10
651.62017450610188
 20
471.77537509773623
 11
733.61986249626852
 21
389.77509254502439
  0
LINE
  8
_0-2_
  6
CONTINUOUS
 62
    6
 10
646.6202503287335
 20
466.46236419341665
 11
646.62005214121837
 21
459.77561652830593
  0
LINE
  8
_0-2_
  6
CONTINUOUS
 62
    6
 10
710.88775451635775
 20
394.84036905549118
 11
716.04717009648857
 21
400.27704896922216
  0
LINE
  8
_0-2_
  6
CONTINUOUS
 62
    6
 10
693.12440572706896
 20
390.59905713897803
 11
709.85163018750882
 21
406.4725888782018
  0
LINE
  8
_0-2_
  6
CONTINUOUS
 62
    6
 10
679.88002956292348
 20
394.84017086797627
 11
700.13727094824731
 21
416.18694811746354
  0
LINE
  8
_0-2_
  6
CONTINUOUS
 62
    6
 10
693.94173103926732
 20
422.38248802644335
 11
662.63702209448275
 21
392.67546773449254
  0
LINE
  8
_0-2_
  6
CONTINUOUS
 62
    6
 10
684.22737180000581
 20
432.09684726570481
 11
654.5203019611763
 21
400.79213832092034
  0
LINE
  8
_0-2_
  6
CONTINUOUS
 62
    6
 10
656.68510418841754
 20
418.03514578936097
 11
678.03183189102583
 21
438.29238717468473
  0
LINE
  8
_0-2_
  6
CONTINUOUS
 62
    6
 10
652.4439904594193
 20
431.27952195350645
 11
662.02105529760775
 21
441.37162659651449
  0
LINE
  8
_0-2_
  6
CONTINUOUS
 62
    6
 10
713.0639525257161
 20
389.77519163878202
 11
723.73476471276376
 21
389.77519163878202
  0
LINE
  8
_0-2_
  6
CONTINUOUS
 62
    6
 10
682.05602938476682
 20
389.7752907325393
 11
691.05929181991405
 21
389.7752907325393
  0
LINE
  8
_0-2_
  6
CONTINUOUS
 62
    6
 10
651.62007541234459
 20
420.21124470496193
 11
651.62007541234459
 21
429.21440804635159
  0
LINE
  8
_0-2_
  6
CONTINUOUS
 62
    6
 10
646.61995304746074
 20
405.77546429390088
 11
646.62005214121837
 21
453.77548950919697
  0
LINE
  8
_0-2_
  6
CONTINUOUS
 62
    6
 10
722.89415236754326
 20
379.77534328404454
 11
733.61986249626852
 21
388.77513743767776
  0
LINE
  8
_0-2_
  6
CONTINUOUS
 62
    6
 10
667.61995169243312
 20
384.77531700829189
 11
728.85285819599994
 21
384.77511882077692
  0
ARC
  8
_0-2_
  6
CONTINUOUS
 62
    6
 10
655.62009402924537
 20
450.6245062069076
 40
9.000000082848155
 50
179.99989318847656
 51
267.79736328125
  0
ARC
  8
_0-2_
  6
CONTINUOUS
 62
    6
 10
673.31992371995034
 20
435.93326208890562
 40
5.0000000460267522
 50
44.99969482421875
 51
87.796783447265611
  0
ARC
  8
_0-2_
  6
CONTINUOUS
 62
    6
 10
678.95221471106697
 20
439.49340351608197
 40
1.5000000138080258
 50
225.00100708007812
 51
298.30215454101562
  0
ARC
  8
_0-2_
  6
CONTINUOUS
 62
    6
 10
688.4594679970678
 20
429.98605113632362
 40
1.5000000138080258
 50
151.69929504394534
 51
224.99966430664062
  0
ARC
  8
_0-2_
  6
CONTINUOUS
 62
    6
 10
691.83083581612846
 20
426.61468331726292
 40
1.5000000138080258
 50
224.99899291992187
 51
298.30003356933594
  0
ARC
  8
_0-2_
  6
CONTINUOUS
 62
    6
 10
648.12018298975306
 20
466.46236419341665
 40
1.5000000138080258
 50
140.00024414062497
 51
179.9996643066406
  0
ARC
  8
_0-2_
  6
CONTINUOUS
 62
    6
 10
726.6307797769
 20
391.81444207521844
 40
1.5000000138080258
 50
151.69929504394534
 51
224.99966430664062
  0
ARC
  8
_0-2_
  6
CONTINUOUS
 62
    6
 10
710.16040633600664
 20
381.77525349873758
 40
3.0000000276160517
 50
11.309844970703125
 51
90
  0
ARC
  8
_0-2_
  6
CONTINUOUS
 62
    6
 10
655.62009402924537
 20
450.6245062069076
 40
4.0000000368214019
 50
180
 51
267.79757690429687
  0
ARC
  8
_0-2_
  6
CONTINUOUS
 62
    6
 10
643.62013727230021
 20
448.31601803123181
 40
3.0000000276160517
 50
0
 51
63.325134277343743
  0
ARC
  8
_0-2_
  6
CONTINUOUS
 62
    6
 10
713.0639525257161
 20
392.7751560545787
 40
3.0000000276160517
 50
136.50001525878906
 51
269.99966430664062
  0
ARC
  8
_0-2_
  6
CONTINUOUS
 62
    6
 10
682.05602938476682
 20
392.7751560545787
 40
3.0000000276160517
 50
136.50001525878906
 51
269.99966430664062
  0
ARC
  8
_0-2_
  6
CONTINUOUS
 62
    6
 10
691.05929181991405
 20
392.7751560545787
 40
3.0000000276160517
 50
270.00033569335937
 51
313.49998474121094
  0
ARC
  8
_0-2_
  6
CONTINUOUS
 62
    6
 10
654.62003982814144
 20
420.21124470496193
 40
3.0000000276160517
 50
180.0003356933594
 51
313.49998474121099
  0
ARC
  8
_0-2_
  6
CONTINUOUS
 62
    6
 10
654.62003982814144
 20
429.21440804635159
 40
3.0000000276160517
 50
136.50001525878906
 51
179.99966430664062
  0
ARC
  8
_0-2_
  6
CONTINUOUS
 62
    6
 10
723.73476471276376
 20
392.7751560545787
 40
3.0000000276160517
 50
269.99949645996094
 51
312.4908447265625
  0
ARC
  8
_0-2_
  6
CONTINUOUS
 62
    6
 10
667.62005078619075
 20
405.77536520014326
 40
21.00000019331236
 50
179.999755859375
 51
269.99980163574219
  0
ARC
  8
_0-2_
  6
CONTINUOUS
 62
    6
 10
656.69645042365596
 20
398.72712350752278
 40
3.0000000276160517
 50
136.50001525878906
 51
212.83174133300778
  0
ARC
  8
_0-2_
  6
CONTINUOUS
 62
    6
 10
667.62005078619075
 20
405.77536520014326
 40
16.000000147285608
 50
212.83175659179687
 51
237.16995239257812
  0
ARC
  8
_0-2_
  6
CONTINUOUS
 62
    6
 10
660.57190818732795
 20
394.85156665009339
 40
3.0000000276160517
 50
237.16978454589841
 51
313.49998474121094
  0
ARC
  8
_0-2_
  6
CONTINUOUS
 62
    6
 10
714.8496220366053
 20
381.27532549194302
 40
1.5000000138080258
 50
191.31015014648435
 51
270
  0
LINE
  8
_0-2_
  6
CONTINUOUS
 62
    6
 10
651.6201060730009
 20
442.56224239075959
 11
651.62017450610188
 21
471.77537509773623
  0
ARC
  8
_0-2_
  6
CONTINUOUS
 62
    6
 10
667.84265181586511
 20
444.65028157641723
 40
1.5
 50
87.79723943699608
 51
130.00000000000011
  0
LINE
  8
_0-2_
  6
CONTINUOUS
 62
    6
 10
651.62014873817486
 20
460.77540774630546
 11
646.62008177549501
 21
460.77546220970601
  0
LINE
  8
_0-2_
  6
CONTINUOUS
 62
    6
 10
651.62012999780848
 20
452.77540774603494
 11
646.6198446646905
 21
452.77546221181422
  0
LINE
  8
_0-2_
  6
CONTINUOUS
 62
    6
 10
661.62010332017985
 20
441.38705436270328
 11
667.32198464195119
 21
446.17150087681836
  0
LINE
  8
_0-0_
  6
CONTINUOUS
 62
    3
 10
665.61967921405699
 20
367.81284225443255
 11
666.6196792140571
 21
367.77513958534882
  0
LINE
  8
_0-0_
  6
CONTINUOUS
 62
    3
 10
645.62020749807834
 20
451.77544414253055
 11
637.62021981115527
 21
442.2414107685542
  0
ARC
  8
_0-0_
  6
CONTINUOUS
 62
    3
 10
645.12010772410804
 20
480.50537116093824
 40
3
 50
319.99996880183375
 51
0
  0
ARC
  8
_0-0_
  6
CONTINUOUS
 62
    3
 10
649.62009782651523
 20
478.86749192381137
 40
3
 50
319.99996880183375
 51
359.99999999999994
  0
ARC
  8
_0-0_
  6
CONTINUOUS
 62
    3
 10
714.16587558362642
 20
378.27510904101246
 40
1.5
 50
90
 51
129.99999999999974
  0
ARC
  8
_0-0_
  6
CONTINUOUS
 62
    3
 10
725.96447878563072
 20
381.27510904101246
 40
1.5
 50
270
 51
310.00003119816608
  0
ARC
  8
_0-0_
  6
CONTINUOUS
 62
    3
 10
740.71165765057458
 20
387.77513958534882
 40
3
 50
90
 51
130.00003119816608
  0
ARC
  8
_0-0_
  6
CONTINUOUS
 62
    3
 10
722.32897705855305
 20
374.30833385199935
 40
3
 50
273.52146696894749
 51
310.00003119816597
  0
ARC
  8
_0-0_
  6
CONTINUOUS
 62
    3
 10
720.57243158853896
 20
378.70875105204777
 40
3
 50
273.52146696894749
 51
310.00003119816608
  0
ARC
  8
_0-0_
  6
CONTINUOUS
 62
    3
 10
718.11828475421453
 20
370.77513958534882
 40
3
 50
270
 51
310.00003119816603
  0
ARC
  8
_0-0_
  6
CONTINUOUS
 62
    3
 10
683.01540281007738
 20
365.77513958534882
 40
2
 50
12.528807709151556
 51
90
  0
LINE
  8
_0-0_
  6
CONTINUOUS
 62
    3
 10
686.35872284208199
 20
359.94974389862091
 11
684.96777693044532
 21
366.20900050098612
  0
ARC
  8
_0-0_
  6
CONTINUOUS
 62
    3
 10
687.82300343235806
 20
360.27513958534882
 40
1.5
 50
192.52880770915152
 51
270
  0
LINE
  8
_0-0_
  6
CONTINUOUS
 62
    3
 10
687.82300343235806
 20
358.77513958534882
 11
698.07379067140971
 21
358.77513958534882
  0
ARC
  8
_0-0_
  6
CONTINUOUS
 62
    3
 10
698.07379067140971
 20
360.27513958534882
 40
1.5
 50
270
 51
310
  0
ARC
  8
_0-0_
  6
CONTINUOUS
 62
    3
 10
652.62006728217898
 20
386.54975151143611
 40
15
 50
180
 51
273.52146696894749
  0
ARC
  8
_0-0_
  6
CONTINUOUS
 62
    3
 10
757.44685345475216
 20
381.27514948294174
 40
5
 50
10.302699158709302
 51
90.000000000000014
  0
ARC
  8
_0-0_
  6
DASHED2
 62
    3
 10
652.62006728217898
 20
386.54975151143611
 40
19.5
 50
180
 51
273.52146696894755
  0
ARC
  8
_0-0_
  6
CONTINUOUS
 62
    3
 10
643.12010772410815
 20
492.90794110479555
 40
5
 50
0
 51
43.000000000000021
  0
LINE
  8
_0-0_
  6
CONTINUOUS
 62
    3
 10
648.12010772410804
 20
494.87749348287025
 11
642.62011432250335
 21
500.77551431209349
  0
LINE
  8
_0-0_
  6
CONTINUOUS
 62
    3
 10
648.12010772410804
 20
494.87749348287025
 11
648.12010772410804
 21
480.50537116093824
  0
LINE
  8
_0-0_
  6
PHANTOM1
 62
    3
 10
721.74726611194092
 20
375.77537369148922
 11
721.29058155958501
 21
375.74726991798116
  0
LINE
  8
_0-0_
  6
PHANTOM1
 62
    3
 10
721.74233083090462
 20
375.77419050305957
 11
722.08458341730534
 21
376.06137483965222
  0
LINE
  8
_0-0_
  6
CONTINUOUS
 62
    3
 10
699.03797208593971
 20
359.12607292067037
 11
709.34552835615727
 21
367.77513958534882
  0
LINE
  8
_0-0_
  6
CONTINUOUS
 62
    3
 10
637.62006728217898
 20
386.54975151143611
 11
637.62006728217898
 21
450.85865489479932
  0
LINE
  8
_0-0_
  6
CONTINUOUS
 62
    3
 10
762.36623652280878
 20
382.16939230774847
 11
762.61968003885647
 21
380.77515608133695
  0
LINE
  8
_0-0_
  6
CONTINUOUS
 62
    3
 10
719.21019638198004
 20
367.77513958534882
 11
666.6196792140571
 21
367.77513958534882
  0
LINE
  8
_0-0_
  6
CONTINUOUS
 62
    3
 10
719.21019638198004
 20
367.77513958534882
 11
740.42117280728394
 21
385.57328176228407
  0
LINE
  8
_0-0_
  6
PHANTOM1
 62
    3
 10
723.50000737189589
 20
371.3747223853004
 11
723.01624456058585
 21
371.34495225094747
  0
ARC
  8
_0-0_
  6
DASHED2
 62
    3
 10
636.12006728217898
 20
460.44521558771908
 40
3
 50
139.99996880183403
 51
180.00000000000003
  0
LINE
  8
_0-0_
  6
CONTINUOUS
 62
    3
 10
634.27201434836502
 20
462.90996275197853
 11
647.41824000345048
 21
478.57700708052084
  0
LINE
  8
_0-0_
  6
DASHED2
 62
    3
 10
633.82193500283665
 20
462.3735796681367
 11
634.27201434836502
 21
462.90996275197853
  0
LINE
  8
_0-0_
  6
CONTINUOUS
 62
    3
 10
650.62009782651523
 20
505.7755802960462
 11
642.62011432250335
 21
505.7755802960462
  0
ARC
  8
_0-0_
  6
CONTINUOUS
 62
    3
 10
650.62009782651523
 20
503.77558029604626
 40
2
 50
0
 51
90
  0
LINE
  8
_0-0_
  6
PHANTOM1
 62
    3
 10
652.62009782651523
 20
505.7755802960462
 11
651.77272673239509
 21
505.7755802960462
  0
ARC
  8
_0-0_
  6
CONTINUOUS
 62
    3
 10
711.16537952748808
 20
362.77513958534882
 40
5
 50
90
 51
129.99999999999977
  0
ARC
  8
_0-0_
  6
CONTINUOUS
 62
    3
 10
705.88102895435179
 20
379.80844467068755
 40
5
 50
273.52146696894755
 51
309.99999999999972
  0
LINE
  8
_0-0_
  6
CONTINUOUS
 62
    3
 10
713.20169416909664
 20
379.42417570569091
 11
709.09496700278441
 21
375.97822245509269
  0
LINE
  8
_0-0_
  6
CONTINUOUS
 62
    3
 10
767.6197460228093
 20
388.77513958534877
 11
767.6197460228093
 21
380.77515608133695
  0
ARC
  8
_0-0_
  6
CONTINUOUS
 62
    3
 10
765.61974602280918
 20
388.77513958534877
 40
2
 50
0
 51
90
  0
ARC
  8
_0-0_
  6
CONTINUOUS
 62
    3
 10
624.93818481420942
 20
368.83342848359598
 40
4.0000000368214019
 50
197.11198425292972
 51
271.16665649414062
  0
ARC
  8
_0-0_
  6
CONTINUOUS
 62
    3
 10
623.24819032622599
 20
451.81622564232697
 40
4.0000000368214019
 50
91.166656494140625
 51
165.22134399414062
  0
LINE
  8
_0-0_
  6
CONTINUOUS
 62
    3
 10
625.13196265708098
 20
455.85541106689595
 11
623.16678480440601
 21
455.81540196228877
  0
ARC
  8
_0-0_
  6
CONTINUOUS
 62
    3
 10
625.21341772577944
 20
451.8562595203735
 40
4.0000000368214019
 50
17.111984252929688
 51
91.166488647460952
  0
LINE
  8
_0-0_
  6
CONTINUOUS
 62
    3
 10
629.03630625107598
 20
453.03322085212761
 11
629.31124188137346
 21
452.1403117763648
  0
ARC
  8
_0-0_
  6
CONTINUOUS
 62
    3
 10
631.22266137058239
 20
452.72880482896159
 40
2.000000018410701
 50
197.11238098144531
 51
271.16683959960937
  0
ARC
  8
_0-0_
  6
CONTINUOUS
 62
    3
 10
631.20783797590855
 20
465.48111485920185
 40
4
 50
271.16665167682419
 51
319.99996880183386
  0
LINE
  8
_0-0_
  6
CONTINUOUS
 62
    3
 10
631.26338890493162
 20
450.72921666898077
 11
637.62006728217887
 21
450.85865489479932
  0
LINE
  8
_0-0_
  6
CONTINUOUS
 62
    3
 10
626.98474536691288
 20
364.8742855770513
 11
625.0195903360293
 21
364.83427693707358
  0
ARC
  8
_0-0_
  6
CONTINUOUS
 62
    3
 10
626.90332613975283
 20
368.87345685488481
 40
4
 50
271.16632506960411
 51
345.22154911657509
  0
LINE
  8
_0-0_
  6
CONTINUOUS
 62
    3
 10
621.11524674203429
 20
367.65646715184175
 11
620.85286455038238
 21
368.50868479969267
  0
LINE
  8
_0-0_
  6
CONTINUOUS
 62
    3
 10
631.02550905506359
 20
368.81786145187516
 11
630.77100371633992
 21
367.85312839621838
  0
LINE
  8
_0-0_
  6
CONTINUOUS
 62
    3
 10
632.83650283196516
 20
370.30392093324554
 11
720.75669910562715
 21
375.71441548599205
  0
ARC
  8
_0-0_
  6
CONTINUOUS
 62
    3
 10
632.95934784335714
 20
368.30769722254172
 40
2
 50
93.521466968947465
 51
165.22154911657469
  0
ARC
  8
_0-0_
  6
CONTINUOUS
 62
    3
 10
635.18505305816268
 20
369.54222801745186
 40
10
 50
271.16667341712372
 51
296.32959874552182
  0
ARC
  8
_0-0_
  6
CONTINUOUS
 62
    3
 10
656.56136084975356
 20
352.22702937392819
 40
15
 50
93.521466968947465
 51
116.32959874552185
  0
LINE
  8
_0-0_
  6
PHANTOM1
 62
    3
 10
652.62009782651512
 20
367.01286491968722
 11
653.57588223911955
 21
367.0716826495966
  0
LINE
  8
_0-0_
  6
PHANTOM1
 62
    3
 10
652.62009782651512
 20
367.01286491968722
 11
651.41986230707516
 21
366.41889989257425
  0
LINE
  8
_0-0_
  6
CONTINUOUS
 62
    3
 10
649.9083470608266
 20
365.67089070631164
 11
639.62039558411379
 21
360.57965379586312
  0
LINE
  8
_0-0_
  6
CONTINUOUS
 62
    3
 10
655.64002326431341
 20
367.19870720420681
 11
722.51324457564124
 21
371.31399828594363
  0
LINE
  8
_0-0_
  6
PHANTOM1
 62
    3
 10
739.14666019426863
 20
390.37817300213146
 11
739.61974602280918
 21
390.77513958534882
  0
LINE
  8
_0-0_
  6
CONTINUOUS
 62
    3
 10
722.50079566895658
 20
376.41061877270545
 11
738.78329357015696
 21
390.07327186469109
  0
LINE
  8
_0-0_
  6
CONTINUOUS
 62
    3
 10
597.65063770638039
 20
459.29661521158368
 11
605.64897937762635
 21
459.45949710139217
  0
LINE
  8
_0-0_
  6
CONTINUOUS
 62
    3
 10
605.61843868272604
 20
460.95916435695887
 11
605.64897937762635
 21
459.45949710139217
  0
LINE
  8
_0-0_
  6
CONTINUOUS
 62
    3
 10
605.61843868272604
 20
460.95916435695887
 11
631.28927999982852
 21
461.48194404555323
  0
ARC
  8
_0-0_
  6
CONTINUOUS
 62
    3
 10
617.22219983639889
 20
452.49576108466442
 40
2.000000018410701
 50
333.32924928994709
 51
345.2216796875
  0
LINE
  8
_0-0_
  6
CONTINUOUS
 62
    3
 10
619.38056096939999
 20
452.83656929028746
 11
619.15605887745357
 21
451.98559622601476
  0
ARC
  8
_0-0_
  6
CONTINUOUS
 62
    3
 10
618.94484571749194
 20
367.90913146013213
 40
2.000000018410701
 50
17.112045288085937
 51
29.004595598657598
  0
LINE
  8
_0-0_
  6
CONTINUOUS
 62
    3
 10
725.96447878563072
 20
379.77510904101246
 11
714.16587558362642
 21
379.77510904101246
  0
LINE
  8
_0-0_
  6
CONTINUOUS
 62
    3
 10
607.66469504664701
 20
360.47999466281385
 11
607.69523586240439
 21
358.98032147269419
  0
LINE
  8
_0-0_
  6
CONTINUOUS
 62
    3
 10
635.38866191157445
 20
359.5443010605868
 11
607.69523586240439
 21
358.98032147269419
  0
LINE
  8
_0-0_
  6
CONTINUOUS
 62
    3
 10
602.51929837241323
 20
367.56863137006394
 11
620.69400737070794
 21
368.87889101000064
  0
LINE
  8
_0-0_
  6
CONTINUOUS
 62
    3
 10
600.99185563650121
 20
365.97768224997549
 11
621.18396826288904
 21
367.43333278329874
  0
LINE
  8
_0-0_
  6
CONTINUOUS
 62
    3
 10
637.62021981115527
 20
459.77543848946215
 11
645.62020749807834
 21
459.77543848946215
  0
LINE
  8
_0-0_
  6
CONTINUOUS
 62
    3
 10
636.62021515693016
 20
458.90549439200953
 11
636.62021515693016
 21
454.64545375532089
  0
LINE
  8
_0-0_
  6
CONTINUOUS
 62
    3
 10
636.62021515693016
 20
458.90549439200953
 11
635.3904120789673
 21
456.77547407366512
  0
LINE
  8
_0-0_
  6
CONTINUOUS
 62
    3
 10
636.62021515693016
 20
454.64545375532089
 11
635.3904120789673
 21
456.77547407366512
  0
LINE
  8
_0-0_
  6
CONTINUOUS
 62
    3
 10
637.62021981115527
 20
453.77550965786827
 11
645.62020749807834
 21
453.77550965786827
  0
LINE
  8
_0-0_
  6
CONTINUOUS
 62
    3
 10
637.62021981115527
 20
453.77550965786827
 11
637.62021981115527
 21
459.77543848946215
  0
LINE
  8
_0-0_
  6
CONTINUOUS
 62
    3
 10
645.62020749807834
 20
458.90549439200953
 11
636.62021515693016
 21
458.90549439200953
  0
LINE
  8
_0-0_
  6
CONTINUOUS
 62
    3
 10
645.62020749807834
 20
454.64545375532089
 11
636.62021515693016
 21
454.64545375532089
  0
LINE
  8
_0-0_
  6
CONTINUOUS
 62
    3
 10
621.97503372933886
 20
366.14642692755297
 11
620.17820299821551
 21
454.38043665166811
  0
LINE
  8
_0-0_
  6
CONTINUOUS
 62
    3
 10
629.97338652062467
 20
366.30932963232817
 11
628.17654213121386
 21
454.54324557402003
  0
LINE
  8
_0-0_
  6
CONTINUOUS
 62
    3
 10
631.40728618926846
 20
369.56908717886267
 11
629.74108970851159
 21
451.38532223369225
  0
ARC
  8
_0-0_
  6
CONTINUOUS
 62
    3
 10
742.34953688770156
 20
383.27514948294174
 40
3
 50
90
 51
130.000031198166
  0
LINE
  8
_0-0_
  6
CONTINUOUS
 62
    3
 10
757.44685345475216
 20
386.27514948294174
 11
742.34953688770156
 21
386.27514948294174
  0
LINE
  8
_0-0_
  6
CONTINUOUS
 62
    3
 10
767.6197460228093
 20
380.77515608133695
 11
734.70299561258184
 21
380.77515608133695
  0
LINE
  8
_0-0_
  6
CONTINUOUS
 62
    3
 10
642.62011432250335
 20
505.7755802960462
 11
642.62011432250335
 21
472.85882988581886
  0
LINE
  8
_0-0_
  6
CONTINUOUS
 62
    3
 10
600.79644976655914
 20
452.16721856430183
 11
597.73598940982993
 21
455.10551362440617
  0
LINE
  8
_0-0_
  6
CONTINUOUS
 62
    3
 10
602.51929837241323
 20
367.56863137006394
 11
599.58100257044521
 21
364.50817024062667
  0
LINE
  8
_0-a_
  6
CONTINUOUS
 62
    2
 10
654.22024741837004
 20
462.77546712178452
 11
651.62017450610222
 21
462.77546712178452
  0
LINE
  8
_0-a_
  6
CONTINUOUS
 62
    2
 10
654.22024741837004
 20
450.77562548327091
 11
651.62017450610222
 21
450.77562548327091
  0
LINE
  8
_0-a_
  6
CONTINUOUS
 62
    2
 10
654.22024741837004
 20
456.29655229387049
 11
654.22024741837004
 21
457.25454031118466
  0
LINE
  8
_0-a_
  6
CONTINUOUS
 62
    2
 10
639.6202586356419
 20
459.7755067121559
 11
639.6202586356419
 21
453.77548691697029
  0
LINE
  8
_0-a_
  6
CONTINUOUS
 62
    2
 10
649.62021739567149
 20
459.7755067121559
 11
639.6202586356419
 21
459.7755067121559
  0
LINE
  8
_0-a_
  6
CONTINUOUS
 62
    2
 10
651.62017450610222
 20
462.77546712178452
 11
651.62017450610222
 21
450.77562548327091
  0
LINE
  8
_0-a_
  6
CONTINUOUS
 62
    2
 10
649.62021739567149
 20
453.77548691697029
 11
639.6202586356419
 21
453.77548691697029
  0
LINE
  8
_0-a_
  6
CONTINUOUS
 62
    2
 10
649.62021739567149
 20
458.90545880780638
 11
639.6202586356419
 21
458.90545880780638
  0
LINE
  8
_0-a_
  6
CONTINUOUS
 62
    2
 10
649.62021739567149
 20
454.64543584539075
 11
639.6202586356419
 21
454.64543584539075
  0
LINE
  8
_0-a_
  6
CONTINUOUS
 62
    2
 10
649.62021739567149
 20
454.64543584539075
 11
651.49269350948066
 21
453.59342069547529
  0
LINE
  8
_0-a_
  6
CONTINUOUS
 62
    2
 10
649.62021739567149
 20
453.77548691697029
 11
650.38396515221712
 21
454.21637519294154
  0
LINE
  8
_0-a_
  6
CONTINUOUS
 62
    2
 10
649.62021739567149
 20
458.90545880780638
 11
651.49269350948066
 21
459.95747395772202
  0
LINE
  8
_0-a_
  6
CONTINUOUS
 62
    2
 10
649.62021739567149
 20
459.7755067121559
 11
650.38396515221712
 21
459.33451946025576
  0
LINE
  8
_0-a_
  6
CONTINUOUS
 62
    2
 10
656.20874806501274
 20
457.25454031118466
 11
654.22024741837004
 21
457.25454031118466
  0
LINE
  8
_0-a_
  6
CONTINUOUS
 62
    2
 10
649.62021739567149
 20
459.7755067121559
 11
649.62021739567149
 21
453.77548691697029
  0
LINE
  8
_0-a_
  6
CONTINUOUS
 62
    2
 10
656.20879755297722
 20
456.29655229387049
 11
654.22024741837004
 21
456.29655229387049
  0
ARC
  8
_0-a_
  6
CONTINUOUS
 62
    2
 10
651.37021079727629
 20
453.37547569969826
 40
0.2500000032218727
 50
0
 51
60.670822143554688
  0
ARC
  8
_0-a_
  6
CONTINUOUS
 62
    2
 10
651.37021079727629
 20
460.17541895349888
 40
0.2500000032218727
 50
299.32917785644531
 51
0
  0
ARC
  8
_0-a_
  6
CONTINUOUS
 62
    2
 10
646.22024576877118
 20
456.77554630252763
 40
10.000001288749077
 50
2.7456207275390629
 51
36.869873046875
  0
ARC
  8
_0-a_
  6
CONTINUOUS
 62
    2
 10
646.22024576877118
 20
456.77554630252763
 40
10.000001288749077
 50
323.130126953125
 51
357.25437927246094
  0
ARC
  8
_0-0_
  6
DASHED2
 62
    3
 10
631.12006728217875
 20
455.48101786183554
 40
2
 50
279.09029876251662
 51
0
  0
LINE
  8
_0-5_
  6
DASHED2
 62
    3
 10
618.62012875649293
 20
448.95069292829686
 11
618.62012875649293
 21
442.60081449194678
  0
LINE
  8
_0-5_
  6
DASHED2
 62
    3
 10
618.62012875649293
 20
442.60081449194678
 11
620.62011329150391
 21
442.60081449194678
  0
LINE
  8
_0-5_
  6
DASHED2
 62
    3
 10
618.62012875649293
 20
443.4156624602067
 11
620.62011329150391
 21
443.4156624602067
  0
LINE
  8
_0-5_
  6
DASHED2
 62
    3
 10
618.62012875649293
 20
448.1355972256431
 11
620.62011329150391
 21
448.1355972256431
  0
LINE
  8
_0-5_
  6
DASHED2
 62
    3
 10
618.62012875649293
 20
448.95069292829686
 11
620.62011329150391
 21
448.95069292829686
  0
LINE
  8
_0-5_
  6
DASHED2
 62
    3
 10
605.62006825156482
 20
448.77579244623689
 11
618.62012875649293
 21
448.77579244623689
  0
LINE
  8
_0-5_
  6
DASHED2
 62
    3
 10
603.62013326343265
 20
450.77540537965746
 11
603.62013326343265
 21
456.77538375813003
  0
LINE
  8
_0-5_
  6
DASHED2
 62
    3
 10
603.62013326343265
 20
456.77538375813003
 11
597.62013011152055
 21
456.77538375813003
  0
LINE
  8
_0-5_
  6
CENTER1
 62
    3
 10
600.62014407419633
 20
450.77555402029361
 11
600.62014407419633
 21
458.16378639503733
  0
LINE
  8
_0-5_
  6
DASHED2
 62
    3
 10
597.62013011152055
 20
450.77540537965746
 11
597.62013011152055
 21
456.77538375813003
  0
ARC
  8
_0-5_
  6
CENTER1
 62
    3
 10
605.62006825156482
 20
450.77555402029361
 40
5.0000000460267522
 50
180
 51
269.81408670914306
  0
ARC
  8
_0-5_
  6
DASHED2
 62
    3
 10
605.62006825156482
 20
450.77540537965746
 40
2.000000018410701
 50
180
 51
270
  0
ARC
  8
_0-5_
  6
DASHED2
 62
    3
 10
605.62006825156482
 20
450.77540537965746
 40
8.0000000736428039
 50
180
 51
270
  0
LINE
  8
_0-5_
  6
DASHED2
 62
    3
 10
605.62006825156482
 20
442.77571497400663
 11
618.62012875649293
 21
442.77571497400663
  0
LINE
  8
_0-5_
  6
CENTER1
 62
    3
 10
632.11363169203423
 20
445.7755802960462
 11
605.60384428464192
 21
445.7755802960462
  0
LINE
  8
_0-0_
  6
DASHED2
 62
    3
 10
621.88311151022242
 20
451.97766297923783
 11
631.43604903723553
 21
453.50613671845724
  0
ARC
  8
_0-0_
  6
DASHED2
 62
    3
 10
622.12009782651501
 20
450.49650212170411
 40
1.5
 50
99.090298762516156
 51
180
  0
LINE
  8
_0-0_
  6
DASHED2
 62
    3
 10
620.62009782651501
 20
440.32153564744544
 11
620.62009782651501
 21
450.49650212170411
  0
ARC
  8
_0-0_
  6
DASHED2
 62
    3
 10
622.12009782651501
 20
440.32153564744544
 40
1.5
 50
180
 51
220.00000000000037
  0
LINE
  8
_0-0_
  6
DASHED2
 62
    3
 10
631.95028949777384
 20
426.27278366704263
 11
620.97103116183655
 21
439.35735423291567
  0
ARC
  8
_0-0_
  6
DASHED2
 62
    3
 10
628.12006728217898
 20
423.05884561860989
 40
5
 50
0
 51
40.000000000000362
  0
LINE
  8
_0-0_
  6
DASHED2
 62
    3
 10
633.12006728217898
 20
460.44521558771908
 11
633.12006728217898
 21
386.54975151143611
  0
LINE
  8
_0-0_
  6
CENTER1
 62
    3
 10
634.39693402136004
 20
456.77547407366512
 11
657.92225383911773
 21
456.77547407366512
  0
LINE
  8
_0-0_
  6
CONTINUOUS
 62
    3
 10
645.62020749807834
 20
451.77544414253055
 11
645.62020749807834
 21
454.64545375532089
  0
LINE
  8
_0-0_
  6
CONTINUOUS
 62
    3
 10
645.62020749807834
 20
458.90545880780638
 11
645.62020749807834
 21
462.77547407366512
  0
LINE
  8
_0-2_
  6
CONTINUOUS
 62
    6
 10
646.53652238507971
 20
466.90870342649396
 11
650.62021939875558
 21
471.77537509773623
  0
ARC
  8
_0-0_
  6
DASHED2
 62
    3
 10
640.62006728217887
 20
458.80734814607104
 40
3
 50
139.99996880183394
 51
180
  0
LINE
  8
_0-0_
  6
DASHED2
 62
    3
 10
637.62006728217887
 20
452.94145674702958
 11
637.62006728217887
 21
450.85865489479932
  0
LINE
  8
_0-0_
  6
CONTINUOUS
 62
    3
 10
647.62625112787214
 20
471.82415213329296
 11
652.62009782651523
 21
477.77558029604609
  0
LINE
  8
_0-0_
  6
CONTINUOUS
 62
    3
 10
645.62020749807834
 20
462.77547407366512
 11
647.62625112787214
 21
471.82415213329296
  0
LINE
  8
_0-0_
  6
DASHED2
 62
    3
 10
638.32193500283654
 20
460.7357122264886
 11
647.62625112787214
 21
471.82415213329296
  0
LINE
  8
_0-0_
  6
CONTINUOUS
 62
    3
 10
652.62009782651523
 20
503.77558029604626
 11
652.62009782651523
 21
470.77544452708855
  0
LINE
  8
_0-0_
  6
CONTINUOUS
 62
    3
 10
652.62009782651523
 20
431.46510010371912
 11
652.62009782651523
 21
417.97512481644367
  0
LINE
  8
_0-0_
  6
CONTINUOUS
 62
    3
 10
693.30995804474958
 20
390.77513958534882
 11
679.81997610085227
 21
390.77513958534882
  0
LINE
  8
_0-0_
  6
CONTINUOUS
 62
    3
 10
725.54907948036191
 20
390.77513958534882
 11
710.82789924180156
 21
390.77513958534882
  0
LINE
  8
_0-0_
  6
CONTINUOUS
 62
    3
 10
765.61974602280918
 20
390.77513958534882
 11
732.61982270702288
 21
390.77513958534882
  0
LINE
  8
ADD_LINE
  6
DOT
 62
    3
 10
694.74976634115353
 20
367.77513192649712
 11
690.48972570446495
 21
367.77513192649712
  0
LINE
  8
_0-0_
  6
CONTINUOUS
 62
    3
 10
600.79644976655914
 20
452.16721856430183
 11
619.00940114814262
 21
451.59803532200385
  0
LINE
  8
_0-0_
  6
CONTINUOUS
 62
    3
 10
599.20548032784086
 20
453.69468080777915
 11
619.44716753750129
 21
453.06210928623818
  0
LINE
  8
_0-a_
  6
CONTINUOUS
 62
    2
 10
689.61968251325493
 20
274.77521452426652
 11
695.61980953236366
 21
274.77521452426652
  0
LINE
  8
_0-a_
  6
CONTINUOUS
 62
    2
 10
689.61968251325493
 20
274.77521452426652
 11
690.61973671435885
 21
273.77525941692011
  0
LINE
  8
_0-a_
  6
CONTINUOUS
 62
    2
 10
690.61973671435885
 20
273.77525941692011
 11
694.61975533125974
 21
273.77525941692011
  0
LINE
  8
_0-a_
  6
CONTINUOUS
 62
    2
 10
694.61975533125974
 20
273.77525941692011
 11
695.61980953236366
 21
274.77521452426652
  0
LINE
  8
_0-3_
  6
CONTINUOUS
 62
    4
 10
679.86964952127846
 20
285.27538726082844
 11
705.3697434305825
 21
285.27538726082844
  0
LINE
  8
_0-3_
  6
CONTINUOUS
 62
    4
 10
679.86964952127846
 20
286.27529282129609
 11
679.86964952127846
 21
285.27538726082844
  0
LINE
  8
_0-3_
  6
CONTINUOUS
 62
    4
 10
705.3697434305825
 20
286.27529282129609
 11
705.3697434305825
 21
285.27538726082844
  0
LINE
  8
_0-5_
  6
CONTINUOUS
 62
    3
 10
666.61972410671069
 20
293.87533810278364
 11
666.61972410671069
 21
292.27527119976872
  0
LINE
  8
_0-5_
  6
CONTINUOUS
 62
    3
 10
718.6197679389079
 20
293.87533810278364
 11
718.6197679389079
 21
292.27527119976872
  0
LINE
  8
_0-3_
  6
CONTINUOUS
 62
    4
 10
697.11969264650475
 20
286.27529282129609
 11
697.11969264650475
 21
285.27538726082844
  0
LINE
  8
_0-3_
  6
CONTINUOUS
 62
    4
 10
688.11979939911384
 20
286.27529282129609
 11
688.11979939911384
 21
285.27538726082844
  0
LINE
  8
_0-6_
  6
CONTINUOUS
 62
    6
 10
667.61967921405721
 20
286.27529282129609
 11
689.61968251325493
 21
286.27529282129609
  0
LINE
  8
_0-6_
  6
CONTINUOUS
 62
    6
 10
695.61980953236366
 20
286.27529282129609
 11
717.61981283156138
 21
286.27529282129609
  0
LINE
  8
_0-a_
  6
CONTINUOUS
 62
    2
 10
695.61980953236366
 20
280.2752648959447
 11
695.61980953236366
 21
274.77521452426652
  0
LINE
  8
_0-a_
  6
CONTINUOUS
 62
    2
 10
694.61975533125974
 20
280.2752648959447
 11
694.61975533125974
 21
273.77525941692011
  0
LINE
  8
_0-a_
  6
CONTINUOUS
 62
    2
 10
690.61973671435885
 20
280.2752648959447
 11
690.61973671435885
 21
273.77525941692011
  0
LINE
  8
_0-a_
  6
CONTINUOUS
 62
    2
 10
689.61968251325493
 20
280.2752648959447
 11
689.61968251325493
 21
274.77521452426652
  0
LINE
  8
_0-a_
  6
CONTINUOUS
 62
    2
 10
688.11979939911384
 20
280.27531444282351
 11
697.11969264650475
 21
280.27531444282351
  0
LINE
  8
_0-a_
  6
CONTINUOUS
 62
    2
 10
703.10802750846619
 20
275.77536781912806
 11
705.11982897406415
 21
275.77536781912806
  0
LINE
  8
_0-a_
  6
CONTINUOUS
 62
    2
 10
699.72387659468291
 20
277.64288877374622
 11
697.11969264650475
 21
281.77539574447951
  0
LINE
  8
_0-a_
  6
CONTINUOUS
 62
    2
 10
697.31976294297988
 20
284.2753330597244
 11
697.8051241674159
 21
284.2753330597244
  0
LINE
  8
_0-a_
  6
CONTINUOUS
 62
    2
 10
682.1315636309098
 20
275.77536781912806
 11
680.11976216531207
 21
275.77536781912806
  0
LINE
  8
_0-a_
  6
CONTINUOUS
 62
    2
 10
685.51581363845094
 20
277.64288877374622
 11
688.11979939911384
 21
281.77539574447951
  0
LINE
  8
_0-a_
  6
CONTINUOUS
 62
    2
 10
687.91963000888109
 20
284.2753330597244
 11
687.43436787820269
 21
284.2753330597244
  0
LINE
  8
_0-a_
  6
CONTINUOUS
 62
    2
 10
697.11969264650475
 20
280.27531444282351
 11
697.11969264650475
 21
284.07536185700661
  0
LINE
  8
_0-a_
  6
CONTINUOUS
 62
    2
 10
696.11973753915822
 20
284.07536185700661
 11
696.11973753915822
 21
280.27531444282351
  0
LINE
  8
_0-a_
  6
CONTINUOUS
 62
    2
 10
689.11975450646037
 20
284.07536185700661
 11
689.11975450646037
 21
280.27531444282351
  0
LINE
  8
_0-a_
  6
CONTINUOUS
 62
    2
 10
688.11979939911384
 20
280.27531444282351
 11
688.11979939911384
 21
284.07536185700661
  0
LINE
  8
_0-5_
  6
CONTINUOUS
 62
    3
 10
642.61976104594146
 20
270.77529500112314
 11
742.61978054655606
 21
270.77529500112314
  0
LINE
  8
_0-5_
  6
CONTINUOUS
 62
    3
 10
740.51978563674652
 20
292.27527119976872
 11
717.61981283156138
 21
292.27527119976872
  0
LINE
  8
_0-5_
  6
CONTINUOUS
 62
    3
 10
741.01976319041978
 20
291.77524409921676
 11
741.01976319041978
 21
270.77529500112314
  0
LINE
  8
_0-5_
  6
CONTINUOUS
 62
    3
 10
717.61981283156138
 20
293.87533810278364
 11
740.51978563674652
 21
293.87533810278364
  0
LINE
  8
_0-5_
  6
CONTINUOUS
 62
    3
 10
742.61978054655606
 20
291.77524409921676
 11
742.61978054655606
 21
270.77529500112314
  0
LINE
  8
_0-5_
  6
CONTINUOUS
 62
    3
 10
644.21972885519858
 20
291.77524409921676
 11
644.21972885519858
 21
270.77529500112314
  0
LINE
  8
_0-5_
  6
CONTINUOUS
 62
    3
 10
644.71970640887207
 20
293.87533810278364
 11
667.61967921405721
 21
293.87533810278364
  0
LINE
  8
_0-5_
  6
CONTINUOUS
 62
    3
 10
644.71970640887207
 20
292.27527119976872
 11
667.61967921405721
 21
292.27527119976872
  0
LINE
  8
_0-5_
  6
CONTINUOUS
 62
    3
 10
642.61976104594146
 20
291.77524409921676
 11
642.61976104594146
 21
270.77529500112314
  0
ARC
  8
_0-a_
  6
CONTINUOUS
 62
    2
 10
695.88379530245311
 20
276.25379248053616
 40
9.2485086466815005
 50
357.03492736816406
 51
77.281768798828125
  0
ARC
  8
_0-a_
  6
CONTINUOUS
 62
    2
 10
703.10802750846619
 20
279.77533688915025
 40
4.0000000368214019
 50
212.21649169921875
 51
270
  0
ARC
  8
_0-a_
  6
CONTINUOUS
 62
    2
 10
697.31976294297988
 20
284.07536185700661
 40
1.2000000497549195
 50
90
 51
180
  0
ARC
  8
_0-a_
  6
CONTINUOUS
 62
    2
 10
697.31976294297988
 20
284.07536185700661
 40
0.2000000042603512
 50
90
 51
180
  0
ARC
  8
_0-a_
  6
CONTINUOUS
 62
    2
 10
695.88379530245311
 20
276.25379248053616
 40
8.2485094116461326
 50
357.03492736816406
 51
76.529418945312486
  0
ARC
  8
_0-a_
  6
CONTINUOUS
 62
    2
 10
689.35589493068051
 20
276.25379248053616
 40
9.2485086466815005
 50
102.71823120117187
 51
182.96507263183594
  0
ARC
  8
_0-a_
  6
CONTINUOUS
 62
    2
 10
682.1315636309098
 20
279.77533688915025
 40
4.0000000368214019
 50
270
 51
327.78350830078125
  0
ARC
  8
_0-a_
  6
CONTINUOUS
 62
    2
 10
687.91963000888109
 20
284.07536185700661
 40
1.2000000497549195
 50
0
 51
90
  0
ARC
  8
_0-a_
  6
CONTINUOUS
 62
    2
 10
687.91963000888109
 20
284.07536185700661
 40
0.2000000042603512
 50
0
 51
90
  0
ARC
  8
_0-a_
  6
CONTINUOUS
 62
    2
 10
689.35589493068051
 20
276.25379248053616
 40
8.2485094116461326
 50
103.4705810546875
 51
182.96507263183594
  0
ARC
  8
_0-5_
  6
CONTINUOUS
 62
    3
 10
740.51978563674652
 20
291.77524409921676
 40
0.5000000046026752
 50
0
 51
90
  0
ARC
  8
_0-5_
  6
CONTINUOUS
 62
    3
 10
740.51978563674652
 20
291.77524409921676
 40
2.0999999419142381
 50
0
 51
90
  0
ARC
  8
_0-5_
  6
CONTINUOUS
 62
    3
 10
644.71970640887207
 20
291.77524409921676
 40
0.5000000046026752
 50
90
 51
180
  0
ARC
  8
_0-5_
  6
CONTINUOUS
 62
    3
 10
644.71970640887207
 20
291.77524409921676
 40
2.0999999419142381
 50
90
 51
180
  0
LINE
  8
_0-5_
  6
DASHED2
 62
    3
 10
644.21972885519858
 20
272.375361904138
 11
741.01976319041978
 21
272.375361904138
  0
LINE
  8
_0-3_
  6
DASHED2
 62
    4
 10
679.86964952127846
 20
292.27527119976872
 11
679.86964952127846
 21
286.27529282129609
  0
LINE
  8
_0-3_
  6
DASHED2
 62
    4
 10
679.86964952127846
 20
292.27527119976872
 11
689.61968251325493
 21
292.27527119976872
  0
LINE
  8
_0-3_
  6
DASHED2
 62
    4
 10
695.61980953236366
 20
292.27527119976872
 11
705.3697434305825
 21
292.27527119976872
  0
LINE
  8
_0-3_
  6
DASHED2
 62
    4
 10
705.3697434305825
 20
292.27527119976872
 11
705.3697434305825
 21
286.27529282129609
  0
LINE
  8
_0-a_
  6
CONTINUOUS
 62
    2
 10
689.61953534547456
 20
358.77513958534882
 11
689.61953534547456
 21
285.27538726082844
  0
LINE
  8
_0-a_
  6
CONTINUOUS
 62
    2
 10
690.6195895465786
 20
358.77513958534882
 11
690.6195895465786
 21
285.27538726082844
  0
LINE
  8
_0-a_
  6
CONTINUOUS
 62
    2
 10
694.61960816347971
 20
358.77513958534882
 11
694.61960816347971
 21
285.27538726082844
  0
LINE
  8
_0-a_
  6
CONTINUOUS
 62
    2
 10
695.61946417706838
 20
358.77513958534882
 11
695.61946417706838
 21
285.27538726082844
  0
LINE
  8
_0-0_
  6
CENTER1
 62
    3
 10
692.6197460228093
 20
369.32938599844829
 11
692.6197460228093
 21
273.13937876723196
  0
LINE
  8
_0-6_
  6
CONTINUOUS
 62
    6
 10
715.61970442935331
 20
367.77513958534882
 11
715.61970442935331
 21
286.27529282129609
  0
LINE
  8
_0-6_
  6
CONTINUOUS
 62
    6
 10
717.61981283156138
 20
367.77513958534882
 11
717.61981283156138
 21
286.27529282129609
  0
LINE
  8
_0-6_
  6
CONTINUOUS
 62
    6
 10
667.61967921405721
 20
286.27529282129609
 11
667.61967921405721
 21
367.77513958534882
  0
LINE
  8
_0-6_
  6
CONTINUOUS
 62
    6
 10
669.61978761626528
 20
286.27529282129609
 11
669.61978761626528
 21
367.77513958534882
  0
LINE
  8
_0-0_
  6
CONTINUOUS
 62
    3
 10
1145.8465362402405
 20
367.77754085803122
 11
1121.3246976353726
 21
367.77754085803122
  0
LINE
  8
_0-0_
  6
CONTINUOUS
 62
    3
 10
1093.4781128451682
 20
380.77755735401934
 11
1303.4781529068541
 21
380.77755735401934
  0
LINE
  8
_0-0_
  6
CENTER1
 62
    3
 10
1198.4781328760112
 20
354.14992808151555
 11
1198.4781328760112
 21
510.82361483432328
  0
ARC
  8
_0-0_
  6
CONTINUOUS
 62
    3
 10
1123.6648382501262
 20
374.27754085803122
 40
3
 50
187.59464336859122
 51
270
  0
ARC
  8
_0-0_
  6
CONTINUOUS
 62
    3
 10
1096.2880876723004
 20
388.77754085803116
 40
2
 50
90
 51
174.28939750455936
  0
LINE
  8
_0-0_
  6
CONTINUOUS
 62
    3
 10
1093.4781128451682
 20
495.7755802960462
 11
1093.4781128451682
 21
380.77755735401934
  0
ARC
  8
_0-0_
  6
CONTINUOUS
 62
    3
 10
1103.4781128451682
 20
495.7755802960462
 40
10
 50
90
 51
180
  0
ARC
  8
_0-0_
  6
CONTINUOUS
 62
    3
 10
1121.3246976353726
 20
369.27754085803122
 40
1.5
 50
186.17017509503006
 51
270
  0
LINE
  8
_0-0_
  6
CONTINUOUS
 62
    3
 10
1147.2888221617018
 20
368.86545916618525
 11
1147.9779883593721
 21
371.27754085803122
  0
ARC
  8
_0-0_
  6
CONTINUOUS
 62
    3
 10
1145.8465362402405
 20
369.27754085803122
 40
1.5
 50
270
 51
344.05460409907715
  0
ARC
  8
_0-0_
  6
CONTINUOUS
 62
    3
 10
1149.1094404785038
 20
369.77754085803122
 40
1.5
 50
90
 51
164.05460409907499
  0
ARC
  8
_0-0_
  6
CONTINUOUS
 62
    3
 10
1198.4781328760112
 20
410.60029310340065
 40
51.825153518051899
 50
237.23353088229788
 51
302.76646911770212
  0
ARC
  8
_0-0_
  6
CONTINUOUS
 62
    3
 10
1198.4781328760112
 20
410.60029310340065
 40
51.010549233423063
 50
238.68379124314316
 51
301.31620875685684
  0
ARC
  8
_0-0_
  6
CONTINUOUS
 62
    3
 10
1273.2914275018961
 20
374.27754085803122
 40
3
 50
270
 51
352.40535663140878
  0
ARC
  8
_0-0_
  6
CONTINUOUS
 62
    3
 10
1300.6681780797219
 20
388.77754085803116
 40
2
 50
5.7106024954406411
 51
90
  0
LINE
  8
_0-0_
  6
CONTINUOUS
 62
    3
 10
1303.4781529068541
 20
495.7755802960462
 11
1303.4781529068541
 21
380.77755735401934
  0
ARC
  8
_0-0_
  6
CONTINUOUS
 62
    3
 10
1293.4781529068541
 20
495.7755802960462
 40
10
 50
0
 51
90
  0
ARC
  8
_0-0_
  6
CONTINUOUS
 62
    3
 10
1275.6315681166498
 20
369.27754085803122
 40
1.5
 50
270
 51
353.82982490496994
  0
LINE
  8
_0-0_
  6
CONTINUOUS
 62
    3
 10
1251.1097295117816
 20
367.77754085803122
 11
1275.6315681166498
 21
367.77754085803122
  0
LINE
  8
_0-0_
  6
CONTINUOUS
 62
    3
 10
1249.6674435903205
 20
368.86545916618525
 11
1248.9782773926499
 21
371.27754085803122
  0
ARC
  8
_0-0_
  6
CONTINUOUS
 62
    3
 10
1251.1097295117816
 20
369.27754085803122
 40
1.5
 50
195.94539590092285
 51
270
  0
ARC
  8
_0-0_
  6
CONTINUOUS
 62
    3
 10
1247.8468252735186
 20
369.77754085803122
 40
1.5
 50
15.945395900924998
 51
90
  0
LINE
  8
_0-0_
  6
CONTINUOUS
 62
    3
 10
1123.6648382501262
 20
371.27754085803122
 11
1273.2914275018961
 21
371.27754085803122
  0
LINE
  8
_0-0_
  6
CONTINUOUS
 62
    3
 10
1094.2980133243839
 20
388.97654862110608
 11
1093.4781128451682
 21
380.77755735401934
  0
LINE
  8
_0-0_
  6
CONTINUOUS
 62
    3
 10
1302.6582524276384
 20
388.97654862110608
 11
1303.4781529068541
 21
380.77755735401934
  0
LINE
  8
_0-0_
  6
CENTER1
 62
    3
 10
1152.5770987646847
 20
410.60029310340087
 11
1244.2439375441006
 21
410.60029310340087
  0
LINE
  8
_0-0_
  6
CONTINUOUS
 62
    3
 10
1120.691154548078
 20
373.88104969775827
 11
1119.7716201939099
 21
380.77755735401934
  0
LINE
  8
_0-0_
  6
CONTINUOUS
 62
    3
 10
1119.8333870640238
 20
369.11631809356118
 11
1118.5727125493795
 21
380.77755735401934
  0
LINE
  8
_0-0_
  6
CONTINUOUS
 62
    3
 10
1300.6681780797219
 20
390.77754085803122
 11
1096.2880876723004
 21
390.77754085803122
  0
LINE
  8
_0-0_
  6
CONTINUOUS
 62
    3
 10
1276.2651112039443
 20
373.88104969775827
 11
1277.1846455581122
 21
380.77755735401934
  0
LINE
  8
_0-0_
  6
CONTINUOUS
 62
    3
 10
1277.1228786879985
 20
369.11631809356118
 11
1278.3835532026428
 21
380.77755735401934
  0
LINE
  8
_0-5_
  6
CONTINUOUS
 62
    3
 10
998.47802029089189
 20
272.375361904138
 11
998.47802029089189
 21
270.77529500112314
  0
LINE
  8
_0-5_
  6
CONTINUOUS
 62
    3
 10
1398.4781478402292
 20
272.375361904138
 11
1398.4781478402292
 21
270.77529500112314
  0
LINE
  8
_0-a_
  6
CONTINUOUS
 62
    2
 10
1266.4779298575281
 20
274.77521452426652
 11
1260.4780010259342
 21
274.77521452426652
  0
LINE
  8
_0-a_
  6
CONTINUOUS
 62
    2
 10
1266.4779298575281
 20
274.77521452426652
 11
1265.4780738439395
 21
273.77525941692011
  0
LINE
  8
_0-a_
  6
CONTINUOUS
 62
    2
 10
1265.4780738439395
 20
273.77525941692011
 11
1261.4780552270383
 21
273.77525941692011
  0
LINE
  8
_0-a_
  6
CONTINUOUS
 62
    2
 10
1261.4780552270383
 20
273.77525941692011
 11
1260.4780010259342
 21
274.77521452426652
  0
LINE
  8
_0-a_
  6
CONTINUOUS
 62
    2
 10
1266.4779298575281
 20
280.2752648959447
 11
1266.4779298575281
 21
274.77521452426652
  0
LINE
  8
_0-a_
  6
CONTINUOUS
 62
    2
 10
1265.4780738439395
 20
280.2752648959447
 11
1265.4780738439395
 21
273.77525941692011
  0
LINE
  8
_0-a_
  6
CONTINUOUS
 62
    2
 10
1261.4780552270383
 20
280.2752648959447
 11
1261.4780552270383
 21
273.77525941692011
  0
LINE
  8
_0-a_
  6
CONTINUOUS
 62
    2
 10
1260.4780010259342
 20
280.2752648959447
 11
1260.4780010259342
 21
274.77521452426652
  0
LINE
  8
_0-3_
  6
CONTINUOUS
 62
    4
 10
1285.2280542844105
 20
291.27531609242232
 11
1285.2280542844105
 21
292.27527119976872
  0
LINE
  8
_0-3_
  6
CONTINUOUS
 62
    4
 10
1241.728074786567
 20
291.27531609242232
 11
1241.728074786567
 21
292.27527119976872
  0
LINE
  8
_0-3_
  6
CONTINUOUS
 62
    4
 10
1277.7280441511607
 20
291.27531609242232
 11
1285.2280542844105
 21
291.27531609242232
  0
LINE
  8
_0-3_
  6
CONTINUOUS
 62
    4
 10
1276.2281610370196
 20
286.77527037496935
 11
1276.2281610370196
 21
290.77523944499154
  0
LINE
  8
_0-3_
  6
CONTINUOUS
 62
    4
 10
1277.2280170506085
 20
290.77523944499154
 11
1277.2280170506085
 21
286.77527037496935
  0
LINE
  8
_0-3_
  6
CONTINUOUS
 62
    4
 10
1250.7279680339579
 20
286.77527037496935
 11
1250.7279680339579
 21
290.77523944499154
  0
LINE
  8
_0-3_
  6
CONTINUOUS
 62
    4
 10
1249.2280849198171
 20
291.27531609242232
 11
1241.728074786567
 21
291.27531609242232
  0
LINE
  8
_0-3_
  6
CONTINUOUS
 62
    4
 10
1249.7281120203691
 20
286.77527037496935
 11
1249.7281120203691
 21
290.77523944499154
  0
LINE
  8
_0-3_
  6
CONTINUOUS
 62
    4
 10
1275.7281339364677
 20
285.27538726082844
 11
1251.2279951345099
 21
285.27538726082844
  0
LINE
  8
_0-3_
  6
CONTINUOUS
 62
    4
 10
1258.9779197242783
 20
286.27529282129609
 11
1258.9779197242783
 21
285.27538726082844
  0
LINE
  8
_0-3_
  6
CONTINUOUS
 62
    4
 10
1267.9780111591845
 20
286.27529282129609
 11
1267.9780111591845
 21
285.27538726082844
  0
LINE
  8
_0-3_
  6
CONTINUOUS
 62
    4
 10
1275.7281339364677
 20
286.27529282129609
 11
1266.4779298575281
 21
286.27529282129609
  0
LINE
  8
_0-3_
  6
CONTINUOUS
 62
    4
 10
1260.4780010259342
 20
286.27529282129609
 11
1251.2279951345099
 21
286.27529282129609
  0
LINE
  8
_0-5_
  6
CONTINUOUS
 62
    3
 10
1249.9780264768874
 20
293.87533810278364
 11
1249.9780264768874
 21
292.27527119976872
  0
LINE
  8
_0-5_
  6
CONTINUOUS
 62
    3
 10
1276.9779044065749
 20
293.87533810278364
 11
1276.9779044065749
 21
292.27527119976872
  0
LINE
  8
_0-5_
  6
CONTINUOUS
 62
    3
 10
1092.9779894198286
 20
272.375361904138
 11
998.47802029089189
 21
272.375361904138
  0
LINE
  8
_0-5_
  6
CONTINUOUS
 62
    3
 10
1095.0780834233951
 20
291.77524409921676
 11
1095.0780834233951
 21
272.87533945781126
  0
LINE
  8
_0-5_
  6
CONTINUOUS
 62
    3
 10
1093.478115614138
 20
272.87533945781126
 11
1093.478115614138
 21
291.77524409921676
  0
LINE
  8
_0-5_
  6
CONTINUOUS
 62
    3
 10
1301.3779585134162
 20
292.27527119976872
 11
1275.9780483929862
 21
292.27527119976872
  0
LINE
  8
_0-5_
  6
CONTINUOUS
 62
    3
 10
1275.9780483929862
 20
293.87533810278364
 11
1301.3779585134162
 21
293.87533810278364
  0
LINE
  8
_0-5_
  6
CONTINUOUS
 62
    3
 10
1303.4779534232257
 20
291.77524409921676
 11
1303.4779534232257
 21
272.87533945781126
  0
LINE
  8
_0-5_
  6
CONTINUOUS
 62
    3
 10
1398.4781478402292
 20
272.375361904138
 11
1303.9779805237777
 21
272.375361904138
  0
LINE
  8
_0-5_
  6
CONTINUOUS
 62
    3
 10
1301.8779856139681
 20
291.77524409921676
 11
1301.8779856139681
 21
272.87533945781126
  0
LINE
  8
_0-5_
  6
CONTINUOUS
 62
    3
 10
998.47802029089189
 20
270.77529500112314
 11
1092.9779894198286
 21
270.77529500112314
  0
LINE
  8
_0-a_
  6
CONTINUOUS
 62
    2
 10
1267.9780111591845
 20
280.27531444282351
 11
1258.9779197242783
 21
280.27531444282351
  0
LINE
  8
_0-a_
  6
CONTINUOUS
 62
    2
 10
1252.9896839560743
 20
275.77536781912806
 11
1250.9778824904765
 21
275.77536781912806
  0
LINE
  8
_0-a_
  6
CONTINUOUS
 62
    2
 10
1256.3739339636154
 20
277.64288877374622
 11
1258.9779197242783
 21
281.77539574447951
  0
LINE
  8
_0-a_
  6
CONTINUOUS
 62
    2
 10
1258.7779485215606
 20
284.2753330597244
 11
1258.2925872971246
 21
284.2753330597244
  0
LINE
  8
_0-a_
  6
CONTINUOUS
 62
    2
 10
1273.9660487398733
 20
275.77536781912806
 11
1275.9780483929862
 21
275.77536781912806
  0
LINE
  8
_0-a_
  6
CONTINUOUS
 62
    2
 10
1270.5819969198474
 20
277.64288877374622
 11
1267.9780111591845
 21
281.77539574447951
  0
LINE
  8
_0-a_
  6
CONTINUOUS
 62
    2
 10
1268.1779823619022
 20
284.2753330597244
 11
1268.663343586338
 21
284.2753330597244
  0
LINE
  8
_0-a_
  6
CONTINUOUS
 62
    2
 10
1258.9779197242783
 20
280.27531444282351
 11
1258.9779197242783
 21
284.07536185700661
  0
LINE
  8
_0-a_
  6
CONTINUOUS
 62
    2
 10
1259.9779739253822
 20
284.07536185700661
 11
1259.9779739253822
 21
280.27531444282351
  0
LINE
  8
_0-a_
  6
CONTINUOUS
 62
    2
 10
1266.9779569580801
 20
284.07536185700661
 11
1266.9779569580801
 21
280.27531444282351
  0
LINE
  8
_0-a_
  6
CONTINUOUS
 62
    2
 10
1267.9780111591845
 20
280.27531444282351
 11
1267.9780111591845
 21
284.07536185700661
  0
LINE
  8
_0-f_
  6
CONTINUOUS
 62
    7
 10
1222.1033984025066
 20
298.46417182699338
 11
1212.2943055310359
 21
284.22509252465113
  0
LINE
  8
_0-f_
  6
CONTINUOUS
 62
    7
 10
1212.2943055310359
 20
284.22509252465113
 11
1197.7388198608651
 21
278.84588699029428
  0
LINE
  8
_0-f_
  6
CONTINUOUS
 62
    7
 10
1197.7388198608651
 20
278.84588699029428
 11
1195.2073707307222
 21
264.92331314953799
  0
LINE
  8
_0-5_
  6
CONTINUOUS
 62
    3
 10
1098.4780893383854
 20
270.77529500112314
 11
1298.4778806052209
 21
270.77529500112314
  0
LINE
  8
_0-5_
  6
CONTINUOUS
 62
    3
 10
1303.9779805237777
 20
270.77529500112314
 11
1398.4781478402292
 21
270.77529500112314
  0
LINE
  8
_0-5_
  6
CONTINUOUS
 62
    3
 10
1298.4778806052209
 20
270.77529500112314
 11
1298.4778806052209
 21
292.27527119976872
  0
LINE
  8
_0-5_
  6
CONTINUOUS
 62
    3
 10
1250.9780806779916
 20
292.27527119976872
 11
1217.8399885780618
 21
292.27527119976872
  0
LINE
  8
_0-5_
  6
CONTINUOUS
 62
    3
 10
1095.5781105239473
 20
292.27527119976872
 11
1098.4780893383854
 21
292.27527119976872
  0
LINE
  8
_0-5_
  6
CONTINUOUS
 62
    3
 10
1095.5781105239473
 20
293.87533810278364
 11
1250.9780806779916
 21
293.87533810278364
  0
ARC
  8
_0-3_
  6
CONTINUOUS
 62
    4
 10
1277.7280441511607
 20
290.77523944499154
 40
0.5000000046026752
 50
90
 51
180
  0
ARC
  8
_0-3_
  6
CONTINUOUS
 62
    4
 10
1277.7280441511607
 20
290.77523944499154
 40
1.5000000138080258
 50
90
 51
180
  0
ARC
  8
_0-3_
  6
CONTINUOUS
 62
    4
 10
1275.7281339364677
 20
286.77527037496935
 40
0.5000000046026752
 50
270
 51
0
  0
ARC
  8
_0-3_
  6
CONTINUOUS
 62
    4
 10
1275.7281339364677
 20
286.77527037496935
 40
1.5000000138080258
 50
270
 51
0
  0
ARC
  8
_0-3_
  6
CONTINUOUS
 62
    4
 10
1249.2280849198171
 20
290.77523944499154
 40
0.5000000046026752
 50
0
 51
90
  0
ARC
  8
_0-3_
  6
CONTINUOUS
 62
    4
 10
1249.2280849198171
 20
290.77523944499154
 40
1.5000000138080258
 50
0
 51
90
  0
ARC
  8
_0-3_
  6
CONTINUOUS
 62
    4
 10
1251.2279951345099
 20
286.77527037496935
 40
0.5000000046026752
 50
180
 51
270
  0
ARC
  8
_0-3_
  6
CONTINUOUS
 62
    4
 10
1251.2279951345099
 20
286.77527037496935
 40
1.5000000138080258
 50
180
 51
270
  0
ARC
  8
_0-5_
  6
CONTINUOUS
 62
    3
 10
1095.5781105239473
 20
291.77524409921676
 40
0.5000000046026752
 50
90
 51
180
  0
ARC
  8
_0-5_
  6
CONTINUOUS
 62
    3
 10
1092.9779894198286
 20
272.87533945781126
 40
0.5000000046026752
 50
270
 51
0
  0
ARC
  8
_0-5_
  6
CONTINUOUS
 62
    3
 10
1095.5781105239473
 20
291.77524409921676
 40
2.0999999419142381
 50
90
 51
180
  0
ARC
  8
_0-5_
  6
CONTINUOUS
 62
    3
 10
1092.9779894198286
 20
272.87533945781126
 40
2.0999999419142381
 50
270
 51
0
  0
ARC
  8
_0-5_
  6
CONTINUOUS
 62
    3
 10
1301.3779585134162
 20
291.77524409921676
 40
0.5000000046026752
 50
0
 51
90
  0
ARC
  8
_0-5_
  6
CONTINUOUS
 62
    3
 10
1303.9779805237777
 20
272.87533945781126
 40
0.5000000046026752
 50
180
 51
270
  0
ARC
  8
_0-5_
  6
CONTINUOUS
 62
    3
 10
1301.3779585134162
 20
291.77524409921676
 40
2.0999999419142381
 50
0
 51
90
  0
ARC
  8
_0-5_
  6
CONTINUOUS
 62
    3
 10
1303.9779805237777
 20
272.87533945781126
 40
2.0999999419142381
 50
180
 51
270
  0
ARC
  8
_0-a_
  6
CONTINUOUS
 62
    2
 10
1260.214015255845
 20
276.25379248053616
 40
9.2485086466815005
 50
102.71823120117187
 51
182.96507263183594
  0
ARC
  8
_0-a_
  6
CONTINUOUS
 62
    2
 10
1252.9896839560743
 20
279.77533688915025
 40
4.0000000368214019
 50
270
 51
327.78350830078125
  0
ARC
  8
_0-a_
  6
CONTINUOUS
 62
    2
 10
1258.7779485215606
 20
284.07536185700661
 40
1.2000000497549195
 50
0
 51
90
  0
ARC
  8
_0-a_
  6
CONTINUOUS
 62
    2
 10
1258.7779485215606
 20
284.07536185700661
 40
0.2000000042603512
 50
0
 51
90
  0
ARC
  8
_0-a_
  6
CONTINUOUS
 62
    2
 10
1260.214015255845
 20
276.25379248053616
 40
8.2485094116461326
 50
103.4705810546875
 51
182.96507263183594
  0
ARC
  8
_0-a_
  6
CONTINUOUS
 62
    2
 10
1266.7419156276173
 20
276.25379248053616
 40
9.2485086466815005
 50
357.03492736816406
 51
77.281768798828125
  0
ARC
  8
_0-a_
  6
CONTINUOUS
 62
    2
 10
1273.9660487398733
 20
279.77533688915025
 40
4.0000000368214019
 50
212.21649169921875
 51
270
  0
ARC
  8
_0-a_
  6
CONTINUOUS
 62
    2
 10
1268.1779823619022
 20
284.07536185700661
 40
1.2000000497549195
 50
90
 51
180
  0
ARC
  8
_0-a_
  6
CONTINUOUS
 62
    2
 10
1268.1779823619022
 20
284.07536185700661
 40
0.2000000042603512
 50
90
 51
180
  0
ARC
  8
_0-a_
  6
CONTINUOUS
 62
    2
 10
1266.7419156276173
 20
276.25379248053616
 40
8.2485094116461326
 50
357.03492736816406
 51
76.529418945312486
  0
LINE
  8
_0-5_
  6
CONTINUOUS
 62
    3
 10
1098.4780893383854
 20
270.77529500112314
 11
1098.4780893383854
 21
293.87533810278364
  0
LINE
  8
_0-a_
  6
DASHED2
 62
    2
 10
1130.4781391798356
 20
274.77521452426652
 11
1136.4780680114291
 21
274.77521452426652
  0
LINE
  8
_0-a_
  6
DASHED2
 62
    2
 10
1130.4781391798356
 20
274.77521452426652
 11
1131.4780942871816
 21
273.77525941692011
  0
LINE
  8
_0-a_
  6
DASHED2
 62
    2
 10
1131.4780942871816
 20
273.77525941692011
 11
1135.478112904083
 21
273.77525941692011
  0
LINE
  8
_0-a_
  6
DASHED2
 62
    2
 10
1135.478112904083
 20
273.77525941692011
 11
1136.4780680114291
 21
274.77521452426652
  0
LINE
  8
_0-a_
  6
DASHED2
 62
    2
 10
1130.4781391798356
 20
280.2752648959447
 11
1130.4781391798356
 21
274.77521452426652
  0
LINE
  8
_0-a_
  6
DASHED2
 62
    2
 10
1131.4780942871816
 20
280.2752648959447
 11
1131.4780942871816
 21
273.77525941692011
  0
LINE
  8
_0-a_
  6
DASHED2
 62
    2
 10
1135.478112904083
 20
280.2752648959447
 11
1135.478112904083
 21
273.77525941692011
  0
LINE
  8
_0-a_
  6
DASHED2
 62
    2
 10
1136.4780680114291
 20
280.2752648959447
 11
1136.4780680114291
 21
274.77521452426652
  0
LINE
  8
_0-5_
  6
DASHED2
 62
    3
 10
1146.9779434667184
 20
293.87533810278364
 11
1146.9779434667184
 21
292.27527119976872
  0
LINE
  8
_0-5_
  6
DASHED2
 62
    3
 10
1119.9780655370309
 20
293.87533810278364
 11
1119.9780655370309
 21
292.27527119976872
  0
LINE
  8
_0-3_
  6
DASHED2
 62
    4
 10
1111.7281138467106
 20
291.27531609242232
 11
1111.7281138467106
 21
292.27527119976872
  0
LINE
  8
_0-3_
  6
DASHED2
 62
    4
 10
1155.2280933445538
 20
291.27531609242232
 11
1155.2280933445538
 21
292.27527119976872
  0
LINE
  8
_0-3_
  6
DASHED2
 62
    4
 10
1119.2281239799604
 20
291.27531609242232
 11
1111.7281138467106
 21
291.27531609242232
  0
LINE
  8
_0-3_
  6
DASHED2
 62
    4
 10
1120.7280070941015
 20
286.77527037496935
 11
1120.7280070941015
 21
290.77523944499154
  0
LINE
  8
_0-3_
  6
DASHED2
 62
    4
 10
1146.2281010034058
 20
286.77527037496935
 11
1146.2281010034058
 21
290.77523944499154
  0
LINE
  8
_0-3_
  6
DASHED2
 62
    4
 10
1147.728083211304
 20
291.27531609242232
 11
1155.2280933445538
 21
291.27531609242232
  0
LINE
  8
_0-3_
  6
DASHED2
 62
    4
 10
1147.228056110752
 20
286.77527037496935
 11
1147.228056110752
 21
290.77523944499154
  0
LINE
  8
_0-3_
  6
DASHED2
 62
    4
 10
1121.2280341946534
 20
285.27538726082844
 11
1145.7280739028538
 21
285.27538726082844
  0
LINE
  8
_0-3_
  6
DASHED2
 62
    4
 10
1137.9781493130852
 20
286.27529282129609
 11
1137.9781493130852
 21
285.27538726082844
  0
LINE
  8
_0-3_
  6
DASHED2
 62
    4
 10
1128.9780578781792
 20
286.27529282129609
 11
1128.9780578781792
 21
285.27538726082844
  0
LINE
  8
_0-3_
  6
DASHED2
 62
    4
 10
1121.2280341946534
 20
286.27529282129609
 11
1130.4781391798356
 21
286.27529282129609
  0
LINE
  8
_0-3_
  6
DASHED2
 62
    4
 10
1136.4780680114291
 20
286.27529282129609
 11
1145.7280739028538
 21
286.27529282129609
  0
LINE
  8
_0-a_
  6
DASHED2
 62
    2
 10
1128.9780578781792
 20
280.27531444282351
 11
1137.9781493130852
 21
280.27531444282351
  0
LINE
  8
_0-a_
  6
DASHED2
 62
    2
 10
1143.9662859875316
 20
275.77536781912806
 11
1145.9780874531298
 21
275.77536781912806
  0
LINE
  8
_0-a_
  6
DASHED2
 62
    2
 10
1140.5821350737483
 20
277.64288877374622
 11
1137.9781493130852
 21
281.77539574447951
  0
LINE
  8
_0-a_
  6
DASHED2
 62
    2
 10
1138.1780214220453
 20
284.2753330597244
 11
1138.6634817402391
 21
284.2753330597244
  0
LINE
  8
_0-a_
  6
DASHED2
 62
    2
 10
1122.9899212037328
 20
275.77536781912806
 11
1120.9781197381349
 21
275.77536781912806
  0
LINE
  8
_0-a_
  6
DASHED2
 62
    2
 10
1126.3739730237587
 20
277.64288877374622
 11
1128.9780578781792
 21
281.77539574447951
  0
LINE
  8
_0-a_
  6
DASHED2
 62
    2
 10
1128.7780866754615
 20
284.2753330597244
 11
1128.2926263572681
 21
284.2753330597244
  0
LINE
  8
_0-a_
  6
DASHED2
 62
    2
 10
1137.9781493130852
 20
280.27531444282351
 11
1137.9781493130852
 21
284.07536185700661
  0
LINE
  8
_0-a_
  6
DASHED2
 62
    2
 10
1136.978095111981
 20
284.07536185700661
 11
1136.978095111981
 21
280.27531444282351
  0
LINE
  8
_0-a_
  6
DASHED2
 62
    2
 10
1129.9781120792832
 20
284.07536185700661
 11
1129.9781120792832
 21
280.27531444282351
  0
LINE
  8
_0-a_
  6
DASHED2
 62
    2
 10
1128.9780578781792
 20
280.27531444282351
 11
1128.9780578781792
 21
284.07536185700661
  0
LINE
  8
_0-6_
  6
DASHED2
 62
    6
 10
1120.9780206443775
 20
286.27529282129609
 11
1120.9780206443775
 21
293.87533810278364
  0
LINE
  8
_0-6_
  6
DASHED2
 62
    6
 10
1145.9780874531298
 20
286.27529282129609
 11
1145.9780874531298
 21
293.87533810278364
  0
ARC
  8
_0-3_
  6
DASHED2
 62
    4
 10
1119.2281239799604
 20
290.77523944499154
 40
0.5000000046026752
 50
0
 51
90
  0
ARC
  8
_0-3_
  6
DASHED2
 62
    4
 10
1119.2281239799604
 20
290.77523944499154
 40
1.5000000138080258
 50
0
 51
90
  0
ARC
  8
_0-3_
  6
DASHED2
 62
    4
 10
1121.2280341946534
 20
286.77527037496935
 40
0.5000000046026752
 50
180
 51
270
  0
ARC
  8
_0-3_
  6
DASHED2
 62
    4
 10
1121.2280341946534
 20
286.77527037496935
 40
1.5000000138080258
 50
180
 51
270
  0
ARC
  8
_0-3_
  6
DASHED2
 62
    4
 10
1147.728083211304
 20
290.77523944499154
 40
0.5000000046026752
 50
90
 51
180
  0
ARC
  8
_0-3_
  6
DASHED2
 62
    4
 10
1147.728083211304
 20
290.77523944499154
 40
1.5000000138080258
 50
90
 51
180
  0
ARC
  8
_0-3_
  6
DASHED2
 62
    4
 10
1145.7280739028538
 20
286.77527037496935
 40
0.5000000046026752
 50
270
 51
0
  0
ARC
  8
_0-3_
  6
DASHED2
 62
    4
 10
1145.7280739028538
 20
286.77527037496935
 40
1.5000000138080258
 50
270
 51
0
  0
ARC
  8
_0-a_
  6
DASHED2
 62
    2
 10
1136.7420537815185
 20
276.25379248053616
 40
9.2485086466815005
 50
357.03492736816406
 51
77.281768798828125
  0
ARC
  8
_0-a_
  6
DASHED2
 62
    2
 10
1143.9662859875316
 20
279.77533688915025
 40
4.0000000368214019
 50
212.21649169921875
 51
270
  0
ARC
  8
_0-a_
  6
DASHED2
 62
    2
 10
1138.1780214220453
 20
284.07536185700661
 40
1.2000000497549195
 50
90
 51
180
  0
ARC
  8
_0-a_
  6
DASHED2
 62
    2
 10
1138.1780214220453
 20
284.07536185700661
 40
0.2000000042603512
 50
90
 51
180
  0
ARC
  8
_0-a_
  6
DASHED2
 62
    2
 10
1136.7420537815185
 20
276.25379248053616
 40
8.2485094116461326
 50
357.03492736816406
 51
76.529418945312486
  0
ARC
  8
_0-a_
  6
DASHED2
 62
    2
 10
1130.2142525035035
 20
276.25379248053616
 40
9.2485086466815005
 50
102.71823120117187
 51
182.96507263183594
  0
ARC
  8
_0-a_
  6
DASHED2
 62
    2
 10
1122.9899212037328
 20
279.77533688915025
 40
4.0000000368214019
 50
270
 51
327.78350830078125
  0
ARC
  8
_0-a_
  6
DASHED2
 62
    2
 10
1128.7780866754615
 20
284.07536185700661
 40
1.2000000497549195
 50
0
 51
90
  0
ARC
  8
_0-a_
  6
DASHED2
 62
    2
 10
1128.7780866754615
 20
284.07536185700661
 40
0.2000000042603512
 50
0
 51
90
  0
ARC
  8
_0-a_
  6
DASHED2
 62
    2
 10
1130.2142525035035
 20
276.25379248053616
 40
8.2485094116461326
 50
103.4705810546875
 51
182.96507263183594
  0
LINE
  8
_0-5_
  6
DASHED2
 62
    3
 10
1098.4780893383854
 20
292.27527119976872
 11
1120.9780206443775
 21
292.27527119976872
  0
LINE
  8
_0-3_
  6
DASHED2
 62
    4
 10
1119.7281510805124
 20
290.77523944499154
 11
1119.7281510805124
 21
286.77527037496935
  0
LINE
  8
_0-5_
  6
DASHED2
 62
    3
 10
1217.8399885780618
 20
292.27527119976872
 11
1145.9780874531298
 21
292.27527119976872
  0
ARC
  8
_0-0_
  6
DASHED2
 62
    3
 10
1198.4781328760112
 20
410.60029310340065
 40
40.25
 50
330.49557749527656
 51
209.50442250472338
  0
LINE
  8
_0-0_
  6
CONTINUOUS
 62
    3
 10
1094.4781128451682
 20
390.63287159697649
 11
1094.4781128451682
 21
389.6284175383721
  0
LINE
  8
_0-0_
  6
CONTINUOUS
 62
    3
 10
1302.4781529068541
 20
390.90732759904716
 11
1302.4781529068541
 21
389.6284175383721
  0
LINE
  8
_0-7_
  6
CONTINUOUS
 62
    7
 10
1302.4781529068541
 20
495.7755802960462
 11
1302.4781529068541
 21
390.90732759904716
  0
ARC
  8
_0-7_
  6
CONTINUOUS
 62
    7
 10
1104.4781128451682
 20
495.7755802960462
 40
10
 50
90
 51
180
  0
LINE
  8
_0-7_
  6
CONTINUOUS
 62
    7
 10
1103.4781128451682
 20
505.7755802960462
 11
1293.4781529068541
 21
505.7755802960462
  0
ARC
  8
_0-7_
  6
CONTINUOUS
 62
    7
 10
1292.4781529068541
 20
495.7755802960462
 40
10
 50
0
 51
90
  0
LINE
  8
_0-7_
  6
CONTINUOUS
 62
    7
 10
1096.2880876723004
 20
390.77754085803122
 11
1094.4781128451682
 21
390.77754085803122
  0
LINE
  8
_0-7_
  6
CONTINUOUS
 62
    7
 10
1094.4781128451682
 20
495.7755802960462
 11
1094.4781128451682
 21
390.77754085803122
  0
LINE
  8
_0-7_
  6
CONTINUOUS
 62
    7
 10
1300.6681780797219
 20
390.77754085803122
 11
1302.4781529068541
 21
390.77754085803122
  0
LINE
  8
_0-7_
  6
CONTINUOUS
 62
    7
 10
1302.4781529068541
 20
392.77754085803127
 11
1094.4781128451682
 21
392.77754085803127
  0
LINE
  8
_0-6_
  6
CONTINUOUS
 62
    6
 10
1145.9780874531298
 20
293.87533810278364
 11
1145.9780874531298
 21
367.77754085803122
  0
LINE
  8
_0-6_
  6
CONTINUOUS
 62
    6
 10
1120.9780206443775
 20
293.87533810278364
 11
1120.9780206443775
 21
367.77754085803122
  0
LINE
  8
_0-6_
  6
CONTINUOUS
 62
    6
 10
1250.9780806779916
 20
286.27529282129609
 11
1250.9780806779916
 21
367.77754085803122
  0
LINE
  8
_0-6_
  6
CONTINUOUS
 62
    6
 10
1275.9780483929862
 20
286.27529282129609
 11
1275.9780483929862
 21
367.77754085803122
  0
LINE
  8
_0-f_
  6
CONTINUOUS
 62
    7
 10
1222.1033984025066
 20
298.46417182699338
 11
1248.921691001306
 21
318.78262609550109
  0
LINE
  8
_0-f_
  6
CONTINUOUS
 62
    7
 10
1248.921691001306
 20
318.78262609550109
 11
1278.9763516319447
 21
324.75238745364163
  0
LINE
  8
_0-6_
  6
DASHED2
 62
    6
 10
1143.9781772384367
 20
286.27529282129609
 11
1143.9781772384367
 21
367.77754085803122
  0
LINE
  8
_0-6_
  6
DASHED2
 62
    6
 10
1122.9780299528279
 20
286.27529282129609
 11
1122.9780299528279
 21
367.77754085803122
  0
ARC
  8
_0-0_
  6
DASHED2
 62
    3
 10
1123.8737108360217
 20
365.77754085803122
 40
2
 50
12.528807709150406
 51
90
  0
LINE
  8
_0-0_
  6
DASHED2
 62
    3
 10
1127.2170308680263
 20
359.9521451713033
 11
1125.8260849563894
 21
366.21140177366874
  0
ARC
  8
_0-0_
  6
DASHED2
 62
    3
 10
1128.6813114583022
 20
360.27754085803122
 40
1.5
 50
192.52880770915152
 51
270
  0
LINE
  8
_0-0_
  6
DASHED2
 62
    3
 10
1138.2747966392046
 20
358.77754085803122
 11
1128.6813114583022
 21
358.77754085803122
  0
ARC
  8
_0-0_
  6
DASHED2
 62
    3
 10
1138.2747966392046
 20
360.27754085803122
 40
1.5
 50
270
 51
347.47119229084922
  0
LINE
  8
_0-0_
  6
DASHED2
 62
    3
 10
1139.7390772294802
 20
359.9521451713033
 11
1141.1300231411171
 21
366.21140177366851
  0
ARC
  8
_0-0_
  6
DASHED2
 62
    3
 10
1143.0823972614849
 20
365.77754085803122
 40
2
 50
90
 51
167.47119229084961
  0
LINE
  8
_0-a_
  6
DASHED2
 62
    2
 10
1131.4780942871816
 20
358.77754085803122
 11
1131.4780942871816
 21
285.27538726082844
  0
LINE
  8
_0-a_
  6
DASHED2
 62
    2
 10
1130.4781391798356
 20
358.77754085803122
 11
1130.4781391798356
 21
285.27538726082844
  0
LINE
  8
_0-a_
  6
DASHED2
 62
    2
 10
1135.4780138103251
 20
358.77754085803122
 11
1135.4780138103251
 21
285.27538726082844
  0
LINE
  8
_0-a_
  6
DASHED2
 62
    2
 10
1136.4780680114291
 20
358.77754085803122
 11
1136.4780680114291
 21
285.27538726082844
  0
LINE
  8
_0-0_
  6
CENTER1
 62
    3
 10
1133.4780540487534
 20
272.64250523529813
 11
1133.4780540487534
 21
369.4034932171885
  0
ARC
  8
_0-0_
  6
DASHED2
 62
    3
 10
1253.8738684905372
 20
365.77754085803122
 40
2
 50
12.528807709150415
 51
90.000000000000014
  0
LINE
  8
_0-0_
  6
DASHED2
 62
    3
 10
1257.2171885225418
 20
359.9521451713033
 11
1255.8262426109052
 21
366.21140177366851
  0
ARC
  8
_0-0_
  6
DASHED2
 62
    3
 10
1258.6814691128175
 20
360.27754085803122
 40
1.5
 50
192.52880770915078
 51
270
  0
LINE
  8
_0-0_
  6
DASHED2
 62
    3
 10
1258.6814691128175
 20
358.77754085803122
 11
1268.2749542937199
 21
358.77754085803122
  0
ARC
  8
_0-0_
  6
DASHED2
 62
    3
 10
1268.2749542937199
 20
360.27754085803122
 40
1.5
 50
270
 51
347.47119229084848
  0
LINE
  8
_0-0_
  6
DASHED2
 62
    3
 10
1269.739234883996
 20
359.9521451713033
 11
1271.1301807956329
 21
366.21140177366874
  0
ARC
  8
_0-0_
  6
DASHED2
 62
    3
 10
1273.0825549160006
 20
365.77754085803122
 40
2
 50
90
 51
167.47119229084961
  0
LINE
  8
_0-0_
  6
CONTINUOUS
 62
    3
 10
1145.9780874531298
 20
367.02137764385839
 11
1250.9780806779916
 21
367.02137764385839
  0
LINE
  8
_0-6_
  6
DASHED2
 62
    6
 10
1273.9781381782932
 20
323.75959163065608
 11
1273.9781381782932
 21
367.77754085803122
  0
LINE
  8
_0-6_
  6
CONTINUOUS
 62
    6
 10
1273.9781381782932
 20
286.27529282129609
 11
1273.9781381782932
 21
323.75959163065608
  0
LINE
  8
_0-6_
  6
DASHED2
 62
    6
 10
1252.9779908926844
 20
319.58832949858311
 11
1252.9779908926844
 21
367.77754085803122
  0
LINE
  8
_0-6_
  6
CONTINUOUS
 62
    6
 10
1252.9779908926844
 20
286.27529282129609
 11
1252.9779908926844
 21
319.58832949858311
  0
LINE
  8
_0-a_
  6
CONTINUOUS
 62
    2
 10
1261.4780552270383
 20
321.27669844170822
 11
1261.4780552270383
 21
285.27538726082844
  0
LINE
  8
_0-a_
  6
CONTINUOUS
 62
    2
 10
1260.4780010259342
 20
321.07805753874919
 11
1260.4780010259342
 21
285.27538726082844
  0
LINE
  8
_0-a_
  6
CONTINUOUS
 62
    2
 10
1265.4780738439395
 20
322.07122268753102
 11
1265.4780738439395
 21
285.27538726082844
  0
LINE
  8
_0-a_
  6
CONTINUOUS
 62
    2
 10
1266.4779298575281
 20
322.26982422447668
 11
1266.4779298575281
 21
285.27538726082844
  0
LINE
  8
_0-a_
  6
DASHED2
 62
    2
 10
1266.4779298575281
 20
358.77754085803122
 11
1266.4779298575281
 21
322.26982422447668
  0
LINE
  8
_0-a_
  6
DASHED2
 62
    2
 10
1265.4780738439395
 20
358.77754085803122
 11
1265.4780738439395
 21
322.07122268753102
  0
LINE
  8
_0-a_
  6
DASHED2
 62
    2
 10
1261.4780552270383
 20
358.77754085803122
 11
1261.4780552270383
 21
321.27669844170822
  0
LINE
  8
_0-a_
  6
DASHED2
 62
    2
 10
1260.4780010259342
 20
358.77754085803122
 11
1260.4780010259342
 21
321.07805753874919
  0
LINE
  8
_0-0_
  6
CENTER1
 62
    3
 10
1263.4782117032687
 20
271.44906669762702
 11
1263.4782117032687
 21
369.4034932171885
  0
LINE
  8
_0-0_
  6
CONTINUOUS
 62
    3
 10
600.79644976655914
 20
452.16721856430183
 11
602.51929837241323
 21
367.56863137006394
  0
LINE
  8
_0-0_
  6
CONTINUOUS
 62
    3
 10
620.69400737070328
 20
368.87889101000064
 11
619.00940114814262
 21
451.59803532200385
  0
LINE
  8
_0-0_
  6
CONTINUOUS
 62
    3
 10
597.65063770638039
 20
459.29661521158368
 11
599.66635337540242
 21
360.31711277300519
  0
LINE
  8
_0-0_
  6
CONTINUOUS
 62
    3
 10
599.66635337540242
 20
360.31711277300519
 11
607.66469504664701
 21
360.47999466281385
  0
LINE
  8
_0-0_
  6
CENTER1
 62
    3
 10
637.62006728217898
 20
410.60031858214847
 11
585.71926242916049
 21
410.60031858214847
  0
TEXT
  8
_0-f_
 62
    2
 10
1297.7623940547858
 20
548.5868500244743
 40
12
 41
1
 50
0
  1
養生シート
  0
TEXT
  8
_0-f_
 62
    2
 10
1290.2303796460587
 20
529.90745429083177
 40
12
 41
1
 50
0
  1
（付属部品）
  0
LINE
  8
_0-f_
  6
CONTINUOUS
 62
    7
 10
1291.807473077741
 20
546.17660541368173
 11
1366.5250560123111
 21
546.17660541368173
  0
LINE
  8
_0-f_
  6
CONTINUOUS
 62
    7
 10
1291.807473077741
 20
546.17660541368173
 11
1274.3331996494946
 21
494.35634628164109
  0
LINE
  8
_0-f_
  6
CONTINUOUS
 62
    7
 10
1274.3331996494946
 20
494.35634628164109
 11
1275.7815565940764
 21
501.71516834506144
  0
LINE
  8
_0-f_
  6
CONTINUOUS
 62
    7
 10
1274.3331996494946
 20
494.35634628164109
 11
1277.6368083274851
 21
501.08956020240032
  0
LINE
  8
_0-f_
  6
CONTINUOUS
 62
    7
 10
652.62009782651523
 20
546.97184243831703
 11
652.62009782651523
 21
509.80331427168005
  0
LINE
  8
_0-f_
  6
CONTINUOUS
 62
    7
 10
652.62009782651523
 20
546.07184243831716
 11
767.6197460228093
 21
546.07184243831716
  0
LINE
  8
_0-f_
  6
CONTINUOUS
 62
    7
 10
652.62009782651523
 20
546.07184243831716
 11
660.05593428681868
 21
547.05078887996751
  0
LINE
  8
_0-f_
  6
CONTINUOUS
 62
    7
 10
652.62009782651523
 20
546.07184243831716
 11
660.05593428681868
 21
545.0928959966667
  0
LINE
  8
_0-f_
  6
CONTINUOUS
 62
    7
 10
767.6197460228093
 20
546.07184243831716
 11
760.18390956250562
 21
547.05078887996751
  0
LINE
  8
_0-f_
  6
CONTINUOUS
 62
    7
 10
767.6197460228093
 20
546.07184243831716
 11
760.18390956250562
 21
545.0928959966667
  0
TEXT
  8
_0-f_
 62
    2
 10
690.61992192466221
 20
549.07184243831716
 40
12
 41
1
 50
0
  1
１１５
  0
LINE
  8
_0-f_
  6
CONTINUOUS
 62
    7
 10
652.62009782651523
 20
523.54980919713398
 11
733.61986249626852
 21
523.54980919713398
  0
LINE
  8
_0-f_
  6
CONTINUOUS
 62
    7
 10
652.62009782651523
 20
523.54980919713398
 11
660.05593428681868
 21
524.52875563878433
  0
LINE
  8
_0-f_
  6
CONTINUOUS
 62
    7
 10
652.62009782651523
 20
523.54980919713398
 11
660.05593428681868
 21
522.57086275548352
  0
LINE
  8
_0-f_
  6
CONTINUOUS
 62
    7
 10
733.61986249626852
 20
523.54980919713398
 11
726.18402603596496
 21
524.52875563878433
  0
LINE
  8
_0-f_
  6
CONTINUOUS
 62
    7
 10
733.61986249626852
 20
523.54980919713398
 11
726.18402603596496
 21
522.57086275548352
  0
TEXT
  8
_0-f_
 62
    2
 10
680.36998016139182
 20
526.54980919713398
 40
12
 41
1
 50
0
  1
８１
  0
LINE
  8
_0-f_
  6
CONTINUOUS
 62
    7
 10
733.61986249626852
 20
524.44980919713396
 11
733.61986249626852
 21
394.33012366299693
  0
LINE
  8
_0-f_
  6
CONTINUOUS
 62
    7
 10
767.6197460228093
 20
546.97184243831703
 11
767.6197460228093
 21
394.79423887566224
  0
LINE
  8
_0-f_
  6
CONTINUOUS
 62
    7
 10
791.89303496839864
 20
390.77513958534882
 11
791.89303496839864
 21
471.77537509773623
  0
LINE
  8
_0-f_
  6
CONTINUOUS
 62
    7
 10
791.89303496839864
 20
390.77513958534882
 11
790.9140885267484
 21
398.21097604565244
  0
LINE
  8
_0-f_
  6
CONTINUOUS
 62
    7
 10
791.89303496839864
 20
390.77513958534882
 11
792.8719814100491
 21
398.21097604565244
  0
LINE
  8
_0-f_
  6
CONTINUOUS
 62
    7
 10
791.89303496839864
 20
471.77537509773623
 11
790.9140885267484
 21
464.33953863743261
  0
LINE
  8
_0-f_
  6
CONTINUOUS
 62
    7
 10
791.89303496839864
 20
471.77537509773623
 11
792.8719814100491
 21
464.33953863743261
  0
TEXT
  8
_0-f_
 62
    2
 10
788.89303496839864
 20
418.52525734154256
 40
12
 41
1
 50
90
  1
８１
  0
LINE
  8
_0-f_
  6
CONTINUOUS
 62
    7
 10
792.79303496839862
 20
471.77537509773623
 11
654.5788006384654
 21
471.77537509773623
  0
LINE
  8
_0-f_
  6
CONTINUOUS
 62
    7
 10
642.61976104594146
 20
247.88812361966222
 11
742.61978054655606
 21
247.88812361966222
  0
LINE
  8
_0-f_
  6
CONTINUOUS
 62
    7
 10
642.61976104594146
 20
247.88812361966222
 11
650.05559750624502
 21
248.86707006131263
  0
LINE
  8
_0-f_
  6
CONTINUOUS
 62
    7
 10
642.61976104594146
 20
247.88812361966222
 11
650.05559750624502
 21
246.90917717801182
  0
LINE
  8
_0-f_
  6
CONTINUOUS
 62
    7
 10
742.61978054655606
 20
247.88812361966222
 11
735.1839440862525
 21
248.86707006131263
  0
LINE
  8
_0-f_
  6
CONTINUOUS
 62
    7
 10
742.61978054655606
 20
247.88812361966222
 11
735.1839440862525
 21
246.90917717801182
  0
LINE
  8
_0-f_
  6
CONTINUOUS
 62
    7
 10
642.61976104594146
 20
246.98812361966225
 11
642.61976104594146
 21
268.05665969945596
  0
LINE
  8
_0-f_
  6
CONTINUOUS
 62
    7
 10
742.61978054655606
 20
246.98812361966225
 11
742.61978054655606
 21
268.05665969945596
  0
TEXT
  8
_0-f_
 62
    2
 10
673.11977079624876
 20
250.88812361966222
 40
12
 41
1
 50
0
  1
１００
  0
LINE
  8
_0-f_
  6
CONTINUOUS
 62
    7
 10
791.89303496839864
 20
358.98032147269419
 11
791.89303496839864
 21
390.77513958534882
  0
LINE
  8
_0-f_
  6
CONTINUOUS
 62
    7
 10
791.89303496839864
 20
358.98032147269419
 11
790.9140885267484
 21
366.41615793299775
  0
LINE
  8
_0-f_
  6
CONTINUOUS
 62
    7
 10
791.89303496839864
 20
358.98032147269419
 11
792.8719814100491
 21
366.41615793299775
  0
LINE
  8
_0-f_
  6
CONTINUOUS
 62
    7
 10
791.89303496839864
 20
390.77513958534882
 11
790.9140885267484
 21
383.33930312504526
  0
LINE
  8
_0-f_
  6
CONTINUOUS
 62
    7
 10
791.89303496839864
 20
390.77513958534882
 11
792.8719814100491
 21
383.33930312504526
  0
TEXT
  8
_0-f_
 62
    2
 10
788.89303496839864
 20
362.12773052902151
 40
12
 41
1
 50
90
  1
３２
  0
LINE
  8
_0-f_
  6
CONTINUOUS
 62
    7
 10
792.79303496839862
 20
358.98032147269419
 11
617.9136988379064
 21
358.98032147269419
  0
LINE
  8
_0-f_
  6
CONTINUOUS
 62
    7
 10
823.6076170715321
 20
270.77529500112314
 11
823.6076170715321
 21
390.77513958534882
  0
LINE
  8
_0-f_
  6
CONTINUOUS
 62
    7
 10
823.6076170715321
 20
270.77529500112314
 11
822.62867062988175
 21
278.2111314614267
  0
LINE
  8
_0-f_
  6
CONTINUOUS
 62
    7
 10
823.6076170715321
 20
270.77529500112314
 11
824.58656351318245
 21
278.2111314614267
  0
LINE
  8
_0-f_
  6
CONTINUOUS
 62
    7
 10
823.6076170715321
 20
390.77513958534882
 11
822.62867062988175
 21
383.33930312504526
  0
LINE
  8
_0-f_
  6
CONTINUOUS
 62
    7
 10
823.6076170715321
 20
390.77513958534882
 11
824.58656351318245
 21
383.33930312504526
  0
LINE
  8
_0-f_
  6
CONTINUOUS
 62
    7
 10
823.6076170715321
 20
390.77513958534882
 11
823.6076170715321
 21
505.7755802960462
  0
LINE
  8
_0-f_
  6
CONTINUOUS
 62
    7
 10
823.6076170715321
 20
390.77513958534882
 11
822.62867062988175
 21
398.21097604565244
  0
LINE
  8
_0-f_
  6
CONTINUOUS
 62
    7
 10
823.6076170715321
 20
390.77513958534882
 11
824.58656351318245
 21
398.21097604565244
  0
LINE
  8
_0-f_
  6
CONTINUOUS
 62
    7
 10
823.6076170715321
 20
505.7755802960462
 11
822.62867062988175
 21
498.33974383574269
  0
LINE
  8
_0-f_
  6
CONTINUOUS
 62
    7
 10
823.6076170715321
 20
505.7755802960462
 11
824.58656351318245
 21
498.33974383574269
  0
TEXT
  8
_0-f_
 62
    2
 10
820.6076170715321
 20
428.77535994069757
 40
12
 41
1
 50
90
  1
１１５
  0
LINE
  8
_0-f_
  6
CONTINUOUS
 62
    7
 10
824.5076170715322
 20
505.7755802960462
 11
655.97114627646124
 21
505.7755802960462
  0
LINE
  8
_0-f_
  6
CONTINUOUS
 62
    7
 10
824.5076170715322
 20
390.77513958534882
 11
771.73758441288953
 21
390.77513958534882
  0
LINE
  8
_0-f_
  6
CONTINUOUS
 62
    7
 10
824.5076170715322
 20
270.77529500112314
 11
747.76213267320998
 21
270.77529500112314
  0
TEXT
  8
_0-f_
 62
    2
 10
820.6076170715321
 20
304.52521729323593
 40
12
 41
1
 50
90
  1
Ｃ（※）
  0
LINE
  8
_0-f_
  6
CONTINUOUS
 62
    7
 10
586.52508596055861
 20
409.55976381445799
 11
585.69774267231219
 21
402.10553661887343
  0
LINE
  8
_0-f_
  6
CONTINUOUS
 62
    7
 10
586.52508596055861
 20
409.55976381445799
 11
587.65522967597292
 21
402.14540105138065
  0
LINE
  8
_0-f_
  6
CONTINUOUS
 62
    7
 10
586.51449155426735
 20
410.60031858214847
 11
585.535545112617
 21
418.03615504245204
  0
LINE
  8
_0-f_
  6
CONTINUOUS
 62
    7
 10
586.51449155426735
 20
410.60031858214847
 11
587.49343799591782
 21
418.03615504245204
  0
ARC
  8
_0-f_
  6
CONTINUOUS
 62
    7
 10
637.62006728217898
 20
410.60031858214847
 40
51.1055757279115
 50
169.81786045516873
 51
194.15533099516125
  0
TEXT
  8
_0-f_
 62
    2
 10
826.09027487573803
 20
532.76026012311127
 40
12
 41
1
 50
0
  1
樹脂系塗装
  0
LINE
  8
_0-f_
  6
CONTINUOUS
 62
    7
 10
752.39847115979023
 20
211.31221245802419
 11
878.89275438958543
 21
211.31221245802419
  0
LINE
  8
_0-f_
  6
CONTINUOUS
 62
    7
 10
751.17673418616209
 20
160.610128052454
 11
902.39967808949382
 21
160.610128052454
  0
TEXT
  8
_0-f_
 62
    2
 10
755.90549300334078
 20
215.68671897470801
 40
12
 41
1
 50
0
  1
スチール製蝶ナット
  0
TEXT
  8
_0-f_
 62
    2
 10
754.68375602971264
 20
164.98463456913782
 40
12
 41
1
 50
0
  1
スチール製長ねじボルト
  0
TEXT
  8
_0-f_
 62
    2
 10
776.15549300334078
 20
194.98618652894811
 40
12
 41
1
 50
0
  1
Ｍ６
  0
TEXT
  8
_0-f_
 62
    2
 10
774.93375602971264
 20
144.28410212337792
 40
12
 41
1
 50
0
  1
Ｍ６
  0
TEXT
  8
_0-f_
 62
    2
 10
495.67551762053466
 20
228.51495719780399
 40
12
 41
1
 50
0
  1
固定金具：ＳＧＨＣ
  0
TEXT
  8
_0-f_
 62
    2
 10
805.84027487573803
 20
553.46079256887106
 40
12
 41
1
 50
0
  1
ストレーナー：ＦＣ１５０
  0
TEXT
  8
_0-f_
 62
    2
 10
718.75719853405053
 20
577.1539308139885
 40
12
 41
1
 50
0
  1
樹脂系塗装
  0
TEXT
  8
_0-f_
 62
    2
 10
698.50719853405053
 20
597.8544632597484
 40
12
 41
1
 50
0
  1
本体：ＦＣ１５０
  0
LINE
  8
_0-f_
  6
CONTINUOUS
 62
    7
 10
695.00017669049998
 20
593.47995674306458
 11
805.7839240663734
 21
593.47995674306458
  0
LINE
  8
_0-f_
  6
CONTINUOUS
 62
    7
 10
802.33325303218771
 20
549.08628605218723
 11
966.94057674649753
 21
549.08628605218723
  0
LINE
  8
_0-f_
  6
CONTINUOUS
 62
    7
 10
492.16849577698417
 20
224.14045068112017
 11
614.17195279932503
 21
224.14045068112017
  0
LINE
  8
_0-f_
  6
CONTINUOUS
 62
    7
 10
614.17195279932503
 20
224.14045068112017
 11
642.61976104594146
 21
270.77529500112314
  0
LINE
  8
_0-f_
  6
CONTINUOUS
 62
    7
 10
642.61976104594146
 20
270.77529500112314
 11
639.58315160632287
 21
263.91752545766224
  0
LINE
  8
_0-f_
  6
CONTINUOUS
 62
    7
 10
642.61976104594146
 20
270.77529500112314
 11
637.91170019908907
 21
264.93713064386696
  0
LINE
  8
_0-f_
  6
CONTINUOUS
 62
    7
 10
752.39847115979023
 20
211.31221245802419
 11
705.11992253661901
 21
275.77539316820406
  0
LINE
  8
_0-f_
  6
CONTINUOUS
 62
    7
 10
705.11992253661901
 20
275.77539316820406
 11
710.30693658104155
 21
270.3583012082164
  0
LINE
  8
_0-f_
  6
CONTINUOUS
 62
    7
 10
705.11992253661901
 20
275.77539316820406
 11
708.72814679513442
 21
269.20038611875827
  0
LINE
  8
_0-f_
  6
CONTINUOUS
 62
    7
 10
692.6197460228093
 20
273.77525941692011
 11
696.90645682935474
 21
267.62106487489871
  0
LINE
  8
_0-f_
  6
CONTINUOUS
 62
    7
 10
692.6197460228093
 20
273.77525941692011
 11
695.16756794594289
 21
266.72128157119363
  0
LINE
  8
_0-f_
  6
CONTINUOUS
 62
    7
 10
751.17673418616209
 20
160.610128052454
 11
704.81369060786506
 21
250.20968024182039
  0
LINE
  8
_0-f_
  6
CONTINUOUS
 62
    7
 10
698.54373198147584
 20
262.32677700276952
 11
692.6197460228093
 21
273.77525941692011
  0
LINE
  8
_0-f_
  6
CONTINUOUS
 62
    7
 10
695.00017669049998
 20
593.47995674306458
 11
646.47080479507861
 21
505.7755802960462
  0
LINE
  8
_0-f_
  6
CONTINUOUS
 62
    7
 10
646.47080479507861
 20
505.7755802960462
 11
649.21432936096699
 21
512.75577176593924
  0
LINE
  8
_0-f_
  6
CONTINUOUS
 62
    7
 10
646.47080479507861
 20
505.7755802960462
 11
650.92745251919905
 21
511.80785110090005
  0
LINE
  8
_0-f_
  6
CONTINUOUS
 62
    7
 10
802.33325303218771
 20
549.08628605218723
 11
693.60533935988485
 21
429.78990581832562
  0
LINE
  8
_0-f_
  6
CONTINUOUS
 62
    7
 10
693.60533935988485
 20
429.78990581832562
 11
697.89067234263234
 21
435.94505985595771
  0
LINE
  8
_0-f_
  6
CONTINUOUS
 62
    7
 10
693.60533935988485
 20
429.78990581832562
 11
699.33772425264772
 21
434.6262022775208
  0
TEXT
  8
_f-4_
 62
    2
 10
740.49314046960433
 20
51.491132658984696
 40
12
 41
1
 50
0
  1
鋳鉄製ルーフドレン　防水層塗掛け幅25mm　デッキプレート打込型　ねじ込み式
  0
TEXT
  8
_f-4_
 62
    2
 10
740.49314046960433
 20
37.567951978343757
 40
12
 41
1
 50
0
  1
塗膜防水用　立ち上がり部用打込金具付　ＷＤＵＴＸＴ－７５　Ｃ＝指示、Ｌ＝指示
  0
LINE
  8
_0-0_
  6
CONTINUOUS
 62
    3
 10
1380.2709476703146
 20
889.26615788440472
 11
1327.6804305023916
 21
889.26615788440472
  0
LINE
  8
_0-2_
  6
CONTINUOUS
 62
    6
 10
1311.6809706870904
 20
993.26639339679195
 11
1312.6809257944365
 21
993.26639339679195
  0
LINE
  8
_0-2_
  6
CONTINUOUS
 62
    6
 10
1394.6806137846031
 20
911.26611084408023
 11
1394.6806137846031
 21
910.26615573673371
  0
LINE
  8
_0-2_
  6
CONTINUOUS
 62
    6
 10
1334.5729168979144
 20
962.42058764317983
 11
1316.3349585568831
 21
963.1222705403278
  0
LINE
  8
_0-2_
  6
CONTINUOUS
 62
    6
 10
1340.7240628035161
 20
959.66379930838855
 11
1344.337615766007
 21
961.60960433146397
  0
LINE
  8
_0-2_
  6
CONTINUOUS
 62
    6
 10
1348.199497684896
 20
952.18816623949374
 11
1350.145302707971
 21
955.80181829574235
  0
LINE
  8
_0-2_
  6
CONTINUOUS
 62
    6
 10
1337.9161420898338
 20
960.95984656326755
 11
1391.3796025333968
 21
907.49638611970454
  0
LINE
  8
_0-2_
  6
CONTINUOUS
 62
    6
 10
1353.6026839085778
 20
946.78507910956955
 11
1357.2163359648262
 21
948.73068594513006
  0
LINE
  8
_0-2_
  6
CONTINUOUS
 62
    6
 10
1386.3708094647282
 20
914.01675536590392
 11
1388.3166144878035
 21
917.63011014087988
  0
LINE
  8
_0-2_
  6
CONTINUOUS
 62
    6
 10
1374.4394255880011
 20
902.47193623734461
 11
1374.162854910704
 21
903.85469053007205
  0
LINE
  8
_0-2_
  6
CONTINUOUS
 62
    6
 10
1344.1939298175726
 20
961.53221210682443
 11
1344.3045184509881
 21
961.64260255272518
  0
LINE
  8
_0-2_
  6
CONTINUOUS
 62
    6
 10
1338.6808486167777
 20
967.26637148069335
 11
1316.5272004465128
 21
968.11857779554612
  0
LINE
  8
_0-2_
  6
CONTINUOUS
 62
    6
 10
1312.6809257944365
 20
993.26639339679195
 11
1394.6806137846031
 21
911.26611084408023
  0
LINE
  8
_0-2_
  6
CONTINUOUS
 62
    6
 10
1307.6810016170682
 20
987.95338249247243
 11
1307.6808034295532
 21
981.26663482736171
  0
LINE
  8
_0-2_
  6
CONTINUOUS
 62
    6
 10
1371.9485058046923
 20
916.33138735454713
 11
1377.1079213848232
 21
921.76806726827795
  0
LINE
  8
_0-2_
  6
CONTINUOUS
 62
    6
 10
1354.1851570154038
 20
912.09007543803386
 11
1370.9123814758434
 21
927.96360717725759
  0
LINE
  8
_0-2_
  6
CONTINUOUS
 62
    6
 10
1340.9407808512583
 20
916.33118916703211
 11
1361.1980222365819
 21
937.67796641651933
  0
LINE
  8
_0-2_
  6
CONTINUOUS
 62
    6
 10
1355.0024823276021
 20
943.87350632549919
 11
1323.6977733828176
 21
914.16648603354838
  0
LINE
  8
_0-2_
  6
CONTINUOUS
 62
    6
 10
1345.2881230883404
 20
953.5878655647607
 11
1315.5810532495111
 21
922.28315661997613
  0
LINE
  8
_0-2_
  6
CONTINUOUS
 62
    6
 10
1317.7458554767522
 20
939.52616408841686
 11
1339.0925831793604
 21
959.78340547374046
  0
LINE
  8
_0-2_
  6
CONTINUOUS
 62
    6
 10
1313.504741747754
 20
952.77054025256223
 11
1323.0818065859426
 21
962.86264489557027
  0
LINE
  8
_0-2_
  6
CONTINUOUS
 62
    6
 10
1374.1247038140507
 20
911.26620993783786
 11
1384.7955160010983
 21
911.26620993783786
  0
LINE
  8
_0-2_
  6
CONTINUOUS
 62
    6
 10
1343.1167806731016
 20
911.26630903159526
 11
1352.1200431082486
 21
911.26630903159526
  0
LINE
  8
_0-2_
  6
CONTINUOUS
 62
    6
 10
1312.6808267006791
 20
941.70226300401771
 11
1312.6808267006791
 21
950.70542634540743
  0
LINE
  8
_0-2_
  6
CONTINUOUS
 62
    6
 10
1307.6807043357953
 20
927.26648259295666
 11
1307.6808034295532
 21
975.26650780825275
  0
LINE
  8
_0-2_
  6
CONTINUOUS
 62
    6
 10
1383.9549036558778
 20
901.26636158310043
 11
1394.6806137846031
 21
910.26615573673371
  0
LINE
  8
_0-2_
  6
CONTINUOUS
 62
    6
 10
1328.6807029807676
 20
906.26633530734784
 11
1389.9136094843345
 21
906.26613711983282
  0
ARC
  8
_0-2_
  6
CONTINUOUS
 62
    6
 10
1316.68084531758
 20
972.11552450596332
 40
9.000000082848155
 50
179.99989318847656
 51
267.79736328125
  0
ARC
  8
_0-2_
  6
CONTINUOUS
 62
    6
 10
1334.3806750082852
 20
957.42428038796152
 40
5.0000000460267522
 50
44.99969482421875
 51
87.796783447265611
  0
ARC
  8
_0-2_
  6
CONTINUOUS
 62
    6
 10
1340.0129659994018
 20
960.98442181513769
 40
1.5000000138080258
 50
225.00100708007812
 51
298.30215454101562
  0
ARC
  8
_0-2_
  6
CONTINUOUS
 62
    6
 10
1349.5202192854026
 20
951.47706943537946
 40
1.5000000138080258
 50
151.69929504394534
 51
224.99966430664062
  0
ARC
  8
_0-2_
  6
CONTINUOUS
 62
    6
 10
1352.891587104463
 20
948.1057016163187
 40
1.5000000138080258
 50
224.99899291992187
 51
298.30003356933594
  0
ARC
  8
_0-2_
  6
CONTINUOUS
 62
    6
 10
1309.1809342780875
 20
987.95338249247243
 40
1.5000000138080258
 50
140.00024414062497
 51
179.9996643066406
  0
ARC
  8
_0-2_
  6
CONTINUOUS
 62
    6
 10
1387.6915310652348
 20
913.30546037427439
 40
1.5000000138080258
 50
151.69929504394534
 51
224.99966430664062
  0
ARC
  8
_0-2_
  6
CONTINUOUS
 62
    6
 10
1371.2211576243412
 20
903.26627179779337
 40
3.0000000276160517
 50
11.309844970703125
 51
90
  0
ARC
  8
_0-2_
  6
CONTINUOUS
 62
    6
 10
1316.68084531758
 20
972.11552450596332
 40
4.0000000368214019
 50
180
 51
267.79757690429687
  0
ARC
  8
_0-2_
  6
CONTINUOUS
 62
    6
 10
1304.6808885606349
 20
969.8070363302877
 40
3.0000000276160517
 50
0
 51
63.325134277343743
  0
ARC
  8
_0-2_
  6
CONTINUOUS
 62
    6
 10
1374.1247038140507
 20
914.26617435363448
 40
3.0000000276160517
 50
136.50001525878906
 51
269.99966430664062
  0
ARC
  8
_0-2_
  6
CONTINUOUS
 62
    6
 10
1343.1167806731016
 20
914.26617435363448
 40
3.0000000276160517
 50
136.50001525878906
 51
269.99966430664062
  0
ARC
  8
_0-2_
  6
CONTINUOUS
 62
    6
 10
1352.1200431082486
 20
914.26617435363448
 40
3.0000000276160517
 50
270.00033569335937
 51
313.49998474121094
  0
ARC
  8
_0-2_
  6
CONTINUOUS
 62
    6
 10
1315.680791116476
 20
941.70226300401771
 40
3.0000000276160517
 50
180.0003356933594
 51
313.49998474121099
  0
ARC
  8
_0-2_
  6
CONTINUOUS
 62
    6
 10
1315.680791116476
 20
950.70542634540743
 40
3.0000000276160517
 50
136.50001525878906
 51
179.99966430664062
  0
ARC
  8
_0-2_
  6
CONTINUOUS
 62
    6
 10
1384.7955160010983
 20
914.26617435363448
 40
3.0000000276160517
 50
269.99949645996094
 51
312.4908447265625
  0
ARC
  8
_0-2_
  6
CONTINUOUS
 62
    6
 10
1328.6808020745252
 20
927.26638349919904
 40
21.00000019331236
 50
179.999755859375
 51
269.99980163574219
  0
ARC
  8
_0-2_
  6
CONTINUOUS
 62
    6
 10
1317.7572017119905
 20
920.21814180657861
 40
3.0000000276160517
 50
136.50001525878906
 51
212.83174133300778
  0
ARC
  8
_0-2_
  6
CONTINUOUS
 62
    6
 10
1328.6808020745252
 20
927.26638349919904
 40
16.000000147285608
 50
212.83175659179687
 51
237.16995239257812
  0
ARC
  8
_0-2_
  6
CONTINUOUS
 62
    6
 10
1321.6326594756626
 20
916.34258494914934
 40
3.0000000276160517
 50
237.16978454589841
 51
313.49998474121094
  0
ARC
  8
_0-2_
  6
CONTINUOUS
 62
    6
 10
1375.9103733249399
 20
902.76634379099892
 40
1.5000000138080258
 50
191.31015014648435
 51
270
  0
LINE
  8
_0-2_
  6
CONTINUOUS
 62
    6
 10
1312.6808573613357
 20
964.05326068981537
 11
1312.6809257944365
 21
993.26639339679195
  0
ARC
  8
_0-2_
  6
CONTINUOUS
 62
    6
 10
1328.9034031041997
 20
966.14129987547301
 40
1.5
 50
87.79723943699608
 51
130.00000000000011
  0
LINE
  8
_0-2_
  6
CONTINUOUS
 62
    6
 10
1312.6809000265093
 20
982.26642604536119
 11
1307.6808330638296
 21
982.2664805087619
  0
LINE
  8
_0-2_
  6
CONTINUOUS
 62
    6
 10
1312.6808812861432
 20
974.26642604509072
 11
1307.680595953025
 21
974.26648051087011
  0
LINE
  8
_0-2_
  6
CONTINUOUS
 62
    6
 10
1322.6808546085144
 20
962.87807266175901
 11
1328.3827359302859
 21
967.66251917587419
  0
LINE
  8
_0-0_
  6
CONTINUOUS
 62
    3
 10
1326.6804305023916
 20
889.30386055348833
 11
1327.6804305023916
 21
889.26615788440472
  0
LINE
  8
_0-0_
  6
CONTINUOUS
 62
    3
 10
1306.6809587864132
 20
973.26646244158633
 11
1298.6809710994899
 21
963.73242906760993
  0
ARC
  8
_0-0_
  6
CONTINUOUS
 62
    3
 10
1306.1808590124429
 20
1001.996389459994
 40
3
 50
319.99996880183375
 51
0
  0
ARC
  8
_0-0_
  6
CONTINUOUS
 62
    3
 10
1310.6808491148497
 20
1000.3585102228672
 40
3
 50
319.99996880183375
 51
359.99999999999994
  0
ARC
  8
_0-0_
  6
CONTINUOUS
 62
    3
 10
1375.2266268719609
 20
899.76612734006835
 40
1.5
 50
90
 51
129.99999999999974
  0
ARC
  8
_0-0_
  6
CONTINUOUS
 62
    3
 10
1387.0252300739653
 20
902.76612734006835
 40
1.5
 50
270
 51
310.00003119816608
  0
ARC
  8
_0-0_
  6
CONTINUOUS
 62
    3
 10
1401.7724089389094
 20
909.26615788440461
 40
3
 50
90
 51
130.00003119816608
  0
ARC
  8
_0-0_
  6
CONTINUOUS
 62
    3
 10
1383.3897283468878
 20
895.79935215105525
 40
3
 50
273.52146696894749
 51
310.00003119816597
  0
ARC
  8
_0-0_
  6
CONTINUOUS
 62
    3
 10
1381.6331828768737
 20
900.19976935110367
 40
3
 50
273.52146696894749
 51
310.00003119816608
  0
ARC
  8
_0-0_
  6
CONTINUOUS
 62
    3
 10
1379.1790360425491
 20
892.26615788440472
 40
3
 50
270
 51
310.00003119816603
  0
ARC
  8
_0-0_
  6
CONTINUOUS
 62
    3
 10
1344.0761540984122
 20
887.26615788440472
 40
2
 50
12.528807709151556
 51
90
  0
LINE
  8
_0-0_
  6
CONTINUOUS
 62
    3
 10
1347.4194741304168
 20
881.4407621976768
 11
1346.0285282187799
 21
887.7000188000419
  0
ARC
  8
_0-0_
  6
CONTINUOUS
 62
    3
 10
1348.8837547206927
 20
881.76615788440472
 40
1.5
 50
192.52880770915152
 51
270
  0
LINE
  8
_0-0_
  6
CONTINUOUS
 62
    3
 10
1348.8837547206927
 20
880.26615788440472
 11
1359.1345419597442
 21
880.26615788440472
  0
ARC
  8
_0-0_
  6
CONTINUOUS
 62
    3
 10
1359.1345419597442
 20
881.76615788440472
 40
1.5
 50
270
 51
310
  0
ARC
  8
_0-0_
  6
CONTINUOUS
 62
    3
 10
1313.6808185705136
 20
908.04076981049207
 40
15
 50
180
 51
273.52146696894749
  0
ARC
  8
_0-0_
  6
CONTINUOUS
 62
    3
 10
1418.5076047430869
 20
902.76616778199752
 40
5
 50
10.302699158709302
 51
90.000000000000014
  0
ARC
  8
_0-0_
  6
DASHED2
 62
    3
 10
1313.6808185705136
 20
908.04076981049207
 40
19.5
 50
180
 51
273.52146696894755
  0
ARC
  8
_0-0_
  6
CONTINUOUS
 62
    3
 10
1304.1808590124426
 20
1014.3989594038513
 40
5
 50
0
 51
43.000000000000021
  0
LINE
  8
_0-0_
  6
CONTINUOUS
 62
    3
 10
1309.1808590124429
 20
1016.3685117819261
 11
1303.6808656108378
 21
1022.2665326111493
  0
LINE
  8
_0-0_
  6
CONTINUOUS
 62
    3
 10
1309.1808590124429
 20
1016.3685117819261
 11
1309.1808590124429
 21
1001.996389459994
  0
LINE
  8
_0-0_
  6
PHANTOM1
 62
    3
 10
1382.8080174002755
 20
897.26639199054512
 11
1382.3513328479198
 21
897.23828821703694
  0
LINE
  8
_0-0_
  6
PHANTOM1
 62
    3
 10
1382.8030821192392
 20
897.26520880211547
 11
1383.1453347056399
 21
897.55239313870811
  0
LINE
  8
_0-0_
  6
CONTINUOUS
 62
    3
 10
1360.0987233742744
 20
880.61709121972626
 11
1370.4062796444919
 21
889.26615788440472
  0
LINE
  8
_0-0_
  6
CONTINUOUS
 62
    3
 10
1298.6808185705136
 20
908.04076981049207
 11
1298.6808185705136
 21
972.34967319385521
  0
LINE
  8
_0-0_
  6
CONTINUOUS
 62
    3
 10
1423.4269878111434
 20
903.66041060680436
 11
1423.6804313271912
 21
902.26617438039273
  0
LINE
  8
_0-0_
  6
CONTINUOUS
 62
    3
 10
1380.2709476703146
 20
889.26615788440472
 11
1401.4819240956185
 21
907.06430006133985
  0
LINE
  8
_0-0_
  6
PHANTOM1
 62
    3
 10
1384.5607586602305
 20
892.86574068435618
 11
1384.0769958489204
 21
892.83597055000337
  0
ARC
  8
_0-0_
  6
DASHED2
 62
    3
 10
1297.1808185705136
 20
981.93623388677486
 40
3
 50
139.99996880183403
 51
180.00000000000003
  0
LINE
  8
_0-0_
  6
CONTINUOUS
 62
    3
 10
1295.3327656366996
 20
984.40098105103425
 11
1308.478991291785
 21
1000.0680253795767
  0
LINE
  8
_0-0_
  6
DASHED2
 62
    3
 10
1294.8826862911712
 20
983.86459796719248
 11
1295.3327656366996
 21
984.40098105103425
  0
LINE
  8
_0-0_
  6
CONTINUOUS
 62
    3
 10
1311.6808491148499
 20
1027.2665985951021
 11
1303.6808656108378
 21
1027.2665985951021
  0
ARC
  8
_0-0_
  6
CONTINUOUS
 62
    3
 10
1311.6808491148499
 20
1025.2665985951021
 40
2
 50
0
 51
90
  0
LINE
  8
_0-0_
  6
PHANTOM1
 62
    3
 10
1313.6808491148497
 20
1027.2665985951021
 11
1312.8334780207297
 21
1027.2665985951021
  0
ARC
  8
_0-0_
  6
CONTINUOUS
 62
    3
 10
1372.2261308158227
 20
884.26615788440472
 40
5
 50
90
 51
129.99999999999977
  0
ARC
  8
_0-0_
  6
CONTINUOUS
 62
    3
 10
1366.9417802426865
 20
901.29946296974333
 40
5
 50
273.52146696894755
 51
309.99999999999972
  0
LINE
  8
_0-0_
  6
CONTINUOUS
 62
    3
 10
1374.2624454574313
 20
900.91519400474681
 11
1370.155718291119
 21
897.46924075414859
  0
LINE
  8
_0-0_
  6
CONTINUOUS
 62
    3
 10
1428.6804973111439
 20
910.26615788440472
 11
1428.6804973111439
 21
902.26617438039273
  0
ARC
  8
_0-0_
  6
CONTINUOUS
 62
    3
 10
1426.6804973111439
 20
910.26615788440472
 40
2
 50
0
 51
90
  0
ARC
  8
_0-0_
  6
CONTINUOUS
 62
    3
 10
1285.9989361025439
 20
890.32444678265188
 40
4.0000000368214019
 50
197.11198425292972
 51
271.16665649414062
  0
ARC
  8
_0-0_
  6
CONTINUOUS
 62
    3
 10
1284.3089416145608
 20
973.30724394138269
 40
4.0000000368214019
 50
91.166656494140625
 51
165.22134399414062
  0
LINE
  8
_0-0_
  6
CONTINUOUS
 62
    3
 10
1286.1927139454156
 20
977.34642936595185
 11
1284.2275360927406
 21
977.30642026134456
  0
ARC
  8
_0-0_
  6
CONTINUOUS
 62
    3
 10
1286.2741690141142
 20
973.34727781942934
 40
4.0000000368214019
 50
17.111984252929688
 51
91.166488647460952
  0
LINE
  8
_0-0_
  6
CONTINUOUS
 62
    3
 10
1290.0970575394106
 20
974.52423915118334
 11
1290.371993169708
 21
973.63133007542069
  0
ARC
  8
_0-0_
  6
CONTINUOUS
 62
    3
 10
1292.2834126589171
 20
974.21982312801742
 40
2.000000018410701
 50
197.11238098144531
 51
271.16683959960937
  0
ARC
  8
_0-0_
  6
CONTINUOUS
 62
    3
 10
1292.268589264243
 20
986.97213315825763
 40
4
 50
271.16665167682419
 51
319.99996880183386
  0
LINE
  8
_0-0_
  6
CONTINUOUS
 62
    3
 10
1292.3241401932662
 20
972.22023496803649
 11
1298.6808185705136
 21
972.34967319385521
  0
LINE
  8
_0-0_
  6
PHANTOM1
 62
    3
 10
1291.0621111460064
 20
886.42671920528755
 11
1290.0735404026591
 21
886.40659286902337
  0
LINE
  8
_0-0_
  6
PHANTOM1
 62
    3
 10
1291.4719366756228
 20
887.98021210039167
 11
1291.0621111460064
 21
886.42671920528755
  0
LINE
  8
_0-0_
  6
CONTINUOUS
 62
    3
 10
1288.0454966552475
 20
886.36530387610708
 11
1286.0803416243639
 21
886.32529523612948
  0
ARC
  8
_0-0_
  6
CONTINUOUS
 62
    3
 10
1287.9640774280874
 20
890.36447515394059
 40
4
 50
271.16632506960411
 51
345.22154911657509
  0
LINE
  8
_0-0_
  6
CONTINUOUS
 62
    3
 10
1282.1759980303689
 20
889.14748545089753
 11
1281.9136158387171
 21
889.99970309874857
  0
LINE
  8
_0-0_
  6
CONTINUOUS
 62
    3
 10
1292.0862603433982
 20
890.30887975093106
 11
1291.8317550046745
 21
889.34414669527428
  0
LINE
  8
_0-0_
  6
CONTINUOUS
 62
    3
 10
1293.8972541202997
 20
891.79493923230143
 11
1381.8174503939617
 21
897.20543378504794
  0
ARC
  8
_0-0_
  6
CONTINUOUS
 62
    3
 10
1294.0200991316917
 20
889.79871552159761
 40
2
 50
93.521466968947465
 51
165.22154911657469
  0
LINE
  8
_0-0_
  6
PHANTOM1
 62
    3
 10
1292.3366236759025
 20
891.25791203450808
 11
1292.454880152711
 21
891.70617741390913
  0
LINE
  8
_0-0_
  6
PHANTOM1
 62
    3
 10
1292.7935902912948
 20
891.72702119540008
 11
1292.454880152711
 21
891.70617741390913
  0
ARC
  8
_0-0_
  6
CONTINUOUS
 62
    3
 10
1296.2458043464974
 20
891.03324631650776
 40
10
 50
271.16667341712372
 51
296.32959874552182
  0
ARC
  8
_0-0_
  6
CONTINUOUS
 62
    3
 10
1317.6221121380881
 20
873.71804767298408
 40
15
 50
93.521466968947465
 51
116.32959874552185
  0
LINE
  8
_0-0_
  6
PHANTOM1
 62
    3
 10
1313.6808491148497
 20
888.50388321874311
 11
1314.636633527454
 21
888.56270094865249
  0
LINE
  8
_0-0_
  6
PHANTOM1
 62
    3
 10
1313.6808491148497
 20
888.50388321874311
 11
1312.4806135954097
 21
887.90991819163014
  0
LINE
  8
_0-0_
  6
CONTINUOUS
 62
    3
 10
1310.9690983491614
 20
887.16190900536753
 11
1300.6811468724486
 21
882.07067209491902
  0
LINE
  8
_0-0_
  6
CONTINUOUS
 62
    3
 10
1316.700774552648
 20
888.68972550326271
 11
1383.5739958639758
 21
892.80501658499952
  0
LINE
  8
_0-0_
  6
PHANTOM1
 62
    3
 10
1400.2074114826032
 20
911.86919130118724
 11
1400.6804973111439
 21
912.26615788440461
  0
LINE
  8
_0-0_
  6
CONTINUOUS
 62
    3
 10
1383.5615469572913
 20
897.90163707176134
 11
1399.8440448584915
 21
911.56429016374705
  0
LINE
  8
_0-0_
  6
CONTINUOUS
 62
    3
 10
1260.7271046637356
 20
881.80813107206109
 11
1268.7254463349816
 21
881.97101296186963
  0
LINE
  8
_0-0_
  6
CONTINUOUS
 62
    3
 10
1258.711388994715
 20
980.78763351063958
 11
1266.7097306659609
 21
980.95051540044801
  0
LINE
  8
_0-0_
  6
CONTINUOUS
 62
    3
 10
1266.6791899710606
 20
982.4501826560147
 11
1266.7097306659609
 21
980.95051540044801
  0
LINE
  8
_0-0_
  6
CONTINUOUS
 62
    3
 10
1266.6791899710606
 20
982.4501826560147
 11
1292.3500312881633
 21
982.97296234460896
  0
ARC
  8
_0-0_
  6
CONTINUOUS
 62
    3
 10
1278.2829511247335
 20
973.9867793837202
 40
2.000000018410701
 50
333.32924928994709
 51
345.2216796875
  0
LINE
  8
_0-0_
  6
CONTINUOUS
 62
    3
 10
1280.4413122577346
 20
974.32758758934324
 11
1280.2168101657883
 21
973.47661452507054
  0
ARC
  8
_0-0_
  6
CONTINUOUS
 62
    3
 10
1280.0055970058265
 20
889.40014975918803
 40
2.000000018410701
 50
17.112045288085937
 51
29.004595598657598
  0
LINE
  8
_0-0_
  6
CONTINUOUS
 62
    3
 10
1387.0252300739653
 20
901.26612734006835
 11
1375.2266268719609
 21
901.26612734006835
  0
LINE
  8
_0-0_
  6
CONTINUOUS
 62
    3
 10
1268.7254463349816
 20
881.97101296186963
 11
1268.755987150739
 21
880.47133977175008
  0
LINE
  8
_0-0_
  6
CONTINUOUS
 62
    3
 10
1296.449413199909
 20
881.03531935964259
 11
1268.755987150739
 21
880.47133977175008
  0
LINE
  8
_0-0_
  6
CONTINUOUS
 62
    3
 10
1263.5800496607478
 20
889.05964966911972
 11
1281.7547586590426
 21
890.36990930905654
  0
LINE
  8
_0-0_
  6
CONTINUOUS
 62
    3
 10
1262.0526069248358
 20
887.46870054903138
 11
1282.2447195512236
 21
888.92435108235463
  0
LINE
  8
_0-0_
  6
CONTINUOUS
 62
    3
 10
1298.6809710994899
 20
981.26645678851787
 11
1306.6809587864132
 21
981.26645678851787
  0
LINE
  8
_0-0_
  6
CONTINUOUS
 62
    3
 10
1297.6809664452646
 20
980.39651269106525
 11
1297.6809664452646
 21
976.13647205437667
  0
LINE
  8
_0-0_
  6
CONTINUOUS
 62
    3
 10
1297.6809664452646
 20
980.39651269106525
 11
1296.4511633673019
 21
978.2664923727209
  0
LINE
  8
_0-0_
  6
CONTINUOUS
 62
    3
 10
1297.6809664452646
 20
976.13647205437667
 11
1296.4511633673019
 21
978.2664923727209
  0
LINE
  8
_0-0_
  6
CONTINUOUS
 62
    3
 10
1298.6809710994899
 20
975.26652795692405
 11
1306.6809587864132
 21
975.26652795692405
  0
LINE
  8
_0-0_
  6
CONTINUOUS
 62
    3
 10
1298.6809710994899
 20
975.26652795692405
 11
1298.6809710994899
 21
981.26645678851787
  0
LINE
  8
_0-0_
  6
CONTINUOUS
 62
    3
 10
1306.6809587864132
 20
980.39651269106525
 11
1297.6809664452646
 21
980.39651269106525
  0
LINE
  8
_0-0_
  6
CONTINUOUS
 62
    3
 10
1306.6809587864132
 20
976.13647205437667
 11
1297.6809664452646
 21
976.13647205437667
  0
LINE
  8
_0-0_
  6
CONTINUOUS
 62
    3
 10
1281.7547586590426
 20
890.36990930905654
 11
1280.0701524364772
 21
973.08905362105963
  0
LINE
  8
_0-0_
  6
CONTINUOUS
 62
    3
 10
1283.0357850176736
 20
887.63744522660875
 11
1281.2389542865503
 21
975.87145495072389
  0
LINE
  8
_0-0_
  6
CONTINUOUS
 62
    3
 10
1291.0341378089593
 20
887.80034793138407
 11
1289.2372934195485
 21
976.03426387307593
  0
LINE
  8
_0-0_
  6
CONTINUOUS
 62
    3
 10
1292.468037477603
 20
891.06010547791857
 11
1290.8018409968461
 21
972.87634053274803
  0
ARC
  8
_0-0_
  6
CONTINUOUS
 62
    3
 10
1403.4102881760361
 20
904.76616778199764
 40
3
 50
90
 51
130.000031198166
  0
LINE
  8
_0-0_
  6
CONTINUOUS
 62
    3
 10
1418.5076047430869
 20
907.76616778199764
 11
1403.4102881760361
 21
907.76616778199764
  0
LINE
  8
_0-0_
  6
CONTINUOUS
 62
    3
 10
1428.6804973111439
 20
902.26617438039273
 11
1395.7637469009164
 21
902.26617438039273
  0
LINE
  8
_0-0_
  6
CONTINUOUS
 62
    3
 10
1303.6808656108378
 20
1027.2665985951021
 11
1303.6808656108378
 21
994.34984818487476
  0
LINE
  8
_0-0_
  6
CONTINUOUS
 62
    3
 10
1261.8572010548937
 20
973.65823686335773
 11
1258.7967406981647
 21
976.59653192346207
  0
LINE
  8
_0-0_
  6
CONTINUOUS
 62
    3
 10
1263.5800496607478
 20
889.05964966911972
 11
1260.6417538587798
 21
885.99918853968256
  0
LINE
  8
_0-a_
  6
CONTINUOUS
 62
    2
 10
1315.2809987067046
 20
984.26648542084035
 11
1312.6809257944367
 21
984.26648542084035
  0
LINE
  8
_0-a_
  6
CONTINUOUS
 62
    2
 10
1315.2809987067046
 20
972.2666437823267
 11
1312.6809257944367
 21
972.2666437823267
  0
LINE
  8
_0-a_
  6
CONTINUOUS
 62
    2
 10
1315.2809987067046
 20
977.78757059292639
 11
1315.2809987067046
 21
978.74555861024044
  0
LINE
  8
_0-a_
  6
CONTINUOUS
 62
    2
 10
1300.6810099239765
 20
981.26652501121168
 11
1300.6810099239765
 21
975.26650521602608
  0
LINE
  8
_0-a_
  6
CONTINUOUS
 62
    2
 10
1310.6809686840061
 20
981.26652501121168
 11
1300.6810099239765
 21
981.26652501121168
  0
LINE
  8
_0-a_
  6
CONTINUOUS
 62
    2
 10
1312.6809257944367
 20
984.26648542084035
 11
1312.6809257944367
 21
972.2666437823267
  0
LINE
  8
_0-a_
  6
CONTINUOUS
 62
    2
 10
1310.6809686840061
 20
975.26650521602608
 11
1300.6810099239765
 21
975.26650521602608
  0
LINE
  8
_0-a_
  6
CONTINUOUS
 62
    2
 10
1310.6809686840061
 20
980.39647710686222
 11
1300.6810099239765
 21
980.39647710686222
  0
LINE
  8
_0-a_
  6
CONTINUOUS
 62
    2
 10
1310.6809686840061
 20
976.13645414444659
 11
1300.6810099239765
 21
976.13645414444659
  0
LINE
  8
_0-a_
  6
CONTINUOUS
 62
    2
 10
1310.6809686840061
 20
976.13645414444659
 11
1312.5534447978152
 21
975.08443899453107
  0
LINE
  8
_0-a_
  6
CONTINUOUS
 62
    2
 10
1310.6809686840061
 20
975.26650521602608
 11
1311.4447164405517
 21
975.70739349199732
  0
LINE
  8
_0-a_
  6
CONTINUOUS
 62
    2
 10
1310.6809686840061
 20
980.39647710686222
 11
1312.5534447978152
 21
981.44849225677785
  0
LINE
  8
_0-a_
  6
CONTINUOUS
 62
    2
 10
1310.6809686840061
 20
981.26652501121168
 11
1311.4447164405517
 21
980.8255377593116
  0
LINE
  8
_0-a_
  6
CONTINUOUS
 62
    2
 10
1317.2694993533473
 20
978.74555861024044
 11
1315.2809987067046
 21
978.74555861024044
  0
LINE
  8
_0-a_
  6
CONTINUOUS
 62
    2
 10
1310.6809686840061
 20
981.26652501121168
 11
1310.6809686840061
 21
975.26650521602608
  0
LINE
  8
_0-a_
  6
CONTINUOUS
 62
    2
 10
1317.2695488413117
 20
977.78757059292639
 11
1315.2809987067046
 21
977.78757059292639
  0
ARC
  8
_0-a_
  6
CONTINUOUS
 62
    2
 10
1312.4309620856109
 20
974.86649399875409
 40
0.2500000032218727
 50
0
 51
60.670822143554688
  0
ARC
  8
_0-a_
  6
CONTINUOUS
 62
    2
 10
1312.4309620856109
 20
981.66643725255472
 40
0.2500000032218727
 50
299.32917785644531
 51
0
  0
ARC
  8
_0-a_
  6
CONTINUOUS
 62
    2
 10
1307.2809970571059
 20
978.26656460158347
 40
10.000001288749077
 50
2.7456207275390629
 51
36.869873046875
  0
ARC
  8
_0-a_
  6
CONTINUOUS
 62
    2
 10
1307.2809970571059
 20
978.26656460158347
 40
10.000001288749077
 50
323.130126953125
 51
357.25437927246094
  0
ARC
  8
_0-0_
  6
DASHED2
 62
    3
 10
1292.1808185705136
 20
976.97203616089143
 40
2
 50
279.09029876251662
 51
0
  0
LINE
  8
_0-5_
  6
DASHED2
 62
    3
 10
1279.6808800448275
 20
970.4417112273527
 11
1279.6808800448275
 21
964.09183279100262
  0
LINE
  8
_0-5_
  6
DASHED2
 62
    3
 10
1279.6808800448275
 20
964.09183279100262
 11
1281.6808645798387
 21
964.09183279100262
  0
LINE
  8
_0-5_
  6
DASHED2
 62
    3
 10
1279.6808800448275
 20
964.9066807592626
 11
1281.6808645798387
 21
964.9066807592626
  0
LINE
  8
_0-5_
  6
DASHED2
 62
    3
 10
1279.6808800448275
 20
969.62661552469888
 11
1281.6808645798387
 21
969.62661552469888
  0
LINE
  8
_0-5_
  6
DASHED2
 62
    3
 10
1279.6808800448275
 20
970.4417112273527
 11
1281.6808645798387
 21
970.4417112273527
  0
LINE
  8
_0-5_
  6
DASHED2
 62
    3
 10
1266.6808195398994
 20
970.26681074529267
 11
1279.6808800448275
 21
970.26681074529267
  0
LINE
  8
_0-5_
  6
DASHED2
 62
    3
 10
1264.6808845517671
 20
972.26642367871318
 11
1264.6808845517671
 21
978.26640205718593
  0
LINE
  8
_0-5_
  6
DASHED2
 62
    3
 10
1264.6808845517671
 20
978.26640205718593
 11
1258.680881399855
 21
978.26640205718593
  0
LINE
  8
_0-5_
  6
CENTER1
 62
    3
 10
1261.6808953625309
 20
972.26657231934951
 11
1261.6808953625309
 21
979.65480469409317
  0
LINE
  8
_0-5_
  6
DASHED2
 62
    3
 10
1258.680881399855
 20
972.26642367871318
 11
1258.680881399855
 21
978.26640205718593
  0
ARC
  8
_0-5_
  6
CENTER1
 62
    3
 10
1266.6808195398994
 20
972.26657231934951
 40
5.0000000460267522
 50
180
 51
269.81408670914306
  0
ARC
  8
_0-5_
  6
DASHED2
 62
    3
 10
1266.6808195398994
 20
972.26642367871318
 40
2.000000018410701
 50
180
 51
270
  0
ARC
  8
_0-5_
  6
DASHED2
 62
    3
 10
1266.6808195398994
 20
972.26642367871318
 40
8.0000000736428039
 50
180
 51
270
  0
LINE
  8
_0-5_
  6
DASHED2
 62
    3
 10
1266.6808195398994
 20
964.26673327306253
 11
1279.6808800448275
 21
964.26673327306253
  0
LINE
  8
_0-5_
  6
CENTER1
 62
    3
 10
1293.1743829803688
 20
967.2665985951021
 11
1266.6645955729764
 21
967.2665985951021
  0
LINE
  8
_0-0_
  6
DASHED2
 62
    3
 10
1282.9438627985569
 20
973.46868127829373
 11
1292.4968003255703
 21
974.99715501751314
  0
ARC
  8
_0-0_
  6
DASHED2
 62
    3
 10
1283.1808491148495
 20
971.98752042076001
 40
1.5
 50
99.090298762516156
 51
180
  0
LINE
  8
_0-0_
  6
DASHED2
 62
    3
 10
1281.6808491148495
 20
961.81255394650134
 11
1281.6808491148495
 21
971.98752042076001
  0
ARC
  8
_0-0_
  6
DASHED2
 62
    3
 10
1283.1808491148495
 20
961.81255394650134
 40
1.5
 50
180
 51
220.00000000000037
  0
LINE
  8
_0-0_
  6
DASHED2
 62
    3
 10
1293.0110407861084
 20
947.76380196609841
 11
1282.031782450171
 21
960.84837253197145
  0
ARC
  8
_0-0_
  6
DASHED2
 62
    3
 10
1289.1808185705136
 20
944.54986391766568
 40
5
 50
0
 51
40.000000000000362
  0
LINE
  8
_0-0_
  6
DASHED2
 62
    3
 10
1294.1808185705136
 20
981.93623388677486
 11
1294.1808185705136
 21
908.04076981049207
  0
LINE
  8
_0-0_
  6
CENTER1
 62
    3
 10
1295.4576853096946
 20
978.2664923727209
 11
1318.9830051274525
 21
978.2664923727209
  0
LINE
  8
_0-0_
  6
CONTINUOUS
 62
    3
 10
1306.6809587864132
 20
973.26646244158633
 11
1306.6809587864132
 21
976.13647205437667
  0
LINE
  8
_0-0_
  6
CONTINUOUS
 62
    3
 10
1306.6809587864132
 20
980.39647710686222
 11
1306.6809587864132
 21
984.2664923727209
  0
LINE
  8
_0-2_
  6
CONTINUOUS
 62
    6
 10
1307.5972736734143
 20
988.39972172554974
 11
1311.6809706870904
 21
993.26639339679195
  0
ARC
  8
_0-0_
  6
DASHED2
 62
    3
 10
1301.6808185705136
 20
980.29836644512693
 40
3
 50
139.99996880183394
 51
180
  0
LINE
  8
_0-0_
  6
DASHED2
 62
    3
 10
1298.6808185705136
 20
974.4324750460853
 11
1298.6808185705136
 21
972.34967319385521
  0
LINE
  8
_0-0_
  6
CONTINUOUS
 62
    3
 10
1308.6870024162067
 20
993.31517043234874
 11
1313.6808491148497
 21
999.26659859510198
  0
LINE
  8
_0-0_
  6
CONTINUOUS
 62
    3
 10
1306.6809587864132
 20
984.2664923727209
 11
1308.6870024162067
 21
993.31517043234874
  0
LINE
  8
_0-0_
  6
DASHED2
 62
    3
 10
1299.382686291171
 20
982.22673052554433
 11
1308.6870024162067
 21
993.31517043234874
  0
LINE
  8
_0-0_
  6
CONTINUOUS
 62
    3
 10
1313.6808491148497
 20
1025.2665985951021
 11
1313.6808491148497
 21
992.26646282614445
  0
LINE
  8
_0-0_
  6
CONTINUOUS
 62
    3
 10
1313.6808491148497
 20
952.95611840277491
 11
1313.6808491148497
 21
939.46614311549956
  0
LINE
  8
_0-0_
  6
CONTINUOUS
 62
    3
 10
1354.3707093330843
 20
912.26615788440461
 11
1340.8807273891869
 21
912.26615788440461
  0
LINE
  8
_0-0_
  6
CONTINUOUS
 62
    3
 10
1386.6098307686966
 20
912.26615788440461
 11
1371.8886505301361
 21
912.26615788440461
  0
LINE
  8
_0-0_
  6
CONTINUOUS
 62
    3
 10
1426.6804973111439
 20
912.26615788440461
 11
1393.6805739953575
 21
912.26615788440461
  0
LINE
  8
_0-3_
  6
CONTINUOUS
 62
    4
 10
1268.7967065618789
 20
878.47185784273995
 11
1268.7559933304776
 21
880.47133989760096
  0
LINE
  8
_0-3_
  6
CONTINUOUS
 62
    4
 10
1266.67951133375
 20
982.45018920047835
 11
1266.6387903160276
 21
984.45005365214274
  0
LINE
  8
ADD_LINE
  6
DOT
 62
    3
 10
1355.810517629488
 20
889.26615022555291
 11
1351.5504769927998
 21
889.26615022555291
  0
LINE
  8
_0-0_
  6
CONTINUOUS
 62
    3
 10
1261.8572010548937
 20
973.65823686335773
 11
1280.0701524364772
 21
973.08905362105963
  0
LINE
  8
_0-3_
  6
CONTINUOUS
 62
    4
 10
1201.7190554730632
 20
983.12761670061775
 11
1266.6384627723987
 21
984.45004698273578
  0
LINE
  8
_0-3_
  6
CONTINUOUS
 62
    4
 10
1203.8778194616616
 20
877.14958605767015
 11
1268.7967065618789
 21
878.47185784273995
  0
LINE
  8
_0-e_
  6
PHANTOM1
 62
    7
 10
1203.8981837590641
 20
876.14978071033079
 11
1193.6808491148497
 21
874.6835512973239
  0
LINE
  8
_0-e_
  6
PHANTOM1
 62
    7
 10
1201.6992355432703
 20
984.12747153592181
 11
1193.6808491148497
 21
984.94664581273776
  0
LINE
  8
_0-e_
  6
PHANTOM1
 62
    7
 10
1201.6992355432703
 20
984.12747153592181
 11
1201.7857885664114
 21
979.8784059710556
  0
LINE
  8
_0-e_
  6
PHANTOM1
 62
    7
 10
1203.811627889537
 20
880.39898601011919
 11
1203.8981837590641
 21
876.14978071033079
  0
LINE
  8
_0-0_
  6
CENTER1
 62
    3
 10
1298.6808185705136
 20
932.09133688120437
 11
1252.7161230244481
 21
932.09133688120437
  0
LINE
  8
_0-0_
  6
CONTINUOUS
 62
    3
 10
1260.2662316161754
 20
975.18569910683493
 11
1280.5079188258358
 21
974.55312758529396
  0
LINE
  8
_0-a_
  6
CONTINUOUS
 62
    2
 10
1350.6804338015895
 20
796.2662328233223
 11
1356.6805608206982
 21
796.2662328233223
  0
LINE
  8
_0-a_
  6
CONTINUOUS
 62
    2
 10
1350.6804338015895
 20
796.2662328233223
 11
1351.6804880026934
 21
795.26627771597578
  0
LINE
  8
_0-a_
  6
CONTINUOUS
 62
    2
 10
1351.6804880026934
 20
795.26627771597578
 11
1355.6805066195943
 21
795.26627771597578
  0
LINE
  8
_0-a_
  6
CONTINUOUS
 62
    2
 10
1355.6805066195943
 20
795.26627771597578
 11
1356.6805608206982
 21
796.2662328233223
  0
LINE
  8
_0-3_
  6
CONTINUOUS
 62
    4
 10
1340.930400809613
 20
806.76640555988411
 11
1366.4304947189171
 21
806.76640555988411
  0
LINE
  8
_0-3_
  6
CONTINUOUS
 62
    4
 10
1340.930400809613
 20
807.76631112035182
 11
1340.930400809613
 21
806.76640555988411
  0
LINE
  8
_0-3_
  6
CONTINUOUS
 62
    4
 10
1366.4304947189171
 20
807.76631112035182
 11
1366.4304947189171
 21
806.76640555988411
  0
LINE
  8
_0-5_
  6
CONTINUOUS
 62
    3
 10
1327.6804753950453
 20
815.36635640183943
 11
1327.6804753950453
 21
813.76628949882456
  0
LINE
  8
_0-5_
  6
CONTINUOUS
 62
    3
 10
1379.6805192272425
 20
815.36635640183943
 11
1379.6805192272425
 21
813.76628949882456
  0
LINE
  8
_0-3_
  6
CONTINUOUS
 62
    4
 10
1358.1804439348393
 20
807.76631112035182
 11
1358.1804439348393
 21
806.76640555988411
  0
LINE
  8
_0-3_
  6
CONTINUOUS
 62
    4
 10
1349.1805506874484
 20
807.76631112035182
 11
1349.1805506874484
 21
806.76640555988411
  0
LINE
  8
_0-6_
  6
CONTINUOUS
 62
    6
 10
1328.6804305023918
 20
807.76631112035182
 11
1350.6804338015895
 21
807.76631112035182
  0
LINE
  8
_0-6_
  6
CONTINUOUS
 62
    6
 10
1356.6805608206982
 20
807.76631112035182
 11
1378.680564119896
 21
807.76631112035182
  0
LINE
  8
_0-a_
  6
CONTINUOUS
 62
    2
 10
1356.6805608206982
 20
801.76628319500048
 11
1356.6805608206982
 21
796.2662328233223
  0
LINE
  8
_0-a_
  6
CONTINUOUS
 62
    2
 10
1355.6805066195943
 20
801.76628319500048
 11
1355.6805066195943
 21
795.26627771597578
  0
LINE
  8
_0-a_
  6
CONTINUOUS
 62
    2
 10
1351.6804880026934
 20
801.76628319500048
 11
1351.6804880026934
 21
795.26627771597578
  0
LINE
  8
_0-a_
  6
CONTINUOUS
 62
    2
 10
1350.6804338015895
 20
801.76628319500048
 11
1350.6804338015895
 21
796.2662328233223
  0
LINE
  8
_0-a_
  6
CONTINUOUS
 62
    2
 10
1349.1805506874484
 20
801.7663327418793
 11
1358.1804439348393
 21
801.7663327418793
  0
LINE
  8
_0-a_
  6
CONTINUOUS
 62
    2
 10
1364.1687787968008
 20
797.26638611818385
 11
1366.1805802623987
 21
797.26638611818385
  0
LINE
  8
_0-a_
  6
CONTINUOUS
 62
    2
 10
1360.7846278830175
 20
799.133907072802
 11
1358.1804439348393
 21
803.26641404353518
  0
LINE
  8
_0-a_
  6
CONTINUOUS
 62
    2
 10
1358.3805142313145
 20
805.76635135878018
 11
1358.8658754557505
 21
805.76635135878018
  0
LINE
  8
_0-a_
  6
CONTINUOUS
 62
    2
 10
1343.1923149192444
 20
797.26638611818385
 11
1341.1805134536467
 21
797.26638611818385
  0
LINE
  8
_0-a_
  6
CONTINUOUS
 62
    2
 10
1346.5765649267855
 20
799.133907072802
 11
1349.1805506874484
 21
803.26641404353518
  0
LINE
  8
_0-a_
  6
CONTINUOUS
 62
    2
 10
1348.9803812972157
 20
805.76635135878018
 11
1348.4951191665373
 21
805.76635135878018
  0
LINE
  8
_0-a_
  6
CONTINUOUS
 62
    2
 10
1358.1804439348393
 20
801.7663327418793
 11
1358.1804439348393
 21
805.56638015606234
  0
LINE
  8
_0-a_
  6
CONTINUOUS
 62
    2
 10
1357.1804888274928
 20
805.56638015606234
 11
1357.1804888274928
 21
801.7663327418793
  0
LINE
  8
_0-a_
  6
CONTINUOUS
 62
    2
 10
1350.180505794795
 20
805.56638015606234
 11
1350.180505794795
 21
801.7663327418793
  0
LINE
  8
_0-a_
  6
CONTINUOUS
 62
    2
 10
1349.1805506874484
 20
801.7663327418793
 11
1349.1805506874484
 21
805.56638015606234
  0
LINE
  8
_0-5_
  6
CONTINUOUS
 62
    3
 10
1303.680512334276
 20
792.26631330017904
 11
1403.6805318348906
 21
792.26631330017904
  0
LINE
  8
_0-5_
  6
CONTINUOUS
 62
    3
 10
1401.5805369250811
 20
813.76628949882456
 11
1378.680564119896
 21
813.76628949882456
  0
LINE
  8
_0-5_
  6
CONTINUOUS
 62
    3
 10
1402.0805144787544
 20
813.2662623982726
 11
1402.0805144787544
 21
792.26631330017904
  0
LINE
  8
_0-5_
  6
CONTINUOUS
 62
    3
 10
1378.680564119896
 20
815.36635640183943
 11
1401.5805369250811
 21
815.36635640183943
  0
LINE
  8
_0-5_
  6
CONTINUOUS
 62
    3
 10
1403.6805318348906
 20
813.2662623982726
 11
1403.6805318348906
 21
792.26631330017904
  0
LINE
  8
_0-5_
  6
CONTINUOUS
 62
    3
 10
1305.2804801435332
 20
813.2662623982726
 11
1305.2804801435332
 21
792.26631330017904
  0
LINE
  8
_0-5_
  6
CONTINUOUS
 62
    3
 10
1305.7804576972067
 20
815.36635640183943
 11
1328.6804305023918
 21
815.36635640183943
  0
LINE
  8
_0-5_
  6
CONTINUOUS
 62
    3
 10
1305.7804576972067
 20
813.76628949882456
 11
1328.6804305023918
 21
813.76628949882456
  0
LINE
  8
_0-5_
  6
CONTINUOUS
 62
    3
 10
1303.680512334276
 20
813.2662623982726
 11
1303.680512334276
 21
792.26631330017904
  0
ARC
  8
_0-a_
  6
CONTINUOUS
 62
    2
 10
1356.9445465907877
 20
797.74481077959194
 40
9.2485086466815005
 50
357.03492736816406
 51
77.281768798828125
  0
ARC
  8
_0-a_
  6
CONTINUOUS
 62
    2
 10
1364.1687787968008
 20
801.26635518820603
 40
4.0000000368214019
 50
212.21649169921875
 51
270
  0
ARC
  8
_0-a_
  6
CONTINUOUS
 62
    2
 10
1358.3805142313145
 20
805.56638015606234
 40
1.2000000497549195
 50
90
 51
180
  0
ARC
  8
_0-a_
  6
CONTINUOUS
 62
    2
 10
1358.3805142313145
 20
805.56638015606234
 40
0.2000000042603512
 50
90
 51
180
  0
ARC
  8
_0-a_
  6
CONTINUOUS
 62
    2
 10
1356.9445465907877
 20
797.74481077959194
 40
8.2485094116461326
 50
357.03492736816406
 51
76.529418945312486
  0
ARC
  8
_0-a_
  6
CONTINUOUS
 62
    2
 10
1350.4166462190151
 20
797.74481077959194
 40
9.2485086466815005
 50
102.71823120117187
 51
182.96507263183594
  0
ARC
  8
_0-a_
  6
CONTINUOUS
 62
    2
 10
1343.1923149192444
 20
801.26635518820603
 40
4.0000000368214019
 50
270
 51
327.78350830078125
  0
ARC
  8
_0-a_
  6
CONTINUOUS
 62
    2
 10
1348.9803812972157
 20
805.56638015606234
 40
1.2000000497549195
 50
0
 51
90
  0
ARC
  8
_0-a_
  6
CONTINUOUS
 62
    2
 10
1348.9803812972157
 20
805.56638015606234
 40
0.2000000042603512
 50
0
 51
90
  0
ARC
  8
_0-a_
  6
CONTINUOUS
 62
    2
 10
1350.4166462190151
 20
797.74481077959194
 40
8.2485094116461326
 50
103.4705810546875
 51
182.96507263183594
  0
ARC
  8
_0-5_
  6
CONTINUOUS
 62
    3
 10
1401.5805369250811
 20
813.2662623982726
 40
0.5000000046026752
 50
0
 51
90
  0
ARC
  8
_0-5_
  6
CONTINUOUS
 62
    3
 10
1401.5805369250811
 20
813.2662623982726
 40
2.0999999419142381
 50
0
 51
90
  0
ARC
  8
_0-5_
  6
CONTINUOUS
 62
    3
 10
1305.7804576972067
 20
813.2662623982726
 40
0.5000000046026752
 50
90
 51
180
  0
ARC
  8
_0-5_
  6
CONTINUOUS
 62
    3
 10
1305.7804576972067
 20
813.2662623982726
 40
2.0999999419142381
 50
90
 51
180
  0
LINE
  8
_0-5_
  6
DASHED2
 62
    3
 10
1305.2804801435332
 20
793.86638020319378
 11
1402.0805144787544
 21
793.86638020319378
  0
LINE
  8
_0-3_
  6
DASHED2
 62
    4
 10
1340.930400809613
 20
813.76628949882456
 11
1340.930400809613
 21
807.76631112035182
  0
LINE
  8
_0-3_
  6
DASHED2
 62
    4
 10
1340.930400809613
 20
813.76628949882456
 11
1350.6804338015895
 21
813.76628949882456
  0
LINE
  8
_0-3_
  6
DASHED2
 62
    4
 10
1356.6805608206982
 20
813.76628949882456
 11
1366.4304947189171
 21
813.76628949882456
  0
LINE
  8
_0-3_
  6
DASHED2
 62
    4
 10
1366.4304947189171
 20
813.76628949882456
 11
1366.4304947189171
 21
807.76631112035182
  0
LINE
  8
_0-9_
  6
CONTINUOUS
 62
    7
 10
1313.6808491148497
 20
1025.2665985951021
 11
1313.6808491148497
 21
1082.8525922011324
  0
LINE
  8
_0-0_
  6
CENTER1
 62
    3
 10
1353.6804973111439
 20
890.82040429750418
 11
1353.6804973111439
 21
792.19410969613
  0
LINE
  8
_0-6_
  6
CONTINUOUS
 62
    6
 10
1376.6804557176879
 20
889.26615788440472
 11
1376.6804557176879
 21
807.76631112035182
  0
LINE
  8
_0-6_
  6
CONTINUOUS
 62
    6
 10
1378.680564119896
 20
889.26615788440472
 11
1378.680564119896
 21
807.76631112035182
  0
LINE
  8
_0-6_
  6
CONTINUOUS
 62
    6
 10
1330.6805389045999
 20
807.76631112035182
 11
1330.6805389045999
 21
889.26615788440472
  0
LINE
  8
_0-6_
  6
CONTINUOUS
 62
    6
 10
1328.6804305023918
 20
807.76631112035182
 11
1328.6804305023918
 21
889.26615788440472
  0
LINE
  8
_0-9_
  6
CONTINUOUS
 62
    7
 10
1313.6808491148497
 20
742.26632832331109
 11
1313.6808491148497
 21
711.98857998625635
  0
LINE
  8
_0-4_
  6
CONTINUOUS
 62
    6
 10
1239.3551328669448
 20
975.44251423764854
 11
1239.339079678223
 21
973.96433265640906
  0
LINE
  8
_0-4_
  6
CONTINUOUS
 62
    6
 10
1261.8559560167548
 20
973.7194719815252
 11
1239.339079678223
 21
973.96433265640906
  0
LINE
  8
_0-4_
  6
CONTINUOUS
 62
    6
 10
1241.1690440987334
 20
886.36099177105507
 11
1241.0928409991841
 21
887.83729057090136
  0
LINE
  8
_0-4_
  6
CONTINUOUS
 62
    6
 10
1263.5811783355441
 20
888.9985703155246
 11
1241.0928409991841
 21
887.83729057090136
  0
LINE
  8
_0-4_
  6
CONTINUOUS
 62
    6
 10
1260.2351743040824
 20
975.21551669506243
 11
1239.3538446480968
 21
975.44251423764854
  0
LINE
  8
_0-4_
  6
CONTINUOUS
 62
    6
 10
1262.023010925675
 20
887.43787403899864
 11
1241.1677558798854
 21
886.36099177105507
  0
LINE
  8
_0-3_
  6
CONTINUOUS
 62
    4
 10
1201.7190554730632
 20
983.12761670061775
 11
1201.8911399699664
 21
974.67964546231178
  0
LINE
  8
_0-3_
  6
CONTINUOUS
 62
    4
 10
1203.7057227062587
 20
885.59815909018766
 11
1203.8778194616616
 21
877.14958605767015
  0
LINE
  8
_0-0_
  6
CONTINUOUS
 62
    3
 10
1258.711388994715
 20
980.78763351063958
 11
1258.8546673039082
 21
973.75210961601317
  0
LINE
  8
_0-0_
  6
CONTINUOUS
 62
    3
 10
1260.583823618512
 20
888.84378931645483
 11
1260.7271046637354
 21
881.80813107206109
  0
LINE
  8
_0-9_
  6
CONTINUOUS
 62
    7
 10
1426.6804973111439
 20
912.26615788440461
 11
1490.2896179722509
 21
912.26615788440461
  0
LINE
  8
_0-9_
  6
DASHED2
 62
    7
 10
1298.6804973111439
 20
790.26630399172836
 11
1490.2896179722509
 21
790.26630399172836
  0
LINE
  8
_0-9_
  6
DASHED2
 62
    7
 10
1490.2896179722509
 20
744.26638717864023
 11
1298.6804973111439
 21
744.26638717864023
  0
LINE
  8
_0-9_
  6
CONTINUOUS
 62
    7
 10
1490.2896179722509
 20
742.26632832331109
 11
1295.4804973111438
 21
742.26632832331109
  0
LINE
  8
_0-4_
  6
CONTINUOUS
 62
    6
 10
1169.5988539887223
 20
974.02208670377081
 11
1239.3551328669448
 21
975.44251423764854
  0
LINE
  8
_0-4_
  6
CONTINUOUS
 62
    6
 10
1169.5988539887223
 20
969.82132295564338
 11
1281.3158344801479
 21
972.09622580309986
  0
LINE
  8
_0-4_
  6
CONTINUOUS
 62
    6
 10
1169.5988539887223
 20
884.90367090460438
 11
1241.1690440987334
 21
886.36099177105507
  0
LINE
  8
_0-4_
  6
CONTINUOUS
 62
    6
 10
1169.5988539887223
 20
889.10448259912425
 11
1282.9589022964849
 21
891.41279849247962
  0
LINE
  8
_0-a_
  6
CONTINUOUS
 62
    2
 10
1350.6802866338089
 20
880.26615788440449
 11
1350.6802866338091
 21
806.76640555988411
  0
LINE
  8
_0-a_
  6
CONTINUOUS
 62
    2
 10
1351.6803408349133
 20
880.26615788440472
 11
1351.6803408349133
 21
806.76640555988411
  0
LINE
  8
_0-a_
  6
CONTINUOUS
 62
    2
 10
1355.6803594518144
 20
880.26615788440472
 11
1355.6803594518144
 21
806.76640555988411
  0
LINE
  8
_0-a_
  6
CONTINUOUS
 62
    2
 10
1356.6802154654031
 20
880.26615788440472
 11
1356.6802154654031
 21
806.76640555988411
  0
LINE
  8
_0-e_
  6
PHANTOM1
 62
    7
 10
1201.1475943458217
 20
974.66450485139978
 11
1201.8759940157017
 21
975.42319057125599
  0
LINE
  8
_0-e_
  6
PHANTOM1
 62
    7
 10
1198.319762832891
 20
974.60692251176283
 11
1201.8183913543867
 21
978.25102012479056
  0
LINE
  8
_0-e_
  6
PHANTOM1
 62
    7
 10
1195.4919313199625
 20
974.54934017212611
 11
1201.7607886930709
 21
981.07884967832274
  0
LINE
  8
_0-e_
  6
PHANTOM1
 62
    7
 10
1193.6808491148499
 20
975.55078244824995
 11
1201.7031860317552
 21
983.90667923185651
  0
LINE
  8
_0-e_
  6
PHANTOM1
 62
    7
 10
1193.6808491148497
 20
978.4386097178359
 11
1199.3709807114444
 21
984.36533067193716
  0
LINE
  8
_0-e_
  6
PHANTOM1
 62
    7
 10
1193.6808491148499
 20
981.3264369874222
 11
1196.8460842676382
 21
984.62327910543479
  0
LINE
  8
_0-e_
  6
PHANTOM1
 62
    7
 10
1193.6808491148495
 20
984.21426425700577
 11
1194.3211878238344
 21
984.8812275389331
  0
LINE
  8
_0-e_
  6
PHANTOM1
 62
    7
 10
1193.6808491148495
 20
976.32515187972808
 11
1195.5296961344036
 21
974.55010916644596
  0
LINE
  8
_0-e_
  6
PHANTOM1
 62
    7
 10
1193.6808491148502
 20
979.09769968810667
 11
1198.3575464556545
 21
974.60769188907148
  0
LINE
  8
_0-e_
  6
PHANTOM1
 62
    7
 10
1193.6808491148495
 20
981.87024749648822
 11
1201.1853967769084
 21
974.66527461169574
  0
LINE
  8
_0-e_
  6
PHANTOM1
 62
    7
 10
1193.6808491148502
 20
984.64279530486704
 11
1201.8479128006027
 21
976.80175343878386
  0
LINE
  8
_0-e_
  6
PHANTOM1
 62
    7
 10
1196.5583906330664
 20
984.65267045831479
 11
1201.7903096932239
 21
979.62960489042666
  0
LINE
  8
_0-e_
  6
PHANTOM1
 62
    7
 10
1199.7901037427314
 20
984.32251223095614
 11
1201.7327065858447
 21
982.45745634206969
  0
LINE
  8
_0-e_
  6
PHANTOM1
 62
    7
 10
1193.6808491148493
 20
876.51343077803483
 11
1195.3389719401262
 21
874.9214987211335
  0
LINE
  8
_0-e_
  6
PHANTOM1
 62
    7
 10
1193.6808491148493
 20
879.28597858641569
 11
1197.8512820970002
 21
875.28202552923722
  0
LINE
  8
_0-e_
  6
PHANTOM1
 62
    7
 10
1193.6808491148504
 20
882.05852639479383
 11
1200.3635922538726
 21
875.64255233734093
  0
LINE
  8
_0-e_
  6
PHANTOM1
 62
    7
 10
1193.6808491148508
 20
884.83107420317435
 11
1202.8759024107476
 21
876.00307914544419
  0
LINE
  8
_0-e_
  6
PHANTOM1
 62
    7
 10
1195.9345146101693
 20
885.43992081111446
 11
1203.8640215588571
 21
877.82695263131154
  0
LINE
  8
_0-e_
  6
PHANTOM1
 62
    7
 10
1198.7623666575748
 20
885.49750187649374
 11
1203.8064184514778
 21
880.6548040829548
  0
LINE
  8
_0-e_
  6
PHANTOM1
 62
    7
 10
1201.5902187049787
 20
885.5550829418728
 11
1203.7488153440995
 21
883.48265553459532
  0
LINE
  8
_0-e_
  6
PHANTOM1
 62
    7
 10
1203.5577604695577
 20
876.10092857253414
 11
1203.8920871617624
 21
876.44915619760172
  0
LINE
  8
_0-e_
  6
PHANTOM1
 62
    7
 10
1200.342184995334
 20
875.63948030796882
 11
1203.8344845004465
 21
879.2769857511355
  0
LINE
  8
_0-e_
  6
PHANTOM1
 62
    7
 10
1197.1266095211138
 20
875.17803204340532
 11
1203.7768818391301
 21
882.104815304667
  0
LINE
  8
_0-e_
  6
PHANTOM1
 62
    7
 10
1193.9110340468876
 20
874.71658377883932
 11
1203.7192791778139
 21
884.93264485820191
  0
LINE
  8
_0-e_
  6
PHANTOM1
 62
    7
 10
1193.6808491148502
 20
877.36465528234555
 11
1201.5434071536536
 21
885.55412975940408
  0
LINE
  8
_0-e_
  6
PHANTOM1
 62
    7
 10
1193.6808491148504
 20
880.25248255193219
 11
1198.7155772979452
 21
885.49654914589485
  0
LINE
  8
_0-e_
  6
PHANTOM1
 62
    7
 10
1193.6808491148495
 20
883.14030982151542
 11
1195.8877474422388
 21
885.43896853238573
  0
LINE
  8
_0-9_
  6
CONTINUOUS
 62
    7
 10
1193.6808491148497
 20
974.5124616133553
 11
1193.6808491148497
 21
1082.8525922011324
  0
LINE
  8
_0-9_
  6
CONTINUOUS
 62
    7
 10
1193.6808491148497
 20
885.39403140174886
 11
1193.6808491148497
 21
711.98857998625635
  0
LINE
  8
_0-0_
  6
CENTER1
 62
    3
 10
1298.6808185705136
 20
932.09133688120437
 11
1170.8075145593145
 21
929.48718334777539
  0
LINE
  8
_0-9_
  6
CONTINUOUS
 62
    7
 10
1485.9466083074005
 20
912.26853482363833
 11
1389.0442760984959
 21
815.36635640183943
  0
LINE
  8
_0-9_
  6
CONTINUOUS
 62
    7
 10
1298.6804973111439
 20
792.26631330017904
 11
1298.6804973111439
 21
742.26632832331109
  0
LINE
  8
_0-9_
  6
CONTINUOUS
 62
    7
 10
1295.4804973111438
 20
792.26631330017904
 11
1490.2896179722509
 21
792.26631330017904
  0
LINE
  8
_0-9_
  6
CONTINUOUS
 62
    7
 10
1295.4804973111438
 20
792.26631330017904
 11
1295.4804973111438
 21
742.26632832331109
  0
LINE
  8
_0-9_
  6
CONTINUOUS
 62
    7
 10
1253.4995417003652
 20
1082.8525922011324
 11
1193.6808491148497
 21
1023.0339945497988
  0
LINE
  8
_0-9_
  6
CONTINUOUS
 62
    7
 10
1267.6416405089376
 20
1082.8525922011324
 11
1193.6808491148497
 21
1008.8916094020824
  0
LINE
  8
_0-9_
  6
CONTINUOUS
 62
    7
 10
1281.7838888613628
 20
1082.8525922011324
 11
1193.6808491148497
 21
994.74964924327992
  0
LINE
  8
_0-9_
  6
CONTINUOUS
 62
    7
 10
1261.0089916445424
 20
878.31323719834302
 11
1193.6808491148497
 21
810.98520152056994
  0
LINE
  8
_0-9_
  6
CONTINUOUS
 62
    7
 10
1291.9232403328524
 20
880.94314336438072
 11
1193.6808491148497
 21
782.70086007397572
  0
LINE
  8
_0-9_
  6
CONTINUOUS
 62
    7
 10
1277.4869292077892
 20
880.64914634196293
 11
1193.6808491148497
 21
796.84284936519521
  0
LINE
  8
_0-9_
  6
CONTINUOUS
 62
    7
 10
1490.2896179722509
 20
902.46962268376296
 11
1403.1865771064422
 21
815.36635640183943
  0
LINE
  8
_0-3_
  6
CONTINUOUS
 62
    4
 10
607.73595527354439
 20
356.98083954368417
 11
607.69524204214315
 21
358.98032159854506
  0
LINE
  8
_0-3_
  6
CONTINUOUS
 62
    4
 10
605.61876004541546
 20
460.95917090142245
 11
605.57803902769285
 21
462.95903535308702
  0
LINE
  8
_0-3_
  6
CONTINUOUS
 62
    4
 10
540.65830418472876
 20
461.63659840156186
 11
605.57771148406403
 21
462.95902868368006
  0
LINE
  8
_0-3_
  6
CONTINUOUS
 62
    4
 10
542.8170681733269
 20
355.65856775861425
 11
607.73595527354439
 21
356.98083954368417
  0
LINE
  8
_0-9_
  6
PHANTOM1
 62
    2
 10
632.10943426772064
 20
405.51039543775192
 11
631.90581603767407
 21
415.50832519123583
  0
LINE
  8
_0-9_
  6
PHANTOM1
 62
    2
 10
636.7828549418125
 20
421.59705216283646
 11
636.72153935376377
 21
424.6083082003679
  0
LINE
  8
_0-9_
  6
PHANTOM1
 62
    2
 10
634.98466026275878
 20
418.17559038734021
 11
630.90606017829907
 21
415.48794852184164
  0
LINE
  8
_0-9_
  6
PHANTOM1
 62
    2
 10
626.12700744392407
 20
404.58839754264005
 11
625.89080138923657
 21
416.18602574946004
  0
LINE
  8
_0-9_
  6
PHANTOM1
 62
    2
 10
631.90581603767407
 20
415.50832519123583
 11
627.10679490961252
 21
415.41059883328631
  0
LINE
  8
_0-9_
  6
PHANTOM1
 62
    2
 10
631.93023834816813
 20
414.30858846720707
 11
627.13129145205346
 21
414.21086210925756
  0
LINE
  8
_0-9_
  6
PHANTOM1
 62
    2
 10
632.08501195722658
 20
406.71016927775395
 11
627.28599082916503
 21
406.61240580383082
  0
LINE
  8
_0-9_
  6
PHANTOM1
 62
    2
 10
632.10943426772064
 20
405.51039543775192
 11
627.31041313965909
 21
405.41266907980207
  0
LINE
  8
_0-9_
  6
PHANTOM1
 62
    2
 10
634.10311877864751
 20
414.55288580409479
 11
634.26602078587939
 21
406.55454200130771
  0
LINE
  8
_0-9_
  6
PHANTOM1
 62
    2
 10
631.9261555910947
 20
414.50853221588756
 11
634.10311877864751
 21
414.55288580409479
  0
LINE
  8
_0-9_
  6
PHANTOM1
 62
    2
 10
631.94653226048877
 20
413.50873924053894
 11
634.12349544804158
 21
413.55309282874646
  0
LINE
  8
_0-9_
  6
PHANTOM1
 62
    2
 10
632.06871804490595
 20
407.50998138844852
 11
634.24564411648532
 21
407.55433497665604
  0
LINE
  8
_0-9_
  6
PHANTOM1
 62
    2
 10
632.08905759832658
 20
406.5101884131002
 11
634.26602078587939
 21
406.55454200130771
  0
ARC
  8
_0-9_
  6
PHANTOM1
 62
    2
 10
632.78368304041908
 20
421.5156568331804
 40
4.0000000515499634
 50
303.38314819335937
 51
1.1666564941406439
  0
ARC
  8
_0-9_
  6
PHANTOM1
 62
    2
 10
636.99107555256001
 20
413.08647081122132
 40
11.524955130912163
 50
91.340286254882798
 51
164.39874267578122
  0
ARC
  8
_0-9_
  6
PHANTOM1
 62
    2
 10
627.10679490961252
 20
415.41059883328631
 40
1.2000000879571244
 50
181.1666564941406
 51
271.16665649414062
  0
ARC
  8
_0-9_
  6
PHANTOM1
 62
    2
 10
636.99107555256001
 20
413.08647081122132
 40
10.324955115447175
 50
91.340286254882798
 51
166.5757141113281
  0
ARC
  8
_0-9_
  6
PHANTOM1
 62
    2
 10
627.10278638448563
 20
415.61057969794007
 40
0.2000000025774981
 50
219.432373046875
 51
271.16665649414062
  0
ARC
  8
_0-9_
  6
PHANTOM1
 62
    2
 10
627.31041313965909
 20
405.41266907980207
 40
1.2000000879571244
 50
91.166656494140625
 51
181.16665649414062
  0
ARC
  8
_0-9_
  6
PHANTOM1
 62
    2
 10
627.31449589673252
 20
405.21272533112193
 40
0.2000000025774981
 50
91.166656494140625
 51
142.90093994140625
  0
LINE
  8
_0-9_
  6
PHANTOM1
 62
    2
 10
635.29428171282188
 20
402.9706607262338
 11
631.10967840834564
 21
405.4900558843313
  0
ARC
  8
_0-9_
  6
PHANTOM1
 62
    2
 10
633.23115321567252
 20
399.5438171345952
 40
4.0000000515499634
 50
1.1666564941406248
 51
58.950164794921868
  0
LINE
  8
_0-9_
  6
PHANTOM1
 62
    2
 10
637.23032511706595
 20
399.62524958022442
 11
637.29164070511501
 21
396.61406777463958
  0
ARC
  8
_0-9_
  6
PHANTOM1
 62
    2
 10
637.09191965227501
 20
408.13727845480207
 40
10.324955115447175
 50
195.75759887695312
 51
270.99302673339844
  0
ARC
  8
_0-9_
  6
PHANTOM1
 62
    2
 10
637.09191965227501
 20
408.13727845480207
 40
11.524955130912163
 50
197.93457031250003
 51
270.99302673339844
  0
LINE
  8
_0-6_
  6
PHANTOM1
 62
    6
 10
643.02029233295582
 20
410.71061472942688
 11
621.06757861789811
 21
410.2635482061674
  0
LINE
  8
_0-6_
  6
PHANTOM1
 62
    6
 10
637.90248143783003
 20
425.60950079505051
 11
638.51330411527351
 21
395.61571984538165
  0
LINE
  8
_0-6_
  6
PHANTOM1
 62
    6
 10
639.50214513722653
 20
425.64207791047062
 11
640.11296781467001
 21
395.64829696080142
  0
LINE
  8
_0-6_
  6
PHANTOM1
 62
    6
 10
640.11296781467001
 20
395.64829696080142
 11
624.5162096372751
 21
395.33066932974884
  0
LINE
  8
_0-6_
  6
PHANTOM1
 62
    6
 10
626.1158733366716
 20
395.36324644516895
 11
625.50505065922812
 21
425.35702739483764
  0
LINE
  8
_0-6_
  6
PHANTOM1
 62
    6
 10
639.50214513722653
 20
425.64207791047062
 11
623.90538695983162
 21
425.32445027941776
  0
LINE
  8
_0-6_
  6
PHANTOM1
 62
    6
 10
624.5162096372751
 20
395.33066932974884
 11
624.49126669694965
 21
396.55546519275072
  0
LINE
  8
_0-6_
  6
PHANTOM1
 62
    6
 10
624.33754535432331
 20
404.10378395740167
 11
624.08405124278306
 21
416.55133565176521
  0
LINE
  8
_0-6_
  6
PHANTOM1
 62
    6
 10
623.93032990015706
 20
424.09965441641589
 11
623.90538695983162
 21
425.32445027941776
  0
LINE
  8
_0-6_
  6
PHANTOM1
 62
    6
 10
625.9122656095883
 20
405.36118167467595
 11
624.3126019101918
 21
405.32860455925635
  0
LINE
  8
_0-6_
  6
PHANTOM1
 62
    6
 10
625.70865838631141
 20
415.35909216533037
 11
624.10899468691491
 21
415.32651504991054
  0
ARC
  8
_0-6_
  6
PHANTOM1
 62
    6
 10
622.33795336065145
 20
404.0630623112238
 40
2.0000000257749817
 50
305.33565708886721
 51
1.1666660000000011
  0
ARC
  8
_0-6_
  6
PHANTOM1
 62
    6
 10
622.33795336065145
 20
404.0630623112238
 40
3.6000000463949671
 50
305.33565708886721
 51
1.1666660000000011
  0
ARC
  8
_0-6_
  6
PHANTOM1
 62
    6
 10
622.49167470327745
 20
396.51474354657284
 40
2.0000000257749817
 50
1.1666660000000011
 51
56.997674911132819
  0
ARC
  8
_0-6_
  6
PHANTOM1
 62
    6
 10
622.49167470327745
 20
396.51474354657284
 40
3.6000000463949671
 50
1.1666660000000011
 51
56.997674911132819
  0
ARC
  8
_0-6_
  6
PHANTOM1
 62
    6
 10
624.97676962736034
 20
400.34107709723327
 40
0.9625086268863162
 50
125.33715245019533
 51
236.99617954980474
  0
ARC
  8
_0-6_
  6
PHANTOM1
 62
    6
 10
624.97676962736034
 20
400.34107709723327
 40
2.5625086475063017
 50
125.33609959375001
 51
236.99723240625002
  0
ARC
  8
_0-6_
  6
PHANTOM1
 62
    6
 10
622.08445924911121
 20
416.51061400558734
 40
2.0000000257749817
 50
1.1666660000000011
 51
56.997674911132819
  0
ARC
  8
_0-6_
  6
PHANTOM1
 62
    6
 10
622.08445924911121
 20
416.51061400558734
 40
3.6000000463949671
 50
1.1666660000000011
 51
56.997674911132819
  0
ARC
  8
_0-6_
  6
PHANTOM1
 62
    6
 10
621.93073790648486
 20
424.0589327702383
 40
2.0000000257749817
 50
305.33565708886721
 51
1.1666660000000011
  0
ARC
  8
_0-6_
  6
PHANTOM1
 62
    6
 10
621.93073790648486
 20
424.0589327702383
 40
3.6000000463949671
 50
305.33565708886721
 51
1.1666660000000011
  0
ARC
  8
_0-6_
  6
PHANTOM1
 62
    6
 10
624.56955417319409
 20
420.33694755624765
 40
0.9625086268863162
 50
125.33715245019533
 51
236.99617954980474
  0
ARC
  8
_0-6_
  6
PHANTOM1
 62
    6
 10
624.56955417319409
 20
420.33694755624765
 40
2.5625086475063017
 50
125.33609959375001
 51
236.99723240625002
  0
LINE
  8
_0-3_
  6
CONTINUOUS
 62
    4
 10
540.65830418472876
 20
461.63659840156186
 11
540.71940003170278
 21
458.63728139564148
  0
LINE
  8
_0-3_
  6
CONTINUOUS
 62
    4
 10
540.71940003170278
 20
458.63728139564148
 11
605.63880160585722
 21
459.95926539765424
  0
LINE
  8
_0-3_
  6
CONTINUOUS
 62
    4
 10
542.7559682906317
 20
358.65808288614483
 11
542.8170681733269
 21
355.65856775861425
  0
LINE
  8
_0-3_
  6
CONTINUOUS
 62
    4
 10
542.7559682906317
 20
358.65808288614483
 11
607.67487704435007
 21
359.98001885671692
  0
LINE
  8
_0-f_
  6
CONTINUOUS
 62
    7
 10
569.55500145020426
 20
366.89730993224879
 11
567.83214216458452
 21
451.49589690899211
  0
LINE
  8
_0-f_
  6
CONTINUOUS
 62
    7
 10
569.55500145020426
 20
366.89730993224879
 11
568.42485773478995
 21
374.31167269532625
  0
LINE
  8
_0-f_
  6
CONTINUOUS
 62
    7
 10
569.55500145020426
 20
366.89730993224879
 11
570.38234473845068
 21
374.35153712783347
  0
LINE
  8
_0-f_
  6
CONTINUOUS
 62
    7
 10
567.83214216458452
 20
451.49589690899211
 11
567.0047988763381
 21
444.04166971340754
  0
LINE
  8
_0-f_
  6
CONTINUOUS
 62
    7
 10
567.83214216458452
 20
451.49589690899211
 11
568.96228587999883
 21
444.0815341459147
  0
LINE
  8
_0-f_
  6
CONTINUOUS
 62
    7
 10
568.65518802408644
 20
366.87898513544178
 11
601.55003782025926
 21
367.54889227509625
  0
LINE
  8
_0-f_
  6
CONTINUOUS
 62
    7
 10
566.93232873846659
 20
451.47757211218516
 11
599.82717853463942
 21
452.14747925183963
  0
TEXT
  8
_0-f_
 62
    7
 10
584.03535819251101
 20
368.10988496558087
 40
9
 41
1
 50
90.583336717123572
  1
１°１０′
  0
TEXT
  8
_0-f_
 62
    2
 10
568.55284208141006
 20
364.33886721962068
 40
12
 41
1
 50
91.16667341712359
  1
Ｒｃ３
  0
LINE
  8
_0-0_
  6
CENTER1
 62
    3
 10
637.62006728217898
 20
410.60031858214847
 11
583.23248806858021
 21
409.49270970569887
  0
LINE
  8
_0-0_
  6
CENTER1
 62
    3
 10
574.16728849310857
 20
409.30809594531911
 11
528.5571862630502
 21
408.37924132784508
  0
LINE
  8
_0-9_
  6
PHANTOM1
 62
    2
 10
545.81690721415248
 20
404.75318592849226
 11
573.79061216307275
 21
405.32290019744153
  0
LINE
  8
_0-9_
  6
PHANTOM1
 62
    2
 10
584.50962404478821
 20
405.54120428083706
 11
626.09033686220971
 21
406.38803974465645
  0
LINE
  8
_0-9_
  6
PHANTOM1
 62
    2
 10
545.65401930858525
 20
412.7515306897219
 11
573.7133126343474
 21
413.32298755818647
  0
LINE
  8
_0-9_
  6
PHANTOM1
 62
    2
 10
583.04762025592493
 20
413.51309049986719
 11
625.92747197095127
 21
414.38638354744353
  0
LINE
  8
_0-a_
  6
CONTINUOUS
 62
    2
 10
545.88133990837377
 20
445.96195005527284
 11
545.18133264852804
 21
445.96195005527284
  0
LINE
  8
_0-a_
  6
CONTINUOUS
 62
    2
 10
545.18133264852804
 20
445.96195005527284
 11
545.18133264852804
 21
435.96194194904115
  0
LINE
  8
_0-a_
  6
CONTINUOUS
 62
    2
 10
545.88133990837377
 20
435.96194194904115
 11
545.18133264852804
 21
435.96194194904115
  0
LINE
  8
_0-a_
  6
CONTINUOUS
 62
    2
 10
545.88133990837377
 20
445.96195005527284
 11
545.88133990837377
 21
435.96194194904115
  0
LINE
  8
_0-a_
  6
CONTINUOUS
 62
    2
 10
500.18133264852804
 20
443.46196650615479
 11
495.18132883383078
 21
441.21195904067304
  0
LINE
  8
_0-a_
  6
CONTINUOUS
 62
    2
 10
495.18132883383078
 20
441.21195904067304
 11
495.18132883383078
 21
440.71196975460794
  0
LINE
  8
_0-a_
  6
CONTINUOUS
 62
    2
 10
495.18132883383078
 20
440.71196975460794
 11
500.18133264852804
 21
438.46196245303895
  0
LINE
  8
_0-a_
  6
CONTINUOUS
 62
    2
 10
545.18133264852804
 20
443.46196650615479
 11
500.18133264852804
 21
443.46196650615479
  0
LINE
  8
_0-a_
  6
CONTINUOUS
 62
    2
 10
545.18133264852804
 20
438.46196245303895
 11
500.18133264852804
 21
438.46196245303895
  0
LINE
  8
_0-a_
  6
CONTINUOUS
 62
    2
 10
545.18133264852804
 20
438.46196245303895
 11
537.18133741689962
 21
443.46196650615479
  0
LINE
  8
_0-a_
  6
CONTINUOUS
 62
    2
 10
541.18132549597055
 20
438.46196245303895
 11
533.18133074117941
 21
443.46196650615479
  0
LINE
  8
_0-a_
  6
CONTINUOUS
 62
    2
 10
537.18133741689962
 20
438.46196245303895
 11
529.18134218527121
 21
443.46196650615479
  0
LINE
  8
_0-a_
  6
CONTINUOUS
 62
    2
 10
533.18133074117941
 20
438.46196245303895
 11
525.18133455587667
 21
443.46196650615479
  0
LINE
  8
_0-a_
  6
CONTINUOUS
 62
    2
 10
529.18134218527121
 20
438.46196245303895
 11
521.18132883383066
 21
443.46196650615479
  0
LINE
  8
_0-a_
  6
CONTINUOUS
 62
    2
 10
525.18133455587667
 20
438.46196245303895
 11
517.18134027792257
 21
443.46196650615479
  0
LINE
  8
_0-a_
  6
CONTINUOUS
 62
    2
 10
521.18132883383066
 20
438.46196245303895
 11
513.18133264852804
 21
443.46196650615479
  0
LINE
  8
_0-a_
  6
CONTINUOUS
 62
    2
 10
517.18134027792257
 20
438.46196245303895
 11
509.18134409261984
 21
443.46196650615479
  0
LINE
  8
_0-a_
  6
CONTINUOUS
 62
    2
 10
513.18133264852804
 20
438.46196245303895
 11
505.18133646322531
 21
443.46196650615479
  0
LINE
  8
_0-a_
  6
CONTINUOUS
 62
    2
 10
509.18132501913345
 20
438.46196245303895
 11
501.18132883383078
 21
443.46196650615479
  0
LINE
  8
_0-a_
  6
CONTINUOUS
 62
    2
 10
545.18133264852804
 20
440.96198295703675
 11
541.18134433103842
 21
443.46196650615479
  0
LINE
  8
_0-a_
  6
CONTINUOUS
 62
    2
 10
505.18133646322531
 20
438.46196245303895
 11
500.18133264852804
 21
441.58694171062257
  0
LINE
  8
_0-a_
  6
CONTINUOUS
 62
    2
 10
501.18132883383078
 20
438.46196245303895
 11
500.18133264852804
 21
439.08695828071382
  0
ARC
  8
_0-a_
  6
CONTINUOUS
 62
    2
 10
536.91582781149179
 20
440.96198295703675
 40
10.265490531921387
 50
330.85189819335938
 51
29.148101806640614
  0
LINE
  8
_0-8_
  6
CENTER1
 62
    7
 10
548.56950500903054
 20
440.96198295703675
 11
492.91836734111223
 21
440.96198295703675
  0
LINE
  8
_0-f_
  6
CONTINUOUS
 62
    7
 10
505.18133646322531
 20
438.46196245303895
 11
500.60028983532794
 21
432.5236115209172
  0
LINE
  8
_0-f_
  6
CONTINUOUS
 62
    7
 10
505.18133646322531
 20
438.46196245303895
 11
499.21942689616941
 21
433.91161803593729
  0
LINE
  8
_0-f_
  6
CONTINUOUS
 62
    7
 10
470.21982531150519
 20
403.68038576448077
 11
505.18133646322531
 21
438.46196245303895
  0
TEXT
  8
_0-f_
 62
    2
 10
416.42272383898222
 20
407.03935794339446
 40
12
 41
1
 50
0
  1
サカメ釘
  0
LINE
  8
_0-f_
  6
CONTINUOUS
 62
    7
 10
417.22369261297462
 20
403.68038576448077
 11
470.21982531150519
 21
403.68038576448077
  0
LINE
  8
_0-9_
  6
PHANTOM1
 62
    7
 10
517.62020899256777
 20
489.72779046448414
 11
517.62020899256777
 21
443.46196650615479
  0
LINE
  8
_0-9_
  6
PHANTOM1
 62
    7
 10
520.62020899256777
 20
489.72779046448414
 11
520.62020899256777
 21
443.46196650615479
  0
LINE
  8
_0-9_
  6
PHANTOM1
 62
    7
 10
523.62020899256777
 20
489.72779046448414
 11
523.62020899256777
 21
443.46196650615479
  0
LINE
  8
_0-9_
  6
PHANTOM1
 62
    7
 10
526.62020899256777
 20
489.72779046448414
 11
526.62020899256777
 21
443.46196650615479
  0
LINE
  8
_0-9_
  6
PHANTOM1
 62
    7
 10
529.62020899256777
 20
489.72779046448414
 11
529.62020899256777
 21
443.46196650615479
  0
LINE
  8
_0-9_
  6
PHANTOM1
 62
    7
 10
532.62020899256777
 20
463.39176013069982
 11
532.62020899256777
 21
489.72779046448414
  0
LINE
  8
_0-a_
  6
CONTINUOUS
 62
    2
 10
547.20507802894076
 20
380.96195005527278
 11
546.50507076909503
 21
380.96195005527278
  0
LINE
  8
_0-a_
  6
CONTINUOUS
 62
    2
 10
546.50507076909503
 20
380.96195005527278
 11
546.50507076909503
 21
370.96194194904115
  0
LINE
  8
_0-a_
  6
CONTINUOUS
 62
    2
 10
547.20507802894076
 20
370.96194194904115
 11
546.50507076909503
 21
370.96194194904115
  0
LINE
  8
_0-a_
  6
CONTINUOUS
 62
    2
 10
547.20507802894076
 20
380.96195005527278
 11
547.20507802894076
 21
370.96194194904115
  0
LINE
  8
_0-a_
  6
CONTINUOUS
 62
    2
 10
501.50507076909508
 20
378.46196650615479
 11
496.50506695439782
 21
376.21195904067304
  0
LINE
  8
_0-a_
  6
CONTINUOUS
 62
    2
 10
496.50506695439782
 20
376.21195904067304
 11
496.50506695439782
 21
375.71196975460794
  0
LINE
  8
_0-a_
  6
CONTINUOUS
 62
    2
 10
496.50506695439782
 20
375.71196975460794
 11
501.50507076909508
 21
373.46196245303895
  0
LINE
  8
_0-a_
  6
CONTINUOUS
 62
    2
 10
546.50507076909503
 20
378.46196650615479
 11
501.50507076909508
 21
378.46196650615479
  0
LINE
  8
_0-a_
  6
CONTINUOUS
 62
    2
 10
546.50507076909503
 20
373.46196245303895
 11
501.50507076909508
 21
373.46196245303895
  0
LINE
  8
_0-a_
  6
CONTINUOUS
 62
    2
 10
546.50507076909503
 20
373.46196245303895
 11
538.50507553746661
 21
378.46196650615479
  0
LINE
  8
_0-a_
  6
CONTINUOUS
 62
    2
 10
542.50506361653765
 20
373.46196245303895
 11
534.50506886174639
 21
378.46196650615479
  0
LINE
  8
_0-a_
  6
CONTINUOUS
 62
    2
 10
538.50507553746661
 20
373.46196245303895
 11
530.50508030583819
 21
378.46196650615479
  0
LINE
  8
_0-a_
  6
CONTINUOUS
 62
    2
 10
534.50506886174639
 20
373.46196245303895
 11
526.50507267644366
 21
378.46196650615479
  0
LINE
  8
_0-a_
  6
CONTINUOUS
 62
    2
 10
530.50508030583819
 20
373.46196245303895
 11
522.50506695439776
 21
378.46196650615479
  0
LINE
  8
_0-a_
  6
CONTINUOUS
 62
    2
 10
526.50507267644366
 20
373.46196245303895
 11
518.50507839848956
 21
378.46196650615479
  0
LINE
  8
_0-a_
  6
CONTINUOUS
 62
    2
 10
522.50506695439776
 20
373.46196245303895
 11
514.50507076909503
 21
378.46196650615479
  0
LINE
  8
_0-a_
  6
CONTINUOUS
 62
    2
 10
518.50507839848956
 20
373.46196245303895
 11
510.50508221318688
 21
378.46196650615479
  0
LINE
  8
_0-a_
  6
CONTINUOUS
 62
    2
 10
514.50507076909503
 20
373.46196245303895
 11
506.50507458379235
 21
378.46196650615479
  0
LINE
  8
_0-a_
  6
CONTINUOUS
 62
    2
 10
510.5050631397005
 20
373.46196245303895
 11
502.50506695439782
 21
378.46196650615479
  0
LINE
  8
_0-a_
  6
CONTINUOUS
 62
    2
 10
546.50507076909503
 20
375.96198295703675
 11
542.5050824516054
 21
378.46196650615479
  0
LINE
  8
_0-a_
  6
CONTINUOUS
 62
    2
 10
506.50507458379235
 20
373.46196245303895
 11
501.50507076909508
 21
376.58694171062251
  0
LINE
  8
_0-a_
  6
CONTINUOUS
 62
    2
 10
502.50506695439782
 20
373.46196245303895
 11
501.50507076909508
 21
374.08695828071382
  0
ARC
  8
_0-a_
  6
CONTINUOUS
 62
    2
 10
538.23956593205889
 20
375.96198295703675
 40
10.265490531921387
 50
330.85189819335938
 51
29.148101806640614
  0
LINE
  8
_0-8_
  6
CENTER1
 62
    7
 10
549.89324312959752
 20
375.96198295703675
 11
494.24210546167927
 21
375.96198295703675
  0
LINE
  8
_0-9_
  6
PHANTOM1
 62
    7
 10
529.62020899256777
 20
373.46196245303895
 11
529.62020899256777
 21
327.1961384947096
  0
LINE
  8
_0-9_
  6
PHANTOM1
 62
    7
 10
523.62020899256777
 20
373.46196245303895
 11
523.62020899256777
 21
327.1961384947096
  0
LINE
  8
_0-9_
  6
PHANTOM1
 62
    7
 10
526.62020899256777
 20
373.46196245303895
 11
526.62020899256777
 21
327.1961384947096
  0
LINE
  8
_0-9_
  6
PHANTOM1
 62
    7
 10
520.62020899256777
 20
373.46196245303895
 11
520.62020899256777
 21
327.1961384947096
  0
LINE
  8
_0-9_
  6
PHANTOM1
 62
    7
 10
517.62020899256777
 20
373.46196245303895
 11
517.62020899256777
 21
327.1961384947096
  0
LINE
  8
_0-e_
  6
CONTINUOUS
 62
    7
 10
542.8374324707296
 20
354.65876241127489
 11
532.62009782651523
 21
353.19253299826801
  0
LINE
  8
_0-e_
  6
CONTINUOUS
 62
    7
 10
532.62009782651523
 20
353.19253299826801
 11
532.62009782651523
 21
463.45562751368186
  0
LINE
  8
_0-e_
  6
CONTINUOUS
 62
    7
 10
544.73434326702397
 20
457.91072175076937
 11
546.73990064437999
 21
359.43109991114284
  0
LINE
  8
_0-e_
  6
CONTINUOUS
 62
    7
 10
546.73990064437999
 20
359.43109991114284
 11
542.75082853280742
 21
358.849784745649
  0
LINE
  8
_0-e_
  6
CONTINUOUS
 62
    7
 10
544.73434326702397
 20
457.91072175076937
 11
540.72503870489368
 21
458.32920435080109
  0
LINE
  8
_0-e_
  6
CONTINUOUS
 62
    7
 10
540.63848425493586
 20
462.63645323686592
 11
532.62009782651523
 21
463.45562751368186
  0
LINE
  8
_0-e_
  6
CONTINUOUS
 62
    7
 10
540.63848425493586
 20
462.63645323686592
 11
540.72503727807691
 21
458.38738767199987
  0
LINE
  8
_0-e_
  6
CONTINUOUS
 62
    7
 10
542.75087660120255
 20
358.90796771106329
 11
542.8374324707296
 21
354.65876241127489
  0
LINE
  8
_0-9_
  6
PHANTOM1
 62
    7
 10
529.62020899256777
 20
438.46196245303895
 11
529.62020899256777
 21
378.46196650615479
  0
LINE
  8
_0-9_
  6
PHANTOM1
 62
    7
 10
526.62020899256777
 20
438.46196245303895
 11
526.62020899256777
 21
378.46196650615479
  0
LINE
  8
_0-9_
  6
PHANTOM1
 62
    7
 10
523.62020899256777
 20
438.46196245303895
 11
523.62020899256777
 21
378.46196650615479
  0
LINE
  8
_0-9_
  6
PHANTOM1
 62
    7
 10
520.62020899256777
 20
438.46196245303895
 11
520.62020899256777
 21
378.46196650615479
  0
LINE
  8
_0-9_
  6
PHANTOM1
 62
    7
 10
517.62020899256777
 20
438.46196245303895
 11
517.62020899256777
 21
378.46196650615479
  0
LINE
  8
_0-f_
  6
CONTINUOUS
 62
    7
 10
597.65063770638039
 20
523.54980919713398
 11
652.62009782651523
 21
523.54980919713398
  0
LINE
  8
_0-f_
  6
CONTINUOUS
 62
    7
 10
597.65063770638039
 20
523.54980919713398
 11
605.08647416668396
 21
524.52875563878433
  0
LINE
  8
_0-f_
  6
CONTINUOUS
 62
    7
 10
597.65063770638039
 20
523.54980919713398
 11
605.08647416668396
 21
522.57086275548352
  0
LINE
  8
_0-f_
  6
CONTINUOUS
 62
    7
 10
652.62009782651523
 20
523.54980919713398
 11
645.18426136621167
 21
524.52875563878433
  0
LINE
  8
_0-f_
  6
CONTINUOUS
 62
    7
 10
652.62009782651523
 20
523.54980919713398
 11
645.18426136621167
 21
522.57086275548352
  0
TEXT
  8
_0-f_
 62
    2
 10
612.38536776644787
 20
526.54980919713398
 40
12
 41
1
 50
0
  1
５５
  0
LINE
  8
_0-f_
  6
CONTINUOUS
 62
    7
 10
597.65063770638039
 20
524.44980919713396
 11
597.65063770638039
 21
462.09094471213137
  0
LINE
  8
_0-f_
  6
CONTINUOUS
 62
    7
 10
532.62020899256777
 20
546.07184243831716
 11
652.62009782651523
 21
546.07184243831716
  0
LINE
  8
_0-f_
  6
CONTINUOUS
 62
    7
 10
532.62020899256777
 20
546.07184243831716
 11
540.05604545287144
 21
547.05078887996751
  0
LINE
  8
_0-f_
  6
CONTINUOUS
 62
    7
 10
532.62020899256777
 20
546.07184243831716
 11
540.05604545287144
 21
545.0928959966667
  0
LINE
  8
_0-f_
  6
CONTINUOUS
 62
    7
 10
652.62009782651523
 20
546.07184243831716
 11
645.18426136621167
 21
547.05078887996751
  0
LINE
  8
_0-f_
  6
CONTINUOUS
 62
    7
 10
652.62009782651523
 20
546.07184243831716
 11
645.18426136621167
 21
545.0928959966667
  0
TEXT
  8
_0-f_
 62
    2
 10
566.37015340954156
 20
549.07184243831716
 40
12
 41
1
 50
0
  1
Ｌ（※）
  0
LINE
  8
_0-f_
  6
CONTINUOUS
 62
    7
 10
532.62020899256777
 20
546.97184243831703
 11
532.62020899256777
 21
491.78010432593737
  0
LINE
  8
_0-9_
  6
PHANTOM1
 62
    7
 10
532.62009782651523
 20
353.19253299826801
 11
532.62009782651523
 21
327.1961384947096
  0
LINE
  8
_0-f_
  6
CONTINUOUS
 62
    7
 10
856.06901341019147
 20
727.36458542104901
 11
856.06901341019147
 21
1127.3646138766285
  0
LINE
  8
_0-f_
  6
CONTINUOUS
 62
    7
 10
856.06901341019147
 20
727.36458542104901
 11
855.09006696854101
 21
734.80042188135258
  0
LINE
  8
_0-f_
  6
CONTINUOUS
 62
    7
 10
856.06901341019147
 20
727.36458542104901
 11
857.04795985184182
 21
734.80042188135258
  0
LINE
  8
_0-f_
  6
CONTINUOUS
 62
    7
 10
856.06901341019147
 20
1127.3646138766285
 11
855.09006696854101
 21
1119.9287774163249
  0
LINE
  8
_0-f_
  6
CONTINUOUS
 62
    7
 10
856.06901341019147
 20
1127.3646138766285
 11
857.04795985184182
 21
1119.9287774163249
  0
LINE
  8
_0-f_
  6
CONTINUOUS
 62
    7
 10
856.96901341019145
 20
727.36458542104901
 11
745.6670861991829
 21
727.36458542104901
  0
LINE
  8
_0-f_
  6
CONTINUOUS
 62
    7
 10
856.96901341019145
 20
1127.3646138766285
 11
745.6670861991829
 21
1127.3646138766285
  0
TEXT
  8
_0-f_
 62
    2
 10
853.06901341019147
 20
907.86459964883875
 40
12
 41
1
 50
90
  1
４００
  0
ARC
  8
_0-0_
  6
CONTINUOUS
 62
    3
 10
736.61974602280918
 20
854.86445575079892
 40
3
 50
270
 51
0
  0
LINE
  8
_0-0_
  6
CONTINUOUS
 62
    3
 10
724.61747069507931
 20
853.54291143277896
 11
737.72689764629854
 21
852.07622776826133
  0
ARC
  8
_0-0_
  6
CONTINUOUS
 62
    3
 10
629.24402770619827
 20
872.36447578164189
 40
4
 50
14.301354027883169
 51
90
  0
ARC
  8
_0-0_
  6
CONTINUOUS
 62
    3
 10
757.61974602280918
 20
833.36445575079892
 40
10
 50
270
 51
0
  0
ARC
  8
_0-0_
  6
CONTINUOUS
 62
    3
 10
757.61974602280918
 20
832.36445575079881
 40
10
 50
270
 51
0
  0
ARC
  8
_0-0_
  6
CONTINUOUS
 62
    3
 10
650.62009782651512
 20
825.17418284353732
 40
2
 50
275.71060249544064
 51
0
  0
LINE
  8
_0-0_
  6
CONTINUOUS
 62
    3
 10
650.81910558958975
 20
823.18410849562042
 11
642.62011432250324
 21
822.36420801640497
  0
LINE
  8
_0-0_
  6
CONTINUOUS
 62
    3
 10
757.61974602280918
 20
823.36445575079881
 11
651.47150128540466
 21
823.36445575079881
  0
ARC
  8
_0-0_
  6
CONTINUOUS
 62
    3
 10
622.12009782651501
 20
867.085129842063
 40
1.5
 50
99.090298762516156
 51
180
  0
LINE
  8
_0-0_
  6
CONTINUOUS
 62
    3
 10
620.62009782651501
 20
857.64328619074695
 11
620.62009782651501
 21
867.085129842063
  0
ARC
  8
_0-0_
  6
CONTINUOUS
 62
    3
 10
622.12009782651501
 20
857.64328619074695
 40
1.5
 50
180
 51
260.90970123748383
  0
LINE
  8
_0-0_
  6
CONTINUOUS
 62
    3
 10
621.88311151022242
 20
856.16212533321323
 11
633.12006728217887
 21
854.36420801640497
  0
ARC
  8
_0-0_
  6
CONTINUOUS
 62
    3
 10
631.12006728217875
 20
852.65877045061552
 40
2
 50
0
 51
80.90970123748329
  0
ARC
  8
_0-0_
  6
CONTINUOUS
 62
    3
 10
631.12006728217875
 20
872.06964558219443
 40
2
 50
279.09029876251657
 51
0
  0
LINE
  8
_0-0_
  6
CONTINUOUS
 62
    3
 10
621.88311151022242
 20
868.56629069959672
 11
633.12006728217887
 21
870.36420801640497
  0
LINE
  8
_0-0_
  6
CONTINUOUS
 62
    3
 10
633.12006728217887
 20
853.16689337145772
 11
633.12006728217887
 21
918.37662597993199
  0
ARC
  8
_0-0_
  6
CONTINUOUS
 62
    3
 10
636.12006728217887
 20
853.16689337145772
 40
3
 50
180
 51
260.28637102283574
  0
LINE
  8
_0-0_
  6
CONTINUOUS
 62
    3
 10
652.62009782651512
 20
851.86460439143548
 11
736.61974602280918
 21
851.86460439143548
  0
LINE
  8
_0-0_
  6
CONTINUOUS
 62
    3
 10
757.61974602280918
 20
822.36445575079904
 11
642.62011432250324
 21
822.36445575079904
  0
LINE
  8
_0-0_
  6
CONTINUOUS
 62
    3
 10
723.51043459951347
 20
853.33118528645878
 11
712.11992023222717
 21
853.33118528645878
  0
LINE
  8
_0-0_
  6
CONTINUOUS
 62
    3
 10
642.62011432250324
 20
849.0105930742327
 11
635.61389574838518
 21
850.20990328382186
  0
LINE
  8
_0-2_
  6
CONTINUOUS
 62
    6
 10
657.98381843218499
 20
897.36450052562418
 11
657.98381843218499
 21
903.36447083284543
  0
LINE
  8
_0-2_
  6
CONTINUOUS
 62
    6
 10
657.98381843218499
 20
878.86451372241481
 11
657.98381843218499
 21
885.3645104232171
  0
LINE
  8
_0-2_
  6
CONTINUOUS
 62
    6
 10
727.25595769791562
 20
915.3644609352524
 11
727.25595769791562
 21
921.36448073043834
  0
LINE
  8
_0-2_
  6
CONTINUOUS
 62
    6
 10
727.25595769791562
 20
897.36450052562418
 11
727.25595769791562
 21
903.36447083284543
  0
LINE
  8
_0-2_
  6
CONTINUOUS
 62
    6
 10
727.25595769791562
 20
878.86451372241481
 11
727.25595769791562
 21
885.3645104232171
  0
LINE
  8
_0-2_
  6
CONTINUOUS
 62
    6
 10
698.15545094115873
 20
876.86450712401938
 11
725.25595109952019
 21
876.86450712401938
  0
LINE
  8
_0-2_
  6
CONTINUOUS
 62
    6
 10
696.15544434276342
 20
885.3645104232171
 11
696.15544434276342
 21
878.86451372241481
  0
LINE
  8
_0-2_
  6
CONTINUOUS
 62
    6
 10
698.15545094115873
 20
887.36446753364771
 11
725.25595109952019
 21
887.36446753364771
  0
LINE
  8
_0-2_
  6
CONTINUOUS
 62
    6
 10
687.08432518894165
 20
887.36446753364771
 11
659.98382503058019
 21
887.36446753364771
  0
LINE
  8
_0-2_
  6
CONTINUOUS
 62
    6
 10
689.08433178733696
 20
878.86451372241481
 11
689.08433178733696
 21
885.3645104232171
  0
LINE
  8
_0-2_
  6
CONTINUOUS
 62
    6
 10
687.08432518894165
 20
876.86450712401938
 11
659.98382503058019
 21
876.86450712401938
  0
LINE
  8
_0-2_
  6
CONTINUOUS
 62
    6
 10
687.08432518894165
 20
895.36449392722875
 11
659.98382503058019
 21
895.36449392722875
  0
LINE
  8
_0-2_
  6
CONTINUOUS
 62
    6
 10
689.08433178733696
 20
903.36447083284543
 11
689.08433178733696
 21
897.36450052562418
  0
LINE
  8
_0-2_
  6
CONTINUOUS
 62
    6
 10
687.08432518894165
 20
905.36447743124063
 11
659.98382503058019
 21
905.36447743124063
  0
LINE
  8
_0-2_
  6
CONTINUOUS
 62
    6
 10
689.08433178733696
 20
921.36448073043834
 11
689.08433178733696
 21
915.3644609352524
  0
LINE
  8
_0-2_
  6
CONTINUOUS
 62
    6
 10
698.15545094115873
 20
923.36446258485125
 11
725.25595109952019
 21
923.36446258485125
  0
LINE
  8
_0-2_
  6
CONTINUOUS
 62
    6
 10
696.15544434276342
 20
915.3644609352524
 11
696.15544434276342
 21
921.36448073043834
  0
LINE
  8
_0-2_
  6
CONTINUOUS
 62
    6
 10
698.15545094115873
 20
913.36445433685731
 11
725.25595109952019
 21
913.36445433685731
  0
LINE
  8
_0-2_
  6
CONTINUOUS
 62
    6
 10
698.15545094115873
 20
905.36447743124063
 11
725.25595109952019
 21
905.36447743124063
  0
LINE
  8
_0-2_
  6
CONTINUOUS
 62
    6
 10
696.15544434276342
 20
897.36450052562418
 11
696.15544434276342
 21
903.36447083284543
  0
LINE
  8
_0-2_
  6
CONTINUOUS
 62
    6
 10
698.15545094115873
 20
895.36449392722875
 11
725.25595109952019
 21
895.36449392722875
  0
LINE
  8
_0-2_
  6
CONTINUOUS
 62
    6
 10
687.08432518894165
 20
923.36446258485125
 11
686.69854176147123
 21
923.36446258485125
  0
LINE
  8
_0-2_
  6
CONTINUOUS
 62
    6
 10
687.08432518894165
 20
913.36445433685731
 11
683.61979651231582
 21
913.36445433685731
  0
LINE
  8
_0-2_
  6
CONTINUOUS
 62
    6
 10
681.65970195731165
 20
868.46449425714866
 11
682.69224359318571
 21
863.43651706120272
  0
LINE
  8
_0-2_
  6
CONTINUOUS
 62
    6
 10
686.58207183695686
 20
863.43651706120272
 11
687.6701389690304
 21
868.46449425714866
  0
LINE
  8
_0-2_
  6
CONTINUOUS
 62
    6
 10
697.5696124170878
 20
868.46449425714866
 11
698.60212930897967
 21
863.43651706120272
  0
LINE
  8
_0-2_
  6
CONTINUOUS
 62
    6
 10
702.49193280876852
 20
863.43651706120272
 11
703.57999994084196
 21
868.46449425714866
  0
LINE
  8
_0-2_
  6
CONTINUOUS
 62
    6
 10
714.51201502477375
 20
863.43654180518502
 11
713.47944864491717
 21
868.46449425714866
  0
LINE
  8
_0-2_
  6
CONTINUOUS
 62
    6
 10
697.5696124170878
 20
868.46449425714866
 11
687.6701389690304
 21
868.46449425714866
  0
LINE
  8
_0-2_
  6
CONTINUOUS
 62
    6
 10
713.47944864491717
 20
868.46449425714866
 11
703.57999994084196
 21
868.46449425714866
  0
LINE
  8
_0-2_
  6
CONTINUOUS
 62
    6
 10
670.67216137718071
 20
863.43651706120272
 11
671.76025325323644
 21
868.46449425714866
  0
LINE
  8
_0-2_
  6
CONTINUOUS
 62
    6
 10
686.58207183695686
 20
863.43651706120272
 11
682.69224359318571
 21
863.43651706120272
  0
LINE
  8
_0-2_
  6
CONTINUOUS
 62
    6
 10
702.49193280876852
 20
863.43651706120272
 11
698.60212930897967
 21
863.43651706120272
  0
LINE
  8
_0-2_
  6
CONTINUOUS
 62
    6
 10
733.61986249626852
 20
863.43651706120272
 11
730.42190074056748
 21
863.43651706120272
  0
LINE
  8
_0-2_
  6
CONTINUOUS
 62
    6
 10
718.40181852456249
 20
863.43651706120272
 11
714.51201502477375
 21
863.43651706120272
  0
LINE
  8
_0-2_
  6
CONTINUOUS
 62
    6
 10
666.78233313340957
 20
863.43651706120272
 11
665.7498409855001
 21
868.46449425714866
  0
LINE
  8
_0-2_
  6
CONTINUOUS
 62
    6
 10
670.67216137718071
 20
863.43651706120272
 11
666.78233313340957
 21
863.43651706120272
  0
LINE
  8
_0-2_
  6
CONTINUOUS
 62
    6
 10
681.65970195731165
 20
868.46449425714866
 11
671.76025325323644
 21
868.46449425714866
  0
LINE
  8
_0-2_
  6
CONTINUOUS
 62
    6
 10
729.38938384867561
 20
868.46449425714866
 11
719.48991040061821
 21
868.46449425714866
  0
LINE
  8
_0-2_
  6
CONTINUOUS
 62
    6
 10
729.38938384867561
 20
868.46449425714866
 11
730.42190074056748
 21
863.43651706120272
  0
LINE
  8
_0-2_
  6
CONTINUOUS
 62
    6
 10
694.43504474394592
 20
860.77381712982606
 11
714.51201502477375
 21
863.43654180518502
  0
LINE
  8
_0-2_
  6
CONTINUOUS
 62
    6
 10
718.40181852456249
 20
863.43651706120272
 11
704.01314335036477
 21
861.42468283928542
  0
LINE
  8
_0-2_
  6
CONTINUOUS
 62
    6
 10
703.2874765825228
 20
867.11277999405741
 11
713.47944864491717
 21
868.46449425714866
  0
LINE
  8
_0-2_
  6
CONTINUOUS
 62
    6
 10
730.42190074056748
 20
863.43651706120272
 11
727.11061154609956
 21
862.99416889027793
  0
LINE
  8
_0-2_
  6
CONTINUOUS
 62
    6
 10
718.40181852456249
 20
863.43651706120272
 11
719.48991040061821
 21
868.46449425714866
  0
LINE
  8
_0-2_
  6
CONTINUOUS
 62
    6
 10
729.38938384867561
 20
868.46449425714866
 11
719.19520957185978
 21
867.10278342522292
  0
LINE
  8
_0-2_
  6
CONTINUOUS
 62
    6
 10
675.07320029451603
 20
859.45815484889272
 11
702.49193280876852
 21
863.43651706120272
  0
LINE
  8
_0-2_
  6
CONTINUOUS
 62
    6
 10
698.60212930897967
 20
863.43651706120272
 11
662.60809755750176
 21
858.61111884804814
  0
LINE
  8
_0-2_
  6
CONTINUOUS
 62
    6
 10
697.5696124170878
 20
868.46449425714866
 11
687.37437414903457
 21
867.09773565284127
  0
LINE
  8
_0-2_
  6
CONTINUOUS
 62
    6
 10
686.58207183695686
 20
863.43651706120272
 11
653.02554503427518
 21
857.96000569876605
  0
LINE
  8
_0-2_
  6
CONTINUOUS
 62
    6
 10
671.35368488066467
 20
866.58585689175607
 11
681.65970195731165
 21
868.46449425714866
  0
LINE
  8
_0-2_
  6
CONTINUOUS
 62
    6
 10
724.78101510395436
 20
915.3644609352524
 11
724.78101510395436
 21
921.36448073043834
  0
LINE
  8
_0-2_
  6
CONTINUOUS
 62
    6
 10
724.78101510395436
 20
897.36450052562418
 11
724.78101510395436
 21
903.36447083284543
  0
LINE
  8
_0-2_
  6
CONTINUOUS
 62
    6
 10
724.78101510395436
 20
878.86451372241481
 11
724.78101510395436
 21
885.3645104232171
  0
LINE
  8
_0-2_
  6
CONTINUOUS
 62
    6
 10
686.60941393735811
 20
878.86451372241481
 11
686.60941393735811
 21
885.3645104232171
  0
LINE
  8
_0-2_
  6
CONTINUOUS
 62
    6
 10
686.60941393735811
 20
903.36447083284543
 11
686.60941393735811
 21
897.36450052562418
  0
LINE
  8
_0-2_
  6
CONTINUOUS
 62
    6
 10
686.60941393735811
 20
921.36448073043834
 11
686.60941393735811
 21
915.3644609352524
  0
LINE
  8
_0-2_
  6
CONTINUOUS
 62
    6
 10
665.7498409855001
 20
868.46449425714866
 11
652.62018911683447
 21
863.63949194771044
  0
LINE
  8
_0-2_
  6
CONTINUOUS
 62
    6
 10
652.62018911683447
 20
915.48501361684021
 11
668.81601629166551
 21
917.43632405814105
  0
LINE
  8
_0-2_
  6
CONTINUOUS
 62
    6
 10
657.98381843218499
 20
957.36445103765959
 11
657.98381843218499
 21
951.36453021840271
  0
LINE
  8
_0-2_
  6
CONTINUOUS
 62
    6
 10
657.98381843218499
 20
975.86448732883366
 11
657.98381843218499
 21
969.36449062803115
  0
LINE
  8
_0-2_
  6
CONTINUOUS
 62
    6
 10
727.25595769791562
 20
939.36449062803115
 11
727.25595769791562
 21
933.36454506479208
  0
LINE
  8
_0-2_
  6
CONTINUOUS
 62
    6
 10
727.25595769791562
 20
957.36445103765959
 11
727.25595769791562
 21
951.36453021840271
  0
LINE
  8
_0-2_
  6
CONTINUOUS
 62
    6
 10
727.25595769791562
 20
975.86448732883366
 11
727.25595769791562
 21
969.36449062803115
  0
LINE
  8
_0-2_
  6
CONTINUOUS
 62
    6
 10
698.15545094115873
 20
977.86449392722875
 11
725.25595109952019
 21
977.86449392722875
  0
LINE
  8
_0-2_
  6
CONTINUOUS
 62
    6
 10
696.15544434276342
 20
969.36449062803115
 11
696.15544434276342
 21
975.86448732883366
  0
LINE
  8
_0-2_
  6
CONTINUOUS
 62
    6
 10
698.15545094115873
 20
967.36453351760053
 11
725.25595109952019
 21
967.36453351760053
  0
LINE
  8
_0-2_
  6
CONTINUOUS
 62
    6
 10
687.08432518894165
 20
967.36453351760053
 11
659.98382503058019
 21
967.36453351760053
  0
LINE
  8
_0-2_
  6
CONTINUOUS
 62
    6
 10
689.08433178733696
 20
975.86448732883366
 11
689.08433178733696
 21
969.36449062803115
  0
LINE
  8
_0-2_
  6
CONTINUOUS
 62
    6
 10
687.08432518894165
 20
977.86449392722875
 11
659.98382503058019
 21
977.86449392722875
  0
LINE
  8
_0-2_
  6
CONTINUOUS
 62
    6
 10
687.08432518894165
 20
959.36445763605491
 11
659.98382503058019
 21
959.36445763605491
  0
LINE
  8
_0-2_
  6
CONTINUOUS
 62
    6
 10
689.08433178733696
 20
951.36453021840271
 11
689.08433178733696
 21
957.36445103765959
  0
LINE
  8
_0-2_
  6
CONTINUOUS
 62
    6
 10
687.08432518894165
 20
949.3645236200075
 11
659.98382503058019
 21
949.3645236200075
  0
LINE
  8
_0-2_
  6
CONTINUOUS
 62
    6
 10
689.08433178733696
 20
933.36454506479208
 11
689.08433178733696
 21
939.36449062803115
  0
LINE
  8
_0-2_
  6
CONTINUOUS
 62
    6
 10
698.15545094115873
 20
931.36453846639688
 11
725.25595109952019
 21
931.36453846639688
  0
LINE
  8
_0-2_
  6
CONTINUOUS
 62
    6
 10
696.15544434276342
 20
939.36449062803115
 11
696.15544434276342
 21
933.36454506479208
  0
LINE
  8
_0-2_
  6
CONTINUOUS
 62
    6
 10
698.15545094115873
 20
941.36449722642647
 11
725.25595109952019
 21
941.36449722642647
  0
LINE
  8
_0-2_
  6
CONTINUOUS
 62
    6
 10
698.15545094115873
 20
949.3645236200075
 11
725.25595109952019
 21
949.3645236200075
  0
LINE
  8
_0-2_
  6
CONTINUOUS
 62
    6
 10
696.15544434276342
 20
957.36445103765959
 11
696.15544434276342
 21
951.36453021840271
  0
LINE
  8
_0-2_
  6
CONTINUOUS
 62
    6
 10
698.15545094115873
 20
959.36445763605491
 11
725.25595109952019
 21
959.36445763605491
  0
LINE
  8
_0-2_
  6
CONTINUOUS
 62
    6
 10
687.08432518894165
 20
931.36453846639688
 11
686.69854176147123
 21
931.36453846639688
  0
LINE
  8
_0-2_
  6
CONTINUOUS
 62
    6
 10
687.08432518894165
 20
941.36449722642647
 11
683.61979651231582
 21
941.36449722642647
  0
LINE
  8
_0-2_
  6
CONTINUOUS
 62
    6
 10
681.65970195731154
 20
986.26448205011741
 11
682.69224359318571
 21
991.29245924606334
  0
LINE
  8
_0-2_
  6
CONTINUOUS
 62
    6
 10
686.58207183695686
 20
991.29245924606334
 11
687.6701389690304
 21
986.26448205011741
  0
LINE
  8
_0-2_
  6
CONTINUOUS
 62
    6
 10
697.5696124170878
 20
986.26448205011741
 11
698.60212930897967
 21
991.29245924606334
  0
LINE
  8
_0-2_
  6
CONTINUOUS
 62
    6
 10
702.49193280876852
 20
991.29245924606334
 11
703.57999994084196
 21
986.26448205011741
  0
LINE
  8
_0-2_
  6
CONTINUOUS
 62
    6
 10
714.51201502477375
 20
991.29245924606334
 11
713.47944864491717
 21
986.26448205011741
  0
LINE
  8
_0-2_
  6
CONTINUOUS
 62
    6
 10
697.5696124170878
 20
986.26448205011741
 11
687.6701389690304
 21
986.26448205011741
  0
LINE
  8
_0-2_
  6
CONTINUOUS
 62
    6
 10
713.47944864491717
 20
986.26448205011741
 11
703.57999994084196
 21
986.26448205011741
  0
LINE
  8
_0-2_
  6
CONTINUOUS
 62
    6
 10
670.6721613771806
 20
991.29245924606334
 11
671.76025325323633
 21
986.26448205011741
  0
LINE
  8
_0-2_
  6
CONTINUOUS
 62
    6
 10
686.58207183695686
 20
991.29245924606334
 11
682.69224359318571
 21
991.29245924606334
  0
LINE
  8
_0-2_
  6
CONTINUOUS
 62
    6
 10
702.49193280876852
 20
991.29245924606334
 11
698.60212930897967
 21
991.29245924606334
  0
LINE
  8
_0-2_
  6
CONTINUOUS
 62
    6
 10
733.61986249626852
 20
991.29245924606334
 11
730.42190074056748
 21
991.29245924606334
  0
LINE
  8
_0-2_
  6
CONTINUOUS
 62
    6
 10
718.40181852456249
 20
991.29245924606334
 11
714.51201502477375
 21
991.29245924606334
  0
LINE
  8
_0-2_
  6
CONTINUOUS
 62
    6
 10
666.78233313340957
 20
991.29245924606334
 11
665.74984098549999
 21
986.26448205011741
  0
LINE
  8
_0-2_
  6
CONTINUOUS
 62
    6
 10
670.6721613771806
 20
991.29245924606334
 11
666.78233313340957
 21
991.29245924606334
  0
LINE
  8
_0-2_
  6
CONTINUOUS
 62
    6
 10
681.65970195731154
 20
986.26448205011741
 11
671.76025325323633
 21
986.26448205011741
  0
LINE
  8
_0-2_
  6
CONTINUOUS
 62
    6
 10
729.38938384867561
 20
986.26448205011741
 11
719.48991040061821
 21
986.26448205011741
  0
LINE
  8
_0-2_
  6
CONTINUOUS
 62
    6
 10
729.38938384867561
 20
986.26448205011741
 11
730.42190074056748
 21
991.29245924606334
  0
LINE
  8
_0-2_
  6
CONTINUOUS
 62
    6
 10
694.43504474394592
 20
993.95510968947553
 11
714.51201502477375
 21
991.29245924606334
  0
LINE
  8
_0-2_
  6
CONTINUOUS
 62
    6
 10
703.2874765825228
 20
987.61619631320866
 11
713.47944864491717
 21
986.26448205011741
  0
LINE
  8
_0-2_
  6
CONTINUOUS
 62
    6
 10
730.42190074056748
 20
991.29245924606334
 11
727.11061154609956
 21
991.73483216097043
  0
LINE
  8
_0-2_
  6
CONTINUOUS
 62
    6
 10
718.40181852456249
 20
991.29245924606334
 11
719.48991040061821
 21
986.26448205011741
  0
LINE
  8
_0-2_
  6
CONTINUOUS
 62
    6
 10
729.38938384867561
 20
986.26448205011741
 11
719.19520957185978
 21
987.62619288204303
  0
LINE
  8
_0-2_
  6
CONTINUOUS
 62
    6
 10
675.07320029451591
 20
995.27079671439105
 11
702.49193280876852
 21
991.29245924606334
  0
LINE
  8
_0-2_
  6
CONTINUOUS
 62
    6
 10
698.60212930897967
 20
991.29245924606334
 11
662.60809755750165
 21
996.11783271523552
  0
LINE
  8
_0-2_
  6
CONTINUOUS
 62
    6
 10
697.5696124170878
 20
986.26448205011741
 11
687.37437414903457
 21
987.6312406544248
  0
LINE
  8
_0-2_
  6
CONTINUOUS
 62
    6
 10
686.58207183695686
 20
991.29245924606334
 11
653.02554503427518
 21
996.76899535248231
  0
LINE
  8
_0-2_
  6
CONTINUOUS
 62
    6
 10
671.35368488066456
 20
988.14304518356334
 11
681.65970195731154
 21
986.26448205011741
  0
LINE
  8
_0-2_
  6
CONTINUOUS
 62
    6
 10
724.78101510395436
 20
939.36449062803115
 11
724.78101510395436
 21
933.36454506479208
  0
LINE
  8
_0-2_
  6
CONTINUOUS
 62
    6
 10
724.78101510395436
 20
957.36445103765959
 11
724.78101510395436
 21
951.36453021840271
  0
LINE
  8
_0-2_
  6
CONTINUOUS
 62
    6
 10
724.78101510395436
 20
975.86448732883366
 11
724.78101510395436
 21
969.36449062803115
  0
LINE
  8
_0-2_
  6
CONTINUOUS
 62
    6
 10
686.60941393735811
 20
975.86448732883366
 11
686.60941393735811
 21
969.36449062803115
  0
LINE
  8
_0-2_
  6
CONTINUOUS
 62
    6
 10
686.60941393735811
 20
951.36453021840271
 11
686.60941393735811
 21
957.36445103765959
  0
LINE
  8
_0-2_
  6
CONTINUOUS
 62
    6
 10
686.60941393735811
 20
933.36454506479208
 11
686.60941393735811
 21
939.36449062803115
  0
LINE
  8
_0-2_
  6
CONTINUOUS
 62
    6
 10
652.62018911683447
 20
939.24398743440793
 11
668.81594205971874
 21
937.29272648107178
  0
LINE
  8
_0-2_
  6
CONTINUOUS
 62
    6
 10
730.6199020866402
 20
1000.8644213448808
 11
652.62018911683447
 21
1000.8644213448808
  0
LINE
  8
_0-2_
  6
CONTINUOUS
 62
    6
 10
733.61986249626852
 20
856.86444114006667
 11
733.61986249626852
 21
997.8644609352524
  0
LINE
  8
_0-2_
  6
CONTINUOUS
 62
    6
 10
730.6199020866402
 20
853.86448073043834
 11
652.62018911683447
 21
853.86448073043834
  0
LINE
  8
_0-2_
  6
CONTINUOUS
 62
    6
 10
670.6721613771806
 20
991.29245924606334
 11
652.62016437285206
 21
996.57198376570022
  0
LINE
  8
_0-2_
  6
CONTINUOUS
 62
    6
 10
666.78233313340957
 20
991.29245924606334
 11
652.62016437285206
 21
996.49691052351272
  0
LINE
  8
_0-2_
  6
CONTINUOUS
 62
    6
 10
652.62016437285206
 20
996.7741915887575
 11
682.69224359318571
 21
991.29245924606334
  0
LINE
  8
_0-2_
  6
CONTINUOUS
 62
    6
 10
652.62016437285206
 20
996.79656014872376
 11
733.61986249626852
 21
991.29245924606334
  0
LINE
  8
_0-2_
  6
CONTINUOUS
 62
    6
 10
666.78233313340957
 20
863.43651706120272
 11
652.62016437285206
 21
858.23209052773564
  0
LINE
  8
_0-2_
  6
CONTINUOUS
 62
    6
 10
670.67216137718071
 20
863.43651706120272
 11
652.62016437285206
 21
858.15706677351272
  0
LINE
  8
_0-2_
  6
CONTINUOUS
 62
    6
 10
652.62016437285206
 20
857.95475997452616
 11
682.69224359318571
 21
863.43651706120272
  0
LINE
  8
_0-2_
  6
CONTINUOUS
 62
    6
 10
652.62016437285206
 20
857.93249039048919
 11
733.61986249626852
 21
863.43649231722043
  0
LINE
  8
_0-2_
  6
CONTINUOUS
 62
    6
 10
718.40181852456249
 20
991.29245924606334
 11
704.01314335036477
 21
993.30429346798053
  0
ARC
  8
_0-2_
  6
CONTINUOUS
 62
    6
 10
659.98382503058019
 20
903.36447083284543
 40
2.0000000257749817
 50
90
 51
180
  0
ARC
  8
_0-2_
  6
CONTINUOUS
 62
    6
 10
659.98382503058019
 20
897.36450052562418
 40
2.0000000257749817
 50
180
 51
270
  0
ARC
  8
_0-2_
  6
CONTINUOUS
 62
    6
 10
659.98382503058019
 20
885.3645104232171
 40
2.0000000257749817
 50
90
 51
180
  0
ARC
  8
_0-2_
  6
CONTINUOUS
 62
    6
 10
659.98382503058019
 20
878.86451372241481
 40
2.0000000257749817
 50
180
 51
270
  0
ARC
  8
_0-2_
  6
CONTINUOUS
 62
    6
 10
725.25595109952019
 20
921.36448073043834
 40
2.0000000257749817
 50
0
 51
90
  0
ARC
  8
_0-2_
  6
CONTINUOUS
 62
    6
 10
725.25595109952019
 20
915.3644609352524
 40
2.0000000257749817
 50
270
 51
0
  0
ARC
  8
_0-2_
  6
CONTINUOUS
 62
    6
 10
725.25595109952019
 20
903.36447083284543
 40
2.0000000257749817
 50
0
 51
90
  0
ARC
  8
_0-2_
  6
CONTINUOUS
 62
    6
 10
725.25595109952019
 20
897.36450052562418
 40
2.0000000257749817
 50
270
 51
0
  0
ARC
  8
_0-2_
  6
CONTINUOUS
 62
    6
 10
725.25595109952019
 20
885.3645104232171
 40
2.0000000257749817
 50
0
 51
90
  0
ARC
  8
_0-2_
  6
CONTINUOUS
 62
    6
 10
725.25595109952019
 20
878.86451372241481
 40
2.0000000257749817
 50
270
 51
0
  0
ARC
  8
_0-2_
  6
CONTINUOUS
 62
    6
 10
698.15545094115873
 20
878.86451372241481
 40
2.0000000257749817
 50
180
 51
270
  0
ARC
  8
_0-2_
  6
CONTINUOUS
 62
    6
 10
698.15545094115873
 20
885.3645104232171
 40
2.0000000257749817
 50
90
 51
180
  0
ARC
  8
_0-2_
  6
CONTINUOUS
 62
    6
 10
687.08432518894165
 20
885.3645104232171
 40
2.0000000257749817
 50
0
 51
90
  0
ARC
  8
_0-2_
  6
CONTINUOUS
 62
    6
 10
687.08432518894165
 20
878.86451372241481
 40
2.0000000257749817
 50
270
 51
0
  0
ARC
  8
_0-2_
  6
CONTINUOUS
 62
    6
 10
687.08432518894165
 20
897.36450052562418
 40
2.0000000257749817
 50
270
 51
0
  0
ARC
  8
_0-2_
  6
CONTINUOUS
 62
    6
 10
687.08432518894165
 20
903.36447083284543
 40
2.0000000257749817
 50
0
 51
90
  0
ARC
  8
_0-2_
  6
CONTINUOUS
 62
    6
 10
687.08432518894165
 20
915.3644609352524
 40
2.0000000257749817
 50
270
 51
0
  0
ARC
  8
_0-2_
  6
CONTINUOUS
 62
    6
 10
687.08432518894165
 20
921.36448073043834
 40
2.0000000257749817
 50
0
 51
90
  0
ARC
  8
_0-2_
  6
CONTINUOUS
 62
    6
 10
698.15545094115873
 20
921.36448073043834
 40
2.0000000257749817
 50
90
 51
180
  0
ARC
  8
_0-2_
  6
CONTINUOUS
 62
    6
 10
698.15545094115873
 20
915.3644609352524
 40
2.0000000257749817
 50
180
 51
270
  0
ARC
  8
_0-2_
  6
CONTINUOUS
 62
    6
 10
698.15545094115873
 20
903.36447083284543
 40
2.0000000257749817
 50
90
 51
180
  0
ARC
  8
_0-2_
  6
CONTINUOUS
 62
    6
 10
698.15545094115873
 20
897.36450052562418
 40
2.0000000257749817
 50
180
 51
270
  0
ARC
  8
_0-2_
  6
CONTINUOUS
 62
    6
 10
683.61979651231582
 20
915.3644609352524
 40
2.0000000257749817
 50
143.12995910644531
 51
270
  0
ARC
  8
_0-2_
  6
CONTINUOUS
 62
    6
 10
686.69854176147123
 20
921.36448073043834
 40
2.0000000257749817
 50
90
 51
162.54203796386722
  0
ARC
  8
_0-2_
  6
CONTINUOUS
 62
    6
 10
667.61979321311821
 20
927.36450052562418
 40
18.000000618599557
 50
323.13009643554693
 51
342.54234313964849
  0
ARC
  8
_0-2_
  6
CONTINUOUS
 62
    6
 10
722.78100850555904
 20
921.36448073043834
 40
2.0000000257749817
 50
0
 51
90
  0
ARC
  8
_0-2_
  6
CONTINUOUS
 62
    6
 10
722.78100850555904
 20
915.3644609352524
 40
2.0000000257749817
 50
270
 51
0
  0
ARC
  8
_0-2_
  6
CONTINUOUS
 62
    6
 10
722.78100850555904
 20
903.36447083284543
 40
2.0000000257749817
 50
0
 51
90
  0
ARC
  8
_0-2_
  6
CONTINUOUS
 62
    6
 10
722.78100850555904
 20
897.36450052562418
 40
2.0000000257749817
 50
270
 51
0
  0
ARC
  8
_0-2_
  6
CONTINUOUS
 62
    6
 10
722.78100850555904
 20
885.3645104232171
 40
2.0000000257749817
 50
0
 51
90
  0
ARC
  8
_0-2_
  6
CONTINUOUS
 62
    6
 10
722.78100850555904
 20
878.86451372241481
 40
2.0000000257749817
 50
270
 51
0
  0
ARC
  8
_0-2_
  6
CONTINUOUS
 62
    6
 10
684.60940733896268
 20
885.3645104232171
 40
2.0000000257749817
 50
0
 51
90
  0
ARC
  8
_0-2_
  6
CONTINUOUS
 62
    6
 10
684.60940733896268
 20
878.86451372241481
 40
2.0000000257749817
 50
270
 51
0
  0
ARC
  8
_0-2_
  6
CONTINUOUS
 62
    6
 10
684.60940733896268
 20
897.36450052562418
 40
2.0000000257749817
 50
270
 51
0
  0
ARC
  8
_0-2_
  6
CONTINUOUS
 62
    6
 10
684.60940733896268
 20
903.36447083284543
 40
2.0000000257749817
 50
0
 51
90
  0
ARC
  8
_0-2_
  6
CONTINUOUS
 62
    6
 10
684.60940733896268
 20
915.3644609352524
 40
2.0000000257749817
 50
270
 51
0
  0
ARC
  8
_0-2_
  6
CONTINUOUS
 62
    6
 10
684.60940733896268
 20
921.36448073043834
 40
2.0000000257749817
 50
0
 51
58.514450073242195
  0
ARC
  8
_0-2_
  6
CONTINUOUS
 62
    6
 10
659.98382503058019
 20
951.36453021840271
 40
2.0000000257749817
 50
180
 51
270
  0
ARC
  8
_0-2_
  6
CONTINUOUS
 62
    6
 10
659.98382503058019
 20
957.36445103765959
 40
2.0000000257749817
 50
90
 51
180
  0
ARC
  8
_0-2_
  6
CONTINUOUS
 62
    6
 10
659.98382503058019
 20
969.36449062803115
 40
2.0000000257749817
 50
180
 51
270
  0
ARC
  8
_0-2_
  6
CONTINUOUS
 62
    6
 10
659.98382503058019
 20
975.86448732883366
 40
2.0000000257749817
 50
90
 51
180
  0
ARC
  8
_0-2_
  6
CONTINUOUS
 62
    6
 10
725.25595109952019
 20
933.36454506479208
 40
2.0000000257749817
 50
270
 51
0
  0
ARC
  8
_0-2_
  6
CONTINUOUS
 62
    6
 10
725.25595109952019
 20
939.36449062803115
 40
2.0000000257749817
 50
0
 51
90
  0
ARC
  8
_0-2_
  6
CONTINUOUS
 62
    6
 10
725.25595109952019
 20
951.36453021840271
 40
2.0000000257749817
 50
270
 51
0
  0
ARC
  8
_0-2_
  6
CONTINUOUS
 62
    6
 10
725.25595109952019
 20
957.36445103765959
 40
2.0000000257749817
 50
0
 51
90
  0
ARC
  8
_0-2_
  6
CONTINUOUS
 62
    6
 10
725.25595109952019
 20
969.36449062803115
 40
2.0000000257749817
 50
270
 51
0
  0
ARC
  8
_0-2_
  6
CONTINUOUS
 62
    6
 10
725.25595109952019
 20
975.86448732883366
 40
2.0000000257749817
 50
0
 51
90
  0
ARC
  8
_0-2_
  6
CONTINUOUS
 62
    6
 10
698.15545094115873
 20
975.86448732883366
 40
2.0000000257749817
 50
90
 51
180
  0
ARC
  8
_0-2_
  6
CONTINUOUS
 62
    6
 10
698.15545094115873
 20
969.36449062803115
 40
2.0000000257749817
 50
180
 51
270
  0
ARC
  8
_0-2_
  6
CONTINUOUS
 62
    6
 10
687.08432518894165
 20
969.36449062803115
 40
2.0000000257749817
 50
270
 51
0
  0
ARC
  8
_0-2_
  6
CONTINUOUS
 62
    6
 10
687.08432518894165
 20
975.86448732883366
 40
2.0000000257749817
 50
0
 51
90
  0
ARC
  8
_0-2_
  6
CONTINUOUS
 62
    6
 10
687.08432518894165
 20
957.36445103765959
 40
2.0000000257749817
 50
0
 51
90
  0
ARC
  8
_0-2_
  6
CONTINUOUS
 62
    6
 10
687.08432518894165
 20
951.36453021840271
 40
2.0000000257749817
 50
270
 51
0
  0
ARC
  8
_0-2_
  6
CONTINUOUS
 62
    6
 10
687.08432518894165
 20
939.36449062803115
 40
2.0000000257749817
 50
0
 51
90
  0
ARC
  8
_0-2_
  6
CONTINUOUS
 62
    6
 10
687.08432518894165
 20
933.36454506479208
 40
2.0000000257749817
 50
270
 51
0
  0
ARC
  8
_0-2_
  6
CONTINUOUS
 62
    6
 10
698.15545094115873
 20
933.36454506479208
 40
2.0000000257749817
 50
180
 51
270
  0
ARC
  8
_0-2_
  6
CONTINUOUS
 62
    6
 10
698.15545094115873
 20
939.36449062803115
 40
2.0000000257749817
 50
90
 51
180
  0
ARC
  8
_0-2_
  6
CONTINUOUS
 62
    6
 10
698.15545094115873
 20
951.36453021840271
 40
2.0000000257749817
 50
180
 51
270
  0
ARC
  8
_0-2_
  6
CONTINUOUS
 62
    6
 10
698.15545094115873
 20
957.36445103765959
 40
2.0000000257749817
 50
90
 51
180
  0
ARC
  8
_0-2_
  6
CONTINUOUS
 62
    6
 10
683.61979651231582
 20
939.36449062803115
 40
2.0000000257749817
 50
90
 51
216.87004089355469
  0
ARC
  8
_0-2_
  6
CONTINUOUS
 62
    6
 10
686.69854176147123
 20
933.36454506479208
 40
2.0000000257749817
 50
197.45796203613278
 51
270
  0
ARC
  8
_0-2_
  6
CONTINUOUS
 62
    6
 10
667.61979321311821
 20
927.36450052562418
 40
18.000000618599557
 50
17.457656860351562
 51
36.869903564453125
  0
ARC
  8
_0-2_
  6
CONTINUOUS
 62
    6
 10
722.78100850555904
 20
933.36454506479208
 40
2.0000000257749817
 50
270
 51
0
  0
ARC
  8
_0-2_
  6
CONTINUOUS
 62
    6
 10
722.78100850555904
 20
939.36449062803115
 40
2.0000000257749817
 50
0
 51
90
  0
ARC
  8
_0-2_
  6
CONTINUOUS
 62
    6
 10
722.78100850555904
 20
951.36453021840271
 40
2.0000000257749817
 50
270
 51
0
  0
ARC
  8
_0-2_
  6
CONTINUOUS
 62
    6
 10
722.78100850555904
 20
957.36445103765959
 40
2.0000000257749817
 50
0
 51
90
  0
ARC
  8
_0-2_
  6
CONTINUOUS
 62
    6
 10
722.78100850555904
 20
969.36449062803115
 40
2.0000000257749817
 50
270
 51
0
  0
ARC
  8
_0-2_
  6
CONTINUOUS
 62
    6
 10
722.78100850555904
 20
975.86448732883366
 40
2.0000000257749817
 50
0
 51
90
  0
ARC
  8
_0-2_
  6
CONTINUOUS
 62
    6
 10
684.60940733896268
 20
969.36449062803115
 40
2.0000000257749817
 50
270
 51
0
  0
ARC
  8
_0-2_
  6
CONTINUOUS
 62
    6
 10
684.60940733896268
 20
975.86448732883366
 40
2.0000000257749817
 50
0
 51
90
  0
ARC
  8
_0-2_
  6
CONTINUOUS
 62
    6
 10
684.60940733896268
 20
957.36445103765959
 40
2.0000000257749817
 50
0
 51
90
  0
ARC
  8
_0-2_
  6
CONTINUOUS
 62
    6
 10
684.60940733896268
 20
951.36453021840271
 40
2.0000000257749817
 50
270
 51
0
  0
ARC
  8
_0-2_
  6
CONTINUOUS
 62
    6
 10
684.60940733896268
 20
939.36449062803115
 40
2.0000000257749817
 50
0
 51
90
  0
ARC
  8
_0-2_
  6
CONTINUOUS
 62
    6
 10
684.60940733896268
 20
933.36454506479208
 40
2.0000000257749817
 50
301.48554992675781
 51
0.0000000000000127
  0
ARC
  8
_0-2_
  6
CONTINUOUS
 62
    6
 10
667.61979321311821
 20
927.36450052562418
 40
10.000000515499631
 50
276.870361328125
 51
83.130050659179716
  0
ARC
  8
_0-2_
  6
CONTINUOUS
 62
    6
 10
730.6199020866402
 20
997.8644609352524
 40
3.0000000386624719
 50
0
 51
90
  0
ARC
  8
_0-2_
  6
CONTINUOUS
 62
    6
 10
730.6199020866402
 20
856.86444114006667
 40
3.0000000386624719
 50
270
 51
0
  0
LINE
  8
_0-2_
  6
CONTINUOUS
 62
    6
 10
665.74984098549999
 20
986.26448205011741
 11
652.62016437285206
 21
991.08946870866748
  0
LINE
  8
_0-2_
  6
CONTINUOUS
 62
    6
 10
665.74984098549999
 20
986.26448205011741
 11
652.62016437285206
 21
986.26448205011741
  0
LINE
  8
_0-2_
  6
CONTINUOUS
 62
    6
 10
665.7498409855001
 20
868.46449425714866
 11
652.62016437285206
 21
868.46449425714866
  0
ARC
  8
_0-2_
  6
CONTINUOUS
 62
    6
 10
666.32198464195119
 20
922.36447578164189
 40
1
 50
270
 51
0
  0
ARC
  8
_0-2_
  6
CONTINUOUS
 62
    6
 10
660.62015730342637
 20
923.36447578164189
 40
1
 50
270
 51
0
  0
LINE
  8
_0-2_
  6
CONTINUOUS
 62
    6
 10
660.62015730342637
 20
922.36447578164189
 11
654.88045959298711
 21
922.36447578164189
  0
LINE
  8
_0-2_
  6
CONTINUOUS
 62
    6
 10
666.32198464195119
 20
921.36447578164177
 11
654.22019320756203
 21
921.36447578164177
  0
LINE
  8
_0-a_
  6
CONTINUOUS
 62
    2
 10
654.22024741837004
 20
933.36446882976099
 11
652.62009782651512
 21
933.36446882976099
  0
LINE
  8
_0-a_
  6
CONTINUOUS
 62
    2
 10
654.22024741837004
 20
921.36462719124756
 11
652.62009782651512
 21
921.36462719124756
  0
ARC
  8
_0-2_
  6
CONTINUOUS
 62
    6
 10
666.32198464195119
 20
932.36447578164189
 40
1
 50
0.0000000000000127
 51
90
  0
ARC
  8
_0-2_
  6
CONTINUOUS
 62
    6
 10
660.62015730342637
 20
931.36447578164189
 40
1
 50
0.0000000000000127
 51
90
  0
LINE
  8
_0-2_
  6
CONTINUOUS
 62
    6
 10
666.32198464195119
 20
933.36447578164177
 11
654.22019320756203
 21
933.36447578164177
  0
LINE
  8
_0-2_
  6
CONTINUOUS
 62
    6
 10
660.62015730342637
 20
932.36447578164189
 11
654.88045959298711
 21
932.36447578164189
  0
LINE
  8
_0-2_
  6
CONTINUOUS
 62
    6
 10
661.62015730342637
 20
923.36447578164189
 11
661.62015730342637
 21
931.36447578164189
  0
LINE
  8
_0-2_
  6
CONTINUOUS
 62
    6
 10
667.32198464195119
 20
922.36447578164189
 11
667.32198464195119
 21
932.36447578164189
  0
LINE
  8
_0-0_
  6
CONTINUOUS
 62
    3
 10
606.95048087495229
 20
876.36447578164189
 11
629.24402770619827
 21
876.36447578164189
  0
ARC
  8
_0-0_
  6
CONTINUOUS
 62
    3
 10
736.61974602280918
 20
999.86449581248473
 40
3
 50
0.0000000000000127
 51
90
  0
LINE
  8
_0-0_
  6
CONTINUOUS
 62
    3
 10
724.61747069507931
 20
1001.1860401305046
 11
737.72689764629854
 21
1002.6527237950223
  0
ARC
  8
_0-0_
  6
CONTINUOUS
 62
    3
 10
629.24402770619827
 20
982.36447578164189
 40
4
 50
270
 51
345.69864597211682
  0
ARC
  8
_0-0_
  6
CONTINUOUS
 62
    3
 10
757.61974602280918
 20
1021.3644958124846
 40
10
 50
0
 51
90
  0
ARC
  8
_0-0_
  6
CONTINUOUS
 62
    3
 10
757.61974602280918
 20
1022.3644958124847
 40
10
 50
0
 51
90
  0
ARC
  8
_0-0_
  6
CONTINUOUS
 62
    3
 10
650.62009782651512
 20
1029.5547687197463
 40
2
 50
0
 51
84.289397504559361
  0
LINE
  8
_0-0_
  6
CONTINUOUS
 62
    3
 10
650.81910558958975
 20
1031.5448430676634
 11
642.62011432250324
 21
1032.3647435468788
  0
LINE
  8
_0-0_
  6
CONTINUOUS
 62
    3
 10
757.61974602280918
 20
1031.3644958124846
 11
651.47150128540466
 21
1031.3644958124846
  0
ARC
  8
_0-0_
  6
CONTINUOUS
 62
    3
 10
622.12009782651501
 20
987.64382172122077
 40
1.5
 50
180
 51
260.90970123748383
  0
LINE
  8
_0-0_
  6
CONTINUOUS
 62
    3
 10
620.62009782651501
 20
997.08566537253671
 11
620.62009782651501
 21
987.64382172122077
  0
ARC
  8
_0-0_
  6
CONTINUOUS
 62
    3
 10
622.12009782651501
 20
997.08566537253671
 40
1.5
 50
99.090298762516156
 51
180
  0
LINE
  8
_0-0_
  6
CONTINUOUS
 62
    3
 10
621.88311151022242
 20
998.56682623007043
 11
633.12006728217887
 21
1000.3647435468787
  0
ARC
  8
_0-0_
  6
CONTINUOUS
 62
    3
 10
631.12006728217875
 20
1002.0701811126681
 40
2
 50
279.09029876251668
 51
0
  0
ARC
  8
_0-0_
  6
CONTINUOUS
 62
    3
 10
631.12006728217875
 20
982.65930598108935
 40
2
 50
0
 51
80.909701237483418
  0
LINE
  8
_0-0_
  6
CONTINUOUS
 62
    3
 10
621.88311151022242
 20
986.16266086368705
 11
633.12006728217887
 21
984.36474354687857
  0
ARC
  8
_0-0_
  6
CONTINUOUS
 62
    3
 10
636.12006728217887
 20
1001.5620581918261
 40
3
 50
99.713628977164262
 51
180
  0
LINE
  8
_0-0_
  6
CONTINUOUS
 62
    3
 10
652.62009782651512
 20
1002.8643471718483
 11
736.61974602280918
 21
1002.8643471718483
  0
LINE
  8
_0-0_
  6
CONTINUOUS
 62
    3
 10
757.61974602280918
 20
1032.3644958124846
 11
642.62011432250324
 21
1032.3644958124846
  0
LINE
  8
_0-0_
  6
CONTINUOUS
 62
    3
 10
723.51043459951347
 20
1001.3977662768249
 11
712.11992023222717
 21
1001.3977662768249
  0
LINE
  8
_0-0_
  6
CONTINUOUS
 62
    3
 10
642.62011432250324
 20
1005.7183584890508
 11
635.61389574838518
 21
1004.5190482794619
  0
LINE
  8
_0-0_
  6
CONTINUOUS
 62
    3
 10
606.95048087495229
 20
978.36447578164177
 11
629.24402770619827
 21
978.36447578164177
  0
LINE
  8
_0-0_
  6
CONTINUOUS
 62
    3
 10
606.95048087495229
 20
978.36447578164177
 11
606.95048087495229
 21
978.36447578164177
  0
LINE
  8
_0-0_
  6
CONTINUOUS
 62
    3
 10
606.95048087495229
 20
978.36447578164177
 11
606.77016830391437
 21
977.58967118526448
  0
LINE
  8
_0-0_
  6
CONTINUOUS
 62
    3
 10
606.77016830391437
 20
977.58967118526448
 11
606.59533443910482
 21
975.2887994417232
  0
LINE
  8
_0-0_
  6
CONTINUOUS
 62
    3
 10
606.59533443910482
 20
975.2887994417232
 11
606.43129151903577
 21
971.5317713746482
  0
LINE
  8
_0-0_
  6
CONTINUOUS
 62
    3
 10
606.43129151903577
 20
971.5317713746482
 11
606.28302390482372
 21
966.43274238070978
  0
LINE
  8
_0-0_
  6
CONTINUOUS
 62
    3
 10
606.28302390482372
 20
966.43274238070978
 11
606.15503663289962
 21
960.1466438756554
  0
LINE
  8
_0-0_
  6
CONTINUOUS
 62
    3
 10
606.15503663289962
 20
960.1466438756554
 11
606.05121853175592
 21
952.86447578164189
  0
LINE
  8
_0-0_
  6
CONTINUOUS
 62
    3
 10
606.05121853175592
 20
952.86447578164189
 11
605.97472406186159
 21
944.80750309125108
  0
LINE
  8
_0-0_
  6
CONTINUOUS
 62
    3
 10
605.97472406186159
 20
944.80750309125108
 11
605.92787746897636
 21
936.2205328426553
  0
LINE
  8
_0-0_
  6
CONTINUOUS
 62
    3
 10
605.92787746897636
 20
936.2205328426553
 11
605.91210216311924
 21
927.36447578164189
  0
LINE
  8
_0-0_
  6
CONTINUOUS
 62
    3
 10
605.91210216311924
 20
927.36447578164189
 11
605.92787746897636
 21
918.50841872062847
  0
LINE
  8
_0-0_
  6
CONTINUOUS
 62
    3
 10
605.92787746897636
 20
918.50841872062847
 11
605.97472406186159
 21
909.92144847203281
  0
LINE
  8
_0-0_
  6
CONTINUOUS
 62
    3
 10
605.97472406186159
 20
909.92144847203281
 11
606.05121853175592
 21
901.86447578164189
  0
LINE
  8
_0-0_
  6
CONTINUOUS
 62
    3
 10
606.05121853175592
 20
901.86447578164189
 11
606.15503663289962
 21
894.58230768762837
  0
LINE
  8
_0-0_
  6
CONTINUOUS
 62
    3
 10
606.15503663289962
 20
894.58230768762837
 11
606.28302390482372
 21
888.29620918257399
  0
LINE
  8
_0-0_
  6
CONTINUOUS
 62
    3
 10
606.28302390482372
 20
888.29620918257399
 11
606.43129151903577
 21
883.19718018863546
  0
LINE
  8
_0-0_
  6
CONTINUOUS
 62
    3
 10
606.43129151903577
 20
883.19718018863546
 11
606.59533443910482
 21
879.44015212156046
  0
LINE
  8
_0-0_
  6
CONTINUOUS
 62
    3
 10
606.59533443910482
 20
879.44015212156046
 11
606.77016830391437
 21
877.13928037801918
  0
LINE
  8
_0-0_
  6
CONTINUOUS
 62
    3
 10
606.77016830391437
 20
877.13928037801918
 11
606.95048087495229
 21
876.36447578164177
  0
LINE
  8
_0-0_
  6
CONTINUOUS
 62
    3
 10
606.95048087495229
 20
876.36447578164177
 11
606.95048087495229
 21
876.36447578164177
  0
LINE
  8
_0-0_
  6
CONTINUOUS
 62
    3
 10
767.6197460228093
 20
832.36445575079881
 11
767.6197460228093
 21
1022.3644958124847
  0
LINE
  8
_0-0_
  6
CONTINUOUS
 62
    3
 10
739.61974602280918
 20
854.86445575079892
 11
739.61974602280918
 21
999.86449581248473
  0
ARC
  8
_0-0_
  6
CONTINUOUS
 62
    3
 10
723.51043459951347
 20
856.33118528645878
 40
3
 50
270
 51
304.69085917385189
  0
ARC
  8
_0-0_
  6
CONTINUOUS
 62
    3
 10
712.11992023222717
 20
854.83118528645878
 40
1.5
 50
270
 51
319.87407266508984
  0
LINE
  8
_0-0_
  6
CONTINUOUS
 62
    3
 10
707.26962934734297
 20
853.86448073043834
 11
712.11992023222717
 21
853.33118528645878
  0
CIRCLE
  8
_0-5_
  6
CONTINUOUS
 62
    3
 10
600.62012860920731
 20
862.36420801640497
 40
3.0002121501906629
  0
LINE
  8
_0-5_
  6
CENTER1
 62
    3
 10
600.62012860920731
 20
866.9693152350203
 11
600.62012860920731
 21
857.38046801072255
  0
LINE
  8
_0-5_
  6
CONTINUOUS
 62
    3
 10
618.62011329150391
 20
865.53932064865546
 11
620.62009782651501
 21
865.53932064865546
  0
LINE
  8
_0-5_
  6
CONTINUOUS
 62
    3
 10
618.62011329150391
 20
864.72422494600164
 11
620.62009782651501
 21
864.72422494600164
  0
LINE
  8
_0-5_
  6
CONTINUOUS
 62
    3
 10
618.62011329150391
 20
865.53932064865546
 11
618.62011329150391
 21
859.18944221230549
  0
LINE
  8
_0-5_
  6
CONTINUOUS
 62
    3
 10
618.62011329150391
 20
860.00429018056548
 11
620.62009782651501
 21
860.00429018056548
  0
LINE
  8
_0-5_
  6
CONTINUOUS
 62
    3
 10
618.62011329150391
 20
859.18944221230549
 11
620.62009782651501
 21
859.18944221230549
  0
LINE
  8
_0-5_
  6
CONTINUOUS
 62
    3
 10
600.62012860920731
 20
859.36434269436552
 11
618.62011329150391
 21
859.36434269436552
  0
LINE
  8
_0-5_
  6
CONTINUOUS
 62
    3
 10
600.62012860920731
 20
865.36442016659544
 11
618.62011329150391
 21
865.36442016659544
  0
CIRCLE
  8
_0-5_
  6
CONTINUOUS
 62
    3
 10
600.62012860920731
 20
992.36474354687857
 40
3.0002121501906629
  0
LINE
  8
_0-5_
  6
CENTER1
 62
    3
 10
600.62012860920731
 20
996.9698507654939
 11
600.62012860920731
 21
987.38100354119615
  0
LINE
  8
_0-5_
  6
CONTINUOUS
 62
    3
 10
618.62011329150391
 20
995.53985617912917
 11
620.62009782651501
 21
995.53985617912917
  0
LINE
  8
_0-5_
  6
CONTINUOUS
 62
    3
 10
618.62011329150391
 20
994.72476047647558
 11
620.62009782651501
 21
994.72476047647558
  0
LINE
  8
_0-5_
  6
CONTINUOUS
 62
    3
 10
618.62011329150391
 20
995.53985617912917
 11
618.62011329150391
 21
989.18997774277943
  0
LINE
  8
_0-5_
  6
CONTINUOUS
 62
    3
 10
618.62011329150391
 20
990.00482571103908
 11
620.62009782651501
 21
990.00482571103908
  0
LINE
  8
_0-5_
  6
CONTINUOUS
 62
    3
 10
618.62011329150391
 20
989.18997774277943
 11
620.62009782651501
 21
989.18997774277943
  0
LINE
  8
_0-5_
  6
CONTINUOUS
 62
    3
 10
600.62012860920731
 20
989.36487822483923
 11
618.62011329150391
 21
989.36487822483923
  0
LINE
  8
_0-5_
  6
CONTINUOUS
 62
    3
 10
600.62012860920731
 20
995.36495569706938
 11
618.62011329150391
 21
995.36495569706938
  0
ARC
  8
_0-0_
  6
CONTINUOUS
 62
    3
 10
723.51043459951347
 20
998.39776627682488
 40
3
 50
55.307480220952662
 51
90
  0
LINE
  8
_0-0_
  6
CONTINUOUS
 62
    3
 10
707.26917925719977
 20
1000.8644213448808
 11
712.11992023222717
 21
1001.3977662768249
  0
ARC
  8
_0-0_
  6
CONTINUOUS
 62
    3
 10
712.11992023222717
 20
999.89776627682488
 40
1.5
 50
40.123455201970195
 51
90
  0
LINE
  8
_0-0_
  6
CENTER1
 62
    3
 10
594.93500972887898
 20
992.36474354687857
 11
633.90106363900554
 21
992.36474354687857
  0
LINE
  8
_0-0_
  6
CONTINUOUS
 62
    3
 10
633.5729853004492
 20
969.4851910445617
 11
633.5729853004492
 21
969.4851910445617
  0
LINE
  8
_0-0_
  6
CONTINUOUS
 62
    3
 10
633.5729853004492
 20
969.4851910445617
 11
633.4329602646327
 21
963.8520435149519
  0
LINE
  8
_0-0_
  6
CONTINUOUS
 62
    3
 10
633.4329602646327
 20
963.8520435149519
 11
633.31497874558988
 21
957.11023970336578
  0
LINE
  8
_0-0_
  6
CONTINUOUS
 62
    3
 10
633.31497874558988
 20
957.11023970336578
 11
633.22262555207533
 21
949.46462590710087
  0
LINE
  8
_0-0_
  6
CONTINUOUS
 62
    3
 10
633.22262555207533
 20
949.46462590710087
 11
633.15870678914098
 21
941.14751023248937
  0
LINE
  8
_0-0_
  6
CONTINUOUS
 62
    3
 10
633.15870678914098
 20
941.14751023248937
 11
633.12516459605422
 21
932.41160403064089
  0
LINE
  8
_0-0_
  6
CONTINUOUS
 62
    3
 10
633.12516459605422
 20
932.41160403064089
 11
633.12301813537886
 21
923.52234339091672
  0
LINE
  8
_0-0_
  6
CONTINUOUS
 62
    3
 10
633.12301813537886
 20
923.52234339091672
 11
633.15233262623622
 21
914.74982399967189
  0
LINE
  8
_0-0_
  6
CONTINUOUS
 62
    3
 10
633.15233262623622
 20
914.74982399967189
 11
633.21221736265545
 21
906.36059441950044
  0
LINE
  8
_0-0_
  6
CONTINUOUS
 62
    3
 10
633.21221736265545
 20
906.36059441950044
 11
633.30085277722378
 21
898.60955714604086
  0
LINE
  8
_0-0_
  6
CONTINUOUS
 62
    3
 10
633.30085277722378
 20
898.60955714604086
 11
633.415545727721
 21
891.73222352463301
  0
LINE
  8
_0-0_
  6
CONTINUOUS
 62
    3
 10
633.415545727721
 20
891.73222352463301
 11
633.5528113268839
 21
885.93755785726478
  0
LINE
  8
_0-0_
  6
CONTINUOUS
 62
    3
 10
633.5528113268839
 20
885.93755785726478
 11
633.70847882894157
 21
881.40162812799679
  0
LINE
  8
_0-0_
  6
CONTINUOUS
 62
    3
 10
633.70847882894157
 20
881.40162812799679
 11
633.87781835561543
 21
878.26225626636176
  0
LINE
  8
_0-0_
  6
CONTINUOUS
 62
    3
 10
633.87781835561543
 20
878.26225626636176
 11
634.0556846110776
 21
876.61483049777644
  0
LINE
  8
_0-0_
  6
CONTINUOUS
 62
    3
 10
634.0556846110776
 20
876.61483049777644
 11
634.15844599401191
 21
876.36447578164177
  0
LINE
  8
_0-0_
  6
CONTINUOUS
 62
    3
 10
633.12006728217887
 20
1001.5620581918261
 11
633.12006728217887
 21
936.35232558335156
  0
LINE
  8
_0-0_
  6
CONTINUOUS
 62
    3
 10
652.62009782651512
 20
825.17418284353732
 11
652.62009782651512
 21
1029.5547687197463
  0
LINE
  8
_0-0_
  6
CONTINUOUS
 62
    3
 10
642.62011432250324
 20
822.36420801640497
 11
642.62011432250324
 21
1032.3647435468788
  0
LINE
  8
_0-0_
  6
CENTER1
 62
    3
 10
594.93500972887898
 20
862.36420801640497
 11
633.90106363900554
 21
862.36420801640497
  0
ARC
  8
_0-a_
  6
CONTINUOUS
 62
    2
 10
646.22024576877118
 20
927.36454801050422
 40
10.000001288749077
 50
323.13047096455415
 51
36.869873046875
  0
LINE
  8
_0-5_
  6
CONTINUOUS
 62
    3
 10
741.01976319041978
 20
727.36458542104901
 11
644.21972885519858
 21
727.36458542104901
  0
LINE
  8
_0-5_
  6
CONTINUOUS
 62
    3
 10
741.01976319041978
 20
1127.3646138766285
 11
644.21972885519858
 21
1127.3646138766285
  0
LINE
  8
_0-5_
  6
CENTER1
 62
    3
 10
659.21974912169844
 20
1115.8613150324788
 11
659.21974912169844
 21
1108.2958039254943
  0
LINE
  8
_0-5_
  6
CENTER1
 62
    3
 10
662.91475715288811
 20
1112.3645936101291
 11
655.05265842958329
 21
1112.3645936101291
  0
LINE
  8
_0-5_
  6
CENTER1
 62
    3
 10
726.01974292392015
 20
1115.8613150324788
 11
726.01974292392015
 21
1108.2958039254943
  0
LINE
  8
_0-5_
  6
CENTER1
 62
    3
 10
722.32468534585155
 20
1112.3645936101291
 11
730.186883162914
 21
1112.3645936101291
  0
LINE
  8
_0-5_
  6
CENTER1
 62
    3
 10
659.21974912169844
 20
738.86783471831995
 11
659.21974912169844
 21
746.43334582530451
  0
LINE
  8
_0-5_
  6
CENTER1
 62
    3
 10
662.91475715288811
 20
742.36455614067017
 11
655.05265842958329
 21
742.36455614067017
  0
LINE
  8
_0-5_
  6
CENTER1
 62
    3
 10
726.01974292392015
 20
738.86783471831995
 11
726.01974292392015
 21
746.43334582530451
  0
LINE
  8
_0-5_
  6
CENTER1
 62
    3
 10
722.32468534585155
 20
742.36455614067017
 11
730.186883162914
 21
742.36455614067017
  0
LINE
  8
_0-f_
  6
CONTINUOUS
 62
    7
 10
651.0525902658037
 20
742.36455614067017
 11
629.78647533495473
 21
742.36455614067017
  0
LINE
  8
_0-f_
  6
CONTINUOUS
 62
    7
 10
642.23403859471296
 20
727.36458542104901
 11
629.78647533495473
 21
727.36458542104901
  0
LINE
  8
_0-f_
  6
CONTINUOUS
 62
    7
 10
644.21967930832011
 20
725.07715466885088
 11
644.21967930832011
 21
708.93364198720656
  0
LINE
  8
_0-f_
  6
CONTINUOUS
 62
    7
 10
659.21969957481974
 20
736.60557378053716
 11
659.21969957481974
 21
708.93364198720656
  0
LINE
  8
_0-f_
  6
CONTINUOUS
 62
    7
 10
677.8914408394869
 20
701.16439411471765
 11
660.08092342160876
 21
740.44927199491713
  0
CIRCLE
  8
_0-5_
  6
CONTINUOUS
 62
    3
 10
659.21974912169844
 20
1112.3645936101291
 40
2.0999999419142381
  0
CIRCLE
  8
_0-5_
  6
CONTINUOUS
 62
    3
 10
726.01974292392015
 20
1112.3645936101291
 40
2.0999999419142381
  0
CIRCLE
  8
_0-5_
  6
CONTINUOUS
 62
    3
 10
659.21974912169844
 20
742.36455614067017
 40
2.0999999419142381
  0
CIRCLE
  8
_0-5_
  6
CONTINUOUS
 62
    3
 10
726.01974292392015
 20
742.36455614067017
 40
2.0999999419142381
  0
LINE
  8
_0-5_
  6
CONTINUOUS
 62
    3
 10
741.01976319041978
 20
1127.3646138766285
 11
741.01976319041978
 21
1032.3644958124846
  0
LINE
  8
_0-5_
  6
CONTINUOUS
 62
    3
 10
644.21972885519858
 20
1127.3646138766285
 11
644.21972885519858
 21
1032.3644958124846
  0
LINE
  8
_0-5_
  6
CONTINUOUS
 62
    3
 10
741.01976319041978
 20
822.36445575079904
 11
741.01976319041978
 21
727.36458542104901
  0
LINE
  8
_0-5_
  6
CONTINUOUS
 62
    3
 10
644.21972885519858
 20
822.36445575079904
 11
644.21972885519858
 21
727.36458542104901
  0
TEXT
  8
_0-f_
 62
    2
 10
678.36061930938081
 20
703.26343146963723
 40
12
 41
1
 50
0
  1
４－Φ４．２
  0
TEXT
  8
_0-f_
 62
    2
 10
638.55305039824566
 20
695.63115321975783
 40
12
 41
1
 50
0
  1
１５
  0
TEXT
  8
_0-f_
 62
    2
 10
628.37667939840662
 20
721.52103826346604
 40
12
 41
1
 50
90.000002499999965
  1
１５
  0
LINE
  8
_0-f_
  6
CONTINUOUS
 62
    7
 10
630.38638894310839
 20
742.36455614067017
 11
631.36533538475874
 21
749.80039260097362
  0
LINE
  8
_0-f_
  6
CONTINUOUS
 62
    7
 10
630.38638894310839
 20
742.36455614067017
 11
629.40744250145792
 21
749.80039260097362
  0
LINE
  8
_0-f_
  6
CONTINUOUS
 62
    7
 10
630.38638894310839
 20
727.36458542104901
 11
629.40744250145792
 21
719.92874896074545
  0
LINE
  8
_0-f_
  6
CONTINUOUS
 62
    7
 10
630.38638894310839
 20
727.36458542104901
 11
631.36533538475874
 21
719.92874896074545
  0
LINE
  8
_0-f_
  6
CONTINUOUS
 62
    7
 10
630.38638894310839
 20
716.20041022130738
 11
630.38638894310839
 21
751.70555229065576
  0
LINE
  8
_0-f_
  6
CONTINUOUS
 62
    7
 10
659.21969957481974
 20
709.53365468911738
 11
666.6555360351233
 21
708.55470824746703
  0
LINE
  8
_0-f_
  6
CONTINUOUS
 62
    7
 10
659.21969957481974
 20
709.53365468911738
 11
666.6555360351233
 21
710.51260113076785
  0
LINE
  8
_0-f_
  6
CONTINUOUS
 62
    7
 10
644.2197288551987
 20
709.53365468911738
 11
636.78389239489502
 21
710.51260113076785
  0
LINE
  8
_0-f_
  6
CONTINUOUS
 62
    7
 10
644.2197288551987
 20
709.53365468911738
 11
636.78389239489502
 21
708.55470824746703
  0
LINE
  8
_0-f_
  6
CONTINUOUS
 62
    7
 10
634.95309445141982
 20
709.53365468911738
 11
668.06163943108731
 21
709.53365468911738
  0
LINE
  8
_0-f_
  6
CONTINUOUS
 62
    7
 10
660.08092342160876
 20
740.44927199491713
 11
664.04288083072265
 21
734.08115661528029
  0
LINE
  8
_0-f_
  6
CONTINUOUS
 62
    7
 10
660.08092342160876
 20
740.44927199491713
 11
662.25969086406894
 21
733.27271485157348
  0
LINE
  8
_0-f_
  6
CONTINUOUS
 62
    7
 10
677.8914408394869
 20
701.16439411471765
 11
757.31242339864264
 21
701.16439411471765
  0
LINE
  8
_0-f_
  6
CONTINUOUS
 62
    7
 10
831.29037417046288
 20
822.36445575079892
 11
831.29037417046311
 21
1032.3644958124846
  0
LINE
  8
_0-f_
  6
CONTINUOUS
 62
    7
 10
831.29037417046288
 20
822.36445575079892
 11
830.31142772881265
 21
829.80029221110249
  0
LINE
  8
_0-f_
  6
CONTINUOUS
 62
    7
 10
831.29037417046288
 20
822.36445575079892
 11
832.26932061211323
 21
829.80029221110249
  0
LINE
  8
_0-f_
  6
CONTINUOUS
 62
    7
 10
831.29037417046311
 20
1032.3644958124846
 11
830.31142772881265
 21
1024.9286593521811
  0
LINE
  8
_0-f_
  6
CONTINUOUS
 62
    7
 10
831.29037417046311
 20
1032.3644958124846
 11
832.26932061211323
 21
1024.9286593521811
  0
TEXT
  8
_0-f_
 62
    2
 10
828.29037417046311
 20
907.86447578164177
 40
12
 41
1
 50
90
  1
２１０
  0
LINE
  8
_0-f_
  6
CONTINUOUS
 62
    7
 10
832.19037417046297
 20
1032.3644958124846
 11
765.87527521329071
 21
1032.3644958124846
  0
LINE
  8
_0-f_
  6
CONTINUOUS
 62
    7
 10
832.19037417046297
 20
822.36445575079892
 11
765.87527521329071
 21
822.36445575079892
  0
LINE
  8
_0-f_
  6
CONTINUOUS
 62
    7
 10
805.3990934164533
 20
853.86448073043834
 11
805.3990934164533
 21
1000.8644213448808
  0
LINE
  8
_0-f_
  6
CONTINUOUS
 62
    7
 10
805.3990934164533
 20
853.86448073043834
 11
804.42014697480295
 21
861.30031719074191
  0
LINE
  8
_0-f_
  6
CONTINUOUS
 62
    7
 10
805.3990934164533
 20
853.86448073043834
 11
806.37803985810353
 21
861.30031719074191
  0
LINE
  8
_0-f_
  6
CONTINUOUS
 62
    7
 10
805.3990934164533
 20
1000.8644213448808
 11
804.42014697480295
 21
993.42858488457739
  0
LINE
  8
_0-f_
  6
CONTINUOUS
 62
    7
 10
805.3990934164533
 20
1000.8644213448808
 11
806.37803985810353
 21
993.42858488457739
  0
LINE
  8
_0-f_
  6
CONTINUOUS
 62
    7
 10
806.29909341645316
 20
853.86448073043834
 11
736.90354491931225
 21
853.86448073043834
  0
LINE
  8
_0-f_
  6
CONTINUOUS
 62
    7
 10
806.29909341645316
 20
1000.8644213448808
 11
736.90354491931225
 21
1000.8644213448808
  0
TEXT
  8
_0-f_
 62
    2
 10
802.3990934164533
 20
907.86445103765959
 40
12
 41
1
 50
90
  1
１４７
  0
LINE
  8
_0-f_
  6
CONTINUOUS
 62
    7
 10
571.05371523103281
 20
822.37419692920639
 11
600.62012860920731
 21
859.36399586621428
  0
LINE
  8
_0-f_
  6
CONTINUOUS
 62
    7
 10
600.62012860920731
 20
859.36399586621428
 11
596.74211833868685
 21
852.94441361019972
  0
LINE
  8
_0-f_
  6
CONTINUOUS
 62
    7
 10
600.62012860920731
 20
859.36399586621428
 11
595.21274818483857
 21
854.16685848625661
  0
LINE
  8
_0-f_
  6
CONTINUOUS
 62
    7
 10
571.05371523103281
 20
822.37419692920639
 11
439.72413210909451
 21
822.37419692920639
  0
TEXT
  8
_0-f_
 62
    2
 10
448.1262791859607
 20
826.10968871712555
 40
12
 41
1
 50
0
  1
スチール製アンカー
  0
TEXT
  8
_0-f_
 62
    2
 10
467.60212820402739
 20
806.63383969905885
 40
12
 41
1
 50
0
  1
りん酸塩被膜
  0
LINE
  8
_0-3_
  6
CONTINUOUS
 62
    4
 10
606.95048087495229
 20
978.36447578164154
 11
606.95048087495229
 21
978.36447578164154
  0
LINE
  8
_0-3_
  6
CONTINUOUS
 62
    4
 10
606.95048087495229
 20
978.36447578164154
 11
606.76570338748218
 21
980.09406081914028
  0
LINE
  8
_0-3_
  6
CONTINUOUS
 62
    4
 10
606.76570338748218
 20
980.09406081914028
 11
606.57761793988925
 21
980.22148409773217
  0
LINE
  8
_0-3_
  6
CONTINUOUS
 62
    4
 10
606.57761793988925
 20
980.22148409773217
 11
606.3919394133228
 21
978.74287392557642
  0
LINE
  8
_0-3_
  6
CONTINUOUS
 62
    4
 10
606.3919394133228
 20
978.74287392557642
 11
606.2143095558547
 21
975.70315712454112
  0
LINE
  8
_0-3_
  6
CONTINUOUS
 62
    4
 10
606.2143095558547
 20
975.70315712454112
 11
606.05012556081908
 21
971.19469395145484
  0
LINE
  8
_0-3_
  6
CONTINUOUS
 62
    4
 10
606.05012556081908
 20
971.19469395145484
 11
605.90437607582396
 21
965.35447177843923
  0
LINE
  8
_0-3_
  6
CONTINUOUS
 62
    4
 10
605.90437607582396
 20
965.35447177843923
 11
605.78148962521823
 21
958.35994280092666
  0
LINE
  8
_0-3_
  6
CONTINUOUS
 62
    4
 10
605.78148962521823
 20
958.35994280092666
 11
605.68520005161974
 21
950.42363224249607
  0
LINE
  8
_0-3_
  6
CONTINUOUS
 62
    4
 10
605.68520005161974
 20
950.42363224249607
 11
605.61843306499759
 21
941.78668088349866
  0
LINE
  8
_0-3_
  6
CONTINUOUS
 62
    4
 10
605.61843306499759
 20
941.78668088349866
 11
605.5832173464546
 21
932.71151812046924
  0
LINE
  8
_0-3_
  6
CONTINUOUS
 62
    4
 10
605.5832173464546
 20
932.71151812046924
 11
605.58062290777866
 21
923.47388818170862
  0
LINE
  8
_0-3_
  6
CONTINUOUS
 62
    4
 10
605.58062290777866
 20
923.47388818170862
 11
605.61072857967599
 21
914.35447177843957
  0
LINE
  8
_0-3_
  6
CONTINUOUS
 62
    4
 10
605.61072857967599
 20
914.35447177843957
 11
605.67261961654026
 21
905.63035776342815
  0
LINE
  8
_0-3_
  6
CONTINUOUS
 62
    4
 10
605.67261961654026
 20
905.63035776342815
 11
605.7644154905347
 21
897.56662392640578
  0
LINE
  8
_0-3_
  6
CONTINUOUS
 62
    4
 10
605.7644154905347
 20
897.56662392640578
 11
605.88332703047899
 21
890.40828273956413
  0
LINE
  8
_0-3_
  6
CONTINUOUS
 62
    4
 10
605.88332703047899
 20
890.40828273956413
 11
606.02574116940411
 21
884.37283677757
  0
LINE
  8
_0-3_
  6
CONTINUOUS
 62
    4
 10
606.02574116940411
 20
884.37283677757
 11
606.18733072576367
 21
879.64367001189555
  0
LINE
  8
_0-3_
  6
CONTINUOUS
 62
    4
 10
606.18733072576367
 20
879.64367001189555
 11
606.36318588265613
 21
876.364475781642
  0
LINE
  8
_0-3_
  6
CONTINUOUS
 62
    4
 10
606.36318588265613
 20
876.364475781642
 11
606.54796337012624
 21
874.63489074414326
  0
LINE
  8
_0-3_
  6
CONTINUOUS
 62
    4
 10
606.54796337012624
 20
874.63489074414326
 11
606.73604881771917
 21
874.50746746555137
  0
LINE
  8
_0-3_
  6
CONTINUOUS
 62
    4
 10
606.73604881771917
 20
874.50746746555137
 11
606.92172734428561
 21
875.98607763770713
  0
LINE
  8
_0-3_
  6
CONTINUOUS
 62
    4
 10
606.92172734428561
 20
875.98607763770713
 11
606.95048087495229
 21
876.36447578164189
  0
LINE
  8
_0-0_
  6
DASHED2
 62
    3
 10
598.65849554089073
 20
976.86447578164177
 11
606.70049569650655
 21
976.86447578164177
  0
LINE
  8
_0-0_
  6
DASHED2
 62
    3
 10
598.65849554089073
 20
976.86447578164177
 11
598.65849554089073
 21
976.86447578164177
  0
LINE
  8
_0-0_
  6
DASHED2
 62
    3
 10
598.65849554089073
 20
976.86447578164177
 11
598.48348286458065
 21
976.11245955574611
  0
LINE
  8
_0-0_
  6
DASHED2
 62
    3
 10
598.48348286458065
 20
976.11245955574611
 11
598.31378785987965
 21
973.87926051054433
  0
LINE
  8
_0-0_
  6
DASHED2
 62
    3
 10
598.31378785987965
 20
973.87926051054433
 11
598.15456662363556
 21
970.23273326897151
  0
LINE
  8
_0-0_
  6
DASHED2
 62
    3
 10
598.15456662363556
 20
970.23273326897151
 11
598.01065701254197
 21
965.28367571603121
  0
LINE
  8
_0-0_
  6
DASHED2
 62
    3
 10
598.01065701254197
 20
965.28367571603121
 11
597.88643164731025
 21
959.18246246112562
  0
LINE
  8
_0-0_
  6
DASHED2
 62
    3
 10
597.88643164731025
 20
959.18246246112562
 11
597.78566505280162
 21
952.11447578164189
  0
LINE
  8
_0-0_
  6
DASHED2
 62
    3
 10
597.78566505280162
 20
952.11447578164189
 11
597.71141897100017
 21
944.29447287626249
  0
LINE
  8
_0-0_
  6
DASHED2
 62
    3
 10
597.71141897100017
 20
944.29447287626249
 11
597.6659493315309
 21
935.960060576155
  0
LINE
  8
_0-0_
  6
DASHED2
 62
    3
 10
597.6659493315309
 20
935.960060576155
 11
597.65063770638039
 21
927.36447578164189
  0
LINE
  8
_0-0_
  6
DASHED2
 62
    3
 10
597.65063770638039
 20
927.36447578164189
 11
597.6659493315309
 21
918.76889098712888
  0
LINE
  8
_0-0_
  6
DASHED2
 62
    3
 10
597.6659493315309
 20
918.76889098712888
 11
597.71141897100017
 21
910.43447868702128
  0
LINE
  8
_0-0_
  6
DASHED2
 62
    3
 10
597.71141897100017
 20
910.43447868702128
 11
597.78566505280162
 21
902.61447578164189
  0
LINE
  8
_0-0_
  6
DASHED2
 62
    3
 10
597.78566505280162
 20
902.61447578164189
 11
597.88643164731025
 21
895.54648910215815
  0
LINE
  8
_0-0_
  6
DASHED2
 62
    3
 10
597.88643164731025
 20
895.54648910215815
 11
598.01065701254197
 21
889.44527584725245
  0
LINE
  8
_0-0_
  6
DASHED2
 62
    3
 10
598.01065701254197
 20
889.44527584725245
 11
598.15456662363556
 21
884.49621829431214
  0
LINE
  8
_0-0_
  6
DASHED2
 62
    3
 10
598.15456662363556
 20
884.49621829431214
 11
598.31378785987965
 21
880.84969105273933
  0
LINE
  8
_0-0_
  6
DASHED2
 62
    3
 10
598.31378785987965
 20
880.84969105273933
 11
598.48348286458065
 21
878.61649200753754
  0
LINE
  8
_0-0_
  6
DASHED2
 62
    3
 10
598.48348286458065
 20
878.61649200753754
 11
598.65849554089073
 21
877.86447578164177
  0
LINE
  8
_0-0_
  6
DASHED2
 62
    3
 10
598.65849554089073
 20
877.86447578164177
 11
598.65849554089073
 21
877.86447578164177
  0
LINE
  8
_0-0_
  6
DASHED2
 62
    3
 10
598.65849554089073
 20
877.86447578164189
 11
606.70049569650655
 21
877.86447578164189
  0
LINE
  8
_0-3_
  6
CONTINUOUS
 62
    4
 10
541.73742607946895
 20
980.36447578164189
 11
606.65683337880421
 21
980.36447578164189
  0
LINE
  8
_0-3_
  6
CONTINUOUS
 62
    4
 10
541.73742607946895
 20
874.36447578164189
 11
606.65683337880421
 21
874.36447578164189
  0
LINE
  8
_0-3_
  6
CONTINUOUS
 62
    4
 10
541.73742607946895
 20
980.36447578164177
 11
541.73742607946895
 21
980.36447578164177
  0
LINE
  8
_0-3_
  6
CONTINUOUS
 62
    4
 10
541.73742607946895
 20
980.36447578164177
 11
541.55003852896687
 21
979.55928669128889
  0
LINE
  8
_0-3_
  6
CONTINUOUS
 62
    4
 10
541.55003852896687
 20
979.55928669128889
 11
541.36834465436402
 21
977.16818468329495
  0
LINE
  8
_0-3_
  6
CONTINUOUS
 62
    4
 10
541.36834465436402
 20
977.16818468329495
 11
541.19786513209885
 21
973.26382218221715
  0
LINE
  8
_0-3_
  6
CONTINUOUS
 62
    4
 10
541.19786513209885
 20
973.26382218221715
 11
541.04377989618854
 21
967.96483126694773
  0
LINE
  8
_0-3_
  6
CONTINUOUS
 62
    4
 10
541.04377989618854
 20
967.96483126694773
 11
540.91077074855525
 21
961.43221909502847
  0
LINE
  8
_0-3_
  6
CONTINUOUS
 62
    4
 10
540.91077074855525
 20
961.43221909502847
 11
540.80287910484401
 21
953.86447578164189
  0
LINE
  8
_0-3_
  6
CONTINUOUS
 62
    4
 10
540.80287910484401
 20
953.86447578164189
 11
540.72338319805306
 21
945.49154337790242
  0
LINE
  8
_0-3_
  6
CONTINUOUS
 62
    4
 10
540.72338319805306
 20
945.49154337790242
 11
540.67469847108362
 21
936.56782919798923
  0
LINE
  8
_0-3_
  6
CONTINUOUS
 62
    4
 10
540.67469847108362
 20
936.56782919798923
 11
540.65830418472876
 21
927.36447578164189
  0
LINE
  8
_0-3_
  6
CONTINUOUS
 62
    4
 10
540.65830418472876
 20
927.36447578164189
 11
540.67469847108362
 21
918.16112236529466
  0
LINE
  8
_0-3_
  6
CONTINUOUS
 62
    4
 10
540.67469847108362
 20
918.16112236529466
 11
540.72338319805306
 21
909.23740818538147
  0
LINE
  8
_0-3_
  6
CONTINUOUS
 62
    4
 10
540.72338319805306
 20
909.23740818538147
 11
540.80287910484401
 21
900.86447578164189
  0
LINE
  8
_0-3_
  6
CONTINUOUS
 62
    4
 10
540.80287910484401
 20
900.86447578164189
 11
540.91077074855525
 21
893.2967324682553
  0
LINE
  8
_0-3_
  6
CONTINUOUS
 62
    4
 10
540.91077074855525
 20
893.2967324682553
 11
541.04377989618854
 21
886.76412029633605
  0
LINE
  8
_0-3_
  6
CONTINUOUS
 62
    4
 10
541.04377989618854
 20
886.76412029633605
 11
541.19786513209885
 21
881.46512938106662
  0
LINE
  8
_0-3_
  6
CONTINUOUS
 62
    4
 10
541.19786513209885
 20
881.46512938106662
 11
541.36834465436402
 21
877.56076687998871
  0
LINE
  8
_0-3_
  6
CONTINUOUS
 62
    4
 10
541.36834465436402
 20
877.56076687998871
 11
541.55003852896687
 21
875.16966487199477
  0
LINE
  8
_0-3_
  6
CONTINUOUS
 62
    4
 10
541.55003852896687
 20
875.16966487199477
 11
541.73742607946895
 21
874.36447578164177
  0
LINE
  8
_0-e_
  6
CONTINUOUS
 62
    7
 10
541.73742607946895
 20
874.36447578164189
 11
532.62020899256777
 21
872.36447578164189
  0
LINE
  8
_0-e_
  6
CONTINUOUS
 62
    7
 10
532.62020899256777
 20
982.36447578164189
 11
541.73742607946895
 21
980.36447578164189
  0
LINE
  8
_0-e_
  6
CONTINUOUS
 62
    7
 10
532.62020899256777
 20
872.36447578164189
 11
532.62020899256777
 21
982.36447578164189
  0
LINE
  8
_0-a_
  6
CONTINUOUS
 62
    2
 10
495.65830418472888
 20
929.86445933075993
 11
490.65830037003161
 21
927.61445186527817
  0
LINE
  8
_0-a_
  6
CONTINUOUS
 62
    2
 10
490.65830037003161
 20
927.61445186527817
 11
490.65830037003161
 21
927.11446257921307
  0
LINE
  8
_0-a_
  6
CONTINUOUS
 62
    2
 10
490.65830037003161
 20
927.11446257921307
 11
495.65830418472888
 21
924.86445527764397
  0
LINE
  8
_0-a_
  6
CONTINUOUS
 62
    2
 10
528.65830227738024
 20
924.86445527764397
 11
520.6583060920774
 21
929.86445933075993
  0
LINE
  8
_0-a_
  6
CONTINUOUS
 62
    2
 10
524.65831372147193
 20
924.86445527764397
 11
516.6583003700315
 21
929.86445933075993
  0
LINE
  8
_0-a_
  6
CONTINUOUS
 62
    2
 10
520.6583060920774
 20
924.86445527764397
 11
512.65831181412341
 21
929.86445933075993
  0
LINE
  8
_0-a_
  6
CONTINUOUS
 62
    2
 10
516.6583003700315
 20
924.86445527764397
 11
508.65830418472882
 21
929.86445933075993
  0
LINE
  8
_0-a_
  6
CONTINUOUS
 62
    2
 10
512.65831181412341
 20
924.86445527764397
 11
504.65831562882056
 21
929.86445933075993
  0
LINE
  8
_0-a_
  6
CONTINUOUS
 62
    2
 10
508.65830418472882
 20
924.86445527764397
 11
500.65830799942614
 21
929.86445933075993
  0
LINE
  8
_0-a_
  6
CONTINUOUS
 62
    2
 10
504.65829655533429
 20
924.86445527764397
 11
496.65830037003161
 21
929.86445933075993
  0
LINE
  8
_0-a_
  6
CONTINUOUS
 62
    2
 10
500.65830799942614
 20
924.86445527764397
 11
495.65830418472888
 21
927.9894345352277
  0
LINE
  8
_0-a_
  6
CONTINUOUS
 62
    2
 10
496.65830037003161
 20
924.86445527764397
 11
495.65830418472888
 21
925.48945110531884
  0
LINE
  8
_0-0_
  6
CENTER1
 62
    3
 10
489.34649915656541
 20
927.36447578164177
 11
775.86696552934905
 21
927.36447578164177
  0
LINE
  8
_0-a_
  6
CONTINUOUS
 62
    2
 10
532.62020899256777
 20
927.38826400298899
 11
528.65830227738024
 21
929.86445933075993
  0
LINE
  8
_0-a_
  6
CONTINUOUS
 62
    2
 10
532.62020899256777
 20
929.86445933075993
 11
495.65830418472888
 21
929.86445933075993
  0
LINE
  8
_0-a_
  6
CONTINUOUS
 62
    2
 10
532.62020899256777
 20
924.86445527764397
 11
495.65830418472888
 21
924.86445527764397
  0
LINE
  8
_0-a_
  6
CONTINUOUS
 62
    2
 10
532.62020899256777
 20
924.88826778647308
 11
524.65831372147193
 21
929.86445933075993
  0
TEXT
  8
_0-f_
 62
    2
 10
1490.1315542370025
 20
694.44390851022854
 40
12
 41
1
 50
0
  1
デッキプレート
  0
LINE
  8
_0-f_
  6
CONTINUOUS
 62
    7
 10
1487.475323321765
 20
691.07316351664917
 11
1585.4362948665002
 21
691.07316351664917
  0
LINE
  8
_0-f_
  6
CONTINUOUS
 62
    7
 10
1487.475323321765
 20
691.07316351664917
 11
1460.7229294862548
 21
752.83971987216501
  0
POINT
  8
_0-f_
 62
    7
 10
1460.7229294862548
 20
752.83971987216501
  0
LINE
  8
_0-f_
  6
CONTINUOUS
 62
    7
 10
1487.475323321765
 20
815.38643739945485
 11
1460.7229294862548
 21
877.15299375497079
  0
POINT
  8
_0-f_
 62
    7
 10
1460.7229294862548
 20
877.15299375497079
  0
TEXT
  8
_0-f_
 62
    2
 10
1490.1315542370025
 20
818.75718239303421
 40
12
 41
1
 50
0
  1
スラブコンクリート
  0
LINE
  8
_0-f_
  6
CONTINUOUS
 62
    7
 10
1487.475323321765
 20
815.38643739945485
 11
1611.795271145606
 21
815.38643739945485
  0
TEXT
  8
_0-f_
 62
    2
 10
1498.0032724942507
 20
938.83008008513718
 40
12
 41
1
 50
0
  1
防水層
  0
LINE
  8
_0-f_
  6
CONTINUOUS
 62
    7
 10
1495.3970130162202
 20
935.37716046989055
 11
1537.3500662912322
 21
935.37716046989055
  0
LINE
  8
_0-f_
  6
CONTINUOUS
 62
    7
 10
1495.3970130162202
 20
935.37716046989055
 11
1460.4131125597246
 21
912.26615788440461
  0
POINT
  8
_0-f_
 62
    7
 10
1460.4131125597246
 20
912.26615788440461
  0
LINE
  8
_0-9_
  6
CONTINUOUS
 62
    7
 10
1490.2896179722509
 20
888.32724730446898
 11
1403.6805318348906
 21
801.71825631453453
  0
TEXT
  8
_0-f_
 62
    2
 10
1131.3251100093494
 20
1096.0822892256265
 40
12
 41
1
 50
0
  1
パラペット
  0
LINE
  8
_0-f_
  6
CONTINUOUS
 62
    7
 10
1130.7992987687419
 20
1092.2194319964012
 11
1197.4526472079674
 21
1092.2194319964012
  0
LINE
  8
_0-f_
  6
CONTINUOUS
 62
    7
 10
1197.4526472079674
 20
1092.2194319964012
 11
1229.6518120029241
 21
1049.1098183980362
  0
POINT
  8
_0-f_
 62
    7
 10
1229.6518120029241
 20
1049.1098183980362
  0
TEXT
  8
_0-f_
 62
    2
 10
1128.0752330715409
 20
996.46419024068882
 40
12
 41
1
 50
0
  1
接続管
  0
LINE
  8
_0-f_
  6
CONTINUOUS
 62
    7
 10
1128.2595242008863
 20
993.35756834600784
 11
1168.7772453526998
 21
993.35756834600784
  0
LINE
  8
_0-f_
  6
CONTINUOUS
 62
    7
 10
1168.7772453526998
 20
993.35756834600784
 11
1183.2991178182961
 21
971.70175532448764
  0
POINT
  8
_0-f_
 62
    7
 10
1183.2991178182961
 20
971.70175532448764
  0
TEXT
  8
_0-f_
 62
    2
 10
510.94107917981762
 20
591.717320178828
 40
12
 41
1
 50
0
  1
真鍮製丸小ねじ
  0
LINE
  8
_0-f_
  6
CONTINUOUS
 62
    7
 10
507.43405733626707
 20
587.34281366214418
 11
603.81120880607909
 21
587.34281366214418
  0
TEXT
  8
_0-f_
 62
    2
 10
531.19107917981762
 20
571.01678773306821
 40
12
 41
1
 50
0
  1
Ｍ６
  0
TEXT
  8
_0-f_
 62
    2
 10
393.29113912622711
 20
613.16558570530924
 40
12
 41
1
 50
0
  1
固定プレート
  0
LINE
  8
_0-f_
  6
CONTINUOUS
 62
    7
 10
388.45197781433603
 20
608.79107918862542
 11
474.66007542880948
 21
608.79107918862542
  0
TEXT
  8
_0-f_
 62
    2
 10
352.36834829363829
 20
577.21107546132089
 40
12
 41
1
 50
0
  1
スチール製蝶ナット
  0
LINE
  8
_0-f_
  6
CONTINUOUS
 62
    7
 10
350.86141711012397
 20
572.83656894463707
 11
475.35560967988295
 21
572.83656894463707
  0
TEXT
  8
_0-f_
 62
    2
 10
334.97325544215516
 20
531.89094429185764
 40
12
 41
1
 50
0
  1
スチール製長ねじボルト
  0
LINE
  8
_0-f_
  6
CONTINUOUS
 62
    7
 10
331.46623359860484
 20
527.51643777517381
 11
482.68917750193634
 21
527.51643777517381
  0
TEXT
  8
_0-f_
 62
    2
 10
355.22325544215516
 20
511.19041184609773
 40
12
 41
1
 50
0
  1
Ｍ８
  0
TEXT
  8
_0-f_
 62
    2
 10
372.61834829363863
 20
556.5105430155611
 40
12
 41
1
 50
0
  1
Ｍ６
  0
TEXT
  8
_0-f_
 62
    2
 10
364.46347620120503
 20
376.85103740053484
 40
12
 41
1
 50
0
  1
位置決めプレート
  0
LINE
  8
_0-f_
  6
CONTINUOUS
 62
    7
 10
363.09876303653164
 20
373.4920652216212
 11
470.73474374539069
 21
373.4920652216212
  0
LINE
  8
_0-f_
  6
CONTINUOUS
 62
    7
 10
538.52115149437452
 20
419.223289983717
 11
531.80943951202289
 21
415.87621330907109
  0
LINE
  8
_0-f_
  6
CONTINUOUS
 62
    7
 10
538.52115149437452
 20
419.223289983717
 11
532.90442274082409
 21
414.25314329483149
  0
LINE
  8
_0-f_
  6
CONTINUOUS
 62
    7
 10
470.73474374539069
 20
373.4920652216212
 11
538.52115149437452
 21
419.223289983717
  0
TEXT
  8
_0-f_
 62
    2
 10
403.43764227286772
 20
341.64719224763144
 40
12
 41
1
 50
0
  1
型枠（別途）
  0
LINE
  8
_0-f_
  6
CONTINUOUS
 62
    7
 10
399.50918409097847
 20
338.28822006871781
 11
476.09303534562594
 21
338.28822006871781
  0
POINT
  8
_0-f_
 62
    7
 10
522.67519984580201
 20
356.85654740618389
  0
LINE
  8
_0-f_
  6
CONTINUOUS
 62
    7
 10
476.09303534562594
 20
338.28822006871781
 11
522.67519984580201
 21
356.85654740618389
  0
TEXT
  8
_0-f_
 62
    2
 10
396.23029241408386
 20
270.16005109559427
 40
12
 41
1
 50
0
  1
スペーサーＡ：硬質ポリ塩化ビニル
  0
LINE
  8
_0-f_
  6
CONTINUOUS
 62
    7
 10
393.69156283234219
 20
264.65818474802319
 11
611.51810480380891
 21
264.65818474802319
  0
TEXT
  8
_0-f_
 62
    2
 10
338.51656948589226
 20
304.62859081322119
 40
12
 41
1
 50
0
  1
スペーサーＢ：硬質ポリ塩化ビニル
  0
LINE
  8
_0-f_
  6
CONTINUOUS
 62
    7
 10
335.2289196386094
 20
301.06358335214611
 11
553.05546161007646
 21
301.06358335214611
  0
LINE
  8
_0-f_
  6
CONTINUOUS
 62
    7
 10
611.51810480380891
 20
264.65818474802319
 11
667.61967921405721
 21
333.87524175781084
  0
LINE
  8
_0-f_
  6
CONTINUOUS
 62
    7
 10
667.61967921405721
 20
333.87524175781084
 11
663.69811203340532
 21
327.48217435259488
  0
LINE
  8
_0-f_
  6
CONTINUOUS
 62
    7
 10
667.61967921405721
 20
333.87524175781084
 11
662.17708859364393
 21
328.71498911490761
  0
LINE
  8
_0-f_
  6
CONTINUOUS
 62
    7
 10
553.05546161007646
 20
301.06358335214611
 11
583.83102310376535
 21
356.49394245188228
  0
LINE
  8
_0-f_
  6
CONTINUOUS
 62
    7
 10
583.83102310376535
 20
356.49394245188228
 11
579.36569381036884
 21
350.46809526650372
  0
LINE
  8
_0-f_
  6
CONTINUOUS
 62
    7
 10
583.83102310376535
 20
356.49394245188228
 11
581.07745023084158
 21
349.51770876646867
  0
LINE
  8
_0-f_
  6
CONTINUOUS
 62
    7
 10
562.3124673691143
 20
413.09079741506775
 11
557.26175709693928
 21
418.63519330159534
  0
LINE
  8
_0-f_
  6
CONTINUOUS
 62
    7
 10
562.3124673691143
 20
413.09079741506775
 11
558.86885112513846
 21
419.75349260276948
  0
LINE
  8
_0-f_
  6
CONTINUOUS
 62
    7
 10
475.35560967988295
 20
572.83656894463707
 11
627.55618808907548
 21
419.70519344636182
  0
LINE
  8
_0-f_
  6
CONTINUOUS
 62
    7
 10
627.55618808907548
 20
419.70519344636182
 11
621.61998407888859
 21
424.289021753513
  0
LINE
  8
_0-f_
  6
CONTINUOUS
 62
    7
 10
627.55618808907548
 20
419.70519344636182
 11
623.00863739088607
 21
425.66923424496434
  0
LINE
  8
_0-f_
  6
CONTINUOUS
 62
    7
 10
474.66007542880948
 20
608.79107918862542
 11
629.3898479701927
 21
425.43614120509028
  0
LINE
  8
_0-f_
  6
CONTINUOUS
 62
    7
 10
629.3898479701927
 20
425.43614120509028
 11
623.84610577258172
 21
430.48756896825068
  0
LINE
  8
_0-f_
  6
CONTINUOUS
 62
    7
 10
629.3898479701927
 20
425.43614120509028
 11
625.34240991729735
 21
431.75027180304068
  0
LINE
  8
_0-f_
  6
CONTINUOUS
 62
    7
 10
643.50956637070021
 20
459.7755067121559
 11
640.36535121934185
 21
466.58461172544287
  0
LINE
  8
_0-f_
  6
CONTINUOUS
 62
    7
 10
643.50956637070021
 20
459.7755067121559
 11
642.23481381013562
 21
467.16637986147555
  0
LINE
  8
_0-f_
  6
CONTINUOUS
 62
    7
 10
603.81120880607909
 20
587.34281366214418
 11
618.20577193428289
 21
541.08710522389333
  0
LINE
  8
_0-f_
  6
CONTINUOUS
 62
    7
 10
624.77874666425441
 20
519.96540809604892
 11
643.50956637070021
 21
459.7755067121559
  0
LINE
  8
_0-f_
  6
CONTINUOUS
 62
    7
 10
482.68917750193634
 20
527.51643777517381
 11
539.4002811553396
 21
446.0176154846875
  0
LINE
  8
_0-f_
  6
CONTINUOUS
 62
    7
 10
547.56886077038519
 20
434.27865123385988
 11
562.3124673691143
 21
413.09079741506775
  0
TEXT
  8
_0-f_
 62
    2
 10
1271.1515910116498
 20
677.74056748459066
 40
12
 41
1
 50
0
  1
施工例　Ｓ＝１：３
  0
LINE
  8
_0-f_
  6
CONTINUOUS
 62
    7
 10
1268.7906204984242
 20
674.91627458534253
 11
1394.1085884533509
 21
674.91627458534253
  0
TEXT
  8
_0-5_
 62
    2
 10
653.59423503325945
 20
657.93791574279385
 40
12
 41
1
 50
0
  1
平面図　Ｓ＝１：３
  0
LINE
  8
_0-5_
  6
CONTINUOUS
 62
    7
 10
651.42020303388324
 20
654.63498940538318
 11
774.51095728554992
 21
654.63498940538318
  0
TEXT
  8
_0-5_
 62
    2
 10
604.75081735094705
 20
148.13909469471645
 40
12
 41
1
 50
0
  1
断面図　Ｓ＝１：３
  0
LINE
  8
_0-5_
  6
CONTINUOUS
 62
    7
 10
602.57678535157083
 20
144.83616835730595
 11
725.66753960323751
 21
144.83616835730595
  0
LINE
  8
_0-3_
  6
CONTINUOUS
 62
    4
 10
1201.7806980305036
 20
980.12831082761704
 11
1266.6995528941918
 21
981.45028369671013
  0
LINE
  8
_0-3_
  6
CONTINUOUS
 62
    4
 10
1203.8167195789661
 20
880.14910118520061
 11
1268.7356283326847
 21
881.47103715577282
  0
ENDSEC
  0
EOF
