  0
SECTION
  2
HEADER
  9
$ACADVER
  1
AC1018
  9
$ACADMAINTVER
 70
     0
  9
$DWGCODEPAGE
  3
ANSI_932
  9
$INSBASE
 10
0.0
 20
0.0
 30
0.0
  9
$EXTMIN
 10
-630.0
 20
-445.5
 30
0.0
  9
$EXTMAX
 10
630.0
 20
445.5
 30
0.0
  9
$LIMMIN
 10
-630.0
 20
-445.5
  9
$LIMMAX
 10
630.0
 20
445.5
  9
$ORTHOMODE
 70
     0
  9
$REGENMODE
 70
     1
  9
$FILLMODE
 70
     1
  9
$QTEXTMODE
 70
     0
  9
$MIRRTEXT
 70
     1
  9
$LTSCALE
 40
3.0
  9
$ATTMODE
 70
     1
  9
$TEXTSIZE
 40
2.5
  9
$TRACEWID
 40
1.0
  9
$TEXTSTYLE
  7
Standard
  9
$CLAYER
  8
0
  9
$CELTYPE
  6
ByLayer
  9
$CECOLOR
 62
   256
  9
$CELTSCALE
 40
1.0
  9
$DISPSILH
 70
     0
  9
$DIMSCALE
 40
1.0
  9
$DIMASZ
 40
2.5
  9
$DIMEXO
 40
0.625
  9
$DIMDLI
 40
3.75
  9
$DIMRND
 40
0.0
  9
$DIMDLE
 40
0.0
  9
$DIMEXE
 40
1.25
  9
$DIMTP
 40
0.0
  9
$DIMTM
 40
0.0
  9
$DIMTXT
 40
2.5
  9
$DIMCEN
 40
2.5
  9
$DIMTSZ
 40
0.0
  9
$DIMTOL
 70
     0
  9
$DIMLIM
 70
     0
  9
$DIMTIH
 70
     0
  9
$DIMTOH
 70
     0
  9
$DIMSE1
 70
     0
  9
$DIMSE2
 70
     0
  9
$DIMTAD
 70
     1
  9
$DIMZIN
 70
     8
  9
$DIMBLK
  1

  9
$DIMASO
 70
     1
  9
$DIMSHO
 70
     1
  9
$DIMPOST
  1

  9
$DIMAPOST
  1

  9
$DIMALT
 70
     0
  9
$DIMALTD
 70
     3
  9
$DIMALTF
 40
0.03937007874016
  9
$DIMLFAC
 40
1.0
  9
$DIMTOFL
 70
     1
  9
$DIMTVP
 40
0.0
  9
$DIMTIX
 70
     0
  9
$DIMSOXD
 70
     0
  9
$DIMSAH
 70
     0
  9
$DIMBLK1
  1

  9
$DIMBLK2
  1

  9
$DIMSTYLE
  2
ISO-25
  9
$DIMCLRD
 70
     0
  9
$DIMCLRE
 70
     0
  9
$DIMCLRT
 70
     0
  9
$DIMTFAC
 40
1.0
  9
$DIMGAP
 40
0.625
  9
$DIMJUST
 70
     0
  9
$DIMSD1
 70
     0
  9
$DIMSD2
 70
     0
  9
$DIMTOLJ
 70
     0
  9
$DIMTZIN
 70
     8
  9
$DIMALTZ
 70
     0
  9
$DIMALTTZ
 70
     0
  9
$DIMUPT
 70
     0
  9
$DIMDEC
 70
     2
  9
$DIMTDEC
 70
     2
  9
$DIMALTU
 70
     2
  9
$DIMALTTD
 70
     3
  9
$DIMTXSTY
  7
Standard
  9
$DIMAUNIT
 70
     0
  9
$DIMADEC
 70
     0
  9
$DIMALTRND
 40
0.0
  9
$DIMAZIN
 70
     0
  9
$DIMDSEP
 70
    44
  9
$DIMATFIT
 70
     3
  9
$DIMFRAC
 70
     0
  9
$DIMLDRBLK
  1

  9
$DIMLUNIT
 70
     2
  9
$DIMLWD
 70
    -2
  9
$DIMLWE
 70
    -2
  9
$DIMTMOVE
 70
     0
  9
$LUNITS
 70
     2
  9
$LUPREC
 70
     4
  9
$SKETCHINC
 40
1.0
  9
$FILLETRAD
 40
10.0
  9
$AUNITS
 70
     0
  9
$AUPREC
 70
     0
  9
$MENU
  1
.
  9
$ELEVATION
 40
0.0
  9
$PELEVATION
 40
0.0
  9
$THICKNESS
 40
0.0
  9
$LIMCHECK
 70
     0
  9
$CHAMFERA
 40
0.0
  9
$CHAMFERB
 40
0.0
  9
$CHAMFERC
 40
0.0
  9
$CHAMFERD
 40
0.0
  9
$SKPOLY
 70
     0
  9
$TDCREATE
 40
2460000.705073322
  9
$TDUCREATE
 40
2460000.330073322
  9
$TDUPDATE
 40
2460000.705073449
  9
$TDUUPDATE
 40
2460000.330073449
  9
$TDINDWG
 40
0.0000000116
  9
$TDUSRTIMER
 40
0.0000000116
  9
$USRTIMER
 70
     1
  9
$ANGBASE
 50
0.0
  9
$ANGDIR
 70
     0
  9
$PDMODE
 70
     0
  9
$PDSIZE
 40
0.0
  9
$PLINEWID
 40
0.0
  9
$SPLFRAME
 70
     0
  9
$SPLINETYPE
 70
     6
  9
$SPLINESEGS
 70
     8
  9
$HANDSEED
  5
33B
  9
$SURFTAB1
 70
     6
  9
$SURFTAB2
 70
     6
  9
$SURFTYPE
 70
     6
  9
$SURFU
 70
     6
  9
$SURFV
 70
     6
  9
$UCSBASE
  2

  9
$UCSNAME
  2

  9
$UCSORG
 10
0.0
 20
0.0
 30
0.0
  9
$UCSXDIR
 10
1.0
 20
0.0
 30
0.0
  9
$UCSYDIR
 10
0.0
 20
1.0
 30
0.0
  9
$UCSORTHOREF
  2

  9
$UCSORTHOVIEW
 70
     0
  9
$UCSORGTOP
 10
0.0
 20
0.0
 30
0.0
  9
$UCSORGBOTTOM
 10
0.0
 20
0.0
 30
0.0
  9
$UCSORGLEFT
 10
0.0
 20
0.0
 30
0.0
  9
$UCSORGRIGHT
 10
0.0
 20
0.0
 30
0.0
  9
$UCSORGFRONT
 10
0.0
 20
0.0
 30
0.0
  9
$UCSORGBACK
 10
0.0
 20
0.0
 30
0.0
  9
$PUCSBASE
  2

  9
$PUCSNAME
  2

  9
$PUCSORG
 10
0.0
 20
0.0
 30
0.0
  9
$PUCSXDIR
 10
1.0
 20
0.0
 30
0.0
  9
$PUCSYDIR
 10
0.0
 20
1.0
 30
0.0
  9
$PUCSORTHOREF
  2

  9
$PUCSORTHOVIEW
 70
     0
  9
$PUCSORGTOP
 10
0.0
 20
0.0
 30
0.0
  9
$PUCSORGBOTTOM
 10
0.0
 20
0.0
 30
0.0
  9
$PUCSORGLEFT
 10
0.0
 20
0.0
 30
0.0
  9
$PUCSORGRIGHT
 10
0.0
 20
0.0
 30
0.0
  9
$PUCSORGFRONT
 10
0.0
 20
0.0
 30
0.0
  9
$PUCSORGBACK
 10
0.0
 20
0.0
 30
0.0
  9
$USERI1
 70
     0
  9
$USERI2
 70
     0
  9
$USERI3
 70
     0
  9
$USERI4
 70
     0
  9
$USERI5
 70
     0
  9
$USERR1
 40
0.0
  9
$USERR2
 40
0.0
  9
$USERR3
 40
0.0
  9
$USERR4
 40
0.0
  9
$USERR5
 40
0.0
  9
$WORLDVIEW
 70
     1
  9
$SHADEDGE
 70
     3
  9
$SHADEDIF
 70
    70
  9
$TILEMODE
 70
     1
  9
$MAXACTVP
 70
    64
  9
$PINSBASE
 10
0.0
 20
0.0
 30
0.0
  9
$PLIMCHECK
 70
     0
  9
$PEXTMIN
 10
1.000000000000000E+20
 20
1.000000000000000E+20
 30
1.000000000000000E+20
  9
$PEXTMAX
 10
-1.000000000000000E+20
 20
-1.000000000000000E+20
 30
-1.000000000000000E+20
  9
$PLIMMIN
 10
0.0
 20
0.0
  9
$PLIMMAX
 10
420.0
 20
297.0
  9
$UNITMODE
 70
     0
  9
$VISRETAIN
 70
     1
  9
$PLINEGEN
 70
     0
  9
$PSLTSCALE
 70
     1
  9
$TREEDEPTH
 70
  3020
  9
$CMLSTYLE
  2
Standard
  9
$CMLJUST
 70
     0
  9
$CMLSCALE
 40
20.0
  9
$PROXYGRAPHICS
 70
     1
  9
$MEASUREMENT
 70
     1
  9
$CELWEIGHT
370
    -1
  9
$ENDCAPS
280
     0
  9
$JOINSTYLE
280
     0
  9
$LWDISPLAY
290
     0
  9
$INSUNITS
 70
     4
  9
$HYPERLINKBASE
  1

  9
$STYLESHEET
  1

  9
$XEDIT
290
     1
  9
$CEPSNTYPE
380
     0
  9
$PSTYLEMODE
290
     1
  9
$FINGERPRINTGUID
  2
{D38F42FE-53BB-4036-BA29-631172692EA3}
  9
$VERSIONGUID
  2
{FAEB1C32-E019-11D5-929B-00C0DF256EC4}
  9
$EXTNAMES
290
     1
  9
$PSVPSCALE
 40
0.0
  9
$OLESTARTUP
290
     0
  9
$SORTENTS
280
   127
  9
$INDEXCTL
280
     0
  9
$HIDETEXT
280
     1
  9
$XCLIPFRAME
290
     0
  9
$HALOGAP
280
     0
  9
$OBSCOLOR
 70
   257
  9
$OBSLTYPE
280
     0
  9
$INTERSECTIONDISPLAY
280
     0
  9
$INTERSECTIONCOLOR
 70
   257
  9
$DIMASSOC
280
     2
  9
$PROJECTNAME
  1

  0
ENDSEC
  0
SECTION
  2
CLASSES
  0
CLASS
  1
ACDBDICTIONARYWDFLT
  2
AcDbDictionaryWithDefault
  3
ObjectDBX Classes
 90
        0
 91
        4
280
     0
281
     0
  0
CLASS
  1
VISUALSTYLE
  2
AcDbVisualStyle
  3
ObjectDBX Classes
 90
     4095
 91
        4
280
     0
281
     0
  0
CLASS
  1
MATERIAL
  2
AcDbMaterial
  3
ObjectDBX Classes
 90
     1153
 91
        4
280
     0
281
     0
  0
CLASS
  1
SCALE
  2
AcDbScale
  3
ObjectDBX Classes
 90
     1153
 91
        4
280
     0
281
     0
  0
CLASS
  1
TABLESTYLE
  2
AcDbTableStyle
  3
ObjectDBX Classes
 90
     4095
 91
        4
280
     0
281
     0
  0
CLASS
  1
MLEADERSTYLE
  2
AcDbMLeaderStyle
  3
ACDB_MLEADERSTYLE_CLASS
 90
     4095
 91
        4
280
     0
281
     0
  0
CLASS
  1
SUN
  2
AcDbSun
  3
SCENEOE
 90
     1153
 91
        4
280
     0
281
     0
  0
CLASS
  1
DICTIONARYVAR
  2
AcDbDictionaryVar
  3
ObjectDBX Classes
 90
        0
 91
        4
280
     0
281
     0
  0
CLASS
  1
CELLSTYLEMAP
  2
AcDbCellStyleMap
  3
ObjectDBX Classes
 90
     1152
 91
        4
280
     0
281
     0
  0
ENDSEC
  0
SECTION
  2
TABLES
  0
TABLE
  2
VPORT
  5
8
102
{ACAD_XDICTIONARY
360
2F2
102
}
330
0
100
AcDbSymbolTable
 70
     1
  0
VPORT
  5
29
330
8
100
AcDbSymbolTableRecord
100
AcDbViewportTableRecord
  2
*Active
 70
     0
 10
0.0
 20
0.0
 11
1.0
 21
1.0
 12
0.0
 22
0.0
 13
0.0
 23
0.0
 14
10.0
 24
10.0
 15
10.0
 25
10.0
 16
0.0
 26
0.0
 36
1.0
 17
0.0
 27
0.0
 37
0.0
 40
980.1
 41
1.414141414141414
 42
50.0
 43
0.0
 44
0.0
 50
0.0
 51
0.0
 71
     0
 72
 10000
 73
     1
 74
     3
 75
     0
 76
     0
 77
     0
 78
     0
281
     0
 65
     1
110
0.0
120
0.0
130
0.0
111
1.0
121
0.0
131
0.0
112
0.0
122
1.0
132
0.0
 79
     0
146
0.0
  0
ENDTAB
  0
TABLE
  2
LTYPE
  5
5
330
0
100
AcDbSymbolTable
 70
     6
  0
LTYPE
  5
14
330
5
100
AcDbSymbolTableRecord
100
AcDbLinetypeTableRecord
  2
ByBlock
 70
     0
  3

 72
    65
 73
     0
 40
0.0
  0
LTYPE
  5
15
330
5
100
AcDbSymbolTableRecord
100
AcDbLinetypeTableRecord
  2
ByLayer
 70
     0
  3

 72
    65
 73
     0
 40
0.0
  0
LTYPE
  5
16
330
5
100
AcDbSymbolTableRecord
100
AcDbLinetypeTableRecord
  2
Continuous
 70
     0
  3
Solid line
 72
    65
 73
     0
 40
0.0
  0
LTYPE
  5
6F
330
5
100
AcDbSymbolTableRecord
100
AcDbLinetypeTableRecord
  2
JWW_CENTER1
 70
     0
  3
-----  --  ----------  --  -----
 72
    65
 73
     4
 40
6.773333333333333
 49
4.233333333333333
 74
     0
 49
-0.8466666666666667
 74
     0
 49
0.8466666666666667
 74
     0
 49
-0.8466666666666667
 74
     0
  0
LTYPE
  5
70
330
5
100
AcDbSymbolTableRecord
100
AcDbLinetypeTableRecord
  2
JWW_PHANTOM2
 70
     0
  3
------------  -  -  ------------
 72
    65
 73
     6
 40
13.54666666666667
 49
10.16
 74
     0
 49
-0.8466666666666667
 74
     0
 49
0.4233333333333333
 74
     0
 49
-0.8466666666666667
 74
     0
 49
0.4233333333333333
 74
     0
 49
-0.8466666666666667
 74
     0
  0
LTYPE
  5
71
330
5
100
AcDbSymbolTableRecord
100
AcDbLinetypeTableRecord
  2
JWW_PHANTOM1
 70
     0
  3
----  -  -  --------  -  -  ----
 72
    65
 73
     6
 40
6.773333333333333
 49
3.386666666666667
 74
     0
 49
-0.8466666666666667
 74
     0
 49
0.4233333333333333
 74
     0
 49
-0.8466666666666667
 74
     0
 49
0.4233333333333333
 74
     0
 49
-0.8466666666666667
 74
     0
  0
LTYPE
  5
72
330
5
100
AcDbSymbolTableRecord
100
AcDbLinetypeTableRecord
  2
JWW_DASHED1
 70
     0
  3
-  --  --  --  --  --  --  --  -
 72
    65
 73
     2
 40
1.693333333333333
 49
0.8466666666666667
 74
     0
 49
-0.8466666666666667
 74
     0
  0
LTYPE
  5
73
330
5
100
AcDbSymbolTableRecord
100
AcDbLinetypeTableRecord
  2
JWW_CENTER2
 70
     0
  3
-------------  --  -------------
 72
    65
 73
     4
 40
13.54666666666667
 49
11.00666666666667
 74
     0
 49
-0.8466666666666667
 74
     0
 49
0.8466666666666667
 74
     0
 49
-0.8466666666666667
 74
     0
  0
ENDTAB
  0
TABLE
  2
LAYER
  5
2
330
0
100
AcDbSymbolTable
 70
    11
  0
LAYER
  5
10
330
2
100
AcDbSymbolTableRecord
100
AcDbLayerTableRecord
  2
0
 70
     0
 62
     7
  6
Continuous
370
    -3
390
F
  0
LAYER
  5
74
330
2
100
AcDbSymbolTableRecord
100
AcDbLayerTableRecord
  2
躯体
 70
     0
 62
     7
  6
Continuous
370
    -3
390
F
  0
LAYER
  5
75
330
2
100
AcDbSymbolTableRecord
100
AcDbLayerTableRecord
  2
寸法
 70
     0
 62
     7
  6
Continuous
370
    -3
390
F
  0
LAYER
  5
76
330
2
100
AcDbSymbolTableRecord
100
AcDbLayerTableRecord
  2
0-A
 70
     0
 62
     7
  6
Continuous
370
    -3
390
F
  0
LAYER
  5
77
330
2
100
AcDbSymbolTableRecord
100
AcDbLayerTableRecord
  2
その他
 70
     0
 62
     7
  6
Continuous
370
    -3
390
F
  0
LAYER
  5
78
330
2
100
AcDbSymbolTableRecord
100
AcDbLayerTableRecord
  2
建具
 70
     0
 62
     7
  6
Continuous
370
    -3
390
F
  0
LAYER
  5
79
330
2
100
AcDbSymbolTableRecord
100
AcDbLayerTableRecord
  2
0-8
 70
     0
 62
     7
  6
Continuous
370
    -3
390
F
  0
LAYER
  5
7A
330
2
100
AcDbSymbolTableRecord
100
AcDbLayerTableRecord
  2
通り芯
 70
     0
 62
     7
  6
Continuous
370
    -3
390
F
  0
LAYER
  5
7B
330
2
100
AcDbSymbolTableRecord
100
AcDbLayerTableRecord
  2
仕上
 70
     0
 62
     7
  6
Continuous
370
    -3
390
F
  0
LAYER
  5
7C
330
2
100
AcDbSymbolTableRecord
100
AcDbLayerTableRecord
  2
F-4ﾚｲﾔ
 70
     0
 62
     7
  6
Continuous
370
    -3
390
F
  0
LAYER
  5
7D
330
2
100
AcDbSymbolTableRecord
100
AcDbLayerTableRecord
  2
F-5ﾚｲﾔ
 70
     0
 62
     7
  6
Continuous
370
    -3
390
F
  0
ENDTAB
  0
TABLE
  2
STYLE
  5
3
330
0
100
AcDbSymbolTable
 70
     2
  0
STYLE
  5
11
330
3
100
AcDbSymbolTableRecord
100
AcDbTextStyleTableRecord
  2
Standard
 70
     0
 40
0.0
 41
1.0
 50
0.0
 71
     0
 42
2.5
  3
txt
  4

  0
STYLE
  5
6E
330
3
100
AcDbSymbolTableRecord
100
AcDbTextStyleTableRecord
  2
ＭＳ ゴシック
 70
     0
 40
1.0
 41
1.0
 50
0.0
 71
     0
 42
2.5
  3

  4

1001
ACAD
1000
MS Gothic
1071
    32817
  0
ENDTAB
  0
TABLE
  2
VIEW
  5
6
330
0
100
AcDbSymbolTable
 70
     0
  0
ENDTAB
  0
TABLE
  2
UCS
  5
7
330
0
100
AcDbSymbolTable
 70
     0
  0
ENDTAB
  0
TABLE
  2
APPID
  5
9
330
0
100
AcDbSymbolTable
 70
     2
  0
APPID
  5
12
330
9
100
AcDbSymbolTableRecord
100
AcDbRegAppTableRecord
  2
ACAD
 70
     0
  0
APPID
  5
331
330
9
100
AcDbSymbolTableRecord
100
AcDbRegAppTableRecord
  2
ACAD_MLEADERVER
 70
     0
  0
ENDTAB
  0
TABLE
  2
DIMSTYLE
  5
A
330
0
100
AcDbSymbolTable
 70
     1
100
AcDbDimStyleTable
  0
DIMSTYLE
105
27
330
A
100
AcDbSymbolTableRecord
100
AcDbDimStyleTableRecord
  2
ISO-25
 70
     0
 41
2.5
 42
0.625
 43
3.75
 44
1.25
 73
     0
 74
     0
 77
     1
 78
     8
140
2.5
141
2.5
143
0.03937007874016
147
0.625
171
     3
172
     1
178
     0
271
     2
272
     2
274
     3
278
    44
283
     0
284
     8
340
11
  0
ENDTAB
  0
TABLE
  2
BLOCK_RECORD
  5
1
330
0
100
AcDbSymbolTable
 70
     1
  0
BLOCK_RECORD
  5
1F
330
1
100
AcDbSymbolTableRecord
100
AcDbBlockTableRecord
  2
*Model_Space
340
22
  0
BLOCK_RECORD
  5
1B
330
1
100
AcDbSymbolTableRecord
100
AcDbBlockTableRecord
  2
*Paper_Space
340
1E
  0
BLOCK_RECORD
  5
23
330
1
100
AcDbSymbolTableRecord
100
AcDbBlockTableRecord
  2
*Paper_Space0
340
26
  0
ENDTAB
  0
ENDSEC
  0
SECTION
  2
BLOCKS
  0
BLOCK
  5
20
330
1F
100
AcDbEntity
  8
0
100
AcDbBlockBegin
  2
*Model_Space
 70
     0
 10
0.0
 20
0.0
 30
0.0
  3
*Model_Space
  1

  0
ENDBLK
  5
21
330
1F
100
AcDbEntity
  8
0
100
AcDbBlockEnd
  0
BLOCK
  5
1C
330
1B
100
AcDbEntity
 67
     1
  8
0
100
AcDbBlockBegin
  2
*Paper_Space
 70
     0
 10
0.0
 20
0.0
 30
0.0
  3
*Paper_Space
  1

  0
ENDBLK
  5
1D
330
1B
100
AcDbEntity
 67
     1
  8
0
100
AcDbBlockEnd
  0
BLOCK
  5
24
330
23
100
AcDbEntity
  8
0
100
AcDbBlockBegin
  2
*Paper_Space0
 70
     0
 10
0.0
 20
0.0
 30
0.0
  3
*Paper_Space0
  1

  0
ENDBLK
  5
25
330
23
100
AcDbEntity
  8
0
100
AcDbBlockEnd
  0
ENDSEC
  0
SECTION
  2
ENTITIES
  0
LINE
  5
7E
330
1F
100
AcDbEntity
  8
躯体
  6
Continuous
 62
     2
370
     9
100
AcDbLine
 10
-74.92906089755309
 20
-123.0507179360515
 30
0.0
 11
-85.64842902579572
 21
-123.0507179360515
 31
0.0
  0
LINE
  5
7F
330
1F
100
AcDbEntity
  8
寸法
  6
Continuous
 62
     7
370
     9
100
AcDbLine
 10
55.88577278400267
 20
-117.0507891044577
 30
0.0
 11
56.86474369827643
 21
-109.6149749944493
 31
0.0
  0
LINE
  5
80
330
1F
100
AcDbEntity
  8
寸法
  6
Continuous
 62
     7
370
     9
100
AcDbLine
 10
55.88577278400267
 20
-117.0507891044577
 30
0.0
 11
58.75587677471221
 21
-110.1217193792149
 31
0.0
  0
LINE
  5
81
330
1F
100
AcDbEntity
  8
0-A
  6
Continuous
 62
     2
370
     9
100
AcDbLine
 10
43.3859127937023
 20
-128.0508403009352
 30
0.0
 11
48.38578742419219
 21
-128.0508403009352
 31
0.0
  0
LINE
  5
82
330
1F
100
AcDbEntity
  8
0-A
  6
Continuous
 62
     2
370
     9
100
AcDbLine
 10
42.8856875056353
 20
-127.550862747262
 30
0.0
 11
48.88581452474415
 21
-127.550862747262
 31
0.0
  0
LINE
  5
83
330
1F
100
AcDbEntity
  8
0-A
  6
Continuous
 62
     2
370
     9
100
AcDbLine
 10
42.8856875056353
 20
-127.550862747262
 30
0.0
 11
43.3859127937023
 21
-128.0508403009352
 31
0.0
  0
LINE
  5
84
330
1F
100
AcDbEntity
  8
0-A
  6
Continuous
 62
     2
370
     9
100
AcDbLine
 10
48.88581452474415
 20
-127.550862747262
 30
0.0
 11
48.38578742419219
 21
-128.0508403009352
 31
0.0
  0
LINE
  5
85
330
1F
100
AcDbEntity
  8
0-A
  6
JWW_CENTER1
 62
     4
370
     9
100
AcDbLine
 10
-81.11429505574867
 20
-110.8688250402609
 30
0.0
 11
-81.11429505574867
 21
-130.1514297732899
 31
0.0
  0
LINE
  5
86
330
1F
100
AcDbEntity
  8
0-A
  6
JWW_CENTER1
 62
     4
370
     9
100
AcDbLine
 10
45.8858501089473
 20
-110.8688250402609
 30
0.0
 11
45.8858501089473
 21
-130.1514297732899
 31
0.0
  0
LINE
  5
87
330
1F
100
AcDbEntity
  8
0-A
  6
Continuous
 62
     2
370
     9
100
AcDbLine
 10
-56.61435444130608
 20
-140.7368726882158
 30
0.0
 11
-64.6141934875929
 21
-140.7368726882158
 31
0.0
  0
LINE
  5
88
330
1F
100
AcDbEntity
  8
0-A
  6
Continuous
 62
     2
370
     9
100
AcDbLine
 10
-64.6141934875929
 20
-140.7368726882158
 30
0.0
 11
-63.93777949861787
 21
-141.4133362240696
 31
0.0
  0
LINE
  5
89
330
1F
100
AcDbEntity
  8
0-A
  6
Continuous
 62
     2
370
     9
100
AcDbLine
 10
-63.93777949861787
 20
-141.4133362240696
 30
0.0
 11
-57.29076843028108
 21
-141.4133362240696
 31
0.0
  0
LINE
  5
8A
330
1F
100
AcDbEntity
  8
0-A
  6
Continuous
 62
     2
370
     9
100
AcDbLine
 10
-57.29076843028108
 20
-141.4133362240696
 30
0.0
 11
-56.61435444130608
 21
-140.7368726882158
 31
0.0
  0
LINE
  5
8B
330
1F
100
AcDbEntity
  8
0-A
  6
Continuous
 62
     2
370
     9
100
AcDbLine
 10
-68.11418500394181
 20
-122.7724626648763
 30
0.0
 11
-68.11418500394181
 21
-128.5507683077297
 31
0.0
  0
LINE
  5
8C
330
1F
100
AcDbEntity
  8
0-A
  6
Continuous
 62
     2
370
     9
100
AcDbLine
 10
-53.11416473744207
 20
-122.7724626648763
 30
0.0
 11
-53.11416473744207
 21
-128.5507683077297
 31
0.0
  0
LINE
  5
8D
330
1F
100
AcDbEntity
  8
0-A
  6
Continuous
 62
     2
370
     9
100
AcDbLine
 10
-64.36150440586326
 20
-122.7724626648763
 30
0.0
 11
-64.36150440586326
 21
-128.5507683077297
 31
0.0
  0
LINE
  5
8E
330
1F
100
AcDbEntity
  8
0-A
  6
Continuous
 62
     2
370
     9
100
AcDbLine
 10
-56.86704352303569
 20
-122.7724626648763
 30
0.0
 11
-56.86704352303569
 21
-128.5507683077297
 31
0.0
  0
LINE
  5
8F
330
1F
100
AcDbEntity
  8
0-A
  6
Continuous
 62
     2
370
     9
100
AcDbLine
 10
-66.23794379866011
 20
-122.0506637349475
 30
0.0
 11
-54.99060413023891
 21
-122.0506637349475
 31
0.0
  0
LINE
  5
90
330
1F
100
AcDbEntity
  8
0-A
  6
Continuous
 62
     2
370
     9
100
AcDbLine
 10
-64.6141934875929
 20
-102.0898613253078
 30
0.0
 11
-63.93777949861787
 21
-101.4133482425753
 31
0.0
  0
LINE
  5
91
330
1F
100
AcDbEntity
  8
0-A
  6
Continuous
 62
     2
370
     9
100
AcDbLine
 10
-57.29076843028108
 20
-101.4133482425753
 30
0.0
 11
-56.61435444130608
 21
-102.0898613253078
 31
0.0
  0
LINE
  5
92
330
1F
100
AcDbEntity
  8
0-A
  6
Continuous
 62
     2
370
     9
100
AcDbLine
 10
-61.36411642776243
 20
-103.4132089103894
 30
0.0
 11
-61.36411642776243
 21
-101.4133482425753
 31
0.0
  0
LINE
  5
93
330
1F
100
AcDbEntity
  8
0-A
  6
Continuous
 62
     2
370
     9
100
AcDbLine
 10
-59.8642333136215
 20
-103.4132584572682
 30
0.0
 11
-61.36411642776243
 21
-103.4132089103894
 31
0.0
  0
LINE
  5
94
330
1F
100
AcDbEntity
  8
0-A
  6
Continuous
 62
     2
370
     9
100
AcDbLine
 10
-59.8642333136215
 20
-103.4132584572682
 30
0.0
 11
-59.8642333136215
 21
-101.4132986956965
 31
0.0
  0
LINE
  5
95
330
1F
100
AcDbEntity
  8
0-A
  6
Continuous
 62
     2
370
     9
100
AcDbLine
 10
-63.93777949861787
 20
-101.4133482425753
 30
0.0
 11
-61.36411642776243
 21
-101.4133482425753
 31
0.0
  0
LINE
  5
96
330
1F
100
AcDbEntity
  8
0-A
  6
Continuous
 62
     2
370
     9
100
AcDbLine
 10
-59.8642333136215
 20
-101.4133482425753
 30
0.0
 11
-57.29076843028108
 21
-101.4133482425753
 31
0.0
  0
LINE
  5
97
330
1F
100
AcDbEntity
  8
0-A
  6
Continuous
 62
     2
370
     9
100
AcDbLine
 10
-56.61435444130608
 20
-102.0898613253078
 30
0.0
 11
-59.8642333136215
 21
-102.0898613253078
 31
0.0
  0
LINE
  5
98
330
1F
100
AcDbEntity
  8
0-A
  6
Continuous
 62
     2
370
     9
100
AcDbLine
 10
-61.36411642776243
 20
-102.0898613253078
 30
0.0
 11
-64.6141934875929
 21
-102.0898613253078
 31
0.0
  0
LINE
  5
99
330
1F
100
AcDbEntity
  8
0-A
  6
Continuous
 62
     2
370
     9
100
AcDbLine
 10
-63.93777949861787
 20
-122.0506637349475
 30
0.0
 11
-63.93777949861787
 21
-101.4133482425753
 31
0.0
  0
LINE
  5
9A
330
1F
100
AcDbEntity
  8
0-A
  6
Continuous
 62
     2
370
     9
100
AcDbLine
 10
-64.6141934875929
 20
-122.0506637349475
 30
0.0
 11
-64.6141934875929
 21
-102.0898613253078
 31
0.0
  0
LINE
  5
9B
330
1F
100
AcDbEntity
  8
0-A
  6
Continuous
 62
     2
370
     9
100
AcDbLine
 10
-57.29076843028108
 20
-122.0506637349475
 30
0.0
 11
-57.29076843028108
 21
-101.4133482425753
 31
0.0
  0
LINE
  5
9C
330
1F
100
AcDbEntity
  8
0-A
  6
Continuous
 62
     2
370
     9
100
AcDbLine
 10
-56.61435444130608
 20
-122.0506637349475
 30
0.0
 11
-56.61435444130608
 21
-102.0898613253078
 31
0.0
  0
LINE
  5
9D
330
1F
100
AcDbEntity
  8
0-A
  6
Continuous
 62
     2
370
     9
100
AcDbLine
 10
-57.29076843028108
 20
-128.5507683077297
 30
0.0
 11
-57.29076843028108
 21
-141.4133362240696
 31
0.0
  0
LINE
  5
9E
330
1F
100
AcDbEntity
  8
0-A
  6
Continuous
 62
     2
370
     9
100
AcDbLine
 10
-56.61435444130608
 20
-128.5507683077297
 30
0.0
 11
-56.61435444130608
 21
-140.7368726882158
 31
0.0
  0
LINE
  5
9F
330
1F
100
AcDbEntity
  8
0-A
  6
Continuous
 62
     2
370
     9
100
AcDbLine
 10
-63.93777949861787
 20
-128.5507683077297
 30
0.0
 11
-63.93777949861787
 21
-141.4133362240696
 31
0.0
  0
LINE
  5
A0
330
1F
100
AcDbEntity
  8
0-A
  6
Continuous
 62
     2
370
     9
100
AcDbLine
 10
-64.6141934875929
 20
-128.5507683077297
 30
0.0
 11
-64.6141934875929
 21
-140.7368726882158
 31
0.0
  0
LINE
  5
A1
330
1F
100
AcDbEntity
  8
0-A
  6
Continuous
 62
     2
370
     9
100
AcDbLine
 10
51.88577894054112
 20
-113.4508119867498
 30
0.0
 11
51.88577894054112
 21
-116.0507349033537
 31
0.0
  0
LINE
  5
A2
330
1F
100
AcDbEntity
  8
0-A
  6
Continuous
 62
     2
370
     9
100
AcDbLine
 10
46.36467114538544
 20
-112.0833181326837
 30
0.0
 11
45.40663269747887
 21
-112.0833181326837
 31
0.0
  0
LINE
  5
A3
330
1F
100
AcDbEntity
  8
0-A
  6
Continuous
 62
     2
370
     9
100
AcDbLine
 10
45.40663269747887
 20
-111.4621984604166
 30
0.0
 11
45.40663269747887
 21
-112.0833181326837
 31
0.0
  0
LINE
  5
A4
330
1F
100
AcDbEntity
  8
0-A
  6
Continuous
 62
     2
370
     9
100
AcDbLine
 10
46.36467114538544
 20
-111.4621984604166
 30
0.0
 11
46.36467114538544
 21
-112.0833181326837
 31
0.0
  0
LINE
  5
A5
330
1F
100
AcDbEntity
  8
寸法
  6
Continuous
 62
     3
370
     9
100
AcDbLine
 10
-149.6142422685865
 20
-152.9133649742204
 30
0.0
 11
-149.6142422685865
 21
-158.9133928995718
 31
0.0
  0
LINE
  5
A6
330
1F
100
AcDbEntity
  8
寸法
  6
Continuous
 62
     3
370
     9
100
AcDbLine
 10
-143.6141152494775
 20
-152.9133649742204
 30
0.0
 11
-149.6142422685865
 21
-152.9133649742204
 31
0.0
  0
LINE
  5
A7
330
1F
100
AcDbEntity
  8
寸法
  6
Continuous
 62
     3
370
     9
100
AcDbLine
 10
-135.6140780156757
 20
-150.9134547595275
 30
0.0
 11
-135.6140780156757
 21
-137.9133447077206
 31
0.0
  0
LINE
  5
A8
330
1F
100
AcDbEntity
  8
寸法
  6
Continuous
 62
     3
370
     9
100
AcDbLine
 10
-143.6141152494775
 20
-158.9133928995718
 30
0.0
 11
-149.6142422685865
 21
-158.9133928995718
 31
0.0
  0
LINE
  5
A9
330
1F
100
AcDbEntity
  8
寸法
  6
Continuous
 62
     3
370
     9
100
AcDbLine
 10
-141.6142050347846
 20
-150.9134547595275
 30
0.0
 11
-141.6142050347846
 21
-137.9133447077206
 31
0.0
  0
LINE
  5
AA
330
1F
100
AcDbEntity
  8
寸法
  6
Continuous
 62
     3
370
     9
100
AcDbLine
 10
-135.4392766273733
 20
-137.9133447077206
 30
0.0
 11
-141.789006423087
 21
-137.9133447077206
 31
0.0
  0
LINE
  5
AB
330
1F
100
AcDbEntity
  8
寸法
  6
Continuous
 62
     3
370
     9
100
AcDbLine
 10
-140.9742575485847
 20
-137.9133447077206
 30
0.0
 11
-140.9742575485847
 21
-135.9133849461489
 31
0.0
  0
LINE
  5
AC
330
1F
100
AcDbEntity
  8
寸法
  6
Continuous
 62
     3
370
     9
100
AcDbLine
 10
-136.2544218769058
 20
-137.9133447077206
 30
0.0
 11
-136.2544218769058
 21
-135.9133849461489
 31
0.0
  0
LINE
  5
AD
330
1F
100
AcDbEntity
  8
寸法
  6
Continuous
 62
     3
370
     9
100
AcDbLine
 10
-135.4392766273733
 20
-137.9133447077206
 30
0.0
 11
-135.4392766273733
 21
-135.9133849461489
 31
0.0
  0
LINE
  5
AE
330
1F
100
AcDbEntity
  8
寸法
  6
Continuous
 62
     3
370
     9
100
AcDbLine
 10
-141.789006423087
 20
-137.9133447077206
 30
0.0
 11
-141.789006423087
 21
-135.9133849461489
 31
0.0
  0
LINE
  5
AF
330
1F
100
AcDbEntity
  8
寸法
  6
JWW_CENTER1
 62
     3
370
     9
100
AcDbLine
 10
-143.6143134369926
 20
-155.9133293900173
 30
0.0
 11
-151.0025458117362
 21
-155.9133293900173
 31
0.0
  0
LINE
  5
B0
330
1F
100
AcDbEntity
  8
0-A
  6
Continuous
 62
     2
370
     9
100
AcDbLine
 10
48.88581452474415
 20
-116.0507349033537
 30
0.0
 11
48.88581452474415
 21
-127.550862747262
 31
0.0
  0
LINE
  5
B1
330
1F
100
AcDbEntity
  8
0-A
  6
Continuous
 62
     2
370
     9
100
AcDbLine
 10
48.38578742419219
 20
-116.0507349033537
 30
0.0
 11
48.38578742419219
 21
-128.0508403009352
 31
0.0
  0
LINE
  5
B2
330
1F
100
AcDbEntity
  8
0-A
  6
Continuous
 62
     2
370
     9
100
AcDbLine
 10
42.8856875056353
 20
-116.0507349033537
 30
0.0
 11
42.8856875056353
 21
-127.550862747262
 31
0.0
  0
LINE
  5
B3
330
1F
100
AcDbEntity
  8
0-A
  6
Continuous
 62
     2
370
     9
100
AcDbLine
 10
43.3859127937023
 20
-116.0507349033537
 30
0.0
 11
43.3859127937023
 21
-128.0508403009352
 31
0.0
  0
ARC
  5
B4
330
1F
100
AcDbEntity
  8
0-A
  6
Continuous
 62
     2
370
     9
100
AcDbCircle
 10
-66.23794379866011
 20
-124.8509542292993
 30
0.0
 40
2.800173594684674
100
AcDbArc
 50
47.92556762695312
 51
132.0746307373047
  0
ARC
  5
B5
330
1F
100
AcDbEntity
  8
0-A
  6
Continuous
 62
     2
370
     9
100
AcDbCircle
 10
-60.61417487069195
 20
-132.1401423933806
 30
0.0
 40
10.08940975730484
100
AcDbArc
 50
68.19786071777344
 51
111.8021392822266
  0
ARC
  5
B6
330
1F
100
AcDbEntity
  8
0-A
  6
Continuous
 62
     2
370
     9
100
AcDbCircle
 10
-54.99060413023891
 20
-124.8509542292993
 30
0.0
 40
2.80018946516928
100
AcDbArc
 50
47.92572021484374
 51
132.0742797851562
  0
ARC
  5
B7
330
1F
100
AcDbEntity
  8
0-A
  6
Continuous
 62
     2
370
     9
100
AcDbCircle
 10
45.8858501089473
 20
-121.4509483143092
 30
0.0
 40
10.0000000920535
100
AcDbArc
 50
92.74569702148439
 51
126.869873046875
  0
ARC
  5
B8
330
1F
100
AcDbEntity
  8
0-A
  6
Continuous
 62
     2
370
     9
100
AcDbCircle
 10
45.8858501089473
 20
-121.4509483143092
 30
0.0
 40
10.0000000920535
100
AcDbArc
 50
53.130126953125
 51
87.25408935546876
  0
ARC
  5
B9
330
1F
100
AcDbEntity
  8
寸法
  6
Continuous
 62
     3
370
     9
100
AcDbCircle
 10
-143.6141152494775
 20
-150.9134547595275
 30
0.0
 40
2.000000018410701
100
AcDbArc
 50
270.0
 51
0.0
  0
ARC
  5
BA
330
1F
100
AcDbEntity
  8
寸法
  6
Continuous
 62
     3
370
     9
100
AcDbCircle
 10
-143.6141152494775
 20
-150.9134547595275
 30
0.0
 40
8.000000073642804
100
AcDbArc
 50
270.0
 51
0.0
  0
ARC
  5
BB
330
1F
100
AcDbEntity
  8
寸法
  6
JWW_CENTER1
 62
     3
370
     9
100
AcDbCircle
 10
-143.6143134369926
 20
-150.9134547595275
 30
0.0
 40
5.000000046026752
100
AcDbArc
 50
270.0
 51
0.0
  0
LINE
  5
BC
330
1F
100
AcDbEntity
  8
寸法
  6
Continuous
 62
     7
370
     9
100
AcDbLine
 10
-172.6142997688881
 20
-113.9133816469513
 30
0.0
 11
-177.1800098881872
 21
-119.8635175738939
 31
0.0
  0
LINE
  5
BD
330
1F
100
AcDbEntity
  8
寸法
  6
Continuous
 62
     7
370
     9
100
AcDbLine
 10
-172.6142997688881
 20
-113.9133816469513
 30
0.0
 11
-175.4844408755711
 21
-120.8424884881675
 31
0.0
  0
LINE
  5
BE
330
1F
100
AcDbEntity
  8
寸法
  6
Continuous
 62
     7
370
     9
100
AcDbLine
 10
-149.6142422685865
 20
-155.9133293900173
 30
0.0
 11
-154.1799529861519
 21
-161.8634794422016
 31
0.0
  0
LINE
  5
BF
330
1F
100
AcDbEntity
  8
寸法
  6
Continuous
 62
     7
370
     9
100
AcDbLine
 10
-149.6142422685865
 20
-155.9133293900173
 30
0.0
 11
-152.4843680113247
 21
-162.842425883852
 31
0.0
  0
LINE
  5
C0
330
1F
100
AcDbEntity
  8
寸法
  6
Continuous
 62
     7
370
     9
100
AcDbLine
 10
46.36467114538544
 20
-111.4621984604166
 30
0.0
 11
47.3436420596592
 21
-104.0263472344348
 31
0.0
  0
LINE
  5
C1
330
1F
100
AcDbEntity
  8
寸法
  6
Continuous
 62
     7
370
     9
100
AcDbLine
 10
46.36467114538544
 20
-111.4621984604166
 30
0.0
 11
49.23477513609498
 21
-104.5330916192004
 31
0.0
  0
LINE
  5
C2
330
1F
100
AcDbEntity
  8
その他
  6
Continuous
 62
     7
370
     9
100
AcDbLine
 10
151.2844885419683
 20
-105.9133939600281
 30
0.0
 11
150.3055421003179
 21
-113.3492304203317
 31
0.0
  0
LINE
  5
C3
330
1F
100
AcDbEntity
  8
その他
  6
Continuous
 62
     7
370
     9
100
AcDbLine
 10
151.2844885419683
 20
-105.9133939600281
 30
0.0
 11
152.2634349836187
 21
-113.3492304203317
 31
0.0
  0
LINE
  5
C4
330
1F
100
AcDbEntity
  8
その他
  6
Continuous
 62
     7
370
     9
100
AcDbLine
 10
178.6463654387452
 20
-105.9133939600281
 30
0.0
 11
139.5028938581932
 21
-105.9133939600281
 31
0.0
  0
LINE
  5
C5
330
1F
100
AcDbEntity
  8
建具
  6
Continuous
 62
     7
370
     9
100
AcDbLine
 10
33.25219405402403
 20
-191.3186084903043
 30
0.0
 11
42.54440581536112
 21
-185.5510287763709
 31
0.0
  0
LINE
  5
C6
330
1F
100
AcDbEntity
  8
建具
  6
Continuous
 62
     7
370
     9
100
AcDbLine
 10
33.25219405402403
 20
-194.0018085936201
 30
0.0
 11
42.54440581536112
 21
-188.2342288796868
 31
0.0
  0
LINE
  5
C7
330
1F
100
AcDbEntity
  8
建具
  6
Continuous
 62
     7
370
     9
100
AcDbLine
 10
-78.04196934500892
 20
-191.3186084903043
 30
0.0
 11
-68.74975758367182
 21
-185.5510287763709
 31
0.0
  0
LINE
  5
C8
330
1F
100
AcDbEntity
  8
建具
  6
Continuous
 62
     7
370
     9
100
AcDbLine
 10
-78.04196934500892
 20
-194.0018085936201
 30
0.0
 11
-68.74975758367182
 21
-188.2342288796868
 31
0.0
  0
LINE
  5
C9
330
1F
100
AcDbEntity
  8
躯体
  6
Continuous
 62
     2
370
     9
100
AcDbLine
 10
-140.1143219206437
 20
-113.0505227531629
 30
0.0
 11
-139.6140966325766
 21
-112.0164793932223
 31
0.0
  0
LINE
  5
CA
330
1F
100
AcDbEntity
  8
躯体
  6
Continuous
 62
     2
370
     9
100
AcDbLine
 10
-139.6140966325766
 20
-112.0164793932223
 30
0.0
 11
-132.3822342072327
 21
-112.0164793932223
 31
0.0
  0
LINE
  5
CB
330
1F
100
AcDbEntity
  8
躯体
  6
Continuous
 62
     2
370
     9
100
AcDbLine
 10
-54.61484060164332
 20
-128.5507683077297
 30
0.0
 11
-55.61469661523226
 21
-132.5506382839943
 31
0.0
  0
LINE
  5
CC
330
1F
100
AcDbEntity
  8
躯体
  6
Continuous
 62
     2
370
     9
100
AcDbLine
 10
-55.61469661523226
 20
-132.5506382839943
 30
0.0
 11
-55.11486770219533
 21
-133.5506924850984
 31
0.0
  0
LINE
  5
CD
330
1F
100
AcDbEntity
  8
躯体
  6
Continuous
 62
     2
370
     9
100
AcDbLine
 10
-66.61430188980091
 20
-128.5507683077297
 30
0.0
 11
-65.61424768869692
 21
-132.5506382839943
 31
0.0
  0
LINE
  5
CE
330
1F
100
AcDbEntity
  8
躯体
  6
Continuous
 62
     2
370
     9
100
AcDbLine
 10
-65.61424768869692
 20
-132.5506382839943
 30
0.0
 11
-66.11427478924888
 21
-133.5506924850984
 31
0.0
  0
LINE
  5
CF
330
1F
100
AcDbEntity
  8
躯体
  6
Continuous
 62
     2
370
     9
100
AcDbLine
 10
-47.61426300640021
 20
-132.5507373777519
 30
0.0
 11
25.38572992389055
 21
-132.5507373777519
 31
0.0
  0
LINE
  5
D0
330
1F
100
AcDbEntity
  8
躯体
  6
Continuous
 62
     2
370
     9
100
AcDbLine
 10
48.88581452474415
 20
-127.2943585558671
 30
0.0
 11
48.88581452474415
 21
-129.0909779269646
 31
0.0
  0
LINE
  5
D1
330
1F
100
AcDbEntity
  8
躯体
  6
Continuous
 62
     2
370
     9
100
AcDbLine
 10
48.38578742419219
 20
-127.7942865626615
 30
0.0
 11
48.38578742419219
 21
-129.2249526871601
 31
0.0
  0
LINE
  5
D2
330
1F
100
AcDbEntity
  8
躯体
  6
Continuous
 62
     2
370
     9
100
AcDbLine
 10
43.3859127937023
 20
-127.7942865626615
 30
0.0
 11
43.3859127937023
 21
-130.5647002891147
 31
0.0
  0
LINE
  5
D3
330
1F
100
AcDbEntity
  8
躯体
  6
Continuous
 62
     2
370
     9
100
AcDbLine
 10
42.8856875056353
 20
-127.2942099152307
 30
0.0
 11
42.8856875056353
 21
-130.6986750493102
 31
0.0
  0
LINE
  5
D4
330
1F
100
AcDbEntity
  8
躯体
  6
JWW_PHANTOM2
 62
     2
370
     9
100
AcDbLine
 10
103.8648148961396
 20
-114.3593531027647
 30
0.0
 11
105.1447098685395
 21
-114.0164887016728
 31
0.0
  0
LINE
  5
D5
330
1F
100
AcDbEntity
  8
躯体
  6
Continuous
 62
     2
370
     9
100
AcDbLine
 10
104.8856787863272
 20
-113.0505227531629
 30
0.0
 11
104.3856516857753
 21
-112.0164793932223
 31
0.0
  0
LINE
  5
D6
330
1F
100
AcDbEntity
  8
躯体
  6
Continuous
 62
     2
370
     9
100
AcDbLine
 10
104.3856516857753
 20
-112.0164793932223
 30
0.0
 11
97.15378926043132
 21
-112.0164793932223
 31
0.0
  0
LINE
  5
D7
330
1F
100
AcDbEntity
  8
躯体
  6
Continuous
 62
     2
370
     9
100
AcDbLine
 10
-48.33011631087656
 20
-129.6869277848163
 30
0.0
 11
-47.61426300640021
 21
-132.5506382839943
 31
0.0
  0
LINE
  5
D8
330
1F
100
AcDbEntity
  8
躯体
  6
Continuous
 62
     2
370
     9
100
AcDbLine
 10
60.07904900154808
 20
-121.9506285867099
 30
0.0
 11
97.15378926043132
 21
-112.0164793932223
 31
0.0
  0
LINE
  5
D9
330
1F
100
AcDbEntity
  8
躯体
  6
Continuous
 62
     2
370
     9
100
AcDbLine
 10
-67.4700755799252
 20
-133.5507420319771
 30
0.0
 11
-138.2133072759767
 21
-114.5951466988336
 31
0.0
  0
LINE
  5
DA
330
1F
100
AcDbEntity
  8
躯体
  6
Continuous
 62
     2
370
     9
100
AcDbLine
 10
-64.6141934875929
 20
-133.5507420319771
 30
0.0
 11
-67.4700755799252
 21
-133.5507420319771
 31
0.0
  0
LINE
  5
DB
330
1F
100
AcDbEntity
  8
躯体
  6
Continuous
 62
     2
370
     9
100
AcDbLine
 10
-49.84387255107321
 20
-128.5507683077297
 30
0.0
 11
-70.67575863637725
 21
-128.5507683077297
 31
0.0
  0
LINE
  5
DC
330
1F
100
AcDbEntity
  8
躯体
  6
Continuous
 62
     2
370
     9
100
AcDbLine
 10
32.24163063312375
 20
-133.5507420319771
 30
0.0
 11
102.9848623291753
 21
-114.5951466988336
 31
0.0
  0
LINE
  5
DD
330
1F
100
AcDbEntity
  8
躯体
  6
Continuous
 62
     2
370
     9
100
AcDbLine
 10
-56.61435444130608
 20
-133.5507420319771
 30
0.0
 11
32.24163063312375
 21
-133.5507420319771
 31
0.0
  0
LINE
  5
DE
330
1F
100
AcDbEntity
  8
躯体
  6
Continuous
 62
     2
370
     9
100
AcDbLine
 10
-91.11424250424346
 20
-117.0507395575789
 30
0.0
 11
-88.11407990093146
 21
-117.0507395575789
 31
0.0
  0
LINE
  5
DF
330
1F
100
AcDbEntity
  8
躯体
  6
Continuous
 62
     2
370
     9
100
AcDbLine
 10
-95.2845041965999
 20
-121.9568219465561
 30
0.0
 11
-132.3822342072327
 21
-112.0164793932223
 31
0.0
  0
LINE
  5
E0
330
1F
100
AcDbEntity
  8
躯体
  6
Continuous
 62
     2
370
     9
100
AcDbLine
 10
-91.5524351000899
 20
-119.5726261401192
 30
0.0
 11
-91.11424250424346
 21
-117.0507395575789
 31
0.0
  0
LINE
  5
E1
330
1F
100
AcDbEntity
  8
躯体
  6
Continuous
 62
     2
370
     9
100
AcDbLine
 10
55.88579755744212
 20
-117.0507395575789
 30
0.0
 11
52.88563495413001
 21
-117.0507395575789
 31
0.0
  0
LINE
  5
E2
330
1F
100
AcDbEntity
  8
躯体
  6
Continuous
 62
     2
370
     9
100
AcDbLine
 10
56.32399015328844
 20
-119.5726261401192
 30
0.0
 11
55.88579755744212
 21
-117.0507395575789
 31
0.0
  0
LINE
  5
E3
330
1F
100
AcDbEntity
  8
躯体
  6
Continuous
 62
     2
370
     9
100
AcDbLine
 10
26.15786848265027
 20
-130.234519888988
 30
0.0
 11
25.3859281114057
 21
-132.5507373777519
 31
0.0
  0
LINE
  5
E4
330
1F
100
AcDbEntity
  8
躯体
  6
Continuous
 62
     2
370
     9
100
AcDbLine
 10
-48.37133931401364
 20
-129.5507234150762
 30
0.0
 11
31.71544278058099
 21
-129.5507234150762
 31
0.0
  0
LINE
  5
E5
330
1F
100
AcDbEntity
  8
躯体
  6
Continuous
 62
     2
370
     9
100
AcDbLine
 10
-87.11739488758386
 20
-121.8554490325917
 30
0.0
 11
-88.11407990093146
 21
-117.0507395575789
 31
0.0
  0
LINE
  5
E6
330
1F
100
AcDbEntity
  8
躯体
  6
Continuous
 62
     2
370
     9
100
AcDbLine
 10
-71.92255629375846
 20
-128.2167232510589
 30
0.0
 11
-70.67575863637725
 21
-128.5507683077297
 31
0.0
  0
LINE
  5
E7
330
1F
100
AcDbEntity
  8
躯体
  6
Continuous
 62
     2
370
     9
100
AcDbLine
 10
-73.36357771592003
 20
-126.6889452441702
 30
0.0
 11
-73.9496181980176
 21
-123.8486704186506
 31
0.0
  0
LINE
  5
E8
330
1F
100
AcDbEntity
  8
躯体
  6
Continuous
 62
     2
370
     9
100
AcDbLine
 10
50.41998407899434
 20
-123.0507179360515
 30
0.0
 11
48.38578742419219
 21
-123.0507179360515
 31
0.0
  0
LINE
  5
E9
330
1F
100
AcDbEntity
  8
躯体
  6
Continuous
 62
     2
370
     9
100
AcDbLine
 10
39.70061595075168
 20
-123.0507179360515
 30
0.0
 11
43.3859127937023
 21
-123.0507179360515
 31
0.0
  0
LINE
  5
EA
330
1F
100
AcDbEntity
  8
躯体
  6
Continuous
 62
     2
370
     9
100
AcDbLine
 10
38.13513276911858
 20
-126.6889452441702
 30
0.0
 11
38.72117325121616
 21
-123.8486704186506
 31
0.0
  0
LINE
  5
EB
330
1F
100
AcDbEntity
  8
躯体
  6
Continuous
 62
     2
370
     9
100
AcDbLine
 10
51.8887517532674
 20
-121.8554490325917
 30
0.0
 11
52.88563495413001
 21
-117.0507395575789
 31
0.0
  0
LINE
  5
EC
330
1F
100
AcDbEntity
  8
躯体
  6
Continuous
 62
     2
370
     9
100
AcDbLine
 10
36.69411134695708
 20
-128.2166737041802
 30
0.0
 11
31.71544278058099
 21
-129.5507234150762
 31
0.0
  0
LINE
  5
ED
330
1F
100
AcDbEntity
  8
躯体
  6
JWW_PHANTOM2
 62
     2
370
     9
100
AcDbLine
 10
-139.093259842941
 20
-114.3593531027647
 30
0.0
 11
-140.4358563904249
 21
-113.9996923097696
 31
0.0
  0
LINE
  5
EE
330
1F
100
AcDbEntity
  8
躯体
  6
JWW_CENTER1
 62
     2
370
     9
100
AcDbLine
 10
-60.61417487069195
 20
-99.60354940172482
 30
0.0
 11
-60.61417487069195
 21
-145.6856644866933
 31
0.0
  0
ARC
  5
EF
330
1F
100
AcDbEntity
  8
躯体
  6
Continuous
 62
     2
370
     9
100
AcDbCircle
 10
-137.4368085918853
 20
-111.6974470408189
 30
0.0
 40
3.000000027616052
100
AcDbArc
 50
206.8109436035157
 51
255.0001373291015
  0
ARC
  5
F0
330
1F
100
AcDbEntity
  8
躯体
  6
Continuous
 62
     2
370
     9
100
AcDbCircle
 10
-49.85021455155588
 20
-130.5507280693014
 30
0.0
 40
3.000000027616052
100
AcDbArc
 50
270.0
 51
318.1893310546875
  0
ARC
  5
F1
330
1F
100
AcDbEntity
  8
躯体
  6
Continuous
 62
     2
370
     9
100
AcDbCircle
 10
27.62207784407639
 20
-130.5507280693014
 30
0.0
 40
3.000000027616052
100
AcDbArc
 50
221.810317993164
 51
270.0
  0
ARC
  5
F2
330
1F
100
AcDbEntity
  8
躯体
  6
Continuous
 62
     2
370
     9
100
AcDbCircle
 10
102.2083636450838
 20
-111.6974470408189
 30
0.0
 40
3.000000027616052
100
AcDbArc
 50
284.9998626708984
 51
333.1890563964844
  0
ARC
  5
F3
330
1F
100
AcDbEntity
  8
躯体
  6
Continuous
 62
     2
370
     9
100
AcDbCircle
 10
-49.78560542163909
 20
-130.0507505156282
 30
0.0
 40
1.500000013808026
100
AcDbArc
 50
14.03440856933594
 51
90.0
  0
ARC
  5
F4
330
1F
100
AcDbEntity
  8
躯体
  6
Continuous
 62
     2
370
     9
100
AcDbCircle
 10
-94.50800551250845
 20
-119.0590727416628
 30
0.0
 40
3.000000027616052
100
AcDbArc
 50
255.0001373291015
 51
350.1437835693359
  0
ARC
  5
F5
330
1F
100
AcDbEntity
  8
躯体
  6
Continuous
 62
     2
370
     9
100
AcDbCircle
 10
59.27956056570707
 20
-119.0590727416628
 30
0.0
 40
3.000000027616052
100
AcDbArc
 50
189.8562164306641
 51
284.9998626708984
  0
ARC
  5
F6
330
1F
100
AcDbEntity
  8
躯体
  6
Continuous
 62
     2
370
     9
100
AcDbCircle
 10
27.10659211734793
 20
-130.5507280693014
 30
0.0
 40
1.00000000920535
100
AcDbArc
 50
90.0
 51
161.5659484863281
  0
ARC
  5
F7
330
1F
100
AcDbEntity
  8
躯体
  6
Continuous
 62
     2
370
     9
100
AcDbCircle
 10
-85.64842902579572
 20
-121.550735728153
 30
0.0
 40
1.500000013808026
100
AcDbArc
 50
191.7213592529297
 51
270.0
  0
ARC
  5
F8
330
1F
100
AcDbEntity
  8
躯体
  6
Continuous
 62
     2
370
     9
100
AcDbCircle
 10
-74.92906089755309
 20
-124.0507225902767
 30
0.0
 40
1.00000000920535
100
AcDbArc
 50
11.65817260742188
 51
90.0
  0
ARC
  5
F9
330
1F
100
AcDbEntity
  8
躯体
  6
Continuous
 62
     2
370
     9
100
AcDbCircle
 10
-71.40489050436412
 20
-126.2848409009179
 30
0.0
 40
2.000000018410701
100
AcDbArc
 50
191.6584472656251
 51
255.0008392333985
  0
ARC
  5
FA
330
1F
100
AcDbEntity
  8
躯体
  6
Continuous
 62
     2
370
     9
100
AcDbCircle
 10
50.41998407899434
 20
-121.550735728153
 30
0.0
 40
1.500000013808026
100
AcDbArc
 50
270.0
 51
348.2786407470704
  0
ARC
  5
FB
330
1F
100
AcDbEntity
  8
躯体
  6
Continuous
 62
     2
370
     9
100
AcDbCircle
 10
39.70061595075168
 20
-124.0507225902767
 30
0.0
 40
1.00000000920535
100
AcDbArc
 50
90.0
 51
168.3418273925781
  0
ARC
  5
FC
330
1F
100
AcDbEntity
  8
躯体
  6
Continuous
 62
     2
370
     9
100
AcDbCircle
 10
36.17644555756277
 20
-126.2848409009179
 30
0.0
 40
2.000000018410701
100
AcDbArc
 50
284.9991607666016
 51
348.3415527343751
  0
LINE
  5
FD
330
1F
100
AcDbEntity
  8
建具
  6
Continuous
 62
     4
370
     9
100
AcDbLine
 10
-74.6142400298452
 20
-212.5192016735067
 30
0.0
 11
39.3857950830439
 21
-212.5192016735067
 31
0.0
  0
LINE
  5
FE
330
1F
100
AcDbEntity
  8
建具
  6
Continuous
 62
     4
370
     9
100
AcDbLine
 10
35.88580356669496
 20
-192.3671544133416
 30
0.0
 11
35.88580356669496
 21
-212.5192016735067
 31
0.0
  0
LINE
  5
FF
330
1F
100
AcDbEntity
  8
建具
  6
Continuous
 62
     4
370
     9
100
AcDbLine
 10
39.3857950830439
 20
-190.1947458859526
 30
0.0
 11
39.3857950830439
 21
-212.5192016735067
 31
0.0
  0
LINE
  5
100
330
1F
100
AcDbEntity
  8
建具
  6
Continuous
 62
     4
370
     9
100
AcDbLine
 10
-74.6142400298452
 20
-191.8742524669668
 30
0.0
 11
-74.6142400298452
 21
-212.5192016735067
 31
0.0
  0
LINE
  5
101
330
1F
100
AcDbEntity
  8
建具
  6
Continuous
 62
     4
370
     9
100
AcDbLine
 10
-71.11424851349629
 20
-189.7018439395778
 30
0.0
 11
-71.11424851349629
 21
-212.5192016735067
 31
0.0
  0
TEXT
  5
102
330
1F
100
AcDbEntity
  8
寸法
  6
Continuous
 62
     7
370
     9
100
AcDbText
 10
-169.0449221289052
 20
-235.5313983644528
 30
0.0
 40
6.858000000000001
  1
スペーサー
 41
1.133333333333333
  7
ＭＳ ゴシック
100
AcDbText
  0
LINE
  5
103
330
1F
100
AcDbEntity
  8
寸法
  6
Continuous
 62
     7
370
     9
100
AcDbLine
 10
-90.03026032359647
 20
-239.2205082937181
 30
0.0
 11
-195.901921563011
 21
-239.2205082937181
 31
0.0
  0
LINE
  5
104
330
1F
100
AcDbEntity
  8
寸法
  6
Continuous
 62
     7
370
     9
100
AcDbLine
 10
-74.6142400298452
 20
-212.5192016735067
 30
0.0
 11
-90.03026032359647
 21
-239.2205082937181
 31
0.0
  0
LINE
  5
105
330
1F
100
AcDbEntity
  8
寸法
  6
Continuous
 62
     7
370
     9
100
AcDbLine
 10
-74.6142400298452
 20
-212.5192016735067
 30
0.0
 11
-79.17995014914428
 21
-218.4693376004493
 31
0.0
  0
LINE
  5
106
330
1F
100
AcDbEntity
  8
寸法
  6
Continuous
 62
     7
370
     9
100
AcDbLine
 10
-74.6142400298452
 20
-212.5192016735067
 30
0.0
 11
-77.48441825250146
 21
-219.448308514723
 31
0.0
  0
TEXT
  5
107
330
1F
100
AcDbEntity
  8
寸法
  6
Continuous
 62
     7
370
     9
100
AcDbText
 10
-253.2179386846021
 20
-203.6054217316879
 30
0.0
 40
6.858000000000001
  1
りん酸塩被膜
 41
1.138888888888889
  7
ＭＳ ゴシック
100
AcDbText
  0
TEXT
  5
108
330
1F
100
AcDbEntity
  8
寸法
  6
Continuous
 62
     7
370
     9
100
AcDbText
 10
-261.0932127573322
 20
-156.5322342076991
 30
0.0
 40
6.858000000000001
  1
樹脂系塗装
 41
1.133333333333333
  7
ＭＳ ゴシック
100
AcDbText
  0
TEXT
  5
109
330
1F
100
AcDbEntity
  8
寸法
  6
Continuous
 62
     7
370
     9
100
AcDbText
 10
-274.7520245842958
 20
-143.7839737096522
 30
0.0
 40
6.858000000000001
  1
本体：ＦＣ１５０
 41
1.145833333333333
  7
ＭＳ ゴシック
100
AcDbText
  0
LINE
  5
10A
330
1F
100
AcDbEntity
  8
寸法
  6
Continuous
 62
     7
370
     9
100
AcDbLine
 10
-172.6142997688881
 20
-113.9133816469513
 30
0.0
 11
-191.9351503620101
 21
-147.3781409789723
 31
0.0
  0
LINE
  5
10B
330
1F
100
AcDbEntity
  8
寸法
  6
Continuous
 62
     7
370
     9
100
AcDbLine
 10
-149.6142422685865
 20
-155.9133293900173
 30
0.0
 11
-171.7602361819038
 21
-194.2713160319941
 31
0.0
  0
LINE
  5
10C
330
1F
100
AcDbEntity
  8
その他
  6
Continuous
 62
     7
370
     9
100
AcDbLine
 10
-59.9786370567026
 20
-237.2625317445129
 30
0.0
 11
24.75019210990122
 21
-237.2625317445129
 31
0.0
  0
LINE
  5
10D
330
1F
100
AcDbEntity
  8
その他
  6
Continuous
 62
     7
370
     9
100
AcDbLine
 10
-59.9786370567026
 20
-237.2625317445129
 30
0.0
 11
-52.54280059639902
 21
-236.2835853028625
 31
0.0
  0
LINE
  5
10E
330
1F
100
AcDbEntity
  8
その他
  6
Continuous
 62
     7
370
     9
100
AcDbLine
 10
-59.9786370567026
 20
-237.2625317445129
 30
0.0
 11
-52.54280059639902
 21
-238.2414781861633
 31
0.0
  0
LINE
  5
10F
330
1F
100
AcDbEntity
  8
その他
  6
Continuous
 62
     7
370
     9
100
AcDbLine
 10
24.75019210990122
 20
-237.2625317445129
 30
0.0
 11
17.31435564959765
 21
-236.2835853028625
 31
0.0
  0
LINE
  5
110
330
1F
100
AcDbEntity
  8
その他
  6
Continuous
 62
     7
370
     9
100
AcDbLine
 10
24.75019210990122
 20
-237.2625317445129
 30
0.0
 11
17.31435564959765
 21
-238.2414781861633
 31
0.0
  0
LINE
  5
111
330
1F
100
AcDbEntity
  8
その他
  6
Continuous
 62
     7
370
     9
100
AcDbLine
 10
-59.9786370567026
 20
-238.1625317445129
 30
0.0
 11
-59.9786370567026
 21
-184.7333830797457
 31
0.0
  0
LINE
  5
112
330
1F
100
AcDbEntity
  8
その他
  6
Continuous
 62
     7
370
     9
100
AcDbLine
 10
24.75019210990122
 20
-238.1625317445129
 30
0.0
 11
24.75019210990122
 21
-184.7332839859882
 31
0.0
  0
LINE
  5
113
330
1F
100
AcDbEntity
  8
その他
  6
Continuous
 62
     7
370
     9
100
AcDbLine
 10
-74.77313687006233
 20
-258.4661610498964
 30
0.0
 11
39.22694778970556
 21
-258.4661610498964
 31
0.0
  0
LINE
  5
114
330
1F
100
AcDbEntity
  8
その他
  6
Continuous
 62
     7
370
     9
100
AcDbLine
 10
-74.77313687006233
 20
-258.4661610498964
 30
0.0
 11
-67.33730040975874
 21
-257.4872146082461
 31
0.0
  0
LINE
  5
115
330
1F
100
AcDbEntity
  8
その他
  6
Continuous
 62
     7
370
     9
100
AcDbLine
 10
-74.77313687006233
 20
-258.4661610498964
 30
0.0
 11
-67.33730040975874
 21
-259.4451074915469
 31
0.0
  0
LINE
  5
116
330
1F
100
AcDbEntity
  8
その他
  6
Continuous
 62
     7
370
     9
100
AcDbLine
 10
39.22694778970556
 20
-258.4661610498964
 30
0.0
 11
31.79111132940199
 21
-257.4872146082461
 31
0.0
  0
LINE
  5
117
330
1F
100
AcDbEntity
  8
その他
  6
Continuous
 62
     7
370
     9
100
AcDbLine
 10
39.22694778970556
 20
-258.4661610498964
 30
0.0
 11
31.79111132940199
 21
-259.4451074915469
 31
0.0
  0
TEXT
  5
118
330
1F
100
AcDbEntity
  8
その他
  6
Continuous
 62
     2
370
   211
100
AcDbText
 10
-34.27309454017838
 20
-253.7741610498964
 30
0.0
 40
9.144
  1
φ114
 41
1.1
  7
ＭＳ ゴシック
100
AcDbText
  0
TEXT
  5
119
330
1F
100
AcDbEntity
  8
その他
  6
Continuous
 62
     2
370
   211
100
AcDbText
 10
-27.36422247340068
 20
-232.5705317445129
 30
0.0
 40
9.144
  1
Rc3
 41
1.083333333333333
  7
ＭＳ ゴシック
100
AcDbText
  0
LINE
  5
11A
330
1F
100
AcDbEntity
  8
その他
  6
Continuous
 62
     7
370
     9
100
AcDbLine
 10
-74.77313687006233
 20
-259.3661610498964
 30
0.0
 11
-74.77313687006233
 21
-219.3119657992767
 31
0.0
  0
LINE
  5
11B
330
1F
100
AcDbEntity
  8
その他
  6
Continuous
 62
     7
370
     9
100
AcDbLine
 10
39.22694778970556
 20
-259.3661610498964
 30
0.0
 11
39.22694778970556
 21
-219.3119657992767
 31
0.0
  0
LINE
  5
11C
330
1F
100
AcDbEntity
  8
その他
  6
Continuous
 62
     7
370
     9
100
AcDbLine
 10
177.8632274728985
 20
-105.9133939600281
 30
0.0
 11
177.0800895070518
 21
-111.8620417720946
 31
0.0
  0
LINE
  5
11D
330
1F
100
AcDbEntity
  8
その他
  6
Continuous
 62
     7
370
     9
100
AcDbLine
 10
177.8632274728985
 20
-105.9133939600281
 30
0.0
 11
178.6463654387452
 21
-111.8620417720946
 31
0.0
  0
LINE
  5
11E
330
1F
100
AcDbEntity
  8
その他
  6
Continuous
 62
     7
370
     9
100
AcDbLine
 10
177.8632274728985
 20
-212.5192016735067
 30
0.0
 11
177.0800895070518
 21
-206.570529088001
 31
0.0
  0
LINE
  5
11F
330
1F
100
AcDbEntity
  8
その他
  6
Continuous
 62
     7
370
     9
100
AcDbLine
 10
177.8632274728985
 20
-212.5192016735067
 30
0.0
 11
178.6463654387452
 21
-206.570529088001
 31
0.0
  0
LINE
  5
120
330
1F
100
AcDbEntity
  8
その他
  6
Continuous
 62
     7
370
     9
100
AcDbLine
 10
43.38581369994478
 20
-212.5192016735067
 30
0.0
 11
178.6463654387452
 21
-212.5192016735067
 31
0.0
  0
LINE
  5
121
330
1F
100
AcDbEntity
  8
その他
  6
Continuous
 62
     7
370
     9
100
AcDbLine
 10
177.8632274728985
 20
-212.5192016735067
 30
0.0
 11
177.8632274728985
 21
-105.9133939600281
 31
0.0
  0
LINE
  5
122
330
1F
100
AcDbEntity
  8
0-8
  6
JWW_PHANTOM1
 62
     4
370
     9
100
AcDbLine
 10
-80.62733760879976
 20
-59.0779973516976
 30
0.0
 11
-60.25720274702666
 21
-60.90172994136037
 31
0.0
  0
LINE
  5
123
330
1F
100
AcDbEntity
  8
躯体
  6
JWW_DASHED1
 62
     6
370
     9
100
AcDbLine
 10
35.33812197178742
 20
-69.05071475468236
 30
0.0
 11
30.22870313959024
 21
-68.05073089718508
 31
0.0
  0
LINE
  5
124
330
1F
100
AcDbEntity
  8
0-8
  6
Continuous
 62
     4
370
     9
100
AcDbLine
 10
-62.14735596176487
 20
-58.59401566318712
 30
0.0
 11
-62.9363545987249
 21
-57.64988392245505
 31
0.0
  0
LINE
  5
125
330
1F
100
AcDbEntity
  8
0-8
  6
Continuous
 62
     4
370
     9
100
AcDbLine
 10
-62.52726233996224
 20
-62.83706177937165
 30
0.0
 11
-63.47135908563373
 21
-63.62602542127109
 31
0.0
  0
LINE
  5
126
330
1F
100
AcDbEntity
  8
0-8
  6
Continuous
 62
     4
370
     9
100
AcDbLine
 10
-62.52726233996224
 20
-62.83706177937165
 30
0.0
 11
-62.14735596176487
 21
-58.59401566318712
 31
0.0
  0
LINE
  5
127
330
1F
100
AcDbEntity
  8
0-8
  6
Continuous
 62
     4
370
     9
100
AcDbLine
 10
-63.47135908563373
 20
-63.62602542127109
 30
0.0
 11
-62.9363545987249
 21
-57.64988392245505
 31
0.0
  0
LINE
  5
128
330
1F
100
AcDbEntity
  8
0-8
  6
Continuous
 62
     4
370
     9
100
AcDbLine
 10
-74.02198491985939
 20
-56.65738900793252
 30
0.0
 11
-62.9363545987249
 21
-57.64988392245505
 31
0.0
  0
LINE
  5
129
330
1F
100
AcDbEntity
  8
0-8
  6
Continuous
 62
     4
370
     9
100
AcDbLine
 10
-74.09956896927571
 20
-57.5239716943089
 30
0.0
 11
-62.14735596176487
 21
-58.59401566318712
 31
0.0
  0
LINE
  5
12A
330
1F
100
AcDbEntity
  8
0-8
  6
Continuous
 62
     4
370
     9
100
AcDbLine
 10
-74.47947534747317
 20
-61.76701781049348
 30
0.0
 11
-62.52726233996224
 21
-62.83706177937165
 31
0.0
  0
LINE
  5
12B
330
1F
100
AcDbEntity
  8
0-8
  6
Continuous
 62
     4
370
     9
100
AcDbLine
 10
-74.55702440182881
 20
-62.63353050674857
 30
0.0
 11
-63.47135908563373
 21
-63.62602542127109
 31
0.0
  0
LINE
  5
12C
330
1F
100
AcDbEntity
  8
0-8
  6
Continuous
 62
     4
370
     9
100
AcDbLine
 10
-75.92589119342514
 20
-54.66116576442533
 30
0.0
 11
-73.84368508595045
 21
-54.66536517170096
 31
0.0
  0
LINE
  5
12D
330
1F
100
AcDbEntity
  8
0-8
  6
Continuous
 62
     4
370
     9
100
AcDbLine
 10
-78.42600831494116
 20
-62.11259403421297
 30
0.0
 11
-77.92193946162914
 21
-56.48283364551094
 31
0.0
  0
LINE
  5
12E
330
1F
100
AcDbEntity
  8
0-8
  6
Continuous
 62
     4
370
     9
100
AcDbLine
 10
-74.73535923079842
 20
-64.62551934791958
 30
0.0
 11
-73.84368508595045
 21
-54.66536517170096
 31
0.0
  0
LINE
  5
12F
330
1F
100
AcDbEntity
  8
0-8
  6
Continuous
 62
     4
370
     9
100
AcDbLine
 10
-76.78522990225116
 20
-64.25978596927723
 30
0.0
 11
-74.73535923079842
 21
-64.62551934791958
 31
0.0
  0
ARC
  5
130
330
1F
100
AcDbEntity
  8
0-8
  6
Continuous
 62
     4
370
     9
100
AcDbCircle
 10
-75.92995062045813
 20
-56.66116847448058
 30
0.0
 40
1.999999976066088
100
AcDbArc
 50
89.88401794433595
 51
174.8840026855469
  0
ARC
  5
131
330
1F
100
AcDbEntity
  8
0-8
  6
Continuous
 62
     4
370
     9
100
AcDbCircle
 10
-76.43394948364889
 20
-62.29092886318261
 30
0.0
 40
1.999999976066088
100
AcDbArc
 50
174.8840026855469
 51
259.8839874267578
  0
LINE
  5
132
330
1F
100
AcDbEntity
  8
0-A
  6
Continuous
 62
     2
370
     9
100
AcDbLine
 10
39.88592127735336
 20
-113.4508119867498
 30
0.0
 11
39.88592127735336
 21
-116.0507349033537
 31
0.0
  0
LINE
  5
133
330
1F
100
AcDbEntity
  8
0-A
  6
Continuous
 62
     2
370
     9
100
AcDbLine
 10
51.88577894054112
 20
-116.0507349033537
 30
0.0
 11
39.88592127735336
 21
-116.0507349033537
 31
0.0
  0
LINE
  5
134
330
1F
100
AcDbEntity
  8
その他
  6
Continuous
 62
     7
370
     9
100
AcDbLine
 10
-64.11439332470678
 20
-34.93029966026812
 30
0.0
 11
28.88559271261747
 21
-34.93029966026812
 31
0.0
  0
LINE
  5
135
330
1F
100
AcDbEntity
  8
その他
  6
Continuous
 62
     7
370
     9
100
AcDbLine
 10
-64.11439332470678
 20
-34.93029966026812
 30
0.0
 11
-56.6785568644032
 21
-33.95135321861774
 31
0.0
  0
LINE
  5
136
330
1F
100
AcDbEntity
  8
その他
  6
Continuous
 62
     7
370
     9
100
AcDbLine
 10
-64.11439332470678
 20
-34.93029966026812
 30
0.0
 11
-56.6785568644032
 21
-35.90924610191851
 31
0.0
  0
LINE
  5
137
330
1F
100
AcDbEntity
  8
その他
  6
Continuous
 62
     7
370
     9
100
AcDbLine
 10
28.88559271261747
 20
-34.93029966026812
 30
0.0
 11
21.4497562523139
 21
-33.95135321861774
 31
0.0
  0
LINE
  5
138
330
1F
100
AcDbEntity
  8
その他
  6
Continuous
 62
     7
370
     9
100
AcDbLine
 10
28.88559271261747
 20
-34.93029966026812
 30
0.0
 11
21.4497562523139
 21
-35.90924610191851
 31
0.0
  0
LINE
  5
139
330
1F
100
AcDbEntity
  8
その他
  6
Continuous
 62
     7
370
     9
100
AcDbLine
 10
-64.11439332470678
 20
-34.03029966026812
 30
0.0
 11
-64.11439332470678
 21
-47.05069307424076
 31
0.0
  0
LINE
  5
13A
330
1F
100
AcDbEntity
  8
その他
  6
Continuous
 62
     7
370
     9
100
AcDbLine
 10
28.88559271261747
 20
-34.03029966026812
 30
0.0
 11
28.88559271261747
 21
-47.05069307424076
 31
0.0
  0
TEXT
  5
13B
330
1F
100
AcDbEntity
  8
その他
  6
Continuous
 62
     2
370
   211
100
AcDbText
 10
-30.73940030604465
 20
-30.23829966026812
 30
0.0
 40
9.144
  1
φ93
 41
1.09375
  7
ＭＳ ゴシック
100
AcDbText
  0
LINE
  5
13C
330
1F
100
AcDbEntity
  8
通り芯
  6
JWW_CENTER1
 62
     3
370
     9
100
AcDbLine
 10
-17.61422247340072
 20
-46.34388196208512
 30
0.0
 11
-17.61422247340072
 21
-218.5484687825242
 31
0.0
  0
LINE
  5
13D
330
1F
100
AcDbEntity
  8
その他
  6
Continuous
 62
     7
370
     9
100
AcDbLine
 10
-86.11434310031424
 20
-10.17232914718069
 30
0.0
 11
50.88579905975526
 21
-10.17232914718069
 31
0.0
  0
LINE
  5
13E
330
1F
100
AcDbEntity
  8
その他
  6
Continuous
 62
     7
370
     9
100
AcDbLine
 10
-86.11434310031424
 20
-10.17232914718069
 30
0.0
 11
-78.67850664001067
 21
-9.193382705530308
 31
0.0
  0
LINE
  5
13F
330
1F
100
AcDbEntity
  8
その他
  6
Continuous
 62
     7
370
     9
100
AcDbLine
 10
-86.11434310031424
 20
-10.17232914718069
 30
0.0
 11
-78.67850664001067
 21
-11.15127558883108
 31
0.0
  0
LINE
  5
140
330
1F
100
AcDbEntity
  8
その他
  6
Continuous
 62
     7
370
     9
100
AcDbLine
 10
50.88579905975526
 20
-10.17232914718069
 30
0.0
 11
43.44996259945169
 21
-9.193382705530308
 31
0.0
  0
LINE
  5
141
330
1F
100
AcDbEntity
  8
その他
  6
Continuous
 62
     7
370
     9
100
AcDbLine
 10
50.88579905975526
 20
-10.17232914718069
 30
0.0
 11
43.44996259945169
 21
-11.15127558883108
 31
0.0
  0
LINE
  5
142
330
1F
100
AcDbEntity
  8
その他
  6
Continuous
 62
     7
370
     9
100
AcDbLine
 10
-86.11434310031424
 20
-9.272329147180692
 30
0.0
 11
-86.11434310031424
 21
-111.0506900107002
 31
0.0
  0
LINE
  5
143
330
1F
100
AcDbEntity
  8
その他
  6
Continuous
 62
     7
370
     9
100
AcDbLine
 10
50.88579905975526
 20
-9.272329147180692
 30
0.0
 11
50.88579905975526
 21
-111.0506900107002
 31
0.0
  0
LINE
  5
144
330
1F
100
AcDbEntity
  8
その他
  6
Continuous
 62
     7
370
     9
100
AcDbLine
 10
-172.6142006751306
 20
35.44327969693146
 30
0.0
 11
137.3858052752079
 21
35.44327969693146
 31
0.0
  0
LINE
  5
145
330
1F
100
AcDbEntity
  8
その他
  6
Continuous
 62
     7
370
     9
100
AcDbLine
 10
-172.6142006751306
 20
35.44327969693146
 30
0.0
 11
-165.178364214827
 21
36.42222613858183
 31
0.0
  0
LINE
  5
146
330
1F
100
AcDbEntity
  8
その他
  6
Continuous
 62
     7
370
     9
100
AcDbLine
 10
-172.6142006751306
 20
35.44327969693146
 30
0.0
 11
-165.178364214827
 21
34.46433325528106
 31
0.0
  0
LINE
  5
147
330
1F
100
AcDbEntity
  8
その他
  6
Continuous
 62
     7
370
     9
100
AcDbLine
 10
137.3858052752079
 20
35.44327969693146
 30
0.0
 11
129.9499688149044
 21
36.42222613858183
 31
0.0
  0
LINE
  5
148
330
1F
100
AcDbEntity
  8
その他
  6
Continuous
 62
     7
370
     9
100
AcDbLine
 10
137.3858052752079
 20
35.44327969693146
 30
0.0
 11
129.9499688149044
 21
34.46433325528106
 31
0.0
  0
LINE
  5
149
330
1F
100
AcDbEntity
  8
その他
  6
Continuous
 62
     7
370
     9
100
AcDbLine
 10
-172.6142006751306
 20
36.34327969693146
 30
0.0
 11
-172.6142006751306
 21
-112.3109644191068
 31
0.0
  0
LINE
  5
14A
330
1F
100
AcDbEntity
  8
その他
  6
Continuous
 62
     7
370
     9
100
AcDbLine
 10
137.3858052752079
 20
36.34327969693146
 30
0.0
 11
137.3858052752079
 21
-112.3109644191068
 31
0.0
  0
TEXT
  5
14B
330
1F
100
AcDbEntity
  8
その他
  6
Continuous
 62
     2
370
   211
100
AcDbText
 10
-34.11419769996134
 20
40.13527969693146
 30
0.0
 40
9.144
  1
φ310
 41
1.1
  7
ＭＳ ゴシック
100
AcDbText
  0
TEXT
  5
14C
330
1F
100
AcDbEntity
  8
その他
  6
Continuous
 62
     2
370
   211
100
AcDbText
 10
-34.11427202027949
 20
-5.480329147180694
 30
0.0
 40
9.144
  1
φ137
 41
1.1
  7
ＭＳ ゴシック
100
AcDbText
  0
LINE
  5
14D
330
1F
100
AcDbEntity
  8
その他
  6
Continuous
 62
     7
370
     9
100
AcDbLine
 10
-140.114307667627
 20
13.91726434895192
 30
0.0
 11
104.8856787863272
 21
13.91726434895192
 31
0.0
  0
LINE
  5
14E
330
1F
100
AcDbEntity
  8
その他
  6
Continuous
 62
     7
370
     9
100
AcDbLine
 10
-140.114307667627
 20
13.91726434895192
 30
0.0
 11
-132.6784712073234
 21
14.89621079060231
 31
0.0
  0
LINE
  5
14F
330
1F
100
AcDbEntity
  8
その他
  6
Continuous
 62
     7
370
     9
100
AcDbLine
 10
-140.114307667627
 20
13.91726434895192
 30
0.0
 11
-132.6784712073234
 21
12.93831790730153
 31
0.0
  0
LINE
  5
150
330
1F
100
AcDbEntity
  8
その他
  6
Continuous
 62
     7
370
     9
100
AcDbLine
 10
104.8856787863272
 20
13.91726434895192
 30
0.0
 11
97.44984232602364
 21
14.89621079060231
 31
0.0
  0
LINE
  5
151
330
1F
100
AcDbEntity
  8
その他
  6
Continuous
 62
     7
370
     9
100
AcDbLine
 10
104.8856787863272
 20
13.91726434895192
 30
0.0
 11
97.44984232602364
 21
12.93831790730153
 31
0.0
  0
LINE
  5
152
330
1F
100
AcDbEntity
  8
その他
  6
Continuous
 62
     7
370
     9
100
AcDbLine
 10
-140.114307667627
 20
14.81726434895192
 30
0.0
 11
-140.114307667627
 21
-107.0505911074646
 31
0.0
  0
LINE
  5
153
330
1F
100
AcDbEntity
  8
その他
  6
Continuous
 62
     7
370
     9
100
AcDbLine
 10
104.8856787863272
 20
14.81726434895192
 30
0.0
 11
104.8856787863272
 21
-107.0505227531629
 31
0.0
  0
TEXT
  5
154
330
1F
100
AcDbEntity
  8
その他
  6
Continuous
 62
     2
370
   211
100
AcDbText
 10
-34.1143144406499
 20
18.60926434895192
 30
0.0
 40
9.144
  1
φ245
 41
1.1
  7
ＭＳ ゴシック
100
AcDbText
  0
LINE
  5
155
330
1F
100
AcDbEntity
  8
その他
  6
Continuous
 62
     7
370
     9
100
AcDbLine
 10
177.8632274728985
 20
-105.9133939600281
 30
0.0
 11
177.8632274728985
 21
-53.05069307424077
 31
0.0
  0
LINE
  5
156
330
1F
100
AcDbEntity
  8
その他
  6
Continuous
 62
     7
370
     9
100
AcDbLine
 10
177.8632274728985
 20
-105.9133939600281
 30
0.0
 11
176.8842810312481
 21
-98.47755749972455
 31
0.0
  0
LINE
  5
157
330
1F
100
AcDbEntity
  8
その他
  6
Continuous
 62
     7
370
     9
100
AcDbLine
 10
177.8632274728985
 20
-105.9133939600281
 30
0.0
 11
178.8421739145489
 21
-98.47755749972455
 31
0.0
  0
LINE
  5
158
330
1F
100
AcDbEntity
  8
その他
  6
Continuous
 62
     7
370
     9
100
AcDbLine
 10
177.8632274728985
 20
-53.05069307424077
 30
0.0
 11
176.8842810312481
 21
-60.48652953454435
 31
0.0
  0
LINE
  5
159
330
1F
100
AcDbEntity
  8
その他
  6
Continuous
 62
     7
370
     9
100
AcDbLine
 10
177.8632274728985
 20
-53.05069307424077
 30
0.0
 11
178.8421739145489
 21
-60.48652953454435
 31
0.0
  0
LINE
  5
15A
330
1F
100
AcDbEntity
  8
その他
  6
Continuous
 62
     7
370
     9
100
AcDbLine
 10
178.7632274728985
 20
-53.05069307424077
 30
0.0
 11
39.90570415008737
 21
-53.05069307424076
 31
0.0
  0
TEXT
  5
15B
330
1F
100
AcDbEntity
  8
その他
  6
Continuous
 62
     2
370
   211
100
AcDbText
 10
173.1712274728985
 20
-85.85704351713446
 30
0.0
 40
9.144
  1
53
 50
90.0
 41
1.0625
  7
ＭＳ ゴシック
100
AcDbText
  0
LINE
  5
15C
330
1F
100
AcDbEntity
  8
寸法
  6
Continuous
 62
     7
370
     9
100
AcDbLine
 10
-44.43374298305628
 20
-53.05069307424076
 30
0.0
 11
-47.89685758231903
 21
-46.3981118254041
 31
0.0
  0
LINE
  5
15D
330
1F
100
AcDbEntity
  8
寸法
  6
Continuous
 62
     7
370
     9
100
AcDbLine
 10
-44.43374298305628
 20
-53.05069307424076
 30
0.0
 11
-46.05704008759203
 21
-45.72847302084126
 31
0.0
  0
LINE
  5
15E
330
1F
100
AcDbEntity
  8
寸法
  6
Continuous
 62
     7
370
     9
100
AcDbLine
 10
55.88577278400267
 20
-117.0507891044577
 30
0.0
 11
101.1686874920989
 21
51.94737062067497
 31
0.0
  0
TEXT
  5
15F
330
1F
100
AcDbEntity
  8
寸法
  6
Continuous
 62
     7
370
     9
100
AcDbText
 10
132.5327705948454
 20
42.19355749382738
 30
0.0
 40
6.858000000000001
  1
樹脂系塗装
 41
1.133333333333333
  7
ＭＳ ゴシック
100
AcDbText
  0
LINE
  5
160
330
1F
100
AcDbEntity
  8
寸法
  6
Continuous
 62
     7
370
     9
100
AcDbLine
 10
101.1686874920989
 20
51.94737062067497
 30
0.0
 11
220.058981070458
 21
51.94737062067497
 31
0.0
  0
TEXT
  5
161
330
1F
100
AcDbEntity
  8
寸法
  6
Continuous
 62
     7
370
     9
100
AcDbText
 10
106.9323174500503
 20
55.73695348992113
 30
0.0
 40
6.858000000000001
  1
防水層押え：ＦＣ１５０
 41
1.151515151515151
  7
ＭＳ ゴシック
100
AcDbText
  0
LINE
  5
162
330
1F
100
AcDbEntity
  8
寸法
  6
Continuous
 62
     7
370
     9
100
AcDbLine
 10
46.36467114538544
 20
-111.4621984604166
 30
0.0
 11
99.74185754488911
 21
87.74385080942406
 31
0.0
  0
TEXT
  5
163
330
1F
100
AcDbEntity
  8
寸法
  6
Continuous
 62
     7
370
     9
100
AcDbText
 10
127.7558504690404
 20
77.87719872718559
 30
0.0
 40
6.858000000000001
  1
Ｍ６×１２
 41
1.133333333333333
  7
ＭＳ ゴシック
100
AcDbText
  0
LINE
  5
164
330
1F
100
AcDbEntity
  8
寸法
  6
Continuous
 62
     7
370
     9
100
AcDbLine
 10
-277.48384064413
 20
-147.3781409789723
 30
0.0
 11
-191.9351503620101
 21
-147.3781409789723
 31
0.0
  0
LINE
  5
165
330
1F
100
AcDbEntity
  8
仕上
  6
Continuous
 62
     6
370
     9
100
AcDbLine
 10
-69.13434728440382
 20
-53.05069307424076
 30
0.0
 11
33.90570415008737
 21
-53.05069307424076
 31
0.0
  0
LINE
  5
166
330
1F
100
AcDbEntity
  8
仕上
  6
Continuous
 62
     6
370
     9
100
AcDbLine
 10
34.90824264701059
 20
-120.3182336119534
 30
0.0
 11
28.88559271261747
 21
-53.05069307424076
 31
0.0
  0
LINE
  5
167
330
1F
100
AcDbEntity
  8
仕上
  6
Continuous
 62
     6
370
     9
100
AcDbLine
 10
-70.56683509622505
 20
-69.05071475468236
 30
0.0
 11
-65.45727628378543
 21
-68.05073089718508
 31
0.0
  0
LINE
  5
168
330
1F
100
AcDbEntity
  8
仕上
  6
Continuous
 62
     6
370
     9
100
AcDbLine
 10
49.88572615337893
 20
-116.5053117859701
 30
0.0
 11
50.8856050256944
 21
-117.5507192321649
 31
0.0
  0
LINE
  5
169
330
1F
100
AcDbEntity
  8
仕上
  6
Continuous
 62
     6
370
     9
100
AcDbLine
 10
42.13558004605512
 20
-117.1617491332644
 30
0.0
 11
40.63569174746079
 21
-123.0507179360515
 31
0.0
  0
LINE
  5
16A
330
1F
100
AcDbEntity
  8
仕上
  6
Continuous
 62
     6
370
     9
100
AcDbLine
 10
41.13570117373974
 20
-116.1101825563987
 30
0.0
 11
42.13558004605512
 21
-117.161784128325
 31
0.0
  0
LINE
  5
16B
330
1F
100
AcDbEntity
  8
仕上
  6
Continuous
 62
     6
370
     9
100
AcDbLine
 10
48.88570730082103
 20
-116.4608680589702
 30
0.0
 11
49.88572615337893
 21
-116.5053117859701
 31
0.0
  0
LINE
  5
16C
330
1F
100
AcDbEntity
  8
仕上
  6
Continuous
 62
     6
370
     9
100
AcDbLine
 10
41.29289898608895
 20
-116.1233756942561
 30
0.0
 11
42.8856641755948
 21
-116.1942056969709
 31
0.0
  0
LINE
  5
16D
330
1F
100
AcDbEntity
  8
仕上
  6
Continuous
 62
     6
370
     9
100
AcDbLine
 10
-76.61149692375437
 20
-117.1281188799991
 30
0.0
 11
-86.11433564766244
 21
-117.5507192321649
 31
0.0
  0
LINE
  5
16E
330
1F
100
AcDbEntity
  8
仕上
  6
Continuous
 62
     6
370
     9
100
AcDbLine
 10
-86.11433564766244
 20
-117.5507192321649
 30
0.0
 11
-85.26367571387266
 21
-122.2295938334333
 31
0.0
  0
LINE
  5
16F
330
1F
100
AcDbEntity
  8
仕上
  6
Continuous
 62
     6
370
     9
100
AcDbLine
 10
50.8856050256944
 20
-117.5507192321649
 30
0.0
 11
50.03494509190461
 21
-122.2295938334333
 31
0.0
  0
LINE
  5
170
330
1F
100
AcDbEntity
  8
仕上
  6
Continuous
 62
     6
370
     9
100
AcDbLine
 10
39.38972760879648
 20
-114.3037025316264
 30
0.0
 11
33.90570415008737
 21
-53.05069307424076
 31
0.0
  0
ARC
  5
171
330
1F
100
AcDbEntity
  8
仕上
  6
Continuous
 62
     6
370
     9
100
AcDbCircle
 10
37.89627840135802
 20
-120.0506613783778
 30
0.0
 40
2.999999964099133
100
AcDbArc
 50
185.1162567138672
 51
270.0
  0
ARC
  5
172
330
1F
100
AcDbEntity
  8
仕上
  6
Continuous
 62
     6
370
     9
100
AcDbCircle
 10
41.38164645984615
 20
-114.1253677026568
 30
0.0
 40
1.999999976066088
100
AcDbArc
 50
185.115966796875
 51
267.4557647705078
  0
ARC
  5
173
330
1F
100
AcDbEntity
  8
仕上
  6
Continuous
 62
     6
370
     9
100
AcDbCircle
 10
-73.12493903320473
 20
-120.0506613783778
 30
0.0
 40
2.999999964099133
100
AcDbArc
 50
270.0
 51
354.8837432861329
  0
ARC
  5
174
330
1F
100
AcDbEntity
  8
仕上
  6
Continuous
 62
     6
370
     9
100
AcDbCircle
 10
-76.70038437775418
 20
-115.1300758933391
 30
0.0
 40
1.999999976066088
100
AcDbArc
 50
272.5462493896484
 51
354.8842620849609
  0
ARC
  5
175
330
1F
100
AcDbEntity
  8
仕上
  6
Continuous
 62
     6
370
     9
100
AcDbCircle
 10
49.0511639474789
 20
-122.0507340785542
 30
0.0
 40
0.9999999880330441
100
AcDbArc
 50
270.0
 51
349.6965942382812
  0
ARC
  5
176
330
1F
100
AcDbEntity
  8
仕上
  6
Continuous
 62
     6
370
     9
100
AcDbCircle
 10
-77.23043706358379
 20
-121.0507152259963
 30
0.0
 40
1.999999976066088
100
AcDbArc
 50
270.0
 51
354.8842620849609
  0
LINE
  5
177
330
1F
100
AcDbEntity
  8
仕上
  6
Continuous
 62
     6
370
     9
100
AcDbLine
 10
-75.23839572982186
 20
-121.2290500549659
 30
0.0
 11
-70.02860254201693
 21
-63.03895819543315
 31
0.0
  0
LINE
  5
178
330
1F
100
AcDbEntity
  8
仕上
  6
Continuous
 62
     6
370
     9
100
AcDbLine
 10
-69.49355525191606
 20
-57.06281867553002
 30
0.0
 11
-69.13434728440382
 21
-53.05069307424076
 31
0.0
  0
LINE
  5
179
330
1F
100
AcDbEntity
  8
仕上
  6
Continuous
 62
     6
370
     9
100
AcDbLine
 10
-70.13688578132704
 20
-120.3182336119534
 30
0.0
 11
-65.04856518739416
 21
-63.48481882784594
 31
0.0
  0
LINE
  5
17A
330
1F
100
AcDbEntity
  8
仕上
  6
Continuous
 62
     6
370
     9
100
AcDbLine
 10
-64.51351890861957
 20
-57.50868062488948
 30
0.0
 11
-64.11439332470678
 21
-53.05069307424076
 31
0.0
  0
LINE
  5
17B
330
1F
100
AcDbEntity
  8
仕上
  6
Continuous
 62
     6
370
     9
100
AcDbLine
 10
-53.11416473744207
 20
-123.0507179360515
 30
0.0
 11
42.88562918053422
 21
-123.0507179360515
 31
0.0
  0
LINE
  5
17C
330
1F
100
AcDbEntity
  8
仕上
  6
Continuous
 62
     6
370
     9
100
AcDbLine
 10
42.13558004605512
 20
-117.1617491332644
 30
0.0
 11
42.8856875056353
 21
-117.1950941092407
 31
0.0
  0
LINE
  5
17D
330
1F
100
AcDbEntity
  8
仕上
  6
Continuous
 62
     6
370
     9
100
AcDbLine
 10
48.88581452474415
 20
-117.461821347788
 30
0.0
 11
50.8856050256944
 21
-117.5507192321649
 31
0.0
  0
LINE
  5
17E
330
1F
100
AcDbEntity
  8
仕上
  6
Continuous
 62
     6
370
     9
100
AcDbLine
 10
-84.28550443944441
 20
-123.0507179360515
 30
0.0
 11
-68.11418500394181
 21
-123.0507179360515
 31
0.0
  0
ARC
  5
17F
330
1F
100
AcDbEntity
  8
仕上
  6
Continuous
 62
     6
370
     9
100
AcDbCircle
 10
-84.27982457932569
 20
-122.0507340785542
 30
0.0
 40
0.9999999880330441
100
AcDbArc
 50
190.3034057617187
 51
269.674566233269
  0
LINE
  5
180
330
1F
100
AcDbEntity
  8
その他
  6
Continuous
 62
     7
370
     9
100
AcDbLine
 10
-196.2640375312441
 20
-123.0507179360515
 30
0.0
 11
-196.2640375312441
 21
-53.05069307424076
 31
0.0
  0
LINE
  5
181
330
1F
100
AcDbEntity
  8
その他
  6
Continuous
 62
     7
370
     9
100
AcDbLine
 10
-196.2640375312441
 20
-123.0507179360515
 30
0.0
 11
-197.2429839728945
 21
-115.6148814757479
 31
0.0
  0
LINE
  5
182
330
1F
100
AcDbEntity
  8
その他
  6
Continuous
 62
     7
370
     9
100
AcDbLine
 10
-196.2640375312441
 20
-123.0507179360515
 30
0.0
 11
-195.2850910895938
 21
-115.6148814757479
 31
0.0
  0
LINE
  5
183
330
1F
100
AcDbEntity
  8
その他
  6
Continuous
 62
     7
370
     9
100
AcDbLine
 10
-196.2640375312441
 20
-53.05069307424076
 30
0.0
 11
-197.2429839728945
 21
-60.48652953454434
 31
0.0
  0
LINE
  5
184
330
1F
100
AcDbEntity
  8
その他
  6
Continuous
 62
     7
370
     9
100
AcDbLine
 10
-196.2640375312441
 20
-53.05069307424076
 30
0.0
 11
-195.2850910895938
 21
-60.48652953454434
 31
0.0
  0
LINE
  5
185
330
1F
100
AcDbEntity
  8
その他
  6
Continuous
 62
     7
370
     9
100
AcDbLine
 10
-197.1640375312442
 20
-123.0507179360515
 30
0.0
 11
-90.28550443944064
 21
-123.0507179360515
 31
0.0
  0
LINE
  5
186
330
1F
100
AcDbEntity
  8
その他
  6
Continuous
 62
     7
370
     9
100
AcDbLine
 10
-197.1640375312442
 20
-53.05069307424076
 30
0.0
 11
-75.13434728440382
 21
-53.05069307424076
 31
0.0
  0
TEXT
  5
187
330
1F
100
AcDbEntity
  8
その他
  6
Continuous
 62
     2
370
   211
100
AcDbText
 10
-200.9560375312441
 20
-94.42570550514614
 30
0.0
 40
9.144
  1
70
 50
90.0
 41
1.0625
  7
ＭＳ ゴシック
100
AcDbText
  0
TEXT
  5
188
330
1F
100
AcDbEntity
  8
寸法
  6
Continuous
 62
     7
370
     9
100
AcDbText
 10
-276.8249559082892
 20
-190.8571612336411
 30
0.0
 40
6.858000000000001
  1
アンカー：ＳＷＲＭ８
 41
1.15
  7
ＭＳ ゴシック
100
AcDbText
  0
LINE
  5
189
330
1F
100
AcDbEntity
  8
寸法
  6
Continuous
 62
     7
370
     9
100
AcDbLine
 10
-171.7602361819038
 20
-194.2713160319941
 30
0.0
 11
-276.2918871252205
 21
-194.2713160319941
 31
0.0
  0
LINE
  5
18A
330
1F
100
AcDbEntity
  8
通り芯
  6
Continuous
 62
     3
370
     9
100
AcDbLine
 10
-63.93777949861787
 20
-142.413291331416
 30
0.0
 11
-57.29076843028108
 21
-142.413291331416
 31
0.0
  0
LINE
  5
18B
330
1F
100
AcDbEntity
  8
通り芯
  6
Continuous
 62
     3
370
     9
100
AcDbLine
 10
-57.29076843028108
 20
-141.4133362240696
 30
0.0
 11
-57.29076843028108
 21
-142.413291331416
 31
0.0
  0
LINE
  5
18C
330
1F
100
AcDbEntity
  8
通り芯
  6
Continuous
 62
     3
370
     9
100
AcDbLine
 10
-63.93777949861787
 20
-142.413291331416
 30
0.0
 11
-63.93777949861787
 21
-141.4133362240696
 31
0.0
  0
LINE
  5
18D
330
1F
100
AcDbEntity
  8
通り芯
  6
Continuous
 62
     3
370
     9
100
AcDbLine
 10
-57.29076843028108
 20
-142.413291331416
 30
0.0
 11
-60.61417487069195
 21
-144.3321428524404
 31
0.0
  0
LINE
  5
18E
330
1F
100
AcDbEntity
  8
通り芯
  6
Continuous
 62
     3
370
     9
100
AcDbLine
 10
-63.93777949861787
 20
-142.413291331416
 30
0.0
 11
-60.61417487069195
 21
-144.3321428524404
 31
0.0
  0
LINE
  5
18F
330
1F
100
AcDbEntity
  8
通り芯
  6
Continuous
 62
     3
370
     9
100
AcDbLine
 10
-171.7236450761094
 20
-106.789333229812
 30
0.0
 11
-172.6142997688881
 21
-113.9133816469513
 31
0.0
  0
LINE
  5
190
330
1F
100
AcDbEntity
  8
通り芯
  6
Continuous
 62
     3
370
     9
100
AcDbLine
 10
-170.6141913666801
 20
-105.9133939600281
 30
0.0
 11
-170.7313201880936
 21
-105.9133939600281
 31
0.0
  0
LINE
  5
191
330
1F
100
AcDbEntity
  8
通り芯
  6
Continuous
 62
     3
370
     9
100
AcDbLine
 10
35.86905672167045
 20
-133.6140629430458
 30
0.0
 11
34.42030598642072
 21
-134.0023122850915
 31
0.0
  0
LINE
  5
192
330
1F
100
AcDbEntity
  8
通り芯
  6
Continuous
 62
     3
370
     9
100
AcDbLine
 10
36.57618977548322
 20
-132.3893631935963
 30
0.0
 11
35.86905672167045
 21
-133.6140629430458
 31
0.0
  0
LINE
  5
193
330
1F
100
AcDbEntity
  8
通り芯
  6
Continuous
 62
     3
370
     9
100
AcDbLine
 10
136.495200129308
 20
-106.789333229812
 30
0.0
 11
137.3858548220868
 21
-113.9133816469513
 31
0.0
  0
LINE
  5
194
330
1F
100
AcDbEntity
  8
通り芯
  6
Continuous
 62
     3
370
     9
100
AcDbLine
 10
38.6385375947864
 20
-105.9133939600281
 30
0.0
 11
135.5028752412921
 21
-105.9133939600281
 31
0.0
  0
LINE
  5
195
330
1F
100
AcDbEntity
  8
通り芯
  6
Continuous
 62
     3
370
     9
100
AcDbLine
 10
22.66382259175379
 20
-147.2454993241465
 30
0.0
 11
22.55244120827759
 21
-147.9134407968518
 31
0.0
  0
LINE
  5
196
330
1F
100
AcDbEntity
  8
通り芯
  6
Continuous
 62
     3
370
     9
100
AcDbLine
 10
28.36409190054356
 20
-142.2021720809749
 30
0.0
 11
27.7336574150675
 21
-142.2920996659434
 31
0.0
  0
LINE
  5
197
330
1F
100
AcDbEntity
  8
通り芯
  6
Continuous
 62
     3
370
     9
100
AcDbLine
 10
32.10924137304898
 20
-134.6723347267052
 30
0.0
 11
30.85828177785113
 21
-139.9270785015905
 31
0.0
  0
LINE
  5
198
330
1F
100
AcDbEntity
  8
通り芯
  6
Continuous
 62
     3
370
     9
100
AcDbLine
 10
34.42030598642072
 20
-134.0023122850915
 30
0.0
 11
33.22840627071725
 21
-133.3142547796054
 31
0.0
  0
LINE
  5
199
330
1F
100
AcDbEntity
  8
通り芯
  6
Continuous
 62
     3
370
     9
100
AcDbLine
 10
25.80529289331928
 20
-142.9131697913317
 30
0.0
 11
-53.50320682954816
 21
-142.9131697913317
 31
0.0
  0
LINE
  5
19A
330
1F
100
AcDbEntity
  8
通り芯
  6
Continuous
 62
     3
370
     9
100
AcDbLine
 10
-133.4942643543581
 20
-135.0511701617845
 30
0.0
 11
-131.9262047350289
 21
-123.781881226068
 31
0.0
  0
LINE
  5
19B
330
1F
100
AcDbEntity
  8
通り芯
  6
Continuous
 62
     3
370
     9
100
AcDbLine
 10
-143.7124162569582
 20
-135.0230275346428
 30
0.0
 11
-145.4643938902835
 21
-119.147117545238
 31
0.0
  0
LINE
  5
19C
330
1F
100
AcDbEntity
  8
通り芯
  6
Continuous
 62
     3
370
     9
100
AcDbLine
 10
-55.4815146050971
 20
-135.4133578455969
 30
0.0
 11
-57.29076843028108
 21
-135.4133578455969
 31
0.0
  0
LINE
  5
19D
330
1F
100
AcDbEntity
  8
通り芯
  6
Continuous
 62
     3
370
     9
100
AcDbLine
 10
-63.93777949861787
 20
-135.4133578455969
 30
0.0
 11
-66.37152218382536
 21
-135.4133578455969
 31
0.0
  0
LINE
  5
19E
330
1F
100
AcDbEntity
  8
通り芯
  6
Continuous
 62
     3
370
     9
100
AcDbLine
 10
27.38583832609864
 20
-147.913391249973
 30
0.0
 11
27.38583832609864
 21
-157.9133882453466
 31
0.0
  0
LINE
  5
19F
330
1F
100
AcDbEntity
  8
通り芯
  6
Continuous
 62
     3
370
     9
100
AcDbLine
 10
-62.61428327289996
 20
-147.913391249973
 30
0.0
 11
27.38583832609864
 21
-147.913391249973
 31
0.0
  0
LINE
  5
1A0
330
1F
100
AcDbEntity
  8
通り芯
  6
Continuous
 62
     3
370
     9
100
AcDbLine
 10
-62.61428327289996
 20
-147.913391249973
 30
0.0
 11
-62.61428327289996
 21
-157.9133882453466
 31
0.0
  0
LINE
  5
1A1
330
1F
100
AcDbEntity
  8
通り芯
  6
Continuous
 62
     3
370
     9
100
AcDbLine
 10
-62.61428327289996
 20
-157.9133882453466
 30
0.0
 11
27.38583832609864
 21
-157.9133882453466
 31
0.0
  0
LINE
  5
1A2
330
1F
100
AcDbEntity
  8
通り芯
  6
Continuous
 62
     3
370
     9
100
AcDbLine
 10
-59.97858750982385
 20
-174.3357012138326
 30
0.0
 11
-58.95217436921391
 21
-157.9133882453466
 31
0.0
  0
LINE
  5
1A3
330
1F
100
AcDbEntity
  8
通り芯
  6
Continuous
 62
     3
370
     9
100
AcDbLine
 10
-61.55635831739202
 20
-175.9133729276433
 30
0.0
 11
-60.43124779427125
 21
-157.9133882453466
 31
0.0
  0
LINE
  5
1A4
330
1F
100
AcDbEntity
  8
通り芯
  6
Continuous
 62
     3
370
     9
100
AcDbLine
 10
24.7501425630224
 20
-174.3358003075902
 30
0.0
 11
23.72372942241255
 21
-157.9133882453466
 31
0.0
  0
LINE
  5
1A5
330
1F
100
AcDbEntity
  8
通り芯
  6
Continuous
 62
     3
370
     9
100
AcDbLine
 10
26.32791337059057
 20
-175.9133729276433
 30
0.0
 11
25.20280284746985
 21
-157.9133882453466
 31
0.0
  0
LINE
  5
1A6
330
1F
100
AcDbEntity
  8
通り芯
  6
Continuous
 62
     3
370
     9
100
AcDbLine
 10
-54.48700965441541
 20
-136.2712620515084
 30
0.0
 11
-52.76238189817143
 21
-147.913391249973
 31
0.0
  0
LINE
  5
1A7
330
1F
100
AcDbEntity
  8
通り芯
  6
Continuous
 62
     3
370
     9
100
AcDbLine
 10
-71.09750166847186
 20
-133.6140629430458
 30
0.0
 11
-71.8046347222846
 21
-132.3893631935963
 31
0.0
  0
LINE
  5
1A8
330
1F
100
AcDbEntity
  8
通り芯
  6
Continuous
 62
     3
370
     9
100
AcDbLine
 10
-69.6487509332221
 20
-134.0023122850915
 30
0.0
 11
-71.09750166847186
 21
-133.6140629430458
 31
0.0
  0
LINE
  5
1A9
330
1F
100
AcDbEntity
  8
通り芯
  6
Continuous
 62
     3
370
     9
100
AcDbLine
 10
-69.6487509332221
 20
-134.0023122850915
 30
0.0
 11
-69.0109835096881
 21
-133.6341789758266
 31
0.0
  0
LINE
  5
1AA
330
1F
100
AcDbEntity
  8
通り芯
  6
JWW_PHANTOM2
 62
     3
370
     9
100
AcDbLine
 10
-67.33748813233528
 20
-134.6722851798264
 30
0.0
 11
-67.6135633408446
 21
-133.5123927478087
 31
0.0
  0
LINE
  5
1AB
330
1F
100
AcDbEntity
  8
通り芯
  6
JWW_PHANTOM2
 62
     3
370
     9
100
AcDbLine
 10
-69.0109835096881
 20
-133.6341789758266
 30
0.0
 11
-68.42395209001505
 21
-133.2952783250363
 31
0.0
  0
LINE
  5
1AC
330
1F
100
AcDbEntity
  8
通り芯
  6
JWW_PHANTOM2
 62
     3
370
     9
100
AcDbLine
 10
-68.42395209001505
 20
-133.2952783250363
 30
0.0
 11
-67.6135633408446
 21
-133.5123927478087
 31
0.0
  0
LINE
  5
1AD
330
1F
100
AcDbEntity
  8
通り芯
  6
Continuous
 62
     3
370
     9
100
AcDbLine
 10
-142.7185058688218
 20
-135.9133849461489
 30
0.0
 11
-134.4848055547382
 21
-135.9133849461489
 31
0.0
  0
LINE
  5
1AE
330
1F
100
AcDbEntity
  8
通り芯
  6
Continuous
 62
     3
370
     9
100
AcDbLine
 10
-61.55635831739202
 20
-175.9133729276433
 30
0.0
 11
-59.97858750982385
 21
-174.3357012138326
 31
0.0
  0
LINE
  5
1AF
330
1F
100
AcDbEntity
  8
通り芯
  6
Continuous
 62
     3
370
     9
100
AcDbLine
 10
-59.97858750982385
 20
-174.3357012138326
 30
0.0
 11
24.7501425630224
 21
-174.3358003075902
 31
0.0
  0
LINE
  5
1B0
330
1F
100
AcDbEntity
  8
通り芯
  6
Continuous
 62
     3
370
     9
100
AcDbLine
 10
24.7501425630224
 20
-174.3358003075902
 30
0.0
 11
26.32791337059057
 21
-175.9133729276433
 31
0.0
  0
LINE
  5
1B1
330
1F
100
AcDbEntity
  8
通り芯
  6
JWW_CENTER1
 62
     3
370
     9
100
AcDbLine
 10
-138.6142406189877
 20
-150.9134547595275
 30
0.0
 11
-138.6142406189877
 21
-119.6640896783295
 31
0.0
  0
LINE
  5
1B2
330
1F
100
AcDbEntity
  8
通り芯
  6
Continuous
 62
     3
370
     9
100
AcDbLine
 10
32.88633461968568
 20
-133.5122936540512
 30
0.0
 11
32.38511839404323
 21
-133.5122936540512
 31
0.0
  0
LINE
  5
1B3
330
1F
100
AcDbEntity
  8
通り芯
  6
Continuous
 62
     3
370
     9
100
AcDbLine
 10
-67.6135633408446
 20
-133.5122936540512
 30
0.0
 11
-68.35597377234191
 21
-133.5122936540512
 31
0.0
  0
LINE
  5
1B4
330
1F
100
AcDbEntity
  8
通り芯
  6
Continuous
 62
     3
370
     9
100
AcDbLine
 10
102.9848127822964
 20
-114.5951962457123
 30
0.0
 11
135.3857464198788
 21
-105.9133939600281
 31
0.0
  0
LINE
  5
1B5
330
1F
100
AcDbEntity
  8
通り芯
  6
Continuous
 62
     3
370
     9
100
AcDbLine
 10
-138.2132577290979
 20
-114.5951962457123
 30
0.0
 11
-170.6141913666801
 21
-105.9133939600281
 31
0.0
  0
ARC
  5
1B6
330
1F
100
AcDbEntity
  8
通り芯
  6
Continuous
 62
     3
370
     9
100
AcDbCircle
 10
-170.7313201880936
 20
-106.9133490673747
 30
0.0
 40
1.00000000920535
100
AcDbArc
 50
90.0
 51
172.8747100830078
  0
ARC
  5
1B7
330
1F
100
AcDbEntity
  8
通り芯
  6
Continuous
 62
     3
370
     9
100
AcDbCircle
 10
-55.4815146050971
 20
-136.413412046701
 30
0.0
 40
1.00000000920535
100
AcDbArc
 50
8.129302978515625
 51
90.00000000000001
  0
ARC
  5
1B8
330
1F
100
AcDbEntity
  8
通り芯
  6
Continuous
 62
     3
370
     9
100
AcDbCircle
 10
-66.37152218382536
 20
-134.4133531913717
 30
0.0
 40
1.00000000920535
100
AcDbArc
 50
195.0025634765625
 51
270.0
  0
ARC
  5
1B9
330
1F
100
AcDbEntity
  8
通り芯
  6
Continuous
 62
     3
370
     9
100
AcDbCircle
 10
135.5028752412921
 20
-106.9133490673747
 30
0.0
 40
1.00000000920535
100
AcDbArc
 50
7.125289916992188
 51
90.0
  0
ARC
  5
1BA
330
1F
100
AcDbEntity
  8
通り芯
  6
Continuous
 62
     3
370
     9
100
AcDbCircle
 10
28.58209816713379
 20
-148.2319281335886
 30
0.0
 40
6.000000055232103
100
AcDbArc
 50
98.12835693359375
 51
170.5382232666016
  0
ARC
  5
1BB
330
1F
100
AcDbEntity
  8
通り芯
  6
Continuous
 62
     3
370
     9
100
AcDbCircle
 10
27.93977243075286
 20
-139.2323321674704
 30
0.0
 40
3.000000027616052
100
AcDbArc
 50
278.1280670166016
 51
346.6094970703125
  0
ARC
  5
1BC
330
1F
100
AcDbEntity
  8
通り芯
  6
Continuous
 62
     3
370
     9
100
AcDbCircle
 10
34.05484820860949
 20
-135.1354989494519
 30
0.0
 40
2.000000018410701
100
AcDbArc
 50
114.4075317382812
 51
166.6099395751953
  0
ARC
  5
1BD
330
1F
100
AcDbEntity
  8
通り芯
  6
Continuous
 62
     3
370
     9
100
AcDbCircle
 10
-129.9453205217839
 20
-124.0575105126683
 30
0.0
 40
2.000000018410701
100
AcDbArc
 50
75.00010681152344
 51
172.0778503417969
  0
ARC
  5
1BE
330
1F
100
AcDbEntity
  8
通り芯
  6
Continuous
 62
     3
370
     9
100
AcDbCircle
 10
-147.4522146665565
 20
-119.3665111244338
 30
0.0
 40
2.000000018410701
100
AcDbArc
 50
6.29754638671875
 51
75.00010681152344
  0
ARC
  5
1BF
330
1F
100
AcDbEntity
  8
通り芯
  6
Continuous
 62
     3
370
     9
100
AcDbCircle
 10
-134.4848055547382
 20
-134.9133802919237
 30
0.0
 40
1.00000000920535
100
AcDbArc
 50
270.0
 51
352.0788726806641
  0
ARC
  5
1C0
330
1F
100
AcDbEntity
  8
通り芯
  6
Continuous
 62
     3
370
     9
100
AcDbCircle
 10
-142.7185058688218
 20
-134.9133802919237
 30
0.0
 40
1.00000000920535
100
AcDbArc
 50
186.2965698242187
 51
270.0
  0
ARC
  5
1C1
330
1F
100
AcDbEntity
  8
通り芯
  6
Continuous
 62
     3
370
     9
100
AcDbCircle
 10
-72.46360820993243
 20
-133.2481096964468
 30
0.0
 40
1.00000000920535
100
AcDbArc
 50
30.00509643554688
 51
74.99909973144531
  0
ARC
  5
1C2
330
1F
100
AcDbEntity
  8
通り芯
  6
Continuous
 62
     3
370
     9
100
AcDbCircle
 10
-70.43852818082411
 20
-132.7554155339528
 30
0.0
 40
1.00000000920535
100
AcDbArc
 50
210.0063171386719
 51
254.996353149414
  0
ARC
  5
1C3
330
1F
100
AcDbEntity
  8
通り芯
  6
Continuous
 62
     3
370
     9
100
AcDbCircle
 10
-69.78986044396054
 20
-132.9292259846798
 30
0.0
 40
1.00000000920535
100
AcDbArc
 50
254.9990997314453
 51
299.9987640380859
  0
ARC
  5
1C4
330
1F
100
AcDbEntity
  8
通り芯
  6
Continuous
 62
     3
370
     9
100
AcDbCircle
 10
-68.51095640913607
 20
-134.5002088698564
 30
0.0
 40
1.00000000920535
100
AcDbArc
 50
39.43991088867188
 51
119.998764038086
  0
ARC
  5
1C5
330
1F
100
AcDbEntity
  8
通り芯
  6
Continuous
 62
     3
370
     9
100
AcDbCircle
 10
-69.2832931554108
 20
-135.1354989494519
 30
0.0
 40
2.000000018410701
100
AcDbArc
 50
13.39006042480469
 51
39.44046020507812
  0
LINE
  5
1C6
330
1F
100
AcDbEntity
  8
通り芯
  6
Continuous
 62
     3
370
     9
100
AcDbLine
 10
-172.6142997688881
 20
-113.9133816469513
 30
0.0
 11
-171.6142455677842
 21
-114.9133863011766
 31
0.0
  0
ARC
  5
1C7
330
1F
100
AcDbEntity
  8
通り芯
  6
Continuous
 62
     3
370
     9
100
AcDbCircle
 10
-161.8473666370259
 20
-124.8268744462168
 30
0.0
 40
11.00000010125886
100
AcDbArc
 50
74.99995422363281
 51
115.6804656982422
  0
ARC
  5
1C8
330
1F
100
AcDbEntity
  8
通り芯
  6
Continuous
 62
     3
370
     9
100
AcDbCircle
 10
-81.02227523353041
 20
-142.3427905475209
 30
0.0
 40
5.0
100
AcDbArc
 50
5.815611334247627
 51
74.99998815045326
  0
ARC
  5
1C9
330
1F
100
AcDbEntity
  8
通り芯
  6
Continuous
 62
     3
370
     9
100
AcDbCircle
 10
-81.23908457635399
 20
-140.2141113995368
 30
0.0
 40
5.0
100
AcDbArc
 50
5.815611334247716
 51
75.00001496645127
  0
ARC
  5
1CA
330
1F
100
AcDbEntity
  8
通り芯
  6
Continuous
 62
     3
370
     9
100
AcDbCircle
 10
-73.71090056722333
 20
-154.9133729276433
 30
0.0
 40
1.0
100
AcDbArc
 50
185.8156113342477
 51
270.0
  0
ARC
  5
1CB
330
1F
100
AcDbEntity
  8
通り芯
  6
Continuous
 62
     3
370
     9
100
AcDbCircle
 10
-70.9754098942086
 20
-156.9133729276433
 30
0.0
 40
1.0
100
AcDbArc
 50
8.530765609948126
 51
90.0
  0
ARC
  5
1CC
330
1F
100
AcDbEntity
  8
通り芯
  6
Continuous
 62
     3
370
     9
100
AcDbCircle
 10
-65.39184763178503
 20
-173.9133729276433
 30
0.0
 40
2.0
100
AcDbArc
 50
188.5307656099481
 51
270.0
  0
LINE
  5
1CD
330
1F
100
AcDbEntity
  8
通り芯
  6
Continuous
 62
     3
370
     9
100
AcDbLine
 10
-67.36972033752168
 20
-174.2100538335038
 30
0.0
 11
-69.98647354134042
 21
-156.765032474713
 31
0.0
  0
LINE
  5
1CE
330
1F
100
AcDbEntity
  8
通り芯
  6
Continuous
 62
     3
370
     9
100
AcDbLine
 10
-74.70575370439613
 20
-155.0147002954058
 30
0.0
 11
-76.26481889049055
 21
-139.7074745607238
 31
0.0
  0
LINE
  5
1CF
330
1F
100
AcDbEntity
  8
通り芯
  6
Continuous
 62
     3
370
     9
100
AcDbLine
 10
-70.9754098942086
 20
-155.9133729276433
 30
0.0
 11
-73.71090056722333
 21
-155.9133729276433
 31
0.0
  0
LINE
  5
1D0
330
1F
100
AcDbEntity
  8
通り芯
  6
Continuous
 62
     3
370
     9
100
AcDbLine
 10
-171.6142455677842
 20
-114.9133863011766
 30
0.0
 11
-166.614237009981
 21
-114.9133863011766
 31
0.0
  0
ARC
  5
1D1
330
1F
100
AcDbEntity
  8
通り芯
  6
Continuous
 62
     3
370
     9
100
AcDbCircle
 10
126.6189216902245
 20
-124.8268744462169
 30
0.0
 40
11.00000010125886
100
AcDbArc
 50
64.3195343017578
 51
105.0000457763672
  0
LINE
  5
1D2
330
1F
100
AcDbEntity
  8
通り芯
  6
Continuous
 62
     3
370
     9
100
AcDbLine
 10
136.3858006209828
 20
-114.9133863011766
 30
0.0
 11
128.8431801719902
 21
-114.9133863011766
 31
0.0
  0
LINE
  5
1D3
330
1F
100
AcDbEntity
  8
通り芯
  6
Continuous
 62
     3
370
     9
100
AcDbLine
 10
137.3858548220868
 20
-113.9133816469513
 30
0.0
 11
136.3858006209828
 21
-114.9133863011766
 31
0.0
  0
ARC
  5
1D4
330
1F
100
AcDbEntity
  8
通り芯
  6
Continuous
 62
     3
370
     9
100
AcDbCircle
 10
46.01063962955239
 20
-140.2141113995368
 30
0.0
 40
5.0
100
AcDbArc
 50
104.9999850335488
 51
174.1843886657523
  0
ARC
  5
1D5
330
1F
100
AcDbEntity
  8
通り芯
  6
Continuous
 62
     3
370
     9
100
AcDbCircle
 10
35.746964947407
 20
-156.9133729276433
 30
0.0
 40
1.0
100
AcDbArc
 50
90.0
 51
171.4692343900519
  0
ARC
  5
1D6
330
1F
100
AcDbEntity
  8
通り芯
  6
Continuous
 62
     3
370
     9
100
AcDbCircle
 10
38.48245562042174
 20
-154.9133729276433
 30
0.0
 40
1.0
100
AcDbArc
 50
270.0
 51
354.1843886657522
  0
ARC
  5
1D7
330
1F
100
AcDbEntity
  8
通り芯
  6
Continuous
 62
     3
370
     9
100
AcDbCircle
 10
30.16340268498362
 20
-173.9133729276433
 30
0.0
 40
2.0
100
AcDbArc
 50
270.0
 51
351.4692343900519
  0
LINE
  5
1D8
330
1F
100
AcDbEntity
  8
通り芯
  6
Continuous
 62
     3
370
     9
100
AcDbLine
 10
44.7165456656059
 20
-135.3844819300561
 30
0.0
 11
123.7719580360708
 21
-114.2016701610775
 31
0.0
  0
LINE
  5
1D9
330
1F
100
AcDbEntity
  8
通り芯
  6
Continuous
 62
     3
370
     9
100
AcDbLine
 10
44.49973406238333
 20
-137.5131616837122
 30
0.0
 11
130.3985557903541
 21
-114.4966227303984
 31
0.0
  0
LINE
  5
1DA
330
1F
100
AcDbEntity
  8
通り芯
  6
Continuous
 62
     3
370
     9
100
AcDbLine
 10
34.75802859453872
 20
-156.765032474713
 30
0.0
 11
32.14127539072009
 21
-174.2100538335038
 31
0.0
  0
LINE
  5
1DB
330
1F
100
AcDbEntity
  8
通り芯
  6
Continuous
 62
     3
370
     9
100
AcDbLine
 10
41.03637394368906
 20
-139.7074745607239
 30
0.0
 11
39.47730875759442
 21
-155.0147002954058
 31
0.0
  0
LINE
  5
1DC
330
1F
100
AcDbEntity
  8
通り芯
  6
Continuous
 62
     3
370
     9
100
AcDbLine
 10
38.48245562042174
 20
-155.9133729276433
 30
0.0
 11
35.746964947407
 21
-155.9133729276433
 31
0.0
  0
ARC
  5
1DD
330
1F
100
AcDbEntity
  8
通り芯
  6
Continuous
 62
     3
370
     9
100
AcDbCircle
 10
45.79383028672897
 20
-142.3427905475209
 30
0.0
 40
5.0
100
AcDbArc
 50
105.0000118495468
 51
174.1843886657524
  0
LINE
  5
1DE
330
1F
100
AcDbEntity
  8
通り芯
  6
Continuous
 62
     3
370
     9
100
AcDbLine
 10
-79.72817900918481
 20
-137.5131616837122
 30
0.0
 11
-131.8771714664147
 21
-123.539869709242
 31
0.0
  0
LINE
  5
1DF
330
1F
100
AcDbEntity
  8
通り芯
  6
Continuous
 62
     3
370
     9
100
AcDbLine
 10
-145.3788714306159
 20
-119.9220971145709
 30
0.0
 11
-165.6270007371555
 21
-114.4966227303984
 31
0.0
  0
LINE
  5
1E0
330
1F
100
AcDbEntity
  8
通り芯
  6
Continuous
 62
     3
370
     9
100
AcDbLine
 10
-79.94499061240741
 20
-135.384481930056
 30
0.0
 11
-129.4276834357835
 21
-122.1256482022927
 31
0.0
  0
LINE
  5
1E1
330
1F
100
AcDbEntity
  8
通り芯
  6
Continuous
 62
     3
370
     9
100
AcDbLine
 10
-146.9345891159302
 20
-117.4346918647054
 30
0.0
 11
-159.0004029828723
 21
-114.2016701610775
 31
0.0
  0
LINE
  5
1E2
330
1F
100
AcDbEntity
  8
通り芯
  6
JWW_DASHED1
 62
     3
370
     9
100
AcDbLine
 10
-146.9345801729698
 20
-117.4346584890881
 30
0.0
 11
-129.4276834357835
 21
-122.1256482022927
 31
0.0
  0
LINE
  5
1E3
330
1F
100
AcDbEntity
  8
通り芯
  6
Continuous
 62
     3
370
     9
100
AcDbLine
 10
-170.6141913666801
 20
-105.9133939600281
 30
0.0
 11
-73.86717602144296
 21
-105.9133939600281
 31
0.0
  0
LINE
  5
1E4
330
1F
100
AcDbEntity
  8
建具
  6
Continuous
 62
     4
370
     9
100
AcDbLine
 10
38.58878399114139
 20
-155.9134082172751
 30
0.0
 11
39.3857950830439
 21
-155.9134082172751
 31
0.0
  0
LINE
  5
1E5
330
1F
100
AcDbEntity
  8
建具
  6
Continuous
 62
     4
370
     9
100
AcDbLine
 10
35.88580356669496
 20
-155.9134082172751
 30
0.0
 11
35.88580356669496
 21
-189.6839543100258
 31
0.0
  0
LINE
  5
1E6
330
1F
100
AcDbEntity
  8
建具
  6
Continuous
 62
     4
370
     9
100
AcDbLine
 10
39.3857950830439
 20
-155.9134082172751
 30
0.0
 11
39.3857950830439
 21
-187.5115457826368
 31
0.0
  0
LINE
  5
1E7
330
1F
100
AcDbEntity
  8
建具
  6
Continuous
 62
     4
370
     9
100
AcDbLine
 10
-73.81722893794277
 20
-155.9134082172751
 30
0.0
 11
-74.6142400298452
 21
-155.9134082172751
 31
0.0
  0
LINE
  5
1E8
330
1F
100
AcDbEntity
  8
建具
  6
Continuous
 62
     4
370
     9
100
AcDbLine
 10
-74.6142400298452
 20
-155.9134082172751
 30
0.0
 11
-74.6142400298452
 21
-189.191052363651
 31
0.0
  0
LINE
  5
1E9
330
1F
100
AcDbEntity
  8
建具
  6
Continuous
 62
     4
370
     9
100
AcDbLine
 10
-71.11424851349629
 20
-155.9134082172751
 30
0.0
 11
-71.11424851349629
 21
-187.018643836262
 31
0.0
  0
LINE
  5
1EA
330
1F
100
AcDbEntity
  8
通り芯
  6
Continuous
 62
     3
370
     9
100
AcDbLine
 10
-65.39184763178503
 20
-175.9133729276433
 30
0.0
 11
30.16340268498362
 21
-175.9133729276433
 31
0.0
  0
LINE
  5
1EB
330
1F
100
AcDbEntity
  8
その他
  6
Continuous
 62
     7
370
     9
100
AcDbLine
 10
151.2844885419683
 20
-155.9134082172751
 30
0.0
 11
150.3055421003179
 21
-148.4775717569715
 31
0.0
  0
LINE
  5
1EC
330
1F
100
AcDbEntity
  8
その他
  6
Continuous
 62
     7
370
     9
100
AcDbLine
 10
151.2844885419683
 20
-155.9134082172751
 30
0.0
 11
152.2634349836187
 21
-148.4775717569715
 31
0.0
  0
LINE
  5
1ED
330
1F
100
AcDbEntity
  8
その他
  6
Continuous
 62
     7
370
     9
100
AcDbLine
 10
152.1844885419683
 20
-155.9134082172751
 30
0.0
 11
45.3857950830439
 21
-155.9134082172751
 31
0.0
  0
LINE
  5
1EE
330
1F
100
AcDbEntity
  8
その他
  6
Continuous
 62
     7
370
     9
100
AcDbLine
 10
151.2844885419683
 20
-155.9134082172751
 30
0.0
 11
151.2844885419683
 21
-105.9133939600281
 31
0.0
  0
TEXT
  5
1EF
330
1F
100
AcDbEntity
  8
その他
  6
Continuous
 62
     2
370
   211
100
AcDbText
 10
146.5924885419683
 20
-137.2884010886516
 30
0.0
 40
9.144
  1
50
 50
90.0
 41
1.0625
  7
ＭＳ ゴシック
100
AcDbText
  0
TEXT
  5
1F0
330
1F
100
AcDbEntity
  8
寸法
  6
Continuous
 62
     7
370
     9
100
AcDbText
 10
99.27083333333331
 20
91.96826308148493
 30
0.0
 40
6.858000000000001
  1
丸小ねじ：Ｃ２７００Ｗ
 41
1.151515151515151
  7
ＭＳ ゴシック
100
AcDbText
  0
TEXT
  5
1F1
330
1F
100
AcDbEntity
  8
寸法
  6
Continuous
 62
     7
370
     9
100
AcDbText
 10
-210.7706378733264
 20
91.4115500830962
 30
0.0
 40
6.858000000000001
  1
Ｍ８×４０
 41
1.133333333333335
  7
ＭＳ ゴシック
100
AcDbText
  0
TEXT
  5
1F2
330
1F
100
AcDbEntity
  8
寸法
  6
Continuous
 62
     7
370
     9
100
AcDbText
 10
-196.123775788156
 20
128.3246513378998
 30
0.0
 40
6.858000000000001
  1
樹脂系塗装
 41
1.133333333333333
  7
ＭＳ ゴシック
100
AcDbText
  0
TEXT
  5
1F3
330
1F
100
AcDbEntity
  8
寸法
  6
Continuous
 62
     7
370
     9
100
AcDbText
 10
-237.3561234312093
 20
142.2847112513289
 30
0.0
 40
6.858000000000001
  1
ストレーナー：ＦＣ１５０
 41
1.152777777777778
  7
ＭＳ ゴシック
100
AcDbText
  0
LINE
  5
1F4
330
1F
100
AcDbEntity
  8
寸法
  6
Continuous
 62
     7
370
     9
100
AcDbLine
 10
-237.3561246684083
 20
138.3271043705223
 30
0.0
 11
-114.3801179694374
 21
138.3271043705223
 31
0.0
  0
LINE
  5
1F5
330
1F
100
AcDbEntity
  8
寸法
  6
Continuous
 62
     7
370
     9
100
AcDbLine
 10
-44.43374298305628
 20
-53.05069307424076
 30
0.0
 11
-114.3801179694374
 21
138.3271043705223
 31
0.0
  0
LINE
  5
1F6
330
1F
100
AcDbEntity
  8
寸法
  6
Continuous
 62
     7
370
     9
100
AcDbLine
 10
-78.17396789202638
 20
-59.29764686984429
 30
0.0
 11
-81.63708249128914
 21
-52.64506562100763
 31
0.0
  0
LINE
  5
1F7
330
1F
100
AcDbEntity
  8
寸法
  6
Continuous
 62
     7
370
     9
100
AcDbLine
 10
-78.17396789202638
 20
-59.29764686984429
 30
0.0
 11
-79.79726499656216
 21
-51.97542681644479
 31
0.0
  0
LINE
  5
1F8
330
1F
100
AcDbEntity
  8
寸法
  6
Continuous
 62
     7
370
     9
100
AcDbLine
 10
-57.29076843028108
 20
-101.4133482425753
 30
0.0
 11
-60.75388302954384
 21
-94.76076699373864
 31
0.0
  0
LINE
  5
1F9
330
1F
100
AcDbEntity
  8
寸法
  6
Continuous
 62
     7
370
     9
100
AcDbLine
 10
-57.29076843028108
 20
-101.4133482425753
 30
0.0
 11
-58.91406553481686
 21
-94.0911281891758
 31
0.0
  0
LINE
  5
1FA
330
1F
100
AcDbEntity
  8
寸法
  6
Continuous
 62
     7
370
     9
100
AcDbLine
 10
-57.29076843028108
 20
-101.4133482425753
 30
0.0
 11
-131.6517109776817
 21
102.0933738927456
 31
0.0
  0
TEXT
  5
1FB
330
1F
100
AcDbEntity
  8
寸法
  6
Continuous
 62
     7
370
     9
100
AcDbText
 10
-235.3871399774619
 20
106.0812674078428
 30
0.0
 40
6.858000000000001
  1
ボルト：Ｃ３６０２Ｗ
 41
1.15
  7
ＭＳ ゴシック
100
AcDbText
  0
TEXT
  5
1FC
330
1F
100
AcDbEntity
  8
寸法
  6
Continuous
 62
     7
370
     9
100
AcDbText
 10
-236.8476724329092
 20
59.36211618814823
 30
0.0
 40
6.858000000000001
  1
丸小ねじ：Ｃ２７００Ｗ
 41
1.151515151515151
  7
ＭＳ ゴシック
100
AcDbText
  0
TEXT
  5
1FD
330
1F
100
AcDbEntity
  8
寸法
  6
Continuous
 62
     7
370
     9
100
AcDbText
 10
-199.4260301318348
 20
45.27105183384888
 30
0.0
 40
6.858000000000001
  1
Ｍ６×１２
 41
1.133333333333334
  7
ＭＳ ゴシック
100
AcDbText
  0
LINE
  5
1FE
330
1F
100
AcDbEntity
  8
寸法
  6
Continuous
 62
     7
370
     9
100
AcDbLine
 10
-78.17396789202638
 20
-59.29764686984429
 30
0.0
 11
-119.9884124268164
 21
55.13770391608736
 31
0.0
  0
LINE
  5
1FF
330
1F
100
AcDbEntity
  8
寸法
  6
Continuous
 62
     7
370
     9
100
AcDbLine
 10
-131.6517109776817
 20
102.0933738927456
 30
0.0
 11
-235.5236955874923
 21
102.0933738927456
 31
0.0
  0
LINE
  5
200
330
1F
100
AcDbEntity
  8
寸法
  6
Continuous
 62
     7
370
     9
100
AcDbLine
 10
-241.353645656035
 20
55.13770391608736
 30
0.0
 11
-119.9884124268164
 21
55.13770391608736
 31
0.0
  0
LINE
  5
201
330
1F
100
AcDbEntity
  8
寸法
  6
Continuous
 62
     7
370
     9
100
AcDbLine
 10
99.74185754488911
 20
87.74385080942406
 30
0.0
 11
214.2549647176018
 21
87.74385080942406
 31
0.0
  0
TEXT
  5
202
330
1F
100
AcDbEntity
  8
寸法
  6
Continuous
 62
     7
370
     9
100
AcDbText
 10
-189.672239766765
 20
-250.9222434883886
 30
0.0
 40
6.858000000000001
  1
硬質ポリ塩化ビニル
 41
1.148148148148148
  7
ＭＳ ゴシック
100
AcDbText
  0
TEXT
  5
203
330
1F
100
AcDbEntity
  8
F-4ﾚｲﾔ
  6
Continuous
 62
     2
370
     9
100
AcDbText
 10
-38.57506961637464
 20
-331.103328407225
 30
0.0
 40
9.144
  1
鋳鉄製ルーフドレン　防水層張掛け幅100mm　たて引き用　打込型　ねじ込み式
 41
0.5992957746478875
  7
ＭＳ ゴシック
100
AcDbText
  0
TEXT
  5
204
330
1F
100
AcDbEntity
  8
F-4ﾚｲﾔ
  6
Continuous
 62
     2
370
     9
100
AcDbText
 10
-54.6169652777778
 20
-346.440828407225
 30
0.0
 40
9.144
  1
アスファルト・改質アスファルトシート・シート防水用　ＷＨＢ－２－７５　Ｃ＝指示
 41
0.5993589743589743
  7
ＭＳ ゴシック
100
AcDbText
  0
ARC
  5
205
330
1F
100
AcDbEntity
  8
通り芯
  6
Continuous
 62
     3
370
     9
100
AcDbCircle
 10
-17.61422247340072
 20
206.1221959396475
 30
0.0
 40
155.0000277486087
100
AcDbArc
 50
0.0
 51
180.0
  0
ARC
  5
206
330
1F
100
AcDbEntity
  8
通り芯
  6
Continuous
 62
     3
370
     9
100
AcDbCircle
 10
-17.61422247340072
 20
206.1221959396475
 30
0.0
 40
154.0000354811031
100
AcDbArc
 50
0.0
 51
180.0
  0
LINE
  5
207
330
1F
100
AcDbEntity
  8
通り芯
  6
JWW_CENTER1
 62
     3
370
     9
100
AcDbLine
 10
-17.61422247340072
 20
194.6079946781754
 30
0.0
 11
-17.61422247340072
 21
381.0315570131926
 31
0.0
  0
ARC
  5
208
330
1F
100
AcDbEntity
  8
躯体
  6
Continuous
 62
     2
370
     9
100
AcDbCircle
 10
-17.61422247340072
 20
206.1221959396475
 30
0.0
 40
122.5000003534855
100
AcDbArc
 50
0.0
 51
180.0
  0
ARC
  5
209
330
1F
100
AcDbEntity
  8
躯体
  6
Continuous
 62
     2
370
     9
100
AcDbCircle
 10
-17.61422247340072
 20
206.1221959396475
 30
0.0
 40
121.9999732529335
100
AcDbArc
 50
0.0
 51
180.0
  0
ARC
  5
20A
330
1F
100
AcDbEntity
  8
躯体
  6
Continuous
 62
     2
370
     9
100
AcDbCircle
 10
-17.61422247340072
 20
206.1221959396475
 30
0.0
 40
114.7681108275896
100
AcDbArc
 50
0.0
 51
180.0
  0
LINE
  5
20B
330
1F
100
AcDbEntity
  8
躯体
  6
Continuous
 62
     2
370
     9
100
AcDbLine
 10
15.30094172295249
 20
238.9679299357111
 30
0.0
 11
13.3593107740278
 21
235.604974599306
 31
0.0
  0
LINE
  5
20C
330
1F
100
AcDbEntity
  8
躯体
  6
Continuous
 62
     2
370
     9
100
AcDbLine
 10
15.15439990656508
 20
239.1141218014922
 30
0.0
 11
13.33901363886254
 21
235.969798106372
 31
0.0
  0
LINE
  5
20D
330
1F
100
AcDbEntity
  8
躯体
  6
Continuous
 62
     2
370
     9
100
AcDbLine
 10
-5.42666768315426
 20
250.9966071506981
 30
0.0
 11
-7.242036453326516
 21
247.8522834555779
 31
0.0
  0
LINE
  5
20E
330
1F
100
AcDbEntity
  8
躯体
  6
Continuous
 62
     2
370
     9
100
AcDbLine
 10
-5.626506976880859
 20
251.0504120564165
 30
0.0
 11
-7.568225413457114
 21
247.6872467496476
 31
0.0
  0
LINE
  5
20F
330
1F
100
AcDbEntity
  8
躯体
  6
Continuous
 62
     2
370
     9
100
AcDbLine
 10
-62.57038214608259
 20
218.0046637913231
 30
0.0
 11
-58.9396446057381
 21
218.0046637913231
 31
0.0
  0
LINE
  5
210
330
1F
100
AcDbEntity
  8
躯体
  6
Continuous
 62
     2
370
     9
100
AcDbLine
 10
-62.51704967368273
 20
218.2046605628226
 30
0.0
 11
-58.63382277089406
 21
218.2046605628226
 31
0.0
  0
LINE
  5
211
330
1F
100
AcDbEntity
  8
その他
  6
Continuous
 62
     4
370
     9
100
AcDbLine
 10
0.7902923253859786
 20
242.1515005913277
 30
0.0
 11
6.481294070190203
 21
245.4371343412711
 31
0.0
  0
LINE
  5
212
330
1F
100
AcDbEntity
  8
その他
  6
Continuous
 62
     4
370
     9
100
AcDbLine
 10
1.290336746725544
 20
241.2854953234517
 30
0.0
 11
6.981268501408538
 21
244.5711465709254
 31
0.0
  0
LINE
  5
213
330
1F
100
AcDbEntity
  8
その他
  6
Continuous
 62
     4
370
     9
100
AcDbLine
 10
-59.61429688209023
 20
206.1221959396475
 30
0.0
 11
-63.20972440625919
 21
208.1980154485572
 31
0.0
  0
LINE
  5
214
330
1F
100
AcDbEntity
  8
その他
  6
Continuous
 62
     4
370
     9
100
AcDbLine
 10
-61.61422960202418
 20
206.1221959396475
 30
0.0
 11
-63.70969883747752
 21
207.3320276782116
 31
0.0
  0
LINE
  5
215
330
1F
100
AcDbEntity
  8
その他
  6
Continuous
 62
     4
370
     9
100
AcDbLine
 10
-53.11424433058505
 20
206.1221959396475
 30
0.0
 11
-53.11151471585591
 21
206.1269552678932
 31
0.0
  0
LINE
  5
216
330
1F
100
AcDbEntity
  8
その他
  6
Continuous
 62
     4
370
     9
100
AcDbLine
 10
-3.614186005483972
 20
243.3613148323614
 30
0.0
 11
0.1384743260948236
 21
236.8613497685078
 31
0.0
  0
LINE
  5
217
330
1F
100
AcDbEntity
  8
その他
  6
Continuous
 62
     4
370
     9
100
AcDbLine
 10
0.1384743260948236
 20
236.8613497685078
 30
0.0
 11
7.6330165105784
 21
236.8613497685078
 31
0.0
  0
LINE
  5
218
330
1F
100
AcDbEntity
  8
その他
  6
Continuous
 62
     4
370
     9
100
AcDbLine
 10
-53.11151471585591
 20
206.1269552678932
 30
0.0
 11
-56.85875081303708
 21
212.6173491826646
 31
0.0
  0
LINE
  5
219
330
1F
100
AcDbEntity
  8
その他
  6
Continuous
 62
     4
370
     9
100
AcDbLine
 10
11.03282164582664
 20
242.7500211132796
 30
0.0
 11
7.6330165105784
 21
236.8613497685078
 31
0.0
  0
LINE
  5
21A
330
1F
100
AcDbEntity
  8
その他
  6
Continuous
 62
     4
370
     9
100
AcDbLine
 10
-3.614186005483972
 20
243.3613148323614
 30
0.0
 11
-0.2171804750861224
 21
249.2451743562966
 31
0.0
  0
LINE
  5
21B
330
1F
100
AcDbEntity
  8
その他
  6
Continuous
 62
     4
370
     9
100
AcDbLine
 10
-63.65839607859421
 20
212.6174191727858
 30
0.0
 11
-56.85875081303708
 21
212.6173491826646
 31
0.0
  0
LINE
  5
21C
330
1F
100
AcDbEntity
  8
その他
  6
JWW_CENTER1
 62
     4
370
     9
100
AcDbLine
 10
5.635778410312939
 20
246.3923770137531
 30
0.0
 11
-0.3295321172382026
 21
236.0601378553879
 31
0.0
  0
LINE
  5
21D
330
1F
100
AcDbEntity
  8
その他
  6
JWW_CENTER1
 62
     4
370
     9
100
AcDbLine
 10
-60.61428073958751
 20
206.1221959396475
 30
0.0
 11
-60.61424574452688
 21
214.0582708040976
 31
0.0
  0
LINE
  5
21E
330
1F
100
AcDbEntity
  8
その他
  6
JWW_CENTER1
 62
     4
370
     9
100
AcDbLine
 10
-2.977345892142393
 20
247.3238230450069
 30
0.0
 11
10.86041847963379
 21
239.3345031958085
 31
0.0
  0
ARC
  5
21F
330
1F
100
AcDbEntity
  8
躯体
  6
Continuous
 62
     2
370
     9
100
AcDbCircle
 10
-17.61422247340072
 20
206.1221784421172
 30
0.0
 40
43.00000139921328
100
AcDbArc
 50
0.0
 51
39.60671997070312
  0
ARC
  5
220
330
1F
100
AcDbEntity
  8
躯体
  6
Continuous
 62
     2
370
     9
100
AcDbCircle
 10
-17.61422247340072
 20
206.1221784421172
 30
0.0
 40
43.00000139921328
100
AcDbArc
 50
80.39329528808592
 51
159.6067199707031
  0
ARC
  5
221
330
1F
100
AcDbEntity
  8
躯体
  6
Continuous
 62
     2
370
     9
100
AcDbCircle
 10
-17.61422247340072
 20
206.1221784421172
 30
0.0
 40
44.00000275424088
100
AcDbArc
 50
78.91273498535156
 51
161.0869903564453
  0
ARC
  5
222
330
1F
100
AcDbEntity
  8
躯体
  6
Continuous
 62
     2
370
     9
100
AcDbCircle
 10
-56.04436325959007
 20
220.4090169294257
 30
0.0
 40
1.999999976066088
100
AcDbArc
 50
159.6059417724609
 51
252.2622680664062
  0
ARC
  5
223
330
1F
100
AcDbEntity
  8
躯体
  6
Continuous
 62
     2
370
     9
100
AcDbCircle
 10
-57.34670444092905
 20
219.7354494999531
 30
0.0
 40
1.999999976066088
100
AcDbArc
 50
161.086929321289
 51
229.9416046142578
  0
ARC
  5
224
330
1F
100
AcDbEntity
  8
躯体
  6
Continuous
 62
     2
370
     9
100
AcDbCircle
 10
-10.77209320423894
 20
246.5471776644492
 30
0.0
 40
1.999999976066088
100
AcDbArc
 50
347.7377014160156
 51
80.39402770996094
  0
ARC
  5
225
330
1F
100
AcDbEntity
  8
躯体
  6
Continuous
 62
     2
370
     9
100
AcDbCircle
 10
3.885657930685015
 20
243.3612273447098
 30
0.0
 40
13.00000011782848
100
AcDbArc
 50
167.7370910644531
 51
239.9999389648438
  0
ARC
  5
226
330
1F
100
AcDbEntity
  8
躯体
  6
Continuous
 62
     2
370
     9
100
AcDbCircle
 10
13.97361406832376
 20
232.2602341919589
 30
0.0
 40
1.999999976066088
100
AcDbArc
 50
39.60594177246094
 51
132.2622680664062
  0
ARC
  5
227
330
1F
100
AcDbEntity
  8
躯体
  6
Continuous
 62
     2
370
     9
100
AcDbCircle
 10
3.885657930685015
 20
243.3612273447098
 30
0.0
 40
11.99999985639653
100
AcDbArc
 50
158.0210723876953
 51
321.9786071777344
  0
ARC
  5
228
330
1F
100
AcDbEntity
  8
躯体
  6
Continuous
 62
     2
370
     9
100
AcDbCircle
 10
3.885657930685015
 20
243.3612623397704
 30
0.0
 40
13.00000011782848
100
AcDbArc
 50
240.0001068115234
 51
312.2629547119141
  0
ARC
  5
229
330
1F
100
AcDbEntity
  8
躯体
  6
Continuous
 62
     2
370
     9
100
AcDbCircle
 10
14.04143449582439
 20
233.724882464499
 30
0.0
 40
1.999999976066088
100
AcDbArc
 50
41.08692932128906
 51
109.9416046142578
  0
ARC
  5
22A
330
1F
100
AcDbEntity
  8
躯体
  6
Continuous
 62
     2
370
     9
100
AcDbCircle
 10
-9.537537455339972
 20
247.3382585075167
 30
0.0
 40
1.999999976066088
100
AcDbArc
 50
10.04927062988281
 51
78.9129638671875
  0
ARC
  5
22B
330
1F
100
AcDbEntity
  8
躯体
  6
Continuous
 62
     2
370
     9
100
AcDbCircle
 10
-60.61412326181468
 20
206.122108451996
 30
0.0
 40
11.99999985639653
100
AcDbArc
 50
0.0
 51
81.97860717773438
  0
ARC
  5
22C
330
1F
100
AcDbEntity
  8
躯体
  6
Continuous
 62
     2
370
     9
100
AcDbCircle
 10
-60.61415825687529
 20
206.1220734569353
 30
0.0
 40
13.00000011782848
100
AcDbArc
 50
0.0001525878906262
 51
72.26295471191406
  0
ARC
  5
22D
330
1F
100
AcDbEntity
  8
躯体
  6
Continuous
 62
     2
370
     9
100
AcDbCircle
 10
-17.61422247340072
 20
206.1221784421172
 30
0.0
 40
44.00000275424088
100
AcDbArc
 50
359.9999084472656
 51
41.08737182617188
  0
CIRCLE
  5
22E
330
1F
100
AcDbEntity
  8
その他
  6
Continuous
 62
     4
370
     9
100
AcDbCircle
 10
3.885780413397257
 20
243.3613148323614
 30
0.0
 40
3.32349977253947
  0
ARC
  5
22F
330
1F
100
AcDbEntity
  8
その他
  6
Continuous
 62
     4
370
     9
100
AcDbCircle
 10
-60.61428073958751
 20
206.1221959396475
 30
0.0
 40
3.32349977253947
100
AcDbArc
 50
0.0
 51
180.0
  0
ARC
  5
230
330
1F
100
AcDbEntity
  8
その他
  6
Continuous
 62
     4
370
     9
100
AcDbCircle
 10
3.885780413397257
 20
243.3613148323614
 30
0.0
 40
3.999999952132177
100
AcDbArc
 50
90.22064208984375
 51
29.77864074707026
  0
ARC
  5
231
330
1F
100
AcDbEntity
  8
その他
  6
Continuous
 62
     4
370
     9
100
AcDbCircle
 10
-60.61428073958751
 20
206.1221959396475
 30
0.0
 40
3.999999952132177
100
AcDbArc
 50
0.0
 51
149.7783508300781
  0
ARC
  5
232
330
1F
100
AcDbEntity
  8
その他
  6
Continuous
 62
     4
370
     9
100
AcDbCircle
 10
3.890609731764146
 20
243.358567720102
 30
0.0
 40
6.500000605712065
100
AcDbArc
 50
120.9942779541015
 51
358.990966796875
  0
ARC
  5
233
330
1F
100
AcDbEntity
  8
その他
  6
Continuous
 62
     4
370
     9
100
AcDbCircle
 10
-60.61428073958751
 20
206.1277601542877
 30
0.0
 40
6.500000605712065
100
AcDbArc
 50
359.9509277343751
 51
118.9913635253906
  0
ARC
  5
234
330
1F
100
AcDbEntity
  8
躯体
  6
Continuous
 62
     2
370
     9
100
AcDbCircle
 10
-60.61415825687529
 20
206.1221259495263
 30
0.0
 40
13.00000011782848
100
AcDbArc
 50
336.5869750976562
 51
359.9999389648437
  0
LINE
  5
235
330
1F
100
AcDbEntity
  8
0-8
  6
Continuous
 62
     4
370
     9
100
AcDbLine
 10
46.48588013164568
 20
207.7224675696585
 30
0.0
 11
46.48588013164568
 21
208.8723352718333
 31
0.0
  0
LINE
  5
236
330
1F
100
AcDbEntity
  8
0-8
  6
Continuous
 62
     4
370
     9
100
AcDbLine
 10
45.28568953228524
 20
208.8723352718333
 30
0.0
 11
46.48588013164568
 21
208.8723352718333
 31
0.0
  0
LINE
  5
237
330
1F
100
AcDbEntity
  8
0-8
  6
Continuous
 62
     4
370
     9
100
AcDbLine
 10
45.28568953228524
 20
207.7224675696585
 30
0.0
 11
45.28568953228524
 21
208.8723352718333
 31
0.0
  0
LINE
  5
238
330
1F
100
AcDbEntity
  8
0-8
  6
Continuous
 62
     4
370
     9
100
AcDbLine
 10
50.84955422182129
 20
206.7224837121612
 30
0.0
 11
40.92187546186711
 21
206.7224837121612
 31
0.0
  0
LINE
  5
239
330
1F
100
AcDbEntity
  8
0-8
  6
Continuous
 62
     4
370
     9
100
AcDbLine
 10
-81.71425508832596
 20
207.7224675696585
 30
0.0
 11
-81.71425508832596
 21
208.8723352718333
 31
0.0
  0
LINE
  5
23A
330
1F
100
AcDbEntity
  8
0-8
  6
Continuous
 62
     4
370
     9
100
AcDbLine
 10
-80.51406448896543
 20
208.8723352718333
 30
0.0
 11
-81.71425508832596
 21
208.8723352718333
 31
0.0
  0
LINE
  5
23B
330
1F
100
AcDbEntity
  8
0-8
  6
Continuous
 62
     4
370
     9
100
AcDbLine
 10
-80.51406448896543
 20
207.7224675696585
 30
0.0
 11
-80.51406448896543
 21
208.8723352718333
 31
0.0
  0
LINE
  5
23C
330
1F
100
AcDbEntity
  8
0-8
  6
Continuous
 62
     4
370
     9
100
AcDbLine
 10
-86.07796417356207
 20
206.7224837121612
 30
0.0
 11
-76.15028541360797
 21
206.7224837121612
 31
0.0
  0
LINE
  5
23D
330
1F
100
AcDbEntity
  8
0-8
  6
Continuous
 62
     4
370
     9
100
AcDbLine
 10
-14.6142359058482
 20
258.2689307001822
 30
0.0
 11
-14.6142359058482
 21
262.3291451221063
 31
0.0
  0
LINE
  5
23E
330
1F
100
AcDbEntity
  8
0-8
  6
Continuous
 62
     4
370
     9
100
AcDbLine
 10
-20.11419961467421
 20
258.1211640566729
 30
0.0
 11
-20.11419961467421
 21
262.3291451221063
 31
0.0
  0
LINE
  5
23F
330
1F
100
AcDbEntity
  8
0-8
  6
Continuous
 62
     4
370
     9
100
AcDbLine
 10
-20.61424403601384
 20
258.268913202652
 30
0.0
 11
-20.61424403601384
 21
262.3291451221063
 31
0.0
  0
LINE
  5
240
330
1F
100
AcDbEntity
  8
0-8
  6
Continuous
 62
     4
370
     9
100
AcDbLine
 10
-15.11417534200589
 20
258.1211990517335
 30
0.0
 11
-15.11417534200589
 21
262.3291451221063
 31
0.0
  0
LINE
  5
241
330
1F
100
AcDbEntity
  8
0-8
  6
Continuous
 62
     4
370
     9
100
AcDbLine
 10
-14.6142359058482
 20
250.8451310307619
 30
0.0
 11
-14.6142359058482
 21
252.5253488767818
 31
0.0
  0
LINE
  5
242
330
1F
100
AcDbEntity
  8
0-8
  6
Continuous
 62
     4
370
     9
100
AcDbLine
 10
-15.11417534200589
 20
250.7219659148752
 30
0.0
 11
-15.11417534200589
 21
252.5549546980745
 31
0.0
  0
LINE
  5
243
330
1F
100
AcDbEntity
  8
0-8
  6
Continuous
 62
     4
370
     9
100
AcDbLine
 10
-20.61424403601384
 20
250.8451135332316
 30
0.0
 11
-20.61424403601384
 21
252.5253488767818
 31
0.0
  0
LINE
  5
244
330
1F
100
AcDbEntity
  8
0-8
  6
Continuous
 62
     4
370
     9
100
AcDbLine
 10
-20.11419961467421
 20
250.7219134222843
 30
0.0
 11
-20.11419961467421
 21
252.5549546980745
 31
0.0
  0
LINE
  5
245
330
1F
100
AcDbEntity
  8
0-8
  6
Continuous
 62
     4
370
     9
100
AcDbLine
 10
-12.79571758021927
 20
264.403407350818
 30
0.0
 11
-12.61423319579298
 21
262.3291451221063
 31
0.0
  0
LINE
  5
246
330
1F
100
AcDbEntity
  8
0-8
  6
Continuous
 62
     4
370
     9
100
AcDbLine
 10
-20.44045856492613
 20
266.2291346589367
 30
0.0
 11
-14.78812636211784
 21
266.2291346589367
 31
0.0
  0
LINE
  5
247
330
1F
100
AcDbEntity
  8
0-8
  6
Continuous
 62
     4
370
     9
100
AcDbLine
 10
-22.61421175100838
 20
262.3291451221063
 30
0.0
 11
-12.61423319579298
 21
262.3291451221063
 31
0.0
  0
LINE
  5
248
330
1F
100
AcDbEntity
  8
0-8
  6
Continuous
 62
     4
370
     9
100
AcDbLine
 10
-22.43272736658209
 20
264.403407350818
 30
0.0
 11
-22.61421175100838
 21
262.3291451221063
 31
0.0
  0
LINE
  5
249
330
1F
100
AcDbEntity
  8
躯体
  6
Continuous
 62
     6
370
     9
100
AcDbLine
 10
34.38066871906131
 20
221.7060913541399
 30
0.0
 11
37.13792954608528
 21
222.8481376602639
 31
0.0
  0
LINE
  5
24A
330
1F
100
AcDbEntity
  8
躯体
  6
Continuous
 62
     6
370
     9
100
AcDbLine
 10
24.45921907989922
 20
240.4174428445288
 30
0.0
 11
26.56942123587775
 21
242.5277849807499
 31
0.0
  0
LINE
  5
24B
330
1F
100
AcDbEntity
  8
躯体
  6
Continuous
 62
     6
370
     9
100
AcDbLine
 10
30.1713228462632
 20
231.8687269511627
 30
0.0
 11
32.92844369304473
 21
233.010790754817
 31
0.0
  0
LINE
  5
24C
330
1F
100
AcDbEntity
  8
躯体
  6
Continuous
 62
     6
370
     9
100
AcDbLine
 10
8.132203552932488
 20
253.9077062642508
 30
0.0
 11
9.27437234176876
 21
256.6649670912748
 31
0.0
  0
LINE
  5
24D
330
1F
100
AcDbEntity
  8
躯体
  6
Continuous
 62
     6
370
     9
100
AcDbLine
 10
16.68107692407148
 20
248.1956024978868
 30
0.0
 11
18.79134907017136
 21
250.3059621316382
 31
0.0
  0
LINE
  5
24E
330
1F
100
AcDbEntity
  8
躯体
  6
Continuous
 62
     6
370
     9
100
AcDbLine
 10
-2.030362053968979
 20
258.1172446098823
 30
0.0
 11
-0.8882632552539675
 21
260.8744354467851
 31
0.0
  0
LINE
  5
24F
330
1F
100
AcDbEntity
  8
躯体
  6
Continuous
 62
     6
370
     9
100
AcDbLine
 10
-33.19815288295364
 20
258.1171396247004
 30
0.0
 11
-34.34018169154739
 21
260.8744354467851
 31
0.0
  0
LINE
  5
250
330
1F
100
AcDbEntity
  8
躯体
  6
Continuous
 62
     6
370
     9
100
AcDbLine
 10
-51.90945188075175
 20
248.1955500052959
 30
0.0
 11
-54.01979401697272
 21
250.3059621316382
 31
0.0
  0
LINE
  5
251
330
1F
100
AcDbEntity
  8
躯体
  6
Continuous
 62
     6
370
     9
100
AcDbLine
 10
-43.36078847997646
 20
253.9077062642508
 30
0.0
 11
-44.50281728857021
 21
256.6648796036233
 31
0.0
  0
LINE
  5
252
330
1F
100
AcDbEntity
  8
躯体
  6
Continuous
 62
     6
370
     9
100
AcDbLine
 10
-65.39969780294348
 20
231.8686744585717
 30
0.0
 11
-68.15695862996745
 21
233.010790754817
 31
0.0
  0
LINE
  5
253
330
1F
100
AcDbEntity
  8
躯体
  6
Continuous
 62
     6
370
     9
100
AcDbLine
 10
-59.68766402670067
 20
240.4174428445288
 30
0.0
 11
-61.79800616292172
 21
242.5277324881588
 31
0.0
  0
LINE
  5
254
330
1F
100
AcDbEntity
  8
躯体
  6
Continuous
 62
     6
370
     9
100
AcDbLine
 10
49.99686457451492
 20
217.1221933474208
 30
0.0
 11
49.14095538163063
 21
216.1222269874538
 31
0.0
  0
LINE
  5
255
330
1F
100
AcDbEntity
  8
躯体
  6
Continuous
 62
     6
370
     9
100
AcDbLine
 10
-85.22530952131638
 20
217.1221933474208
 30
0.0
 11
-84.36940032843208
 21
216.1222269874538
 31
0.0
  0
LINE
  5
256
330
1F
100
AcDbEntity
  8
躯体
  6
Continuous
 62
     6
370
     9
100
AcDbLine
 10
-12.11425876457471
 20
260.1229515148202
 30
0.0
 11
-12.11425876457471
 21
263.107400275453
 31
0.0
  0
LINE
  5
257
330
1F
100
AcDbEntity
  8
躯体
  6
Continuous
 62
     6
370
     9
100
AcDbLine
 10
-23.11422117728733
 20
260.1229515148202
 30
0.0
 11
-23.11422117728733
 21
263.107400275453
 31
0.0
  0
LINE
  5
258
330
1F
100
AcDbEntity
  8
躯体
  6
Continuous
 62
     6
370
     9
100
AcDbLine
 10
-69.60914866092335
 20
221.7060913541399
 30
0.0
 11
-72.36640948794732
 21
222.8481376602639
 31
0.0
  0
LINE
  5
259
330
1F
100
AcDbEntity
  8
躯体
  6
Continuous
 62
     6
370
     9
100
AcDbLine
 10
38.66427411051578
 20
216.1222269874538
 30
0.0
 11
49.14095538163063
 21
216.1222269874538
 31
0.0
  0
LINE
  5
25A
330
1F
100
AcDbEntity
  8
躯体
  6
Continuous
 62
     6
370
     9
100
AcDbLine
 10
38.56908754560263
 20
217.1221933474208
 30
0.0
 11
49.99686457451492
 21
217.1221933474208
 31
0.0
  0
LINE
  5
25B
330
1F
100
AcDbEntity
  8
躯体
  6
Continuous
 62
     6
370
     9
100
AcDbLine
 10
39.1774416795916
 20
212.6012689523051
 30
0.0
 11
36.68670323432435
 21
212.010184880737
 31
0.0
  0
LINE
  5
25C
330
1F
100
AcDbEntity
  8
躯体
  6
Continuous
 62
     6
370
     9
100
AcDbLine
 10
38.56908754560263
 20
217.1221933474208
 30
0.0
 11
38.66427411051578
 21
216.1222269874538
 31
0.0
  0
LINE
  5
25D
330
1F
100
AcDbEntity
  8
躯体
  6
Continuous
 62
     6
370
     9
100
AcDbLine
 10
-73.79753249240409
 20
217.1221933474208
 30
0.0
 11
-85.22530952131638
 21
217.1221933474208
 31
0.0
  0
LINE
  5
25E
330
1F
100
AcDbEntity
  8
躯体
  6
Continuous
 62
     6
370
     9
100
AcDbLine
 10
-73.79753249240409
 20
217.1221933474208
 30
0.0
 11
-73.89275405237782
 21
216.1222269874538
 31
0.0
  0
LINE
  5
25F
330
1F
100
AcDbEntity
  8
躯体
  6
Continuous
 62
     6
370
     9
100
AcDbLine
 10
-73.89275405237782
 20
216.1222269874538
 30
0.0
 11
-84.36940032843208
 21
216.1222269874538
 31
0.0
  0
LINE
  5
260
330
1F
100
AcDbEntity
  8
躯体
  6
Continuous
 62
     6
370
     9
100
AcDbLine
 10
-74.40588662639297
 20
212.6012689523051
 30
0.0
 11
-71.91518317618639
 21
212.010184880737
 31
0.0
  0
LINE
  5
261
330
1F
100
AcDbEntity
  8
躯体
  6
Continuous
 62
     6
370
     9
100
AcDbLine
 10
48.88577139951799
 20
210.1222013597579
 30
0.0
 11
49.70031643073779
 21
210.1222013597579
 31
0.0
  0
LINE
  5
262
330
1F
100
AcDbEntity
  8
躯体
  6
Continuous
 62
     6
370
     9
100
AcDbLine
 10
45.8857148418442
 20
211.1221852172552
 30
0.0
 11
48.6144896895155
 21
211.1221852172552
 31
0.0
  0
LINE
  5
263
330
1F
100
AcDbEntity
  8
躯体
  6
Continuous
 62
     6
370
     9
100
AcDbLine
 10
-81.11422977876691
 20
211.1221852172552
 30
0.0
 11
-83.84300462643822
 21
211.1221852172552
 31
0.0
  0
LINE
  5
264
330
1F
100
AcDbEntity
  8
躯体
  6
Continuous
 62
     6
370
     9
100
AcDbLine
 10
-84.11425134138003
 20
210.1222013597579
 30
0.0
 11
-84.92879637259983
 21
210.1222013597579
 31
0.0
  0
ARC
  5
265
330
1F
100
AcDbEntity
  8
0-8
  6
Continuous
 62
     4
370
     9
100
AcDbCircle
 10
44.28574066984851
 20
207.7224675696585
 30
0.0
 40
0.9999999880330441
100
AcDbArc
 50
270.0
 51
0.0
  0
ARC
  5
266
330
1F
100
AcDbEntity
  8
0-8
  6
Continuous
 62
     4
370
     9
100
AcDbCircle
 10
47.48589898420366
 20
207.7224675696585
 30
0.0
 40
0.9999999880330441
100
AcDbArc
 50
180.0
 51
270.0
  0
ARC
  5
267
330
1F
100
AcDbEntity
  8
0-8
  6
Continuous
 62
     4
370
     9
100
AcDbCircle
 10
45.88578483196546
 20
206.1223534174203
 30
0.0
 40
5.000000213564133
100
AcDbArc
 50
0.0
 51
180.0
  0
ARC
  5
268
330
1F
100
AcDbEntity
  8
0-8
  6
Continuous
 62
     4
370
     9
100
AcDbCircle
 10
-79.5141156265287
 20
207.7224675696585
 30
0.0
 40
0.9999999880330441
100
AcDbArc
 50
180.0
 51
270.0
  0
ARC
  5
269
330
1F
100
AcDbEntity
  8
0-8
  6
Continuous
 62
     4
370
     9
100
AcDbCircle
 10
-82.71430893594444
 20
207.7224675696585
 30
0.0
 40
0.9999999880330441
100
AcDbArc
 50
270.0
 51
0.0
  0
ARC
  5
26A
330
1F
100
AcDbEntity
  8
0-8
  6
Continuous
 62
     4
370
     9
100
AcDbCircle
 10
-81.11415978864565
 20
206.1223534174203
 30
0.0
 40
5.000000213564133
100
AcDbArc
 50
0.0
 51
180.0
  0
ELLIPSE
  5
26B
330
1F
100
AcDbEntity
  8
0-8
  6
Continuous
 62
     4
370
     9
100
AcDbEllipse
 10
-17.61422247340072
 20
258.268913202652
 30
0.0
 11
-2.999871466487905
 21
-2.716307928146824E-5
 31
0.0
210
0.0
220
0.0
230
1.0
 40
0.0891
 41
0.0
 42
3.141592653589792
  0
ELLIPSE
  5
26C
330
1F
100
AcDbEntity
  8
0-8
  6
Continuous
 62
     4
370
     9
100
AcDbEllipse
 10
-17.61422247340072
 20
250.8451310307619
 30
0.0
 11
-2.999871466527479
 21
-2.236959470239207E-5
 31
0.0
210
0.0
220
0.0
230
1.0
 40
0.0743
 41
0.0
 42
3.141592653589792
  0
ARC
  5
26D
330
1F
100
AcDbEntity
  8
0-8
  6
Continuous
 62
     4
370
     9
100
AcDbCircle
 10
-14.78812636211784
 20
264.2291319488815
 30
0.0
 40
1.999999976066088
100
AcDbArc
 50
5.000015258789066
 51
90.0
  0
ARC
  5
26E
330
1F
100
AcDbEntity
  8
0-8
  6
Continuous
 62
     4
370
     9
100
AcDbCircle
 10
-20.44045856492613
 20
264.2291319488815
 30
0.0
 40
1.999999976066088
100
AcDbArc
 50
90.0
 51
174.9999847412109
  0
ARC
  5
26F
330
1F
100
AcDbEntity
  8
躯体
  6
Continuous
 62
     6
370
     9
100
AcDbCircle
 10
-17.61422247340072
 20
206.1222134371778
 30
0.0
 40
46.49999739304472
100
AcDbArc
 50
0.0
 51
180.0
  0
ARC
  5
270
330
1F
100
AcDbEntity
  8
躯体
  6
Continuous
 62
     6
370
     9
100
AcDbCircle
 10
-17.61422247340072
 20
206.1222134371778
 30
0.0
 40
51.5200169684804
100
AcDbArc
 50
0.0
 51
180.0
  0
ARC
  5
271
330
1F
100
AcDbEntity
  8
躯体
  6
Continuous
 62
     6
370
     9
100
AcDbCircle
 10
34.95479768375419
 20
220.3202694556684
 30
0.0
 40
1.499999982049566
100
AcDbArc
 50
112.5001220703125
 51
195.1146087646485
  0
ARC
  5
272
330
1F
100
AcDbEntity
  8
躯体
  6
Continuous
 62
     6
370
     9
100
AcDbCircle
 10
-17.61422247340072
 20
206.1222134371778
 30
0.0
 40
52.95253977536234
100
AcDbArc
 50
29.88595581054689
 51
37.61404418945314
  0
ARC
  5
273
330
1F
100
AcDbEntity
  8
躯体
  6
Continuous
 62
     6
370
     9
100
AcDbCircle
 10
25.51984937746796
 20
239.3567425568388
 30
0.0
 40
1.499999982049566
100
AcDbArc
 50
135.0001220703125
 51
217.6146087646485
  0
ARC
  5
274
330
1F
100
AcDbEntity
  8
躯体
  6
Continuous
 62
     6
370
     9
100
AcDbCircle
 10
29.59719388157033
 20
233.2545663471644
 30
0.0
 40
1.499999982049566
100
AcDbArc
 50
209.8852691650391
 51
292.5000000000001
  0
ARC
  5
275
330
1F
100
AcDbEntity
  8
躯体
  6
Continuous
 62
     6
370
     9
100
AcDbCircle
 10
-17.61422247340072
 20
206.1222134371778
 30
0.0
 40
52.95253977536234
100
AcDbArc
 50
52.38595581054689
 51
60.11404418945314
  0
ARC
  5
276
330
1F
100
AcDbEntity
  8
躯体
  6
Continuous
 62
     6
370
     9
100
AcDbCircle
 10
9.51814793411615
 20
253.3335772995579
 30
0.0
 40
1.499999982049566
100
AcDbArc
 50
157.5001220703125
 51
240.1146087646484
  0
ARC
  5
277
330
1F
100
AcDbEntity
  8
躯体
  6
Continuous
 62
     6
370
     9
100
AcDbCircle
 10
15.62030664626023
 20
249.2563027855768
 30
0.0
 40
1.499999982049566
100
AcDbArc
 50
232.3852691650391
 51
315.0
  0
ARC
  5
278
330
1F
100
AcDbEntity
  8
躯体
  6
Continuous
 62
     6
370
     9
100
AcDbCircle
 10
-17.61422247340072
 20
206.1222134371778
 30
0.0
 40
52.95253977536234
100
AcDbArc
 50
74.88595581054689
 51
82.61404418945314
  0
ARC
  5
279
330
1F
100
AcDbEntity
  8
躯体
  6
Continuous
 62
     6
370
     9
100
AcDbCircle
 10
-10.61423048573777
 20
260.1229515148202
 30
0.0
 40
1.499999982049566
100
AcDbArc
 50
180.0001220703124
 51
262.6146087646484
  0
ARC
  5
27A
330
1F
100
AcDbEntity
  8
躯体
  6
Continuous
 62
     6
370
     9
100
AcDbCircle
 10
-3.416166454910119
 20
258.6912160968025
 30
0.0
 40
1.499999982049566
100
AcDbArc
 50
254.885269165039
 51
337.5000000000001
  0
ARC
  5
27B
330
1F
100
AcDbEntity
  8
躯体
  6
Continuous
 62
     6
370
     9
100
AcDbCircle
 10
-17.61422247340072
 20
206.1222134371778
 30
0.0
 40
52.95253977536234
100
AcDbArc
 50
97.38595581054695
 51
105.1140441894532
  0
ARC
  5
27C
330
1F
100
AcDbEntity
  8
躯体
  6
Continuous
 62
     6
370
     9
100
AcDbCircle
 10
-31.81227849189133
 20
258.6912160968025
 30
0.0
 40
1.499999982049566
100
AcDbArc
 50
202.5001220703125
 51
285.1146087646484
  0
ARC
  5
27D
330
1F
100
AcDbEntity
  8
躯体
  6
Continuous
 62
     6
370
     9
100
AcDbCircle
 10
-24.61421446106359
 20
260.1229515148202
 30
0.0
 40
1.499999982049566
100
AcDbArc
 50
277.3852691650391
 51
0.0
  0
ARC
  5
27E
330
1F
100
AcDbEntity
  8
躯体
  6
Continuous
 62
     6
370
     9
100
AcDbCircle
 10
-17.61422247340072
 20
206.1222134371778
 30
0.0
 40
52.95253977536234
100
AcDbArc
 50
119.8859558105468
 51
127.6140441894531
  0
ARC
  5
27F
330
1F
100
AcDbEntity
  8
躯体
  6
Continuous
 62
     6
370
     9
100
AcDbCircle
 10
-50.84875159306167
 20
249.2562152979253
 30
0.0
 40
1.499999982049566
100
AcDbArc
 50
225.0001220703125
 51
307.6146087646484
  0
ARC
  5
280
330
1F
100
AcDbEntity
  8
躯体
  6
Continuous
 62
     6
370
     9
100
AcDbCircle
 10
-44.7465928809176
 20
253.3335772995579
 30
0.0
 40
1.499999982049566
100
AcDbArc
 50
299.8852691650391
 51
22.5
  0
ARC
  5
281
330
1F
100
AcDbEntity
  8
躯体
  6
Continuous
 62
     6
370
     9
100
AcDbCircle
 10
-17.61422247340072
 20
206.1222134371778
 30
0.0
 40
52.95253977536234
100
AcDbArc
 50
142.3859558105468
 51
150.1140441894531
  0
ARC
  5
282
330
1F
100
AcDbEntity
  8
躯体
  6
Continuous
 62
     6
370
     9
100
AcDbCircle
 10
-64.82563882837178
 20
233.2545663471644
 30
0.0
 40
1.499999982049566
100
AcDbArc
 50
247.5001220703125
 51
330.1146087646484
  0
ARC
  5
283
330
1F
100
AcDbEntity
  8
躯体
  6
Continuous
 62
     6
370
     9
100
AcDbCircle
 10
-60.74836431439075
 20
239.3567425568388
 30
0.0
 40
1.499999982049566
100
AcDbArc
 50
322.3852691650391
 51
45.0
  0
ARC
  5
284
330
1F
100
AcDbEntity
  8
躯体
  6
Continuous
 62
     6
370
     9
100
AcDbCircle
 10
36.34032212421028
 20
213.469653884304
 30
0.0
 40
1.499999982049566
100
AcDbArc
 50
187.7545776367188
 51
283.3511962890624
  0
ARC
  5
285
330
1F
100
AcDbEntity
  8
躯体
  6
Continuous
 62
     6
370
     9
100
AcDbCircle
 10
-17.61422247340072
 20
206.1222134371778
 30
0.0
 40
52.95253977536234
100
AcDbArc
 50
7.754745483398433
 51
15.11404418945312
  0
ARC
  5
286
330
1F
100
AcDbEntity
  8
躯体
  6
Continuous
 62
     6
370
     9
100
AcDbCircle
 10
-70.18327762561631
 20
220.3202694556684
 30
0.0
 40
1.499999982049566
100
AcDbArc
 50
344.8853912353516
 51
67.4998779296875
  0
ARC
  5
287
330
1F
100
AcDbEntity
  8
躯体
  6
Continuous
 62
     6
370
     9
100
AcDbCircle
 10
-71.56880206607232
 20
213.469653884304
 30
0.0
 40
1.499999982049566
100
AcDbArc
 50
256.6488037109376
 51
352.2454223632812
  0
ARC
  5
288
330
1F
100
AcDbEntity
  8
躯体
  6
Continuous
 62
     6
370
     9
100
AcDbCircle
 10
-17.61422247340072
 20
206.1222134371778
 30
0.0
 40
52.95253977536234
100
AcDbArc
 50
164.8859558105469
 51
172.2452545166016
  0
ARC
  5
289
330
1F
100
AcDbEntity
  8
躯体
  6
Continuous
 62
     6
370
     9
100
AcDbCircle
 10
-17.6142574684614
 20
206.1222134371778
 30
0.0
 40
57.16005715624245
100
AcDbArc
 50
0.0
 51
10.07560729980469
  0
ARC
  5
28A
330
1F
100
AcDbEntity
  8
躯体
  6
Continuous
 62
     6
370
     9
100
AcDbCircle
 10
-17.61422247340072
 20
206.1222134371778
 30
0.0
 40
57.16005715624245
100
AcDbArc
 50
169.9243927001953
 51
180.0
  0
ARC
  5
28B
330
1F
100
AcDbEntity
  8
躯体
  6
Continuous
 62
     6
370
     9
100
AcDbCircle
 10
49.70031643073779
 20
211.1221852172552
 30
0.0
 40
0.9999999880330441
100
AcDbArc
 50
270.0
 51
4.247619628906258
  0
ARC
  5
28C
330
1F
100
AcDbEntity
  8
躯体
  6
Continuous
 62
     6
370
     9
100
AcDbCircle
 10
48.6144896895155
 20
212.1221865722828
 30
0.0
 40
0.9999999880330441
100
AcDbArc
 50
270.0
 51
5.177093505859375
  0
ARC
  5
28D
330
1F
100
AcDbEntity
  8
躯体
  6
Continuous
 62
     6
370
     9
100
AcDbCircle
 10
-17.61422247340072
 20
206.1222134371778
 30
0.0
 40
67.49999960232886
100
AcDbArc
 50
5.176574707031249
 51
8.519622802734373
  0
ARC
  5
28E
330
1F
100
AcDbEntity
  8
躯体
  6
Continuous
 62
     6
370
     9
100
AcDbCircle
 10
-84.92879637259983
 20
211.1221852172552
 30
0.0
 40
0.9999999880330441
100
AcDbArc
 50
175.7523803710938
 51
270.0
  0
ARC
  5
28F
330
1F
100
AcDbEntity
  8
躯体
  6
Continuous
 62
     6
370
     9
100
AcDbCircle
 10
-83.84300462643822
 20
212.1221865722828
 30
0.0
 40
0.9999999880330441
100
AcDbArc
 50
174.8229064941407
 51
270.0
  0
ARC
  5
290
330
1F
100
AcDbEntity
  8
躯体
  6
Continuous
 62
     6
370
     9
100
AcDbCircle
 10
-17.61422247340072
 20
206.1222134371778
 30
0.0
 40
67.49999960232886
100
AcDbArc
 50
171.4803771972657
 51
174.8234252929688
  0
ARC
  5
291
330
1F
100
AcDbEntity
  8
躯体
  6
Continuous
 62
     6
370
     9
100
AcDbCircle
 10
-17.61422247340072
 20
206.1222134371778
 30
0.0
 40
68.50000533173903
100
AcDbArc
 50
4.248001098632804
 51
175.7519989013672
  0
ARC
  5
292
330
1F
100
AcDbEntity
  8
躯体
  6
Continuous
 62
     6
370
     9
100
AcDbCircle
 10
-17.61422247340072
 20
206.1222134371778
 30
0.0
 40
57.25000758520884
100
AcDbArc
 50
11.07766723632812
 51
85.06263732910156
  0
ARC
  5
293
330
1F
100
AcDbEntity
  8
躯体
  6
Continuous
 62
     6
370
     9
100
AcDbCircle
 10
-17.61422247340072
 20
206.1222134371778
 30
0.0
 40
57.25000758520884
100
AcDbArc
 50
94.93736267089851
 51
168.9223327636719
  0
LINE
  5
294
330
1F
100
AcDbEntity
  8
通り芯
  6
JWW_CENTER2
 62
     3
370
     9
100
AcDbLine
 10
45.8857148418442
 20
203.3416291666705
 30
0.0
 11
45.8857148418442
 21
215.0393923239154
 31
0.0
  0
LINE
  5
295
330
1F
100
AcDbEntity
  8
通り芯
  6
JWW_CENTER2
 62
     3
370
     9
100
AcDbLine
 10
-81.11415978864565
 20
204.3928260328994
 30
0.0
 11
-81.11415978864565
 21
215.0393923239154
 31
0.0
  0
LINE
  5
296
330
1F
100
AcDbEntity
  8
躯体
  6
Continuous
 62
     2
370
     9
100
AcDbLine
 10
-69.15101082468796
 20
252.0020939814795
 30
0.0
 11
-73.04610105303011
 21
255.8972192048823
 31
0.0
  0
LINE
  5
297
330
1F
100
AcDbEntity
  8
躯体
  6
Continuous
 62
     2
370
     9
100
AcDbLine
 10
-83.11573727642914
 20
227.8143829506593
 30
0.0
 11
-88.43657876742142
 21
229.2400904694836
 31
0.0
  0
LINE
  5
298
330
1F
100
AcDbEntity
  8
躯体
  6
Continuous
 62
     2
370
     9
100
AcDbLine
 10
-84.08093604366042
 20
229.6259110129274
 30
0.0
 11
-86.98722333637656
 21
230.404656097123
 31
0.0
  0
LINE
  5
299
330
1F
100
AcDbEntity
  8
躯体
  6
Continuous
 62
     2
370
     9
100
AcDbLine
 10
-73.32994598979863
 20
254.059733556392
 30
0.0
 11
-73.04610105303011
 21
255.8972192048823
 31
0.0
  0
LINE
  5
29A
330
1F
100
AcDbEntity
  8
躯体
  6
Continuous
 62
     2
370
     9
100
AcDbLine
 10
-86.98722333637656
 20
230.404656097123
 30
0.0
 11
-88.43657876742142
 21
229.2400904694836
 31
0.0
  0
LINE
  5
29B
330
1F
100
AcDbEntity
  8
躯体
  6
Continuous
 62
     2
370
     9
100
AcDbLine
 10
-84.08093604366042
 20
229.6259110129274
 30
0.0
 11
-83.11573727642914
 21
227.8143829506593
 31
0.0
  0
LINE
  5
29C
330
1F
100
AcDbEntity
  8
躯体
  6
Continuous
 62
     2
370
     9
100
AcDbLine
 10
-39.30641823317762
 20
271.6237544865018
 30
0.0
 11
-40.73215199829739
 21
276.9445697311986
 31
0.0
  0
LINE
  5
29D
330
1F
100
AcDbEntity
  8
躯体
  6
Continuous
 62
     2
370
     9
100
AcDbLine
 10
-63.49412926399781
 20
257.6589317983438
 30
0.0
 11
-67.3892544874006
 21
261.5540570217466
 31
0.0
  0
LINE
  5
29E
330
1F
100
AcDbEntity
  8
躯体
  6
Continuous
 62
     2
370
     9
100
AcDbLine
 10
-63.42427912298065
 20
259.71038599629
 30
0.0
 11
-65.5517688389103
 21
261.8379107072803
 31
0.0
  0
LINE
  5
29F
330
1F
100
AcDbEntity
  8
躯体
  6
Continuous
 62
     2
370
     9
100
AcDbLine
 10
-41.11797254174122
 20
272.5889095099072
 30
0.0
 11
-41.89668263087609
 21
275.4951880538582
 31
0.0
  0
LINE
  5
2A0
330
1F
100
AcDbEntity
  8
躯体
  6
Continuous
 62
     2
370
     9
100
AcDbLine
 10
-41.11797254174122
 20
272.5889095099072
 30
0.0
 11
-39.30641823317762
 21
271.6237194914411
 31
0.0
  0
LINE
  5
2A1
330
1F
100
AcDbEntity
  8
躯体
  6
Continuous
 62
     2
370
     9
100
AcDbLine
 10
-41.89668263087609
 20
275.4951880538582
 30
0.0
 11
-40.73215199829739
 21
276.9445697311986
 31
0.0
  0
LINE
  5
2A2
330
1F
100
AcDbEntity
  8
躯体
  6
Continuous
 62
     2
370
     9
100
AcDbLine
 10
-65.5517688389103
 20
261.8379107072803
 30
0.0
 11
-67.3892544874006
 21
261.5540570217466
 31
0.0
  0
LINE
  5
2A3
330
1F
100
AcDbEntity
  8
躯体
  6
Continuous
 62
     2
370
     9
100
AcDbLine
 10
-63.42427912298065
 20
259.71038599629
 30
0.0
 11
-63.49412926399781
 21
257.6589317983438
 31
0.0
  0
LINE
  5
2A4
330
1F
100
AcDbEntity
  8
躯体
  6
Continuous
 62
     2
370
     9
100
AcDbLine
 10
-3.649461026598864
 20
273.6943072387867
 30
0.0
 11
-2.223762256539692
 21
279.0151312322487
 31
0.0
  0
LINE
  5
2A5
330
1F
100
AcDbEntity
  8
躯体
  6
Continuous
 62
     2
370
     9
100
AcDbLine
 10
-31.57901891526317
 20
273.6942722437261
 30
0.0
 11
-33.00475268038294
 21
279.0151312322487
 31
0.0
  0
LINE
  5
2A6
330
1F
100
AcDbEntity
  8
躯体
  6
Continuous
 62
     2
370
     9
100
AcDbLine
 10
-30.49280722837398
 20
275.4359326674468
 30
0.0
 11
-31.27148232244827
 21
278.3421674675719
 31
0.0
  0
LINE
  5
2A7
330
1F
100
AcDbEntity
  8
躯体
  6
Continuous
 62
     2
370
     9
100
AcDbLine
 10
-4.735707708548638
 20
275.4359326674468
 30
0.0
 11
-3.956997619413733
 21
278.3421674675719
 31
0.0
  0
LINE
  5
2A8
330
1F
100
AcDbEntity
  8
躯体
  6
Continuous
 62
     2
370
     9
100
AcDbLine
 10
-4.735707708548638
 20
275.4359326674468
 30
0.0
 11
-3.649461026598864
 21
273.6942722437261
 31
0.0
  0
LINE
  5
2A9
330
1F
100
AcDbEntity
  8
躯体
  6
Continuous
 62
     2
370
     9
100
AcDbLine
 10
-3.956997619413733
 20
278.3421674675719
 30
0.0
 11
-2.223762256539692
 21
279.0151312322487
 31
0.0
  0
LINE
  5
2AA
330
1F
100
AcDbEntity
  8
躯体
  6
Continuous
 62
     2
370
     9
100
AcDbLine
 10
-31.27148232244827
 20
278.3421674675719
 30
0.0
 11
-33.00475268038294
 21
279.0151312322487
 31
0.0
  0
LINE
  5
2AB
330
1F
100
AcDbEntity
  8
躯体
  6
Continuous
 62
     2
370
     9
100
AcDbLine
 10
-30.49280722837398
 20
275.4359326674468
 30
0.0
 11
-31.57901891526317
 21
273.6942722437261
 31
0.0
  0
LINE
  5
2AC
330
1F
100
AcDbEntity
  8
躯体
  6
Continuous
 62
     2
370
     9
100
AcDbLine
 10
4.077938291315625
 20
271.6237194914411
 30
0.0
 11
5.503654558905075
 21
276.9445434849031
 31
0.0
  0
LINE
  5
2AD
330
1F
100
AcDbEntity
  8
躯体
  6
Continuous
 62
     2
370
     9
100
AcDbLine
 10
5.889440107288257
 20
272.5889095099072
 30
0.0
 11
6.668202689014115
 21
275.4951880538582
 31
0.0
  0
LINE
  5
2AE
330
1F
100
AcDbEntity
  8
躯体
  6
Continuous
 62
     2
370
     9
100
AcDbLine
 10
28.19574668852768
 20
259.71038599629
 30
0.0
 11
30.32330639457861
 21
261.8379107072803
 31
0.0
  0
LINE
  5
2AF
330
1F
100
AcDbEntity
  8
躯体
  6
Continuous
 62
     2
370
     9
100
AcDbLine
 10
30.32330639457861
 20
261.8379107072803
 30
0.0
 11
32.16075704800825
 21
261.5540570217466
 31
0.0
  0
LINE
  5
2B0
330
1F
100
AcDbEntity
  8
躯体
  6
Continuous
 62
     2
370
     9
100
AcDbLine
 10
6.668202689014115
 20
275.4951880538582
 30
0.0
 11
5.503654558905075
 21
276.9445434849031
 31
0.0
  0
LINE
  5
2B1
330
1F
100
AcDbEntity
  8
躯体
  6
Continuous
 62
     2
370
     9
100
AcDbLine
 10
5.889440107288257
 20
272.5889095099072
 30
0.0
 11
4.077938291315625
 21
271.6237194914411
 31
0.0
  0
LINE
  5
2B2
330
1F
100
AcDbEntity
  8
躯体
  6
Continuous
 62
     2
370
     9
100
AcDbLine
 10
-85.18623753612317
 20
220.0869748839797
 30
0.0
 11
-90.50709652464573
 21
221.5126999003343
 31
0.0
  0
LINE
  5
2B3
330
1F
100
AcDbEntity
  8
躯体
  6
Continuous
 62
     2
370
     9
100
AcDbLine
 10
-86.9279417036696
 20
219.0007456995602
 30
0.0
 11
-89.8341765037948
 21
219.7794382911648
 31
0.0
  0
LINE
  5
2B4
330
1F
100
AcDbEntity
  8
躯体
  6
Continuous
 62
     2
370
     9
100
AcDbLine
 10
-89.8341765037948
 20
219.7794382911648
 30
0.0
 11
-90.50709652464573
 21
221.5126999003343
 31
0.0
  0
LINE
  5
2B5
330
1F
100
AcDbEntity
  8
躯体
  6
Continuous
 62
     2
370
     9
100
AcDbLine
 10
-86.9279417036696
 20
219.0007456995602
 30
0.0
 11
-85.18623753612317
 21
220.0869748839797
 31
0.0
  0
LINE
  5
2B6
330
1F
100
AcDbEntity
  8
躯体
  6
Continuous
 62
     2
370
     9
100
AcDbLine
 10
-73.32992849226834
 20
254.0597423051571
 30
0.0
 11
-71.20240378127805
 21
251.9322088454017
 31
0.0
  0
LINE
  5
2B7
330
1F
100
AcDbEntity
  8
躯体
  6
Continuous
 62
     2
370
     9
100
AcDbLine
 10
-71.20240378127805
 20
251.9322088454017
 30
0.0
 11
-69.15095833209699
 21
252.0020939814795
 31
0.0
  0
ARC
  5
2B8
330
1F
100
AcDbEntity
  8
躯体
  6
Continuous
 62
     2
370
     9
100
AcDbCircle
 10
-17.61422247340072
 20
206.1221959396475
 30
0.0
 40
74.49998721560915
100
AcDbArc
 50
138.0777587890625
 51
161.9222259521485
  0
ARC
  5
2B9
330
1F
100
AcDbEntity
  8
躯体
  6
Continuous
 62
     2
370
     9
100
AcDbCircle
 10
-17.61422247340072
 20
206.1221959396475
 30
0.0
 40
69.00000600925283
100
AcDbArc
 50
138.3233489990234
 51
161.6766357421875
  0
ARC
  5
2BA
330
1F
100
AcDbEntity
  8
躯体
  6
Continuous
 62
     2
370
     9
100
AcDbCircle
 10
-17.61422247340072
 20
206.1221959396475
 30
0.0
 40
73.49998586058155
100
AcDbArc
 50
139.2914428710937
 51
160.7085266113281
  0
ARC
  5
2BB
330
1F
100
AcDbEntity
  8
躯体
  6
Continuous
 62
     2
370
     9
100
AcDbCircle
 10
-17.61422247340072
 20
206.1221959396475
 30
0.0
 40
70.50000366741165
100
AcDbArc
 50
139.4744262695313
 51
160.5255584716797
  0
ARC
  5
2BC
330
1F
100
AcDbEntity
  8
躯体
  6
Continuous
 62
     2
370
     9
100
AcDbCircle
 10
-17.61422247340072
 20
206.1221959396475
 30
0.0
 40
74.49998721560915
100
AcDbArc
 50
108.0777587890625
 51
131.9222259521484
  0
ARC
  5
2BD
330
1F
100
AcDbEntity
  8
躯体
  6
Continuous
 62
     2
370
     9
100
AcDbCircle
 10
-17.61422247340072
 20
206.1221959396475
 30
0.0
 40
73.49998586058155
100
AcDbArc
 50
109.2914428710938
 51
130.7085266113282
  0
ARC
  5
2BE
330
1F
100
AcDbEntity
  8
躯体
  6
Continuous
 62
     2
370
     9
100
AcDbCircle
 10
-17.61422247340072
 20
206.1221959396475
 30
0.0
 40
70.50000366741165
100
AcDbArc
 50
109.4744262695312
 51
130.5255584716797
  0
ARC
  5
2BF
330
1F
100
AcDbEntity
  8
躯体
  6
Continuous
 62
     2
370
     9
100
AcDbCircle
 10
-17.61422247340072
 20
206.1221959396475
 30
0.0
 40
74.49998721560915
100
AcDbArc
 50
78.07774353027344
 51
101.9222106933594
  0
ARC
  5
2C0
330
1F
100
AcDbEntity
  8
躯体
  6
Continuous
 62
     2
370
     9
100
AcDbCircle
 10
-17.61422247340072
 20
206.1221959396475
 30
0.0
 40
73.49998586058155
100
AcDbArc
 50
79.29144287109374
 51
100.7085266113281
  0
ARC
  5
2C1
330
1F
100
AcDbEntity
  8
躯体
  6
Continuous
 62
     2
370
     9
100
AcDbCircle
 10
-17.61422247340072
 20
206.1221959396475
 30
0.0
 40
70.50000366741165
100
AcDbArc
 50
79.47442626953126
 51
100.5255584716797
  0
ARC
  5
2C2
330
1F
100
AcDbEntity
  8
躯体
  6
Continuous
 62
     2
370
     9
100
AcDbCircle
 10
-17.61427496599168
 20
206.1221959396475
 30
0.0
 40
74.49998721560915
100
AcDbArc
 50
48.07775878906249
 51
71.92222595214844
  0
ARC
  5
2C3
330
1F
100
AcDbEntity
  8
躯体
  6
Continuous
 62
     2
370
     9
100
AcDbCircle
 10
-17.61427496599168
 20
206.1221959396475
 30
0.0
 40
73.49998586058155
100
AcDbArc
 50
49.29144287109374
 51
70.70852661132811
  0
ARC
  5
2C4
330
1F
100
AcDbEntity
  8
躯体
  6
Continuous
 62
     2
370
     9
100
AcDbCircle
 10
-17.61427496599168
 20
206.1221959396475
 30
0.0
 40
70.50000366741165
100
AcDbArc
 50
49.47442626953125
 51
70.52555847167967
  0
ARC
  5
2C5
330
1F
100
AcDbEntity
  8
躯体
  6
Continuous
 62
     2
370
     9
100
AcDbCircle
 10
-17.61422247340072
 20
206.1221959396475
 30
0.0
 40
69.00000600925283
100
AcDbArc
 50
95.13613891601568
 51
101.6766204833985
  0
ARC
  5
2C6
330
1F
100
AcDbEntity
  8
躯体
  6
Continuous
 62
     2
370
     9
100
AcDbCircle
 10
-17.61422247340072
 20
206.1221959396475
 30
0.0
 40
69.29997929458912
100
AcDbArc
 50
90.0
 51
93.40725708007812
  0
ARC
  5
2C7
330
1F
100
AcDbEntity
  8
躯体
  6
Continuous
 62
     2
370
     9
100
AcDbCircle
 10
-17.61422247340072
 20
206.1221959396475
 30
0.0
 40
69.29997929458912
100
AcDbArc
 50
86.59274291992186
 51
89.99999999999999
  0
ARC
  5
2C8
330
1F
100
AcDbEntity
  8
躯体
  6
Continuous
 62
     2
370
     9
100
AcDbCircle
 10
-17.61422247340072
 20
206.1221959396475
 30
0.0
 40
69.00000600925283
100
AcDbArc
 50
78.32337951660156
 51
84.86386108398436
  0
ARC
  5
2C9
330
1F
100
AcDbEntity
  8
躯体
  6
Continuous
 62
     2
370
     9
100
AcDbCircle
 10
-17.61422247340072
 20
206.1221959396475
 30
0.0
 40
69.00000600925283
100
AcDbArc
 50
108.3233337402343
 51
131.6766204833984
  0
ARC
  5
2CA
330
1F
100
AcDbEntity
  8
躯体
  6
Continuous
 62
     2
370
     9
100
AcDbCircle
 10
-17.61416998080977
 20
206.1221959396475
 30
0.0
 40
68.99998413733994
100
AcDbArc
 50
168.3233489990234
 51
171.4163208007812
  0
ARC
  5
2CB
330
1F
100
AcDbEntity
  8
躯体
  6
Continuous
 62
     2
370
     9
100
AcDbCircle
 10
-17.61422247340072
 20
206.1221959396475
 30
0.0
 40
69.30638776506696
100
AcDbArc
 50
172.3155822753906
 51
179.9999847412109
  0
ARC
  5
2CC
330
1F
100
AcDbEntity
  8
躯体
  6
Continuous
 62
     2
370
     9
100
AcDbCircle
 10
-17.61416998080977
 20
206.1221959396475
 30
0.0
 40
70.50000366741165
100
AcDbArc
 50
169.4744262695312
 51
179.9999847412109
  0
ARC
  5
2CD
330
1F
100
AcDbEntity
  8
躯体
  6
Continuous
 62
     2
370
     9
100
AcDbCircle
 10
-17.61416998080977
 20
206.1221959396475
 30
0.0
 40
73.4999771118164
100
AcDbArc
 50
169.2914581298828
 51
179.9999847412109
  0
ARC
  5
2CE
330
1F
100
AcDbEntity
  8
躯体
  6
Continuous
 62
     2
370
     9
100
AcDbCircle
 10
-17.61416998080977
 20
206.1221959396475
 30
0.0
 40
74.49998721560915
100
AcDbArc
 50
168.0777587890624
 51
179.9999847412109
  0
ARC
  5
2CF
330
1F
100
AcDbEntity
  8
躯体
  6
Continuous
 62
     2
370
     9
100
AcDbCircle
 10
-83.86370420480074
 20
216.1221919923932
 30
0.0
 40
1.999999976066088
100
AcDbArc
 50
171.4163360595704
 51
213.3864440917969
  0
ARC
  5
2D0
330
1F
100
AcDbEntity
  8
躯体
  6
Continuous
 62
     2
370
     9
100
AcDbCircle
 10
-84.31619033874443
 20
215.1221906373657
 30
0.0
 40
1.999999976066088
100
AcDbArc
 50
172.3155822753907
 51
226.3553161621094
  0
ARC
  5
2D1
330
1F
100
AcDbEntity
  8
躯体
  6
Continuous
 62
     2
370
     9
100
AcDbCircle
 10
-11.61622655922131
 20
272.8531922077837
 30
0.0
 40
1.999999976066088
100
AcDbArc
 50
84.86366271972656
 51
126.8373565673828
  0
ARC
  5
2D2
330
1F
100
AcDbEntity
  8
躯体
  6
Continuous
 62
     2
370
     9
100
AcDbCircle
 10
-13.61423455082062
 20
273.3032024411878
 30
0.0
 40
1.999999976066088
100
AcDbArc
 50
86.59239196777342
 51
140.3999786376953
  0
ARC
  5
2D3
330
1F
100
AcDbEntity
  8
躯体
  6
Continuous
 62
     2
370
     9
100
AcDbCircle
 10
-21.61424539104141
 20
273.3032024411878
 30
0.0
 40
1.999999976066088
100
AcDbArc
 50
39.59988403320314
 51
93.40760803222656
  0
ARC
  5
2D4
330
1F
100
AcDbEntity
  8
躯体
  6
Continuous
 62
     2
370
     9
100
AcDbCircle
 10
-23.6122533826407
 20
272.8531922077837
 30
0.0
 40
1.999999976066088
100
AcDbArc
 50
53.1636657714844
 51
95.13633728027347
  0
LINE
  5
2D5
330
1F
100
AcDbEntity
  8
躯体
  6
Continuous
 62
     2
370
     9
100
AcDbLine
 10
28.2656668196661
 20
257.6589667934045
 30
0.0
 11
32.16075704800825
 21
261.5540570217466
 31
0.0
  0
LINE
  5
2D6
330
1F
100
AcDbEntity
  8
躯体
  6
Continuous
 62
     2
370
     9
100
AcDbLine
 10
28.19574668852768
 20
259.71038599629
 30
0.0
 11
28.2656668196661
 21
257.6589055520484
 31
0.0
  0
ARC
  5
2D7
330
1F
100
AcDbEntity
  8
躯体
  6
Continuous
 62
     2
370
     9
100
AcDbCircle
 10
-17.61427496599168
 20
206.1221959396475
 30
0.0
 40
69.00000600925283
100
AcDbArc
 50
48.32334899902343
 51
71.67663574218749
  0
LINE
  5
2D8
330
1F
100
AcDbEntity
  8
躯体
  6
Continuous
 62
     2
370
     9
100
AcDbLine
 10
35.973923839416
 20
251.9322088454017
 30
0.0
 11
33.92247839023499
 21
252.0020939814795
 31
0.0
  0
LINE
  5
2D9
330
1F
100
AcDbEntity
  8
躯体
  6
Continuous
 62
     2
370
     9
100
AcDbLine
 10
33.92247839023499
 20
252.0020939814795
 30
0.0
 11
37.81763860869843
 21
255.8972192048823
 31
0.0
  0
LINE
  5
2DA
330
1F
100
AcDbEntity
  8
躯体
  6
Continuous
 62
     2
370
     9
100
AcDbLine
 10
35.973923839416
 20
251.9322088454017
 30
0.0
 11
38.10144855040632
 21
254.0596985613314
 31
0.0
  0
ARC
  5
2DB
330
1F
100
AcDbEntity
  8
躯体
  6
Continuous
 62
     2
370
     9
100
AcDbCircle
 10
-17.61430996105229
 20
206.1221959396475
 30
0.0
 40
73.49998586058155
100
AcDbArc
 50
19.29144287109376
 51
40.70852661132814
  0
LINE
  5
2DC
330
1F
100
AcDbEntity
  8
躯体
  6
Continuous
 62
     2
370
     9
100
AcDbLine
 10
38.10144855040632
 20
254.0596985613314
 30
0.0
 11
37.81763860869843
 21
255.8972192048823
 31
0.0
  0
ARC
  5
2DD
330
1F
100
AcDbEntity
  8
躯体
  6
Continuous
 62
     2
370
     9
100
AcDbCircle
 10
-17.61430996105229
 20
206.1221959396475
 30
0.0
 40
70.50000366741165
100
AcDbArc
 50
19.47442626953125
 51
40.52555847167969
  0
ARC
  5
2DE
330
1F
100
AcDbEntity
  8
躯体
  6
Continuous
 62
     2
370
     9
100
AcDbCircle
 10
-17.61430996105229
 20
206.1221959396475
 30
0.0
 40
74.49998721560915
100
AcDbArc
 50
18.07777404785156
 51
41.9222412109375
  0
ARC
  5
2DF
330
1F
100
AcDbEntity
  8
躯体
  6
Continuous
 62
     2
370
     9
100
AcDbCircle
 10
-17.61430996105229
 20
206.1221959396475
 30
0.0
 40
69.00000600925283
100
AcDbArc
 50
18.3233642578125
 51
41.67665100097656
  0
LINE
  5
2E0
330
1F
100
AcDbEntity
  8
躯体
  6
Continuous
 62
     2
370
     9
100
AcDbLine
 10
47.88725733456717
 20
227.8143829506593
 30
0.0
 11
53.20811632308973
 21
229.2400904694836
 31
0.0
  0
LINE
  5
2E1
330
1F
100
AcDbEntity
  8
躯体
  6
Continuous
 62
     2
370
     9
100
AcDbLine
 10
48.85249109685903
 20
229.6259110129274
 30
0.0
 11
51.75869090192356
 21
230.4046473483578
 31
0.0
  0
LINE
  5
2E2
330
1F
100
AcDbEntity
  8
躯体
  6
Continuous
 62
     2
370
     9
100
AcDbLine
 10
48.85249109685903
 20
229.6259110129274
 30
0.0
 11
47.88725733456717
 21
227.8143479555987
 31
0.0
  0
LINE
  5
2E3
330
1F
100
AcDbEntity
  8
躯体
  6
Continuous
 62
     2
370
     9
100
AcDbLine
 10
51.75869090192356
 20
230.4046473483578
 30
0.0
 11
53.20811632308973
 21
229.2400904694836
 31
0.0
  0
LINE
  5
2E4
330
1F
100
AcDbEntity
  8
躯体
  6
Continuous
 62
     2
370
     9
100
AcDbLine
 10
49.95777509179142
 20
220.0869661352146
 30
0.0
 11
55.27863408031398
 21
221.5126736540388
 31
0.0
  0
LINE
  5
2E5
330
1F
100
AcDbEntity
  8
躯体
  6
Continuous
 62
     2
370
     9
100
AcDbLine
 10
51.69947925933787
 20
219.0007282020299
 30
0.0
 11
54.6057140594631
 21
219.7794207936345
 31
0.0
  0
ARC
  5
2E6
330
1F
100
AcDbEntity
  8
躯体
  6
Continuous
 62
     2
370
     9
100
AcDbCircle
 10
-17.61430996105229
 20
206.1221959396475
 30
0.0
 40
73.4999771118164
100
AcDbArc
 50
359.999984741211
 51
10.70852661132813
  0
LINE
  5
2E7
330
1F
100
AcDbEntity
  8
躯体
  6
Continuous
 62
     2
370
     9
100
AcDbLine
 10
54.6057140594631
 20
219.7794207936345
 30
0.0
 11
55.27863408031398
 21
221.5126736540388
 31
0.0
  0
ARC
  5
2E8
330
1F
100
AcDbEntity
  8
躯体
  6
Continuous
 62
     2
370
     9
100
AcDbCircle
 10
-17.61430996105229
 20
206.1221959396475
 30
0.0
 40
74.49998721560915
100
AcDbArc
 50
359.999984741211
 51
11.92222595214844
  0
ARC
  5
2E9
330
1F
100
AcDbEntity
  8
躯体
  6
Continuous
 62
     2
370
     9
100
AcDbCircle
 10
-17.61422247340072
 20
206.1221959396475
 30
0.0
 40
69.30638776506696
100
AcDbArc
 50
0.0
 51
7.684402465820314
  0
ARC
  5
2EA
330
1F
100
AcDbEntity
  8
躯体
  6
Continuous
 62
     2
370
     9
100
AcDbCircle
 10
49.08772789441271
 20
215.1221731398353
 30
0.0
 40
1.999999976066088
100
AcDbArc
 50
312.4031066894531
 51
7.684341430664063
  0
ARC
  5
2EB
330
1F
100
AcDbEntity
  8
躯体
  6
Continuous
 62
     2
370
     9
100
AcDbCircle
 10
48.63524176046907
 20
216.1221744948629
 30
0.0
 40
1.999999976066088
100
AcDbArc
 50
325.1162414550781
 51
8.583663940429684
  0
ARC
  5
2EC
330
1F
100
AcDbEntity
  8
躯体
  6
Continuous
 62
     2
370
     9
100
AcDbCircle
 10
-17.61430996105229
 20
206.1221959396475
 30
0.0
 40
68.99998413733994
100
AcDbArc
 50
8.583663940429684
 51
11.6766357421875
  0
ARC
  5
2ED
330
1F
100
AcDbEntity
  8
躯体
  6
Continuous
 62
     2
370
     9
100
AcDbCircle
 10
-17.61430996105229
 20
206.1221959396475
 30
0.0
 40
70.50000366741165
100
AcDbArc
 50
0.0
 51
10.52555847167969
  0
LINE
  5
2EE
330
1F
100
AcDbEntity
  8
躯体
  6
Continuous
 62
     2
370
     9
100
AcDbLine
 10
51.69947925933787
 20
219.0007282020299
 30
0.0
 11
49.95777509179142
 21
220.0869661352146
 31
0.0
  0
LINE
  5
2EF
330
1F
100
AcDbEntity
  8
通り芯
  6
JWW_CENTER1
 62
     3
370
     9
100
AcDbLine
 10
-187.3920825329887
 20
206.1221959396475
 30
0.0
 11
152.1636375861873
 21
206.1221959396475
 31
0.0
  0
TEXT
  5
2F0
330
1F
100
AcDbEntity
  8
F-5ﾚｲﾔ
  6
Continuous
 62
     2
370
     9
100
AcDbText
 10
-35.46074074074074
 20
-281.2877530864197
 30
0.0
 40
9.144
  1
※ご注文の際はＣ寸法をご指示ください。
 41
1.118421052631579
  7
ＭＳ ゴシック
100
AcDbText
  0
TEXT
  5
2F1
330
1F
100
AcDbEntity
  8
その他
  6
Continuous
 62
     2
370
     9
100
AcDbText
 10
172.4785958314569
 20
-162.6557418203987
 30
0.0
 40
9.144
  1
Ｃ
 50
90.0
  7
ＭＳ ゴシック
100
AcDbText
  0
ENDSEC
  0
SECTION
  2
OBJECTS
  0
DICTIONARY
  5
C
330
0
100
AcDbDictionary
281
     1
  3
ACAD_DETAILVIEWSTYLE
350
337
  3
ACAD_GROUP
350
D
  3
ACAD_LAYOUT
350
1A
  3
ACAD_MATERIAL
350
43
  3
ACAD_MLEADERSTYLE
350
6B
  3
ACAD_MLINESTYLE
350
17
  3
ACAD_PLOTSETTINGS
350
19
  3
ACAD_PLOTSTYLENAME
350
E
  3
ACAD_SCALELIST
350
47
  3
ACAD_SECTIONVIEWSTYLE
350
338
  3
ACAD_TABLESTYLE
350
69
  3
ACAD_VISUALSTYLE
350
2A
  3
ACDB_RECOMPOSE_DATA
350
334
  3
AcDbVariableDictionary
350
2F4
  0
DICTIONARY
  5
2F2
330
8
100
AcDbDictionary
280
     1
281
     1
  3
ACAD_XREC_ROUNDTRIP
360
2F3
  0
DICTIONARY
  5
337
102
{ACAD_REACTORS
330
C
102
}
330
C
100
AcDbDictionary
281
     1
  0
DICTIONARY
  5
D
102
{ACAD_REACTORS
330
C
102
}
330
C
100
AcDbDictionary
281
     1
  0
DICTIONARY
  5
1A
102
{ACAD_REACTORS
330
C
102
}
330
C
100
AcDbDictionary
281
     1
  3
Layout1
350
1E
  3
Layout2
350
26
  3
Model
350
22
  0
DICTIONARY
  5
43
102
{ACAD_REACTORS
330
C
102
}
330
C
100
AcDbDictionary
281
     1
  3
ByBlock
350
45
  3
ByLayer
350
44
  3
Global
350
46
  0
DICTIONARY
  5
6B
102
{ACAD_REACTORS
330
C
102
}
330
C
100
AcDbDictionary
281
     1
  3
Standard
350
6C
  0
DICTIONARY
  5
17
102
{ACAD_REACTORS
330
C
102
}
330
C
100
AcDbDictionary
281
     1
  3
Standard
350
18
  0
DICTIONARY
  5
19
102
{ACAD_REACTORS
330
C
102
}
330
C
100
AcDbDictionary
281
     1
  0
ACDBDICTIONARYWDFLT
  5
E
102
{ACAD_REACTORS
330
C
102
}
330
C
100
AcDbDictionary
281
     1
  3
Normal
350
F
100
AcDbDictionaryWithDefault
340
F
  0
DICTIONARY
  5
47
102
{ACAD_REACTORS
330
C
102
}
330
C
100
AcDbDictionary
281
     1
  3
A0
350
48
  3
A1
350
49
  3
A2
350
4A
  3
A3
350
4B
  3
A4
350
4C
  3
A5
350
4D
  3
A6
350
4E
  3
A7
350
4F
  3
A8
350
50
  3
A9
350
51
  3
B0
350
52
  3
B1
350
53
  3
B2
350
54
  3
B3
350
55
  3
B4
350
56
  3
B5
350
57
  3
B6
350
58
  3
B7
350
59
  3
B8
350
5A
  3
B9
350
5B
  3
C0
350
5C
  3
C1
350
5D
  3
C2
350
5E
  3
C3
350
5F
  3
C4
350
60
  3
C5
350
61
  3
C6
350
62
  3
C7
350
63
  3
C8
350
64
  3
C9
350
65
  3
D0
350
66
  3
D1
350
67
  3
D2
350
68
  0
DICTIONARY
  5
338
102
{ACAD_REACTORS
330
C
102
}
330
C
100
AcDbDictionary
281
     1
  0
DICTIONARY
  5
69
102
{ACAD_REACTORS
330
C
102
}
330
C
100
AcDbDictionary
281
     1
  3
Standard
350
6A
  0
DICTIONARY
  5
2A
102
{ACAD_REACTORS
330
C
102
}
330
C
100
AcDbDictionary
281
     1
  3
2dWireframe
350
2F
  3
Basic
350
32
  3
Brighten
350
36
  3
ColorChange
350
3A
  3
Conceptual
350
34
  3
Dim
350
35
  3
EdgeColorOff
350
3D
  3
Facepattern
350
39
  3
Flat
350
2B
  3
FlatWithEdges
350
2C
  3
Gouraud
350
2D
  3
GouraudWithEdges
350
2E
  3
Hidden
350
31
  3
JitterOff
350
3B
  3
Linepattern
350
38
  3
OverhangOff
350
3C
  3
Realistic
350
33
  3
Shaded
350
42
  3
Shaded with edges
350
41
  3
Shades of Gray
350
3E
  3
Sketchy
350
3F
  3
Thicken
350
37
  3
Wireframe
350
30
  3
X-Ray
350
40
  0
XRECORD
  5
334
102
{ACAD_REACTORS
330
C
102
}
330
C
100
AcDbXrecord
280
     1
 90
        1
330
6A
  0
DICTIONARY
  5
2F4
102
{ACAD_REACTORS
330
C
102
}
330
C
100
AcDbDictionary
281
     1
  3
CANNOSCALE
350
2F5
  3
CENTEREXE
350
339
  3
CENTERLTYPEFILE
350
33A
  3
CMLEADERSTYLE
350
336
  3
CTABLESTYLE
350
335
  3
MSLTSCALE
350
2F6
  3
XCLIPFRAME
350
2F7
  0
XRECORD
  5
2F3
102
{ACAD_REACTORS
330
2F2
102
}
330
2F2
100
AcDbXrecord
280
     1
102
VTR_0.000_0.000_1.000_1.000_VISUALSTYLE
340
2F
102
VTR_0.000_0.000_1.000_1.000_GRIDDISPLAY
 70
     3
102
VTR_0.000_0.000_1.000_1.000_GRIDMAJOR
 70
     5
102
VTR_0.000_0.000_1.000_1.000_DEFAULTLIGHTING
280
     1
102
VTR_0.000_0.000_1.000_1.000_DEFAULTLIGHTINGTYPE
 70
     1
102
VTR_0.000_0.000_1.000_1.000_BRIGHTNESS
141
0.0
102
VTR_0.000_0.000_1.000_1.000_CONTRAST
142
0.0
  0
LAYOUT
  5
1E
102
{ACAD_REACTORS
330
1A
102
}
330
1A
100
AcDbPlotSettings
  1

  2
none_device
  4

  6

 40
0.0
 41
0.0
 42
0.0
 43
0.0
 44
0.0
 45
0.0
 46
0.0
 47
0.0
 48
0.0
 49
0.0
140
0.0
141
0.0
142
1.0
143
1.0
 70
   688
 72
     1
 73
     0
 74
     5
  7

 75
    16
 76
     0
 77
     5
 78
   300
147
1.0
148
0.0
149
0.0
100
AcDbLayout
  1
Layout1
 70
     1
 71
     1
 10
0.0
 20
0.0
 11
420.0
 21
297.0
 12
0.0
 22
0.0
 32
0.0
 14
1.000000000000000E+20
 24
1.000000000000000E+20
 34
1.000000000000000E+20
 15
-1.000000000000000E+20
 25
-1.000000000000000E+20
 35
-1.000000000000000E+20
146
0.0
 13
0.0
 23
0.0
 33
0.0
 16
1.0
 26
0.0
 36
0.0
 17
0.0
 27
1.0
 37
0.0
 76
     0
330
1B
  0
LAYOUT
  5
26
102
{ACAD_REACTORS
330
1A
102
}
330
1A
100
AcDbPlotSettings
  1

  2
none_device
  4

  6

 40
0.0
 41
0.0
 42
0.0
 43
0.0
 44
0.0
 45
0.0
 46
0.0
 47
0.0
 48
0.0
 49
0.0
140
0.0
141
0.0
142
1.0
143
1.0
 70
   688
 72
     1
 73
     0
 74
     5
  7

 75
    16
 76
     0
 77
     5
 78
   300
147
1.0
148
0.0
149
0.0
100
AcDbLayout
  1
Layout2
 70
     1
 71
     2
 10
0.0
 20
0.0
 11
0.0
 21
0.0
 12
0.0
 22
0.0
 32
0.0
 14
0.0
 24
0.0
 34
0.0
 15
0.0
 25
0.0
 35
0.0
146
0.0
 13
0.0
 23
0.0
 33
0.0
 16
1.0
 26
0.0
 36
0.0
 17
0.0
 27
1.0
 37
0.0
 76
     0
330
23
  0
LAYOUT
  5
22
102
{ACAD_REACTORS
330
1A
102
}
330
1A
100
AcDbPlotSettings
  1

  2
none_device
  4
Letter_(8.50_x_11.00_Inches)
  6

 40
6.35
 41
6.35
 42
6.35000508
 43
6.35000508
 44
215.9
 45
279.4
 46
0.0
 47
0.0
 48
0.0
 49
0.0
140
0.0
141
0.0
142
1.0
143
1.0
 70
  1712
 72
     1
 73
     0
 74
     0
  7

 75
     0
 76
     0
 77
     5
 78
   300
147
1.0
148
0.0
149
0.0
100
AcDbLayout
  1
Model
 70
     1
 71
     0
 10
-630.0
 20
-445.5
 11
630.0
 21
445.5
 12
0.0
 22
0.0
 32
0.0
 14
-630.0
 24
-445.5
 34
0.0
 15
630.0
 25
445.5
 35
0.0
146
0.0
 13
0.0
 23
0.0
 33
0.0
 16
1.0
 26
0.0
 36
0.0
 17
0.0
 27
1.0
 37
0.0
 76
     0
330
1F
331
29
  0
MATERIAL
  5
45
102
{ACAD_REACTORS
330
43
102
}
102
{ACAD_XDICTIONARY
360
32A
102
}
330
43
100
AcDbMaterial
  1
ByBlock
  0
MATERIAL
  5
44
102
{ACAD_REACTORS
330
43
102
}
102
{ACAD_XDICTIONARY
360
328
102
}
330
43
100
AcDbMaterial
  1
ByLayer
  0
MATERIAL
  5
46
102
{ACAD_REACTORS
330
43
102
}
102
{ACAD_XDICTIONARY
360
32C
102
}
330
43
100
AcDbMaterial
  1
Global
  0
MLEADERSTYLE
  5
6C
102
{ACAD_REACTORS
330
6B
102
}
102
{ACAD_XDICTIONARY
360
332
102
}
330
6B
100
AcDbMLeaderStyle
170
     2
171
     1
172
     0
 90
        2
 40
0.0
 41
0.0
173
     1
 91
-1056964608
340
14
 92
       -2
290
     1
 42
2.0
291
     1
 43
8.0
  3
Standard
341
0
 44
4.0
300

342
11
174
     1
178
     6
175
     1
176
     0
 93
-1056964608
 45
4.0
292
     0
297
     0
 46
4.0
343
0
 94
-1056964608
 47
1.0
 49
1.0
140
1.0
293
     1
141
0.0
294
     1
177
     0
142
1.0
295
     0
296
     0
143
3.75
1001
ACAD_MLEADERVER
1070
     2
  0
MLINESTYLE
  5
18
102
{ACAD_REACTORS
330
17
102
}
330
17
100
AcDbMlineStyle
  2
Standard
 70
     0
  3

 62
   256
 51
90.0
 52
90.0
 71
     2
 49
0.5
 62
   256
  6
BYLAYER
 49
-0.5
 62
   256
  6
BYLAYER
  0
ACDBPLACEHOLDER
  5
F
102
{ACAD_REACTORS
330
E
102
}
330
E
  0
SCALE
  5
48
102
{ACAD_REACTORS
330
47
102
}
330
47
100
AcDbScale
 70
     0
300
1:1
140
1.0
141
1.0
290
     1
  0
SCALE
  5
49
102
{ACAD_REACTORS
330
47
102
}
330
47
100
AcDbScale
 70
     0
300
1:2
140
1.0
141
2.0
290
     0
  0
SCALE
  5
4A
102
{ACAD_REACTORS
330
47
102
}
330
47
100
AcDbScale
 70
     0
300
1:4
140
1.0
141
4.0
290
     0
  0
SCALE
  5
4B
102
{ACAD_REACTORS
330
47
102
}
330
47
100
AcDbScale
 70
     0
300
1:5
140
1.0
141
5.0
290
     0
  0
SCALE
  5
4C
102
{ACAD_REACTORS
330
47
102
}
330
47
100
AcDbScale
 70
     0
300
1:8
140
1.0
141
8.0
290
     0
  0
SCALE
  5
4D
102
{ACAD_REACTORS
330
47
102
}
330
47
100
AcDbScale
 70
     0
300
1:10
140
1.0
141
10.0
290
     0
  0
SCALE
  5
4E
102
{ACAD_REACTORS
330
47
102
}
330
47
100
AcDbScale
 70
     0
300
1:16
140
1.0
141
16.0
290
     0
  0
SCALE
  5
4F
102
{ACAD_REACTORS
330
47
102
}
330
47
100
AcDbScale
 70
     0
300
1:20
140
1.0
141
20.0
290
     0
  0
SCALE
  5
50
102
{ACAD_REACTORS
330
47
102
}
330
47
100
AcDbScale
 70
     0
300
1:30
140
1.0
141
30.0
290
     0
  0
SCALE
  5
51
102
{ACAD_REACTORS
330
47
102
}
330
47
100
AcDbScale
 70
     0
300
1:40
140
1.0
141
40.0
290
     0
  0
SCALE
  5
52
102
{ACAD_REACTORS
330
47
102
}
330
47
100
AcDbScale
 70
     0
300
1:50
140
1.0
141
50.0
290
     0
  0
SCALE
  5
53
102
{ACAD_REACTORS
330
47
102
}
330
47
100
AcDbScale
 70
     0
300
1:100
140
1.0
141
100.0
290
     0
  0
SCALE
  5
54
102
{ACAD_REACTORS
330
47
102
}
330
47
100
AcDbScale
 70
     0
300
2:1
140
2.0
141
1.0
290
     0
  0
SCALE
  5
55
102
{ACAD_REACTORS
330
47
102
}
330
47
100
AcDbScale
 70
     0
300
4:1
140
4.0
141
1.0
290
     0
  0
SCALE
  5
56
102
{ACAD_REACTORS
330
47
102
}
330
47
100
AcDbScale
 70
     0
300
8:1
140
8.0
141
1.0
290
     0
  0
SCALE
  5
57
102
{ACAD_REACTORS
330
47
102
}
330
47
100
AcDbScale
 70
     0
300
10:1
140
10.0
141
1.0
290
     0
  0
SCALE
  5
58
102
{ACAD_REACTORS
330
47
102
}
330
47
100
AcDbScale
 70
     0
300
100:1
140
100.0
141
1.0
290
     0
  0
SCALE
  5
59
102
{ACAD_REACTORS
330
47
102
}
330
47
100
AcDbScale
 70
     0
300
1/128" = 1'-0"
140
0.0078125
141
12.0
290
     0
  0
SCALE
  5
5A
102
{ACAD_REACTORS
330
47
102
}
330
47
100
AcDbScale
 70
     0
300
1/64" = 1'-0"
140
0.015625
141
12.0
290
     0
  0
SCALE
  5
5B
102
{ACAD_REACTORS
330
47
102
}
330
47
100
AcDbScale
 70
     0
300
1/32" = 1'-0"
140
0.03125
141
12.0
290
     0
  0
SCALE
  5
5C
102
{ACAD_REACTORS
330
47
102
}
330
47
100
AcDbScale
 70
     0
300
1/16" = 1'-0"
140
0.0625
141
12.0
290
     0
  0
SCALE
  5
5D
102
{ACAD_REACTORS
330
47
102
}
330
47
100
AcDbScale
 70
     0
300
3/32" = 1'-0"
140
0.09375
141
12.0
290
     0
  0
SCALE
  5
5E
102
{ACAD_REACTORS
330
47
102
}
330
47
100
AcDbScale
 70
     0
300
1/8" = 1'-0"
140
0.125
141
12.0
290
     0
  0
SCALE
  5
5F
102
{ACAD_REACTORS
330
47
102
}
330
47
100
AcDbScale
 70
     0
300
3/16" = 1'-0"
140
0.1875
141
12.0
290
     0
  0
SCALE
  5
60
102
{ACAD_REACTORS
330
47
102
}
330
47
100
AcDbScale
 70
     0
300
1/4" = 1'-0"
140
0.25
141
12.0
290
     0
  0
SCALE
  5
61
102
{ACAD_REACTORS
330
47
102
}
330
47
100
AcDbScale
 70
     0
300
3/8" = 1'-0"
140
0.375
141
12.0
290
     0
  0
SCALE
  5
62
102
{ACAD_REACTORS
330
47
102
}
330
47
100
AcDbScale
 70
     0
300
1/2" = 1'-0"
140
0.5
141
12.0
290
     0
  0
SCALE
  5
63
102
{ACAD_REACTORS
330
47
102
}
330
47
100
AcDbScale
 70
     0
300
3/4" = 1'-0"
140
0.75
141
12.0
290
     0
  0
SCALE
  5
64
102
{ACAD_REACTORS
330
47
102
}
330
47
100
AcDbScale
 70
     0
300
1" = 1'-0"
140
1.0
141
12.0
290
     0
  0
SCALE
  5
65
102
{ACAD_REACTORS
330
47
102
}
330
47
100
AcDbScale
 70
     0
300
1-1/2" = 1'-0"
140
1.5
141
12.0
290
     0
  0
SCALE
  5
66
102
{ACAD_REACTORS
330
47
102
}
330
47
100
AcDbScale
 70
     0
300
3" = 1'-0"
140
3.0
141
12.0
290
     0
  0
SCALE
  5
67
102
{ACAD_REACTORS
330
47
102
}
330
47
100
AcDbScale
 70
     0
300
6" = 1'-0"
140
6.0
141
12.0
290
     0
  0
SCALE
  5
68
102
{ACAD_REACTORS
330
47
102
}
330
47
100
AcDbScale
 70
     0
300
1'-0" = 1'-0"
140
12.0
141
12.0
290
     0
  0
TABLESTYLE
  5
6A
102
{ACAD_REACTORS
330
69
102
}
102
{ACAD_XDICTIONARY
360
32E
102
}
330
69
100
AcDbTableStyle
  3
Standard
 70
     0
 71
     0
 40
0.06
 41
0.06
280
     0
281
     0
  7
Standard
140
4.5
170
     2
 62
     0
 63
   257
283
     0
274
    -2
284
     1
 64
     0
275
    -2
285
     1
 65
     0
276
    -2
286
     1
 66
     0
277
    -2
287
     1
 67
     0
278
    -2
288
     1
 68
     0
279
    -2
289
     1
 69
     0
  7
Standard
140
6.0
170
     5
 62
     0
 63
   257
283
     0
274
    -2
284
     1
 64
     0
275
    -2
285
     1
 65
     0
276
    -2
286
     1
 66
     0
277
    -2
287
     1
 67
     0
278
    -2
288
     1
 68
     0
279
    -2
289
     1
 69
     0
  7
Standard
140
4.5
170
     5
 62
     0
 63
   257
283
     0
274
    -2
284
     1
 64
     0
275
    -2
285
     1
 65
     0
276
    -2
286
     1
 66
     0
277
    -2
287
     1
 67
     0
278
    -2
288
     1
 68
     0
279
    -2
289
     1
 69
     0
  0
VISUALSTYLE
  5
2F
102
{ACAD_REACTORS
330
2A
102
}
102
{ACAD_XDICTIONARY
360
300
102
}
330
2A
100
AcDbVisualStyle
  2
2dWireframe
 70
     4
 71
     0
 72
     2
 73
     0
 90
        0
 40
0.6
 41
30.0
 62
     5
 63
     7
421
 16777215
 74
     1
 91
        4
 64
     7
 65
   257
 75
     1
175
     1
 42
1.0
 92
        0
 66
   257
 43
1.0
 76
     1
 77
     6
 78
     2
 67
     7
 79
     5
170
     0
171
     0
290
     0
174
     0
 93
        1
 44
0.0
173
     0
291
     0
 45
0.0
1001
ACAD
1000
AcDbSavedByObjectVersion
1070
     0
  0
VISUALSTYLE
  5
32
102
{ACAD_REACTORS
330
2A
102
}
102
{ACAD_XDICTIONARY
360
306
102
}
330
2A
100
AcDbVisualStyle
  2
Basic
 70
     7
 71
     1
 72
     0
 73
     1
 90
        0
 40
0.6
 41
30.0
 62
     5
 63
     7
421
 16777215
 74
     0
 91
        4
 64
     7
 65
   257
 75
     1
175
     1
 42
1.0
 92
        8
 66
     7
 43
1.0
 76
     1
 77
     6
 78
     2
 67
     7
 79
     5
170
     0
171
     0
290
     0
174
     0
 93
        1
 44
0.0
173
     0
291
     1
 45
0.0
1001
ACAD
1000
AcDbSavedByObjectVersion
1070
     0
  0
VISUALSTYLE
  5
36
102
{ACAD_REACTORS
330
2A
102
}
102
{ACAD_XDICTIONARY
360
30E
102
}
330
2A
100
AcDbVisualStyle
  2
Brighten
 70
    12
 71
     2
 72
     2
 73
     0
 90
        0
 40
0.6
 41
30.0
 62
     5
 63
     7
421
 16777215
 74
     1
 91
        4
 64
     7
 65
   257
 75
     1
175
     1
 42
1.0
 92
        8
 66
     7
 43
1.0
 76
     1
 77
     6
 78
     2
 67
     7
 79
     5
170
     0
171
     0
290
     0
174
     0
 93
        1
 44
50.0
173
     0
291
     1
 45
0.0
1001
ACAD
1000
AcDbSavedByObjectVersion
1070
     0
  0
VISUALSTYLE
  5
3A
102
{ACAD_REACTORS
330
2A
102
}
102
{ACAD_XDICTIONARY
360
316
102
}
330
2A
100
AcDbVisualStyle
  2
ColorChange
 70
    16
 71
     2
 72
     2
 73
     3
 90
        0
 40
0.6
 41
30.0
 62
     5
 63
     8
421
  8421504
 74
     1
 91
        4
 64
     7
 65
   257
 75
     1
175
     1
 42
1.0
 92
        8
 66
     8
424
  8421504
 43
1.0
 76
     1
 77
     6
 78
     2
 67
     7
 79
     5
170
     0
171
     0
290
     0
174
     0
 93
        1
 44
0.0
173
     0
291
     1
 45
0.0
1001
ACAD
1000
AcDbSavedByObjectVersion
1070
     0
  0
VISUALSTYLE
  5
34
102
{ACAD_REACTORS
330
2A
102
}
102
{ACAD_XDICTIONARY
360
30A
102
}
330
2A
100
AcDbVisualStyle
  2
Conceptual
 70
     9
 71
     3
 72
     2
 73
     0
 90
        0
 40
0.6
 41
30.0
 62
     5
 63
     7
421
 16777215
 74
     2
 91
        2
 64
     7
 65
   257
 75
     1
175
     1
 42
179.0
 92
        8
 66
     7
 43
1.0
 76
     1
 77
     6
 78
     2
 67
     7
 79
     3
170
     0
171
     0
290
     0
174
     0
 93
        1
 44
0.0
173
     0
291
     0
 45
0.0
1001
ACAD
1000
AcDbSavedByObjectVersion
1070
     0
  0
VISUALSTYLE
  5
35
102
{ACAD_REACTORS
330
2A
102
}
102
{ACAD_XDICTIONARY
360
30C
102
}
330
2A
100
AcDbVisualStyle
  2
Dim
 70
    11
 71
     2
 72
     2
 73
     0
 90
        0
 40
0.6
 41
30.0
 62
     5
 63
     7
421
 16777215
 74
     1
 91
        4
 64
     7
 65
   257
 75
     1
175
     1
 42
1.0
 92
        8
 66
     7
 43
1.0
 76
     1
 77
     6
 78
     2
 67
     7
 79
     5
170
     0
171
     0
290
     0
174
     0
 93
        1
 44
-50.0
173
     0
291
     1
 45
0.0
1001
ACAD
1000
AcDbSavedByObjectVersion
1070
     0
  0
VISUALSTYLE
  5
3D
102
{ACAD_REACTORS
330
2A
102
}
102
{ACAD_XDICTIONARY
360
31C
102
}
330
2A
100
AcDbVisualStyle
  2
EdgeColorOff
 70
    22
 71
     2
 72
     2
 73
     0
 90
        0
 40
0.6
 41
30.0
 62
     5
 63
     7
421
 16777215
 74
     1
 91
        4
 64
     7
 65
   257
 75
     1
175
     1
 42
1.0
 92
        8
 66
     7
 43
1.0
 76
     1
 77
     6
 78
     2
 67
     7
 79
     5
170
     0
171
     0
290
     0
174
     0
 93
        1
 44
0.0
173
     0
291
     1
 45
0.0
1001
ACAD
1000
AcDbSavedByObjectVersion
1070
     0
  0
VISUALSTYLE
  5
39
102
{ACAD_REACTORS
330
2A
102
}
102
{ACAD_XDICTIONARY
360
314
102
}
330
2A
100
AcDbVisualStyle
  2
Facepattern
 70
    15
 71
     2
 72
     2
 73
     0
 90
        0
 40
0.6
 41
30.0
 62
     5
 63
     7
421
 16777215
 74
     1
 91
        4
 64
     7
 65
   257
 75
     1
175
     1
 42
1.0
 92
        8
 66
     7
 43
1.0
 76
     1
 77
     6
 78
     2
 67
     7
 79
     5
170
     0
171
     0
290
     0
174
     0
 93
        1
 44
0.0
173
     0
291
     1
 45
0.0
1001
ACAD
1000
AcDbSavedByObjectVersion
1070
     0
  0
VISUALSTYLE
  5
2B
102
{ACAD_REACTORS
330
2A
102
}
102
{ACAD_XDICTIONARY
360
2F8
102
}
330
2A
100
AcDbVisualStyle
  2
Flat
 70
     0
 71
     2
 72
     1
 73
     1
 90
        2
 40
0.6
 41
30.0
 62
     5
 63
     7
421
 16777215
 74
     0
 91
        0
 64
     7
 65
   257
 75
     1
175
     1
 42
1.0
 92
        8
 66
     7
 43
1.0
 76
     1
 77
     6
 78
     2
 67
     7
 79
     5
170
     0
171
     0
290
     0
174
     0
 93
       13
 44
0.0
173
     0
291
     1
 45
0.0
1001
ACAD
1000
AcDbSavedByObjectVersion
1070
     0
  0
VISUALSTYLE
  5
2C
102
{ACAD_REACTORS
330
2A
102
}
102
{ACAD_XDICTIONARY
360
2FA
102
}
330
2A
100
AcDbVisualStyle
  2
FlatWithEdges
 70
     1
 71
     2
 72
     1
 73
     1
 90
        2
 40
0.6
 41
30.0
 62
     5
 63
     7
421
 16777215
 74
     1
 91
        0
 64
     7
 65
   257
 75
     1
175
     1
 42
1.0
 92
        0
 66
   257
 43
1.0
 76
     1
 77
     6
 78
     2
 67
     7
 79
     5
170
     0
171
     0
290
     0
174
     0
 93
       13
 44
0.0
173
     0
291
     1
 45
0.0
1001
ACAD
1000
AcDbSavedByObjectVersion
1070
     0
  0
VISUALSTYLE
  5
2D
102
{ACAD_REACTORS
330
2A
102
}
102
{ACAD_XDICTIONARY
360
2FC
102
}
330
2A
100
AcDbVisualStyle
  2
Gouraud
 70
     2
 71
     2
 72
     2
 73
     1
 90
        2
 40
0.6
 41
30.0
 62
     5
 63
     7
421
 16777215
 74
     0
 91
        0
 64
     7
 65
   257
 75
     1
175
     1
 42
1.0
 92
        0
 66
     7
 43
1.0
 76
     1
 77
     6
 78
     2
 67
     7
 79
     5
170
     0
171
     0
290
     0
174
     0
 93
       13
 44
0.0
173
     0
291
     1
 45
0.0
1001
ACAD
1000
AcDbSavedByObjectVersion
1070
     0
  0
VISUALSTYLE
  5
2E
102
{ACAD_REACTORS
330
2A
102
}
102
{ACAD_XDICTIONARY
360
2FE
102
}
330
2A
100
AcDbVisualStyle
  2
GouraudWithEdges
 70
     3
 71
     2
 72
     2
 73
     1
 90
        2
 40
0.6
 41
30.0
 62
     5
 63
     7
421
 16777215
 74
     1
 91
        0
 64
     7
 65
   257
 75
     1
175
     1
 42
1.0
 92
        0
 66
   257
 43
1.0
 76
     1
 77
     6
 78
     2
 67
     7
 79
     5
170
     0
171
     0
290
     0
174
     0
 93
       13
 44
0.0
173
     0
291
     1
 45
0.0
1001
ACAD
1000
AcDbSavedByObjectVersion
1070
     0
  0
VISUALSTYLE
  5
31
102
{ACAD_REACTORS
330
2A
102
}
102
{ACAD_XDICTIONARY
360
304
102
}
330
2A
100
AcDbVisualStyle
  2
Hidden
 70
     6
 71
     1
 72
     2
 73
     2
 90
        0
 40
0.6
 41
30.0
 62
     5
 63
     7
421
 16777215
 74
     2
 91
        2
 64
     7
 65
   257
 75
     2
175
     1
 42
40.0
 92
        0
 66
   257
 43
1.0
 76
     1
 77
     6
 78
     2
 67
     7
 79
     3
170
     0
171
     0
290
     0
174
     0
 93
        1
 44
0.0
173
     0
291
     0
 45
0.0
1001
ACAD
1000
AcDbSavedByObjectVersion
1070
     0
  0
VISUALSTYLE
  5
3B
102
{ACAD_REACTORS
330
2A
102
}
102
{ACAD_XDICTIONARY
360
318
102
}
330
2A
100
AcDbVisualStyle
  2
JitterOff
 70
    20
 71
     2
 72
     2
 73
     0
 90
        0
 40
0.6
 41
30.0
 62
     5
 63
     7
421
 16777215
 74
     1
 91
        4
 64
     7
 65
   257
 75
     1
175
     1
 42
1.0
 92
       10
 66
     7
 43
1.0
 76
     1
 77
     6
 78
     2
 67
     7
 79
     5
170
     0
171
     0
290
     0
174
     0
 93
        1
 44
0.0
173
     0
291
     1
 45
0.0
1001
ACAD
1000
AcDbSavedByObjectVersion
1070
     0
  0
VISUALSTYLE
  5
38
102
{ACAD_REACTORS
330
2A
102
}
102
{ACAD_XDICTIONARY
360
312
102
}
330
2A
100
AcDbVisualStyle
  2
Linepattern
 70
    14
 71
     2
 72
     2
 73
     0
 90
        0
 40
0.6
 41
30.0
 62
     5
 63
     7
421
 16777215
 74
     1
 91
        4
 64
     7
 65
   257
 75
     7
175
     7
 42
1.0
 92
        8
 66
     7
 43
1.0
 76
     1
 77
     6
 78
     2
 67
     7
 79
     5
170
     0
171
     0
290
     0
174
     0
 93
        1
 44
0.0
173
     0
291
     1
 45
0.0
1001
ACAD
1000
AcDbSavedByObjectVersion
1070
     0
  0
VISUALSTYLE
  5
3C
102
{ACAD_REACTORS
330
2A
102
}
102
{ACAD_XDICTIONARY
360
31A
102
}
330
2A
100
AcDbVisualStyle
  2
OverhangOff
 70
    21
 71
     2
 72
     2
 73
     0
 90
        0
 40
0.6
 41
30.0
 62
     5
 63
     7
421
 16777215
 74
     1
 91
        4
 64
     7
 65
   257
 75
     1
175
     1
 42
1.0
 92
        9
 66
     7
 43
1.0
 76
     1
 77
     6
 78
     2
 67
     7
 79
     5
170
     0
171
     0
290
     0
174
     0
 93
        1
 44
0.0
173
     0
291
     1
 45
0.0
1001
ACAD
1000
AcDbSavedByObjectVersion
1070
     0
  0
VISUALSTYLE
  5
33
102
{ACAD_REACTORS
330
2A
102
}
102
{ACAD_XDICTIONARY
360
308
102
}
330
2A
100
AcDbVisualStyle
  2
Realistic
 70
     8
 71
     2
 72
     3
 73
     0
 90
        2
 40
0.6
 41
30.0
 62
     5
 63
     7
421
 16777215
 74
     0
 91
        0
 64
     7
 65
   257
 75
     1
175
     1
 42
1.0
 92
        8
 66
   257
 43
1.0
 76
     1
 77
     6
 78
     2
 67
     7
 79
     3
170
     0
171
     0
290
     0
174
     0
 93
       13
 44
0.0
173
     0
291
     0
 45
0.0
1001
ACAD
1000
AcDbSavedByObjectVersion
1070
     0
  0
VISUALSTYLE
  5
42
102
{ACAD_REACTORS
330
2A
102
}
102
{ACAD_XDICTIONARY
360
326
102
}
330
2A
100
AcDbVisualStyle
  2
Shaded
 70
    27
 71
     2
 72
     2
 73
     1
 90
        2
 40
0.6
 41
30.0
 62
     5
 63
     7
421
 16777215
 74
     0
 91
        4
 64
     7
 65
   257
 75
     1
175
     1
 42
1.0
 92
        8
 66
   257
 43
1.0
 76
     1
 77
     6
 78
     2
 67
     8
425
  7895160
 79
     3
170
     0
171
     0
290
     0
174
     0
 93
        5
 44
0.0
173
     0
291
     0
 45
0.0
1001
ACAD
1000
AcDbSavedByObjectVersion
1070
     0
  0
VISUALSTYLE
  5
41
102
{ACAD_REACTORS
330
2A
102
}
102
{ACAD_XDICTIONARY
360
324
102
}
330
2A
100
AcDbVisualStyle
  2
Shaded with edges
 70
    26
 71
     2
 72
     2
 73
     1
 90
        2
 40
0.6
 41
30.0
 62
     5
 63
     7
421
 16777215
 74
     1
 91
       10
 64
     7
 65
   257
 75
     2
175
     1
 42
1.0
 92
        8
 66
   257
 43
1.0
 76
     1
 77
     6
 78
     2
 67
     7
 79
     3
170
     0
171
     0
290
     0
174
     0
 93
        5
 44
0.0
173
     0
291
     0
 45
0.0
1001
ACAD
1000
AcDbSavedByObjectVersion
1070
     0
  0
VISUALSTYLE
  5
3E
102
{ACAD_REACTORS
330
2A
102
}
102
{ACAD_XDICTIONARY
360
31E
102
}
330
2A
100
AcDbVisualStyle
  2
Shades of Gray
 70
    23
 71
     2
 72
     2
 73
     3
 90
        0
 40
0.6
 41
30.0
 62
     5
 63
     7
421
 16777215
 74
     2
 91
        2
 64
     7
 65
     7
 75
     1
175
     1
 42
40.0
 92
        8
 66
     7
 43
1.0
 76
     1
 77
     6
 78
     2
 67
     7
 79
     3
170
     0
171
     0
290
     0
174
     0
 93
        1
 44
0.0
173
     0
291
     0
 45
0.0
1001
ACAD
1000
AcDbSavedByObjectVersion
1070
     0
  0
VISUALSTYLE
  5
3F
102
{ACAD_REACTORS
330
2A
102
}
102
{ACAD_XDICTIONARY
360
320
102
}
330
2A
100
AcDbVisualStyle
  2
Sketchy
 70
    24
 71
     1
 72
     2
 73
     2
 90
        0
 40
0.6
 41
30.0
 62
     5
 63
     7
421
 16777215
 74
     2
 91
        2
 64
     7
 65
     7
 75
     1
175
     1
 42
40.0
 92
       11
 66
     7
 43
1.0
 76
     1
 77
     6
 78
     2
 67
     7
 79
     6
170
     0
171
     0
290
     0
174
     0
 93
        1
 44
0.0
173
     0
291
     0
 45
0.0
1001
ACAD
1000
AcDbSavedByObjectVersion
1070
     0
  0
VISUALSTYLE
  5
37
102
{ACAD_REACTORS
330
2A
102
}
102
{ACAD_XDICTIONARY
360
310
102
}
330
2A
100
AcDbVisualStyle
  2
Thicken
 70
    13
 71
     2
 72
     2
 73
     0
 90
        0
 40
0.6
 41
30.0
 62
     5
 63
     7
421
 16777215
 74
     1
 91
        4
 64
     7
 65
   257
 75
     1
175
     1
 42
1.0
 92
       12
 66
     7
 43
1.0
 76
     1
 77
     6
 78
     2
 67
     7
 79
     5
170
     0
171
     0
290
     0
174
     0
 93
        1
 44
0.0
173
     0
291
     1
 45
0.0
1001
ACAD
1000
AcDbSavedByObjectVersion
1070
     0
  0
VISUALSTYLE
  5
30
102
{ACAD_REACTORS
330
2A
102
}
102
{ACAD_XDICTIONARY
360
302
102
}
330
2A
100
AcDbVisualStyle
  2
Wireframe
 70
     5
 71
     0
 72
     2
 73
     0
 90
        0
 40
0.6
 41
30.0
 62
     5
 63
     7
421
 16777215
 74
     1
 91
        4
 64
     7
 65
   257
 75
     1
175
     1
 42
1.0
 92
        0
 66
   257
 43
1.0
 76
     1
 77
     6
 78
     2
 67
     7
 79
     3
170
     0
171
     0
290
     0
174
     0
 93
        1
 44
0.0
173
     0
291
     0
 45
0.0
1001
ACAD
1000
AcDbSavedByObjectVersion
1070
     0
  0
VISUALSTYLE
  5
40
102
{ACAD_REACTORS
330
2A
102
}
102
{ACAD_XDICTIONARY
360
322
102
}
330
2A
100
AcDbVisualStyle
  2
X-Ray
 70
    25
 71
     2
 72
     2
 73
     1
 90
        1
 40
0.5
 41
30.0
 62
     5
 63
     7
421
 16777215
 74
     1
 91
        0
 64
     7
 65
   257
 75
     1
175
     1
 42
1.0
 92
        8
 66
     7
 43
1.0
 76
     1
 77
     6
 78
     2
 67
     7
 79
     3
170
     0
171
     0
290
     0
174
     0
 93
       13
 44
0.0
173
     0
291
     0
 45
0.0
1001
ACAD
1000
AcDbSavedByObjectVersion
1070
     0
  0
DICTIONARYVAR
  5
2F5
102
{ACAD_REACTORS
330
2F4
102
}
330
2F4
100
DictionaryVariables
280
     0
  1
1:1
  0
DICTIONARYVAR
  5
339
102
{ACAD_REACTORS
330
2F4
102
}
330
2F4
100
DictionaryVariables
280
     0
  1
3.500000
  0
DICTIONARYVAR
  5
33A
102
{ACAD_REACTORS
330
2F4
102
}
330
2F4
100
DictionaryVariables
280
     0
  1
acadiso.lin
  0
DICTIONARYVAR
  5
336
102
{ACAD_REACTORS
330
2F4
102
}
330
2F4
100
DictionaryVariables
280
     0
  1
Standard
  0
DICTIONARYVAR
  5
335
102
{ACAD_REACTORS
330
2F4
102
}
330
2F4
100
DictionaryVariables
280
     0
  1
Standard
  0
DICTIONARYVAR
  5
2F6
102
{ACAD_REACTORS
330
2F4
102
}
330
2F4
100
DictionaryVariables
280
     0
  1
1
  0
DICTIONARYVAR
  5
2F7
102
{ACAD_REACTORS
330
2F4
102
}
330
2F4
100
DictionaryVariables
280
     0
  1
2
  0
DICTIONARY
  5
32A
330
45
100
AcDbDictionary
280
     1
281
     1
  3
ACAD_XREC_ROUNDTRIP
360
32B
  0
DICTIONARY
  5
328
330
44
100
AcDbDictionary
280
     1
281
     1
  3
ACAD_XREC_ROUNDTRIP
360
329
  0
DICTIONARY
  5
32C
330
46
100
AcDbDictionary
280
     1
281
     1
  3
ACAD_XREC_ROUNDTRIP
360
32D
  0
DICTIONARY
  5
332
330
6C
100
AcDbDictionary
280
     1
281
     1
  3
ACAD_XREC_ROUNDTRIP
360
333
  0
DICTIONARY
  5
32E
330
6A
100
AcDbDictionary
280
     1
281
     1
  3
ACAD_ROUNDTRIP_2008_TABLESTYLE_CELLSTYLEMAP
360
330
  3
ACAD_XREC_ROUNDTRIP
360
32F
  0
DICTIONARY
  5
300
330
2F
100
AcDbDictionary
280
     1
281
     1
  3
ACAD_XREC_ROUNDTRIP
360
301
  0
DICTIONARY
  5
306
330
32
100
AcDbDictionary
280
     1
281
     1
  3
ACAD_XREC_ROUNDTRIP
360
307
  0
DICTIONARY
  5
30E
330
36
100
AcDbDictionary
280
     1
281
     1
  3
ACAD_XREC_ROUNDTRIP
360
30F
  0
DICTIONARY
  5
316
330
3A
100
AcDbDictionary
280
     1
281
     1
  3
ACAD_XREC_ROUNDTRIP
360
317
  0
DICTIONARY
  5
30A
330
34
100
AcDbDictionary
280
     1
281
     1
  3
ACAD_XREC_ROUNDTRIP
360
30B
  0
DICTIONARY
  5
30C
330
35
100
AcDbDictionary
280
     1
281
     1
  3
ACAD_XREC_ROUNDTRIP
360
30D
  0
DICTIONARY
  5
31C
330
3D
100
AcDbDictionary
280
     1
281
     1
  3
ACAD_XREC_ROUNDTRIP
360
31D
  0
DICTIONARY
  5
314
330
39
100
AcDbDictionary
280
     1
281
     1
  3
ACAD_XREC_ROUNDTRIP
360
315
  0
DICTIONARY
  5
2F8
330
2B
100
AcDbDictionary
280
     1
281
     1
  3
ACAD_XREC_ROUNDTRIP
360
2F9
  0
DICTIONARY
  5
2FA
330
2C
100
AcDbDictionary
280
     1
281
     1
  3
ACAD_XREC_ROUNDTRIP
360
2FB
  0
DICTIONARY
  5
2FC
330
2D
100
AcDbDictionary
280
     1
281
     1
  3
ACAD_XREC_ROUNDTRIP
360
2FD
  0
DICTIONARY
  5
2FE
330
2E
100
AcDbDictionary
280
     1
281
     1
  3
ACAD_XREC_ROUNDTRIP
360
2FF
  0
DICTIONARY
  5
304
330
31
100
AcDbDictionary
280
     1
281
     1
  3
ACAD_XREC_ROUNDTRIP
360
305
  0
DICTIONARY
  5
318
330
3B
100
AcDbDictionary
280
     1
281
     1
  3
ACAD_XREC_ROUNDTRIP
360
319
  0
DICTIONARY
  5
312
330
38
100
AcDbDictionary
280
     1
281
     1
  3
ACAD_XREC_ROUNDTRIP
360
313
  0
DICTIONARY
  5
31A
330
3C
100
AcDbDictionary
280
     1
281
     1
  3
ACAD_XREC_ROUNDTRIP
360
31B
  0
DICTIONARY
  5
308
330
33
100
AcDbDictionary
280
     1
281
     1
  3
ACAD_XREC_ROUNDTRIP
360
309
  0
DICTIONARY
  5
326
330
42
100
AcDbDictionary
280
     1
281
     1
  3
ACAD_XREC_ROUNDTRIP
360
327
  0
DICTIONARY
  5
324
330
41
100
AcDbDictionary
280
     1
281
     1
  3
ACAD_XREC_ROUNDTRIP
360
325
  0
DICTIONARY
  5
31E
330
3E
100
AcDbDictionary
280
     1
281
     1
  3
ACAD_XREC_ROUNDTRIP
360
31F
  0
DICTIONARY
  5
320
330
3F
100
AcDbDictionary
280
     1
281
     1
  3
ACAD_XREC_ROUNDTRIP
360
321
  0
DICTIONARY
  5
310
330
37
100
AcDbDictionary
280
     1
281
     1
  3
ACAD_XREC_ROUNDTRIP
360
311
  0
DICTIONARY
  5
302
330
30
100
AcDbDictionary
280
     1
281
     1
  3
ACAD_XREC_ROUNDTRIP
360
303
  0
DICTIONARY
  5
322
330
40
100
AcDbDictionary
280
     1
281
     1
  3
ACAD_XREC_ROUNDTRIP
360
323
  0
XRECORD
  5
32B
102
{ACAD_REACTORS
330
32A
102
}
330
32A
100
AcDbXrecord
280
     1
102
MATERIAL
148
0.0
149
0.0
149
0.0
 93
        0
 94
      127
282
     0
 72
     1
 77
     1
171
     1
175
     1
179
     1
273
     0
  0
XRECORD
  5
329
102
{ACAD_REACTORS
330
328
102
}
330
328
100
AcDbXrecord
280
     1
102
MATERIAL
148
0.0
149
0.0
149
0.0
 93
        0
 94
      127
282
     0
 72
     1
 77
     1
171
     1
175
     1
179
     1
273
     0
  0
XRECORD
  5
32D
102
{ACAD_REACTORS
330
32C
102
}
330
32C
100
AcDbXrecord
280
     1
102
MATERIAL
148
0.0
149
0.0
149
0.0
 93
        0
 94
      127
282
     0
 72
     1
 77
     1
171
     1
175
     1
179
     1
273
     0
  0
XRECORD
  5
333
102
{ACAD_REACTORS
330
332
102
}
330
332
100
AcDbXrecord
280
     1
102
ACAD_ROUNDTRIP_2010_MLEADER_STYLE
  0
CELLSTYLEMAP
  5
330
102
{ACAD_REACTORS
330
32E
102
}
330
32E
100
AcDbCellStyleMap
 90
        3
300
CELLSTYLE
  1
TABLEFORMAT_BEGIN
 90
        5
170
     1
 91
        0
 92
    32768
 62
   257
 93
        1
300
CONTENTFORMAT
  1
CONTENTFORMAT_BEGIN
 90
        0
 91
        0
 92
        4
 93
        0
300

 40
0.0
140
1.0
 94
        5
 62
     0
340
11
144
6.0
309
CONTENTFORMAT_END
171
     1
301
MARGIN
  1
CELLMARGIN_BEGIN
 40
1.5
 40
1.5
 40
1.5
 40
1.5
 40
1.5
 40
1.5
309
CELLMARGIN_END
 94
        6
 95
        1
302
GRIDFORMAT
  1
GRIDFORMAT_BEGIN
 90
        0
 91
        1
 62
     0
 92
       -2
340
14
 93
        0
 40
0.045
309
GRIDFORMAT_END
 95
        2
302
GRIDFORMAT
  1
GRIDFORMAT_BEGIN
 90
        0
 91
        1
 62
     0
 92
       -2
340
14
 93
        0
 40
0.045
309
GRIDFORMAT_END
 95
        4
302
GRIDFORMAT
  1
GRIDFORMAT_BEGIN
 90
        0
 91
        1
 62
     0
 92
       -2
340
14
 93
        0
 40
0.045
309
GRIDFORMAT_END
 95
        8
302
GRIDFORMAT
  1
GRIDFORMAT_BEGIN
 90
        0
 91
        1
 62
     0
 92
       -2
340
14
 93
        0
 40
0.045
309
GRIDFORMAT_END
 95
       16
302
GRIDFORMAT
  1
GRIDFORMAT_BEGIN
 90
        0
 91
        1
 62
     0
 92
       -2
340
14
 93
        0
 40
0.045
309
GRIDFORMAT_END
 95
       32
302
GRIDFORMAT
  1
GRIDFORMAT_BEGIN
 90
        0
 91
        1
 62
     0
 92
       -2
340
14
 93
        0
 40
0.045
309
GRIDFORMAT_END
309
TABLEFORMAT_END
  1
CELLSTYLE_BEGIN
 90
        1
 91
        1
300
_TITLE
309
CELLSTYLE_END
300
CELLSTYLE
  1
TABLEFORMAT_BEGIN
 90
        5
170
     1
 91
        0
 92
        0
 62
   257
 93
        1
300
CONTENTFORMAT
  1
CONTENTFORMAT_BEGIN
 90
        0
 91
        0
 92
        4
 93
        0
300

 40
0.0
140
1.0
 94
        5
 62
     0
340
11
144
4.5
309
CONTENTFORMAT_END
171
     1
301
MARGIN
  1
CELLMARGIN_BEGIN
 40
1.5
 40
1.5
 40
1.5
 40
1.5
 40
1.5
 40
1.5
309
CELLMARGIN_END
 94
        6
 95
        1
302
GRIDFORMAT
  1
GRIDFORMAT_BEGIN
 90
        0
 91
        1
 62
     0
 92
       -2
340
14
 93
        0
 40
0.045
309
GRIDFORMAT_END
 95
        2
302
GRIDFORMAT
  1
GRIDFORMAT_BEGIN
 90
        0
 91
        1
 62
     0
 92
       -2
340
14
 93
        0
 40
0.045
309
GRIDFORMAT_END
 95
        4
302
GRIDFORMAT
  1
GRIDFORMAT_BEGIN
 90
        0
 91
        1
 62
     0
 92
       -2
340
14
 93
        0
 40
0.045
309
GRIDFORMAT_END
 95
        8
302
GRIDFORMAT
  1
GRIDFORMAT_BEGIN
 90
        0
 91
        1
 62
     0
 92
       -2
340
14
 93
        0
 40
0.045
309
GRIDFORMAT_END
 95
       16
302
GRIDFORMAT
  1
GRIDFORMAT_BEGIN
 90
        0
 91
        1
 62
     0
 92
       -2
340
14
 93
        0
 40
0.045
309
GRIDFORMAT_END
 95
       32
302
GRIDFORMAT
  1
GRIDFORMAT_BEGIN
 90
        0
 91
        1
 62
     0
 92
       -2
340
14
 93
        0
 40
0.045
309
GRIDFORMAT_END
309
TABLEFORMAT_END
  1
CELLSTYLE_BEGIN
 90
        2
 91
        1
300
_HEADER
309
CELLSTYLE_END
300
CELLSTYLE
  1
TABLEFORMAT_BEGIN
 90
        5
170
     1
 91
        0
 92
        0
 62
   257
 93
        1
300
CONTENTFORMAT
  1
CONTENTFORMAT_BEGIN
 90
        0
 91
        0
 92
        4
 93
        0
300

 40
0.0
140
1.0
 94
        2
 62
     0
340
11
144
4.5
309
CONTENTFORMAT_END
171
     1
301
MARGIN
  1
CELLMARGIN_BEGIN
 40
1.5
 40
1.5
 40
1.5
 40
1.5
 40
1.5
 40
1.5
309
CELLMARGIN_END
 94
        6
 95
        1
302
GRIDFORMAT
  1
GRIDFORMAT_BEGIN
 90
        0
 91
        1
 62
     0
 92
       -2
340
14
 93
        0
 40
0.045
309
GRIDFORMAT_END
 95
        2
302
GRIDFORMAT
  1
GRIDFORMAT_BEGIN
 90
        0
 91
        1
 62
     0
 92
       -2
340
14
 93
        0
 40
0.045
309
GRIDFORMAT_END
 95
        4
302
GRIDFORMAT
  1
GRIDFORMAT_BEGIN
 90
        0
 91
        1
 62
     0
 92
       -2
340
14
 93
        0
 40
0.045
309
GRIDFORMAT_END
 95
        8
302
GRIDFORMAT
  1
GRIDFORMAT_BEGIN
 90
        0
 91
        1
 62
     0
 92
       -2
340
14
 93
        0
 40
0.045
309
GRIDFORMAT_END
 95
       16
302
GRIDFORMAT
  1
GRIDFORMAT_BEGIN
 90
        0
 91
        1
 62
     0
 92
       -2
340
14
 93
        0
 40
0.045
309
GRIDFORMAT_END
 95
       32
302
GRIDFORMAT
  1
GRIDFORMAT_BEGIN
 90
        0
 91
        1
 62
     0
 92
       -2
340
14
 93
        0
 40
0.045
309
GRIDFORMAT_END
309
TABLEFORMAT_END
  1
CELLSTYLE_BEGIN
 90
        3
 91
        2
300
_DATA
309
CELLSTYLE_END
  0
XRECORD
  5
32F
102
{ACAD_REACTORS
330
32E
102
}
330
32E
100
AcDbXrecord
280
     1
102
ACAD_ROUNDTRIP_PRE2007_TABLESTYLE
 90
        4
 91
        0
  1

 92
        4
 93
        0
  2

 94
        4
 95
        0
  3

  0
XRECORD
  5
301
102
{ACAD_REACTORS
330
300
102
}
330
300
100
AcDbXrecord
280
     1
102
RTVSPropertyOp0
 70
     1
102
RTVSPropertyOp1
 70
     1
102
RTVSPropertyOp2
 70
     1
102
RTVSPropertyOp3
 70
     1
102
RTVSPropertyOp4
 70
     1
102
RTVSPropertyOp5
 70
     1
102
RTVSPropertyOp6
 70
     1
102
RTVSPropertyOp7
 70
     1
102
RTVSPropertyOp8
 70
     1
102
RTVSPropertyOp9
 70
     1
102
RTVSPropertyOp10
 70
     1
102
RTVSPropertyOp11
 70
     1
102
RTVSPropertyOp12
 70
     1
102
RTVSPropertyOp13
 70
     1
102
RTVSPropertyOp14
 70
     1
102
RTVSPropertyOp15
 70
     1
102
RTVSPropertyOp16
 70
     1
102
RTVSPropertyOp17
 70
     1
102
RTVSPropertyOp18
 70
     1
102
RTVSPropertyOp19
 70
     1
102
RTVSPropertyOp20
 70
     1
102
RTVSPropertyOp21
 70
     1
102
RTVSPropertyOp22
 70
     1
102
RTVSPropertyOp23
 70
     1
102
RTVSPropertyOp24
 70
     1
102
RTVSPropertyOp25
 70
     1
102
RTVSPropertyOp26
 70
     1
102
RTVSPropertyOp27
 70
     1
102
RTVSPropertyOp28
 70
     1
102
RTVSPropertyOp29
 70
     1
102
RTVSPropertyOp30
 70
     1
102
RTVSPropertyOp31
 70
     1
102
RTVSPropertyOp32
 70
     1
102
RTVSPropertyOp33
 70
     1
102
RTVSPropertyOp34
 70
     1
102
RTVSPropertyOp35
 70
     1
102
RTVSPropertyOp36
 70
     1
102
RTVSPropertyOp37
 70
     1
102
RTVSPropertyOp38
 70
     1
102
RTVSPropertyOp39
 70
     1
102
RTVSPropertyOp40
 70
     1
102
RTVSPropertyOp41
 70
     1
102
RTVSPropertyOp42
 70
     1
102
RTVSPropertyOp43
 70
     1
102
RTVSPropertyOp44
 70
     1
102
RTVSPropertyOp45
 70
     1
102
RTVSPropertyOp46
 70
     1
102
RTVSPropertyOp47
 70
     1
102
RTVSPropertyOp48
 70
     1
102
RTVSPropertyOp49
 70
     1
102
RTVSPropertyOp50
 70
     1
102
RTVSPropertyOp51
 70
     0
102
RTVSPropertyOp52
 70
     0
102
RTVSPropertyOp53
 70
     1
102
RTVSPropertyOp54
 70
     1
102
RTVSPropertyOp55
 70
     1
102
RTVSPropertyOp56
 70
     1
102
RTVSPropertyOp57
 70
     1
102
RTVSPost2010Prop28
280
     1
102
RTVSPost2010PropOp28
 70
     1
102
RTVSPost2010Prop29
280
     1
102
RTVSPost2010PropOp29
 70
     1
102
RTVSPost2010Prop30
280
     0
102
RTVSPost2010PropOp30
 70
     1
102
RTVSPost2010Prop31
280
     0
102
RTVSPost2010PropOp31
 70
     1
102
RTVSPost2010Prop32
280
     0
102
RTVSPost2010PropOp32
 70
     1
102
RTVSPost2010Prop33
280
     0
102
RTVSPost2010PropOp33
 70
     1
102
RTVSPost2010Prop34
280
     0
102
RTVSPost2010PropOp34
 70
     1
102
RTVSPost2010Prop35
280
     0
102
RTVSPost2010PropOp35
 70
     1
102
RTVSPost2010Prop36
280
     0
102
RTVSPost2010PropOp36
 70
     1
102
RTVSPost2010Prop37
 90
       50
102
RTVSPost2010PropOp37
 70
     1
102
RTVSPost2010Prop38
140
0.0
102
RTVSPost2010PropOp38
 70
     1
102
RTVSPost2010Prop39
140
1.0
102
RTVSPost2010PropOp39
 70
     1
102
RTVSPost2010Prop40
 90
        0
102
RTVSPost2010PropOp40
 70
     1
102
RTVSPost2010Prop41ColorIndex
 90
       18
102
RTVSPost2010Prop41ColorRGB
 90
        0
102
RTVSPost2010PropOp41
 70
     1
102
RTVSPost2010Prop42
 90
       50
102
RTVSPost2010PropOp42
 70
     1
102
RTVSPost2010Prop43
 90
        3
102
RTVSPost2010PropOp43
 70
     1
102
RTVSPost2010Prop44ColorIndex
 90
        5
102
RTVSPost2010Prop44ColorRGB
 90
      255
102
RTVSPost2010PropOp44
 70
     1
102
RTVSPost2010Prop45
280
     0
102
RTVSPost2010PropOp45
 70
     1
102
RTVSPost2010Prop46
 90
       50
102
RTVSPost2010PropOp46
 70
     1
102
RTVSPost2010Prop47
 90
       50
102
RTVSPost2010PropOp47
 70
     1
102
RTVSPost2010Prop48
 90
       50
102
RTVSPost2010PropOp48
 70
     1
102
RTVSPost2010Prop49
280
     0
102
RTVSPost2010PropOp49
 70
     1
102
RTVSPost2010Prop50
 90
       50
102
RTVSPost2010PropOp50
 70
     1
102
RTVSPost2010Prop51ColorIndex
 90
      256
102
RTVSPost2010Prop51ColorRGB
 90
-16777216
102
RTVSPost2010PropOp51
 70
     0
102
RTVSPost2010Prop52
140
1.0
102
RTVSPost2010PropOp52
 70
     0
102
RTVSPost2010Prop53
 90
        2
102
RTVSPost2010PropOp53
 70
     1
102
RTVSPost2010Prop54
  1
strokes_ogs.tif
102
RTVSPost2010PropOp54
 70
     1
102
RTVSPost2010Prop55
280
     0
102
RTVSPost2010PropOp55
 70
     1
102
RTVSPost2010Prop56
140
1.0
102
RTVSPost2010PropOp56
 70
     1
102
RTVSPost2010Prop57
140
1.0
102
RTVSPost2010PropOp57
 70
     1
  0
XRECORD
  5
307
102
{ACAD_REACTORS
330
306
102
}
330
306
100
AcDbXrecord
280
     1
102
RTVSPropertyOp0
 70
     1
102
RTVSPropertyOp1
 70
     1
102
RTVSPropertyOp2
 70
     1
102
RTVSPropertyOp3
 70
     1
102
RTVSPropertyOp4
 70
     1
102
RTVSPropertyOp5
 70
     1
102
RTVSPropertyOp6
 70
     1
102
RTVSPropertyOp7
 70
     1
102
RTVSPropertyOp8
 70
     1
102
RTVSPropertyOp9
 70
     1
102
RTVSPropertyOp10
 70
     1
102
RTVSPropertyOp11
 70
     1
102
RTVSPropertyOp12
 70
     1
102
RTVSPropertyOp13
 70
     1
102
RTVSPropertyOp14
 70
     1
102
RTVSPropertyOp15
 70
     1
102
RTVSPropertyOp16
 70
     1
102
RTVSPropertyOp17
 70
     1
102
RTVSPropertyOp18
 70
     1
102
RTVSPropertyOp19
 70
     1
102
RTVSPropertyOp20
 70
     1
102
RTVSPropertyOp21
 70
     1
102
RTVSPropertyOp22
 70
     1
102
RTVSPropertyOp23
 70
     1
102
RTVSPropertyOp24
 70
     1
102
RTVSPropertyOp25
 70
     1
102
RTVSPropertyOp26
 70
     1
102
RTVSPropertyOp27
 70
     1
102
RTVSPropertyOp28
 70
     1
102
RTVSPropertyOp29
 70
     1
102
RTVSPropertyOp30
 70
     1
102
RTVSPropertyOp31
 70
     1
102
RTVSPropertyOp32
 70
     1
102
RTVSPropertyOp33
 70
     1
102
RTVSPropertyOp34
 70
     1
102
RTVSPropertyOp35
 70
     1
102
RTVSPropertyOp36
 70
     1
102
RTVSPropertyOp37
 70
     1
102
RTVSPropertyOp38
 70
     1
102
RTVSPropertyOp39
 70
     1
102
RTVSPropertyOp40
 70
     1
102
RTVSPropertyOp41
 70
     1
102
RTVSPropertyOp42
 70
     1
102
RTVSPropertyOp43
 70
     1
102
RTVSPropertyOp44
 70
     1
102
RTVSPropertyOp45
 70
     1
102
RTVSPropertyOp46
 70
     1
102
RTVSPropertyOp47
 70
     1
102
RTVSPropertyOp48
 70
     1
102
RTVSPropertyOp49
 70
     1
102
RTVSPropertyOp50
 70
     1
102
RTVSPropertyOp51
 70
     0
102
RTVSPropertyOp52
 70
     0
102
RTVSPropertyOp53
 70
     1
102
RTVSPropertyOp54
 70
     1
102
RTVSPropertyOp55
 70
     1
102
RTVSPropertyOp56
 70
     1
102
RTVSPropertyOp57
 70
     1
102
RTVSPost2010Prop28
280
     0
102
RTVSPost2010PropOp28
 70
     1
102
RTVSPost2010Prop29
280
     1
102
RTVSPost2010PropOp29
 70
     1
102
RTVSPost2010Prop30
280
     1
102
RTVSPost2010PropOp30
 70
     1
102
RTVSPost2010Prop31
280
     0
102
RTVSPost2010PropOp31
 70
     1
102
RTVSPost2010Prop32
280
     0
102
RTVSPost2010PropOp32
 70
     1
102
RTVSPost2010Prop33
280
     0
102
RTVSPost2010PropOp33
 70
     1
102
RTVSPost2010Prop34
280
     0
102
RTVSPost2010PropOp34
 70
     1
102
RTVSPost2010Prop35
280
     0
102
RTVSPost2010PropOp35
 70
     1
102
RTVSPost2010Prop36
280
     0
102
RTVSPost2010PropOp36
 70
     1
102
RTVSPost2010Prop37
 90
       50
102
RTVSPost2010PropOp37
 70
     1
102
RTVSPost2010Prop38
140
0.0
102
RTVSPost2010PropOp38
 70
     1
102
RTVSPost2010Prop39
140
1.0
102
RTVSPost2010PropOp39
 70
     1
102
RTVSPost2010Prop40
 90
        0
102
RTVSPost2010PropOp40
 70
     1
102
RTVSPost2010Prop41ColorIndex
 90
       18
102
RTVSPost2010Prop41ColorRGB
 90
        0
102
RTVSPost2010PropOp41
 70
     1
102
RTVSPost2010Prop42
 90
       50
102
RTVSPost2010PropOp42
 70
     1
102
RTVSPost2010Prop43
 90
        3
102
RTVSPost2010PropOp43
 70
     1
102
RTVSPost2010Prop44ColorIndex
 90
        5
102
RTVSPost2010Prop44ColorRGB
 90
      255
102
RTVSPost2010PropOp44
 70
     1
102
RTVSPost2010Prop45
280
     0
102
RTVSPost2010PropOp45
 70
     1
102
RTVSPost2010Prop46
 90
       50
102
RTVSPost2010PropOp46
 70
     1
102
RTVSPost2010Prop47
 90
       50
102
RTVSPost2010PropOp47
 70
     1
102
RTVSPost2010Prop48
 90
       50
102
RTVSPost2010PropOp48
 70
     1
102
RTVSPost2010Prop49
280
     0
102
RTVSPost2010PropOp49
 70
     1
102
RTVSPost2010Prop50
 90
       50
102
RTVSPost2010PropOp50
 70
     1
102
RTVSPost2010Prop51ColorIndex
 90
      256
102
RTVSPost2010Prop51ColorRGB
 90
-16777216
102
RTVSPost2010PropOp51
 70
     0
102
RTVSPost2010Prop52
140
1.0
102
RTVSPost2010PropOp52
 70
     0
102
RTVSPost2010Prop53
 90
        2
102
RTVSPost2010PropOp53
 70
     1
102
RTVSPost2010Prop54
  1
strokes_ogs.tif
102
RTVSPost2010PropOp54
 70
     1
102
RTVSPost2010Prop55
280
     0
102
RTVSPost2010PropOp55
 70
     1
102
RTVSPost2010Prop56
140
1.0
102
RTVSPost2010PropOp56
 70
     1
102
RTVSPost2010Prop57
140
1.0
102
RTVSPost2010PropOp57
 70
     1
  0
XRECORD
  5
30F
102
{ACAD_REACTORS
330
30E
102
}
330
30E
100
AcDbXrecord
280
     1
102
RTVSPropertyOp0
 70
     1
102
RTVSPropertyOp1
 70
     1
102
RTVSPropertyOp2
 70
     1
102
RTVSPropertyOp3
 70
     1
102
RTVSPropertyOp4
 70
     1
102
RTVSPropertyOp5
 70
     1
102
RTVSPropertyOp6
 70
     1
102
RTVSPropertyOp7
 70
     1
102
RTVSPropertyOp8
 70
     1
102
RTVSPropertyOp9
 70
     1
102
RTVSPropertyOp10
 70
     1
102
RTVSPropertyOp11
 70
     1
102
RTVSPropertyOp12
 70
     1
102
RTVSPropertyOp13
 70
     1
102
RTVSPropertyOp14
 70
     1
102
RTVSPropertyOp15
 70
     1
102
RTVSPropertyOp16
 70
     1
102
RTVSPropertyOp17
 70
     1
102
RTVSPropertyOp18
 70
     1
102
RTVSPropertyOp19
 70
     1
102
RTVSPropertyOp20
 70
     1
102
RTVSPropertyOp21
 70
     1
102
RTVSPropertyOp22
 70
     1
102
RTVSPropertyOp23
 70
     1
102
RTVSPropertyOp24
 70
     1
102
RTVSPropertyOp25
 70
     1
102
RTVSPropertyOp26
 70
     1
102
RTVSPropertyOp27
 70
     1
102
RTVSPropertyOp28
 70
     1
102
RTVSPropertyOp29
 70
     1
102
RTVSPropertyOp30
 70
     1
102
RTVSPropertyOp31
 70
     1
102
RTVSPropertyOp32
 70
     1
102
RTVSPropertyOp33
 70
     1
102
RTVSPropertyOp34
 70
     1
102
RTVSPropertyOp35
 70
     1
102
RTVSPropertyOp36
 70
     1
102
RTVSPropertyOp37
 70
     1
102
RTVSPropertyOp38
 70
     1
102
RTVSPropertyOp39
 70
     1
102
RTVSPropertyOp40
 70
     1
102
RTVSPropertyOp41
 70
     1
102
RTVSPropertyOp42
 70
     1
102
RTVSPropertyOp43
 70
     1
102
RTVSPropertyOp44
 70
     1
102
RTVSPropertyOp45
 70
     1
102
RTVSPropertyOp46
 70
     1
102
RTVSPropertyOp47
 70
     1
102
RTVSPropertyOp48
 70
     1
102
RTVSPropertyOp49
 70
     1
102
RTVSPropertyOp50
 70
     1
102
RTVSPropertyOp51
 70
     0
102
RTVSPropertyOp52
 70
     0
102
RTVSPropertyOp53
 70
     1
102
RTVSPropertyOp54
 70
     1
102
RTVSPropertyOp55
 70
     1
102
RTVSPropertyOp56
 70
     1
102
RTVSPropertyOp57
 70
     1
102
RTVSPost2010Prop28
280
     0
102
RTVSPost2010PropOp28
 70
     1
102
RTVSPost2010Prop29
280
     1
102
RTVSPost2010PropOp29
 70
     1
102
RTVSPost2010Prop30
280
     1
102
RTVSPost2010PropOp30
 70
     1
102
RTVSPost2010Prop31
280
     0
102
RTVSPost2010PropOp31
 70
     1
102
RTVSPost2010Prop32
280
     0
102
RTVSPost2010PropOp32
 70
     1
102
RTVSPost2010Prop33
280
     0
102
RTVSPost2010PropOp33
 70
     1
102
RTVSPost2010Prop34
280
     0
102
RTVSPost2010PropOp34
 70
     1
102
RTVSPost2010Prop35
280
     0
102
RTVSPost2010PropOp35
 70
     1
102
RTVSPost2010Prop36
280
     0
102
RTVSPost2010PropOp36
 70
     1
102
RTVSPost2010Prop37
 90
       50
102
RTVSPost2010PropOp37
 70
     1
102
RTVSPost2010Prop38
140
0.0
102
RTVSPost2010PropOp38
 70
     1
102
RTVSPost2010Prop39
140
1.0
102
RTVSPost2010PropOp39
 70
     1
102
RTVSPost2010Prop40
 90
        0
102
RTVSPost2010PropOp40
 70
     1
102
RTVSPost2010Prop41ColorIndex
 90
       18
102
RTVSPost2010Prop41ColorRGB
 90
        0
102
RTVSPost2010PropOp41
 70
     1
102
RTVSPost2010Prop42
 90
       50
102
RTVSPost2010PropOp42
 70
     1
102
RTVSPost2010Prop43
 90
        3
102
RTVSPost2010PropOp43
 70
     1
102
RTVSPost2010Prop44ColorIndex
 90
        5
102
RTVSPost2010Prop44ColorRGB
 90
      255
102
RTVSPost2010PropOp44
 70
     1
102
RTVSPost2010Prop45
280
     0
102
RTVSPost2010PropOp45
 70
     1
102
RTVSPost2010Prop46
 90
       50
102
RTVSPost2010PropOp46
 70
     1
102
RTVSPost2010Prop47
 90
       50
102
RTVSPost2010PropOp47
 70
     1
102
RTVSPost2010Prop48
 90
       50
102
RTVSPost2010PropOp48
 70
     1
102
RTVSPost2010Prop49
280
     0
102
RTVSPost2010PropOp49
 70
     1
102
RTVSPost2010Prop50
 90
       50
102
RTVSPost2010PropOp50
 70
     1
102
RTVSPost2010Prop51ColorIndex
 90
      256
102
RTVSPost2010Prop51ColorRGB
 90
-16777216
102
RTVSPost2010PropOp51
 70
     0
102
RTVSPost2010Prop52
140
1.0
102
RTVSPost2010PropOp52
 70
     0
102
RTVSPost2010Prop53
 90
        2
102
RTVSPost2010PropOp53
 70
     1
102
RTVSPost2010Prop54
  1
strokes_ogs.tif
102
RTVSPost2010PropOp54
 70
     1
102
RTVSPost2010Prop55
280
     0
102
RTVSPost2010PropOp55
 70
     1
102
RTVSPost2010Prop56
140
1.0
102
RTVSPost2010PropOp56
 70
     1
102
RTVSPost2010Prop57
140
1.0
102
RTVSPost2010PropOp57
 70
     1
  0
XRECORD
  5
317
102
{ACAD_REACTORS
330
316
102
}
330
316
100
AcDbXrecord
280
     1
102
RTVSPropertyOp0
 70
     1
102
RTVSPropertyOp1
 70
     1
102
RTVSPropertyOp2
 70
     1
102
RTVSPropertyOp3
 70
     1
102
RTVSPropertyOp4
 70
     1
102
RTVSPropertyOp5
 70
     1
102
RTVSPropertyOp6
 70
     1
102
RTVSPropertyOp7
 70
     1
102
RTVSPropertyOp8
 70
     1
102
RTVSPropertyOp9
 70
     1
102
RTVSPropertyOp10
 70
     1
102
RTVSPropertyOp11
 70
     1
102
RTVSPropertyOp12
 70
     1
102
RTVSPropertyOp13
 70
     1
102
RTVSPropertyOp14
 70
     1
102
RTVSPropertyOp15
 70
     1
102
RTVSPropertyOp16
 70
     1
102
RTVSPropertyOp17
 70
     1
102
RTVSPropertyOp18
 70
     1
102
RTVSPropertyOp19
 70
     1
102
RTVSPropertyOp20
 70
     1
102
RTVSPropertyOp21
 70
     1
102
RTVSPropertyOp22
 70
     1
102
RTVSPropertyOp23
 70
     1
102
RTVSPropertyOp24
 70
     1
102
RTVSPropertyOp25
 70
     1
102
RTVSPropertyOp26
 70
     1
102
RTVSPropertyOp27
 70
     1
102
RTVSPropertyOp28
 70
     1
102
RTVSPropertyOp29
 70
     1
102
RTVSPropertyOp30
 70
     1
102
RTVSPropertyOp31
 70
     1
102
RTVSPropertyOp32
 70
     1
102
RTVSPropertyOp33
 70
     1
102
RTVSPropertyOp34
 70
     1
102
RTVSPropertyOp35
 70
     1
102
RTVSPropertyOp36
 70
     1
102
RTVSPropertyOp37
 70
     1
102
RTVSPropertyOp38
 70
     1
102
RTVSPropertyOp39
 70
     1
102
RTVSPropertyOp40
 70
     1
102
RTVSPropertyOp41
 70
     1
102
RTVSPropertyOp42
 70
     1
102
RTVSPropertyOp43
 70
     1
102
RTVSPropertyOp44
 70
     1
102
RTVSPropertyOp45
 70
     1
102
RTVSPropertyOp46
 70
     1
102
RTVSPropertyOp47
 70
     1
102
RTVSPropertyOp48
 70
     1
102
RTVSPropertyOp49
 70
     1
102
RTVSPropertyOp50
 70
     1
102
RTVSPropertyOp51
 70
     0
102
RTVSPropertyOp52
 70
     0
102
RTVSPropertyOp53
 70
     1
102
RTVSPropertyOp54
 70
     1
102
RTVSPropertyOp55
 70
     1
102
RTVSPropertyOp56
 70
     1
102
RTVSPropertyOp57
 70
     1
102
RTVSPost2010Prop28
280
     0
102
RTVSPost2010PropOp28
 70
     1
102
RTVSPost2010Prop29
280
     1
102
RTVSPost2010PropOp29
 70
     1
102
RTVSPost2010Prop30
280
     1
102
RTVSPost2010PropOp30
 70
     1
102
RTVSPost2010Prop31
280
     0
102
RTVSPost2010PropOp31
 70
     1
102
RTVSPost2010Prop32
280
     0
102
RTVSPost2010PropOp32
 70
     1
102
RTVSPost2010Prop33
280
     0
102
RTVSPost2010PropOp33
 70
     1
102
RTVSPost2010Prop34
280
     0
102
RTVSPost2010PropOp34
 70
     1
102
RTVSPost2010Prop35
280
     0
102
RTVSPost2010PropOp35
 70
     1
102
RTVSPost2010Prop36
280
     0
102
RTVSPost2010PropOp36
 70
     1
102
RTVSPost2010Prop37
 90
       50
102
RTVSPost2010PropOp37
 70
     1
102
RTVSPost2010Prop38
140
0.0
102
RTVSPost2010PropOp38
 70
     1
102
RTVSPost2010Prop39
140
1.0
102
RTVSPost2010PropOp39
 70
     1
102
RTVSPost2010Prop40
 90
        0
102
RTVSPost2010PropOp40
 70
     1
102
RTVSPost2010Prop41ColorIndex
 90
       18
102
RTVSPost2010Prop41ColorRGB
 90
        0
102
RTVSPost2010PropOp41
 70
     1
102
RTVSPost2010Prop42
 90
       50
102
RTVSPost2010PropOp42
 70
     1
102
RTVSPost2010Prop43
 90
        3
102
RTVSPost2010PropOp43
 70
     1
102
RTVSPost2010Prop44ColorIndex
 90
        5
102
RTVSPost2010Prop44ColorRGB
 90
      255
102
RTVSPost2010PropOp44
 70
     1
102
RTVSPost2010Prop45
280
     0
102
RTVSPost2010PropOp45
 70
     1
102
RTVSPost2010Prop46
 90
       50
102
RTVSPost2010PropOp46
 70
     1
102
RTVSPost2010Prop47
 90
       50
102
RTVSPost2010PropOp47
 70
     1
102
RTVSPost2010Prop48
 90
       50
102
RTVSPost2010PropOp48
 70
     1
102
RTVSPost2010Prop49
280
     0
102
RTVSPost2010PropOp49
 70
     1
102
RTVSPost2010Prop50
 90
       50
102
RTVSPost2010PropOp50
 70
     1
102
RTVSPost2010Prop51ColorIndex
 90
      256
102
RTVSPost2010Prop51ColorRGB
 90
-16777216
102
RTVSPost2010PropOp51
 70
     0
102
RTVSPost2010Prop52
140
1.0
102
RTVSPost2010PropOp52
 70
     0
102
RTVSPost2010Prop53
 90
        2
102
RTVSPost2010PropOp53
 70
     1
102
RTVSPost2010Prop54
  1
strokes_ogs.tif
102
RTVSPost2010PropOp54
 70
     1
102
RTVSPost2010Prop55
280
     0
102
RTVSPost2010PropOp55
 70
     1
102
RTVSPost2010Prop56
140
1.0
102
RTVSPost2010PropOp56
 70
     1
102
RTVSPost2010Prop57
140
1.0
102
RTVSPost2010PropOp57
 70
     1
  0
XRECORD
  5
30B
102
{ACAD_REACTORS
330
30A
102
}
330
30A
100
AcDbXrecord
280
     1
102
RTVSPropertyOp0
 70
     1
102
RTVSPropertyOp1
 70
     1
102
RTVSPropertyOp2
 70
     1
102
RTVSPropertyOp3
 70
     1
102
RTVSPropertyOp4
 70
     1
102
RTVSPropertyOp5
 70
     1
102
RTVSPropertyOp6
 70
     1
102
RTVSPropertyOp7
 70
     1
102
RTVSPropertyOp8
 70
     1
102
RTVSPropertyOp9
 70
     1
102
RTVSPropertyOp10
 70
     1
102
RTVSPropertyOp11
 70
     1
102
RTVSPropertyOp12
 70
     1
102
RTVSPropertyOp13
 70
     1
102
RTVSPropertyOp14
 70
     1
102
RTVSPropertyOp15
 70
     1
102
RTVSPropertyOp16
 70
     1
102
RTVSPropertyOp17
 70
     1
102
RTVSPropertyOp18
 70
     1
102
RTVSPropertyOp19
 70
     1
102
RTVSPropertyOp20
 70
     1
102
RTVSPropertyOp21
 70
     1
102
RTVSPropertyOp22
 70
     1
102
RTVSPropertyOp23
 70
     1
102
RTVSPropertyOp24
 70
     1
102
RTVSPropertyOp25
 70
     1
102
RTVSPropertyOp26
 70
     1
102
RTVSPropertyOp27
 70
     1
102
RTVSPropertyOp28
 70
     1
102
RTVSPropertyOp29
 70
     1
102
RTVSPropertyOp30
 70
     1
102
RTVSPropertyOp31
 70
     1
102
RTVSPropertyOp32
 70
     1
102
RTVSPropertyOp33
 70
     1
102
RTVSPropertyOp34
 70
     1
102
RTVSPropertyOp35
 70
     1
102
RTVSPropertyOp36
 70
     1
102
RTVSPropertyOp37
 70
     1
102
RTVSPropertyOp38
 70
     1
102
RTVSPropertyOp39
 70
     1
102
RTVSPropertyOp40
 70
     1
102
RTVSPropertyOp41
 70
     1
102
RTVSPropertyOp42
 70
     1
102
RTVSPropertyOp43
 70
     1
102
RTVSPropertyOp44
 70
     1
102
RTVSPropertyOp45
 70
     1
102
RTVSPropertyOp46
 70
     1
102
RTVSPropertyOp47
 70
     1
102
RTVSPropertyOp48
 70
     1
102
RTVSPropertyOp49
 70
     1
102
RTVSPropertyOp50
 70
     1
102
RTVSPropertyOp51
 70
     0
102
RTVSPropertyOp52
 70
     0
102
RTVSPropertyOp53
 70
     1
102
RTVSPropertyOp54
 70
     1
102
RTVSPropertyOp55
 70
     1
102
RTVSPropertyOp56
 70
     1
102
RTVSPropertyOp57
 70
     1
102
RTVSPost2010Prop28
280
     0
102
RTVSPost2010PropOp28
 70
     1
102
RTVSPost2010Prop29
280
     1
102
RTVSPost2010PropOp29
 70
     1
102
RTVSPost2010Prop30
280
     1
102
RTVSPost2010PropOp30
 70
     1
102
RTVSPost2010Prop31
280
     0
102
RTVSPost2010PropOp31
 70
     1
102
RTVSPost2010Prop32
280
     0
102
RTVSPost2010PropOp32
 70
     1
102
RTVSPost2010Prop33
280
     0
102
RTVSPost2010PropOp33
 70
     1
102
RTVSPost2010Prop34
280
     0
102
RTVSPost2010PropOp34
 70
     1
102
RTVSPost2010Prop35
280
     0
102
RTVSPost2010PropOp35
 70
     1
102
RTVSPost2010Prop36
280
     0
102
RTVSPost2010PropOp36
 70
     1
102
RTVSPost2010Prop37
 90
       50
102
RTVSPost2010PropOp37
 70
     1
102
RTVSPost2010Prop38
140
0.0
102
RTVSPost2010PropOp38
 70
     1
102
RTVSPost2010Prop39
140
1.0
102
RTVSPost2010PropOp39
 70
     1
102
RTVSPost2010Prop40
 90
        0
102
RTVSPost2010PropOp40
 70
     1
102
RTVSPost2010Prop41ColorIndex
 90
       18
102
RTVSPost2010Prop41ColorRGB
 90
        0
102
RTVSPost2010PropOp41
 70
     1
102
RTVSPost2010Prop42
 90
       50
102
RTVSPost2010PropOp42
 70
     1
102
RTVSPost2010Prop43
 90
        3
102
RTVSPost2010PropOp43
 70
     1
102
RTVSPost2010Prop44ColorIndex
 90
        5
102
RTVSPost2010Prop44ColorRGB
 90
      255
102
RTVSPost2010PropOp44
 70
     1
102
RTVSPost2010Prop45
280
     0
102
RTVSPost2010PropOp45
 70
     1
102
RTVSPost2010Prop46
 90
       50
102
RTVSPost2010PropOp46
 70
     1
102
RTVSPost2010Prop47
 90
       50
102
RTVSPost2010PropOp47
 70
     1
102
RTVSPost2010Prop48
 90
       50
102
RTVSPost2010PropOp48
 70
     1
102
RTVSPost2010Prop49
280
     0
102
RTVSPost2010PropOp49
 70
     1
102
RTVSPost2010Prop50
 90
       50
102
RTVSPost2010PropOp50
 70
     1
102
RTVSPost2010Prop51ColorIndex
 90
      256
102
RTVSPost2010Prop51ColorRGB
 90
-16777216
102
RTVSPost2010PropOp51
 70
     0
102
RTVSPost2010Prop52
140
1.0
102
RTVSPost2010PropOp52
 70
     0
102
RTVSPost2010Prop53
 90
        2
102
RTVSPost2010PropOp53
 70
     1
102
RTVSPost2010Prop54
  1
strokes_ogs.tif
102
RTVSPost2010PropOp54
 70
     1
102
RTVSPost2010Prop55
280
     0
102
RTVSPost2010PropOp55
 70
     1
102
RTVSPost2010Prop56
140
1.0
102
RTVSPost2010PropOp56
 70
     1
102
RTVSPost2010Prop57
140
1.0
102
RTVSPost2010PropOp57
 70
     1
  0
XRECORD
  5
30D
102
{ACAD_REACTORS
330
30C
102
}
330
30C
100
AcDbXrecord
280
     1
102
RTVSPropertyOp0
 70
     1
102
RTVSPropertyOp1
 70
     1
102
RTVSPropertyOp2
 70
     1
102
RTVSPropertyOp3
 70
     1
102
RTVSPropertyOp4
 70
     1
102
RTVSPropertyOp5
 70
     1
102
RTVSPropertyOp6
 70
     1
102
RTVSPropertyOp7
 70
     1
102
RTVSPropertyOp8
 70
     1
102
RTVSPropertyOp9
 70
     1
102
RTVSPropertyOp10
 70
     1
102
RTVSPropertyOp11
 70
     1
102
RTVSPropertyOp12
 70
     1
102
RTVSPropertyOp13
 70
     1
102
RTVSPropertyOp14
 70
     1
102
RTVSPropertyOp15
 70
     1
102
RTVSPropertyOp16
 70
     1
102
RTVSPropertyOp17
 70
     1
102
RTVSPropertyOp18
 70
     1
102
RTVSPropertyOp19
 70
     1
102
RTVSPropertyOp20
 70
     1
102
RTVSPropertyOp21
 70
     1
102
RTVSPropertyOp22
 70
     1
102
RTVSPropertyOp23
 70
     1
102
RTVSPropertyOp24
 70
     1
102
RTVSPropertyOp25
 70
     1
102
RTVSPropertyOp26
 70
     1
102
RTVSPropertyOp27
 70
     1
102
RTVSPropertyOp28
 70
     1
102
RTVSPropertyOp29
 70
     1
102
RTVSPropertyOp30
 70
     1
102
RTVSPropertyOp31
 70
     1
102
RTVSPropertyOp32
 70
     1
102
RTVSPropertyOp33
 70
     1
102
RTVSPropertyOp34
 70
     1
102
RTVSPropertyOp35
 70
     1
102
RTVSPropertyOp36
 70
     1
102
RTVSPropertyOp37
 70
     1
102
RTVSPropertyOp38
 70
     1
102
RTVSPropertyOp39
 70
     1
102
RTVSPropertyOp40
 70
     1
102
RTVSPropertyOp41
 70
     1
102
RTVSPropertyOp42
 70
     1
102
RTVSPropertyOp43
 70
     1
102
RTVSPropertyOp44
 70
     1
102
RTVSPropertyOp45
 70
     1
102
RTVSPropertyOp46
 70
     1
102
RTVSPropertyOp47
 70
     1
102
RTVSPropertyOp48
 70
     1
102
RTVSPropertyOp49
 70
     1
102
RTVSPropertyOp50
 70
     1
102
RTVSPropertyOp51
 70
     0
102
RTVSPropertyOp52
 70
     0
102
RTVSPropertyOp53
 70
     1
102
RTVSPropertyOp54
 70
     1
102
RTVSPropertyOp55
 70
     1
102
RTVSPropertyOp56
 70
     1
102
RTVSPropertyOp57
 70
     1
102
RTVSPost2010Prop28
280
     0
102
RTVSPost2010PropOp28
 70
     1
102
RTVSPost2010Prop29
280
     1
102
RTVSPost2010PropOp29
 70
     1
102
RTVSPost2010Prop30
280
     1
102
RTVSPost2010PropOp30
 70
     1
102
RTVSPost2010Prop31
280
     0
102
RTVSPost2010PropOp31
 70
     1
102
RTVSPost2010Prop32
280
     0
102
RTVSPost2010PropOp32
 70
     1
102
RTVSPost2010Prop33
280
     0
102
RTVSPost2010PropOp33
 70
     1
102
RTVSPost2010Prop34
280
     0
102
RTVSPost2010PropOp34
 70
     1
102
RTVSPost2010Prop35
280
     0
102
RTVSPost2010PropOp35
 70
     1
102
RTVSPost2010Prop36
280
     0
102
RTVSPost2010PropOp36
 70
     1
102
RTVSPost2010Prop37
 90
       50
102
RTVSPost2010PropOp37
 70
     1
102
RTVSPost2010Prop38
140
0.0
102
RTVSPost2010PropOp38
 70
     1
102
RTVSPost2010Prop39
140
1.0
102
RTVSPost2010PropOp39
 70
     1
102
RTVSPost2010Prop40
 90
        0
102
RTVSPost2010PropOp40
 70
     1
102
RTVSPost2010Prop41ColorIndex
 90
       18
102
RTVSPost2010Prop41ColorRGB
 90
        0
102
RTVSPost2010PropOp41
 70
     1
102
RTVSPost2010Prop42
 90
       50
102
RTVSPost2010PropOp42
 70
     1
102
RTVSPost2010Prop43
 90
        3
102
RTVSPost2010PropOp43
 70
     1
102
RTVSPost2010Prop44ColorIndex
 90
        5
102
RTVSPost2010Prop44ColorRGB
 90
      255
102
RTVSPost2010PropOp44
 70
     1
102
RTVSPost2010Prop45
280
     0
102
RTVSPost2010PropOp45
 70
     1
102
RTVSPost2010Prop46
 90
       50
102
RTVSPost2010PropOp46
 70
     1
102
RTVSPost2010Prop47
 90
       50
102
RTVSPost2010PropOp47
 70
     1
102
RTVSPost2010Prop48
 90
       50
102
RTVSPost2010PropOp48
 70
     1
102
RTVSPost2010Prop49
280
     0
102
RTVSPost2010PropOp49
 70
     1
102
RTVSPost2010Prop50
 90
       50
102
RTVSPost2010PropOp50
 70
     1
102
RTVSPost2010Prop51ColorIndex
 90
      256
102
RTVSPost2010Prop51ColorRGB
 90
-16777216
102
RTVSPost2010PropOp51
 70
     0
102
RTVSPost2010Prop52
140
1.0
102
RTVSPost2010PropOp52
 70
     0
102
RTVSPost2010Prop53
 90
        2
102
RTVSPost2010PropOp53
 70
     1
102
RTVSPost2010Prop54
  1
strokes_ogs.tif
102
RTVSPost2010PropOp54
 70
     1
102
RTVSPost2010Prop55
280
     0
102
RTVSPost2010PropOp55
 70
     1
102
RTVSPost2010Prop56
140
1.0
102
RTVSPost2010PropOp56
 70
     1
102
RTVSPost2010Prop57
140
1.0
102
RTVSPost2010PropOp57
 70
     1
  0
XRECORD
  5
31D
102
{ACAD_REACTORS
330
31C
102
}
330
31C
100
AcDbXrecord
280
     1
102
RTVSPropertyOp0
 70
     0
102
RTVSPropertyOp1
 70
     0
102
RTVSPropertyOp2
 70
     0
102
RTVSPropertyOp3
 70
     0
102
RTVSPropertyOp4
 70
     0
102
RTVSPropertyOp5
 70
     0
102
RTVSPropertyOp6
 70
     0
102
RTVSPropertyOp7
 70
     0
102
RTVSPropertyOp8
 70
     0
102
RTVSPropertyOp9
 70
     0
102
RTVSPropertyOp10
 70
     0
102
RTVSPropertyOp11
 70
     0
102
RTVSPropertyOp12
 70
     0
102
RTVSPropertyOp13
 70
     0
102
RTVSPropertyOp14
 70
     2
102
RTVSPropertyOp15
 70
     0
102
RTVSPropertyOp16
 70
     0
102
RTVSPropertyOp17
 70
     0
102
RTVSPropertyOp18
 70
     0
102
RTVSPropertyOp19
 70
     0
102
RTVSPropertyOp20
 70
     0
102
RTVSPropertyOp21
 70
     0
102
RTVSPropertyOp22
 70
     0
102
RTVSPropertyOp23
 70
     0
102
RTVSPropertyOp24
 70
     0
102
RTVSPropertyOp25
 70
     0
102
RTVSPropertyOp26
 70
     0
102
RTVSPropertyOp27
 70
     0
102
RTVSPropertyOp28
 70
     0
102
RTVSPropertyOp29
 70
     0
102
RTVSPropertyOp30
 70
     0
102
RTVSPropertyOp31
 70
     0
102
RTVSPropertyOp32
 70
     0
102
RTVSPropertyOp33
 70
     0
102
RTVSPropertyOp34
 70
     0
102
RTVSPropertyOp35
 70
     0
102
RTVSPropertyOp36
 70
     0
102
RTVSPropertyOp37
 70
     0
102
RTVSPropertyOp38
 70
     0
102
RTVSPropertyOp39
 70
     0
102
RTVSPropertyOp40
 70
     0
102
RTVSPropertyOp41
 70
     0
102
RTVSPropertyOp42
 70
     0
102
RTVSPropertyOp43
 70
     0
102
RTVSPropertyOp44
 70
     0
102
RTVSPropertyOp45
 70
     0
102
RTVSPropertyOp46
 70
     0
102
RTVSPropertyOp47
 70
     0
102
RTVSPropertyOp48
 70
     0
102
RTVSPropertyOp49
 70
     0
102
RTVSPropertyOp50
 70
     0
102
RTVSPropertyOp51
 70
     0
102
RTVSPropertyOp52
 70
     0
102
RTVSPropertyOp53
 70
     0
102
RTVSPropertyOp54
 70
     0
102
RTVSPropertyOp55
 70
     0
102
RTVSPropertyOp56
 70
     0
102
RTVSPropertyOp57
 70
     0
102
RTVSPost2010Prop28
280
     0
102
RTVSPost2010PropOp28
 70
     0
102
RTVSPost2010Prop29
280
     1
102
RTVSPost2010PropOp29
 70
     0
102
RTVSPost2010Prop30
280
     1
102
RTVSPost2010PropOp30
 70
     0
102
RTVSPost2010Prop31
280
     0
102
RTVSPost2010PropOp31
 70
     0
102
RTVSPost2010Prop32
280
     0
102
RTVSPost2010PropOp32
 70
     0
102
RTVSPost2010Prop33
280
     0
102
RTVSPost2010PropOp33
 70
     0
102
RTVSPost2010Prop34
280
     0
102
RTVSPost2010PropOp34
 70
     0
102
RTVSPost2010Prop35
280
     0
102
RTVSPost2010PropOp35
 70
     0
102
RTVSPost2010Prop36
280
     0
102
RTVSPost2010PropOp36
 70
     0
102
RTVSPost2010Prop37
 90
       50
102
RTVSPost2010PropOp37
 70
     0
102
RTVSPost2010Prop38
140
0.0
102
RTVSPost2010PropOp38
 70
     0
102
RTVSPost2010Prop39
140
1.0
102
RTVSPost2010PropOp39
 70
     0
102
RTVSPost2010Prop40
 90
        0
102
RTVSPost2010PropOp40
 70
     0
102
RTVSPost2010Prop41ColorIndex
 90
       18
102
RTVSPost2010Prop41ColorRGB
 90
        0
102
RTVSPost2010PropOp41
 70
     0
102
RTVSPost2010Prop42
 90
       50
102
RTVSPost2010PropOp42
 70
     0
102
RTVSPost2010Prop43
 90
        3
102
RTVSPost2010PropOp43
 70
     0
102
RTVSPost2010Prop44ColorIndex
 90
        5
102
RTVSPost2010Prop44ColorRGB
 90
      255
102
RTVSPost2010PropOp44
 70
     0
102
RTVSPost2010Prop45
280
     0
102
RTVSPost2010PropOp45
 70
     0
102
RTVSPost2010Prop46
 90
       50
102
RTVSPost2010PropOp46
 70
     0
102
RTVSPost2010Prop47
 90
       50
102
RTVSPost2010PropOp47
 70
     0
102
RTVSPost2010Prop48
 90
       50
102
RTVSPost2010PropOp48
 70
     0
102
RTVSPost2010Prop49
280
     0
102
RTVSPost2010PropOp49
 70
     0
102
RTVSPost2010Prop50
 90
       50
102
RTVSPost2010PropOp50
 70
     0
102
RTVSPost2010Prop51ColorIndex
 90
      256
102
RTVSPost2010Prop51ColorRGB
 90
-16777216
102
RTVSPost2010PropOp51
 70
     0
102
RTVSPost2010Prop52
140
1.0
102
RTVSPost2010PropOp52
 70
     0
102
RTVSPost2010Prop53
 90
        2
102
RTVSPost2010PropOp53
 70
     0
102
RTVSPost2010Prop54
  1
strokes_ogs.tif
102
RTVSPost2010PropOp54
 70
     0
102
RTVSPost2010Prop55
280
     0
102
RTVSPost2010PropOp55
 70
     0
102
RTVSPost2010Prop56
140
1.0
102
RTVSPost2010PropOp56
 70
     0
102
RTVSPost2010Prop57
140
1.0
102
RTVSPost2010PropOp57
 70
     0
  0
XRECORD
  5
315
102
{ACAD_REACTORS
330
314
102
}
330
314
100
AcDbXrecord
280
     1
102
RTVSPropertyOp0
 70
     1
102
RTVSPropertyOp1
 70
     1
102
RTVSPropertyOp2
 70
     1
102
RTVSPropertyOp3
 70
     1
102
RTVSPropertyOp4
 70
     1
102
RTVSPropertyOp5
 70
     1
102
RTVSPropertyOp6
 70
     1
102
RTVSPropertyOp7
 70
     1
102
RTVSPropertyOp8
 70
     1
102
RTVSPropertyOp9
 70
     1
102
RTVSPropertyOp10
 70
     1
102
RTVSPropertyOp11
 70
     1
102
RTVSPropertyOp12
 70
     1
102
RTVSPropertyOp13
 70
     1
102
RTVSPropertyOp14
 70
     1
102
RTVSPropertyOp15
 70
     1
102
RTVSPropertyOp16
 70
     1
102
RTVSPropertyOp17
 70
     1
102
RTVSPropertyOp18
 70
     1
102
RTVSPropertyOp19
 70
     1
102
RTVSPropertyOp20
 70
     1
102
RTVSPropertyOp21
 70
     1
102
RTVSPropertyOp22
 70
     1
102
RTVSPropertyOp23
 70
     1
102
RTVSPropertyOp24
 70
     1
102
RTVSPropertyOp25
 70
     1
102
RTVSPropertyOp26
 70
     1
102
RTVSPropertyOp27
 70
     1
102
RTVSPropertyOp28
 70
     1
102
RTVSPropertyOp29
 70
     1
102
RTVSPropertyOp30
 70
     1
102
RTVSPropertyOp31
 70
     1
102
RTVSPropertyOp32
 70
     1
102
RTVSPropertyOp33
 70
     1
102
RTVSPropertyOp34
 70
     1
102
RTVSPropertyOp35
 70
     1
102
RTVSPropertyOp36
 70
     1
102
RTVSPropertyOp37
 70
     1
102
RTVSPropertyOp38
 70
     1
102
RTVSPropertyOp39
 70
     1
102
RTVSPropertyOp40
 70
     1
102
RTVSPropertyOp41
 70
     1
102
RTVSPropertyOp42
 70
     1
102
RTVSPropertyOp43
 70
     1
102
RTVSPropertyOp44
 70
     1
102
RTVSPropertyOp45
 70
     1
102
RTVSPropertyOp46
 70
     1
102
RTVSPropertyOp47
 70
     1
102
RTVSPropertyOp48
 70
     1
102
RTVSPropertyOp49
 70
     1
102
RTVSPropertyOp50
 70
     1
102
RTVSPropertyOp51
 70
     0
102
RTVSPropertyOp52
 70
     0
102
RTVSPropertyOp53
 70
     1
102
RTVSPropertyOp54
 70
     1
102
RTVSPropertyOp55
 70
     1
102
RTVSPropertyOp56
 70
     1
102
RTVSPropertyOp57
 70
     1
102
RTVSPost2010Prop28
280
     0
102
RTVSPost2010PropOp28
 70
     1
102
RTVSPost2010Prop29
280
     1
102
RTVSPost2010PropOp29
 70
     1
102
RTVSPost2010Prop30
280
     1
102
RTVSPost2010PropOp30
 70
     1
102
RTVSPost2010Prop31
280
     0
102
RTVSPost2010PropOp31
 70
     1
102
RTVSPost2010Prop32
280
     0
102
RTVSPost2010PropOp32
 70
     1
102
RTVSPost2010Prop33
280
     0
102
RTVSPost2010PropOp33
 70
     1
102
RTVSPost2010Prop34
280
     0
102
RTVSPost2010PropOp34
 70
     1
102
RTVSPost2010Prop35
280
     0
102
RTVSPost2010PropOp35
 70
     1
102
RTVSPost2010Prop36
280
     0
102
RTVSPost2010PropOp36
 70
     1
102
RTVSPost2010Prop37
 90
       50
102
RTVSPost2010PropOp37
 70
     1
102
RTVSPost2010Prop38
140
0.0
102
RTVSPost2010PropOp38
 70
     1
102
RTVSPost2010Prop39
140
1.0
102
RTVSPost2010PropOp39
 70
     1
102
RTVSPost2010Prop40
 90
        0
102
RTVSPost2010PropOp40
 70
     1
102
RTVSPost2010Prop41ColorIndex
 90
       18
102
RTVSPost2010Prop41ColorRGB
 90
        0
102
RTVSPost2010PropOp41
 70
     1
102
RTVSPost2010Prop42
 90
       50
102
RTVSPost2010PropOp42
 70
     1
102
RTVSPost2010Prop43
 90
        3
102
RTVSPost2010PropOp43
 70
     1
102
RTVSPost2010Prop44ColorIndex
 90
        5
102
RTVSPost2010Prop44ColorRGB
 90
      255
102
RTVSPost2010PropOp44
 70
     1
102
RTVSPost2010Prop45
280
     0
102
RTVSPost2010PropOp45
 70
     1
102
RTVSPost2010Prop46
 90
       50
102
RTVSPost2010PropOp46
 70
     1
102
RTVSPost2010Prop47
 90
       50
102
RTVSPost2010PropOp47
 70
     1
102
RTVSPost2010Prop48
 90
       50
102
RTVSPost2010PropOp48
 70
     1
102
RTVSPost2010Prop49
280
     0
102
RTVSPost2010PropOp49
 70
     1
102
RTVSPost2010Prop50
 90
       50
102
RTVSPost2010PropOp50
 70
     1
102
RTVSPost2010Prop51ColorIndex
 90
      256
102
RTVSPost2010Prop51ColorRGB
 90
-16777216
102
RTVSPost2010PropOp51
 70
     0
102
RTVSPost2010Prop52
140
1.0
102
RTVSPost2010PropOp52
 70
     0
102
RTVSPost2010Prop53
 90
        2
102
RTVSPost2010PropOp53
 70
     1
102
RTVSPost2010Prop54
  1
strokes_ogs.tif
102
RTVSPost2010PropOp54
 70
     1
102
RTVSPost2010Prop55
280
     0
102
RTVSPost2010PropOp55
 70
     1
102
RTVSPost2010Prop56
140
1.0
102
RTVSPost2010PropOp56
 70
     1
102
RTVSPost2010Prop57
140
1.0
102
RTVSPost2010PropOp57
 70
     1
  0
XRECORD
  5
2F9
102
{ACAD_REACTORS
330
2F8
102
}
330
2F8
100
AcDbXrecord
280
     1
102
RTVSPropertyOp0
 70
     1
102
RTVSPropertyOp1
 70
     1
102
RTVSPropertyOp2
 70
     1
102
RTVSPropertyOp3
 70
     1
102
RTVSPropertyOp4
 70
     1
102
RTVSPropertyOp5
 70
     1
102
RTVSPropertyOp6
 70
     1
102
RTVSPropertyOp7
 70
     1
102
RTVSPropertyOp8
 70
     1
102
RTVSPropertyOp9
 70
     1
102
RTVSPropertyOp10
 70
     1
102
RTVSPropertyOp11
 70
     1
102
RTVSPropertyOp12
 70
     1
102
RTVSPropertyOp13
 70
     1
102
RTVSPropertyOp14
 70
     1
102
RTVSPropertyOp15
 70
     1
102
RTVSPropertyOp16
 70
     1
102
RTVSPropertyOp17
 70
     1
102
RTVSPropertyOp18
 70
     1
102
RTVSPropertyOp19
 70
     1
102
RTVSPropertyOp20
 70
     1
102
RTVSPropertyOp21
 70
     1
102
RTVSPropertyOp22
 70
     1
102
RTVSPropertyOp23
 70
     1
102
RTVSPropertyOp24
 70
     1
102
RTVSPropertyOp25
 70
     1
102
RTVSPropertyOp26
 70
     1
102
RTVSPropertyOp27
 70
     1
102
RTVSPropertyOp28
 70
     1
102
RTVSPropertyOp29
 70
     1
102
RTVSPropertyOp30
 70
     1
102
RTVSPropertyOp31
 70
     1
102
RTVSPropertyOp32
 70
     1
102
RTVSPropertyOp33
 70
     1
102
RTVSPropertyOp34
 70
     1
102
RTVSPropertyOp35
 70
     1
102
RTVSPropertyOp36
 70
     1
102
RTVSPropertyOp37
 70
     1
102
RTVSPropertyOp38
 70
     1
102
RTVSPropertyOp39
 70
     1
102
RTVSPropertyOp40
 70
     1
102
RTVSPropertyOp41
 70
     1
102
RTVSPropertyOp42
 70
     1
102
RTVSPropertyOp43
 70
     1
102
RTVSPropertyOp44
 70
     1
102
RTVSPropertyOp45
 70
     1
102
RTVSPropertyOp46
 70
     1
102
RTVSPropertyOp47
 70
     1
102
RTVSPropertyOp48
 70
     1
102
RTVSPropertyOp49
 70
     1
102
RTVSPropertyOp50
 70
     1
102
RTVSPropertyOp51
 70
     0
102
RTVSPropertyOp52
 70
     0
102
RTVSPropertyOp53
 70
     1
102
RTVSPropertyOp54
 70
     1
102
RTVSPropertyOp55
 70
     1
102
RTVSPropertyOp56
 70
     1
102
RTVSPropertyOp57
 70
     1
102
RTVSPost2010Prop28
280
     0
102
RTVSPost2010PropOp28
 70
     1
102
RTVSPost2010Prop29
280
     1
102
RTVSPost2010PropOp29
 70
     1
102
RTVSPost2010Prop30
280
     1
102
RTVSPost2010PropOp30
 70
     1
102
RTVSPost2010Prop31
280
     0
102
RTVSPost2010PropOp31
 70
     1
102
RTVSPost2010Prop32
280
     0
102
RTVSPost2010PropOp32
 70
     1
102
RTVSPost2010Prop33
280
     0
102
RTVSPost2010PropOp33
 70
     1
102
RTVSPost2010Prop34
280
     0
102
RTVSPost2010PropOp34
 70
     1
102
RTVSPost2010Prop35
280
     0
102
RTVSPost2010PropOp35
 70
     1
102
RTVSPost2010Prop36
280
     0
102
RTVSPost2010PropOp36
 70
     1
102
RTVSPost2010Prop37
 90
       50
102
RTVSPost2010PropOp37
 70
     1
102
RTVSPost2010Prop38
140
0.0
102
RTVSPost2010PropOp38
 70
     1
102
RTVSPost2010Prop39
140
1.0
102
RTVSPost2010PropOp39
 70
     1
102
RTVSPost2010Prop40
 90
        0
102
RTVSPost2010PropOp40
 70
     1
102
RTVSPost2010Prop41ColorIndex
 90
       18
102
RTVSPost2010Prop41ColorRGB
 90
        0
102
RTVSPost2010PropOp41
 70
     1
102
RTVSPost2010Prop42
 90
       50
102
RTVSPost2010PropOp42
 70
     1
102
RTVSPost2010Prop43
 90
        3
102
RTVSPost2010PropOp43
 70
     1
102
RTVSPost2010Prop44ColorIndex
 90
        5
102
RTVSPost2010Prop44ColorRGB
 90
      255
102
RTVSPost2010PropOp44
 70
     1
102
RTVSPost2010Prop45
280
     0
102
RTVSPost2010PropOp45
 70
     1
102
RTVSPost2010Prop46
 90
       50
102
RTVSPost2010PropOp46
 70
     1
102
RTVSPost2010Prop47
 90
       50
102
RTVSPost2010PropOp47
 70
     1
102
RTVSPost2010Prop48
 90
       50
102
RTVSPost2010PropOp48
 70
     1
102
RTVSPost2010Prop49
280
     0
102
RTVSPost2010PropOp49
 70
     1
102
RTVSPost2010Prop50
 90
       50
102
RTVSPost2010PropOp50
 70
     1
102
RTVSPost2010Prop51ColorIndex
 90
      256
102
RTVSPost2010Prop51ColorRGB
 90
-16777216
102
RTVSPost2010PropOp51
 70
     0
102
RTVSPost2010Prop52
140
1.0
102
RTVSPost2010PropOp52
 70
     0
102
RTVSPost2010Prop53
 90
        2
102
RTVSPost2010PropOp53
 70
     1
102
RTVSPost2010Prop54
  1
strokes_ogs.tif
102
RTVSPost2010PropOp54
 70
     1
102
RTVSPost2010Prop55
280
     0
102
RTVSPost2010PropOp55
 70
     1
102
RTVSPost2010Prop56
140
1.0
102
RTVSPost2010PropOp56
 70
     1
102
RTVSPost2010Prop57
140
1.0
102
RTVSPost2010PropOp57
 70
     1
  0
XRECORD
  5
2FB
102
{ACAD_REACTORS
330
2FA
102
}
330
2FA
100
AcDbXrecord
280
     1
102
RTVSPropertyOp0
 70
     1
102
RTVSPropertyOp1
 70
     1
102
RTVSPropertyOp2
 70
     1
102
RTVSPropertyOp3
 70
     1
102
RTVSPropertyOp4
 70
     1
102
RTVSPropertyOp5
 70
     1
102
RTVSPropertyOp6
 70
     1
102
RTVSPropertyOp7
 70
     1
102
RTVSPropertyOp8
 70
     1
102
RTVSPropertyOp9
 70
     1
102
RTVSPropertyOp10
 70
     1
102
RTVSPropertyOp11
 70
     1
102
RTVSPropertyOp12
 70
     1
102
RTVSPropertyOp13
 70
     1
102
RTVSPropertyOp14
 70
     1
102
RTVSPropertyOp15
 70
     1
102
RTVSPropertyOp16
 70
     1
102
RTVSPropertyOp17
 70
     1
102
RTVSPropertyOp18
 70
     1
102
RTVSPropertyOp19
 70
     1
102
RTVSPropertyOp20
 70
     1
102
RTVSPropertyOp21
 70
     1
102
RTVSPropertyOp22
 70
     1
102
RTVSPropertyOp23
 70
     1
102
RTVSPropertyOp24
 70
     1
102
RTVSPropertyOp25
 70
     1
102
RTVSPropertyOp26
 70
     1
102
RTVSPropertyOp27
 70
     1
102
RTVSPropertyOp28
 70
     1
102
RTVSPropertyOp29
 70
     1
102
RTVSPropertyOp30
 70
     1
102
RTVSPropertyOp31
 70
     1
102
RTVSPropertyOp32
 70
     1
102
RTVSPropertyOp33
 70
     1
102
RTVSPropertyOp34
 70
     1
102
RTVSPropertyOp35
 70
     1
102
RTVSPropertyOp36
 70
     1
102
RTVSPropertyOp37
 70
     1
102
RTVSPropertyOp38
 70
     1
102
RTVSPropertyOp39
 70
     1
102
RTVSPropertyOp40
 70
     1
102
RTVSPropertyOp41
 70
     1
102
RTVSPropertyOp42
 70
     1
102
RTVSPropertyOp43
 70
     1
102
RTVSPropertyOp44
 70
     1
102
RTVSPropertyOp45
 70
     1
102
RTVSPropertyOp46
 70
     1
102
RTVSPropertyOp47
 70
     1
102
RTVSPropertyOp48
 70
     1
102
RTVSPropertyOp49
 70
     1
102
RTVSPropertyOp50
 70
     1
102
RTVSPropertyOp51
 70
     0
102
RTVSPropertyOp52
 70
     0
102
RTVSPropertyOp53
 70
     1
102
RTVSPropertyOp54
 70
     1
102
RTVSPropertyOp55
 70
     1
102
RTVSPropertyOp56
 70
     1
102
RTVSPropertyOp57
 70
     1
102
RTVSPost2010Prop28
280
     0
102
RTVSPost2010PropOp28
 70
     1
102
RTVSPost2010Prop29
280
     1
102
RTVSPost2010PropOp29
 70
     1
102
RTVSPost2010Prop30
280
     1
102
RTVSPost2010PropOp30
 70
     1
102
RTVSPost2010Prop31
280
     0
102
RTVSPost2010PropOp31
 70
     1
102
RTVSPost2010Prop32
280
     0
102
RTVSPost2010PropOp32
 70
     1
102
RTVSPost2010Prop33
280
     0
102
RTVSPost2010PropOp33
 70
     1
102
RTVSPost2010Prop34
280
     0
102
RTVSPost2010PropOp34
 70
     1
102
RTVSPost2010Prop35
280
     0
102
RTVSPost2010PropOp35
 70
     1
102
RTVSPost2010Prop36
280
     0
102
RTVSPost2010PropOp36
 70
     1
102
RTVSPost2010Prop37
 90
       50
102
RTVSPost2010PropOp37
 70
     1
102
RTVSPost2010Prop38
140
0.0
102
RTVSPost2010PropOp38
 70
     1
102
RTVSPost2010Prop39
140
1.0
102
RTVSPost2010PropOp39
 70
     1
102
RTVSPost2010Prop40
 90
        0
102
RTVSPost2010PropOp40
 70
     1
102
RTVSPost2010Prop41ColorIndex
 90
       18
102
RTVSPost2010Prop41ColorRGB
 90
        0
102
RTVSPost2010PropOp41
 70
     1
102
RTVSPost2010Prop42
 90
       50
102
RTVSPost2010PropOp42
 70
     1
102
RTVSPost2010Prop43
 90
        3
102
RTVSPost2010PropOp43
 70
     1
102
RTVSPost2010Prop44ColorIndex
 90
        5
102
RTVSPost2010Prop44ColorRGB
 90
      255
102
RTVSPost2010PropOp44
 70
     1
102
RTVSPost2010Prop45
280
     0
102
RTVSPost2010PropOp45
 70
     1
102
RTVSPost2010Prop46
 90
       50
102
RTVSPost2010PropOp46
 70
     1
102
RTVSPost2010Prop47
 90
       50
102
RTVSPost2010PropOp47
 70
     1
102
RTVSPost2010Prop48
 90
       50
102
RTVSPost2010PropOp48
 70
     1
102
RTVSPost2010Prop49
280
     0
102
RTVSPost2010PropOp49
 70
     1
102
RTVSPost2010Prop50
 90
       50
102
RTVSPost2010PropOp50
 70
     1
102
RTVSPost2010Prop51ColorIndex
 90
      256
102
RTVSPost2010Prop51ColorRGB
 90
-16777216
102
RTVSPost2010PropOp51
 70
     0
102
RTVSPost2010Prop52
140
1.0
102
RTVSPost2010PropOp52
 70
     0
102
RTVSPost2010Prop53
 90
        2
102
RTVSPost2010PropOp53
 70
     1
102
RTVSPost2010Prop54
  1
strokes_ogs.tif
102
RTVSPost2010PropOp54
 70
     1
102
RTVSPost2010Prop55
280
     0
102
RTVSPost2010PropOp55
 70
     1
102
RTVSPost2010Prop56
140
1.0
102
RTVSPost2010PropOp56
 70
     1
102
RTVSPost2010Prop57
140
1.0
102
RTVSPost2010PropOp57
 70
     1
  0
XRECORD
  5
2FD
102
{ACAD_REACTORS
330
2FC
102
}
330
2FC
100
AcDbXrecord
280
     1
102
RTVSPropertyOp0
 70
     1
102
RTVSPropertyOp1
 70
     1
102
RTVSPropertyOp2
 70
     1
102
RTVSPropertyOp3
 70
     1
102
RTVSPropertyOp4
 70
     1
102
RTVSPropertyOp5
 70
     1
102
RTVSPropertyOp6
 70
     1
102
RTVSPropertyOp7
 70
     1
102
RTVSPropertyOp8
 70
     1
102
RTVSPropertyOp9
 70
     1
102
RTVSPropertyOp10
 70
     1
102
RTVSPropertyOp11
 70
     1
102
RTVSPropertyOp12
 70
     1
102
RTVSPropertyOp13
 70
     1
102
RTVSPropertyOp14
 70
     1
102
RTVSPropertyOp15
 70
     1
102
RTVSPropertyOp16
 70
     1
102
RTVSPropertyOp17
 70
     1
102
RTVSPropertyOp18
 70
     1
102
RTVSPropertyOp19
 70
     1
102
RTVSPropertyOp20
 70
     1
102
RTVSPropertyOp21
 70
     1
102
RTVSPropertyOp22
 70
     1
102
RTVSPropertyOp23
 70
     1
102
RTVSPropertyOp24
 70
     1
102
RTVSPropertyOp25
 70
     1
102
RTVSPropertyOp26
 70
     1
102
RTVSPropertyOp27
 70
     1
102
RTVSPropertyOp28
 70
     1
102
RTVSPropertyOp29
 70
     1
102
RTVSPropertyOp30
 70
     1
102
RTVSPropertyOp31
 70
     1
102
RTVSPropertyOp32
 70
     1
102
RTVSPropertyOp33
 70
     1
102
RTVSPropertyOp34
 70
     1
102
RTVSPropertyOp35
 70
     1
102
RTVSPropertyOp36
 70
     1
102
RTVSPropertyOp37
 70
     1
102
RTVSPropertyOp38
 70
     1
102
RTVSPropertyOp39
 70
     1
102
RTVSPropertyOp40
 70
     1
102
RTVSPropertyOp41
 70
     1
102
RTVSPropertyOp42
 70
     1
102
RTVSPropertyOp43
 70
     1
102
RTVSPropertyOp44
 70
     1
102
RTVSPropertyOp45
 70
     1
102
RTVSPropertyOp46
 70
     1
102
RTVSPropertyOp47
 70
     1
102
RTVSPropertyOp48
 70
     1
102
RTVSPropertyOp49
 70
     1
102
RTVSPropertyOp50
 70
     1
102
RTVSPropertyOp51
 70
     0
102
RTVSPropertyOp52
 70
     0
102
RTVSPropertyOp53
 70
     1
102
RTVSPropertyOp54
 70
     1
102
RTVSPropertyOp55
 70
     1
102
RTVSPropertyOp56
 70
     1
102
RTVSPropertyOp57
 70
     1
102
RTVSPost2010Prop28
280
     0
102
RTVSPost2010PropOp28
 70
     1
102
RTVSPost2010Prop29
280
     1
102
RTVSPost2010PropOp29
 70
     1
102
RTVSPost2010Prop30
280
     1
102
RTVSPost2010PropOp30
 70
     1
102
RTVSPost2010Prop31
280
     0
102
RTVSPost2010PropOp31
 70
     1
102
RTVSPost2010Prop32
280
     0
102
RTVSPost2010PropOp32
 70
     1
102
RTVSPost2010Prop33
280
     0
102
RTVSPost2010PropOp33
 70
     1
102
RTVSPost2010Prop34
280
     0
102
RTVSPost2010PropOp34
 70
     1
102
RTVSPost2010Prop35
280
     0
102
RTVSPost2010PropOp35
 70
     1
102
RTVSPost2010Prop36
280
     0
102
RTVSPost2010PropOp36
 70
     1
102
RTVSPost2010Prop37
 90
       50
102
RTVSPost2010PropOp37
 70
     1
102
RTVSPost2010Prop38
140
0.0
102
RTVSPost2010PropOp38
 70
     1
102
RTVSPost2010Prop39
140
1.0
102
RTVSPost2010PropOp39
 70
     1
102
RTVSPost2010Prop40
 90
        0
102
RTVSPost2010PropOp40
 70
     1
102
RTVSPost2010Prop41ColorIndex
 90
       18
102
RTVSPost2010Prop41ColorRGB
 90
        0
102
RTVSPost2010PropOp41
 70
     1
102
RTVSPost2010Prop42
 90
       50
102
RTVSPost2010PropOp42
 70
     1
102
RTVSPost2010Prop43
 90
        3
102
RTVSPost2010PropOp43
 70
     1
102
RTVSPost2010Prop44ColorIndex
 90
        5
102
RTVSPost2010Prop44ColorRGB
 90
      255
102
RTVSPost2010PropOp44
 70
     1
102
RTVSPost2010Prop45
280
     0
102
RTVSPost2010PropOp45
 70
     1
102
RTVSPost2010Prop46
 90
       50
102
RTVSPost2010PropOp46
 70
     1
102
RTVSPost2010Prop47
 90
       50
102
RTVSPost2010PropOp47
 70
     1
102
RTVSPost2010Prop48
 90
       50
102
RTVSPost2010PropOp48
 70
     1
102
RTVSPost2010Prop49
280
     0
102
RTVSPost2010PropOp49
 70
     1
102
RTVSPost2010Prop50
 90
       50
102
RTVSPost2010PropOp50
 70
     1
102
RTVSPost2010Prop51ColorIndex
 90
      256
102
RTVSPost2010Prop51ColorRGB
 90
-16777216
102
RTVSPost2010PropOp51
 70
     0
102
RTVSPost2010Prop52
140
1.0
102
RTVSPost2010PropOp52
 70
     0
102
RTVSPost2010Prop53
 90
        2
102
RTVSPost2010PropOp53
 70
     1
102
RTVSPost2010Prop54
  1
strokes_ogs.tif
102
RTVSPost2010PropOp54
 70
     1
102
RTVSPost2010Prop55
280
     0
102
RTVSPost2010PropOp55
 70
     1
102
RTVSPost2010Prop56
140
1.0
102
RTVSPost2010PropOp56
 70
     1
102
RTVSPost2010Prop57
140
1.0
102
RTVSPost2010PropOp57
 70
     1
  0
XRECORD
  5
2FF
102
{ACAD_REACTORS
330
2FE
102
}
330
2FE
100
AcDbXrecord
280
     1
102
RTVSPropertyOp0
 70
     1
102
RTVSPropertyOp1
 70
     1
102
RTVSPropertyOp2
 70
     1
102
RTVSPropertyOp3
 70
     1
102
RTVSPropertyOp4
 70
     1
102
RTVSPropertyOp5
 70
     1
102
RTVSPropertyOp6
 70
     1
102
RTVSPropertyOp7
 70
     1
102
RTVSPropertyOp8
 70
     1
102
RTVSPropertyOp9
 70
     1
102
RTVSPropertyOp10
 70
     1
102
RTVSPropertyOp11
 70
     1
102
RTVSPropertyOp12
 70
     1
102
RTVSPropertyOp13
 70
     1
102
RTVSPropertyOp14
 70
     1
102
RTVSPropertyOp15
 70
     1
102
RTVSPropertyOp16
 70
     1
102
RTVSPropertyOp17
 70
     1
102
RTVSPropertyOp18
 70
     1
102
RTVSPropertyOp19
 70
     1
102
RTVSPropertyOp20
 70
     1
102
RTVSPropertyOp21
 70
     1
102
RTVSPropertyOp22
 70
     1
102
RTVSPropertyOp23
 70
     1
102
RTVSPropertyOp24
 70
     1
102
RTVSPropertyOp25
 70
     1
102
RTVSPropertyOp26
 70
     1
102
RTVSPropertyOp27
 70
     1
102
RTVSPropertyOp28
 70
     1
102
RTVSPropertyOp29
 70
     1
102
RTVSPropertyOp30
 70
     1
102
RTVSPropertyOp31
 70
     1
102
RTVSPropertyOp32
 70
     1
102
RTVSPropertyOp33
 70
     1
102
RTVSPropertyOp34
 70
     1
102
RTVSPropertyOp35
 70
     1
102
RTVSPropertyOp36
 70
     1
102
RTVSPropertyOp37
 70
     1
102
RTVSPropertyOp38
 70
     1
102
RTVSPropertyOp39
 70
     1
102
RTVSPropertyOp40
 70
     1
102
RTVSPropertyOp41
 70
     1
102
RTVSPropertyOp42
 70
     1
102
RTVSPropertyOp43
 70
     1
102
RTVSPropertyOp44
 70
     1
102
RTVSPropertyOp45
 70
     1
102
RTVSPropertyOp46
 70
     1
102
RTVSPropertyOp47
 70
     1
102
RTVSPropertyOp48
 70
     1
102
RTVSPropertyOp49
 70
     1
102
RTVSPropertyOp50
 70
     1
102
RTVSPropertyOp51
 70
     0
102
RTVSPropertyOp52
 70
     0
102
RTVSPropertyOp53
 70
     1
102
RTVSPropertyOp54
 70
     1
102
RTVSPropertyOp55
 70
     1
102
RTVSPropertyOp56
 70
     1
102
RTVSPropertyOp57
 70
     1
102
RTVSPost2010Prop28
280
     0
102
RTVSPost2010PropOp28
 70
     1
102
RTVSPost2010Prop29
280
     1
102
RTVSPost2010PropOp29
 70
     1
102
RTVSPost2010Prop30
280
     1
102
RTVSPost2010PropOp30
 70
     1
102
RTVSPost2010Prop31
280
     0
102
RTVSPost2010PropOp31
 70
     1
102
RTVSPost2010Prop32
280
     0
102
RTVSPost2010PropOp32
 70
     1
102
RTVSPost2010Prop33
280
     0
102
RTVSPost2010PropOp33
 70
     1
102
RTVSPost2010Prop34
280
     0
102
RTVSPost2010PropOp34
 70
     1
102
RTVSPost2010Prop35
280
     0
102
RTVSPost2010PropOp35
 70
     1
102
RTVSPost2010Prop36
280
     0
102
RTVSPost2010PropOp36
 70
     1
102
RTVSPost2010Prop37
 90
       50
102
RTVSPost2010PropOp37
 70
     1
102
RTVSPost2010Prop38
140
0.0
102
RTVSPost2010PropOp38
 70
     1
102
RTVSPost2010Prop39
140
1.0
102
RTVSPost2010PropOp39
 70
     1
102
RTVSPost2010Prop40
 90
        0
102
RTVSPost2010PropOp40
 70
     1
102
RTVSPost2010Prop41ColorIndex
 90
       18
102
RTVSPost2010Prop41ColorRGB
 90
        0
102
RTVSPost2010PropOp41
 70
     1
102
RTVSPost2010Prop42
 90
       50
102
RTVSPost2010PropOp42
 70
     1
102
RTVSPost2010Prop43
 90
        3
102
RTVSPost2010PropOp43
 70
     1
102
RTVSPost2010Prop44ColorIndex
 90
        5
102
RTVSPost2010Prop44ColorRGB
 90
      255
102
RTVSPost2010PropOp44
 70
     1
102
RTVSPost2010Prop45
280
     0
102
RTVSPost2010PropOp45
 70
     1
102
RTVSPost2010Prop46
 90
       50
102
RTVSPost2010PropOp46
 70
     1
102
RTVSPost2010Prop47
 90
       50
102
RTVSPost2010PropOp47
 70
     1
102
RTVSPost2010Prop48
 90
       50
102
RTVSPost2010PropOp48
 70
     1
102
RTVSPost2010Prop49
280
     0
102
RTVSPost2010PropOp49
 70
     1
102
RTVSPost2010Prop50
 90
       50
102
RTVSPost2010PropOp50
 70
     1
102
RTVSPost2010Prop51ColorIndex
 90
      256
102
RTVSPost2010Prop51ColorRGB
 90
-16777216
102
RTVSPost2010PropOp51
 70
     0
102
RTVSPost2010Prop52
140
1.0
102
RTVSPost2010PropOp52
 70
     0
102
RTVSPost2010Prop53
 90
        2
102
RTVSPost2010PropOp53
 70
     1
102
RTVSPost2010Prop54
  1
strokes_ogs.tif
102
RTVSPost2010PropOp54
 70
     1
102
RTVSPost2010Prop55
280
     0
102
RTVSPost2010PropOp55
 70
     1
102
RTVSPost2010Prop56
140
1.0
102
RTVSPost2010PropOp56
 70
     1
102
RTVSPost2010Prop57
140
1.0
102
RTVSPost2010PropOp57
 70
     1
  0
XRECORD
  5
305
102
{ACAD_REACTORS
330
304
102
}
330
304
100
AcDbXrecord
280
     1
102
RTVSPropertyOp0
 70
     1
102
RTVSPropertyOp1
 70
     1
102
RTVSPropertyOp2
 70
     1
102
RTVSPropertyOp3
 70
     1
102
RTVSPropertyOp4
 70
     1
102
RTVSPropertyOp5
 70
     1
102
RTVSPropertyOp6
 70
     1
102
RTVSPropertyOp7
 70
     1
102
RTVSPropertyOp8
 70
     1
102
RTVSPropertyOp9
 70
     1
102
RTVSPropertyOp10
 70
     1
102
RTVSPropertyOp11
 70
     1
102
RTVSPropertyOp12
 70
     1
102
RTVSPropertyOp13
 70
     1
102
RTVSPropertyOp14
 70
     1
102
RTVSPropertyOp15
 70
     1
102
RTVSPropertyOp16
 70
     1
102
RTVSPropertyOp17
 70
     1
102
RTVSPropertyOp18
 70
     1
102
RTVSPropertyOp19
 70
     1
102
RTVSPropertyOp20
 70
     1
102
RTVSPropertyOp21
 70
     1
102
RTVSPropertyOp22
 70
     1
102
RTVSPropertyOp23
 70
     1
102
RTVSPropertyOp24
 70
     1
102
RTVSPropertyOp25
 70
     1
102
RTVSPropertyOp26
 70
     1
102
RTVSPropertyOp27
 70
     1
102
RTVSPropertyOp28
 70
     1
102
RTVSPropertyOp29
 70
     1
102
RTVSPropertyOp30
 70
     1
102
RTVSPropertyOp31
 70
     1
102
RTVSPropertyOp32
 70
     1
102
RTVSPropertyOp33
 70
     1
102
RTVSPropertyOp34
 70
     1
102
RTVSPropertyOp35
 70
     1
102
RTVSPropertyOp36
 70
     1
102
RTVSPropertyOp37
 70
     1
102
RTVSPropertyOp38
 70
     1
102
RTVSPropertyOp39
 70
     1
102
RTVSPropertyOp40
 70
     1
102
RTVSPropertyOp41
 70
     1
102
RTVSPropertyOp42
 70
     1
102
RTVSPropertyOp43
 70
     1
102
RTVSPropertyOp44
 70
     1
102
RTVSPropertyOp45
 70
     1
102
RTVSPropertyOp46
 70
     1
102
RTVSPropertyOp47
 70
     1
102
RTVSPropertyOp48
 70
     1
102
RTVSPropertyOp49
 70
     1
102
RTVSPropertyOp50
 70
     1
102
RTVSPropertyOp51
 70
     0
102
RTVSPropertyOp52
 70
     0
102
RTVSPropertyOp53
 70
     1
102
RTVSPropertyOp54
 70
     1
102
RTVSPropertyOp55
 70
     1
102
RTVSPropertyOp56
 70
     1
102
RTVSPropertyOp57
 70
     1
102
RTVSPost2010Prop28
280
     0
102
RTVSPost2010PropOp28
 70
     1
102
RTVSPost2010Prop29
280
     1
102
RTVSPost2010PropOp29
 70
     1
102
RTVSPost2010Prop30
280
     1
102
RTVSPost2010PropOp30
 70
     1
102
RTVSPost2010Prop31
280
     0
102
RTVSPost2010PropOp31
 70
     1
102
RTVSPost2010Prop32
280
     0
102
RTVSPost2010PropOp32
 70
     1
102
RTVSPost2010Prop33
280
     0
102
RTVSPost2010PropOp33
 70
     1
102
RTVSPost2010Prop34
280
     0
102
RTVSPost2010PropOp34
 70
     1
102
RTVSPost2010Prop35
280
     0
102
RTVSPost2010PropOp35
 70
     1
102
RTVSPost2010Prop36
280
     0
102
RTVSPost2010PropOp36
 70
     1
102
RTVSPost2010Prop37
 90
       50
102
RTVSPost2010PropOp37
 70
     1
102
RTVSPost2010Prop38
140
0.0
102
RTVSPost2010PropOp38
 70
     1
102
RTVSPost2010Prop39
140
1.0
102
RTVSPost2010PropOp39
 70
     1
102
RTVSPost2010Prop40
 90
        0
102
RTVSPost2010PropOp40
 70
     1
102
RTVSPost2010Prop41ColorIndex
 90
       18
102
RTVSPost2010Prop41ColorRGB
 90
        0
102
RTVSPost2010PropOp41
 70
     1
102
RTVSPost2010Prop42
 90
       50
102
RTVSPost2010PropOp42
 70
     1
102
RTVSPost2010Prop43
 90
        3
102
RTVSPost2010PropOp43
 70
     1
102
RTVSPost2010Prop44ColorIndex
 90
        5
102
RTVSPost2010Prop44ColorRGB
 90
      255
102
RTVSPost2010PropOp44
 70
     1
102
RTVSPost2010Prop45
280
     0
102
RTVSPost2010PropOp45
 70
     1
102
RTVSPost2010Prop46
 90
       50
102
RTVSPost2010PropOp46
 70
     1
102
RTVSPost2010Prop47
 90
       50
102
RTVSPost2010PropOp47
 70
     1
102
RTVSPost2010Prop48
 90
       50
102
RTVSPost2010PropOp48
 70
     1
102
RTVSPost2010Prop49
280
     0
102
RTVSPost2010PropOp49
 70
     1
102
RTVSPost2010Prop50
 90
       50
102
RTVSPost2010PropOp50
 70
     1
102
RTVSPost2010Prop51ColorIndex
 90
      256
102
RTVSPost2010Prop51ColorRGB
 90
-16777216
102
RTVSPost2010PropOp51
 70
     0
102
RTVSPost2010Prop52
140
1.0
102
RTVSPost2010PropOp52
 70
     0
102
RTVSPost2010Prop53
 90
        2
102
RTVSPost2010PropOp53
 70
     1
102
RTVSPost2010Prop54
  1
strokes_ogs.tif
102
RTVSPost2010PropOp54
 70
     1
102
RTVSPost2010Prop55
280
     0
102
RTVSPost2010PropOp55
 70
     1
102
RTVSPost2010Prop56
140
1.0
102
RTVSPost2010PropOp56
 70
     1
102
RTVSPost2010Prop57
140
1.0
102
RTVSPost2010PropOp57
 70
     1
  0
XRECORD
  5
319
102
{ACAD_REACTORS
330
318
102
}
330
318
100
AcDbXrecord
280
     1
102
RTVSPropertyOp0
 70
     0
102
RTVSPropertyOp1
 70
     0
102
RTVSPropertyOp2
 70
     0
102
RTVSPropertyOp3
 70
     0
102
RTVSPropertyOp4
 70
     0
102
RTVSPropertyOp5
 70
     0
102
RTVSPropertyOp6
 70
     0
102
RTVSPropertyOp7
 70
     0
102
RTVSPropertyOp8
 70
     0
102
RTVSPropertyOp9
 70
     0
102
RTVSPropertyOp10
 70
     0
102
RTVSPropertyOp11
 70
     0
102
RTVSPropertyOp12
 70
     0
102
RTVSPropertyOp13
 70
     0
102
RTVSPropertyOp14
 70
     2
102
RTVSPropertyOp15
 70
     0
102
RTVSPropertyOp16
 70
     0
102
RTVSPropertyOp17
 70
     0
102
RTVSPropertyOp18
 70
     0
102
RTVSPropertyOp19
 70
     0
102
RTVSPropertyOp20
 70
     0
102
RTVSPropertyOp21
 70
     0
102
RTVSPropertyOp22
 70
     0
102
RTVSPropertyOp23
 70
     0
102
RTVSPropertyOp24
 70
     0
102
RTVSPropertyOp25
 70
     0
102
RTVSPropertyOp26
 70
     0
102
RTVSPropertyOp27
 70
     0
102
RTVSPropertyOp28
 70
     0
102
RTVSPropertyOp29
 70
     0
102
RTVSPropertyOp30
 70
     0
102
RTVSPropertyOp31
 70
     0
102
RTVSPropertyOp32
 70
     0
102
RTVSPropertyOp33
 70
     0
102
RTVSPropertyOp34
 70
     0
102
RTVSPropertyOp35
 70
     0
102
RTVSPropertyOp36
 70
     0
102
RTVSPropertyOp37
 70
     0
102
RTVSPropertyOp38
 70
     0
102
RTVSPropertyOp39
 70
     0
102
RTVSPropertyOp40
 70
     0
102
RTVSPropertyOp41
 70
     0
102
RTVSPropertyOp42
 70
     0
102
RTVSPropertyOp43
 70
     0
102
RTVSPropertyOp44
 70
     0
102
RTVSPropertyOp45
 70
     0
102
RTVSPropertyOp46
 70
     0
102
RTVSPropertyOp47
 70
     0
102
RTVSPropertyOp48
 70
     0
102
RTVSPropertyOp49
 70
     0
102
RTVSPropertyOp50
 70
     0
102
RTVSPropertyOp51
 70
     0
102
RTVSPropertyOp52
 70
     0
102
RTVSPropertyOp53
 70
     0
102
RTVSPropertyOp54
 70
     0
102
RTVSPropertyOp55
 70
     0
102
RTVSPropertyOp56
 70
     0
102
RTVSPropertyOp57
 70
     0
102
RTVSPost2010Prop28
280
     0
102
RTVSPost2010PropOp28
 70
     0
102
RTVSPost2010Prop29
280
     1
102
RTVSPost2010PropOp29
 70
     0
102
RTVSPost2010Prop30
280
     1
102
RTVSPost2010PropOp30
 70
     0
102
RTVSPost2010Prop31
280
     0
102
RTVSPost2010PropOp31
 70
     0
102
RTVSPost2010Prop32
280
     0
102
RTVSPost2010PropOp32
 70
     0
102
RTVSPost2010Prop33
280
     0
102
RTVSPost2010PropOp33
 70
     0
102
RTVSPost2010Prop34
280
     0
102
RTVSPost2010PropOp34
 70
     0
102
RTVSPost2010Prop35
280
     0
102
RTVSPost2010PropOp35
 70
     0
102
RTVSPost2010Prop36
280
     0
102
RTVSPost2010PropOp36
 70
     0
102
RTVSPost2010Prop37
 90
       50
102
RTVSPost2010PropOp37
 70
     0
102
RTVSPost2010Prop38
140
0.0
102
RTVSPost2010PropOp38
 70
     0
102
RTVSPost2010Prop39
140
1.0
102
RTVSPost2010PropOp39
 70
     0
102
RTVSPost2010Prop40
 90
        0
102
RTVSPost2010PropOp40
 70
     0
102
RTVSPost2010Prop41ColorIndex
 90
       18
102
RTVSPost2010Prop41ColorRGB
 90
        0
102
RTVSPost2010PropOp41
 70
     0
102
RTVSPost2010Prop42
 90
       50
102
RTVSPost2010PropOp42
 70
     0
102
RTVSPost2010Prop43
 90
        3
102
RTVSPost2010PropOp43
 70
     0
102
RTVSPost2010Prop44ColorIndex
 90
        5
102
RTVSPost2010Prop44ColorRGB
 90
      255
102
RTVSPost2010PropOp44
 70
     0
102
RTVSPost2010Prop45
280
     0
102
RTVSPost2010PropOp45
 70
     0
102
RTVSPost2010Prop46
 90
       50
102
RTVSPost2010PropOp46
 70
     0
102
RTVSPost2010Prop47
 90
       50
102
RTVSPost2010PropOp47
 70
     0
102
RTVSPost2010Prop48
 90
       50
102
RTVSPost2010PropOp48
 70
     0
102
RTVSPost2010Prop49
280
     0
102
RTVSPost2010PropOp49
 70
     0
102
RTVSPost2010Prop50
 90
       50
102
RTVSPost2010PropOp50
 70
     0
102
RTVSPost2010Prop51ColorIndex
 90
      256
102
RTVSPost2010Prop51ColorRGB
 90
-16777216
102
RTVSPost2010PropOp51
 70
     0
102
RTVSPost2010Prop52
140
1.0
102
RTVSPost2010PropOp52
 70
     0
102
RTVSPost2010Prop53
 90
        2
102
RTVSPost2010PropOp53
 70
     0
102
RTVSPost2010Prop54
  1
strokes_ogs.tif
102
RTVSPost2010PropOp54
 70
     0
102
RTVSPost2010Prop55
280
     0
102
RTVSPost2010PropOp55
 70
     0
102
RTVSPost2010Prop56
140
1.0
102
RTVSPost2010PropOp56
 70
     0
102
RTVSPost2010Prop57
140
1.0
102
RTVSPost2010PropOp57
 70
     0
  0
XRECORD
  5
313
102
{ACAD_REACTORS
330
312
102
}
330
312
100
AcDbXrecord
280
     1
102
RTVSPropertyOp0
 70
     1
102
RTVSPropertyOp1
 70
     1
102
RTVSPropertyOp2
 70
     1
102
RTVSPropertyOp3
 70
     1
102
RTVSPropertyOp4
 70
     1
102
RTVSPropertyOp5
 70
     1
102
RTVSPropertyOp6
 70
     1
102
RTVSPropertyOp7
 70
     1
102
RTVSPropertyOp8
 70
     1
102
RTVSPropertyOp9
 70
     1
102
RTVSPropertyOp10
 70
     1
102
RTVSPropertyOp11
 70
     1
102
RTVSPropertyOp12
 70
     1
102
RTVSPropertyOp13
 70
     1
102
RTVSPropertyOp14
 70
     1
102
RTVSPropertyOp15
 70
     1
102
RTVSPropertyOp16
 70
     1
102
RTVSPropertyOp17
 70
     1
102
RTVSPropertyOp18
 70
     1
102
RTVSPropertyOp19
 70
     1
102
RTVSPropertyOp20
 70
     1
102
RTVSPropertyOp21
 70
     1
102
RTVSPropertyOp22
 70
     1
102
RTVSPropertyOp23
 70
     1
102
RTVSPropertyOp24
 70
     1
102
RTVSPropertyOp25
 70
     1
102
RTVSPropertyOp26
 70
     1
102
RTVSPropertyOp27
 70
     1
102
RTVSPropertyOp28
 70
     1
102
RTVSPropertyOp29
 70
     1
102
RTVSPropertyOp30
 70
     1
102
RTVSPropertyOp31
 70
     1
102
RTVSPropertyOp32
 70
     1
102
RTVSPropertyOp33
 70
     1
102
RTVSPropertyOp34
 70
     1
102
RTVSPropertyOp35
 70
     1
102
RTVSPropertyOp36
 70
     1
102
RTVSPropertyOp37
 70
     1
102
RTVSPropertyOp38
 70
     1
102
RTVSPropertyOp39
 70
     1
102
RTVSPropertyOp40
 70
     1
102
RTVSPropertyOp41
 70
     1
102
RTVSPropertyOp42
 70
     1
102
RTVSPropertyOp43
 70
     1
102
RTVSPropertyOp44
 70
     1
102
RTVSPropertyOp45
 70
     1
102
RTVSPropertyOp46
 70
     1
102
RTVSPropertyOp47
 70
     1
102
RTVSPropertyOp48
 70
     1
102
RTVSPropertyOp49
 70
     1
102
RTVSPropertyOp50
 70
     1
102
RTVSPropertyOp51
 70
     0
102
RTVSPropertyOp52
 70
     0
102
RTVSPropertyOp53
 70
     1
102
RTVSPropertyOp54
 70
     1
102
RTVSPropertyOp55
 70
     1
102
RTVSPropertyOp56
 70
     1
102
RTVSPropertyOp57
 70
     1
102
RTVSPost2010Prop28
280
     0
102
RTVSPost2010PropOp28
 70
     1
102
RTVSPost2010Prop29
280
     1
102
RTVSPost2010PropOp29
 70
     1
102
RTVSPost2010Prop30
280
     1
102
RTVSPost2010PropOp30
 70
     1
102
RTVSPost2010Prop31
280
     0
102
RTVSPost2010PropOp31
 70
     1
102
RTVSPost2010Prop32
280
     0
102
RTVSPost2010PropOp32
 70
     1
102
RTVSPost2010Prop33
280
     0
102
RTVSPost2010PropOp33
 70
     1
102
RTVSPost2010Prop34
280
     0
102
RTVSPost2010PropOp34
 70
     1
102
RTVSPost2010Prop35
280
     0
102
RTVSPost2010PropOp35
 70
     1
102
RTVSPost2010Prop36
280
     0
102
RTVSPost2010PropOp36
 70
     1
102
RTVSPost2010Prop37
 90
       50
102
RTVSPost2010PropOp37
 70
     1
102
RTVSPost2010Prop38
140
0.0
102
RTVSPost2010PropOp38
 70
     1
102
RTVSPost2010Prop39
140
1.0
102
RTVSPost2010PropOp39
 70
     1
102
RTVSPost2010Prop40
 90
        0
102
RTVSPost2010PropOp40
 70
     1
102
RTVSPost2010Prop41ColorIndex
 90
       18
102
RTVSPost2010Prop41ColorRGB
 90
        0
102
RTVSPost2010PropOp41
 70
     1
102
RTVSPost2010Prop42
 90
       50
102
RTVSPost2010PropOp42
 70
     1
102
RTVSPost2010Prop43
 90
        3
102
RTVSPost2010PropOp43
 70
     1
102
RTVSPost2010Prop44ColorIndex
 90
        5
102
RTVSPost2010Prop44ColorRGB
 90
      255
102
RTVSPost2010PropOp44
 70
     1
102
RTVSPost2010Prop45
280
     0
102
RTVSPost2010PropOp45
 70
     1
102
RTVSPost2010Prop46
 90
       50
102
RTVSPost2010PropOp46
 70
     1
102
RTVSPost2010Prop47
 90
       50
102
RTVSPost2010PropOp47
 70
     1
102
RTVSPost2010Prop48
 90
       50
102
RTVSPost2010PropOp48
 70
     1
102
RTVSPost2010Prop49
280
     0
102
RTVSPost2010PropOp49
 70
     1
102
RTVSPost2010Prop50
 90
       50
102
RTVSPost2010PropOp50
 70
     1
102
RTVSPost2010Prop51ColorIndex
 90
      256
102
RTVSPost2010Prop51ColorRGB
 90
-16777216
102
RTVSPost2010PropOp51
 70
     0
102
RTVSPost2010Prop52
140
1.0
102
RTVSPost2010PropOp52
 70
     0
102
RTVSPost2010Prop53
 90
        2
102
RTVSPost2010PropOp53
 70
     1
102
RTVSPost2010Prop54
  1
strokes_ogs.tif
102
RTVSPost2010PropOp54
 70
     1
102
RTVSPost2010Prop55
280
     0
102
RTVSPost2010PropOp55
 70
     1
102
RTVSPost2010Prop56
140
1.0
102
RTVSPost2010PropOp56
 70
     1
102
RTVSPost2010Prop57
140
1.0
102
RTVSPost2010PropOp57
 70
     1
  0
XRECORD
  5
31B
102
{ACAD_REACTORS
330
31A
102
}
330
31A
100
AcDbXrecord
280
     1
102
RTVSPropertyOp0
 70
     0
102
RTVSPropertyOp1
 70
     0
102
RTVSPropertyOp2
 70
     0
102
RTVSPropertyOp3
 70
     0
102
RTVSPropertyOp4
 70
     0
102
RTVSPropertyOp5
 70
     0
102
RTVSPropertyOp6
 70
     0
102
RTVSPropertyOp7
 70
     0
102
RTVSPropertyOp8
 70
     0
102
RTVSPropertyOp9
 70
     0
102
RTVSPropertyOp10
 70
     0
102
RTVSPropertyOp11
 70
     0
102
RTVSPropertyOp12
 70
     0
102
RTVSPropertyOp13
 70
     0
102
RTVSPropertyOp14
 70
     2
102
RTVSPropertyOp15
 70
     0
102
RTVSPropertyOp16
 70
     0
102
RTVSPropertyOp17
 70
     0
102
RTVSPropertyOp18
 70
     0
102
RTVSPropertyOp19
 70
     0
102
RTVSPropertyOp20
 70
     0
102
RTVSPropertyOp21
 70
     0
102
RTVSPropertyOp22
 70
     0
102
RTVSPropertyOp23
 70
     0
102
RTVSPropertyOp24
 70
     0
102
RTVSPropertyOp25
 70
     0
102
RTVSPropertyOp26
 70
     0
102
RTVSPropertyOp27
 70
     0
102
RTVSPropertyOp28
 70
     0
102
RTVSPropertyOp29
 70
     0
102
RTVSPropertyOp30
 70
     0
102
RTVSPropertyOp31
 70
     0
102
RTVSPropertyOp32
 70
     0
102
RTVSPropertyOp33
 70
     0
102
RTVSPropertyOp34
 70
     0
102
RTVSPropertyOp35
 70
     0
102
RTVSPropertyOp36
 70
     0
102
RTVSPropertyOp37
 70
     0
102
RTVSPropertyOp38
 70
     0
102
RTVSPropertyOp39
 70
     0
102
RTVSPropertyOp40
 70
     0
102
RTVSPropertyOp41
 70
     0
102
RTVSPropertyOp42
 70
     0
102
RTVSPropertyOp43
 70
     0
102
RTVSPropertyOp44
 70
     0
102
RTVSPropertyOp45
 70
     0
102
RTVSPropertyOp46
 70
     0
102
RTVSPropertyOp47
 70
     0
102
RTVSPropertyOp48
 70
     0
102
RTVSPropertyOp49
 70
     0
102
RTVSPropertyOp50
 70
     0
102
RTVSPropertyOp51
 70
     0
102
RTVSPropertyOp52
 70
     0
102
RTVSPropertyOp53
 70
     0
102
RTVSPropertyOp54
 70
     0
102
RTVSPropertyOp55
 70
     0
102
RTVSPropertyOp56
 70
     0
102
RTVSPropertyOp57
 70
     0
102
RTVSPost2010Prop28
280
     0
102
RTVSPost2010PropOp28
 70
     0
102
RTVSPost2010Prop29
280
     1
102
RTVSPost2010PropOp29
 70
     0
102
RTVSPost2010Prop30
280
     1
102
RTVSPost2010PropOp30
 70
     0
102
RTVSPost2010Prop31
280
     0
102
RTVSPost2010PropOp31
 70
     0
102
RTVSPost2010Prop32
280
     0
102
RTVSPost2010PropOp32
 70
     0
102
RTVSPost2010Prop33
280
     0
102
RTVSPost2010PropOp33
 70
     0
102
RTVSPost2010Prop34
280
     0
102
RTVSPost2010PropOp34
 70
     0
102
RTVSPost2010Prop35
280
     0
102
RTVSPost2010PropOp35
 70
     0
102
RTVSPost2010Prop36
280
     0
102
RTVSPost2010PropOp36
 70
     0
102
RTVSPost2010Prop37
 90
       50
102
RTVSPost2010PropOp37
 70
     0
102
RTVSPost2010Prop38
140
0.0
102
RTVSPost2010PropOp38
 70
     0
102
RTVSPost2010Prop39
140
1.0
102
RTVSPost2010PropOp39
 70
     0
102
RTVSPost2010Prop40
 90
        0
102
RTVSPost2010PropOp40
 70
     0
102
RTVSPost2010Prop41ColorIndex
 90
       18
102
RTVSPost2010Prop41ColorRGB
 90
        0
102
RTVSPost2010PropOp41
 70
     0
102
RTVSPost2010Prop42
 90
       50
102
RTVSPost2010PropOp42
 70
     0
102
RTVSPost2010Prop43
 90
        3
102
RTVSPost2010PropOp43
 70
     0
102
RTVSPost2010Prop44ColorIndex
 90
        5
102
RTVSPost2010Prop44ColorRGB
 90
      255
102
RTVSPost2010PropOp44
 70
     0
102
RTVSPost2010Prop45
280
     0
102
RTVSPost2010PropOp45
 70
     0
102
RTVSPost2010Prop46
 90
       50
102
RTVSPost2010PropOp46
 70
     0
102
RTVSPost2010Prop47
 90
       50
102
RTVSPost2010PropOp47
 70
     0
102
RTVSPost2010Prop48
 90
       50
102
RTVSPost2010PropOp48
 70
     0
102
RTVSPost2010Prop49
280
     0
102
RTVSPost2010PropOp49
 70
     0
102
RTVSPost2010Prop50
 90
       50
102
RTVSPost2010PropOp50
 70
     0
102
RTVSPost2010Prop51ColorIndex
 90
      256
102
RTVSPost2010Prop51ColorRGB
 90
-16777216
102
RTVSPost2010PropOp51
 70
     0
102
RTVSPost2010Prop52
140
1.0
102
RTVSPost2010PropOp52
 70
     0
102
RTVSPost2010Prop53
 90
        2
102
RTVSPost2010PropOp53
 70
     0
102
RTVSPost2010Prop54
  1
strokes_ogs.tif
102
RTVSPost2010PropOp54
 70
     0
102
RTVSPost2010Prop55
280
     0
102
RTVSPost2010PropOp55
 70
     0
102
RTVSPost2010Prop56
140
1.0
102
RTVSPost2010PropOp56
 70
     0
102
RTVSPost2010Prop57
140
1.0
102
RTVSPost2010PropOp57
 70
     0
  0
XRECORD
  5
309
102
{ACAD_REACTORS
330
308
102
}
330
308
100
AcDbXrecord
280
     1
102
RTVSPropertyOp0
 70
     1
102
RTVSPropertyOp1
 70
     1
102
RTVSPropertyOp2
 70
     1
102
RTVSPropertyOp3
 70
     1
102
RTVSPropertyOp4
 70
     1
102
RTVSPropertyOp5
 70
     1
102
RTVSPropertyOp6
 70
     1
102
RTVSPropertyOp7
 70
     1
102
RTVSPropertyOp8
 70
     1
102
RTVSPropertyOp9
 70
     1
102
RTVSPropertyOp10
 70
     1
102
RTVSPropertyOp11
 70
     1
102
RTVSPropertyOp12
 70
     1
102
RTVSPropertyOp13
 70
     1
102
RTVSPropertyOp14
 70
     1
102
RTVSPropertyOp15
 70
     1
102
RTVSPropertyOp16
 70
     1
102
RTVSPropertyOp17
 70
     1
102
RTVSPropertyOp18
 70
     1
102
RTVSPropertyOp19
 70
     1
102
RTVSPropertyOp20
 70
     1
102
RTVSPropertyOp21
 70
     1
102
RTVSPropertyOp22
 70
     1
102
RTVSPropertyOp23
 70
     1
102
RTVSPropertyOp24
 70
     1
102
RTVSPropertyOp25
 70
     1
102
RTVSPropertyOp26
 70
     1
102
RTVSPropertyOp27
 70
     1
102
RTVSPropertyOp28
 70
     1
102
RTVSPropertyOp29
 70
     1
102
RTVSPropertyOp30
 70
     1
102
RTVSPropertyOp31
 70
     1
102
RTVSPropertyOp32
 70
     1
102
RTVSPropertyOp33
 70
     1
102
RTVSPropertyOp34
 70
     1
102
RTVSPropertyOp35
 70
     1
102
RTVSPropertyOp36
 70
     1
102
RTVSPropertyOp37
 70
     1
102
RTVSPropertyOp38
 70
     1
102
RTVSPropertyOp39
 70
     1
102
RTVSPropertyOp40
 70
     1
102
RTVSPropertyOp41
 70
     1
102
RTVSPropertyOp42
 70
     1
102
RTVSPropertyOp43
 70
     1
102
RTVSPropertyOp44
 70
     1
102
RTVSPropertyOp45
 70
     1
102
RTVSPropertyOp46
 70
     1
102
RTVSPropertyOp47
 70
     1
102
RTVSPropertyOp48
 70
     1
102
RTVSPropertyOp49
 70
     1
102
RTVSPropertyOp50
 70
     1
102
RTVSPropertyOp51
 70
     0
102
RTVSPropertyOp52
 70
     0
102
RTVSPropertyOp53
 70
     1
102
RTVSPropertyOp54
 70
     1
102
RTVSPropertyOp55
 70
     1
102
RTVSPropertyOp56
 70
     1
102
RTVSPropertyOp57
 70
     1
102
RTVSPost2010Prop28
280
     0
102
RTVSPost2010PropOp28
 70
     1
102
RTVSPost2010Prop29
280
     1
102
RTVSPost2010PropOp29
 70
     1
102
RTVSPost2010Prop30
280
     1
102
RTVSPost2010PropOp30
 70
     1
102
RTVSPost2010Prop31
280
     0
102
RTVSPost2010PropOp31
 70
     1
102
RTVSPost2010Prop32
280
     0
102
RTVSPost2010PropOp32
 70
     1
102
RTVSPost2010Prop33
280
     0
102
RTVSPost2010PropOp33
 70
     1
102
RTVSPost2010Prop34
280
     0
102
RTVSPost2010PropOp34
 70
     1
102
RTVSPost2010Prop35
280
     0
102
RTVSPost2010PropOp35
 70
     1
102
RTVSPost2010Prop36
280
     0
102
RTVSPost2010PropOp36
 70
     1
102
RTVSPost2010Prop37
 90
       50
102
RTVSPost2010PropOp37
 70
     1
102
RTVSPost2010Prop38
140
0.0
102
RTVSPost2010PropOp38
 70
     1
102
RTVSPost2010Prop39
140
1.0
102
RTVSPost2010PropOp39
 70
     1
102
RTVSPost2010Prop40
 90
        0
102
RTVSPost2010PropOp40
 70
     1
102
RTVSPost2010Prop41ColorIndex
 90
       18
102
RTVSPost2010Prop41ColorRGB
 90
        0
102
RTVSPost2010PropOp41
 70
     1
102
RTVSPost2010Prop42
 90
       50
102
RTVSPost2010PropOp42
 70
     1
102
RTVSPost2010Prop43
 90
        3
102
RTVSPost2010PropOp43
 70
     1
102
RTVSPost2010Prop44ColorIndex
 90
        5
102
RTVSPost2010Prop44ColorRGB
 90
      255
102
RTVSPost2010PropOp44
 70
     1
102
RTVSPost2010Prop45
280
     0
102
RTVSPost2010PropOp45
 70
     1
102
RTVSPost2010Prop46
 90
       50
102
RTVSPost2010PropOp46
 70
     1
102
RTVSPost2010Prop47
 90
       50
102
RTVSPost2010PropOp47
 70
     1
102
RTVSPost2010Prop48
 90
       50
102
RTVSPost2010PropOp48
 70
     1
102
RTVSPost2010Prop49
280
     0
102
RTVSPost2010PropOp49
 70
     1
102
RTVSPost2010Prop50
 90
       50
102
RTVSPost2010PropOp50
 70
     1
102
RTVSPost2010Prop51ColorIndex
 90
      256
102
RTVSPost2010Prop51ColorRGB
 90
-16777216
102
RTVSPost2010PropOp51
 70
     0
102
RTVSPost2010Prop52
140
1.0
102
RTVSPost2010PropOp52
 70
     0
102
RTVSPost2010Prop53
 90
        2
102
RTVSPost2010PropOp53
 70
     1
102
RTVSPost2010Prop54
  1
strokes_ogs.tif
102
RTVSPost2010PropOp54
 70
     1
102
RTVSPost2010Prop55
280
     0
102
RTVSPost2010PropOp55
 70
     1
102
RTVSPost2010Prop56
140
1.0
102
RTVSPost2010PropOp56
 70
     1
102
RTVSPost2010Prop57
140
1.0
102
RTVSPost2010PropOp57
 70
     1
  0
XRECORD
  5
327
102
{ACAD_REACTORS
330
326
102
}
330
326
100
AcDbXrecord
280
     1
102
RTVSPropertyOp0
 70
     1
102
RTVSPropertyOp1
 70
     1
102
RTVSPropertyOp2
 70
     1
102
RTVSPropertyOp3
 70
     1
102
RTVSPropertyOp4
 70
     1
102
RTVSPropertyOp5
 70
     1
102
RTVSPropertyOp6
 70
     1
102
RTVSPropertyOp7
 70
     1
102
RTVSPropertyOp8
 70
     1
102
RTVSPropertyOp9
 70
     1
102
RTVSPropertyOp10
 70
     1
102
RTVSPropertyOp11
 70
     1
102
RTVSPropertyOp12
 70
     1
102
RTVSPropertyOp13
 70
     1
102
RTVSPropertyOp14
 70
     1
102
RTVSPropertyOp15
 70
     1
102
RTVSPropertyOp16
 70
     1
102
RTVSPropertyOp17
 70
     1
102
RTVSPropertyOp18
 70
     1
102
RTVSPropertyOp19
 70
     1
102
RTVSPropertyOp20
 70
     1
102
RTVSPropertyOp21
 70
     1
102
RTVSPropertyOp22
 70
     1
102
RTVSPropertyOp23
 70
     1
102
RTVSPropertyOp24
 70
     1
102
RTVSPropertyOp25
 70
     1
102
RTVSPropertyOp26
 70
     1
102
RTVSPropertyOp27
 70
     1
102
RTVSPropertyOp28
 70
     1
102
RTVSPropertyOp29
 70
     1
102
RTVSPropertyOp30
 70
     1
102
RTVSPropertyOp31
 70
     1
102
RTVSPropertyOp32
 70
     1
102
RTVSPropertyOp33
 70
     1
102
RTVSPropertyOp34
 70
     1
102
RTVSPropertyOp35
 70
     1
102
RTVSPropertyOp36
 70
     1
102
RTVSPropertyOp37
 70
     1
102
RTVSPropertyOp38
 70
     1
102
RTVSPropertyOp39
 70
     1
102
RTVSPropertyOp40
 70
     1
102
RTVSPropertyOp41
 70
     1
102
RTVSPropertyOp42
 70
     1
102
RTVSPropertyOp43
 70
     1
102
RTVSPropertyOp44
 70
     1
102
RTVSPropertyOp45
 70
     1
102
RTVSPropertyOp46
 70
     1
102
RTVSPropertyOp47
 70
     1
102
RTVSPropertyOp48
 70
     1
102
RTVSPropertyOp49
 70
     1
102
RTVSPropertyOp50
 70
     1
102
RTVSPropertyOp51
 70
     0
102
RTVSPropertyOp52
 70
     0
102
RTVSPropertyOp53
 70
     1
102
RTVSPropertyOp54
 70
     1
102
RTVSPropertyOp55
 70
     1
102
RTVSPropertyOp56
 70
     1
102
RTVSPropertyOp57
 70
     1
102
RTVSPost2010Prop28
280
     0
102
RTVSPost2010PropOp28
 70
     1
102
RTVSPost2010Prop29
280
     1
102
RTVSPost2010PropOp29
 70
     1
102
RTVSPost2010Prop30
280
     1
102
RTVSPost2010PropOp30
 70
     1
102
RTVSPost2010Prop31
280
     0
102
RTVSPost2010PropOp31
 70
     1
102
RTVSPost2010Prop32
280
     0
102
RTVSPost2010PropOp32
 70
     1
102
RTVSPost2010Prop33
280
     0
102
RTVSPost2010PropOp33
 70
     1
102
RTVSPost2010Prop34
280
     0
102
RTVSPost2010PropOp34
 70
     1
102
RTVSPost2010Prop35
280
     0
102
RTVSPost2010PropOp35
 70
     1
102
RTVSPost2010Prop36
280
     0
102
RTVSPost2010PropOp36
 70
     1
102
RTVSPost2010Prop37
 90
       50
102
RTVSPost2010PropOp37
 70
     1
102
RTVSPost2010Prop38
140
0.0
102
RTVSPost2010PropOp38
 70
     1
102
RTVSPost2010Prop39
140
1.0
102
RTVSPost2010PropOp39
 70
     1
102
RTVSPost2010Prop40
 90
        0
102
RTVSPost2010PropOp40
 70
     1
102
RTVSPost2010Prop41ColorIndex
 90
       18
102
RTVSPost2010Prop41ColorRGB
 90
        0
102
RTVSPost2010PropOp41
 70
     1
102
RTVSPost2010Prop42
 90
       50
102
RTVSPost2010PropOp42
 70
     1
102
RTVSPost2010Prop43
 90
        3
102
RTVSPost2010PropOp43
 70
     1
102
RTVSPost2010Prop44ColorIndex
 90
        5
102
RTVSPost2010Prop44ColorRGB
 90
      255
102
RTVSPost2010PropOp44
 70
     1
102
RTVSPost2010Prop45
280
     0
102
RTVSPost2010PropOp45
 70
     1
102
RTVSPost2010Prop46
 90
       50
102
RTVSPost2010PropOp46
 70
     1
102
RTVSPost2010Prop47
 90
       50
102
RTVSPost2010PropOp47
 70
     1
102
RTVSPost2010Prop48
 90
       50
102
RTVSPost2010PropOp48
 70
     1
102
RTVSPost2010Prop49
280
     0
102
RTVSPost2010PropOp49
 70
     1
102
RTVSPost2010Prop50
 90
       50
102
RTVSPost2010PropOp50
 70
     1
102
RTVSPost2010Prop51ColorIndex
 90
      256
102
RTVSPost2010Prop51ColorRGB
 90
-16777216
102
RTVSPost2010PropOp51
 70
     0
102
RTVSPost2010Prop52
140
1.0
102
RTVSPost2010PropOp52
 70
     0
102
RTVSPost2010Prop53
 90
        2
102
RTVSPost2010PropOp53
 70
     1
102
RTVSPost2010Prop54
  1
strokes_ogs.tif
102
RTVSPost2010PropOp54
 70
     1
102
RTVSPost2010Prop55
280
     0
102
RTVSPost2010PropOp55
 70
     1
102
RTVSPost2010Prop56
140
1.0
102
RTVSPost2010PropOp56
 70
     1
102
RTVSPost2010Prop57
140
1.0
102
RTVSPost2010PropOp57
 70
     1
  0
XRECORD
  5
325
102
{ACAD_REACTORS
330
324
102
}
330
324
100
AcDbXrecord
280
     1
102
RTVSPropertyOp0
 70
     1
102
RTVSPropertyOp1
 70
     1
102
RTVSPropertyOp2
 70
     1
102
RTVSPropertyOp3
 70
     1
102
RTVSPropertyOp4
 70
     1
102
RTVSPropertyOp5
 70
     1
102
RTVSPropertyOp6
 70
     1
102
RTVSPropertyOp7
 70
     1
102
RTVSPropertyOp8
 70
     1
102
RTVSPropertyOp9
 70
     1
102
RTVSPropertyOp10
 70
     1
102
RTVSPropertyOp11
 70
     1
102
RTVSPropertyOp12
 70
     1
102
RTVSPropertyOp13
 70
     1
102
RTVSPropertyOp14
 70
     1
102
RTVSPropertyOp15
 70
     1
102
RTVSPropertyOp16
 70
     1
102
RTVSPropertyOp17
 70
     1
102
RTVSPropertyOp18
 70
     1
102
RTVSPropertyOp19
 70
     1
102
RTVSPropertyOp20
 70
     1
102
RTVSPropertyOp21
 70
     1
102
RTVSPropertyOp22
 70
     1
102
RTVSPropertyOp23
 70
     1
102
RTVSPropertyOp24
 70
     1
102
RTVSPropertyOp25
 70
     1
102
RTVSPropertyOp26
 70
     1
102
RTVSPropertyOp27
 70
     1
102
RTVSPropertyOp28
 70
     1
102
RTVSPropertyOp29
 70
     1
102
RTVSPropertyOp30
 70
     1
102
RTVSPropertyOp31
 70
     1
102
RTVSPropertyOp32
 70
     1
102
RTVSPropertyOp33
 70
     1
102
RTVSPropertyOp34
 70
     1
102
RTVSPropertyOp35
 70
     1
102
RTVSPropertyOp36
 70
     1
102
RTVSPropertyOp37
 70
     1
102
RTVSPropertyOp38
 70
     1
102
RTVSPropertyOp39
 70
     1
102
RTVSPropertyOp40
 70
     1
102
RTVSPropertyOp41
 70
     1
102
RTVSPropertyOp42
 70
     1
102
RTVSPropertyOp43
 70
     1
102
RTVSPropertyOp44
 70
     1
102
RTVSPropertyOp45
 70
     1
102
RTVSPropertyOp46
 70
     1
102
RTVSPropertyOp47
 70
     1
102
RTVSPropertyOp48
 70
     1
102
RTVSPropertyOp49
 70
     1
102
RTVSPropertyOp50
 70
     1
102
RTVSPropertyOp51
 70
     0
102
RTVSPropertyOp52
 70
     0
102
RTVSPropertyOp53
 70
     1
102
RTVSPropertyOp54
 70
     1
102
RTVSPropertyOp55
 70
     1
102
RTVSPropertyOp56
 70
     1
102
RTVSPropertyOp57
 70
     1
102
RTVSPost2010Prop28
280
     0
102
RTVSPost2010PropOp28
 70
     1
102
RTVSPost2010Prop29
280
     1
102
RTVSPost2010PropOp29
 70
     1
102
RTVSPost2010Prop30
280
     1
102
RTVSPost2010PropOp30
 70
     1
102
RTVSPost2010Prop31
280
     0
102
RTVSPost2010PropOp31
 70
     1
102
RTVSPost2010Prop32
280
     0
102
RTVSPost2010PropOp32
 70
     1
102
RTVSPost2010Prop33
280
     0
102
RTVSPost2010PropOp33
 70
     1
102
RTVSPost2010Prop34
280
     0
102
RTVSPost2010PropOp34
 70
     1
102
RTVSPost2010Prop35
280
     0
102
RTVSPost2010PropOp35
 70
     1
102
RTVSPost2010Prop36
280
     0
102
RTVSPost2010PropOp36
 70
     1
102
RTVSPost2010Prop37
 90
       50
102
RTVSPost2010PropOp37
 70
     1
102
RTVSPost2010Prop38
140
0.0
102
RTVSPost2010PropOp38
 70
     1
102
RTVSPost2010Prop39
140
1.0
102
RTVSPost2010PropOp39
 70
     1
102
RTVSPost2010Prop40
 90
        0
102
RTVSPost2010PropOp40
 70
     1
102
RTVSPost2010Prop41ColorIndex
 90
       18
102
RTVSPost2010Prop41ColorRGB
 90
        0
102
RTVSPost2010PropOp41
 70
     1
102
RTVSPost2010Prop42
 90
       50
102
RTVSPost2010PropOp42
 70
     1
102
RTVSPost2010Prop43
 90
        3
102
RTVSPost2010PropOp43
 70
     1
102
RTVSPost2010Prop44ColorIndex
 90
        5
102
RTVSPost2010Prop44ColorRGB
 90
      255
102
RTVSPost2010PropOp44
 70
     1
102
RTVSPost2010Prop45
280
     0
102
RTVSPost2010PropOp45
 70
     1
102
RTVSPost2010Prop46
 90
       50
102
RTVSPost2010PropOp46
 70
     1
102
RTVSPost2010Prop47
 90
       50
102
RTVSPost2010PropOp47
 70
     1
102
RTVSPost2010Prop48
 90
       50
102
RTVSPost2010PropOp48
 70
     1
102
RTVSPost2010Prop49
280
     0
102
RTVSPost2010PropOp49
 70
     1
102
RTVSPost2010Prop50
 90
       50
102
RTVSPost2010PropOp50
 70
     1
102
RTVSPost2010Prop51ColorIndex
 90
      256
102
RTVSPost2010Prop51ColorRGB
 90
-16777216
102
RTVSPost2010PropOp51
 70
     0
102
RTVSPost2010Prop52
140
1.0
102
RTVSPost2010PropOp52
 70
     0
102
RTVSPost2010Prop53
 90
        2
102
RTVSPost2010PropOp53
 70
     1
102
RTVSPost2010Prop54
  1
strokes_ogs.tif
102
RTVSPost2010PropOp54
 70
     1
102
RTVSPost2010Prop55
280
     0
102
RTVSPost2010PropOp55
 70
     1
102
RTVSPost2010Prop56
140
1.0
102
RTVSPost2010PropOp56
 70
     1
102
RTVSPost2010Prop57
140
1.0
102
RTVSPost2010PropOp57
 70
     1
  0
XRECORD
  5
31F
102
{ACAD_REACTORS
330
31E
102
}
330
31E
100
AcDbXrecord
280
     1
102
RTVSPropertyOp0
 70
     1
102
RTVSPropertyOp1
 70
     1
102
RTVSPropertyOp2
 70
     1
102
RTVSPropertyOp3
 70
     1
102
RTVSPropertyOp4
 70
     1
102
RTVSPropertyOp5
 70
     1
102
RTVSPropertyOp6
 70
     1
102
RTVSPropertyOp7
 70
     1
102
RTVSPropertyOp8
 70
     1
102
RTVSPropertyOp9
 70
     1
102
RTVSPropertyOp10
 70
     1
102
RTVSPropertyOp11
 70
     1
102
RTVSPropertyOp12
 70
     1
102
RTVSPropertyOp13
 70
     1
102
RTVSPropertyOp14
 70
     1
102
RTVSPropertyOp15
 70
     1
102
RTVSPropertyOp16
 70
     1
102
RTVSPropertyOp17
 70
     1
102
RTVSPropertyOp18
 70
     1
102
RTVSPropertyOp19
 70
     1
102
RTVSPropertyOp20
 70
     1
102
RTVSPropertyOp21
 70
     1
102
RTVSPropertyOp22
 70
     1
102
RTVSPropertyOp23
 70
     1
102
RTVSPropertyOp24
 70
     1
102
RTVSPropertyOp25
 70
     1
102
RTVSPropertyOp26
 70
     1
102
RTVSPropertyOp27
 70
     1
102
RTVSPropertyOp28
 70
     1
102
RTVSPropertyOp29
 70
     1
102
RTVSPropertyOp30
 70
     1
102
RTVSPropertyOp31
 70
     1
102
RTVSPropertyOp32
 70
     1
102
RTVSPropertyOp33
 70
     1
102
RTVSPropertyOp34
 70
     1
102
RTVSPropertyOp35
 70
     1
102
RTVSPropertyOp36
 70
     1
102
RTVSPropertyOp37
 70
     1
102
RTVSPropertyOp38
 70
     1
102
RTVSPropertyOp39
 70
     1
102
RTVSPropertyOp40
 70
     1
102
RTVSPropertyOp41
 70
     1
102
RTVSPropertyOp42
 70
     1
102
RTVSPropertyOp43
 70
     1
102
RTVSPropertyOp44
 70
     1
102
RTVSPropertyOp45
 70
     1
102
RTVSPropertyOp46
 70
     1
102
RTVSPropertyOp47
 70
     1
102
RTVSPropertyOp48
 70
     1
102
RTVSPropertyOp49
 70
     1
102
RTVSPropertyOp50
 70
     1
102
RTVSPropertyOp51
 70
     0
102
RTVSPropertyOp52
 70
     0
102
RTVSPropertyOp53
 70
     1
102
RTVSPropertyOp54
 70
     1
102
RTVSPropertyOp55
 70
     1
102
RTVSPropertyOp56
 70
     1
102
RTVSPropertyOp57
 70
     1
102
RTVSPost2010Prop28
280
     0
102
RTVSPost2010PropOp28
 70
     1
102
RTVSPost2010Prop29
280
     1
102
RTVSPost2010PropOp29
 70
     1
102
RTVSPost2010Prop30
280
     1
102
RTVSPost2010PropOp30
 70
     1
102
RTVSPost2010Prop31
280
     0
102
RTVSPost2010PropOp31
 70
     1
102
RTVSPost2010Prop32
280
     0
102
RTVSPost2010PropOp32
 70
     1
102
RTVSPost2010Prop33
280
     0
102
RTVSPost2010PropOp33
 70
     1
102
RTVSPost2010Prop34
280
     0
102
RTVSPost2010PropOp34
 70
     1
102
RTVSPost2010Prop35
280
     0
102
RTVSPost2010PropOp35
 70
     1
102
RTVSPost2010Prop36
280
     0
102
RTVSPost2010PropOp36
 70
     1
102
RTVSPost2010Prop37
 90
       50
102
RTVSPost2010PropOp37
 70
     1
102
RTVSPost2010Prop38
140
0.0
102
RTVSPost2010PropOp38
 70
     1
102
RTVSPost2010Prop39
140
1.0
102
RTVSPost2010PropOp39
 70
     1
102
RTVSPost2010Prop40
 90
        0
102
RTVSPost2010PropOp40
 70
     1
102
RTVSPost2010Prop41ColorIndex
 90
       18
102
RTVSPost2010Prop41ColorRGB
 90
        0
102
RTVSPost2010PropOp41
 70
     1
102
RTVSPost2010Prop42
 90
       50
102
RTVSPost2010PropOp42
 70
     1
102
RTVSPost2010Prop43
 90
        3
102
RTVSPost2010PropOp43
 70
     1
102
RTVSPost2010Prop44ColorIndex
 90
        5
102
RTVSPost2010Prop44ColorRGB
 90
      255
102
RTVSPost2010PropOp44
 70
     1
102
RTVSPost2010Prop45
280
     0
102
RTVSPost2010PropOp45
 70
     1
102
RTVSPost2010Prop46
 90
       50
102
RTVSPost2010PropOp46
 70
     1
102
RTVSPost2010Prop47
 90
       50
102
RTVSPost2010PropOp47
 70
     1
102
RTVSPost2010Prop48
 90
       50
102
RTVSPost2010PropOp48
 70
     1
102
RTVSPost2010Prop49
280
     0
102
RTVSPost2010PropOp49
 70
     1
102
RTVSPost2010Prop50
 90
       50
102
RTVSPost2010PropOp50
 70
     1
102
RTVSPost2010Prop51ColorIndex
 90
      256
102
RTVSPost2010Prop51ColorRGB
 90
-16777216
102
RTVSPost2010PropOp51
 70
     0
102
RTVSPost2010Prop52
140
1.0
102
RTVSPost2010PropOp52
 70
     0
102
RTVSPost2010Prop53
 90
        2
102
RTVSPost2010PropOp53
 70
     1
102
RTVSPost2010Prop54
  1
strokes_ogs.tif
102
RTVSPost2010PropOp54
 70
     1
102
RTVSPost2010Prop55
280
     0
102
RTVSPost2010PropOp55
 70
     1
102
RTVSPost2010Prop56
140
1.0
102
RTVSPost2010PropOp56
 70
     1
102
RTVSPost2010Prop57
140
1.0
102
RTVSPost2010PropOp57
 70
     1
  0
XRECORD
  5
321
102
{ACAD_REACTORS
330
320
102
}
330
320
100
AcDbXrecord
280
     1
102
RTVSPropertyOp0
 70
     1
102
RTVSPropertyOp1
 70
     1
102
RTVSPropertyOp2
 70
     1
102
RTVSPropertyOp3
 70
     1
102
RTVSPropertyOp4
 70
     1
102
RTVSPropertyOp5
 70
     1
102
RTVSPropertyOp6
 70
     1
102
RTVSPropertyOp7
 70
     1
102
RTVSPropertyOp8
 70
     1
102
RTVSPropertyOp9
 70
     1
102
RTVSPropertyOp10
 70
     1
102
RTVSPropertyOp11
 70
     1
102
RTVSPropertyOp12
 70
     1
102
RTVSPropertyOp13
 70
     1
102
RTVSPropertyOp14
 70
     1
102
RTVSPropertyOp15
 70
     1
102
RTVSPropertyOp16
 70
     1
102
RTVSPropertyOp17
 70
     1
102
RTVSPropertyOp18
 70
     1
102
RTVSPropertyOp19
 70
     1
102
RTVSPropertyOp20
 70
     1
102
RTVSPropertyOp21
 70
     1
102
RTVSPropertyOp22
 70
     1
102
RTVSPropertyOp23
 70
     1
102
RTVSPropertyOp24
 70
     1
102
RTVSPropertyOp25
 70
     1
102
RTVSPropertyOp26
 70
     1
102
RTVSPropertyOp27
 70
     1
102
RTVSPropertyOp28
 70
     1
102
RTVSPropertyOp29
 70
     1
102
RTVSPropertyOp30
 70
     1
102
RTVSPropertyOp31
 70
     1
102
RTVSPropertyOp32
 70
     1
102
RTVSPropertyOp33
 70
     1
102
RTVSPropertyOp34
 70
     1
102
RTVSPropertyOp35
 70
     1
102
RTVSPropertyOp36
 70
     1
102
RTVSPropertyOp37
 70
     1
102
RTVSPropertyOp38
 70
     1
102
RTVSPropertyOp39
 70
     1
102
RTVSPropertyOp40
 70
     1
102
RTVSPropertyOp41
 70
     1
102
RTVSPropertyOp42
 70
     1
102
RTVSPropertyOp43
 70
     1
102
RTVSPropertyOp44
 70
     1
102
RTVSPropertyOp45
 70
     1
102
RTVSPropertyOp46
 70
     1
102
RTVSPropertyOp47
 70
     1
102
RTVSPropertyOp48
 70
     1
102
RTVSPropertyOp49
 70
     1
102
RTVSPropertyOp50
 70
     1
102
RTVSPropertyOp51
 70
     0
102
RTVSPropertyOp52
 70
     0
102
RTVSPropertyOp53
 70
     1
102
RTVSPropertyOp54
 70
     1
102
RTVSPropertyOp55
 70
     1
102
RTVSPropertyOp56
 70
     1
102
RTVSPropertyOp57
 70
     1
102
RTVSPost2010Prop28
280
     0
102
RTVSPost2010PropOp28
 70
     1
102
RTVSPost2010Prop29
280
     1
102
RTVSPost2010PropOp29
 70
     1
102
RTVSPost2010Prop30
280
     1
102
RTVSPost2010PropOp30
 70
     1
102
RTVSPost2010Prop31
280
     0
102
RTVSPost2010PropOp31
 70
     1
102
RTVSPost2010Prop32
280
     0
102
RTVSPost2010PropOp32
 70
     1
102
RTVSPost2010Prop33
280
     0
102
RTVSPost2010PropOp33
 70
     1
102
RTVSPost2010Prop34
280
     0
102
RTVSPost2010PropOp34
 70
     1
102
RTVSPost2010Prop35
280
     0
102
RTVSPost2010PropOp35
 70
     1
102
RTVSPost2010Prop36
280
     0
102
RTVSPost2010PropOp36
 70
     1
102
RTVSPost2010Prop37
 90
       50
102
RTVSPost2010PropOp37
 70
     1
102
RTVSPost2010Prop38
140
0.0
102
RTVSPost2010PropOp38
 70
     1
102
RTVSPost2010Prop39
140
1.0
102
RTVSPost2010PropOp39
 70
     1
102
RTVSPost2010Prop40
 90
        0
102
RTVSPost2010PropOp40
 70
     1
102
RTVSPost2010Prop41ColorIndex
 90
       18
102
RTVSPost2010Prop41ColorRGB
 90
        0
102
RTVSPost2010PropOp41
 70
     1
102
RTVSPost2010Prop42
 90
       50
102
RTVSPost2010PropOp42
 70
     1
102
RTVSPost2010Prop43
 90
        3
102
RTVSPost2010PropOp43
 70
     1
102
RTVSPost2010Prop44ColorIndex
 90
        5
102
RTVSPost2010Prop44ColorRGB
 90
      255
102
RTVSPost2010PropOp44
 70
     1
102
RTVSPost2010Prop45
280
     0
102
RTVSPost2010PropOp45
 70
     1
102
RTVSPost2010Prop46
 90
       50
102
RTVSPost2010PropOp46
 70
     1
102
RTVSPost2010Prop47
 90
       50
102
RTVSPost2010PropOp47
 70
     1
102
RTVSPost2010Prop48
 90
       50
102
RTVSPost2010PropOp48
 70
     1
102
RTVSPost2010Prop49
280
     0
102
RTVSPost2010PropOp49
 70
     1
102
RTVSPost2010Prop50
 90
       50
102
RTVSPost2010PropOp50
 70
     1
102
RTVSPost2010Prop51ColorIndex
 90
      256
102
RTVSPost2010Prop51ColorRGB
 90
-16777216
102
RTVSPost2010PropOp51
 70
     0
102
RTVSPost2010Prop52
140
1.0
102
RTVSPost2010PropOp52
 70
     0
102
RTVSPost2010Prop53
 90
        2
102
RTVSPost2010PropOp53
 70
     1
102
RTVSPost2010Prop54
  1
strokes_ogs.tif
102
RTVSPost2010PropOp54
 70
     1
102
RTVSPost2010Prop55
280
     0
102
RTVSPost2010PropOp55
 70
     1
102
RTVSPost2010Prop56
140
1.0
102
RTVSPost2010PropOp56
 70
     1
102
RTVSPost2010Prop57
140
1.0
102
RTVSPost2010PropOp57
 70
     1
  0
XRECORD
  5
311
102
{ACAD_REACTORS
330
310
102
}
330
310
100
AcDbXrecord
280
     1
102
RTVSPropertyOp0
 70
     1
102
RTVSPropertyOp1
 70
     1
102
RTVSPropertyOp2
 70
     1
102
RTVSPropertyOp3
 70
     1
102
RTVSPropertyOp4
 70
     1
102
RTVSPropertyOp5
 70
     1
102
RTVSPropertyOp6
 70
     1
102
RTVSPropertyOp7
 70
     1
102
RTVSPropertyOp8
 70
     1
102
RTVSPropertyOp9
 70
     1
102
RTVSPropertyOp10
 70
     1
102
RTVSPropertyOp11
 70
     1
102
RTVSPropertyOp12
 70
     1
102
RTVSPropertyOp13
 70
     1
102
RTVSPropertyOp14
 70
     1
102
RTVSPropertyOp15
 70
     1
102
RTVSPropertyOp16
 70
     1
102
RTVSPropertyOp17
 70
     1
102
RTVSPropertyOp18
 70
     1
102
RTVSPropertyOp19
 70
     1
102
RTVSPropertyOp20
 70
     1
102
RTVSPropertyOp21
 70
     1
102
RTVSPropertyOp22
 70
     1
102
RTVSPropertyOp23
 70
     1
102
RTVSPropertyOp24
 70
     1
102
RTVSPropertyOp25
 70
     1
102
RTVSPropertyOp26
 70
     1
102
RTVSPropertyOp27
 70
     1
102
RTVSPropertyOp28
 70
     1
102
RTVSPropertyOp29
 70
     1
102
RTVSPropertyOp30
 70
     1
102
RTVSPropertyOp31
 70
     1
102
RTVSPropertyOp32
 70
     1
102
RTVSPropertyOp33
 70
     1
102
RTVSPropertyOp34
 70
     1
102
RTVSPropertyOp35
 70
     1
102
RTVSPropertyOp36
 70
     1
102
RTVSPropertyOp37
 70
     1
102
RTVSPropertyOp38
 70
     1
102
RTVSPropertyOp39
 70
     1
102
RTVSPropertyOp40
 70
     1
102
RTVSPropertyOp41
 70
     1
102
RTVSPropertyOp42
 70
     1
102
RTVSPropertyOp43
 70
     1
102
RTVSPropertyOp44
 70
     1
102
RTVSPropertyOp45
 70
     1
102
RTVSPropertyOp46
 70
     1
102
RTVSPropertyOp47
 70
     1
102
RTVSPropertyOp48
 70
     1
102
RTVSPropertyOp49
 70
     1
102
RTVSPropertyOp50
 70
     1
102
RTVSPropertyOp51
 70
     0
102
RTVSPropertyOp52
 70
     0
102
RTVSPropertyOp53
 70
     1
102
RTVSPropertyOp54
 70
     1
102
RTVSPropertyOp55
 70
     1
102
RTVSPropertyOp56
 70
     1
102
RTVSPropertyOp57
 70
     1
102
RTVSPost2010Prop28
280
     0
102
RTVSPost2010PropOp28
 70
     1
102
RTVSPost2010Prop29
280
     1
102
RTVSPost2010PropOp29
 70
     1
102
RTVSPost2010Prop30
280
     1
102
RTVSPost2010PropOp30
 70
     1
102
RTVSPost2010Prop31
280
     0
102
RTVSPost2010PropOp31
 70
     1
102
RTVSPost2010Prop32
280
     0
102
RTVSPost2010PropOp32
 70
     1
102
RTVSPost2010Prop33
280
     0
102
RTVSPost2010PropOp33
 70
     1
102
RTVSPost2010Prop34
280
     0
102
RTVSPost2010PropOp34
 70
     1
102
RTVSPost2010Prop35
280
     0
102
RTVSPost2010PropOp35
 70
     1
102
RTVSPost2010Prop36
280
     0
102
RTVSPost2010PropOp36
 70
     1
102
RTVSPost2010Prop37
 90
       50
102
RTVSPost2010PropOp37
 70
     1
102
RTVSPost2010Prop38
140
0.0
102
RTVSPost2010PropOp38
 70
     1
102
RTVSPost2010Prop39
140
1.0
102
RTVSPost2010PropOp39
 70
     1
102
RTVSPost2010Prop40
 90
        0
102
RTVSPost2010PropOp40
 70
     1
102
RTVSPost2010Prop41ColorIndex
 90
       18
102
RTVSPost2010Prop41ColorRGB
 90
        0
102
RTVSPost2010PropOp41
 70
     1
102
RTVSPost2010Prop42
 90
       50
102
RTVSPost2010PropOp42
 70
     1
102
RTVSPost2010Prop43
 90
        3
102
RTVSPost2010PropOp43
 70
     1
102
RTVSPost2010Prop44ColorIndex
 90
        5
102
RTVSPost2010Prop44ColorRGB
 90
      255
102
RTVSPost2010PropOp44
 70
     1
102
RTVSPost2010Prop45
280
     0
102
RTVSPost2010PropOp45
 70
     1
102
RTVSPost2010Prop46
 90
       50
102
RTVSPost2010PropOp46
 70
     1
102
RTVSPost2010Prop47
 90
       50
102
RTVSPost2010PropOp47
 70
     1
102
RTVSPost2010Prop48
 90
       50
102
RTVSPost2010PropOp48
 70
     1
102
RTVSPost2010Prop49
280
     0
102
RTVSPost2010PropOp49
 70
     1
102
RTVSPost2010Prop50
 90
       50
102
RTVSPost2010PropOp50
 70
     1
102
RTVSPost2010Prop51ColorIndex
 90
      256
102
RTVSPost2010Prop51ColorRGB
 90
-16777216
102
RTVSPost2010PropOp51
 70
     0
102
RTVSPost2010Prop52
140
1.0
102
RTVSPost2010PropOp52
 70
     0
102
RTVSPost2010Prop53
 90
        2
102
RTVSPost2010PropOp53
 70
     1
102
RTVSPost2010Prop54
  1
strokes_ogs.tif
102
RTVSPost2010PropOp54
 70
     1
102
RTVSPost2010Prop55
280
     0
102
RTVSPost2010PropOp55
 70
     1
102
RTVSPost2010Prop56
140
1.0
102
RTVSPost2010PropOp56
 70
     1
102
RTVSPost2010Prop57
140
1.0
102
RTVSPost2010PropOp57
 70
     1
  0
XRECORD
  5
303
102
{ACAD_REACTORS
330
302
102
}
330
302
100
AcDbXrecord
280
     1
102
RTVSPropertyOp0
 70
     1
102
RTVSPropertyOp1
 70
     1
102
RTVSPropertyOp2
 70
     1
102
RTVSPropertyOp3
 70
     1
102
RTVSPropertyOp4
 70
     1
102
RTVSPropertyOp5
 70
     1
102
RTVSPropertyOp6
 70
     1
102
RTVSPropertyOp7
 70
     1
102
RTVSPropertyOp8
 70
     1
102
RTVSPropertyOp9
 70
     1
102
RTVSPropertyOp10
 70
     1
102
RTVSPropertyOp11
 70
     1
102
RTVSPropertyOp12
 70
     1
102
RTVSPropertyOp13
 70
     1
102
RTVSPropertyOp14
 70
     1
102
RTVSPropertyOp15
 70
     1
102
RTVSPropertyOp16
 70
     1
102
RTVSPropertyOp17
 70
     1
102
RTVSPropertyOp18
 70
     1
102
RTVSPropertyOp19
 70
     1
102
RTVSPropertyOp20
 70
     1
102
RTVSPropertyOp21
 70
     1
102
RTVSPropertyOp22
 70
     1
102
RTVSPropertyOp23
 70
     1
102
RTVSPropertyOp24
 70
     1
102
RTVSPropertyOp25
 70
     1
102
RTVSPropertyOp26
 70
     1
102
RTVSPropertyOp27
 70
     1
102
RTVSPropertyOp28
 70
     1
102
RTVSPropertyOp29
 70
     1
102
RTVSPropertyOp30
 70
     1
102
RTVSPropertyOp31
 70
     1
102
RTVSPropertyOp32
 70
     1
102
RTVSPropertyOp33
 70
     1
102
RTVSPropertyOp34
 70
     1
102
RTVSPropertyOp35
 70
     1
102
RTVSPropertyOp36
 70
     1
102
RTVSPropertyOp37
 70
     1
102
RTVSPropertyOp38
 70
     1
102
RTVSPropertyOp39
 70
     1
102
RTVSPropertyOp40
 70
     1
102
RTVSPropertyOp41
 70
     1
102
RTVSPropertyOp42
 70
     1
102
RTVSPropertyOp43
 70
     1
102
RTVSPropertyOp44
 70
     1
102
RTVSPropertyOp45
 70
     1
102
RTVSPropertyOp46
 70
     1
102
RTVSPropertyOp47
 70
     1
102
RTVSPropertyOp48
 70
     1
102
RTVSPropertyOp49
 70
     1
102
RTVSPropertyOp50
 70
     1
102
RTVSPropertyOp51
 70
     0
102
RTVSPropertyOp52
 70
     0
102
RTVSPropertyOp53
 70
     1
102
RTVSPropertyOp54
 70
     1
102
RTVSPropertyOp55
 70
     1
102
RTVSPropertyOp56
 70
     1
102
RTVSPropertyOp57
 70
     1
102
RTVSPost2010Prop28
280
     0
102
RTVSPost2010PropOp28
 70
     1
102
RTVSPost2010Prop29
280
     1
102
RTVSPost2010PropOp29
 70
     1
102
RTVSPost2010Prop30
280
     1
102
RTVSPost2010PropOp30
 70
     1
102
RTVSPost2010Prop31
280
     0
102
RTVSPost2010PropOp31
 70
     1
102
RTVSPost2010Prop32
280
     0
102
RTVSPost2010PropOp32
 70
     1
102
RTVSPost2010Prop33
280
     0
102
RTVSPost2010PropOp33
 70
     1
102
RTVSPost2010Prop34
280
     0
102
RTVSPost2010PropOp34
 70
     1
102
RTVSPost2010Prop35
280
     0
102
RTVSPost2010PropOp35
 70
     1
102
RTVSPost2010Prop36
280
     0
102
RTVSPost2010PropOp36
 70
     1
102
RTVSPost2010Prop37
 90
       50
102
RTVSPost2010PropOp37
 70
     1
102
RTVSPost2010Prop38
140
0.0
102
RTVSPost2010PropOp38
 70
     1
102
RTVSPost2010Prop39
140
1.0
102
RTVSPost2010PropOp39
 70
     1
102
RTVSPost2010Prop40
 90
        0
102
RTVSPost2010PropOp40
 70
     1
102
RTVSPost2010Prop41ColorIndex
 90
       18
102
RTVSPost2010Prop41ColorRGB
 90
        0
102
RTVSPost2010PropOp41
 70
     1
102
RTVSPost2010Prop42
 90
       50
102
RTVSPost2010PropOp42
 70
     1
102
RTVSPost2010Prop43
 90
        3
102
RTVSPost2010PropOp43
 70
     1
102
RTVSPost2010Prop44ColorIndex
 90
        5
102
RTVSPost2010Prop44ColorRGB
 90
      255
102
RTVSPost2010PropOp44
 70
     1
102
RTVSPost2010Prop45
280
     0
102
RTVSPost2010PropOp45
 70
     1
102
RTVSPost2010Prop46
 90
       50
102
RTVSPost2010PropOp46
 70
     1
102
RTVSPost2010Prop47
 90
       50
102
RTVSPost2010PropOp47
 70
     1
102
RTVSPost2010Prop48
 90
       50
102
RTVSPost2010PropOp48
 70
     1
102
RTVSPost2010Prop49
280
     0
102
RTVSPost2010PropOp49
 70
     1
102
RTVSPost2010Prop50
 90
       50
102
RTVSPost2010PropOp50
 70
     1
102
RTVSPost2010Prop51ColorIndex
 90
      256
102
RTVSPost2010Prop51ColorRGB
 90
-16777216
102
RTVSPost2010PropOp51
 70
     0
102
RTVSPost2010Prop52
140
1.0
102
RTVSPost2010PropOp52
 70
     0
102
RTVSPost2010Prop53
 90
        2
102
RTVSPost2010PropOp53
 70
     1
102
RTVSPost2010Prop54
  1
strokes_ogs.tif
102
RTVSPost2010PropOp54
 70
     1
102
RTVSPost2010Prop55
280
     0
102
RTVSPost2010PropOp55
 70
     1
102
RTVSPost2010Prop56
140
1.0
102
RTVSPost2010PropOp56
 70
     1
102
RTVSPost2010Prop57
140
1.0
102
RTVSPost2010PropOp57
 70
     1
  0
XRECORD
  5
323
102
{ACAD_REACTORS
330
322
102
}
330
322
100
AcDbXrecord
280
     1
102
RTVSPropertyOp0
 70
     1
102
RTVSPropertyOp1
 70
     1
102
RTVSPropertyOp2
 70
     1
102
RTVSPropertyOp3
 70
     1
102
RTVSPropertyOp4
 70
     1
102
RTVSPropertyOp5
 70
     1
102
RTVSPropertyOp6
 70
     1
102
RTVSPropertyOp7
 70
     1
102
RTVSPropertyOp8
 70
     1
102
RTVSPropertyOp9
 70
     1
102
RTVSPropertyOp10
 70
     1
102
RTVSPropertyOp11
 70
     1
102
RTVSPropertyOp12
 70
     1
102
RTVSPropertyOp13
 70
     1
102
RTVSPropertyOp14
 70
     1
102
RTVSPropertyOp15
 70
     1
102
RTVSPropertyOp16
 70
     1
102
RTVSPropertyOp17
 70
     1
102
RTVSPropertyOp18
 70
     1
102
RTVSPropertyOp19
 70
     1
102
RTVSPropertyOp20
 70
     1
102
RTVSPropertyOp21
 70
     1
102
RTVSPropertyOp22
 70
     1
102
RTVSPropertyOp23
 70
     1
102
RTVSPropertyOp24
 70
     1
102
RTVSPropertyOp25
 70
     1
102
RTVSPropertyOp26
 70
     1
102
RTVSPropertyOp27
 70
     1
102
RTVSPropertyOp28
 70
     1
102
RTVSPropertyOp29
 70
     1
102
RTVSPropertyOp30
 70
     1
102
RTVSPropertyOp31
 70
     1
102
RTVSPropertyOp32
 70
     1
102
RTVSPropertyOp33
 70
     1
102
RTVSPropertyOp34
 70
     1
102
RTVSPropertyOp35
 70
     1
102
RTVSPropertyOp36
 70
     1
102
RTVSPropertyOp37
 70
     1
102
RTVSPropertyOp38
 70
     1
102
RTVSPropertyOp39
 70
     1
102
RTVSPropertyOp40
 70
     1
102
RTVSPropertyOp41
 70
     1
102
RTVSPropertyOp42
 70
     1
102
RTVSPropertyOp43
 70
     1
102
RTVSPropertyOp44
 70
     1
102
RTVSPropertyOp45
 70
     1
102
RTVSPropertyOp46
 70
     1
102
RTVSPropertyOp47
 70
     1
102
RTVSPropertyOp48
 70
     1
102
RTVSPropertyOp49
 70
     1
102
RTVSPropertyOp50
 70
     1
102
RTVSPropertyOp51
 70
     0
102
RTVSPropertyOp52
 70
     0
102
RTVSPropertyOp53
 70
     1
102
RTVSPropertyOp54
 70
     1
102
RTVSPropertyOp55
 70
     1
102
RTVSPropertyOp56
 70
     1
102
RTVSPropertyOp57
 70
     1
102
RTVSPost2010Prop28
280
     0
102
RTVSPost2010PropOp28
 70
     1
102
RTVSPost2010Prop29
280
     1
102
RTVSPost2010PropOp29
 70
     1
102
RTVSPost2010Prop30
280
     1
102
RTVSPost2010PropOp30
 70
     1
102
RTVSPost2010Prop31
280
     0
102
RTVSPost2010PropOp31
 70
     1
102
RTVSPost2010Prop32
280
     0
102
RTVSPost2010PropOp32
 70
     1
102
RTVSPost2010Prop33
280
     0
102
RTVSPost2010PropOp33
 70
     1
102
RTVSPost2010Prop34
280
     0
102
RTVSPost2010PropOp34
 70
     1
102
RTVSPost2010Prop35
280
     0
102
RTVSPost2010PropOp35
 70
     1
102
RTVSPost2010Prop36
280
     0
102
RTVSPost2010PropOp36
 70
     1
102
RTVSPost2010Prop37
 90
       50
102
RTVSPost2010PropOp37
 70
     1
102
RTVSPost2010Prop38
140
0.0
102
RTVSPost2010PropOp38
 70
     1
102
RTVSPost2010Prop39
140
1.0
102
RTVSPost2010PropOp39
 70
     1
102
RTVSPost2010Prop40
 90
        0
102
RTVSPost2010PropOp40
 70
     1
102
RTVSPost2010Prop41ColorIndex
 90
       18
102
RTVSPost2010Prop41ColorRGB
 90
        0
102
RTVSPost2010PropOp41
 70
     1
102
RTVSPost2010Prop42
 90
       50
102
RTVSPost2010PropOp42
 70
     1
102
RTVSPost2010Prop43
 90
        3
102
RTVSPost2010PropOp43
 70
     1
102
RTVSPost2010Prop44ColorIndex
 90
        5
102
RTVSPost2010Prop44ColorRGB
 90
      255
102
RTVSPost2010PropOp44
 70
     1
102
RTVSPost2010Prop45
280
     0
102
RTVSPost2010PropOp45
 70
     1
102
RTVSPost2010Prop46
 90
       50
102
RTVSPost2010PropOp46
 70
     1
102
RTVSPost2010Prop47
 90
       50
102
RTVSPost2010PropOp47
 70
     1
102
RTVSPost2010Prop48
 90
       50
102
RTVSPost2010PropOp48
 70
     1
102
RTVSPost2010Prop49
280
     0
102
RTVSPost2010PropOp49
 70
     1
102
RTVSPost2010Prop50
 90
       50
102
RTVSPost2010PropOp50
 70
     1
102
RTVSPost2010Prop51ColorIndex
 90
      256
102
RTVSPost2010Prop51ColorRGB
 90
-16777216
102
RTVSPost2010PropOp51
 70
     0
102
RTVSPost2010Prop52
140
1.0
102
RTVSPost2010PropOp52
 70
     0
102
RTVSPost2010Prop53
 90
        2
102
RTVSPost2010PropOp53
 70
     1
102
RTVSPost2010Prop54
  1
strokes_ogs.tif
102
RTVSPost2010PropOp54
 70
     1
102
RTVSPost2010Prop55
280
     0
102
RTVSPost2010PropOp55
 70
     1
102
RTVSPost2010Prop56
140
1.0
102
RTVSPost2010PropOp56
 70
     1
102
RTVSPost2010Prop57
140
1.0
102
RTVSPost2010PropOp57
 70
     1
  0
ENDSEC
  0
EOF
