  0
SECTION
  2
HEADER
  9
$ACADVER
  1
AC1018
  9
$ACADMAINTVER
 70
     0
  9
$DWGCODEPAGE
  3
ANSI_932
  9
$INSBASE
 10
0.0
 20
0.0
 30
0.0
  9
$EXTMIN
 10
-630.0
 20
-445.5
 30
0.0
  9
$EXTMAX
 10
630.0
 20
445.5
 30
0.0
  9
$LIMMIN
 10
-630.0
 20
-445.5
  9
$LIMMAX
 10
630.0
 20
445.5
  9
$ORTHOMODE
 70
     0
  9
$REGENMODE
 70
     1
  9
$FILLMODE
 70
     1
  9
$QTEXTMODE
 70
     0
  9
$MIRRTEXT
 70
     1
  9
$LTSCALE
 40
3.0
  9
$ATTMODE
 70
     1
  9
$TEXTSIZE
 40
2.5
  9
$TRACEWID
 40
1.0
  9
$TEXTSTYLE
  7
Standard
  9
$CLAYER
  8
0
  9
$CELTYPE
  6
ByLayer
  9
$CECOLOR
 62
   256
  9
$CELTSCALE
 40
1.0
  9
$DISPSILH
 70
     0
  9
$DIMSCALE
 40
1.0
  9
$DIMASZ
 40
2.5
  9
$DIMEXO
 40
0.625
  9
$DIMDLI
 40
3.75
  9
$DIMRND
 40
0.0
  9
$DIMDLE
 40
0.0
  9
$DIMEXE
 40
1.25
  9
$DIMTP
 40
0.0
  9
$DIMTM
 40
0.0
  9
$DIMTXT
 40
2.5
  9
$DIMCEN
 40
2.5
  9
$DIMTSZ
 40
0.0
  9
$DIMTOL
 70
     0
  9
$DIMLIM
 70
     0
  9
$DIMTIH
 70
     0
  9
$DIMTOH
 70
     0
  9
$DIMSE1
 70
     0
  9
$DIMSE2
 70
     0
  9
$DIMTAD
 70
     1
  9
$DIMZIN
 70
     8
  9
$DIMBLK
  1

  9
$DIMASO
 70
     1
  9
$DIMSHO
 70
     1
  9
$DIMPOST
  1

  9
$DIMAPOST
  1

  9
$DIMALT
 70
     0
  9
$DIMALTD
 70
     3
  9
$DIMALTF
 40
0.03937007874016
  9
$DIMLFAC
 40
1.0
  9
$DIMTOFL
 70
     1
  9
$DIMTVP
 40
0.0
  9
$DIMTIX
 70
     0
  9
$DIMSOXD
 70
     0
  9
$DIMSAH
 70
     0
  9
$DIMBLK1
  1

  9
$DIMBLK2
  1

  9
$DIMSTYLE
  2
ISO-25
  9
$DIMCLRD
 70
     0
  9
$DIMCLRE
 70
     0
  9
$DIMCLRT
 70
     0
  9
$DIMTFAC
 40
1.0
  9
$DIMGAP
 40
0.625
  9
$DIMJUST
 70
     0
  9
$DIMSD1
 70
     0
  9
$DIMSD2
 70
     0
  9
$DIMTOLJ
 70
     0
  9
$DIMTZIN
 70
     8
  9
$DIMALTZ
 70
     0
  9
$DIMALTTZ
 70
     0
  9
$DIMUPT
 70
     0
  9
$DIMDEC
 70
     2
  9
$DIMTDEC
 70
     2
  9
$DIMALTU
 70
     2
  9
$DIMALTTD
 70
     3
  9
$DIMTXSTY
  7
Standard
  9
$DIMAUNIT
 70
     0
  9
$DIMADEC
 70
     0
  9
$DIMALTRND
 40
0.0
  9
$DIMAZIN
 70
     0
  9
$DIMDSEP
 70
    44
  9
$DIMATFIT
 70
     3
  9
$DIMFRAC
 70
     0
  9
$DIMLDRBLK
  1

  9
$DIMLUNIT
 70
     2
  9
$DIMLWD
 70
    -2
  9
$DIMLWE
 70
    -2
  9
$DIMTMOVE
 70
     0
  9
$LUNITS
 70
     2
  9
$LUPREC
 70
     4
  9
$SKETCHINC
 40
1.0
  9
$FILLETRAD
 40
10.0
  9
$AUNITS
 70
     0
  9
$AUPREC
 70
     0
  9
$MENU
  1
.
  9
$ELEVATION
 40
0.0
  9
$PELEVATION
 40
0.0
  9
$THICKNESS
 40
0.0
  9
$LIMCHECK
 70
     0
  9
$CHAMFERA
 40
0.0
  9
$CHAMFERB
 40
0.0
  9
$CHAMFERC
 40
0.0
  9
$CHAMFERD
 40
0.0
  9
$SKPOLY
 70
     0
  9
$TDCREATE
 40
2459905.376193472
  9
$TDUCREATE
 40
2459905.001193472
  9
$TDUPDATE
 40
2459905.376193634
  9
$TDUUPDATE
 40
2459905.001193634
  9
$TDINDWG
 40
0.0000000116
  9
$TDUSRTIMER
 40
0.0000000116
  9
$USRTIMER
 70
     1
  9
$ANGBASE
 50
0.0
  9
$ANGDIR
 70
     0
  9
$PDMODE
 70
     0
  9
$PDSIZE
 40
0.0
  9
$PLINEWID
 40
0.0
  9
$SPLFRAME
 70
     0
  9
$SPLINETYPE
 70
     6
  9
$SPLINESEGS
 70
     8
  9
$HANDSEED
  5
422
  9
$SURFTAB1
 70
     6
  9
$SURFTAB2
 70
     6
  9
$SURFTYPE
 70
     6
  9
$SURFU
 70
     6
  9
$SURFV
 70
     6
  9
$UCSBASE
  2

  9
$UCSNAME
  2

  9
$UCSORG
 10
0.0
 20
0.0
 30
0.0
  9
$UCSXDIR
 10
1.0
 20
0.0
 30
0.0
  9
$UCSYDIR
 10
0.0
 20
1.0
 30
0.0
  9
$UCSORTHOREF
  2

  9
$UCSORTHOVIEW
 70
     0
  9
$UCSORGTOP
 10
0.0
 20
0.0
 30
0.0
  9
$UCSORGBOTTOM
 10
0.0
 20
0.0
 30
0.0
  9
$UCSORGLEFT
 10
0.0
 20
0.0
 30
0.0
  9
$UCSORGRIGHT
 10
0.0
 20
0.0
 30
0.0
  9
$UCSORGFRONT
 10
0.0
 20
0.0
 30
0.0
  9
$UCSORGBACK
 10
0.0
 20
0.0
 30
0.0
  9
$PUCSBASE
  2

  9
$PUCSNAME
  2

  9
$PUCSORG
 10
0.0
 20
0.0
 30
0.0
  9
$PUCSXDIR
 10
1.0
 20
0.0
 30
0.0
  9
$PUCSYDIR
 10
0.0
 20
1.0
 30
0.0
  9
$PUCSORTHOREF
  2

  9
$PUCSORTHOVIEW
 70
     0
  9
$PUCSORGTOP
 10
0.0
 20
0.0
 30
0.0
  9
$PUCSORGBOTTOM
 10
0.0
 20
0.0
 30
0.0
  9
$PUCSORGLEFT
 10
0.0
 20
0.0
 30
0.0
  9
$PUCSORGRIGHT
 10
0.0
 20
0.0
 30
0.0
  9
$PUCSORGFRONT
 10
0.0
 20
0.0
 30
0.0
  9
$PUCSORGBACK
 10
0.0
 20
0.0
 30
0.0
  9
$USERI1
 70
     0
  9
$USERI2
 70
     0
  9
$USERI3
 70
     0
  9
$USERI4
 70
     0
  9
$USERI5
 70
     0
  9
$USERR1
 40
0.0
  9
$USERR2
 40
0.0
  9
$USERR3
 40
0.0
  9
$USERR4
 40
0.0
  9
$USERR5
 40
0.0
  9
$WORLDVIEW
 70
     1
  9
$SHADEDGE
 70
     3
  9
$SHADEDIF
 70
    70
  9
$TILEMODE
 70
     1
  9
$MAXACTVP
 70
    64
  9
$PINSBASE
 10
0.0
 20
0.0
 30
0.0
  9
$PLIMCHECK
 70
     0
  9
$PEXTMIN
 10
1.000000000000000E+20
 20
1.000000000000000E+20
 30
1.000000000000000E+20
  9
$PEXTMAX
 10
-1.000000000000000E+20
 20
-1.000000000000000E+20
 30
-1.000000000000000E+20
  9
$PLIMMIN
 10
0.0
 20
0.0
  9
$PLIMMAX
 10
420.0
 20
297.0
  9
$UNITMODE
 70
     0
  9
$VISRETAIN
 70
     1
  9
$PLINEGEN
 70
     0
  9
$PSLTSCALE
 70
     1
  9
$TREEDEPTH
 70
  3020
  9
$CMLSTYLE
  2
Standard
  9
$CMLJUST
 70
     0
  9
$CMLSCALE
 40
20.0
  9
$PROXYGRAPHICS
 70
     1
  9
$MEASUREMENT
 70
     1
  9
$CELWEIGHT
370
    -1
  9
$ENDCAPS
280
     0
  9
$JOINSTYLE
280
     0
  9
$LWDISPLAY
290
     0
  9
$INSUNITS
 70
     4
  9
$HYPERLINKBASE
  1

  9
$STYLESHEET
  1

  9
$XEDIT
290
     1
  9
$CEPSNTYPE
380
     0
  9
$PSTYLEMODE
290
     1
  9
$FINGERPRINTGUID
  2
{B0E5630A-E5BC-4FCD-8417-47F804182FC7}
  9
$VERSIONGUID
  2
{FAEB1C32-E019-11D5-929B-00C0DF256EC4}
  9
$EXTNAMES
290
     1
  9
$PSVPSCALE
 40
0.0
  9
$OLESTARTUP
290
     0
  9
$SORTENTS
280
   127
  9
$INDEXCTL
280
     0
  9
$HIDETEXT
280
     1
  9
$XCLIPFRAME
290
     0
  9
$HALOGAP
280
     0
  9
$OBSCOLOR
 70
   257
  9
$OBSLTYPE
280
     0
  9
$INTERSECTIONDISPLAY
280
     0
  9
$INTERSECTIONCOLOR
 70
   257
  9
$DIMASSOC
280
     2
  9
$PROJECTNAME
  1

  0
ENDSEC
  0
SECTION
  2
CLASSES
  0
CLASS
  1
ACDBDICTIONARYWDFLT
  2
AcDbDictionaryWithDefault
  3
ObjectDBX Classes
 90
        0
 91
        4
280
     0
281
     0
  0
CLASS
  1
VISUALSTYLE
  2
AcDbVisualStyle
  3
ObjectDBX Classes
 90
     4095
 91
        4
280
     0
281
     0
  0
CLASS
  1
MATERIAL
  2
AcDbMaterial
  3
ObjectDBX Classes
 90
     1153
 91
        4
280
     0
281
     0
  0
CLASS
  1
SCALE
  2
AcDbScale
  3
ObjectDBX Classes
 90
     1153
 91
        4
280
     0
281
     0
  0
CLASS
  1
TABLESTYLE
  2
AcDbTableStyle
  3
ObjectDBX Classes
 90
     4095
 91
        4
280
     0
281
     0
  0
CLASS
  1
MLEADERSTYLE
  2
AcDbMLeaderStyle
  3
ACDB_MLEADERSTYLE_CLASS
 90
     4095
 91
        4
280
     0
281
     0
  0
CLASS
  1
SUN
  2
AcDbSun
  3
SCENEOE
 90
     1153
 91
        4
280
     0
281
     0
  0
CLASS
  1
DICTIONARYVAR
  2
AcDbDictionaryVar
  3
ObjectDBX Classes
 90
        0
 91
        4
280
     0
281
     0
  0
CLASS
  1
CELLSTYLEMAP
  2
AcDbCellStyleMap
  3
ObjectDBX Classes
 90
     1152
 91
        4
280
     0
281
     0
  0
ENDSEC
  0
SECTION
  2
TABLES
  0
TABLE
  2
VPORT
  5
8
102
{ACAD_XDICTIONARY
360
3D9
102
}
330
0
100
AcDbSymbolTable
 70
     1
  0
VPORT
  5
29
330
8
100
AcDbSymbolTableRecord
100
AcDbViewportTableRecord
  2
*Active
 70
     0
 10
0.0
 20
0.0
 11
1.0
 21
1.0
 12
0.0
 22
0.0
 13
0.0
 23
0.0
 14
10.0
 24
10.0
 15
10.0
 25
10.0
 16
0.0
 26
0.0
 36
1.0
 17
0.0
 27
0.0
 37
0.0
 40
980.1
 41
1.414141414141414
 42
50.0
 43
0.0
 44
0.0
 50
0.0
 51
0.0
 71
     0
 72
 10000
 73
     1
 74
     3
 75
     0
 76
     0
 77
     0
 78
     0
281
     0
 65
     1
110
0.0
120
0.0
130
0.0
111
1.0
121
0.0
131
0.0
112
0.0
122
1.0
132
0.0
 79
     0
146
0.0
  0
ENDTAB
  0
TABLE
  2
LTYPE
  5
5
330
0
100
AcDbSymbolTable
 70
     4
  0
LTYPE
  5
14
330
5
100
AcDbSymbolTableRecord
100
AcDbLinetypeTableRecord
  2
ByBlock
 70
     0
  3

 72
    65
 73
     0
 40
0.0
  0
LTYPE
  5
15
330
5
100
AcDbSymbolTableRecord
100
AcDbLinetypeTableRecord
  2
ByLayer
 70
     0
  3

 72
    65
 73
     0
 40
0.0
  0
LTYPE
  5
16
330
5
100
AcDbSymbolTableRecord
100
AcDbLinetypeTableRecord
  2
Continuous
 70
     0
  3
Solid line
 72
    65
 73
     0
 40
0.0
  0
LTYPE
  5
6F
330
5
100
AcDbSymbolTableRecord
100
AcDbLinetypeTableRecord
  2
JWW_CENTER1
 70
     0
  3
-----  --  ----------  --  -----
 72
    65
 73
     4
 40
6.773333333333333
 49
4.233333333333333
 74
     0
 49
-0.8466666666666667
 74
     0
 49
0.8466666666666667
 74
     0
 49
-0.8466666666666667
 74
     0
  0
LTYPE
  5
70
330
5
100
AcDbSymbolTableRecord
100
AcDbLinetypeTableRecord
  2
JWW_HOJO
 70
     0
  3
  -   -   -   -   -   -   -   - 
 72
    65
 73
     2
 40
1.693333333333333
 49
-1.27
 74
     0
 49
0.4233333333333333
 74
     0
  0
LTYPE
  5
71
330
5
100
AcDbSymbolTableRecord
100
AcDbLinetypeTableRecord
  2
JWW_DASHED1
 70
     0
  3
-  --  --  --  --  --  --  --  -
 72
    65
 73
     2
 40
1.693333333333333
 49
0.8466666666666667
 74
     0
 49
-0.8466666666666667
 74
     0
  0
ENDTAB
  0
TABLE
  2
LAYER
  5
2
330
0
100
AcDbSymbolTable
 70
    11
  0
LAYER
  5
10
330
2
100
AcDbSymbolTableRecord
100
AcDbLayerTableRecord
  2
0
 70
     0
 62
     7
  6
Continuous
370
    -3
390
F
  0
LAYER
  5
72
330
2
100
AcDbSymbolTableRecord
100
AcDbLayerTableRecord
  2
F-4ﾚｲﾔ
 70
     0
 62
     7
  6
Continuous
370
    -3
390
F
  0
LAYER
  5
73
330
2
100
AcDbSymbolTableRecord
100
AcDbLayerTableRecord
  2
仕上
 70
     0
 62
     7
  6
Continuous
370
    -3
390
F
  0
LAYER
  5
74
330
2
100
AcDbSymbolTableRecord
100
AcDbLayerTableRecord
  2
躯体
 70
     0
 62
     7
  6
Continuous
370
    -3
390
F
  0
LAYER
  5
75
330
2
100
AcDbSymbolTableRecord
100
AcDbLayerTableRecord
  2
0-A
 70
     0
 62
     7
  6
Continuous
370
    -3
390
F
  0
LAYER
  5
76
330
2
100
AcDbSymbolTableRecord
100
AcDbLayerTableRecord
  2
通り芯
 70
     0
 62
     7
  6
Continuous
370
    -3
390
F
  0
LAYER
  5
77
330
2
100
AcDbSymbolTableRecord
100
AcDbLayerTableRecord
  2
建具
 70
     0
 62
     7
  6
Continuous
370
    -3
390
F
  0
LAYER
  5
78
330
2
100
AcDbSymbolTableRecord
100
AcDbLayerTableRecord
  2
0-9
 70
     0
 62
     7
  6
Continuous
370
    -3
390
F
  0
LAYER
  5
79
330
2
100
AcDbSymbolTableRecord
100
AcDbLayerTableRecord
  2
その他
 70
     0
 62
     7
  6
Continuous
370
    -3
390
F
  0
LAYER
  5
7A
330
2
100
AcDbSymbolTableRecord
100
AcDbLayerTableRecord
  2
寸法
 70
     0
 62
     7
  6
Continuous
370
    -3
390
F
  0
LAYER
  5
7B
330
2
100
AcDbSymbolTableRecord
100
AcDbLayerTableRecord
  2
F-5ﾚｲﾔ
 70
     0
 62
     7
  6
Continuous
370
    -3
390
F
  0
ENDTAB
  0
TABLE
  2
STYLE
  5
3
330
0
100
AcDbSymbolTable
 70
     2
  0
STYLE
  5
11
330
3
100
AcDbSymbolTableRecord
100
AcDbTextStyleTableRecord
  2
Standard
 70
     0
 40
0.0
 41
1.0
 50
0.0
 71
     0
 42
2.5
  3
txt
  4

  0
STYLE
  5
6E
330
3
100
AcDbSymbolTableRecord
100
AcDbTextStyleTableRecord
  2
ＭＳ ゴシック
 70
     0
 40
1.0
 41
1.0
 50
0.0
 71
     0
 42
2.5
  3

  4

1001
ACAD
1000
MS Gothic
1071
    32817
  0
ENDTAB
  0
TABLE
  2
VIEW
  5
6
330
0
100
AcDbSymbolTable
 70
     0
  0
ENDTAB
  0
TABLE
  2
UCS
  5
7
330
0
100
AcDbSymbolTable
 70
     0
  0
ENDTAB
  0
TABLE
  2
APPID
  5
9
330
0
100
AcDbSymbolTable
 70
     2
  0
APPID
  5
12
330
9
100
AcDbSymbolTableRecord
100
AcDbRegAppTableRecord
  2
ACAD
 70
     0
  0
APPID
  5
418
330
9
100
AcDbSymbolTableRecord
100
AcDbRegAppTableRecord
  2
ACAD_MLEADERVER
 70
     0
  0
ENDTAB
  0
TABLE
  2
DIMSTYLE
  5
A
330
0
100
AcDbSymbolTable
 70
     1
100
AcDbDimStyleTable
  0
DIMSTYLE
105
27
330
A
100
AcDbSymbolTableRecord
100
AcDbDimStyleTableRecord
  2
ISO-25
 70
     0
 41
2.5
 42
0.625
 43
3.75
 44
1.25
 73
     0
 74
     0
 77
     1
 78
     8
140
2.5
141
2.5
143
0.03937007874016
147
0.625
171
     3
172
     1
178
     0
271
     2
272
     2
274
     3
278
    44
283
     0
284
     8
340
11
  0
ENDTAB
  0
TABLE
  2
BLOCK_RECORD
  5
1
330
0
100
AcDbSymbolTable
 70
     1
  0
BLOCK_RECORD
  5
1F
330
1
100
AcDbSymbolTableRecord
100
AcDbBlockTableRecord
  2
*Model_Space
340
22
  0
BLOCK_RECORD
  5
1B
330
1
100
AcDbSymbolTableRecord
100
AcDbBlockTableRecord
  2
*Paper_Space
340
1E
  0
BLOCK_RECORD
  5
23
330
1
100
AcDbSymbolTableRecord
100
AcDbBlockTableRecord
  2
*Paper_Space0
340
26
  0
ENDTAB
  0
ENDSEC
  0
SECTION
  2
BLOCKS
  0
BLOCK
  5
20
330
1F
100
AcDbEntity
  8
0
100
AcDbBlockBegin
  2
*Model_Space
 70
     0
 10
0.0
 20
0.0
 30
0.0
  3
*Model_Space
  1

  0
ENDBLK
  5
21
330
1F
100
AcDbEntity
  8
0
100
AcDbBlockEnd
  0
BLOCK
  5
1C
330
1B
100
AcDbEntity
 67
     1
  8
0
100
AcDbBlockBegin
  2
*Paper_Space
 70
     0
 10
0.0
 20
0.0
 30
0.0
  3
*Paper_Space
  1

  0
ENDBLK
  5
1D
330
1B
100
AcDbEntity
 67
     1
  8
0
100
AcDbBlockEnd
  0
BLOCK
  5
24
330
23
100
AcDbEntity
  8
0
100
AcDbBlockBegin
  2
*Paper_Space0
 70
     0
 10
0.0
 20
0.0
 30
0.0
  3
*Paper_Space0
  1

  0
ENDBLK
  5
25
330
23
100
AcDbEntity
  8
0
100
AcDbBlockEnd
  0
ENDSEC
  0
SECTION
  2
ENTITIES
  0
TEXT
  5
7C
330
1F
100
AcDbEntity
  8
F-4ﾚｲﾔ
  6
Continuous
 62
     2
370
     9
100
AcDbText
 10
-38.5751067323481
 20
-331.103328407225
 30
0.0
 40
9.144
  1
鋳鉄製ルーフドレン　防水層張掛け幅100mm　たて引き用　打込型　差し込み式
 41
0.5992957746478875
  7
ＭＳ ゴシック
100
AcDbText
  0
LINE
  5
7D
330
1F
100
AcDbEntity
  8
仕上
  6
Continuous
 62
     6
370
     9
100
AcDbLine
 10
13.97507650603655
 20
282.3507856330065
 30
0.0
 11
-2.460913639731301
 21
265.9291872059225
 31
0.0
  0
ARC
  5
7E
330
1F
100
AcDbEntity
  8
仕上
  6
Continuous
 62
     6
370
     9
100
AcDbCircle
 10
-31.9865262536008
 20
234.3089189917592
 30
0.0
 40
69.99999861551527
100
AcDbArc
 50
9.046157836914064
 51
170.9589233398438
  0
LINE
  5
7F
330
1F
100
AcDbEntity
  8
躯体
  6
Continuous
 62
     2
370
     9
100
AcDbLine
 10
46.58552121195555
 20
261.0560637718631
 30
0.0
 11
49.48955132326103
 21
261.8341439499066
 31
0.0
  0
LINE
  5
80
330
1F
100
AcDbEntity
  8
躯体
  6
Continuous
 62
     2
370
     9
100
AcDbLine
 10
45.60618444022986
 20
259.240869976994
 30
0.0
 11
50.92494372511464
 21
260.6657988557192
 31
0.0
  0
LINE
  5
81
330
1F
100
AcDbEntity
  8
躯体
  6
Continuous
 62
     2
370
     9
100
AcDbLine
 10
30.46336676991587
 20
288.9804423915541
 30
0.0
 11
32.58914172787457
 21
291.1064623149374
 31
0.0
  0
LINE
  5
82
330
1F
100
AcDbEntity
  8
躯体
  6
Continuous
 62
     2
370
     9
100
AcDbLine
 10
28.40180774821273
 20
289.0401439649886
 30
0.0
 11
32.29521821364473
 21
292.9334844402994
 31
0.0
  0
LINE
  5
83
330
1F
100
AcDbEntity
  8
躯体
  6
Continuous
 62
     2
370
     9
100
AcDbLine
 10
45.60618444022986
 20
259.240869976994
 30
0.0
 11
46.58552121195555
 21
261.0560637718631
 31
0.0
  0
LINE
  5
84
330
1F
100
AcDbEntity
  8
躯体
  6
Continuous
 62
     2
370
     9
100
AcDbLine
 10
50.92494372511464
 20
260.6657988557192
 30
0.0
 11
49.48955132326103
 21
261.8341439499066
 31
0.0
  0
LINE
  5
85
330
1F
100
AcDbEntity
  8
躯体
  6
Continuous
 62
     2
370
     9
100
AcDbLine
 10
32.58914172787457
 20
291.1064623149374
 30
0.0
 11
32.29521821364473
 21
292.9334844402994
 31
0.0
  0
LINE
  5
86
330
1F
100
AcDbEntity
  8
躯体
  6
Continuous
 62
     2
370
     9
100
AcDbLine
 10
30.46336676991587
 20
288.9804423915541
 30
0.0
 11
28.40180774821273
 21
289.0401439649886
 31
0.0
  0
LINE
  5
87
330
1F
100
AcDbEntity
  8
躯体
  6
Continuous
 62
     2
370
     9
100
AcDbLine
 10
22.6852946042094
 20
296.7586545375032
 30
0.0
 11
24.81103456710754
 21
298.884604470765
 31
0.0
  0
LINE
  5
88
330
1F
100
AcDbEntity
  8
躯体
  6
Continuous
 62
     2
370
     9
100
AcDbLine
 10
22.74496118258322
 20
294.6969555355575
 30
0.0
 11
26.63833665295455
 21
298.5903660009895
 31
0.0
  0
LINE
  5
89
330
1F
100
AcDbEntity
  8
躯体
  6
Continuous
 62
     2
370
     9
100
AcDbLine
 10
-5.239119010542357
 20
312.880878969664
 30
0.0
 11
-4.461038832498833
 21
315.7848390908482
 31
0.0
  0
LINE
  5
8A
330
1F
100
AcDbEntity
  8
躯体
  6
Continuous
 62
     2
370
     9
100
AcDbLine
 10
-7.05434780047209
 20
311.901577192999
 30
0.0
 11
-5.629348931625588
 21
317.22012650752
 31
0.0
  0
LINE
  5
8B
330
1F
100
AcDbEntity
  8
躯体
  6
Continuous
 62
     2
370
     9
100
AcDbLine
 10
22.74496118258322
 20
294.6969555355575
 30
0.0
 11
22.6852946042094
 21
296.7586545375032
 31
0.0
  0
LINE
  5
8C
330
1F
100
AcDbEntity
  8
躯体
  6
Continuous
 62
     2
370
     9
100
AcDbLine
 10
26.63833665295455
 20
298.5903660009895
 30
0.0
 11
24.81103456710754
 21
298.884604470765
 31
0.0
  0
LINE
  5
8D
330
1F
100
AcDbEntity
  8
躯体
  6
Continuous
 62
     2
370
     9
100
AcDbLine
 10
-4.461038832498833
 20
315.7848390908482
 30
0.0
 11
-5.629348931625588
 21
317.22012650752
 31
0.0
  0
LINE
  5
8E
330
1F
100
AcDbEntity
  8
躯体
  6
Continuous
 62
     2
370
     9
100
AcDbLine
 10
-5.239119010542357
 20
312.880878969664
 30
0.0
 11
-7.05434780047209
 21
311.901577192999
 31
0.0
  0
LINE
  5
8F
330
1F
100
AcDbEntity
  8
躯体
  6
Continuous
 62
     2
370
     9
100
AcDbLine
 10
-15.86424932884892
 20
315.727867132143
 30
0.0
 11
-15.08616915080539
 21
318.6317572632059
 31
0.0
  0
LINE
  5
90
330
1F
100
AcDbEntity
  8
躯体
  6
Continuous
 62
     2
370
     9
100
AcDbLine
 10
-14.78185210356843
 20
313.9720949502232
 30
0.0
 11
-13.3568882297826
 21
319.2906442647442
 31
0.0
  0
LINE
  5
91
330
1F
100
AcDbEntity
  8
躯体
  6
Continuous
 62
     2
370
     9
100
AcDbLine
 10
-48.10855821292841
 20
315.727867132143
 30
0.0
 11
-48.88677837121439
 21
318.6317572632059
 31
0.0
  0
LINE
  5
92
330
1F
100
AcDbEntity
  8
躯体
  6
Continuous
 62
     2
370
     9
100
AcDbLine
 10
-49.19120040363327
 20
313.9720949502232
 30
0.0
 11
-50.61619927247975
 21
319.2906442647442
 31
0.0
  0
LINE
  5
93
330
1F
100
AcDbEntity
  8
躯体
  6
Continuous
 62
     2
370
     9
100
AcDbLine
 10
-14.78185210356843
 20
313.9720949502232
 30
0.0
 11
-15.86424932884892
 21
315.727867132143
 31
0.0
  0
LINE
  5
94
330
1F
100
AcDbEntity
  8
躯体
  6
Continuous
 62
     2
370
     9
100
AcDbLine
 10
-13.3568882297826
 20
319.2906442647442
 30
0.0
 11
-15.08616915080539
 21
318.6317572632059
 31
0.0
  0
LINE
  5
95
330
1F
100
AcDbEntity
  8
躯体
  6
Continuous
 62
     2
370
     9
100
AcDbLine
 10
-48.88677837121439
 20
318.6317572632059
 30
0.0
 11
-50.61619927247975
 21
319.2906442647442
 31
0.0
  0
LINE
  5
96
330
1F
100
AcDbEntity
  8
躯体
  6
Continuous
 62
     2
370
     9
100
AcDbLine
 10
-48.10855821292841
 20
315.727867132143
 30
0.0
 11
-49.19120040363327
 21
313.9720949502232
 31
0.0
  0
LINE
  5
97
330
1F
100
AcDbEntity
  8
躯体
  6
Continuous
 62
     2
370
     9
100
AcDbLine
 10
-58.73396849172001
 20
312.880878969664
 30
0.0
 11
-59.5119786796423
 21
315.7848390908482
 31
0.0
  0
LINE
  5
98
330
1F
100
AcDbEntity
  8
躯体
  6
Continuous
 62
     2
370
     9
100
AcDbLine
 10
-56.91866971166893
 20
311.901577192999
 30
0.0
 11
-58.34366858051555
 21
317.2201964976412
 31
0.0
  0
LINE
  5
99
330
1F
100
AcDbEntity
  8
躯体
  6
Continuous
 62
     2
370
     9
100
AcDbLine
 10
-86.65831211635042
 20
296.7587245276244
 30
0.0
 11
-88.78408707430921
 21
298.8846044707651
 31
0.0
  0
LINE
  5
9A
330
1F
100
AcDbEntity
  8
躯体
  6
Continuous
 62
     2
370
     9
100
AcDbLine
 10
-86.71780371942108
 20
294.6969555355575
 30
0.0
 11
-90.61138916015622
 21
298.5903660009895
 31
0.0
  0
LINE
  5
9B
330
1F
100
AcDbEntity
  8
躯体
  6
Continuous
 62
     2
370
     9
100
AcDbLine
 10
-56.91866971166893
 20
311.901577192999
 30
0.0
 11
-58.73396849172001
 21
312.880878969664
 31
0.0
  0
LINE
  5
9C
330
1F
100
AcDbEntity
  8
躯体
  6
Continuous
 62
     2
370
     9
100
AcDbLine
 10
-58.34366858051555
 20
317.2201964976412
 30
0.0
 11
-59.5119786796423
 21
315.7848390908482
 31
0.0
  0
LINE
  5
9D
330
1F
100
AcDbEntity
  8
躯体
  6
Continuous
 62
     2
370
     9
100
AcDbLine
 10
-88.78408707430921
 20
298.8846044707651
 30
0.0
 11
-90.61138916015622
 21
298.5903660009895
 31
0.0
  0
LINE
  5
9E
330
1F
100
AcDbEntity
  8
躯体
  6
Continuous
 62
     2
370
     9
100
AcDbLine
 10
-86.65831211635042
 20
296.7587245276244
 30
0.0
 11
-86.71780371942108
 21
294.6969555355575
 31
0.0
  0
LINE
  5
9F
330
1F
100
AcDbEntity
  8
躯体
  6
Continuous
 62
     2
370
     9
100
AcDbLine
 10
-94.43648926723881
 20
288.9805823717967
 30
0.0
 11
-96.56215924001569
 21
291.1064623149374
 31
0.0
  0
LINE
  5
A0
330
1F
100
AcDbEntity
  8
躯体
  6
Continuous
 62
     2
370
     9
100
AcDbLine
 10
-92.37482526035386
 20
289.0401439649886
 30
0.0
 11
-96.26823572578573
 21
292.9334844402994
 31
0.0
  0
LINE
  5
A1
330
1F
100
AcDbEntity
  8
躯体
  6
Continuous
 62
     2
370
     9
100
AcDbLine
 10
-110.5585387240966
 20
261.0560637718631
 30
0.0
 11
-113.4626038304627
 21
261.8341439499066
 31
0.0
  0
LINE
  5
A2
330
1F
100
AcDbEntity
  8
躯体
  6
Continuous
 62
     2
370
     9
100
AcDbLine
 10
-109.5792369474316
 20
259.240869976994
 30
0.0
 11
-114.8979612372557
 21
260.6657988557192
 31
0.0
  0
LINE
  5
A3
330
1F
100
AcDbEntity
  8
躯体
  6
Continuous
 62
     2
370
     9
100
AcDbLine
 10
-92.37482526035386
 20
289.0401439649886
 30
0.0
 11
-94.43648926723881
 21
288.9805823717967
 31
0.0
  0
LINE
  5
A4
330
1F
100
AcDbEntity
  8
躯体
  6
Continuous
 62
     2
370
     9
100
AcDbLine
 10
-96.26823572578573
 20
292.9334844402994
 30
0.0
 11
-96.56215924001569
 21
291.1064623149374
 31
0.0
  0
LINE
  5
A5
330
1F
100
AcDbEntity
  8
躯体
  6
Continuous
 62
     2
370
     9
100
AcDbLine
 10
-113.4626038304627
 20
261.8341439499066
 30
0.0
 11
-114.8979612372557
 21
260.6657988557192
 31
0.0
  0
LINE
  5
A6
330
1F
100
AcDbEntity
  8
躯体
  6
Continuous
 62
     2
370
     9
100
AcDbLine
 10
-110.5585387240966
 20
261.0560637718631
 30
0.0
 11
-109.5792369474316
 21
259.240869976994
 31
0.0
  0
LINE
  5
A7
330
1F
100
AcDbEntity
  8
躯体
  6
Continuous
 62
     2
370
     9
100
AcDbLine
 10
49.43268434973754
 20
250.4309334535564
 30
0.0
 11
52.33653948573987
 21
251.2090836217213
 31
0.0
  0
LINE
  5
A8
330
1F
100
AcDbEntity
  8
躯体
  6
Continuous
 62
     2
370
     9
100
AcDbLine
 10
47.67673719251479
 20
251.513330678837
 30
0.0
 11
52.99549647739956
 21
252.9383995378047
 31
0.0
  0
LINE
  5
A9
330
1F
100
AcDbEntity
  8
躯体
  6
Continuous
 62
     2
370
     9
100
AcDbLine
 10
52.33653948573987
 20
251.2090836217213
 30
0.0
 11
52.99549647739956
 21
252.9383995378047
 31
0.0
  0
LINE
  5
AA
330
1F
100
AcDbEntity
  8
躯体
  6
Continuous
 62
     2
370
     9
100
AcDbLine
 10
49.43268434973754
 20
250.4309334535564
 30
0.0
 11
47.67673719251479
 21
251.513330678837
 31
0.0
  0
LINE
  5
AB
330
1F
100
AcDbEntity
  8
躯体
  6
Continuous
 62
     2
370
     9
100
AcDbLine
 10
-113.4057368569393
 20
250.4309334535564
 30
0.0
 11
-116.3096269880023
 21
251.2090836217213
 31
0.0
  0
LINE
  5
AC
330
1F
100
AcDbEntity
  8
躯体
  6
Continuous
 62
     2
370
     9
100
AcDbLine
 10
-111.6498246947771
 20
251.513330678837
 30
0.0
 11
-116.9685139895406
 21
252.9383995378048
 31
0.0
  0
LINE
  5
AD
330
1F
100
AcDbEntity
  8
躯体
  6
Continuous
 62
     2
370
     9
100
AcDbLine
 10
-116.3096269880023
 20
251.2090836217213
 30
0.0
 11
-116.9685139895406
 21
252.9383995378048
 31
0.0
  0
LINE
  5
AE
330
1F
100
AcDbEntity
  8
躯体
  6
Continuous
 62
     2
370
     9
100
AcDbLine
 10
-113.4057368569393
 20
250.4309334535564
 30
0.0
 11
-111.6498246947771
 21
251.513330678837
 31
0.0
  0
ARC
  5
AF
330
1F
100
AcDbEntity
  8
躯体
  6
Continuous
 62
     2
370
     9
100
AcDbCircle
 10
-31.98650875607052
 20
234.3087790115167
 30
0.0
 40
82.99999873334374
100
AcDbArc
 50
18.79946899414063
 51
41.20048522949219
  0
ARC
  5
B0
330
1F
100
AcDbEntity
  8
躯体
  6
Continuous
 62
     2
370
     9
100
AcDbCircle
 10
-31.98650875607052
 20
234.3087790115167
 30
0.0
 40
86.00000279842656
100
AcDbArc
 50
18.666748046875
 51
41.33323669433594
  0
ARC
  5
B1
330
1F
100
AcDbEntity
  8
躯体
  6
Continuous
 62
     2
370
     9
100
AcDbCircle
 10
-31.98650875607052
 20
234.3087790115167
 30
0.0
 40
86.999995404689
100
AcDbArc
 50
17.63522338867188
 51
42.36474609375
  0
ARC
  5
B2
330
1F
100
AcDbEntity
  8
躯体
  6
Continuous
 62
     2
370
     9
100
AcDbCircle
 10
-31.98650875607052
 20
234.3087790115167
 30
0.0
 40
81.4999879520372
100
AcDbArc
 50
17.81321716308593
 51
42.18676757812499
  0
ARC
  5
B3
330
1F
100
AcDbEntity
  8
躯体
  6
Continuous
 62
     2
370
     9
100
AcDbCircle
 10
-31.98650875607052
 20
234.3087790115167
 30
0.0
 40
82.99999873334374
100
AcDbArc
 50
48.79946899414061
 51
71.20048522949216
  0
ARC
  5
B4
330
1F
100
AcDbEntity
  8
躯体
  6
Continuous
 62
     2
370
     9
100
AcDbCircle
 10
-31.98650875607052
 20
234.3087790115167
 30
0.0
 40
86.00000279842656
100
AcDbArc
 50
48.66674804687501
 51
71.33323669433594
  0
ARC
  5
B5
330
1F
100
AcDbEntity
  8
躯体
  6
Continuous
 62
     2
370
     9
100
AcDbCircle
 10
-31.98650875607052
 20
234.3087790115167
 30
0.0
 40
86.999995404689
100
AcDbArc
 50
47.63522338867188
 51
72.36474609374999
  0
ARC
  5
B6
330
1F
100
AcDbEntity
  8
躯体
  6
Continuous
 62
     2
370
     9
100
AcDbCircle
 10
-31.98650875607052
 20
234.3087790115167
 30
0.0
 40
81.4999879520372
100
AcDbArc
 50
47.81321716308594
 51
72.186767578125
  0
ARC
  5
B7
330
1F
100
AcDbEntity
  8
躯体
  6
Continuous
 62
     2
370
     9
100
AcDbCircle
 10
-31.98650875607052
 20
234.3087790115167
 30
0.0
 40
82.99999873334374
100
AcDbArc
 50
78.79946899414062
 51
101.2004852294922
  0
ARC
  5
B8
330
1F
100
AcDbEntity
  8
躯体
  6
Continuous
 62
     2
370
     9
100
AcDbCircle
 10
-31.98650875607052
 20
234.3087790115167
 30
0.0
 40
86.00000279842656
100
AcDbArc
 50
78.66674804687503
 51
101.333236694336
  0
ARC
  5
B9
330
1F
100
AcDbEntity
  8
躯体
  6
Continuous
 62
     2
370
     9
100
AcDbCircle
 10
-31.98650875607052
 20
234.3087790115167
 30
0.0
 40
86.999995404689
100
AcDbArc
 50
77.63522338867188
 51
102.36474609375
  0
ARC
  5
BA
330
1F
100
AcDbEntity
  8
躯体
  6
Continuous
 62
     2
370
     9
100
AcDbCircle
 10
-31.98650875607052
 20
234.3087790115167
 30
0.0
 40
82.99999873334374
100
AcDbArc
 50
108.7994689941406
 51
131.2004852294922
  0
ARC
  5
BB
330
1F
100
AcDbEntity
  8
躯体
  6
Continuous
 62
     2
370
     9
100
AcDbCircle
 10
-31.98650875607052
 20
234.3087790115167
 30
0.0
 40
86.00000279842656
100
AcDbArc
 50
108.666748046875
 51
131.3332366943359
  0
ARC
  5
BC
330
1F
100
AcDbEntity
  8
躯体
  6
Continuous
 62
     2
370
     9
100
AcDbCircle
 10
-31.98650875607052
 20
234.3087790115167
 30
0.0
 40
86.999995404689
100
AcDbArc
 50
107.6352233886719
 51
132.36474609375
  0
ARC
  5
BD
330
1F
100
AcDbEntity
  8
躯体
  6
Continuous
 62
     2
370
     9
100
AcDbCircle
 10
-31.98650875607052
 20
234.3087790115167
 30
0.0
 40
81.4999879520372
100
AcDbArc
 50
107.813217163086
 51
132.186767578125
  0
ARC
  5
BE
330
1F
100
AcDbEntity
  8
躯体
  6
Continuous
 62
     2
370
     9
100
AcDbCircle
 10
-31.98650875607052
 20
234.3087790115167
 30
0.0
 40
82.99999873334374
100
AcDbArc
 50
138.7994689941407
 51
161.2004852294922
  0
ARC
  5
BF
330
1F
100
AcDbEntity
  8
躯体
  6
Continuous
 62
     2
370
     9
100
AcDbCircle
 10
-31.98650875607052
 20
234.3087790115167
 30
0.0
 40
86.00000279842656
100
AcDbArc
 50
138.666748046875
 51
161.3332366943359
  0
ARC
  5
C0
330
1F
100
AcDbEntity
  8
躯体
  6
Continuous
 62
     2
370
     9
100
AcDbCircle
 10
-31.98650875607052
 20
234.3087790115167
 30
0.0
 40
86.999995404689
100
AcDbArc
 50
137.6352233886719
 51
162.36474609375
  0
ARC
  5
C1
330
1F
100
AcDbEntity
  8
躯体
  6
Continuous
 62
     2
370
     9
100
AcDbCircle
 10
-31.98650875607052
 20
234.3087790115167
 30
0.0
 40
81.4999879520372
100
AcDbArc
 50
137.8132171630859
 51
162.186767578125
  0
ARC
  5
C2
330
1F
100
AcDbEntity
  8
躯体
  6
Continuous
 62
     2
370
     9
100
AcDbCircle
 10
-31.98650875607052
 20
234.3087790115167
 30
0.0
 40
81.4999879520372
100
AcDbArc
 50
7.226165771484372
 51
12.186767578125
  0
ARC
  5
C3
330
1F
100
AcDbEntity
  8
躯体
  6
Continuous
 62
     2
370
     9
100
AcDbCircle
 10
-31.98650875607052
 20
234.3087790115167
 30
0.0
 40
81.4999879520372
100
AcDbArc
 50
167.8132324218751
 51
172.7738342285157
  0
ARC
  5
C4
330
1F
100
AcDbEntity
  8
躯体
  6
Continuous
 62
     2
370
     9
100
AcDbCircle
 10
-31.98650875607052
 20
234.3087790115167
 30
0.0
 40
81.78371040609352
100
AcDbArc
 50
87.12622070312501
 51
92.87377929687501
  0
ARC
  5
C5
330
1F
100
AcDbEntity
  8
躯体
  6
Continuous
 62
     2
370
     9
100
AcDbCircle
 10
-31.98650875607052
 20
234.3087790115167
 30
0.0
 40
81.4999879520372
100
AcDbArc
 50
77.81321716308594
 51
85.67166137695312
  0
ARC
  5
C6
330
1F
100
AcDbEntity
  8
躯体
  6
Continuous
 62
     2
370
     9
100
AcDbCircle
 10
-31.98650875607052
 20
234.3087790115167
 30
0.0
 40
81.4999879520372
100
AcDbArc
 50
94.32833862304688
 51
102.186767578125
  0
ARC
  5
C7
330
1F
100
AcDbEntity
  8
躯体
  6
Continuous
 62
     2
370
     9
100
AcDbCircle
 10
-82.97753163930531
 20
248.7631388540602
 30
0.0
 40
1.999999976066088
100
AcDbArc
 50
164.1733856201172
 51
254.4984436035156
  0
ARC
  5
C8
330
1F
100
AcDbEntity
  8
躯体
  6
Continuous
 62
     2
370
     9
100
AcDbCircle
 10
-31.98650875607052
 20
234.3087790115167
 30
0.0
 40
86.999995404689
100
AcDbArc
 50
167.63525390625
 51
180.0
  0
ARC
  5
C9
330
1F
100
AcDbEntity
  8
躯体
  6
Continuous
 62
     2
370
     9
100
AcDbCircle
 10
-31.98650875607052
 20
234.3087790115167
 30
0.0
 40
86.00000279842656
100
AcDbArc
 50
168.6667633056641
 51
180.0
  0
ARC
  5
CA
330
1F
100
AcDbEntity
  8
躯体
  6
Continuous
 62
     2
370
     9
100
AcDbCircle
 10
-31.98650875607052
 20
234.3087790115167
 30
0.0
 40
82.99999873334374
100
AcDbArc
 50
168.7995147705078
 51
180.0
  0
ARC
  5
CB
330
1F
100
AcDbEntity
  8
躯体
  6
Continuous
 62
     2
370
     9
100
AcDbCircle
 10
-31.98650875607052
 20
234.3087790115167
 30
0.0
 40
82.99999873334374
100
AcDbArc
 50
0.0
 51
11.20048522949219
  0
ARC
  5
CC
330
1F
100
AcDbEntity
  8
躯体
  6
Continuous
 62
     2
370
     9
100
AcDbCircle
 10
-31.98650875607052
 20
234.3087790115167
 30
0.0
 40
86.00000279842656
100
AcDbArc
 50
0.0
 51
11.33323669433594
  0
ARC
  5
CD
330
1F
100
AcDbEntity
  8
躯体
  6
Continuous
 62
     2
370
     9
100
AcDbCircle
 10
-31.98650875607052
 20
234.3087790115167
 30
0.0
 40
86.999995404689
100
AcDbArc
 50
0.0
 51
12.36474609375
  0
ARC
  5
CE
330
1F
100
AcDbEntity
  8
躯体
  6
Continuous
 62
     2
370
     9
100
AcDbCircle
 10
-31.98650875607052
 20
234.3087790115167
 30
0.0
 40
129.7680364189001
100
AcDbArc
 50
0.0
 51
180.0
  0
ARC
  5
CF
330
1F
100
AcDbEntity
  8
躯体
  6
Continuous
 62
     2
370
     9
100
AcDbCircle
 10
-31.98650875607052
 20
234.3087790115167
 30
0.0
 40
137.0000456585387
100
AcDbArc
 50
0.0
 51
180.0
  0
ARC
  5
D0
330
1F
100
AcDbEntity
  8
躯体
  6
Continuous
 62
     2
370
     9
100
AcDbCircle
 10
-31.98650875607052
 20
234.3087790115167
 30
0.0
 40
137.5000113409919
100
AcDbArc
 50
0.0
 51
180.0
  0
LINE
  5
D1
330
1F
100
AcDbEntity
  8
躯体
  6
Continuous
 62
     4
370
     9
100
AcDbLine
 10
-7.581933334527427
 20
280.7303306017772
 30
0.0
 11
-1.891019077374601
 21
284.0159468541902
 31
0.0
  0
LINE
  5
D2
330
1F
100
AcDbEntity
  8
躯体
  6
Continuous
 62
     4
370
     9
100
AcDbLine
 10
-7.081993898369653
 20
279.8643428314315
 30
0.0
 11
-1.391062143686778
 21
283.1499590838445
 31
0.0
  0
LINE
  5
D3
330
1F
100
AcDbEntity
  8
躯体
  6
Continuous
 62
     4
370
     9
100
AcDbLine
 10
-85.98649443990928
 20
234.3087790115167
 30
0.0
 11
-89.58192196407832
 21
236.3846160179567
 31
0.0
  0
LINE
  5
D4
330
1F
100
AcDbEntity
  8
躯体
  6
Continuous
 62
     4
370
     9
100
AcDbLine
 10
-87.98640966231311
 20
234.3087790115167
 30
0.0
 11
-90.08191389282693
 21
235.5186107500809
 31
0.0
  0
LINE
  5
D5
330
1F
100
AcDbEntity
  8
躯体
  6
Continuous
 62
     4
370
     9
100
AcDbLine
 10
-79.48642439087382
 20
234.3087790115167
 30
0.0
 11
-79.48365978108416
 21
234.3135383397624
 31
0.0
  0
LINE
  5
D6
330
1F
100
AcDbEntity
  8
躯体
  6
Continuous
 62
     4
370
     9
100
AcDbLine
 10
-0.7308278323140449
 20
288.4353505784188
 30
0.0
 11
2.73685022302573
 21
282.4288946083321
 31
0.0
  0
LINE
  5
D7
330
1F
100
AcDbEntity
  8
躯体
  6
Continuous
 62
     4
370
     9
100
AcDbLine
 10
-8.233768831348804
 20
275.4400922913057
 30
0.0
 11
-2.306270466808309
 21
275.4400922913057
 31
0.0
  0
LINE
  5
D8
330
1F
100
AcDbEntity
  8
躯体
  6
Continuous
 62
     4
370
     9
100
AcDbLine
 10
-7.677014914258615
 20
288.4354030710097
 30
0.0
 11
-0.7308278323140449
 21
288.4353505784188
 31
0.0
  0
LINE
  5
D9
330
1F
100
AcDbEntity
  8
躯体
  6
Continuous
 62
     4
370
     9
100
AcDbLine
 10
-11.20339718380489
 20
280.5837362927987
 30
0.0
 11
-8.233768831348804
 21
275.4400922913057
 31
0.0
  0
LINE
  5
DA
330
1F
100
AcDbEntity
  8
躯体
  6
Continuous
 62
     4
370
     9
100
AcDbLine
 10
-79.48365978108416
 20
234.3135383397624
 30
0.0
 11
-82.44747895347574
 21
239.4470162761426
 31
0.0
  0
LINE
  5
DB
330
1F
100
AcDbEntity
  8
躯体
  6
Continuous
 62
     4
370
     9
100
AcDbLine
 10
-93.98073109512632
 20
235.1944690009969
 30
0.0
 11
-91.02140878802572
 21
240.3200380536748
 31
0.0
  0
CIRCLE
  5
DC
330
1F
100
AcDbEntity
  8
躯体
  6
Continuous
 62
     4
370
     9
100
AcDbCircle
 10
-4.486462744046429
 20
281.9401098477502
 30
0.0
 40
3.999999952132177
  0
CIRCLE
  5
DD
330
1F
100
AcDbEntity
  8
躯体
  6
Continuous
 62
     4
370
     9
100
AcDbCircle
 10
-4.486462744046429
 20
281.9401098477502
 30
0.0
 40
3.32349977253947
  0
ARC
  5
DE
330
1F
100
AcDbEntity
  8
躯体
  6
Continuous
 62
     4
370
     9
100
AcDbCircle
 10
-86.98644330234595
 20
234.3087790115167
 30
0.0
 40
3.999999952132177
100
AcDbArc
 50
0.0
 51
180.0
  0
ARC
  5
DF
330
1F
100
AcDbEntity
  8
躯体
  6
Continuous
 62
     4
370
     9
100
AcDbCircle
 10
-86.98644330234595
 20
234.3087790115167
 30
0.0
 40
3.32349977253947
100
AcDbArc
 50
0.0
 51
180.0
  0
ARC
  5
E0
330
1F
100
AcDbEntity
  8
躯体
  6
Continuous
 62
     4
370
     9
100
AcDbCircle
 10
-4.481720913331056
 20
281.9373802330211
 30
0.0
 40
6.500000605712065
100
AcDbArc
 50
355.2801208496094
 51
60.04804992675781
  0
ARC
  5
E1
330
1F
100
AcDbEntity
  8
躯体
  6
Continuous
 62
     4
370
     9
100
AcDbCircle
 10
-4.481720913331056
 20
281.9373802330211
 30
0.0
 40
6.500000605712065
100
AcDbArc
 50
60.04820251464842
 51
124.9076080322265
  0
ARC
  5
E2
330
1F
100
AcDbEntity
  8
躯体
  6
Continuous
 62
     4
370
     9
100
AcDbCircle
 10
-4.481720913331056
 20
281.9373802330211
 30
0.0
 40
6.500000605712065
100
AcDbArc
 50
186.7201080322266
 51
293.09130859375
  0
ARC
  5
E3
330
1F
100
AcDbEntity
  8
躯体
  6
Continuous
 62
     4
370
     9
100
AcDbCircle
 10
-86.98647829740672
 20
234.3143607236871
 30
0.0
 40
6.500000605712065
100
AcDbArc
 50
359.9509277343751
 51
53.09129333496094
  0
ARC
  5
E4
330
1F
100
AcDbEntity
  8
躯体
  6
Continuous
 62
     4
370
     9
100
AcDbCircle
 10
-86.98647829740672
 20
234.3143607236871
 30
0.0
 40
6.500000605712065
100
AcDbArc
 50
115.2806701660156
 51
180.0491943359375
  0
LINE
  5
E5
330
1F
100
AcDbEntity
  8
躯体
  6
JWW_CENTER1
 62
     4
370
     9
100
AcDbLine
 10
-86.98647829740672
 20
234.3087790115167
 30
0.0
 11
-86.98646079987645
 21
239.9091785443504
 31
0.0
  0
LINE
  5
E6
330
1F
100
AcDbEntity
  8
躯体
  6
JWW_CENTER1
 62
     4
370
     9
100
AcDbLine
 10
-0.2087890153685485
 20
289.3492465867668
 30
0.0
 11
-8.589668597954066
 21
274.833251693689
 31
0.0
  0
LINE
  5
E7
330
1F
100
AcDbEntity
  8
躯体
  6
JWW_CENTER1
 62
     4
370
     9
100
AcDbLine
 10
-9.3365506794463
 20
284.7403621067579
 30
0.0
 11
0.3635377037018159
 21
279.1399275788638
 31
0.0
  0
LINE
  5
E8
330
1F
100
AcDbEntity
  8
仕上
  6
Continuous
 62
     6
370
     9
100
AcDbLine
 10
-70.88182138568175
 20
288.2106560428799
 30
0.0
 11
-57.28632781864586
 21
269.3699190645773
 31
0.0
  0
LINE
  5
E9
330
1F
100
AcDbEntity
  8
仕上
  6
Continuous
 62
     6
370
     9
100
AcDbLine
 10
-59.21910501723128
 20
294.9440819049603
 30
0.0
 11
-49.70020356049406
 21
273.7496733851124
 31
0.0
  0
LINE
  5
EA
330
1F
100
AcDbEntity
  8
仕上
  6
Continuous
 62
     6
370
     9
100
AcDbLine
 10
-79.00837436514016
 20
281.2897091484147
 30
0.0
 11
-62.57231422925076
 21
264.8679794898533
 31
0.0
  0
LINE
  5
EB
330
1F
100
AcDbEntity
  8
仕上
  6
Continuous
 62
     6
370
     9
100
AcDbLine
 10
-86.41882341893017
 20
272.4583381503414
 30
0.0
 11
-67.39249888534242
 21
259.1234527998158
 31
0.0
  0
LINE
  5
EC
330
1F
100
AcDbEntity
  8
仕上
  6
Continuous
 62
     6
370
     9
100
AcDbLine
 10
-37.53788020896182
 20
300.5466686290832
 30
0.0
 11
-35.5974565896289
 21
277.3938752750341
 31
0.0
  0
LINE
  5
ED
330
1F
100
AcDbEntity
  8
仕上
  6
Continuous
 62
     6
370
     9
100
AcDbLine
 10
-48.89939409057148
 20
298.5911096460279
 30
0.0
 11
-42.98769599590525
 21
276.1218310674354
 31
0.0
  0
LINE
  5
EE
330
1F
100
AcDbEntity
  8
仕上
  6
Continuous
 62
     6
370
     9
100
AcDbLine
 10
-96.70996087858578
 20
249.4459799745997
 30
0.0
 11
-74.08642407273703
 21
244.1549717727944
 31
0.0
  0
LINE
  5
EF
330
1F
100
AcDbEntity
  8
仕上
  6
Continuous
 62
     6
370
     9
100
AcDbLine
 10
-92.33050401606613
 20
262.1809362519831
 30
0.0
 11
-71.2378611325297
 21
252.4385825843593
 31
0.0
  0
LINE
  5
F0
330
1F
100
AcDbEntity
  8
仕上
  6
Continuous
 62
     6
370
     9
100
AcDbLine
 10
-75.00007511566048
 20
238.6888307900672
 30
0.0
 11
-91.65824890136706
 21
240.3850238812645
 31
0.0
  0
LINE
  5
F1
330
1F
100
AcDbEntity
  8
仕上
  6
Continuous
 62
     6
370
     9
100
AcDbLine
 10
-74.84812656240581
 20
240.1811076629745
 30
0.0
 11
-91.5063003481124
 21
241.8773182517021
 31
0.0
  0
LINE
  5
F2
330
1F
100
AcDbEntity
  8
仕上
  6
Continuous
 62
     6
370
     9
100
AcDbLine
 10
-91.70153779136636
 20
263.5426290561502
 30
0.0
 11
-70.60889490782994
 21
253.8002841372916
 31
0.0
  0
LINE
  5
F3
330
1F
100
AcDbEntity
  8
仕上
  6
Continuous
 62
     6
370
     9
100
AcDbLine
 10
-97.0515476653935
 20
247.9853911290927
 30
0.0
 11
-74.42804585460533
 21
242.6943829272874
 31
0.0
  0
LINE
  5
F4
330
1F
100
AcDbEntity
  8
仕上
  6
Continuous
 62
     6
370
     9
100
AcDbLine
 10
-77.94812901323837
 20
282.3507856330065
 30
0.0
 11
-61.51213886747028
 21
265.9291872059225
 31
0.0
  0
LINE
  5
F5
330
1F
100
AcDbEntity
  8
仕上
  6
Continuous
 62
     6
370
     9
100
AcDbLine
 10
-87.27970191042402
 20
271.2299590296436
 30
0.0
 11
-68.25341237189684
 21
257.8952136593604
 31
0.0
  0
LINE
  5
F6
330
1F
100
AcDbEntity
  8
仕上
  6
Continuous
 62
     6
370
     9
100
AcDbLine
 10
-57.85079814660491
 20
295.5587264010973
 30
0.0
 11
-48.33187919233761
 21
274.3641691522417
 31
0.0
  0
LINE
  5
F7
330
1F
100
AcDbEntity
  8
仕上
  6
Continuous
 62
     6
370
     9
100
AcDbLine
 10
-72.09824969317457
 20
287.3329361784581
 30
0.0
 11
-58.50270363354763
 21
268.4921204612691
 31
0.0
  0
LINE
  5
F8
330
1F
100
AcDbEntity
  8
仕上
  6
Continuous
 62
     6
370
     9
100
AcDbLine
 10
-50.35002684132939
 20
298.2094010222081
 30
0.0
 11
-44.43834624419343
 21
275.7402799213883
 31
0.0
  0
LINE
  5
F9
330
1F
100
AcDbEntity
  8
仕上
  6
Continuous
 62
     6
370
     9
100
AcDbLine
 10
-36.04308369168904
 20
300.6718284634259
 30
0.0
 11
-34.10266007235611
 21
277.5191750896192
 31
0.0
  0
LINE
  5
FA
330
1F
100
AcDbEntity
  8
仕上
  6
Continuous
 62
     6
370
     9
100
AcDbLine
 10
6.908873863662057
 20
288.2106560428799
 30
0.0
 11
-6.686637200904102
 21
269.3699190645773
 31
0.0
  0
LINE
  5
FB
330
1F
100
AcDbEntity
  8
仕上
  6
Continuous
 62
     6
370
     9
100
AcDbLine
 10
-4.753860002318895
 20
294.9440819049603
 30
0.0
 11
-14.27284894670754
 21
273.7496733851124
 31
0.0
  0
LINE
  5
FC
330
1F
100
AcDbEntity
  8
仕上
  6
Continuous
 62
     6
370
     9
100
AcDbLine
 10
15.03542684312026
 20
281.2897091484147
 30
0.0
 11
-1.400738277950838
 21
264.8679794898533
 31
0.0
  0
LINE
  5
FD
330
1F
100
AcDbEntity
  8
仕上
  6
Continuous
 62
     6
370
     9
100
AcDbLine
 10
22.44584090184969
 20
272.4583381503413
 30
0.0
 11
3.419446378140835
 21
259.1234527998158
 31
0.0
  0
LINE
  5
FE
330
1F
100
AcDbEntity
  8
仕上
  6
Continuous
 62
     6
370
     9
100
AcDbLine
 10
-26.4351548007097
 20
300.5466686290832
 30
0.0
 11
-28.37559591757292
 21
277.3938752750341
 31
0.0
  0
LINE
  5
FF
330
1F
100
AcDbEntity
  8
仕上
  6
Continuous
 62
     6
370
     9
100
AcDbLine
 10
-15.07358842650898
 20
298.5911096460279
 30
0.0
 11
-20.98535651129657
 21
276.1218310674354
 31
0.0
  0
LINE
  5
100
330
1F
100
AcDbEntity
  8
仕上
  6
Continuous
 62
     6
370
     9
100
AcDbLine
 10
32.73690837138417
 20
249.4459799745996
 30
0.0
 11
10.11337156553521
 21
244.1549717727943
 31
0.0
  0
LINE
  5
101
330
1F
100
AcDbEntity
  8
仕上
  6
Continuous
 62
     6
370
     9
100
AcDbLine
 10
28.35752149898565
 20
262.1809362519831
 30
0.0
 11
7.264808625328099
 21
252.4385825843593
 31
0.0
  0
LINE
  5
102
330
1F
100
AcDbEntity
  8
仕上
  6
Continuous
 62
     6
370
     9
100
AcDbLine
 10
11.02702260845865
 20
238.6888307900672
 30
0.0
 11
27.68526638428682
 21
240.3850238812644
 31
0.0
  0
LINE
  5
103
330
1F
100
AcDbEntity
  8
仕上
  6
Continuous
 62
     6
370
     9
100
AcDbLine
 10
10.87514404532532
 20
240.1811076629745
 30
0.0
 11
27.5332478409108
 21
241.8773182517021
 31
0.0
  0
LINE
  5
104
330
1F
100
AcDbEntity
  8
仕上
  6
Continuous
 62
     6
370
     9
100
AcDbLine
 10
27.72848528416454
 20
263.5426290561502
 30
0.0
 11
6.635912390749468
 21
253.8002841372916
 31
0.0
  0
LINE
  5
105
330
1F
100
AcDbEntity
  8
仕上
  6
Continuous
 62
     6
370
     9
100
AcDbLine
 10
33.07846016313113
 20
247.9853911290926
 30
0.0
 11
10.4549933474035
 21
242.6943829272873
 31
0.0
  0
LINE
  5
106
330
1F
100
AcDbEntity
  8
仕上
  6
Continuous
 62
     6
370
     9
100
AcDbLine
 10
23.30661440816164
 20
271.2299590296435
 30
0.0
 11
4.280394859755802
 21
257.8952136593604
 31
0.0
  0
LINE
  5
107
330
1F
100
AcDbEntity
  8
仕上
  6
Continuous
 62
     6
370
     9
100
AcDbLine
 10
-6.122184370475335
 20
295.5587264010973
 30
0.0
 11
-15.6411733148642
 21
274.3641691522417
 31
0.0
  0
LINE
  5
108
330
1F
100
AcDbEntity
  8
仕上
  6
Continuous
 62
     6
370
     9
100
AcDbLine
 10
8.125162190912196
 20
287.3329361784581
 30
0.0
 11
-5.470278883532616
 21
268.492120461269
 31
0.0
  0
LINE
  5
109
330
1F
100
AcDbEntity
  8
仕上
  6
Continuous
 62
     6
370
     9
100
AcDbLine
 10
-13.62295567575108
 20
298.2094010222081
 30
0.0
 11
-19.53472376053866
 21
275.7402799213883
 31
0.0
  0
LINE
  5
10A
330
1F
100
AcDbEntity
  8
仕上
  6
Continuous
 62
     6
370
     9
100
AcDbLine
 10
-27.92989882539142
 20
300.6718284634259
 30
0.0
 11
-29.87032244472436
 21
277.5191750896192
 31
0.0
  0
LINE
  5
10B
330
1F
100
AcDbEntity
  8
仕上
  6
Continuous
 62
     6
370
     9
100
AcDbLine
 10
-60.57532109440978
 20
250.7916625385288
 30
0.0
 11
-51.59096918879334
 21
245.6117461566929
 31
0.0
  0
LINE
  5
10C
330
1F
100
AcDbEntity
  8
仕上
  6
Continuous
 62
     6
370
     9
100
AcDbLine
 10
-64.4816447372142
 20
240.0589224087853
 30
0.0
 11
-54.26977108988523
 21
238.2519699506947
 31
0.0
  0
LINE
  5
10D
330
1F
100
AcDbEntity
  8
仕上
  6
Continuous
 62
     6
370
     9
100
AcDbLine
 10
-31.96656157151153
 20
267.3088674712534
 30
0.0
 11
-31.97286068242499
 21
256.9383787116197
 31
0.0
  0
LINE
  5
10E
330
1F
100
AcDbEntity
  8
仕上
  6
Continuous
 62
     6
370
     9
100
AcDbLine
 10
-53.18324444745041
 20
259.6012228650645
 30
0.0
 11
-46.52195215409335
 21
251.6529259756894
 31
0.0
  0
LINE
  5
10F
330
1F
100
AcDbEntity
  8
仕上
  6
Continuous
 62
     6
370
     9
100
AcDbLine
 10
-43.29190805796031
 20
265.3120318141853
 30
0.0
 11
-39.73908702010806
 21
255.5689345015231
 31
0.0
  0
LINE
  5
110
330
1F
100
AcDbEntity
  8
仕上
  6
Continuous
 62
     6
370
     9
100
AcDbLine
 10
-20.71857166658503
 20
265.3255399075883
 30
0.0
 11
-24.2596518615959
 21
255.5782956802416
 31
0.0
  0
LINE
  5
111
330
1F
100
AcDbEntity
  8
仕上
  6
Continuous
 62
     6
370
     9
100
AcDbLine
 10
-10.75922237676093
 20
259.5755364905621
 30
0.0
 11
-17.43008581920014
 21
251.6352534700713
 31
0.0
  0
LINE
  5
112
330
1F
100
AcDbEntity
  8
仕上
  6
Continuous
 62
     6
370
     9
100
AcDbLine
 10
-3.12737707189615
 20
250.313612512795
 30
0.0
 11
-12.19659199953992
 21
245.2841049015461
 31
0.0
  0
LINE
  5
113
330
1F
100
AcDbEntity
  8
仕上
  6
Continuous
 62
     6
370
     9
100
AcDbLine
 10
0.6124225749011849
 20
239.4387924368947
 30
0.0
 11
-9.632171454116706
 21
237.8266224862694
 31
0.0
  0
LINE
  5
114
330
1F
100
AcDbEntity
  8
仕上
  6
Continuous
 62
     6
370
     9
100
AcDbLine
 10
47.42146572275043
 20
244.3090025321565
 30
0.0
 11
48.27737491563482
 21
245.3088989020022
 31
0.0
  0
LINE
  5
115
330
1F
100
AcDbEntity
  8
仕上
  6
Continuous
 62
     6
370
     9
100
AcDbLine
 10
37.10425694292564
 20
245.3088989020022
 30
0.0
 11
48.27737491563482
 21
245.3088989020022
 31
0.0
  0
LINE
  5
116
330
1F
100
AcDbEntity
  8
仕上
  6
Continuous
 62
     6
370
     9
100
AcDbLine
 10
33.34337277209886
 20
244.3090025321565
 30
0.0
 11
47.42146572275043
 21
244.3090025321565
 31
0.0
  0
LINE
  5
117
330
1F
100
AcDbEntity
  8
仕上
  6
Continuous
 62
     6
370
     9
100
AcDbLine
 10
37.10425694292564
 20
245.3088989020022
 30
0.0
 11
33.34337277209886
 21
244.3090025321565
 31
0.0
  0
LINE
  5
118
330
1F
100
AcDbEntity
  8
仕上
  6
Continuous
 62
     6
370
     9
100
AcDbLine
 10
47.98086176691834
 20
239.3088907718366
 30
0.0
 11
48.91470495982514
 21
238.3089769044606
 31
0.0
  0
LINE
  5
119
330
1F
100
AcDbEntity
  8
仕上
  6
Continuous
 62
     6
370
     9
100
AcDbLine
 10
-111.3944482398309
 20
244.3090025321565
 30
0.0
 11
-112.2503224376545
 21
245.3088989020022
 31
0.0
  0
LINE
  5
11A
330
1F
100
AcDbEntity
  8
仕上
  6
Continuous
 62
     6
370
     9
100
AcDbLine
 10
-101.077344445188
 20
245.3088989020022
 30
0.0
 11
-112.2503224376545
 21
245.3088989020022
 31
0.0
  0
LINE
  5
11B
330
1F
100
AcDbEntity
  8
仕上
  6
Continuous
 62
     6
370
     9
100
AcDbLine
 10
-97.31642527930069
 20
244.3090025321565
 30
0.0
 11
-111.3944482398309
 21
244.3090025321565
 31
0.0
  0
LINE
  5
11C
330
1F
100
AcDbEntity
  8
仕上
  6
Continuous
 62
     6
370
     9
100
AcDbLine
 10
-101.077344445188
 20
245.3088989020022
 30
0.0
 11
-97.31642527930069
 21
244.3090025321565
 31
0.0
  0
LINE
  5
11D
330
1F
100
AcDbEntity
  8
仕上
  6
Continuous
 62
     6
370
     9
100
AcDbLine
 10
-111.9538792790594
 20
239.3088907718367
 30
0.0
 11
-112.8876874769056
 21
238.3089769044606
 31
0.0
  0
LINE
  5
11E
330
1F
100
AcDbEntity
  8
0-A
  6
JWW_CENTER1
 62
     4
370
     9
100
AcDbLine
 10
44.01347174331488
 20
234.3089189917592
 30
0.0
 11
44.01347174331488
 21
240.8161455306936
 31
0.0
  0
LINE
  5
11F
330
1F
100
AcDbEntity
  8
0-A
  6
Continuous
 62
     4
370
     9
100
AcDbLine
 10
43.41337644363454
 20
239.0589210537579
 30
0.0
 11
44.61356704299521
 21
239.0589210537579
 31
0.0
  0
LINE
  5
120
330
1F
100
AcDbEntity
  8
0-A
  6
Continuous
 62
     4
370
     9
100
AcDbLine
 10
43.41337644363454
 20
235.9090331439976
 30
0.0
 11
43.41337644363454
 21
239.0589210537579
 31
0.0
  0
LINE
  5
121
330
1F
100
AcDbEntity
  8
0-A
  6
Continuous
 62
     4
370
     9
100
AcDbLine
 10
44.61356704299521
 20
235.9090331439976
 30
0.0
 11
44.61356704299521
 21
239.0589210537579
 31
0.0
  0
LINE
  5
122
330
1F
100
AcDbEntity
  8
0-A
  6
Continuous
 62
     4
370
     9
100
AcDbLine
 10
49.98341911639942
 20
234.90903178897
 30
0.0
 11
38.04359436035145
 21
234.90903178897
 31
0.0
  0
LINE
  5
123
330
1F
100
AcDbEntity
  8
0-A
  6
JWW_CENTER1
 62
     4
370
     9
100
AcDbLine
 10
-107.9865242505165
 20
234.3089189917592
 30
0.0
 11
-107.9865242505165
 21
240.8161455306937
 31
0.0
  0
LINE
  5
124
330
1F
100
AcDbEntity
  8
0-A
  6
Continuous
 62
     4
370
     9
100
AcDbLine
 10
-107.3864289508364
 20
239.0589210537579
 30
0.0
 11
-108.5866195501968
 21
239.0589210537579
 31
0.0
  0
LINE
  5
125
330
1F
100
AcDbEntity
  8
0-A
  6
Continuous
 62
     4
370
     9
100
AcDbLine
 10
-107.3864289508364
 20
235.9090331439976
 30
0.0
 11
-107.3864289508364
 21
239.0589210537579
 31
0.0
  0
LINE
  5
126
330
1F
100
AcDbEntity
  8
0-A
  6
Continuous
 62
     4
370
     9
100
AcDbLine
 10
-108.5866195501968
 20
235.9090331439976
 30
0.0
 11
-108.5866195501968
 21
239.0589210537579
 31
0.0
  0
LINE
  5
127
330
1F
100
AcDbEntity
  8
0-A
  6
Continuous
 62
     4
370
     9
100
AcDbLine
 10
-113.956471623601
 20
234.9090317889701
 30
0.0
 11
-102.0166468675533
 21
234.9090317889701
 31
0.0
  0
LINE
  5
128
330
1F
100
AcDbEntity
  8
仕上
  6
Continuous
 62
     6
370
     9
100
AcDbLine
 10
-111.3031986192387
 20
239.3088907718367
 30
0.0
 11
-111.9538792790594
 21
239.3088907718367
 31
0.0
  0
LINE
  5
129
330
1F
100
AcDbEntity
  8
仕上
  6
Continuous
 62
     6
370
     9
100
AcDbLine
 10
-112.4586130385234
 20
238.3089769044606
 30
0.0
 11
-112.8876874769056
 21
238.3089769044606
 31
0.0
  0
LINE
  5
12A
330
1F
100
AcDbEntity
  8
仕上
  6
Continuous
 62
     6
370
     9
100
AcDbLine
 10
48.48556053132155
 20
238.3089769044606
 30
0.0
 11
48.91470495982514
 21
238.3089769044606
 31
0.0
  0
LINE
  5
12B
330
1F
100
AcDbEntity
  8
仕上
  6
Continuous
 62
     6
370
     9
100
AcDbLine
 10
47.33012861450663
 20
239.3088907718366
 30
0.0
 11
47.98086176691834
 21
239.3088907718366
 31
0.0
  0
ARC
  5
12C
330
1F
100
AcDbEntity
  8
仕上
  6
Continuous
 62
     6
370
     9
100
AcDbCircle
 10
-31.9865262536008
 20
234.3089189917592
 30
0.0
 40
39.78220994868334
100
AcDbArc
 50
0.0
 51
180.0
  0
ARC
  5
12D
330
1F
100
AcDbEntity
  8
仕上
  6
Continuous
 62
     6
370
     9
100
AcDbCircle
 10
-69.26001029585323
 20
289.3809958555232
 30
0.0
 40
1.999999976066088
100
AcDbArc
 50
124.0909423828125
 51
215.8140563964844
  0
ARC
  5
12E
330
1F
100
AcDbEntity
  8
仕上
  6
Continuous
 62
     6
370
     9
100
AcDbCircle
 10
-80.4219648442214
 20
279.8748588471507
 30
0.0
 40
1.999999976066088
100
AcDbArc
 50
45.02505493164063
 51
136.7480926513672
  0
ARC
  5
12F
330
1F
100
AcDbEntity
  8
仕上
  6
Continuous
 62
     6
370
     9
100
AcDbCircle
 10
-61.04359000069746
 20
294.1247075553735
 30
0.0
 40
1.999999976066088
100
AcDbArc
 50
24.18591308593751
 51
115.9090270996094
  0
ARC
  5
130
330
1F
100
AcDbEntity
  8
仕上
  6
Continuous
 62
     6
370
     9
100
AcDbCircle
 10
-31.9865262536008
 20
234.3089189917592
 30
0.0
 40
68.50000095735643
100
AcDbArc
 50
115.9093475341797
 51
124.0906372070313
  0
ARC
  5
131
330
1F
100
AcDbEntity
  8
仕上
  6
Continuous
 62
     6
370
     9
100
AcDbCircle
 10
-55.66451672881738
 20
270.5401888870993
 30
0.0
 40
1.999999976066088
100
AcDbArc
 50
215.814468383789
 51
303.1659088134766
  0
ARC
  5
132
330
1F
100
AcDbEntity
  8
仕上
  6
Continuous
 62
     6
370
     9
100
AcDbCircle
 10
-51.52467104643016
 20
272.9302990355255
 30
0.0
 40
1.999999976066088
100
AcDbArc
 50
296.8345184326172
 51
24.18582153320313
  0
ARC
  5
133
330
1F
100
AcDbEntity
  8
仕上
  6
Continuous
 62
     6
370
     9
100
AcDbCircle
 10
-31.9865262536008
 20
234.3089189917592
 30
0.0
 40
41.28221635560731
100
AcDbArc
 50
116.8343963623047
 51
123.1656036376953
  0
ARC
  5
134
330
1F
100
AcDbEntity
  8
仕上
  6
Continuous
 62
     6
370
     9
100
AcDbCircle
 10
-31.9865262536008
 20
234.3089189917592
 30
0.0
 40
68.50000095735643
100
AcDbArc
 50
136.7484741210938
 51
143.2515258789063
  0
ARC
  5
135
330
1F
100
AcDbEntity
  8
仕上
  6
Continuous
 62
     6
370
     9
100
AcDbCircle
 10
-85.27095043521136
 20
274.0960457464612
 30
0.0
 40
1.999999976066088
100
AcDbArc
 50
143.2457885742187
 51
234.9748840332031
  0
ARC
  5
136
330
1F
100
AcDbEntity
  8
仕上
  6
Continuous
 62
     6
370
     9
100
AcDbCircle
 10
-63.98590470833197
 20
263.4531116910591
 30
0.0
 40
1.999999976066088
100
AcDbArc
 50
317.6735687255859
 51
45.02505493164063
  0
ARC
  5
137
330
1F
100
AcDbEntity
  8
仕上
  6
Continuous
 62
     6
370
     9
100
AcDbCircle
 10
-66.24462590162364
 20
260.7613091249432
 30
0.0
 40
1.999999976066088
100
AcDbArc
 50
234.9748840332031
 51
322.3265075683594
  0
ARC
  5
138
330
1F
100
AcDbEntity
  8
仕上
  6
Continuous
 62
     6
370
     9
100
AcDbCircle
 10
-31.9865262536008
 20
234.3089189917592
 30
0.0
 40
41.28221635560731
100
AcDbArc
 50
137.6735382080078
 51
142.3264923095703
  0
ARC
  5
139
330
1F
100
AcDbEntity
  8
仕上
  6
Continuous
 62
     6
370
     9
100
AcDbCircle
 10
-39.53086640936077
 20
300.3794972244546
 30
0.0
 40
1.999999976066088
100
AcDbArc
 50
4.790756225585937
 51
96.5137939453125
  0
ARC
  5
13A
330
1F
100
AcDbEntity
  8
仕上
  6
Continuous
 62
     6
370
     9
100
AcDbCircle
 10
-31.9865262536008
 20
234.3089189917592
 30
0.0
 40
68.50000095735643
100
AcDbArc
 50
96.51416015625007
 51
103.0172119140625
  0
ARC
  5
13B
330
1F
100
AcDbEntity
  8
仕上
  6
Continuous
 62
     6
370
     9
100
AcDbCircle
 10
-46.96519959203066
 20
299.1001128028888
 30
0.0
 40
1.999999976066088
100
AcDbArc
 50
103.0114898681641
 51
194.7405853271484
  0
ARC
  5
13C
330
1F
100
AcDbEntity
  8
仕上
  6
Continuous
 62
     6
370
     9
100
AcDbCircle
 10
-37.59044279002784
 20
277.226852599413
 30
0.0
 40
1.999999976066088
100
AcDbArc
 50
277.4392700195312
 51
4.790756225585937
  0
ARC
  5
13D
330
1F
100
AcDbEntity
  8
仕上
  6
Continuous
 62
     6
370
     9
100
AcDbCircle
 10
-41.05351899489471
 20
276.6307729829401
 30
0.0
 40
1.999999976066088
100
AcDbArc
 50
194.7405853271484
 51
282.0922088623047
  0
ARC
  5
13E
330
1F
100
AcDbEntity
  8
仕上
  6
Continuous
 62
     6
370
     9
100
AcDbCircle
 10
-31.9865262536008
 20
234.3089189917592
 30
0.0
 40
41.28221635560731
100
AcDbArc
 50
97.43923950195312
 51
102.0921936035156
  0
ARC
  5
13F
330
1F
100
AcDbEntity
  8
仕上
  6
Continuous
 62
     6
370
     9
100
AcDbCircle
 10
-96.25446516942804
 20
251.3934550986496
 30
0.0
 40
1.999999976066088
100
AcDbArc
 50
165.1135406494141
 51
256.8366546630859
  0
ARC
  5
140
330
1F
100
AcDbEntity
  8
仕上
  6
Continuous
 62
     6
370
     9
100
AcDbCircle
 10
-93.16916064405983
 20
260.3652175312045
 30
0.0
 40
1.999999976066088
100
AcDbArc
 50
65.20851135253908
 51
156.9316253662109
  0
ARC
  5
141
330
1F
100
AcDbEntity
  8
仕上
  6
Continuous
 62
     6
370
     9
100
AcDbCircle
 10
-31.9865262536008
 20
234.3089189917592
 30
0.0
 40
68.50000095735643
100
AcDbArc
 50
156.9319610595703
 51
165.1132507324219
  0
ARC
  5
142
330
1F
100
AcDbEntity
  8
仕上
  6
Continuous
 62
     6
370
     9
100
AcDbCircle
 10
-73.63099835370042
 20
246.1024293993139
 30
0.0
 40
1.999999976066088
100
AcDbArc
 50
256.8370666503906
 51
344.1885070800781
  0
ARC
  5
143
330
1F
100
AcDbEntity
  8
仕上
  6
Continuous
 62
     6
370
     9
100
AcDbCircle
 10
-72.0764477704023
 20
250.6228638635808
 30
0.0
 40
1.999999976066088
100
AcDbArc
 50
337.8571166992188
 51
65.20841979980469
  0
ARC
  5
144
330
1F
100
AcDbEntity
  8
仕上
  6
Continuous
 62
     6
370
     9
100
AcDbCircle
 10
-31.9865262536008
 20
234.3089189917592
 30
0.0
 40
41.28221635560731
100
AcDbArc
 50
157.8569946289063
 51
164.1882019042969
  0
ARC
  5
145
330
1F
100
AcDbEntity
  8
仕上
  6
Continuous
 62
     6
370
     9
100
AcDbCircle
 10
-75.20269651670708
 20
236.6990466377159
 30
0.0
 40
1.999999976066088
100
AcDbArc
 50
356.8344879150391
 51
84.18580627441406
  0
ARC
  5
146
330
1F
100
AcDbEntity
  8
仕上
  6
Continuous
 62
     6
370
     9
100
AcDbCircle
 10
-31.9865262536008
 20
234.3089189917592
 30
0.0
 40
41.28221635560731
100
AcDbArc
 50
176.8343811035157
 51
180.0000457763672
  0
ARC
  5
147
330
1F
100
AcDbEntity
  8
仕上
  6
Continuous
 62
     6
370
     9
100
AcDbCircle
 10
-91.8608703024139
 20
238.3953097190344
 30
0.0
 40
1.999999976066088
100
AcDbArc
 50
84.18586730957031
 51
176.4768524169922
  0
ARC
  5
148
330
1F
100
AcDbEntity
  8
仕上
  6
Continuous
 62
     6
370
     9
100
AcDbCircle
 10
-25.48647370209562
 20
234.3089189917592
 30
0.0
 40
68.50000095735643
100
AcDbArc
 50
176.4770355224609
 51
180.0000305175781
  0
ARC
  5
149
330
1F
100
AcDbEntity
  8
仕上
  6
Continuous
 62
     6
370
     9
100
AcDbCircle
 10
-91.8608703024139
 20
238.3953097190344
 30
0.0
 40
3.499999821416199
100
AcDbArc
 50
84.18586730957031
 51
176.4768524169922
  0
ARC
  5
14A
330
1F
100
AcDbEntity
  8
仕上
  6
Continuous
 62
     6
370
     9
100
AcDbCircle
 10
-26.98648448340225
 20
234.3089189917592
 30
0.0
 40
68.50000095735643
100
AcDbArc
 50
176.5178527832031
 51
180.0000305175782
  0
ARC
  5
14B
330
1F
100
AcDbEntity
  8
仕上
  6
Continuous
 62
     6
370
     9
100
AcDbCircle
 10
-75.20269651670708
 20
236.6990466377159
 30
0.0
 40
3.499999821416199
100
AcDbArc
 50
356.8344879150391
 51
84.18580627441406
  0
ARC
  5
14C
330
1F
100
AcDbEntity
  8
仕上
  6
Continuous
 62
     6
370
     9
100
AcDbCircle
 10
-93.16916064405983
 20
260.3652175312045
 30
0.0
 40
3.499999821416199
100
AcDbArc
 50
65.20851135253908
 51
156.9316253662109
  0
ARC
  5
14D
330
1F
100
AcDbEntity
  8
仕上
  6
Continuous
 62
     6
370
     9
100
AcDbCircle
 10
-72.0764477704023
 20
250.6228638635808
 30
0.0
 40
3.499999821416199
100
AcDbArc
 50
337.8571166992188
 51
65.20841979980469
  0
ARC
  5
14E
330
1F
100
AcDbEntity
  8
仕上
  6
Continuous
 62
     6
370
     9
100
AcDbCircle
 10
-73.63099835370042
 20
246.1024293993139
 30
0.0
 40
3.499999821416199
100
AcDbArc
 50
256.8370666503906
 51
344.1885070800781
  0
ARC
  5
14F
330
1F
100
AcDbEntity
  8
仕上
  6
Continuous
 62
     6
370
     9
100
AcDbCircle
 10
-96.25446516942804
 20
251.3934550986496
 30
0.0
 40
3.499999821416199
100
AcDbArc
 50
165.1135406494141
 51
256.8366546630859
  0
ARC
  5
150
330
1F
100
AcDbEntity
  8
仕上
  6
Continuous
 62
     6
370
     9
100
AcDbCircle
 10
-80.4219648442214
 20
279.8748588471507
 30
0.0
 40
3.499999821416199
100
AcDbArc
 50
45.02505493164063
 51
136.7480926513672
  0
ARC
  5
151
330
1F
100
AcDbEntity
  8
仕上
  6
Continuous
 62
     6
370
     9
100
AcDbCircle
 10
-63.98590470833197
 20
263.4531116910591
 30
0.0
 40
3.499999821416199
100
AcDbArc
 50
317.6735687255859
 51
45.02505493164063
  0
ARC
  5
152
330
1F
100
AcDbEntity
  8
仕上
  6
Continuous
 62
     6
370
     9
100
AcDbCircle
 10
-66.24462590162364
 20
260.7613091249432
 30
0.0
 40
3.499999821416199
100
AcDbArc
 50
234.9748840332031
 51
322.3265075683594
  0
ARC
  5
153
330
1F
100
AcDbEntity
  8
仕上
  6
Continuous
 62
     6
370
     9
100
AcDbCircle
 10
-85.27095043521136
 20
274.0960457464612
 30
0.0
 40
3.499999821416199
100
AcDbArc
 50
143.2457885742187
 51
234.9748840332031
  0
ARC
  5
154
330
1F
100
AcDbEntity
  8
仕上
  6
Continuous
 62
     6
370
     9
100
AcDbCircle
 10
-51.52467104643016
 20
272.9302990355255
 30
0.0
 40
3.499999821416199
100
AcDbArc
 50
296.8345184326172
 51
24.18582153320313
  0
ARC
  5
155
330
1F
100
AcDbEntity
  8
仕上
  6
Continuous
 62
     6
370
     9
100
AcDbCircle
 10
-55.66451672881738
 20
270.5401888870993
 30
0.0
 40
3.499999821416199
100
AcDbArc
 50
215.814468383789
 51
303.1659088134766
  0
ARC
  5
156
330
1F
100
AcDbEntity
  8
仕上
  6
Continuous
 62
     6
370
     9
100
AcDbCircle
 10
-69.26001029585323
 20
289.3809958555232
 30
0.0
 40
3.499999821416199
100
AcDbArc
 50
124.0909423828125
 51
215.8140563964844
  0
ARC
  5
157
330
1F
100
AcDbEntity
  8
仕上
  6
Continuous
 62
     6
370
     9
100
AcDbCircle
 10
-61.04359000069746
 20
294.1247075553735
 30
0.0
 40
3.499999821416199
100
AcDbArc
 50
24.18591308593751
 51
115.9090270996094
  0
ARC
  5
158
330
1F
100
AcDbEntity
  8
仕上
  6
Continuous
 62
     6
370
     9
100
AcDbCircle
 10
-41.05351899489471
 20
276.6307729829401
 30
0.0
 40
3.499999821416199
100
AcDbArc
 50
194.7405853271484
 51
282.0922088623047
  0
ARC
  5
159
330
1F
100
AcDbEntity
  8
仕上
  6
Continuous
 62
     6
370
     9
100
AcDbCircle
 10
-46.96519959203066
 20
299.1001128028888
 30
0.0
 40
3.499999821416199
100
AcDbArc
 50
103.0114898681641
 51
194.7405853271484
  0
ARC
  5
15A
330
1F
100
AcDbEntity
  8
仕上
  6
Continuous
 62
     6
370
     9
100
AcDbCircle
 10
-39.53086640936077
 20
300.3794972244546
 30
0.0
 40
3.499999821416199
100
AcDbArc
 50
4.790756225585937
 51
96.5137939453125
  0
ARC
  5
15B
330
1F
100
AcDbEntity
  8
仕上
  6
Continuous
 62
     6
370
     9
100
AcDbCircle
 10
-37.59044279002784
 20
277.226852599413
 30
0.0
 40
3.499999821416199
100
AcDbArc
 50
277.4392700195312
 51
4.790756225585937
  0
ARC
  5
15C
330
1F
100
AcDbEntity
  8
仕上
  6
Continuous
 62
     6
370
     9
100
AcDbCircle
 10
5.286957788651426
 20
289.3809958555232
 30
0.0
 40
1.999999976066088
100
AcDbArc
 50
324.1859283447266
 51
55.90905761718749
  0
ARC
  5
15D
330
1F
100
AcDbEntity
  8
仕上
  6
Continuous
 62
     6
370
     9
100
AcDbCircle
 10
16.44894733208014
 20
279.8748588471507
 30
0.0
 40
1.999999976066088
100
AcDbArc
 50
43.25190734863283
 51
134.9749450683593
  0
ARC
  5
15E
330
1F
100
AcDbEntity
  8
仕上
  6
Continuous
 62
     6
370
     9
100
AcDbCircle
 10
-2.929462506504134
 20
294.1247075553735
 30
0.0
 40
1.999999976066088
100
AcDbArc
 50
64.09097290039064
 51
155.8140869140625
  0
ARC
  5
15F
330
1F
100
AcDbEntity
  8
仕上
  6
Continuous
 62
     6
370
     9
100
AcDbCircle
 10
-31.9865262536008
 20
234.3089189917592
 30
0.0
 40
68.50000095735643
100
AcDbArc
 50
55.90934753417968
 51
64.09063720703124
  0
ARC
  5
160
330
1F
100
AcDbEntity
  8
仕上
  6
Continuous
 62
     6
370
     9
100
AcDbCircle
 10
-8.308465788263103
 20
270.5401888870993
 30
0.0
 40
1.999999976066088
100
AcDbArc
 50
236.8340911865234
 51
324.1855316162109
  0
ARC
  5
161
330
1F
100
AcDbEntity
  8
仕上
  6
Continuous
 62
     6
370
     9
100
AcDbCircle
 10
-12.44831147065031
 20
272.9302990355254
 30
0.0
 40
1.999999976066088
100
AcDbArc
 50
155.8141784667969
 51
243.1654815673828
  0
ARC
  5
162
330
1F
100
AcDbEntity
  8
仕上
  6
Continuous
 62
     6
370
     9
100
AcDbCircle
 10
-31.9865262536008
 20
234.3089189917592
 30
0.0
 40
41.28221635560731
100
AcDbArc
 50
56.83439636230469
 51
63.16560363769532
  0
ARC
  5
163
330
1F
100
AcDbEntity
  8
仕上
  6
Continuous
 62
     6
370
     9
100
AcDbCircle
 10
-31.9865262536008
 20
234.3089189917592
 30
0.0
 40
68.50000095735643
100
AcDbArc
 50
36.74847412109374
 51
43.25152587890624
  0
ARC
  5
164
330
1F
100
AcDbEntity
  8
仕上
  6
Continuous
 62
     6
370
     9
100
AcDbCircle
 10
21.29789792800954
 20
274.0960457464611
 30
0.0
 40
1.999999976066088
100
AcDbArc
 50
305.0251159667969
 51
36.75421142578125
  0
ARC
  5
165
330
1F
100
AcDbEntity
  8
仕上
  6
Continuous
 62
     6
370
     9
100
AcDbCircle
 10
0.0129396887820121
 20
263.4531116910591
 30
0.0
 40
1.999999976066088
100
AcDbArc
 50
134.9749450683593
 51
222.3264312744141
  0
ARC
  5
166
330
1F
100
AcDbEntity
  8
仕上
  6
Continuous
 62
     6
370
     9
100
AcDbCircle
 10
2.271678379603712
 20
260.7613091249432
 30
0.0
 40
1.999999976066088
100
AcDbArc
 50
217.6734924316406
 51
305.0251159667969
  0
ARC
  5
167
330
1F
100
AcDbEntity
  8
仕上
  6
Continuous
 62
     6
370
     9
100
AcDbCircle
 10
-31.9865262536008
 20
234.3089189917592
 30
0.0
 40
41.28221635560731
100
AcDbArc
 50
37.67350769042969
 51
42.32646179199219
  0
ARC
  5
168
330
1F
100
AcDbEntity
  8
仕上
  6
Continuous
 62
     6
370
     9
100
AcDbCircle
 10
-24.44211610771969
 20
300.3794972244546
 30
0.0
 40
1.999999976066088
100
AcDbArc
 50
83.48614501953125
 51
175.2091827392578
  0
ARC
  5
169
330
1F
100
AcDbEntity
  8
仕上
  6
Continuous
 62
     6
370
     9
100
AcDbCircle
 10
-31.9865262536008
 20
234.3089189917592
 30
0.0
 40
68.50000095735643
100
AcDbArc
 50
76.98275756835939
 51
83.48580932617188
  0
ARC
  5
16A
330
1F
100
AcDbEntity
  8
仕上
  6
Continuous
 62
     6
370
     9
100
AcDbCircle
 10
-17.0077829250498
 20
299.1001128028888
 30
0.0
 40
1.999999976066088
100
AcDbArc
 50
345.2593536376953
 51
76.98844909667969
  0
ARC
  5
16B
330
1F
100
AcDbEntity
  8
仕上
  6
Continuous
 62
     6
370
     9
100
AcDbCircle
 10
-26.38252222952235
 20
277.226852599413
 30
0.0
 40
1.999999976066088
100
AcDbArc
 50
175.2091827392578
 51
262.5606689453125
  0
ARC
  5
16C
330
1F
100
AcDbEntity
  8
仕上
  6
Continuous
 62
     6
370
     9
100
AcDbCircle
 10
-22.91955100983738
 20
276.6307729829401
 30
0.0
 40
1.999999976066088
100
AcDbArc
 50
257.9077301025391
 51
345.2593536376953
  0
ARC
  5
16D
330
1F
100
AcDbEntity
  8
仕上
  6
Continuous
 62
     6
370
     9
100
AcDbCircle
 10
-31.9865262536008
 20
234.3089189917592
 30
0.0
 40
41.28221635560731
100
AcDbArc
 50
77.90780639648438
 51
82.56076049804686
  0
ARC
  5
16E
330
1F
100
AcDbEntity
  8
仕上
  6
Continuous
 62
     6
370
     9
100
AcDbCircle
 10
32.28141266222622
 20
251.3934550986496
 30
0.0
 40
1.999999976066088
100
AcDbArc
 50
283.1634674072266
 51
14.88658142089844
  0
ARC
  5
16F
330
1F
100
AcDbEntity
  8
仕上
  6
Continuous
 62
     6
370
     9
100
AcDbCircle
 10
29.19617812697959
 20
260.3652175312044
 30
0.0
 40
1.999999976066088
100
AcDbArc
 50
23.06835937500001
 51
114.7914733886719
  0
ARC
  5
170
330
1F
100
AcDbEntity
  8
仕上
  6
Continuous
 62
     6
370
     9
100
AcDbCircle
 10
-31.9865262536008
 20
234.3089189917592
 30
0.0
 40
68.50000095735643
100
AcDbArc
 50
14.88674926757812
 51
23.06803894042967
  0
ARC
  5
171
330
1F
100
AcDbEntity
  8
仕上
  6
Continuous
 62
     6
370
     9
100
AcDbCircle
 10
9.65801583661994
 20
246.1024293993138
 30
0.0
 40
1.999999976066088
100
AcDbArc
 50
195.8116149902344
 51
283.1630554199219
  0
ARC
  5
172
330
1F
100
AcDbEntity
  8
仕上
  6
Continuous
 62
     6
370
     9
100
AcDbCircle
 10
8.103465253321817
 20
250.6228638635808
 30
0.0
 40
1.999999976066088
100
AcDbArc
 50
114.7917022705078
 51
202.1430053710938
  0
ARC
  5
173
330
1F
100
AcDbEntity
  8
仕上
  6
Continuous
 62
     6
370
     9
100
AcDbCircle
 10
-31.9865262536008
 20
234.3089189917592
 30
0.0
 40
41.28221635560731
100
AcDbArc
 50
15.81181335449218
 51
22.14302062988281
  0
ARC
  5
174
330
1F
100
AcDbEntity
  8
仕上
  6
Continuous
 62
     6
370
     9
100
AcDbCircle
 10
11.22967900456603
 20
236.6990466377158
 30
0.0
 40
1.999999976066088
100
AcDbArc
 50
95.814208984375
 51
183.1655120849609
  0
ARC
  5
175
330
1F
100
AcDbEntity
  8
仕上
  6
Continuous
 62
     6
370
     9
100
AcDbCircle
 10
-31.9865262536008
 20
234.3089189917592
 30
0.0
 40
41.28221635560731
100
AcDbArc
 50
359.9999389648437
 51
3.165603637695314
  0
ARC
  5
176
330
1F
100
AcDbEntity
  8
仕上
  6
Continuous
 62
     6
370
     9
100
AcDbCircle
 10
27.88778280015151
 20
238.3953097190344
 30
0.0
 40
1.999999976066088
100
AcDbArc
 50
3.523147583007809
 51
95.81413269042969
  0
ARC
  5
177
330
1F
100
AcDbEntity
  8
仕上
  6
Continuous
 62
     6
370
     9
100
AcDbCircle
 10
-38.48649131745435
 20
234.3089189917592
 30
0.0
 40
68.50000095735643
100
AcDbArc
 50
359.9999694824219
 51
3.522964477539058
  0
ARC
  5
178
330
1F
100
AcDbEntity
  8
仕上
  6
Continuous
 62
     6
370
     9
100
AcDbCircle
 10
27.88778280015151
 20
238.3953097190344
 30
0.0
 40
3.499999821416199
100
AcDbArc
 50
3.523147583007809
 51
95.81413269042969
  0
ARC
  5
179
330
1F
100
AcDbEntity
  8
仕上
  6
Continuous
 62
     6
370
     9
100
AcDbCircle
 10
-36.98649803367823
 20
234.3089189917592
 30
0.0
 40
68.50000095735643
100
AcDbArc
 50
359.9999694824219
 51
3.482147216796869
  0
ARC
  5
17A
330
1F
100
AcDbEntity
  8
仕上
  6
Continuous
 62
     6
370
     9
100
AcDbCircle
 10
11.22967900456603
 20
236.6990466377158
 30
0.0
 40
3.499999821416199
100
AcDbArc
 50
95.81408691406249
 51
183.1653900146485
  0
ARC
  5
17B
330
1F
100
AcDbEntity
  8
仕上
  6
Continuous
 62
     6
370
     9
100
AcDbCircle
 10
29.19617812697959
 20
260.3652175312044
 30
0.0
 40
3.499999821416199
100
AcDbArc
 50
23.06849670410155
 51
114.7916107177734
  0
ARC
  5
17C
330
1F
100
AcDbEntity
  8
仕上
  6
Continuous
 62
     6
370
     9
100
AcDbCircle
 10
8.103465253321817
 20
250.6228638635808
 30
0.0
 40
3.499999821416199
100
AcDbArc
 50
114.7914886474609
 51
202.1427917480469
  0
ARC
  5
17D
330
1F
100
AcDbEntity
  8
仕上
  6
Continuous
 62
     6
370
     9
100
AcDbCircle
 10
9.65801583661994
 20
246.1024293993138
 30
0.0
 40
3.499999821416199
100
AcDbArc
 50
195.8114013671875
 51
283.162841796875
  0
ARC
  5
17E
330
1F
100
AcDbEntity
  8
仕上
  6
Continuous
 62
     6
370
     9
100
AcDbCircle
 10
32.28141266222622
 20
251.3934550986496
 30
0.0
 40
3.499999821416199
100
AcDbArc
 50
283.1632537841797
 51
14.88636779785157
  0
ARC
  5
17F
330
1F
100
AcDbEntity
  8
仕上
  6
Continuous
 62
     6
370
     9
100
AcDbCircle
 10
16.44894733208014
 20
279.8748588471507
 30
0.0
 40
3.499999821416199
100
AcDbArc
 50
43.25190734863283
 51
134.9749450683593
  0
ARC
  5
180
330
1F
100
AcDbEntity
  8
仕上
  6
Continuous
 62
     6
370
     9
100
AcDbCircle
 10
0.0129396887820121
 20
263.4531116910591
 30
0.0
 40
3.499999821416199
100
AcDbArc
 50
134.9749450683593
 51
222.3264312744141
  0
ARC
  5
181
330
1F
100
AcDbEntity
  8
仕上
  6
Continuous
 62
     6
370
     9
100
AcDbCircle
 10
2.271678379603712
 20
260.7613091249432
 30
0.0
 40
3.499999821416199
100
AcDbArc
 50
217.6734924316406
 51
305.0251159667969
  0
ARC
  5
182
330
1F
100
AcDbEntity
  8
仕上
  6
Continuous
 62
     6
370
     9
100
AcDbCircle
 10
21.29789792800954
 20
274.0960457464611
 30
0.0
 40
3.499999821416199
100
AcDbArc
 50
305.0251159667969
 51
36.75421142578125
  0
ARC
  5
183
330
1F
100
AcDbEntity
  8
仕上
  6
Continuous
 62
     6
370
     9
100
AcDbCircle
 10
-12.44831147065031
 20
272.9302990355254
 30
0.0
 40
3.499999821416199
100
AcDbArc
 50
155.8141784667969
 51
243.1654815673828
  0
ARC
  5
184
330
1F
100
AcDbEntity
  8
仕上
  6
Continuous
 62
     6
370
     9
100
AcDbCircle
 10
-8.308465788263103
 20
270.5401888870993
 30
0.0
 40
3.499999821416199
100
AcDbArc
 50
236.8340911865234
 51
324.1855316162109
  0
ARC
  5
185
330
1F
100
AcDbEntity
  8
仕上
  6
Continuous
 62
     6
370
     9
100
AcDbCircle
 10
5.286957788651426
 20
289.3809958555232
 30
0.0
 40
3.499999821416199
100
AcDbArc
 50
324.1859283447266
 51
55.90905761718749
  0
ARC
  5
186
330
1F
100
AcDbEntity
  8
仕上
  6
Continuous
 62
     6
370
     9
100
AcDbCircle
 10
-2.929462506504134
 20
294.1247075553735
 30
0.0
 40
3.499999821416199
100
AcDbArc
 50
64.09085083007814
 51
155.81396484375
  0
ARC
  5
187
330
1F
100
AcDbEntity
  8
仕上
  6
Continuous
 62
     6
370
     9
100
AcDbCircle
 10
-22.91955100983738
 20
276.6307729829401
 30
0.0
 40
3.499999821416199
100
AcDbArc
 50
257.9079284667969
 51
345.2595520019531
  0
ARC
  5
188
330
1F
100
AcDbEntity
  8
仕上
  6
Continuous
 62
     6
370
     9
100
AcDbCircle
 10
-17.0077829250498
 20
299.1001128028888
 30
0.0
 40
3.499999821416199
100
AcDbArc
 50
345.2595520019531
 51
76.9886474609375
  0
ARC
  5
189
330
1F
100
AcDbEntity
  8
仕上
  6
Continuous
 62
     6
370
     9
100
AcDbCircle
 10
-24.44211610771969
 20
300.3794972244546
 30
0.0
 40
3.499999821416199
100
AcDbArc
 50
83.486328125
 51
175.2093811035156
  0
ARC
  5
18A
330
1F
100
AcDbEntity
  8
仕上
  6
Continuous
 62
     6
370
     9
100
AcDbCircle
 10
-26.38252222952235
 20
277.226852599413
 30
0.0
 40
3.499999821416199
100
AcDbArc
 50
175.2093811035157
 51
262.5608673095703
  0
ARC
  5
18B
330
1F
100
AcDbEntity
  8
仕上
  6
Continuous
 62
     6
370
     9
100
AcDbCircle
 10
-53.57695637706626
 20
242.1672698265506
 30
0.0
 40
3.976078094202578
100
AcDbArc
 50
259.9653167724609
 51
60.03437805175782
  0
ARC
  5
18C
330
1F
100
AcDbEntity
  8
仕上
  6
Continuous
 62
     6
370
     9
100
AcDbCircle
 10
-56.98598271079039
 20
243.4080546962417
 30
0.0
 40
4.603881279934326
100
AcDbArc
 50
259.9653015136719
 51
60.0345458984375
  0
ARC
  5
18D
330
1F
100
AcDbEntity
  8
仕上
  6
Continuous
 62
     6
370
     9
100
AcDbCircle
 10
-43.47458227444793
 20
254.2067867615677
 30
0.0
 40
3.976097778924183
100
AcDbArc
 50
219.9655914306641
 51
20.03446960449219
  0
ARC
  5
18E
330
1F
100
AcDbEntity
  8
仕上
  6
Continuous
 62
     6
370
     9
100
AcDbCircle
 10
-45.28844625701311
 20
257.3485733147922
 30
0.0
 40
4.603915728197133
100
AcDbArc
 50
219.9655303955078
 51
20.03440856933596
  0
ARC
  5
18F
330
1F
100
AcDbEntity
  8
仕上
  6
Continuous
 62
     6
370
     9
100
AcDbCircle
 10
-57.932529110706
 20
256.0802473323855
 30
0.0
 40
5.912096163480898
100
AcDbArc
 50
36.55206298828124
 51
243.4478149414062
  0
ARC
  5
190
330
1F
100
AcDbEntity
  8
仕上
  6
Continuous
 62
     6
370
     9
100
AcDbCircle
 10
-37.86800611341311
 20
267.6644347847828
 30
0.0
 40
5.912096163480898
100
AcDbArc
 50
356.5521087646484
 51
203.4478149414062
  0
ARC
  5
191
330
1F
100
AcDbEntity
  8
仕上
  6
Continuous
 62
     6
370
     9
100
AcDbCircle
 10
-15.05147154819099
 20
263.6413676197173
 30
0.0
 40
5.912096163480898
100
AcDbArc
 50
316.5520629882812
 51
163.4478149414062
  0
ARC
  5
192
330
1F
100
AcDbEntity
  8
仕上
  6
Continuous
 62
     6
370
     9
100
AcDbCircle
 10
-27.99677438625497
 20
256.9359990474969
 30
0.0
 40
3.97609012375467
100
AcDbArc
 50
179.9657745361328
 51
340.0345611572266
  0
ARC
  5
193
330
1F
100
AcDbEntity
  8
仕上
  6
Continuous
 62
     6
370
     9
100
AcDbCircle
 10
-27.36677580726644
 20
260.5086272896656
 30
0.0
 40
4.603909166623266
100
AcDbArc
 50
178.5965576171875
 51
340.0343627929688
  0
ARC
  5
194
330
1F
100
AcDbEntity
  8
仕上
  6
Continuous
 62
     6
370
     9
100
AcDbCircle
 10
0.0426329977263986
 20
245.3232993694515
 30
0.0
 40
5.912096163480898
100
AcDbArc
 50
275.5294647216797
 51
122.4252166748047
  0
ARC
  5
195
330
1F
100
AcDbEntity
  8
仕上
  6
Continuous
 62
     6
370
     9
100
AcDbCircle
 10
-14.06433087794483
 20
249.0769045676672
 30
0.0
 40
4.222738318461709
100
AcDbArc
 50
142.7604217529297
 51
296.2172698974609
  0
ARC
  5
196
330
1F
100
AcDbEntity
  8
仕上
  6
Continuous
 62
     6
370
     9
100
AcDbCircle
 10
-11.23454278776546
 20
251.4086954475538
 30
0.0
 40
4.889487452488607
100
AcDbArc
 50
139.9656219482422
 51
299.0120544433594
  0
ARC
  5
197
330
1F
100
AcDbEntity
  8
仕上
  6
Continuous
 62
     6
370
     9
100
AcDbCircle
 10
-65.85656567429953
 20
234.3089189917592
 30
0.0
 40
5.912096163480898
100
AcDbArc
 50
76.55187988281249
 51
180.000244140625
  0
ARC
  5
198
330
1F
100
AcDbEntity
  8
仕上
  6
Continuous
 62
     6
370
     9
100
AcDbCircle
 10
-31.9865262536008
 20
234.3089189917592
 30
0.0
 40
33.00001190804146
100
AcDbArc
 50
150.0345764160156
 51
169.9653930664062
  0
ARC
  5
199
330
1F
100
AcDbEntity
  8
仕上
  6
Continuous
 62
     6
370
     9
100
AcDbCircle
 10
-31.9865262536008
 20
234.3089189917592
 30
0.0
 40
33.00001190804146
100
AcDbArc
 50
110.0345306396485
 51
129.9654235839844
  0
ARC
  5
19A
330
1F
100
AcDbEntity
  8
仕上
  6
Continuous
 62
     6
370
     9
100
AcDbCircle
 10
-31.9865262536008
 20
234.3089189917592
 30
0.0
 40
33.00001190804146
100
AcDbArc
 50
70.03456115722656
 51
89.96542358398438
  0
ARC
  5
19B
330
1F
100
AcDbEntity
  8
仕上
  6
Continuous
 62
     6
370
     9
100
AcDbCircle
 10
-31.9865262536008
 20
234.3089189917592
 30
0.0
 40
33.00001190804146
100
AcDbArc
 50
0.0
 51
8.942840576171875
  0
ARC
  5
19C
330
1F
100
AcDbEntity
  8
仕上
  6
Continuous
 62
     6
370
     9
100
AcDbCircle
 10
-31.9865262536008
 20
234.3089189917592
 30
0.0
 40
33.00001190804146
100
AcDbArc
 50
29.01193237304688
 51
49.96543884277344
  0
ARC
  5
19D
330
1F
100
AcDbEntity
  8
仕上
  6
Continuous
 62
     6
370
     9
100
AcDbCircle
 10
-31.9865262536008
 20
234.3089189917592
 30
0.0
 40
27.44068126604824
100
AcDbArc
 50
0.0
 51
8.94281005859375
  0
ARC
  5
19E
330
1F
100
AcDbEntity
  8
仕上
  6
Continuous
 62
     6
370
     9
100
AcDbCircle
 10
-31.9865262536008
 20
234.3089189917592
 30
0.0
 40
26.67146358710918
100
AcDbArc
 50
0.0
 51
8.94281005859375
  0
ARC
  5
19F
330
1F
100
AcDbEntity
  8
仕上
  6
Continuous
 62
     6
370
     9
100
AcDbCircle
 10
-31.9865262536008
 20
234.3089189917592
 30
0.0
 40
26.67146358710918
100
AcDbArc
 50
29.011962890625
 51
49.96543884277344
  0
ARC
  5
1A0
330
1F
100
AcDbEntity
  8
仕上
  6
Continuous
 62
     6
370
     9
100
AcDbCircle
 10
-31.9865262536008
 20
234.3089189917592
 30
0.0
 40
27.44068126604824
100
AcDbArc
 50
29.01193237304688
 51
49.96542358398438
  0
ARC
  5
1A1
330
1F
100
AcDbEntity
  8
仕上
  6
Continuous
 62
     6
370
     9
100
AcDbCircle
 10
-31.9865262536008
 20
234.3089189917592
 30
0.0
 40
27.44068126604824
100
AcDbArc
 50
70.03457641601564
 51
89.96543884277345
  0
ARC
  5
1A2
330
1F
100
AcDbEntity
  8
仕上
  6
Continuous
 62
     6
370
     9
100
AcDbCircle
 10
-31.9865262536008
 20
234.3089189917592
 30
0.0
 40
26.67146358710918
100
AcDbArc
 50
70.03457641601564
 51
89.96255493164062
  0
ARC
  5
1A3
330
1F
100
AcDbEntity
  8
仕上
  6
Continuous
 62
     6
370
     9
100
AcDbCircle
 10
-31.9865262536008
 20
234.3089189917592
 30
0.0
 40
26.67146358710918
100
AcDbArc
 50
110.0345916748047
 51
129.9654846191406
  0
ARC
  5
1A4
330
1F
100
AcDbEntity
  8
仕上
  6
Continuous
 62
     6
370
     9
100
AcDbCircle
 10
-31.9865262536008
 20
234.3089189917592
 30
0.0
 40
27.44068126604824
100
AcDbArc
 50
110.0345916748047
 51
129.9654846191406
  0
ARC
  5
1A5
330
1F
100
AcDbEntity
  8
仕上
  6
Continuous
 62
     6
370
     9
100
AcDbCircle
 10
-31.9865262536008
 20
234.3089189917592
 30
0.0
 40
26.67146358710918
100
AcDbArc
 50
150.0346374511719
 51
169.96533203125
  0
ARC
  5
1A6
330
1F
100
AcDbEntity
  8
仕上
  6
Continuous
 62
     6
370
     9
100
AcDbCircle
 10
-31.9865262536008
 20
234.3089189917592
 30
0.0
 40
27.44068126604824
100
AcDbArc
 50
150.0345916748047
 51
169.9653167724609
  0
ARC
  5
1A7
330
1F
100
AcDbEntity
  8
仕上
  6
Continuous
 62
     6
370
     9
100
AcDbCircle
 10
-9.489356611686283
 20
234.3089189917592
 30
0.0
 40
3.49715975352696
100
AcDbArc
 50
92.32417297363281
 51
180.0
  0
ARC
  5
1A8
330
1F
100
AcDbEntity
  8
仕上
  6
Continuous
 62
     6
370
     9
100
AcDbCircle
 10
-5.937130489864906
 20
234.3089189917592
 30
0.0
 40
4.049344354614787
100
AcDbArc
 50
98.94276428222655
 51
179.9998321533203
  0
ARC
  5
1A9
330
1F
100
AcDbEntity
  8
仕上
  6
Continuous
 62
     6
370
     9
100
AcDbCircle
 10
-19.48646557193013
 20
234.3089189917592
 30
0.0
 40
53.76790719050697
100
AcDbArc
 50
0.0
 51
10.71855163574219
  0
ARC
  5
1AA
330
1F
100
AcDbEntity
  8
仕上
  6
Continuous
 62
     6
370
     9
100
AcDbCircle
 10
-19.33369463475049
 20
234.3089189917592
 30
0.0
 40
67.49999960232886
100
AcDbArc
 50
4.247985839843745
 51
8.519607543945309
  0
ARC
  5
1AB
330
1F
100
AcDbEntity
  8
仕上
  6
Continuous
 62
     6
370
     9
100
AcDbCircle
 10
-44.4865869352717
 20
234.3089189917592
 30
0.0
 40
53.76790719050697
100
AcDbArc
 50
169.2814483642578
 51
180.0
  0
ARC
  5
1AC
330
1F
100
AcDbEntity
  8
仕上
  6
Continuous
 62
     6
370
     9
100
AcDbCircle
 10
-44.63928788232977
 20
234.3089189917592
 30
0.0
 40
67.49999960232886
100
AcDbArc
 50
171.4803771972657
 51
175.7519989013672
  0
ARC
  5
1AD
330
1F
100
AcDbEntity
  8
仕上
  6
Continuous
 62
     6
370
     9
100
AcDbCircle
 10
-31.9865262536008
 20
234.3089189917592
 30
0.0
 40
80.99999602328856
100
AcDbArc
 50
2.830566406249999
 51
177.16943359375
  0
ARC
  5
1AE
330
1F
100
AcDbEntity
  8
0-A
  6
Continuous
 62
     4
370
     9
100
AcDbCircle
 10
44.01347174331488
 20
234.3089189917592
 30
0.0
 40
5.999999928198266
100
AcDbArc
 50
0.0
 51
180.0
  0
ARC
  5
1AF
330
1F
100
AcDbEntity
  8
0-A
  6
Continuous
 62
     4
370
     9
100
AcDbCircle
 10
42.41335759107676
 20
235.9090331439976
 30
0.0
 40
0.9999999880330441
100
AcDbArc
 50
270.0
 51
0.0
  0
ARC
  5
1B0
330
1F
100
AcDbEntity
  8
0-A
  6
Continuous
 62
     4
370
     9
100
AcDbCircle
 10
45.613585895553
 20
235.9090331439976
 30
0.0
 40
0.9999999880330441
100
AcDbArc
 50
180.0
 51
270.0
  0
ARC
  5
1B1
330
1F
100
AcDbEntity
  8
0-A
  6
Continuous
 62
     4
370
     9
100
AcDbCircle
 10
-107.9865242505165
 20
234.3089189917592
 30
0.0
 40
5.999999928198266
100
AcDbArc
 50
0.0
 51
180.0
  0
ARC
  5
1B2
330
1F
100
AcDbEntity
  8
0-A
  6
Continuous
 62
     4
370
     9
100
AcDbCircle
 10
-106.3864100982784
 20
235.9090331439976
 30
0.0
 40
0.9999999880330441
100
AcDbArc
 50
180.0
 51
270.0
  0
ARC
  5
1B3
330
1F
100
AcDbEntity
  8
0-A
  6
Continuous
 62
     4
370
     9
100
AcDbCircle
 10
-109.5866384027548
 20
235.9090331439976
 30
0.0
 40
0.9999999880330441
100
AcDbArc
 50
270.0
 51
0.0
  0
ARC
  5
1B4
330
1F
100
AcDbEntity
  8
躯体
  6
Continuous
 62
     2
370
     9
100
AcDbCircle
 10
-31.98650875607052
 20
234.3087790115167
 30
0.0
 40
66.1946269738628
100
AcDbArc
 50
54.18593262858631
 51
65.81410355106831
  0
ARC
  5
1B5
330
1F
100
AcDbEntity
  8
躯体
  6
Continuous
 62
     2
370
     9
100
AcDbCircle
 10
-4.486497739106991
 20
281.940206084167
 30
0.0
 40
11.99999985639653
100
AcDbArc
 50
218.1488390733197
 51
261.8500778487095
  0
ARC
  5
1B6
330
1F
100
AcDbEntity
  8
躯体
  6
Continuous
 62
     2
370
     9
100
AcDbCircle
 10
-4.486497739106991
 20
281.940206084167
 30
0.0
 40
13.00000011782848
100
AcDbArc
 50
220.5279758774367
 51
259.471519017507
  0
ARC
  5
1B7
330
1F
100
AcDbEntity
  8
躯体
  6
Continuous
 62
     2
370
     9
100
AcDbCircle
 10
-19.0088179893936
 20
285.6954560502325
 30
0.0
 40
1.999999976066088
100
AcDbArc
 50
60.05640645395633
 51
75.82661437988281
  0
ARC
  5
1B8
330
1F
100
AcDbEntity
  8
躯体
  6
Continuous
 62
     2
370
     9
100
AcDbCircle
 10
-31.98650875607052
 20
234.3087790115167
 30
0.0
 40
55.00010952157863
100
AcDbArc
 50
75.82635498046875
 51
85.20928479989765
  0
ARC
  5
1B9
330
1F
100
AcDbEntity
  8
躯体
  6
Continuous
 62
     2
370
     9
100
AcDbCircle
 10
-31.98650875607052
 20
234.3087790115167
 30
0.0
 40
62.46264872311625
100
AcDbArc
 50
75.25934279025107
 51
85.20927744215305
  0
ARC
  5
1BA
330
1F
100
AcDbEntity
  8
躯体
  6
Continuous
 62
     2
370
     9
100
AcDbCircle
 10
-31.98650875607052
 20
234.3087790115167
 30
0.0
 40
62.46264872311625
100
AcDbArc
 50
94.79074131062403
 51
104.7406368747758
  0
ARC
  5
1BB
330
1F
100
AcDbEntity
  8
躯体
  6
Continuous
 62
     2
370
     9
100
AcDbCircle
 10
-31.98650875607052
 20
234.3087790115167
 30
0.0
 40
56.00011087660624
100
AcDbArc
 50
94.7907421788873
 51
104.7406487234438
  0
ARC
  5
1BC
330
1F
100
AcDbEntity
  8
躯体
  6
Continuous
 62
     2
370
     9
100
AcDbCircle
 10
-31.98650875607052
 20
234.3087790115167
 30
0.0
 40
55.00010952157863
100
AcDbArc
 50
94.7907423314702
 51
104.7406508056505
  0
ARC
  5
1BD
330
1F
100
AcDbEntity
  8
躯体
  6
Continuous
 62
     2
370
     9
100
AcDbCircle
 10
-31.98650875607052
 20
234.3087790115167
 30
0.0
 40
62.46264872311625
100
AcDbArc
 50
114.185849804037
 51
125.8140044401738
  0
ARC
  5
1BE
330
1F
100
AcDbEntity
  8
躯体
  6
Continuous
 62
     2
370
     9
100
AcDbCircle
 10
-31.98650875607052
 20
234.3087790115167
 30
0.0
 40
56.00011087660624
100
AcDbArc
 50
114.1858374896373
 51
125.8139758847146
  0
ARC
  5
1BF
330
1F
100
AcDbEntity
  8
躯体
  6
Continuous
 62
     2
370
     9
100
AcDbCircle
 10
-31.98650875607052
 20
234.3087790115167
 30
0.0
 40
55.00010952157863
100
AcDbArc
 50
114.1858353255858
 51
125.8139708665665
  0
ARC
  5
1C0
330
1F
100
AcDbEntity
  8
躯体
  6
Continuous
 62
     2
370
     9
100
AcDbCircle
 10
-31.98650875607052
 20
234.3087790115167
 30
0.0
 40
62.46264872311625
100
AcDbArc
 50
135.0249481904674
 51
144.9748400307121
  0
ARC
  5
1C1
330
1F
100
AcDbEntity
  8
躯体
  6
Continuous
 62
     2
370
     9
100
AcDbCircle
 10
-31.98650875607052
 20
234.3087790115167
 30
0.0
 40
56.00011087660624
100
AcDbArc
 50
135.0249435072693
 51
144.9748527075849
  0
ARC
  5
1C2
330
1F
100
AcDbEntity
  8
躯体
  6
Continuous
 62
     2
370
     9
100
AcDbCircle
 10
-31.98650875607052
 20
234.3087790115167
 30
0.0
 40
55.00010952157863
100
AcDbArc
 50
135.0249426842748
 51
144.974854935335
  0
ARC
  5
1C3
330
1F
100
AcDbEntity
  8
躯体
  6
Continuous
 62
     2
370
     9
100
AcDbCircle
 10
-31.98650875607052
 20
234.3087790115167
 30
0.0
 40
56.00011087660624
100
AcDbArc
 50
155.2083252617753
 51
164.7468414306641
  0
ARC
  5
1C4
330
1F
100
AcDbEntity
  8
躯体
  6
Continuous
 62
     2
370
     9
100
AcDbCircle
 10
-31.98650875607052
 20
234.3087790115167
 30
0.0
 40
55.00010952157863
100
AcDbArc
 50
155.2083213261011
 51
164.1736450195312
  0
ARC
  5
1C5
330
1F
100
AcDbEntity
  8
躯体
  6
Continuous
 62
     2
370
     9
100
AcDbCircle
 10
-86.98653078999756
 20
234.3087790115167
 30
0.0
 40
13.00000011782848
100
AcDbArc
 50
0.0
 51
19.47262327702187
  0
ARC
  5
1C6
330
1F
100
AcDbEntity
  8
躯体
  6
Continuous
 62
     2
370
     9
100
AcDbCircle
 10
-86.98653078999756
 20
234.3087790115167
 30
0.0
 40
13.00000011782848
100
AcDbArc
 50
61.30359618194196
 51
74.49832153320312
  0
ARC
  5
1C7
330
1F
100
AcDbEntity
  8
躯体
  6
Continuous
 62
     2
370
     9
100
AcDbCircle
 10
-86.98653078999756
 20
234.3087790115167
 30
0.0
 40
11.99999985639653
100
AcDbArc
 50
0.0
 51
21.85169253304178
  0
ARC
  5
1C8
330
1F
100
AcDbEntity
  8
躯体
  6
Continuous
 62
     2
370
     9
100
AcDbCircle
 10
-31.98650875607052
 20
234.3087790115167
 30
0.0
 40
62.46264872311625
100
AcDbArc
 50
155.2083476574844
 51
166.8365342366464
  0
ARC
  5
1C9
330
1F
100
AcDbEntity
  8
躯体
  6
Continuous
 62
     2
370
     9
100
AcDbCircle
 10
-84.0843379193751
 20
248.515373824801
 30
0.0
 40
1.999999976066088
100
AcDbArc
 50
164.7469177246094
 51
246.7420702463253
  0
ARC
  5
1CA
330
1F
100
AcDbEntity
  8
躯体
  6
Continuous
 62
     2
370
     9
100
AcDbCircle
 10
-111.2609595810585
 20
243.3088087042955
 30
0.0
 40
1.999999976066088
100
AcDbArc
 50
173.5229187011719
 51
226.634118914995
  0
ARC
  5
1CB
330
1F
100
AcDbEntity
  8
躯体
  6
Continuous
 62
     2
370
     9
100
AcDbCircle
 10
-110.8550168777525
 20
244.3088275568534
 30
0.0
 40
1.999999976066088
100
AcDbArc
 50
172.7738342285157
 51
214.654594805372
  0
ARC
  5
1CC
330
1F
100
AcDbEntity
  8
躯体
  6
Continuous
 62
     2
370
     9
100
AcDbCircle
 10
-27.98650333596014
 20
313.9921121249034
 30
0.0
 40
1.999999976066088
100
AcDbArc
 50
87.12590026855469
 51
140.2322043560015
  0
ARC
  5
1CD
330
1F
100
AcDbEntity
  8
躯体
  6
Continuous
 62
     2
370
     9
100
AcDbCircle
 10
-25.9865006259049
 20
313.5820400044433
 30
0.0
 40
1.999999976066088
100
AcDbArc
 50
85.67143249511717
 51
127.5498782020467
  0
ARC
  5
1CE
330
1F
100
AcDbEntity
  8
躯体
  6
Continuous
 62
     2
370
     9
100
AcDbCircle
 10
-35.98651417618099
 20
313.9921121249034
 30
0.0
 40
1.999999976066088
100
AcDbArc
 50
39.76783433843713
 51
92.87409973144531
  0
ARC
  5
1CF
330
1F
100
AcDbEntity
  8
躯体
  6
Continuous
 62
     2
370
     9
100
AcDbCircle
 10
-37.98651688623612
 20
313.5820400044433
 30
0.0
 40
1.999999976066088
100
AcDbArc
 50
52.45021211677579
 51
94.32856750488283
  0
ARC
  5
1D0
330
1F
100
AcDbEntity
  8
躯体
  6
Continuous
 62
     2
370
     9
100
AcDbCircle
 10
6.026823360487246
 20
271.2411312027495
 30
0.0
 40
1.999999976066088
100
AcDbArc
 50
44.17338562011717
 51
66.73032572533546
  0
ARC
  5
1D1
330
1F
100
AcDbEntity
  8
躯体
  6
Continuous
 62
     2
370
     9
100
AcDbCircle
 10
6.365680532565882
 20
272.32352842803
 30
0.0
 40
1.999999976066088
100
AcDbArc
 50
44.74691772460938
 51
51.14862641147839
  0
ARC
  5
1D2
330
1F
100
AcDbEntity
  8
躯体
  6
Continuous
 62
     2
370
     9
100
AcDbCircle
 10
-31.98650875607052
 20
234.3087790115167
 30
0.0
 40
62.46264872311625
100
AcDbArc
 50
35.02514790111621
 51
44.97501817261028
  0
ARC
  5
1D3
330
1F
100
AcDbEntity
  8
躯体
  6
Continuous
 62
     2
370
     9
100
AcDbCircle
 10
-31.98650875607052
 20
234.3087790115167
 30
0.0
 40
56.00011087660624
100
AcDbArc
 50
35.02514526329833
 51
44.74684143066407
  0
ARC
  5
1D4
330
1F
100
AcDbEntity
  8
躯体
  6
Continuous
 62
     2
370
     9
100
AcDbCircle
 10
-31.98650875607052
 20
234.3087790115167
 30
0.0
 40
55.00010952157863
100
AcDbArc
 50
35.02514479974553
 51
44.17364501953126
  0
ARC
  5
1D5
330
1F
100
AcDbEntity
  8
躯体
  6
Continuous
 62
     2
370
     9
100
AcDbCircle
 10
-31.98650875607052
 20
234.3087790115167
 30
0.0
 40
55.00010952157863
100
AcDbArc
 50
13.16349928002914
 51
24.79167848034271
  0
ARC
  5
1D6
330
1F
100
AcDbEntity
  8
躯体
  6
Continuous
 62
     2
370
     9
100
AcDbCircle
 10
-31.98650875607052
 20
234.3087790115167
 30
0.0
 40
56.00011087660624
100
AcDbArc
 50
13.16349536300941
 51
24.79167325574419
  0
ARC
  5
1D7
330
1F
100
AcDbEntity
  8
躯体
  6
Continuous
 62
     2
370
     9
100
AcDbCircle
 10
-31.98650875607052
 20
234.3087790115167
 30
0.0
 40
62.46264872311625
100
AcDbArc
 50
13.16347307345272
 51
24.79164352549246
  0
ARC
  5
1D8
330
1F
100
AcDbEntity
  8
躯体
  6
Continuous
 62
     2
370
     9
100
AcDbCircle
 10
-31.98650875607052
 20
234.3087790115167
 30
0.0
 40
55.00010952157863
100
AcDbArc
 50
0.0
 51
5.814286285447769
  0
ARC
  5
1D9
330
1F
100
AcDbEntity
  8
躯体
  6
Continuous
 62
     2
370
     9
100
AcDbCircle
 10
-31.98650875607052
 20
234.3087790115167
 30
0.0
 40
56.00011087660624
100
AcDbArc
 50
0.0
 51
5.814281046620462
  0
ARC
  5
1DA
330
1F
100
AcDbEntity
  8
躯体
  6
Continuous
 62
     2
370
     9
100
AcDbCircle
 10
47.28794206891735
 20
243.3088087042955
 30
0.0
 40
1.999999976066088
100
AcDbArc
 50
313.3646140397856
 51
6.477081298828126
  0
ARC
  5
1DB
330
1F
100
AcDbEntity
  8
躯体
  6
Continuous
 62
     2
370
     9
100
AcDbCircle
 10
46.88199936561136
 20
244.3088275568534
 30
0.0
 40
1.999999976066088
100
AcDbArc
 50
325.3438843268505
 51
7.226165771484372
  0
ARC
  5
1DC
330
1F
100
AcDbEntity
  8
躯体
  6
Continuous
 62
     2
370
     9
100
AcDbCircle
 10
-31.98650875607052
 20
234.3087790115167
 30
0.0
 40
81.78371040609352
100
AcDbArc
 50
1.160296436051697
 51
6.477066040039067
  0
ARC
  5
1DD
330
1F
100
AcDbEntity
  8
躯体
  6
Continuous
 62
     2
370
     9
100
AcDbCircle
 10
-31.98650875607052
 20
234.3087790115167
 30
0.0
 40
81.78371040609352
100
AcDbArc
 50
173.5229339599609
 51
178.8396116883414
  0
ARC
  5
1DE
330
1F
100
AcDbEntity
  8
躯体
  6
Continuous
 62
     2
370
     9
100
AcDbCircle
 10
-31.98650875607052
 20
234.3087790115167
 30
0.0
 40
56.00011087660624
100
AcDbArc
 50
75.25934785753503
 51
85.2092837001573
  0
ARC
  5
1DF
330
1F
100
AcDbEntity
  8
通り芯
  6
Continuous
 62
     3
370
     9
100
AcDbCircle
 10
-31.9865087560705
 20
234.3087790115167
 30
0.0
 40
168.0
100
AcDbArc
 50
0.0
 51
180.0
  0
ARC
  5
1E0
330
1F
100
AcDbEntity
  8
通り芯
  6
Continuous
 62
     3
370
     9
100
AcDbCircle
 10
-31.9865087560705
 20
234.3087790115167
 30
0.0
 40
170.0
100
AcDbArc
 50
0.0
 51
180.0
  0
ARC
  5
1E1
330
1F
100
AcDbEntity
  8
通り芯
  6
Continuous
 62
     3
370
     9
100
AcDbCircle
 10
-31.9865087560705
 20
234.3087790115167
 30
0.0
 40
169.0
100
AcDbArc
 50
0.0
 51
180.0
  0
LINE
  5
1E2
330
1F
100
AcDbEntity
  8
通り芯
  6
JWW_CENTER1
 62
     3
370
     9
100
AcDbLine
 10
-31.98650875607054
 20
226.3087790115168
 30
0.0
 11
-31.98650875607051
 21
412.3087790115167
 31
0.0
  0
LINE
  5
1E3
330
1F
100
AcDbEntity
  8
通り芯
  6
JWW_CENTER1
 62
     3
370
     9
100
AcDbLine
 10
146.0134912439295
 20
234.3087790115167
 30
0.0
 11
-209.9865087560705
 21
234.3087790115167
 31
0.0
  0
LINE
  5
1E4
330
1F
100
AcDbEntity
  8
通り芯
  6
JWW_HOJO
 62
     3
370
     9
100
AcDbLine
 10
-79.10371147030128
 20
-141.8159901684415
 30
0.0
 11
-78.98650875607075
 21
-143.6912335961312
 31
0.0
  0
LINE
  5
1E5
330
1F
100
AcDbEntity
  8
通り芯
  6
JWW_HOJO
 62
     3
370
     9
100
AcDbLine
 10
-77.10760631333551
 20
-143.6912335961312
 30
0.0
 11
-78.98650875607075
 21
-143.6912335961312
 31
0.0
  0
ARC
  5
1E6
330
1F
100
AcDbEntity
  8
通り芯
  6
JWW_DASHED1
 62
     3
370
     9
100
AcDbCircle
 10
-90.37440538905628
 20
-88.79938149615572
 30
0.0
 40
2.0
100
AcDbArc
 50
193.1411062923607
 51
265.9882881433198
  0
LINE
  5
1E7
330
1F
100
AcDbEntity
  8
通り芯
  6
JWW_DASHED1
 62
     3
370
     9
100
AcDbLine
 10
-82.09509144548304
 20
-91.38494069915129
 30
0.0
 11
-90.51432615868099
 21
-90.79448103708762
 31
0.0
  0
LINE
  5
1E8
330
1F
100
AcDbEntity
  8
通り芯
  6
JWW_DASHED1
 62
     3
370
     9
100
AcDbLine
 10
-95.71405890449044
 20
-74.72493977881462
 30
0.0
 11
-92.32203160482332
 21
-89.2540815331659
 31
0.0
  0
LINE
  5
1E9
330
1F
100
AcDbEntity
  8
通り芯
  6
JWW_HOJO
 62
     3
370
     9
100
AcDbLine
 10
-92.32203160482332
 20
-89.25408153316579
 30
0.0
 11
-91.98650875607062
 21
-90.69123359613127
 31
0.0
  0
LINE
  5
1EA
330
1F
100
AcDbEntity
  8
通り芯
  6
JWW_HOJO
 62
     3
370
     9
100
AcDbLine
 10
-90.51432615868099
 20
-90.79448103708779
 30
0.0
 11
-91.98650875607062
 21
-90.69123359613127
 31
0.0
  0
ARC
  5
1EB
330
1F
100
AcDbEntity
  8
通り芯
  6
JWW_DASHED1
 62
     3
370
     9
100
AcDbCircle
 10
-82.44489336954494
 20
-96.37268955148153
 30
0.0
 40
5.0
100
AcDbArc
 50
46.237001147991
 51
85.98828814331986
  0
ARC
  5
1EC
330
1F
100
AcDbEntity
  8
通り芯
  6
Continuous
 62
     3
370
     9
100
AcDbCircle
 10
-82.44489336954494
 20
-96.37268955148153
 30
0.0
 40
5.0
100
AcDbArc
 50
3.57633437499736
 51
46.237001147991
  0
LINE
  5
1ED
330
1F
100
AcDbEntity
  8
通り芯
  6
Continuous
 62
     3
370
     9
100
AcDbLine
 10
24.64180589819035
 20
-90.69123359613118
 30
0.0
 11
-79.20416081747952
 21
-90.69123359613116
 31
0.0
  0
LINE
  5
1EE
330
1F
100
AcDbEntity
  8
通り芯
  6
Continuous
 62
     3
370
     9
100
AcDbLine
 10
-80.89659634480084
 20
-74.59189840978888
 30
0.0
 11
-78.98650875607062
 21
-92.7616542615288
 31
0.0
  0
LINE
  5
1EF
330
1F
100
AcDbEntity
  8
通り芯
  6
JWW_HOJO
 62
     3
370
     9
100
AcDbLine
 10
-77.72772825991649
 20
-91.69123359613099
 30
0.0
 11
-82.09509144548313
 21
-91.38494069915123
 31
0.0
  0
LINE
  5
1F0
330
1F
100
AcDbEntity
  8
通り芯
  6
JWW_HOJO
 62
     3
370
     9
100
AcDbLine
 10
-77.72772825991649
 20
-91.69123359613099
 30
0.0
 11
-77.45463047713052
 21
-96.06079812070567
 31
0.0
  0
LINE
  5
1F1
330
1F
100
AcDbEntity
  8
通り芯
  6
Continuous
 62
     3
370
     9
100
AcDbLine
 10
-77.45463047713075
 20
-96.06079812070567
 30
0.0
 11
-74.4777282599166
 21
-143.6912335961312
 31
0.0
  0
LINE
  5
1F2
330
1F
100
AcDbEntity
  8
通り芯
  6
JWW_HOJO
 62
     3
370
     9
100
AcDbLine
 10
13.75471074777512
 20
-91.69123359613099
 30
0.0
 11
18.12207393334189
 21
-91.38494069915124
 31
0.0
  0
LINE
  5
1F3
330
1F
100
AcDbEntity
  8
通り芯
  6
JWW_HOJO
 62
     3
370
     9
100
AcDbLine
 10
13.75471074777512
 20
-91.69123359613099
 30
0.0
 11
13.48161296498915
 21
-96.06079812070568
 31
0.0
  0
LINE
  5
1F4
330
1F
100
AcDbEntity
  8
通り芯
  6
Continuous
 62
     3
370
     9
100
AcDbLine
 10
13.48161296498915
 20
-96.06079812070568
 30
0.0
 11
10.5047107477751
 21
-143.6912335961312
 31
0.0
  0
ARC
  5
1F5
330
1F
100
AcDbEntity
  8
通り芯
  6
Continuous
 62
     3
370
     9
100
AcDbCircle
 10
18.47187585740369
 20
-96.37268955148154
 30
0.0
 40
5.0
100
AcDbArc
 50
94.01171185668012
 51
176.4236656250027
  0
LINE
  5
1F6
330
1F
100
AcDbEntity
  8
通り芯
  6
Continuous
 62
     3
370
     9
100
AcDbLine
 10
18.12207393334189
 20
-91.38494069915124
 30
0.0
 11
26.54130864653974
 21
-90.79448103708788
 31
0.0
  0
LINE
  5
1F7
330
1F
100
AcDbEntity
  8
通り芯
  6
JWW_HOJO
 62
     3
370
     9
100
AcDbLine
 10
26.54130864653974
 20
-90.7944810370878
 30
0.0
 11
28.01349124392938
 21
-90.69123359613128
 31
0.0
  0
LINE
  5
1F8
330
1F
100
AcDbEntity
  8
通り芯
  6
JWW_HOJO
 62
     3
370
     9
100
AcDbLine
 10
28.34901409268196
 20
-89.25408153316587
 30
0.0
 11
28.01349124392938
 21
-90.69123359613128
 31
0.0
  0
ARC
  5
1F9
330
1F
100
AcDbEntity
  8
通り芯
  6
Continuous
 62
     3
370
     9
100
AcDbCircle
 10
26.40138787691502
 20
-88.79938149615572
 30
0.0
 40
2.0
100
AcDbArc
 50
274.0117118566801
 51
346.8588937076393
  0
LINE
  5
1FA
330
1F
100
AcDbEntity
  8
通り芯
  6
Continuous
 62
     3
370
     9
100
AcDbLine
 10
28.34901409268208
 20
-89.25408153316587
 30
0.0
 11
31.74104139234897
 21
-74.72493977881476
 31
0.0
  0
LINE
  5
1FB
330
1F
100
AcDbEntity
  8
通り芯
  6
JWW_HOJO
 62
     3
370
     9
100
AcDbLine
 10
-174.5872754962152
 20
-75.69123359613128
 30
0.0
 11
-175.486508756071
 21
-75.69123359613128
 31
0.0
  0
LINE
  5
1FC
330
1F
100
AcDbEntity
  8
通り芯
  6
JWW_HOJO
 62
     3
370
     9
100
AcDbLine
 10
-175.5816613078499
 20
-74.79704880118065
 30
0.0
 11
-175.486508756071
 21
-75.69123359613128
 31
0.0
  0
LINE
  5
1FD
330
1F
100
AcDbEntity
  8
通り芯
  6
JWW_HOJO
 62
     3
370
     9
100
AcDbLine
 10
-160.3616399222556
 20
-74.83564935320979
 30
0.0
 11
-160.486508756071
 21
-75.69123359613128
 31
0.0
  0
LINE
  5
1FE
330
1F
100
AcDbEntity
  8
通り芯
  6
JWW_HOJO
 62
     3
370
     9
100
AcDbLine
 10
-160.486508756071
 20
-75.69123359613128
 30
0.0
 11
-161.351157021202
 21
-75.69123359613128
 31
0.0
  0
LINE
  5
1FF
330
1F
100
AcDbEntity
  8
通り芯
  6
Continuous
 62
     3
370
     9
100
AcDbLine
 10
-159.2983283439879
 20
-67.54998323554666
 30
0.0
 11
-160.3616399222556
 21
-74.83564935320977
 31
0.0
  0
LINE
  5
200
330
1F
100
AcDbEntity
  8
通り芯
  6
Continuous
 62
     3
370
     9
100
AcDbLine
 10
-177.123388627457
 20
-60.30884957394066
 30
0.0
 11
-175.5816613078499
 21
-74.79704880118067
 31
0.0
  0
LINE
  5
201
330
1F
100
AcDbEntity
  8
通り芯
  6
JWW_HOJO
 62
     3
370
     9
100
AcDbLine
 10
-159.2983283439879
 20
-67.54998323554665
 30
0.0
 11
-158.486508756071
 21
-61.98750598407336
 31
0.0
  0
LINE
  5
202
330
1F
100
AcDbEntity
  8
通り芯
  6
JWW_HOJO
 62
     3
370
     9
100
AcDbLine
 10
-177.123388627457
 20
-60.30884957394068
 30
0.0
 11
-177.486508756071
 21
-56.89647132788196
 31
0.0
  0
LINE
  5
203
330
1F
100
AcDbEntity
  8
通り芯
  6
JWW_DASHED1
 62
     3
370
     9
100
AcDbLine
 10
-180.8012224601177
 20
-56.00829646774226
 30
0.0
 11
-153.056647623743
 21
-63.44243288949382
 31
0.0
  0
LINE
  5
204
330
1F
100
AcDbEntity
  8
通り芯
  6
Continuous
 62
     3
370
     9
100
AcDbLine
 10
-188.3726579027907
 20
-53.9795364553337
 30
0.0
 11
-180.8012224601178
 21
-56.00829646774226
 31
0.0
  0
ARC
  5
205
330
1F
100
AcDbEntity
  8
通り芯
  6
Continuous
 62
     3
370
     9
100
AcDbCircle
 10
-182.0953176856303
 20
-60.83792559918762
 30
0.0
 40
5.0
100
AcDbArc
 50
6.07413603242733
 51
75.00000000000034
  0
ARC
  5
206
330
1F
100
AcDbEntity
  8
通り芯
  6
Continuous
 62
     3
370
     9
100
AcDbCircle
 10
-154.3507428492556
 20
-68.27206202093917
 30
0.0
 40
5.0
100
AcDbArc
 50
74.99999999999986
 51
171.6965515533732
  0
LINE
  5
207
330
1F
100
AcDbEntity
  8
通り芯
  6
Continuous
 62
     3
370
     9
100
AcDbLine
 10
-153.056647623743
 20
-63.44243288949382
 30
0.0
 11
-112.4000630360208
 21
-74.33633189678164
 31
0.0
  0
ARC
  5
208
330
1F
100
AcDbEntity
  8
通り芯
  6
Continuous
 62
     3
370
     9
100
AcDbCircle
 10
-174.5872754962152
 20
-74.69123359613127
 30
0.0
 40
1.0
100
AcDbArc
 50
186.0741360324273
 51
270.0
  0
ARC
  5
209
330
1F
100
AcDbEntity
  8
通り芯
  6
Continuous
 62
     3
370
     9
100
AcDbCircle
 10
-161.351157021202
 20
-74.69123359613127
 30
0.0
 40
1.0
100
AcDbArc
 50
270.0
 51
351.6965515533731
  0
LINE
  5
20A
330
1F
100
AcDbEntity
  8
通り芯
  6
JWW_HOJO
 62
     3
370
     9
100
AcDbLine
 10
-201.0753085727065
 20
-46.40163212921843
 30
0.0
 11
-200.9865087560707
 21
-45.69123359613116
 31
0.0
  0
LINE
  5
20B
330
1F
100
AcDbEntity
  8
通り芯
  6
JWW_HOJO
 62
     3
370
     9
100
AcDbLine
 10
-200.9865087560707
 20
-45.69123359613116
 30
0.0
 11
-200.1181612536579
 21
-45.69123359613116
 31
0.0
  0
LINE
  5
20C
330
1F
100
AcDbEntity
  8
通り芯
  6
JWW_HOJO
 62
     3
370
     9
100
AcDbLine
 10
-95.98650875607062
 20
-73.55794960896819
 30
0.0
 11
-95.71405890449033
 21
-74.72493977881476
 31
0.0
  0
LINE
  5
20D
330
1F
100
AcDbEntity
  8
通り芯
  6
JWW_HOJO
 62
     3
370
     9
100
AcDbLine
 10
-95.98650875607062
 20
-73.55794960896819
 30
0.0
 11
-97.14404703005208
 21
-73.24778816324675
 31
0.0
  0
LINE
  5
20E
330
1F
100
AcDbEntity
  8
通り芯
  6
JWW_HOJO
 62
     3
370
     9
100
AcDbLine
 10
-104.6328499479265
 20
-79.74769851076063
 30
0.0
 11
-104.9865087560706
 21
-76.32278777913851
 31
0.0
  0
LINE
  5
20F
330
1F
100
AcDbEntity
  8
通り芯
  6
JWW_HOJO
 62
     3
370
     9
100
AcDbLine
 10
-104.9865087560706
 20
-76.32278777913851
 30
0.0
 11
-108.3123090737948
 21
-75.43164226981719
 31
0.0
  0
LINE
  5
210
330
1F
100
AcDbEntity
  8
通り芯
  6
JWW_HOJO
 62
     3
370
     9
100
AcDbLine
 10
-108.7095380405093
 20
-78.77409210606291
 30
0.0
 11
-108.9865087560706
 21
-75.25099100941407
 31
0.0
  0
LINE
  5
211
330
1F
100
AcDbEntity
  8
通り芯
  6
JWW_HOJO
 62
     3
370
     9
100
AcDbLine
 10
-106.9865087560706
 20
-100.6912335961313
 30
0.0
 11
-106.0620389121295
 21
-100.6912335961313
 31
0.0
  0
LINE
  5
212
330
1F
100
AcDbEntity
  8
通り芯
  6
JWW_HOJO
 62
     3
370
     9
100
AcDbLine
 10
-106.9865087560706
 20
-100.6912335961313
 30
0.0
 11
-107.0589629563344
 21
-99.76960738056408
 31
0.0
  0
LINE
  5
213
330
1F
100
AcDbEntity
  8
通り芯
  6
JWW_HOJO
 62
     3
370
     9
100
AcDbLine
 10
-104.806312658789
 20
-100.6912335961313
 30
0.0
 11
-103.9865087560707
 21
-100.6912335961313
 31
0.0
  0
LINE
  5
214
330
1F
100
AcDbEntity
  8
通り芯
  6
JWW_HOJO
 62
     3
370
     9
100
AcDbLine
 10
-103.9865087560707
 20
-100.6912335961313
 30
0.0
 11
-103.8257319830983
 21
-99.88734973126944
 31
0.0
  0
LINE
  5
215
330
1F
100
AcDbEntity
  8
通り芯
  6
JWW_HOJO
 62
     3
370
     9
100
AcDbLine
 10
-102.9865087560706
 20
-95.69123359613126
 30
0.0
 11
-103.0791631105168
 21
-94.79394817423159
 31
0.0
  0
LINE
  5
216
330
1F
100
AcDbEntity
  8
通り芯
  6
JWW_HOJO
 62
     3
370
     9
100
AcDbLine
 10
-103.147285529043
 20
-96.49511746099306
 30
0.0
 11
-102.9865087560706
 21
-95.69123359613126
 31
0.0
  0
LINE
  5
217
330
1F
100
AcDbEntity
  8
通り芯
  6
JWW_HOJO
 62
     3
370
     9
100
AcDbLine
 10
-102.1667048533518
 20
-95.69123359613126
 30
0.0
 11
-102.9865087560706
 21
-95.69123359613126
 31
0.0
  0
LINE
  5
218
330
1F
100
AcDbEntity
  8
通り芯
  6
JWW_HOJO
 62
     3
370
     9
100
AcDbLine
 10
-81.98650875607062
 20
-95.69123359613127
 30
0.0
 11
-84.80486242017331
 21
-95.69123359613127
 31
0.0
  0
LINE
  5
219
330
1F
100
AcDbEntity
  8
通り芯
  6
JWW_HOJO
 62
     3
370
     9
100
AcDbLine
 10
-81.98650875607062
 20
-95.69123359613127
 30
0.0
 11
-81.81070468472478
 21
-98.50409873766574
 31
0.0
  0
LINE
  5
21A
330
1F
100
AcDbEntity
  8
通り芯
  6
JWW_HOJO
 62
     3
370
     9
100
AcDbLine
 10
-80.98650875607062
 20
-73.6912335961313
 30
0.0
 11
-80.89659634480084
 21
-74.59189840978888
 31
0.0
  0
LINE
  5
21B
330
1F
100
AcDbEntity
  8
通り芯
  6
JWW_HOJO
 62
     3
370
     9
100
AcDbLine
 10
-80.98650875607062
 20
-73.6912335961313
 30
0.0
 11
-81.89165037386373
 21
-73.6912335961313
 31
0.0
  0
LINE
  5
21C
330
1F
100
AcDbEntity
  8
通り芯
  6
JWW_HOJO
 62
     3
370
     9
100
AcDbLine
 10
137.1022910605653
 20
-46.40163212921849
 30
0.0
 11
137.0134912439294
 21
-45.69123359613122
 31
0.0
  0
LINE
  5
21D
330
1F
100
AcDbEntity
  8
通り芯
  6
JWW_HOJO
 62
     3
370
     9
100
AcDbLine
 10
137.0134912439294
 20
-45.69123359613122
 30
0.0
 11
136.1451437415167
 21
-45.69123359613122
 31
0.0
  0
LINE
  5
21E
330
1F
100
AcDbEntity
  8
通り芯
  6
JWW_HOJO
 62
     3
370
     9
100
AcDbLine
 10
32.01349124392937
 20
-73.5579496089682
 30
0.0
 11
31.74104139234897
 21
-74.72493977881477
 31
0.0
  0
LINE
  5
21F
330
1F
100
AcDbEntity
  8
通り芯
  6
JWW_HOJO
 62
     3
370
     9
100
AcDbLine
 10
32.01349124392937
 20
-73.5579496089682
 30
0.0
 11
33.17102951791083
 21
-73.24778816324678
 31
0.0
  0
LINE
  5
220
330
1F
100
AcDbEntity
  8
通り芯
  6
JWW_HOJO
 62
     3
370
     9
100
AcDbLine
 10
40.65983243578513
 20
-79.74769851076064
 30
0.0
 11
41.01349124392937
 21
-76.32278777913851
 31
0.0
  0
LINE
  5
221
330
1F
100
AcDbEntity
  8
通り芯
  6
JWW_HOJO
 62
     3
370
     9
100
AcDbLine
 10
41.01349124392937
 20
-76.32278777913851
 30
0.0
 11
44.33929156165347
 21
-75.43164226981719
 31
0.0
  0
LINE
  5
222
330
1F
100
AcDbEntity
  8
通り芯
  6
JWW_HOJO
 62
     3
370
     9
100
AcDbLine
 10
44.73652052836803
 20
-78.77409210606294
 30
0.0
 11
45.01349124392938
 21
-75.2509910094141
 31
0.0
  0
LINE
  5
223
330
1F
100
AcDbEntity
  8
通り芯
  6
JWW_HOJO
 62
     3
370
     9
100
AcDbLine
 10
43.01349124392937
 20
-100.6912335961313
 30
0.0
 11
42.08902139998827
 21
-100.6912335961313
 31
0.0
  0
LINE
  5
224
330
1F
100
AcDbEntity
  8
通り芯
  6
JWW_HOJO
 62
     3
370
     9
100
AcDbLine
 10
43.01349124392937
 20
-100.6912335961313
 30
0.0
 11
43.08594544419304
 21
-99.7696073805641
 31
0.0
  0
LINE
  5
225
330
1F
100
AcDbEntity
  8
通り芯
  6
JWW_HOJO
 62
     3
370
     9
100
AcDbLine
 10
40.83329514664774
 20
-100.6912335961313
 30
0.0
 11
40.01349124392937
 21
-100.6912335961313
 31
0.0
  0
LINE
  5
226
330
1F
100
AcDbEntity
  8
通り芯
  6
JWW_HOJO
 62
     3
370
     9
100
AcDbLine
 10
40.01349124392937
 20
-100.6912335961313
 30
0.0
 11
39.85271447095693
 21
-99.8873497312695
 31
0.0
  0
LINE
  5
227
330
1F
100
AcDbEntity
  8
通り芯
  6
JWW_HOJO
 62
     3
370
     9
100
AcDbLine
 10
39.01349124392937
 20
-95.69123359613127
 30
0.0
 11
39.10614559837552
 21
-94.79394817423164
 31
0.0
  0
LINE
  5
228
330
1F
100
AcDbEntity
  8
通り芯
  6
JWW_HOJO
 62
     3
370
     9
100
AcDbLine
 10
39.17426801690169
 20
-96.49511746099307
 30
0.0
 11
39.01349124392937
 21
-95.69123359613127
 31
0.0
  0
LINE
  5
229
330
1F
100
AcDbEntity
  8
通り芯
  6
JWW_HOJO
 62
     3
370
     9
100
AcDbLine
 10
38.19368734121053
 20
-95.69123359613127
 30
0.0
 11
39.01349124392937
 21
-95.69123359613127
 31
0.0
  0
LINE
  5
22A
330
1F
100
AcDbEntity
  8
通り芯
  6
JWW_DASHED1
 62
     3
370
     9
100
AcDbLine
 10
39.10614559837552
 20
-94.79394817423164
 30
0.0
 11
40.65983243578513
 21
-79.74769851076061
 31
0.0
  0
LINE
  5
22B
330
1F
100
AcDbEntity
  8
通り芯
  6
JWW_HOJO
 62
     3
370
     9
100
AcDbLine
 10
18.01349124392937
 20
-95.69123359613127
 30
0.0
 11
20.83184490803206
 21
-95.69123359613127
 31
0.0
  0
LINE
  5
22C
330
1F
100
AcDbEntity
  8
通り芯
  6
JWW_HOJO
 62
     3
370
     9
100
AcDbLine
 10
18.01349124392937
 20
-95.69123359613127
 30
0.0
 11
17.8376871725834
 21
-98.50409873766576
 31
0.0
  0
LINE
  5
22D
330
1F
100
AcDbEntity
  8
通り芯
  6
Continuous
 62
     3
370
     9
100
AcDbLine
 10
20.83184490803206
 20
-95.69123359613127
 30
0.0
 11
38.19368734121053
 21
-95.69123359613127
 31
0.0
  0
LINE
  5
22E
330
1F
100
AcDbEntity
  8
通り芯
  6
Continuous
 62
     3
370
     9
100
AcDbLine
 10
17.8376871725834
 20
-98.50409873766576
 30
0.0
 11
15.13069395816001
 21
-141.8159901684416
 31
0.0
  0
LINE
  5
22F
330
1F
100
AcDbEntity
  8
通り芯
  6
JWW_HOJO
 62
     3
370
     9
100
AcDbLine
 10
15.13069395816001
 20
-141.8159901684415
 30
0.0
 11
15.01349124392937
 21
-143.6912335961312
 31
0.0
  0
LINE
  5
230
330
1F
100
AcDbEntity
  8
通り芯
  6
JWW_HOJO
 62
     3
370
     9
100
AcDbLine
 10
13.13458880119424
 20
-143.6912335961312
 30
0.0
 11
15.01349124392937
 21
-143.6912335961312
 31
0.0
  0
LINE
  5
231
330
1F
100
AcDbEntity
  8
通り芯
  6
Continuous
 62
     3
370
     9
100
AcDbLine
 10
-77.10760631333551
 20
-143.6912335961312
 30
0.0
 11
13.13458880119424
 21
-143.6912335961312
 31
0.0
  0
LINE
  5
232
330
1F
100
AcDbEntity
  8
通り芯
  6
Continuous
 62
     3
370
     9
100
AcDbLine
 10
43.08594544419304
 20
-99.7696073805641
 30
0.0
 11
44.73652052836803
 21
-78.77409210606291
 31
0.0
  0
LINE
  5
233
330
1F
100
AcDbEntity
  8
通り芯
  6
Continuous
 62
     3
370
     9
100
AcDbLine
 10
42.08902139998827
 20
-100.6912335961313
 30
0.0
 11
40.83329514664774
 21
-100.6912335961313
 31
0.0
  0
LINE
  5
234
330
1F
100
AcDbEntity
  8
通り芯
  6
Continuous
 62
     3
370
     9
100
AcDbLine
 10
39.85271447095704
 20
-99.8873497312695
 30
0.0
 11
39.17426801690169
 21
-96.49511746099307
 31
0.0
  0
ARC
  5
235
330
1F
100
AcDbEntity
  8
通り芯
  6
JWW_DASHED1
 62
     3
370
     9
100
AcDbCircle
 10
38.11143472809931
 20
-94.6912335961313
 30
0.0
 40
1.0
100
AcDbArc
 50
270.0
 51
354.1044904725048
  0
LINE
  5
236
330
1F
100
AcDbEntity
  8
通り芯
  6
JWW_DASHED1
 62
     3
370
     9
100
AcDbLine
 10
44.33929156165357
 20
-75.43164226981719
 30
0.0
 11
48.42704552387956
 21
-74.3363318967817
 31
0.0
  0
LINE
  5
237
330
1F
100
AcDbEntity
  8
通り芯
  6
Continuous
 62
     3
370
     9
100
AcDbLine
 10
135.8863246964141
 20
-45.72530776984219
 30
0.0
 11
36.94504239483264
 21
-72.23654446065078
 31
0.0
  0
LINE
  5
238
330
1F
100
AcDbEntity
  8
通り芯
  6
Continuous
 62
     3
370
     9
100
AcDbLine
 10
138.0134912439294
 20
-53.69123359613123
 30
0.0
 11
137.1022910605653
 21
-46.40163212921844
 31
0.0
  0
LINE
  5
239
330
1F
100
AcDbEntity
  8
通り芯
  6
Continuous
 62
     3
370
     9
100
AcDbLine
 10
33.17102951791083
 20
-73.24778816324678
 30
0.0
 11
33.56430200282103
 21
-73.14241111850974
 31
0.0
  0
LINE
  5
23A
330
1F
100
AcDbEntity
  8
通り芯
  6
Continuous
 62
     3
370
     9
100
AcDbLine
 10
-71.52120939048572
 20
-45.69120862143731
 30
0.0
 11
-82.98653833102092
 21
-45.69120862143731
 31
0.0
  0
LINE
  5
23B
330
1F
100
AcDbEntity
  8
通り芯
  6
JWW_DASHED1
 62
     3
370
     9
100
AcDbLine
 10
-112.4000630360208
 20
-74.33633189678164
 30
0.0
 11
-108.3123090737949
 21
-75.43164226981719
 31
0.0
  0
ARC
  5
23C
330
1F
100
AcDbEntity
  8
通り芯
  6
JWW_DASHED1
 62
     3
370
     9
100
AcDbCircle
 10
-109.6064042993075
 20
-80.26127140126245
 30
0.0
 40
5.0
100
AcDbArc
 50
5.895509527495419
 51
74.99999999999996
  0
LINE
  5
23D
330
1F
100
AcDbEntity
  8
通り芯
  6
JWW_DASHED1
 62
     3
370
     9
100
AcDbLine
 10
-103.0791631105168
 20
-94.79394817423166
 30
0.0
 11
-104.6328499479264
 21
-79.74769851076054
 31
0.0
  0
ARC
  5
23E
330
1F
100
AcDbEntity
  8
通り芯
  6
JWW_DASHED1
 62
     3
370
     9
100
AcDbCircle
 10
-102.0844522402408
 20
-94.69123359613124
 30
0.0
 40
1.0
100
AcDbArc
 50
185.8955095274954
 51
270.0
  0
LINE
  5
23F
330
1F
100
AcDbEntity
  8
通り芯
  6
Continuous
 62
     3
370
     9
100
AcDbLine
 10
-103.8257319830983
 20
-99.88734973126944
 30
0.0
 11
-103.147285529043
 21
-96.49511746099299
 31
0.0
  0
ARC
  5
240
330
1F
100
AcDbEntity
  8
通り芯
  6
Continuous
 62
     3
370
     9
100
AcDbCircle
 10
-102.1667048533518
 20
-96.69123359613127
 30
0.0
 40
1.0
100
AcDbArc
 50
90.0
 51
168.6900675259798
  0
LINE
  5
241
330
1F
100
AcDbEntity
  8
通り芯
  6
Continuous
 62
     3
370
     9
100
AcDbLine
 10
-107.0589629563343
 20
-99.76960738056408
 30
0.0
 11
-108.7095380405093
 21
-78.77409210606291
 31
0.0
  0
LINE
  5
242
330
1F
100
AcDbEntity
  8
通り芯
  6
Continuous
 62
     3
370
     9
100
AcDbLine
 10
-106.0620389121295
 20
-100.6912335961313
 30
0.0
 11
-104.806312658789
 21
-100.6912335961313
 31
0.0
  0
ARC
  5
243
330
1F
100
AcDbEntity
  8
通り芯
  6
Continuous
 62
     3
370
     9
100
AcDbCircle
 10
-106.0620389121295
 20
-99.6912335961313
 30
0.0
 40
1.0
100
AcDbArc
 50
184.4950969247587
 51
270.0
  0
ARC
  5
244
330
1F
100
AcDbEntity
  8
通り芯
  6
Continuous
 62
     3
370
     9
100
AcDbCircle
 10
-104.806312658789
 20
-99.6912335961313
 30
0.0
 40
1.0
100
AcDbArc
 50
270.0
 51
348.6900675259793
  0
ARC
  5
245
330
1F
100
AcDbEntity
  8
通り芯
  6
Continuous
 62
     3
370
     9
100
AcDbCircle
 10
-113.6941582615334
 20
-79.1659610282269
 30
0.0
 40
5.0
100
AcDbArc
 50
4.495096924758714
 51
75.00000000000017
  0
LINE
  5
246
330
1F
100
AcDbEntity
  8
通り芯
  6
Continuous
 62
     3
370
     9
100
AcDbLine
 10
-201.9865087560709
 20
-53.69123359613116
 30
0.0
 11
-201.0753085727065
 21
-46.40163212921687
 31
0.0
  0
LINE
  5
247
330
1F
100
AcDbEntity
  8
通り芯
  6
Continuous
 62
     3
370
     9
100
AcDbLine
 10
121.7435505015916
 20
-54.69123359613122
 30
0.0
 11
137.0134912439294
 21
-54.69123359613122
 31
0.0
  0
LINE
  5
248
330
1F
100
AcDbEntity
  8
通り芯
  6
Continuous
 62
     3
370
     9
100
AcDbLine
 10
-185.716568013733
 20
-54.69123359613118
 30
0.0
 11
-200.9865087560709
 21
-54.69123359613116
 31
0.0
  0
LINE
  5
249
330
1F
100
AcDbEntity
  8
通り芯
  6
Continuous
 62
     3
370
     9
100
AcDbLine
 10
-81.810704684725
 20
-98.50409873766574
 30
0.0
 11
-79.10371147030128
 21
-141.8159901684416
 31
0.0
  0
LINE
  5
24A
330
1F
100
AcDbEntity
  8
通り芯
  6
Continuous
 62
     3
370
     9
100
AcDbLine
 10
-84.80486242017354
 20
-95.69123359613127
 30
0.0
 11
-102.0844522402408
 21
-95.69123359613126
 31
0.0
  0
ARC
  5
24B
330
1F
100
AcDbEntity
  8
通り芯
  6
JWW_DASHED1
 62
     3
370
     9
100
AcDbCircle
 10
-97.6616851202575
 20
-75.1796398158248
 30
0.0
 40
2.0
100
AcDbArc
 50
13.1411062923607
 51
48.09069769048089
  0
ARC
  5
24C
330
1F
100
AcDbEntity
  8
通り芯
  6
Continuous
 62
     3
370
     9
100
AcDbCircle
 10
-97.6616851202575
 20
-75.1796398158248
 30
0.0
 40
2.0
100
AcDbArc
 50
48.09069769048089
 51
75.00000000000394
  0
LINE
  5
24D
330
1F
100
AcDbEntity
  8
通り芯
  6
Continuous
 62
     3
370
     9
100
AcDbLine
 10
-97.53731951496228
 20
-73.14241111850973
 30
0.0
 11
-97.14404703005263
 21
-73.24778816324661
 31
0.0
  0
ARC
  5
24E
330
1F
100
AcDbEntity
  8
通り芯
  6
JWW_DASHED1
 62
     3
370
     9
100
AcDbCircle
 10
45.63338678716605
 20
-80.26127140126246
 30
0.0
 40
5.0
100
AcDbArc
 50
105.0
 51
174.1044904725046
  0
LINE
  5
24F
330
1F
100
AcDbEntity
  8
通り芯
  6
Continuous
 62
     3
370
     9
100
AcDbLine
 10
48.42704552387956
 20
-74.33633189678156
 30
0.0
 11
124.3996403906492
 21
-53.97953645533375
 31
0.0
  0
ARC
  5
250
330
1F
100
AcDbEntity
  8
通り芯
  6
Continuous
 62
     3
370
     9
100
AcDbCircle
 10
-81.89165037386373
 20
-74.6912335961313
 30
0.0
 40
1.0
100
AcDbArc
 50
5.70088884748877
 51
90.0
  0
ARC
  5
251
330
1F
100
AcDbEntity
  8
通り芯
  6
Continuous
 62
     3
370
     9
100
AcDbCircle
 10
-77.10760631333551
 20
-141.6912335961312
 30
0.0
 40
2.0
100
AcDbArc
 50
183.5763343749975
 51
270.0
  0
ARC
  5
252
330
1F
100
AcDbEntity
  8
通り芯
  6
Continuous
 62
     3
370
     9
100
AcDbCircle
 10
-84.80486242017354
 20
-98.69123359613133
 30
0.0
 40
3.0
100
AcDbArc
 50
3.57633437499736
 51
90.0
  0
ARC
  5
253
330
1F
100
AcDbEntity
  8
通り芯
  6
Continuous
 62
     3
370
     9
100
AcDbCircle
 10
13.13458880119424
 20
-141.6912335961312
 30
0.0
 40
2.0
100
AcDbArc
 50
270.0
 51
356.4236656250026
  0
ARC
  5
254
330
1F
100
AcDbEntity
  8
通り芯
  6
Continuous
 62
     3
370
     9
100
AcDbCircle
 10
20.83184490803206
 20
-98.69123359613134
 30
0.0
 40
3.0
100
AcDbArc
 50
90.0
 51
176.4236656250027
  0
ARC
  5
255
330
1F
100
AcDbEntity
  8
通り芯
  6
Continuous
 62
     3
370
     9
100
AcDbCircle
 10
42.08902139998827
 20
-99.69123359613135
 30
0.0
 40
1.0
100
AcDbArc
 50
270.0
 51
355.5049030752414
  0
ARC
  5
256
330
1F
100
AcDbEntity
  8
通り芯
  6
Continuous
 62
     3
370
     9
100
AcDbCircle
 10
40.83329514664774
 20
-99.69123359613135
 30
0.0
 40
1.0
100
AcDbArc
 50
191.3099324740207
 51
270.0
  0
ARC
  5
257
330
1F
100
AcDbEntity
  8
通り芯
  6
Continuous
 62
     3
370
     9
100
AcDbCircle
 10
38.19368734121053
 20
-96.69123359613128
 30
0.0
 40
1.0
100
AcDbArc
 50
11.3099324740202
 51
90.0
  0
ARC
  5
258
330
1F
100
AcDbEntity
  8
通り芯
  6
Continuous
 62
     3
370
     9
100
AcDbCircle
 10
49.72114074939213
 20
-79.16596102822692
 30
0.0
 40
5.0
100
AcDbArc
 50
104.9999999999998
 51
175.5049030752413
  0
LINE
  5
259
330
1F
100
AcDbEntity
  8
通り芯
  6
Continuous
 62
     3
370
     9
100
AcDbLine
 10
-77.72772825991659
 20
-91.69123359613116
 30
0.0
 11
13.75471074777512
 21
-91.69123359613116
 31
0.0
  0
ARC
  5
25A
330
1F
100
AcDbEntity
  8
通り芯
  6
Continuous
 62
     3
370
     9
100
AcDbCircle
 10
-200.1181612536584
 20
-46.69123359613116
 30
0.0
 40
1.0
100
AcDbArc
 50
75.0000000000004
 51
163.1659020634978
  0
ARC
  5
25B
330
1F
100
AcDbEntity
  8
通り芯
  6
Continuous
 62
     3
370
     9
100
AcDbCircle
 10
136.1451437415167
 20
-46.69123359613123
 30
0.0
 40
1.0
100
AcDbArc
 50
16.83409793650225
 51
104.9999999999996
  0
LINE
  5
25C
330
1F
100
AcDbEntity
  8
通り芯
  6
Continuous
 62
     3
370
     9
100
AcDbLine
 10
-98.76206438635403
 20
-73.84951789969617
 30
0.0
 11
-97.53731951496228
 21
-73.14241111850973
 31
0.0
  0
LINE
  5
25D
330
1F
100
AcDbEntity
  8
通り芯
  6
Continuous
 62
     3
370
     9
100
AcDbLine
 10
-100.2109531257875
 20
-73.46128933204253
 30
0.0
 11
-100.9180599069741
 21
-72.23654446065078
 31
0.0
  0
LINE
  5
25E
330
1F
100
AcDbEntity
  8
通り芯
  6
Continuous
 62
     3
370
     9
100
AcDbLine
 10
-100.2109531257875
 20
-73.46128933204253
 30
0.0
 11
-98.76206438635403
 21
-73.84951789969617
 31
0.0
  0
ARC
  5
25F
330
1F
100
AcDbEntity
  8
通り芯
  6
Continuous
 62
     3
370
     9
100
AcDbCircle
 10
-191.2196673989183
 20
-64.6047205445133
 30
0.0
 40
11.0
100
AcDbArc
 50
75.00000000000003
 51
115.6802982526163
  0
LINE
  5
260
330
1F
100
AcDbEntity
  8
通り芯
  6
Continuous
 62
     3
370
     9
100
AcDbLine
 10
-200.9865087560709
 20
-54.69123359613116
 30
0.0
 11
-201.9865087560709
 21
-53.69123359613116
 31
0.0
  0
LINE
  5
261
330
1F
100
AcDbEntity
  8
通り芯
  6
Continuous
 62
     3
370
     9
100
AcDbLine
 10
34.78904687421256
 20
-73.84951789969607
 30
0.0
 11
33.56430200282103
 21
-73.14241111850974
 31
0.0
  0
LINE
  5
262
330
1F
100
AcDbEntity
  8
通り芯
  6
Continuous
 62
     3
370
     9
100
AcDbLine
 10
36.2379356136462
 20
-73.46128933204253
 30
0.0
 11
36.94504239483264
 21
-72.23654446065078
 31
0.0
  0
LINE
  5
263
330
1F
100
AcDbEntity
  8
通り芯
  6
Continuous
 62
     3
370
     9
100
AcDbLine
 10
36.2379356136462
 20
-73.46128933204253
 30
0.0
 11
34.78904687421256
 21
-73.84951789969607
 31
0.0
  0
ARC
  5
264
330
1F
100
AcDbEntity
  8
通り芯
  6
Continuous
 62
     3
370
     9
100
AcDbCircle
 10
127.2466498867769
 20
-64.60472054451333
 30
0.0
 40
11.0
100
AcDbArc
 50
64.3197017473837
 51
105.0
  0
LINE
  5
265
330
1F
100
AcDbEntity
  8
通り芯
  6
Continuous
 62
     3
370
     9
100
AcDbLine
 10
137.0134912439294
 20
-54.69123359613122
 30
0.0
 11
138.0134912439294
 21
-53.69123359613123
 31
0.0
  0
LINE
  5
266
330
1F
100
AcDbEntity
  8
通り芯
  6
Continuous
 62
     3
370
     9
100
AcDbLine
 10
-199.9865087560709
 20
-45.69123359613116
 30
0.0
 11
-100.9180599069741
 21
-72.23654446065078
 31
0.0
  0
ARC
  5
267
330
1F
100
AcDbEntity
  8
通り芯
  6
Continuous
 62
     3
370
     9
100
AcDbCircle
 10
33.68866760811581
 20
-75.1796398158248
 30
0.0
 40
2.0
100
AcDbArc
 50
104.9999999999961
 51
166.8588937076393
  0
LINE
  5
268
330
1F
100
AcDbEntity
  8
躯体
  6
JWW_CENTER1
 62
     4
370
     9
100
AcDbLine
 10
-86.98650875607052
 20
-37.36216125509623
 30
0.0
 11
-86.98650875607055
 21
-83.0842578197828
 31
0.0
  0
LINE
  5
269
330
1F
100
AcDbEntity
  8
躯体
  6
Continuous
 62
     2
370
     9
100
AcDbLine
 10
-94.97569316142312
 20
-73.82850016756902
 30
0.0
 11
-167.5855796548851
 21
-54.37317118572036
 31
0.0
  0
LINE
  5
26A
330
1F
100
AcDbEntity
  8
仕上
  6
Continuous
 62
     6
370
     9
100
AcDbLine
 10
-101.9866036080028
 20
-57.32857404603033
 30
0.0
 11
-100.4865753291659
 21
-63.32854718113526
 31
0.0
  0
LINE
  5
26B
330
1F
100
AcDbEntity
  8
建具
  6
Continuous
 62
     4
370
     9
100
AcDbLine
 10
33.51353625441146
 20
-95.69123359613127
 30
0.0
 11
38.01348111067949
 21
-95.69123359613127
 31
0.0
  0
LINE
  5
26C
330
1F
100
AcDbEntity
  8
躯体
  6
Continuous
 62
     2
370
     9
100
AcDbLine
 10
-169.4865113482973
 20
-52.82848920951982
 30
0.0
 11
-168.9865369170789
 21
-51.7944201629691
 31
0.0
  0
LINE
  5
26D
330
1F
100
AcDbEntity
  8
躯体
  6
Continuous
 62
     2
370
     9
100
AcDbLine
 10
105.5134938361562
 20
-52.82848920951987
 30
0.0
 11
105.0135543999985
 21
-51.79442016296915
 31
0.0
  0
LINE
  5
26E
330
1F
100
AcDbEntity
  8
躯体
  6
Continuous
 62
     2
370
     9
100
AcDbLine
 10
31.00267564928208
 20
-73.82850016756903
 30
0.0
 11
103.6125971378046
 21
-54.3731711857204
 31
0.0
  0
LINE
  5
26F
330
1F
100
AcDbEntity
  8
躯体
  6
Continuous
 62
     2
370
     9
100
AcDbLine
 10
-118.4377116199627
 20
-60.00177673742153
 30
0.0
 11
-117.9865203032623
 21
-57.3285040559092
 31
0.0
  0
LINE
  5
270
330
1F
100
AcDbEntity
  8
躯体
  6
Continuous
 62
     2
370
     9
100
AcDbLine
 10
-122.1722795051957
 20
-62.40030319792935
 30
0.0
 11
-161.7545276774403
 21
-51.7944201629691
 31
0.0
  0
LINE
  5
271
330
1F
100
AcDbEntity
  8
躯体
  6
Continuous
 62
     2
370
     9
100
AcDbLine
 10
54.46465911276082
 20
-60.00177673742157
 30
0.0
 11
54.01346779606056
 21
-57.32850405590924
 31
0.0
  0
LINE
  5
272
330
1F
100
AcDbEntity
  8
躯体
  6
Continuous
 62
     2
370
     9
100
AcDbLine
 10
58.19929698811528
 20
-62.40030319792939
 30
0.0
 11
97.78151016529918
 21
-51.79442016296915
 31
0.0
  0
LINE
  5
273
330
1F
100
AcDbEntity
  8
躯体
  6
Continuous
 62
     2
370
     9
100
AcDbLine
 10
-114.0138460255037
 20
-62.12653683862207
 30
0.0
 11
-114.9864987406492
 21
-57.3285040559092
 31
0.0
  0
LINE
  5
274
330
1F
100
AcDbEntity
  8
躯体
  6
Continuous
 62
     2
370
     9
100
AcDbLine
 10
-100.2295716039003
 20
-67.12572122983534
 30
0.0
 11
-100.8261673975175
 21
-64.1330486299546
 31
0.0
  0
LINE
  5
275
330
1F
100
AcDbEntity
  8
躯体
  6
Continuous
 62
     2
370
     9
100
AcDbLine
 10
-98.78599035785932
 20
-68.66648375924524
 30
0.0
 11
-98.18113572993333
 21
-68.828650870204
 31
0.0
  0
LINE
  5
276
330
1F
100
AcDbEntity
  8
躯体
  6
JWW_DASHED1
 62
     2
370
     9
100
AcDbLine
 10
-112.2901293191211
 20
-65.04816946542448
 30
0.0
 11
-99.68823301101749
 21
-68.42473788041457
 31
0.0
  0
LINE
  5
277
330
1F
100
AcDbEntity
  8
躯体
  6
Continuous
 62
     2
370
     9
100
AcDbLine
 10
36.25655409175907
 20
-67.12572122983534
 30
0.0
 11
36.8531498853764
 21
-64.13304862995463
 31
0.0
  0
LINE
  5
278
330
1F
100
AcDbEntity
  8
躯体
  6
Continuous
 62
     2
370
     9
100
AcDbLine
 10
50.0408285133626
 20
-62.12653683862211
 30
0.0
 11
51.01341123838675
 21
-57.32850405590924
 31
0.0
  0
LINE
  5
279
330
1F
100
AcDbEntity
  8
躯体
  6
Continuous
 62
     2
370
     9
100
AcDbLine
 10
34.81283286547567
 20
-68.66651875430605
 30
0.0
 11
30.47613996704569
 21
-69.82859973264046
 31
0.0
  0
LINE
  5
27A
330
1F
100
AcDbEntity
  8
躯体
  6
Continuous
 62
     2
370
     9
100
AcDbLine
 10
23.82420885240708
 20
-70.5860678199731
 30
0.0
 11
23.01361826303844
 21
-73.82850016756903
 31
0.0
  0
LINE
  5
27B
330
1F
100
AcDbEntity
  8
躯体
  6
Continuous
 62
     2
370
     9
100
AcDbLine
 10
-81.14737745601701
 20
-69.63252240793167
 30
0.0
 11
-81.98664649757177
 21
-73.82857015769036
 31
0.0
  0
LINE
  5
27C
330
1F
100
AcDbEntity
  8
躯体
  6
Continuous
 62
     2
370
     9
100
AcDbLine
 10
-92.82547415361444
 20
-69.63252240793167
 30
0.0
 11
-91.98620511205957
 21
-73.82857015769036
 31
0.0
  0
LINE
  5
27D
330
1F
100
AcDbEntity
  8
躯体
  6
Continuous
 62
     2
370
     9
100
AcDbLine
 10
-76.21615347254692
 20
-68.828650870204
 30
0.0
 11
-98.18113572993333
 21
-68.828650870204
 31
0.0
  0
LINE
  5
27E
330
1F
100
AcDbEntity
  8
躯体
  6
Continuous
 62
     2
370
     9
100
AcDbLine
 10
-74.7452760792147
 20
-70.0344756743259
 30
0.0
 11
-73.98646068204789
 21
-73.82850016756902
 31
0.0
  0
ARC
  5
27F
330
1F
100
AcDbEntity
  8
躯体
  6
Continuous
 62
     2
370
     9
100
AcDbCircle
 10
-166.8091442446911
 20
-51.47540519026755
 30
0.0
 40
2.999999964099133
100
AcDbArc
 50
206.8109436035156
 51
255.0001373291015
  0
ARC
  5
280
330
1F
100
AcDbEntity
  8
躯体
  6
Continuous
 62
     2
370
     9
100
AcDbCircle
 10
102.8360917374894
 20
-51.47540519026759
 30
0.0
 40
2.999999964099133
100
AcDbArc
 50
284.9998626708984
 51
333.1890563964844
  0
ARC
  5
281
330
1F
100
AcDbEntity
  8
躯体
  6
Continuous
 62
     2
370
     9
100
AcDbCircle
 10
-121.3958090999411
 20
-59.50250220741576
 30
0.0
 40
2.999999964099133
100
AcDbArc
 50
255.000259399414
 51
350.4197540283203
  0
ARC
  5
282
330
1F
100
AcDbEntity
  8
躯体
  6
JWW_DASHED1
 62
     2
370
     9
100
AcDbCircle
 10
-111.7725523724059
 20
-63.11630213841544
 30
0.0
 40
1.999999976066088
100
AcDbArc
 50
191.459976196289
 51
255.0006408691406
  0
ARC
  5
283
330
1F
100
AcDbEntity
  8
躯体
  6
Continuous
 62
     2
370
     9
100
AcDbCircle
 10
57.42279158780011
 20
-59.5025022074158
 30
0.0
 40
2.999999964099133
100
AcDbArc
 50
189.5802459716797
 51
284.9997406005859
  0
ARC
  5
284
330
1F
100
AcDbEntity
  8
躯体
  6
Continuous
 62
     2
370
     9
100
AcDbCircle
 10
-101.8068689766078
 20
-64.32853103863272
 30
0.0
 40
0.9999999880330441
100
AcDbArc
 50
11.27430725097656
 51
90.0
  0
ARC
  5
285
330
1F
100
AcDbEntity
  8
躯体
  6
Continuous
 62
     2
370
     9
100
AcDbCircle
 10
-98.26820344078043
 20
-66.73468642235753
 30
0.0
 40
1.999999976066088
100
AcDbArc
 50
191.2741546630859
 51
254.9946136474609
  0
ARC
  5
286
330
1F
100
AcDbEntity
  8
躯体
  6
Continuous
 62
     2
370
     9
100
AcDbCircle
 10
48.57075600642494
 20
-61.82855389735916
 30
0.0
 40
1.499999982049566
100
AcDbArc
 50
270.0
 51
348.5397491455078
  0
ARC
  5
287
330
1F
100
AcDbEntity
  8
躯体
  6
Continuous
 62
     2
370
     9
100
AcDbCircle
 10
37.83385146446663
 20
-64.32853103863275
 30
0.0
 40
0.9999999880330441
100
AcDbArc
 50
90.0
 51
168.7256927490234
  0
ARC
  5
288
330
1F
100
AcDbEntity
  8
躯体
  6
Continuous
 62
     2
370
     9
100
AcDbCircle
 10
34.29518592863926
 20
-66.73468642235756
 30
0.0
 40
1.999999976066088
100
AcDbArc
 50
285.0053863525391
 51
348.725845336914
  0
ARC
  5
289
330
1F
100
AcDbEntity
  8
躯体
  6
Continuous
 62
     2
370
     9
100
AcDbCircle
 10
24.79434192318705
 20
-70.82858359013792
 30
0.0
 40
0.9999999880330441
100
AcDbArc
 50
90.0
 51
165.9647216796875
  0
ARC
  5
28A
330
1F
100
AcDbEntity
  8
躯体
  6
Continuous
 62
     2
370
     9
100
AcDbCircle
 10
-80.16679835963896
 20
-69.82863472770123
 30
0.0
 40
0.9999999880330441
100
AcDbArc
 50
90.0
 51
168.6902618408203
  0
ARC
  5
28B
330
1F
100
AcDbEntity
  8
躯体
  6
Continuous
 62
     2
370
     9
100
AcDbCircle
 10
-93.80605324999249
 20
-69.82863472770123
 30
0.0
 40
0.9999999880330441
100
AcDbArc
 50
11.30973815917969
 51
90.0
  0
ARC
  5
28C
330
1F
100
AcDbEntity
  8
躯体
  6
Continuous
 62
     2
370
     9
100
AcDbCircle
 10
-76.21615347254692
 20
-70.32864415398012
 30
0.0
 40
1.499999982049566
100
AcDbArc
 50
11.30967712402344
 51
90.0
  0
LINE
  5
28D
330
1F
100
AcDbEntity
  8
躯体
  6
Continuous
 62
     2
370
     9
100
AcDbLine
 10
30.47613996704569
 20
-69.82859973264046
 30
0.0
 11
-74.78645183723506
 21
-69.82859973264044
 31
0.0
  0
ARC
  5
28E
330
1F
100
AcDbEntity
  8
躯体
  6
Continuous
 62
     2
370
     9
100
AcDbCircle
 10
-112.543773518566
 20
-61.82855389735912
 30
0.0
 40
1.499999982049566
100
AcDbArc
 50
191.4602508544922
 51
269.8287724662684
  0
LINE
  5
28F
330
1F
100
AcDbEntity
  8
躯体
  6
JWW_DASHED1
 62
     2
370
     9
100
AcDbLine
 10
-113.7326957084038
 20
-63.51367105186704
 30
0.0
 11
-114.0140062692732
 21
-62.12661409327095
 31
0.0
  0
LINE
  5
290
330
1F
100
AcDbEntity
  8
仕上
  6
Continuous
 62
     6
370
     9
100
AcDbLine
 10
-53.56882002546993
 20
36.41143504090269
 30
0.0
 11
-10.40428497432301
 21
36.41143504090269
 31
0.0
  0
LINE
  5
291
330
1F
100
AcDbEntity
  8
仕上
  6
Continuous
 62
     6
370
     9
100
AcDbLine
 10
-71.76878869487523
 20
-49.23176686810734
 30
0.0
 11
-73.26874698359079
 21
-54.81004952262288
 31
0.0
  0
LINE
  5
292
330
1F
100
AcDbEntity
  8
仕上
  6
Continuous
 62
     6
370
     9
100
AcDbLine
 10
-71.76878869487523
 20
-49.23176686810734
 30
0.0
 11
-63.87518033649941
 21
63.65159023515959
 31
0.0
  0
LINE
  5
293
330
1F
100
AcDbEntity
  8
仕上
  6
Continuous
 62
     6
370
     9
100
AcDbLine
 10
-50.98651700406459
 20
83.81175473315355
 30
0.0
 11
-53.98652106914758
 21
71.78101280958937
 31
0.0
  0
LINE
  5
294
330
1F
100
AcDbEntity
  8
仕上
  6
Continuous
 62
     6
370
     9
100
AcDbLine
 10
-58.65801171262299
 20
37.91146331973958
 30
0.0
 11
-5.315005799518326
 21
37.91146331973958
 31
0.0
  0
LINE
  5
295
330
1F
100
AcDbEntity
  8
仕上
  6
Continuous
 62
     6
370
     9
100
AcDbLine
 10
-59.42720314526653
 20
26.91146591196616
 30
0.0
 11
-4.545814366874566
 21
26.91146591196615
 31
0.0
  0
LINE
  5
296
330
1F
100
AcDbEntity
  8
仕上
  6
Continuous
 62
     6
370
     9
100
AcDbLine
 10
-54.36784474730032
 20
36.82255701318194
 30
0.0
 11
-58.65801171262299
 21
37.91146331973958
 31
0.0
  0
LINE
  5
297
330
1F
100
AcDbEntity
  8
仕上
  6
Continuous
 62
     6
370
     9
100
AcDbLine
 10
-53.20581626155675
 20
29.86700875251904
 30
0.0
 11
-52.86480689324938
 21
34.74448032286158
 31
0.0
  0
LINE
  5
298
330
1F
100
AcDbEntity
  8
仕上
  6
Continuous
 62
     6
370
     9
100
AcDbLine
 10
-54.7248293607852
 20
28.06406322887028
 30
0.0
 11
-59.42720314526653
 21
26.91146591196616
 31
0.0
  0
LINE
  5
299
330
1F
100
AcDbEntity
  8
仕上
  6
Continuous
 62
     6
370
     9
100
AcDbLine
 10
-53.99446494791052
 20
28.41142420068194
 30
0.0
 11
-9.978552564230794
 21
28.41142420068193
 31
0.0
  0
LINE
  5
29A
330
1F
100
AcDbEntity
  8
仕上
  6
Continuous
 62
     6
370
     9
100
AcDbLine
 10
-64.35700982878124
 20
-43.58860337118404
 30
0.0
 11
0.3839223265185403
 21
-43.58860337118406
 31
0.0
  0
LINE
  5
29B
330
1F
100
AcDbEntity
  8
仕上
  6
Continuous
 62
     6
370
     9
100
AcDbLine
 10
-64.98650097939053
 20
-52.58856307384144
 30
0.0
 11
1.013413477128047
 21
-52.58856307384146
 31
0.0
  0
LINE
  5
29C
330
1F
100
AcDbEntity
  8
仕上
  6
Continuous
 62
     6
370
     9
100
AcDbLine
 10
-64.7765656106722
 20
-49.58850651616763
 30
0.0
 11
0.8034781084097169
 21
-49.58850651616764
 31
0.0
  0
LINE
  5
29D
330
1F
100
AcDbEntity
  8
仕上
  6
Continuous
 62
     6
370
     9
100
AcDbLine
 10
-64.7765656106722
 20
-46.5885899387365
 30
0.0
 11
0.8034781084097169
 21
-46.58858993873652
 31
0.0
  0
LINE
  5
29E
330
1F
100
AcDbEntity
  8
仕上
  6
Continuous
 62
     6
370
     9
100
AcDbLine
 10
-64.98650097939053
 20
-52.59087274784292
 30
0.0
 11
-64.7765656106722
 21
-49.58850651616763
 31
0.0
  0
LINE
  5
29F
330
1F
100
AcDbEntity
  8
仕上
  6
Continuous
 62
     6
370
     9
100
AcDbLine
 10
-64.56680521725687
 20
-46.5885899387365
 30
0.0
 11
-56.89217845077226
 21
63.16333914925214
 31
0.0
  0
LINE
  5
2A0
330
1F
100
AcDbEntity
  8
仕上
  6
Continuous
 62
     6
370
     9
100
AcDbLine
 10
38.01351610574007
 20
-57.32857404603033
 30
0.0
 11
36.51348782690316
 21
-63.3285471811353
 31
0.0
  0
LINE
  5
2A1
330
1F
100
AcDbEntity
  8
仕上
  6
Continuous
 62
     6
370
     9
100
AcDbLine
 10
36.51348782690316
 20
-63.3285471811353
 30
0.0
 11
33.51350125935069
 21
-61.29911362509031
 31
0.0
  0
LINE
  5
2A2
330
1F
100
AcDbEntity
  8
仕上
  6
Continuous
 62
     6
370
     9
100
AcDbLine
 10
7.79570119261275
 20
-49.23176686810736
 30
0.0
 11
9.295624486267752
 21
-54.8100495226229
 31
0.0
  0
LINE
  5
2A3
330
1F
100
AcDbEntity
  8
仕上
  6
Continuous
 62
     6
370
     9
100
AcDbLine
 10
33.51350125935069
 20
-61.29911362509031
 30
0.0
 11
1.013413477128047
 21
-52.59087274784294
 31
0.0
  0
LINE
  5
2A4
330
1F
100
AcDbEntity
  8
仕上
  6
Continuous
 62
     6
370
     9
100
AcDbLine
 10
7.79570119261275
 20
-49.23176686810736
 30
0.0
 11
-0.0978371756418994
 21
63.65159023515959
 31
0.0
  0
LINE
  5
2A5
330
1F
100
AcDbEntity
  8
仕上
  6
Continuous
 62
     6
370
     9
100
AcDbLine
 10
-12.98650050807648
 20
83.81175473315355
 30
0.0
 11
-9.986496442993728
 21
71.78101280958937
 31
0.0
  0
LINE
  5
2A6
330
1F
100
AcDbEntity
  8
仕上
  6
Continuous
 62
     6
370
     9
100
AcDbLine
 10
-9.605172764840768
 20
36.82255701318194
 30
0.0
 11
-5.315005799518326
 21
37.91146331973958
 31
0.0
  0
LINE
  5
2A7
330
1F
100
AcDbEntity
  8
仕上
  6
Continuous
 62
     6
370
     9
100
AcDbLine
 10
-10.7671837530543
 20
29.86700875251903
 30
0.0
 11
-11.10828060901306
 21
34.74448032286158
 31
0.0
  0
LINE
  5
2A8
330
1F
100
AcDbEntity
  8
仕上
  6
Continuous
 62
     6
370
     9
100
AcDbLine
 10
-9.248188151355892
 20
28.06406322887027
 30
0.0
 11
-4.545814366874566
 21
26.91146591196615
 31
0.0
  0
LINE
  5
2A9
330
1F
100
AcDbEntity
  8
仕上
  6
Continuous
 62
     6
370
     9
100
AcDbLine
 10
1.013413477128047
 20
-52.59087274784294
 30
0.0
 11
0.8034781084097169
 21
-49.58850651616764
 31
0.0
  0
LINE
  5
2AA
330
1F
100
AcDbEntity
  8
仕上
  6
Continuous
 62
     6
370
     9
100
AcDbLine
 10
49.01344352339215
 20
-57.32857404603035
 30
0.0
 11
48.01352965601603
 21
-56.32855519347235
 31
0.0
  0
LINE
  5
2AB
330
1F
100
AcDbEntity
  8
仕上
  6
Continuous
 62
     6
370
     9
100
AcDbLine
 10
38.01351610574007
 20
-57.32857404603033
 30
0.0
 11
37.01346225812149
 21
-56.32855519347233
 31
0.0
  0
LINE
  5
2AC
330
1F
100
AcDbEntity
  8
仕上
  6
Continuous
 62
     6
370
     9
100
AcDbLine
 10
0.593717714994412
 20
-46.58858993873652
 30
0.0
 11
-7.080839061369055
 21
63.16333914925214
 31
0.0
  0
LINE
  5
2AD
330
1F
100
AcDbEntity
  8
仕上
  6
Continuous
 62
     6
370
     9
100
AcDbLine
 10
-79.48652937605588
 20
-63.32854718113526
 30
0.0
 11
38.27013488533857
 21
-63.3285471811353
 31
0.0
  0
LINE
  5
2AE
330
1F
100
AcDbEntity
  8
仕上
  6
Continuous
 62
     6
370
     9
100
AcDbLine
 10
48.01352965601603
 20
-56.32855519347235
 30
0.0
 11
34.28150285993293
 21
-56.32855519347233
 31
0.0
  0
LINE
  5
2AF
330
1F
100
AcDbEntity
  8
仕上
  6
Continuous
 62
     6
370
     9
100
AcDbLine
 10
34.28150285993293
 20
-56.32855519347233
 30
0.0
 11
7.79570119261275
 21
-49.23176686810736
 31
0.0
  0
LINE
  5
2B0
330
1F
100
AcDbEntity
  8
仕上
  6
Continuous
 62
     6
370
     9
100
AcDbLine
 10
47.79750514674807
 20
-62.19239754272737
 30
0.0
 11
49.01344352339215
 21
-57.32857404603035
 31
0.0
  0
LINE
  5
2B1
330
1F
100
AcDbEntity
  8
仕上
  6
Continuous
 62
     6
370
     9
100
AcDbLine
 10
-112.9865310256546
 20
-57.32857404603033
 30
0.0
 11
-111.9866171582787
 21
-56.3285551934723
 31
0.0
  0
LINE
  5
2B2
330
1F
100
AcDbEntity
  8
仕上
  6
Continuous
 62
     6
370
     9
100
AcDbLine
 10
-101.9866036080028
 20
-57.32857404603033
 30
0.0
 11
-100.9865497603842
 21
-56.3285551934723
 31
0.0
  0
LINE
  5
2B3
330
1F
100
AcDbEntity
  8
仕上
  6
Continuous
 62
     6
370
     9
100
AcDbLine
 10
-111.7705926490108
 20
-62.19239754272733
 30
0.0
 11
-112.9865310256546
 21
-57.32857404603033
 31
0.0
  0
LINE
  5
2B4
330
1F
100
AcDbEntity
  8
仕上
  6
Continuous
 62
     6
370
     9
100
AcDbLine
 10
31.51349854929544
 20
-55.58686987848365
 30
0.0
 11
30.01350526551933
 21
-60.36124600021095
 31
0.0
  0
LINE
  5
2B5
330
1F
100
AcDbEntity
  8
仕上
  6
Continuous
 62
     6
370
     9
100
AcDbLine
 10
-95.48658605155815
 20
-55.58686987848363
 30
0.0
 11
-93.9865927677818
 21
-60.36124600021095
 31
0.0
  0
LINE
  5
2B6
330
1F
100
AcDbEntity
  8
仕上
  6
Continuous
 62
     6
370
     9
100
AcDbLine
 10
-111.9866171582787
 20
-56.3285551934723
 30
0.0
 11
-98.25446787948322
 21
-56.3285551934723
 31
0.0
  0
LINE
  5
2B7
330
1F
100
AcDbEntity
  8
仕上
  6
Continuous
 62
     6
370
     9
100
AcDbLine
 10
-100.4865753291659
 20
-63.32854718113526
 30
0.0
 11
-97.48655376655262
 21
-61.29904363496894
 31
0.0
  0
LINE
  5
2B8
330
1F
100
AcDbEntity
  8
仕上
  6
JWW_CENTER1
 62
     6
370
     9
100
AcDbLine
 10
-107.9864717579258
 20
-50.2837183906397
 30
0.0
 11
-107.9864717579258
 21
-70.42925495329061
 31
0.0
  0
LINE
  5
2B9
330
1F
100
AcDbEntity
  8
仕上
  6
Continuous
 62
     6
370
     9
100
AcDbLine
 10
-98.25446787948322
 20
-56.3285551934723
 30
0.0
 11
-90.98653621010821
 21
-54.38115005954364
 31
0.0
  0
LINE
  5
2BA
330
1F
100
AcDbEntity
  8
仕上
  6
Continuous
 62
     6
370
     9
100
AcDbLine
 10
-82.98656036494803
 20
-52.2375626157243
 30
0.0
 11
-71.76878869487523
 21
-49.23176686810734
 31
0.0
  0
LINE
  5
2BB
330
1F
100
AcDbEntity
  8
仕上
  6
Continuous
 62
     6
370
     9
100
AcDbLine
 10
-97.48655376655262
 20
-61.29904363496894
 30
0.0
 11
-90.98653621010821
 21
-59.55740945754382
 31
0.0
  0
LINE
  5
2BC
330
1F
100
AcDbEntity
  8
仕上
  6
Continuous
 62
     6
370
     9
100
AcDbLine
 10
-82.98656036494803
 20
-57.4138920038456
 30
0.0
 11
-64.98650097939053
 21
-52.59087274784292
 31
0.0
  0
LINE
  5
2BD
330
1F
100
AcDbEntity
  8
仕上
  6
Continuous
 62
     6
370
     9
100
AcDbLine
 10
-102.2432223876013
 20
-63.32861717125639
 30
0.0
 11
-94.48656719900013
 21
-63.32861717125639
 31
0.0
  0
ARC
  5
2BE
330
1F
100
AcDbEntity
  8
仕上
  6
Continuous
 62
     6
370
     9
100
AcDbCircle
 10
-38.93607286136582
 20
61.90771637385411
 30
0.0
 40
18.00000142498826
100
AcDbArc
 50
102.5430908203125
 51
175.999984741211
  0
ARC
  5
2BF
330
1F
100
AcDbEntity
  8
仕上
  6
Continuous
 62
     6
370
     9
100
AcDbCircle
 10
-31.98654375113122
 20
30.67147520627735
 30
0.0
 40
50.00000213564132
100
AcDbArc
 50
77.45690917968749
 51
102.5430603027343
  0
ARC
  5
2C0
330
1F
100
AcDbEntity
  8
仕上
  6
Continuous
 62
     6
370
     9
100
AcDbCircle
 10
-31.98654375113122
 20
30.67147520627735
 30
0.0
 40
57.00000287206937
100
AcDbArc
 50
77.45690917968749
 51
102.5430603027343
  0
ARC
  5
2C1
330
1F
100
AcDbEntity
  8
仕上
  6
Continuous
 62
     6
370
     9
100
AcDbCircle
 10
-38.93607286136582
 20
61.90771637385411
 30
0.0
 40
25.00000106782066
100
AcDbArc
 50
102.5430908203125
 51
175.999984741211
  0
ARC
  5
2C2
330
1F
100
AcDbEntity
  8
仕上
  6
Continuous
 62
     6
370
     9
100
AcDbCircle
 10
-54.85992779234677
 20
34.88404062465337
 30
0.0
 40
1.999999976066088
100
AcDbArc
 50
356.0001831054688
 51
75.75796508789062
  0
ARC
  5
2C3
330
1F
100
AcDbEntity
  8
仕上
  6
Continuous
 62
     6
370
     9
100
AcDbCircle
 10
-55.20095465818443
 20
30.00656905431083
 30
0.0
 40
1.999999976066088
100
AcDbArc
 50
283.7721710205078
 51
355.9997863769532
  0
ARC
  5
2C4
330
1F
100
AcDbEntity
  8
仕上
  6
Continuous
 62
     6
370
     9
100
AcDbCircle
 10
-64.7765656106722
 20
-48.08861821757341
 30
0.0
 40
1.499999982049566
100
AcDbArc
 50
90.0
 51
270.0
  0
ARC
  5
2C5
330
1F
100
AcDbEntity
  8
仕上
  6
Continuous
 62
     6
370
     9
100
AcDbCircle
 10
-25.03694465077526
 20
61.90771637385411
 30
0.0
 40
18.00000142498826
100
AcDbArc
 50
4.000015258789052
 51
77.45690917968749
  0
ARC
  5
2C6
330
1F
100
AcDbEntity
  8
仕上
  6
Continuous
 62
     6
370
     9
100
AcDbCircle
 10
-25.03694465077526
 20
61.90771637385411
 30
0.0
 40
25.00000106782066
100
AcDbArc
 50
4.000015258789052
 51
77.45690917968749
  0
ARC
  5
2C7
330
1F
100
AcDbEntity
  8
仕上
  6
Continuous
 62
     6
370
     9
100
AcDbCircle
 10
-9.113229700037012
 20
34.88404062465337
 30
0.0
 40
1.999999976066088
100
AcDbArc
 50
104.2420349121094
 51
183.9998168945312
  0
ARC
  5
2C8
330
1F
100
AcDbEntity
  8
仕上
  6
Continuous
 62
     6
370
     9
100
AcDbCircle
 10
-8.772062853956896
 20
30.00656905431082
 30
0.0
 40
1.999999976066088
100
AcDbArc
 50
184.0002136230469
 51
256.2278289794922
  0
ARC
  5
2C9
330
1F
100
AcDbEntity
  8
仕上
  6
Continuous
 62
     6
370
     9
100
AcDbCircle
 10
0.8034781084097169
 20
-48.08861821757343
 30
0.0
 40
1.499999982049566
100
AcDbArc
 50
270.0
 51
90.0
  0
ARC
  5
2CA
330
1F
100
AcDbEntity
  8
仕上
  6
Continuous
 62
     6
370
     9
100
AcDbCircle
 10
46.34227054551747
 20
-61.8285888924195
 30
0.0
 40
1.499999982049566
100
AcDbArc
 50
296.5811920166016
 51
345.9637603759766
  0
ARC
  5
2CB
330
1F
100
AcDbEntity
  8
仕上
  6
Continuous
 62
     6
370
     9
100
AcDbCircle
 10
-110.31535804778
 20
-61.82858889241945
 30
0.0
 40
1.499999982049566
100
AcDbArc
 50
194.0362396240234
 51
243.4188079833985
  0
LINE
  5
2CC
330
1F
100
AcDbEntity
  8
0-A
  6
Continuous
 62
     4
370
     9
100
AcDbLine
 10
38.01344611561863
 20
-53.72842218867642
 30
0.0
 11
38.01344611561863
 21
-56.32848520335121
 31
0.0
  0
LINE
  5
2CD
330
1F
100
AcDbEntity
  8
0-A
  6
Continuous
 62
     4
370
     9
100
AcDbLine
 10
50.01339238582851
 20
-53.72842218867643
 30
0.0
 11
50.01339238582851
 21
-56.32848520335121
 31
0.0
  0
LINE
  5
2CE
330
1F
100
AcDbEntity
  8
0-A
  6
Continuous
 62
     4
370
     9
100
AcDbLine
 10
44.49250163074598
 20
-52.3609551995053
 30
0.0
 11
43.53444185588329
 21
-52.3609551995053
 31
0.0
  0
LINE
  5
2CF
330
1F
100
AcDbEntity
  8
0-A
  6
Continuous
 62
     4
370
     9
100
AcDbLine
 10
43.53444185588329
 20
-51.73986286344714
 30
0.0
 11
43.53444185588329
 21
-52.3609551995053
 31
0.0
  0
LINE
  5
2D0
330
1F
100
AcDbEntity
  8
0-A
  6
Continuous
 62
     4
370
     9
100
AcDbLine
 10
44.49250163074598
 20
-51.73986286344714
 30
0.0
 11
44.49250163074598
 21
-52.3609551995053
 31
0.0
  0
LINE
  5
2D1
330
1F
100
AcDbEntity
  8
0-A
  6
Continuous
 62
     4
370
     9
100
AcDbLine
 10
41.01336269304998
 20
-58.32845291834588
 30
0.0
 11
47.01340581827603
 21
-58.3284529183459
 31
0.0
  0
LINE
  5
2D2
330
1F
100
AcDbEntity
  8
0-A
  6
Continuous
 62
     4
370
     9
100
AcDbLine
 10
46.14339361595794
 20
-58.3284529183459
 30
0.0
 11
47.19541512861188
 21
-56.45607719440753
 31
0.0
  0
LINE
  5
2D3
330
1F
100
AcDbEntity
  8
0-A
  6
Continuous
 62
     4
370
     9
100
AcDbLine
 10
47.01340581827603
 20
-58.3284529183459
 30
0.0
 11
46.57246805434021
 21
-57.56486069540304
 31
0.0
  0
LINE
  5
2D4
330
1F
100
AcDbEntity
  8
0-A
  6
Continuous
 62
     4
370
     9
100
AcDbLine
 10
41.88337489536808
 20
-58.32845291834588
 30
0.0
 11
40.83142337283549
 21
-56.45607719440753
 31
0.0
  0
LINE
  5
2D5
330
1F
100
AcDbEntity
  8
0-A
  6
Continuous
 62
     4
370
     9
100
AcDbLine
 10
41.01336269304998
 20
-58.32845291834588
 30
0.0
 11
41.45437044710694
 21
-57.56486069540302
 31
0.0
  0
LINE
  5
2D6
330
1F
100
AcDbEntity
  8
0-A
  6
Continuous
 62
     4
370
     9
100
AcDbLine
 10
46.14339361595794
 20
-68.32850146368244
 30
0.0
 11
47.01340581827603
 21
-67.45852425642488
 31
0.0
  0
LINE
  5
2D7
330
1F
100
AcDbEntity
  8
0-A
  6
Continuous
 62
     4
370
     9
100
AcDbLine
 10
41.88337489536808
 20
-68.32850146368244
 30
0.0
 11
41.01336269304998
 21
-67.45852425642488
 31
0.0
  0
LINE
  5
2D8
330
1F
100
AcDbEntity
  8
0-A
  6
Continuous
 62
     4
370
     9
100
AcDbLine
 10
41.88337489536808
 20
-58.32845291834588
 30
0.0
 11
41.88337489536808
 21
-68.32850146368244
 31
0.0
  0
LINE
  5
2D9
330
1F
100
AcDbEntity
  8
0-A
  6
Continuous
 62
     4
370
     9
100
AcDbLine
 10
46.14339361595794
 20
-58.3284529183459
 30
0.0
 11
46.14339361595794
 21
-68.32850146368244
 31
0.0
  0
LINE
  5
2DA
330
1F
100
AcDbEntity
  8
0-A
  6
Continuous
 62
     4
370
     9
100
AcDbLine
 10
41.88337489536808
 20
-68.32850146368244
 30
0.0
 11
46.14339361595794
 21
-68.32850146368244
 31
0.0
  0
LINE
  5
2DB
330
1F
100
AcDbEntity
  8
0-A
  6
Continuous
 62
     4
370
     9
100
AcDbLine
 10
41.01336269304998
 20
-67.45852425642488
 30
0.0
 11
47.01340581827603
 21
-67.45852425642488
 31
0.0
  0
LINE
  5
2DC
330
1F
100
AcDbEntity
  8
0-A
  6
Continuous
 62
     4
370
     9
100
AcDbLine
 10
41.01336269304998
 20
-58.32845291834588
 30
0.0
 11
41.01336269304998
 21
-67.45852425642488
 31
0.0
  0
LINE
  5
2DD
330
1F
100
AcDbEntity
  8
0-A
  6
Continuous
 62
     4
370
     9
100
AcDbLine
 10
47.01340581827603
 20
-58.3284529183459
 30
0.0
 11
47.01340581827603
 21
-67.45852425642488
 31
0.0
  0
LINE
  5
2DE
330
1F
100
AcDbEntity
  8
0-A
  6
Continuous
 62
     4
370
     9
100
AcDbLine
 10
-101.9866735981242
 20
-53.7284221886764
 30
0.0
 11
-101.9866735981242
 21
-56.32848520335119
 31
0.0
  0
LINE
  5
2DF
330
1F
100
AcDbEntity
  8
0-A
  6
Continuous
 62
     4
370
     9
100
AcDbLine
 10
-113.9866198683341
 20
-53.7284221886764
 30
0.0
 11
-113.9866198683341
 21
-56.32848520335117
 31
0.0
  0
LINE
  5
2E0
330
1F
100
AcDbEntity
  8
0-A
  6
Continuous
 62
     4
370
     9
100
AcDbLine
 10
-108.4657291132513
 20
-52.36095519950526
 30
0.0
 11
-107.5076693383886
 21
-52.36095519950526
 31
0.0
  0
LINE
  5
2E1
330
1F
100
AcDbEntity
  8
0-A
  6
Continuous
 62
     4
370
     9
100
AcDbLine
 10
-107.5076693383886
 20
-51.73986286344712
 30
0.0
 11
-107.5076693383886
 21
-52.36095519950526
 31
0.0
  0
LINE
  5
2E2
330
1F
100
AcDbEntity
  8
0-A
  6
Continuous
 62
     4
370
     9
100
AcDbLine
 10
-108.4657291132513
 20
-51.73986286344712
 30
0.0
 11
-108.4657291132513
 21
-52.36095519950526
 31
0.0
  0
LINE
  5
2E3
330
1F
100
AcDbEntity
  8
0-A
  6
Continuous
 62
     4
370
     9
100
AcDbLine
 10
-104.9865901755553
 20
-58.32845291834588
 30
0.0
 11
-110.9866333007816
 21
-58.32845291834588
 31
0.0
  0
LINE
  5
2E4
330
1F
100
AcDbEntity
  8
0-A
  6
Continuous
 62
     4
370
     9
100
AcDbLine
 10
-110.1166210984635
 20
-58.32845291834588
 30
0.0
 11
-111.1686426111172
 21
-56.45607719440749
 31
0.0
  0
LINE
  5
2E5
330
1F
100
AcDbEntity
  8
0-A
  6
Continuous
 62
     4
370
     9
100
AcDbLine
 10
-110.9866333007816
 20
-58.32845291834588
 30
0.0
 11
-110.5456955368458
 21
-57.56486069540302
 31
0.0
  0
LINE
  5
2E6
330
1F
100
AcDbEntity
  8
0-A
  6
Continuous
 62
     4
370
     9
100
AcDbLine
 10
-105.8566023778734
 20
-58.32845291834588
 30
0.0
 11
-104.8046508553408
 21
-56.45607719440749
 31
0.0
  0
LINE
  5
2E7
330
1F
100
AcDbEntity
  8
0-A
  6
Continuous
 62
     4
370
     9
100
AcDbLine
 10
-104.9865901755553
 20
-58.32845291834588
 30
0.0
 11
-105.4275979296123
 21
-57.56486069540302
 31
0.0
  0
LINE
  5
2E8
330
1F
100
AcDbEntity
  8
0-A
  6
Continuous
 62
     4
370
     9
100
AcDbLine
 10
-110.1166210984635
 20
-68.32850146368241
 30
0.0
 11
-110.9866333007816
 21
-67.45852425642488
 31
0.0
  0
LINE
  5
2E9
330
1F
100
AcDbEntity
  8
0-A
  6
Continuous
 62
     4
370
     9
100
AcDbLine
 10
-105.8566023778734
 20
-68.32850146368241
 30
0.0
 11
-104.9865901755553
 21
-67.45852425642488
 31
0.0
  0
LINE
  5
2EA
330
1F
100
AcDbEntity
  8
0-A
  6
Continuous
 62
     4
370
     9
100
AcDbLine
 10
-105.8566023778734
 20
-58.32845291834588
 30
0.0
 11
-105.8566023778734
 21
-68.32850146368241
 31
0.0
  0
LINE
  5
2EB
330
1F
100
AcDbEntity
  8
0-A
  6
Continuous
 62
     4
370
     9
100
AcDbLine
 10
-110.1166210984635
 20
-58.32845291834588
 30
0.0
 11
-110.1166210984635
 21
-68.32850146368241
 31
0.0
  0
LINE
  5
2EC
330
1F
100
AcDbEntity
  8
0-A
  6
Continuous
 62
     4
370
     9
100
AcDbLine
 10
-105.8566023778734
 20
-68.32850146368241
 30
0.0
 11
-110.1166210984635
 21
-68.32850146368241
 31
0.0
  0
LINE
  5
2ED
330
1F
100
AcDbEntity
  8
0-A
  6
Continuous
 62
     4
370
     9
100
AcDbLine
 10
-104.9865901755553
 20
-67.45852425642488
 30
0.0
 11
-110.9866333007816
 21
-67.45852425642488
 31
0.0
  0
LINE
  5
2EE
330
1F
100
AcDbEntity
  8
0-A
  6
Continuous
 62
     4
370
     9
100
AcDbLine
 10
-104.9865901755553
 20
-58.32845291834588
 30
0.0
 11
-104.9865901755553
 21
-67.45852425642488
 31
0.0
  0
LINE
  5
2EF
330
1F
100
AcDbEntity
  8
0-A
  6
Continuous
 62
     4
370
     9
100
AcDbLine
 10
-110.9866333007816
 20
-58.32845291834588
 30
0.0
 11
-110.9866333007816
 21
-67.45852425642488
 31
0.0
  0
LINE
  5
2F0
330
1F
100
AcDbEntity
  8
0-A
  6
Continuous
 62
     4
370
     9
100
AcDbLine
 10
-113.9866198683341
 20
-56.32848520335117
 30
0.0
 11
-111.9866871484002
 21
-56.32848520335117
 31
0.0
  0
LINE
  5
2F1
330
1F
100
AcDbEntity
  8
0-A
  6
Continuous
 62
     4
370
     9
100
AcDbLine
 10
50.01339238582851
 20
-56.32848520335121
 30
0.0
 11
48.0134596658946
 21
-56.32848520335121
 31
0.0
  0
ARC
  5
2F2
330
1F
100
AcDbEntity
  8
0-A
  6
Continuous
 62
     4
370
     9
100
AcDbCircle
 10
44.013384255663
 20
-61.72850301901853
 30
0.0
 40
10.00000042712827
100
AcDbArc
 50
92.74569702148439
 51
126.869873046875
  0
ARC
  5
2F3
330
1F
100
AcDbEntity
  8
0-A
  6
Continuous
 62
     4
370
     9
100
AcDbCircle
 10
44.013384255663
 20
-61.72850301901853
 30
0.0
 40
10.00000042712827
100
AcDbArc
 50
53.13012695312501
 51
87.25408935546876
  0
ARC
  5
2F4
330
1F
100
AcDbEntity
  8
0-A
  6
Continuous
 62
     4
370
     9
100
AcDbCircle
 10
47.41336436621451
 20
-56.57848991649077
 30
0.0
 40
0.249999997008261
100
AcDbArc
 50
90.0
 51
150.6708221435547
  0
ARC
  5
2F5
330
1F
100
AcDbEntity
  8
0-A
  6
Continuous
 62
     4
370
     9
100
AcDbCircle
 10
40.61336915005096
 20
-56.57848991649077
 30
0.0
 40
0.249999997008261
100
AcDbArc
 50
29.32917785644529
 51
89.99999999999999
  0
ARC
  5
2F6
330
1F
100
AcDbEntity
  8
0-A
  6
Continuous
 62
     4
370
     9
100
AcDbCircle
 10
-107.9866117381683
 20
-61.72850301901848
 30
0.0
 40
10.00000042712827
100
AcDbArc
 50
53.13012695312501
 51
87.25430297851562
  0
ARC
  5
2F7
330
1F
100
AcDbEntity
  8
0-A
  6
Continuous
 62
     4
370
     9
100
AcDbCircle
 10
-107.9866117381683
 20
-61.72850301901848
 30
0.0
 40
10.00000042712827
100
AcDbArc
 50
92.74591064453124
 51
126.869873046875
  0
ARC
  5
2F8
330
1F
100
AcDbEntity
  8
0-A
  6
Continuous
 62
     4
370
     9
100
AcDbCircle
 10
-111.3865918487198
 20
-56.57848991649073
 30
0.0
 40
0.249999997008261
100
AcDbArc
 50
29.32917785644529
 51
89.99999999999999
  0
ARC
  5
2F9
330
1F
100
AcDbEntity
  8
0-A
  6
Continuous
 62
     4
370
     9
100
AcDbCircle
 10
-104.5865966325565
 20
-56.57848991649075
 30
0.0
 40
0.249999997008261
100
AcDbArc
 50
90.0
 51
150.6708221435547
  0
LINE
  5
2FA
330
1F
100
AcDbEntity
  8
躯体
  6
Continuous
 62
     2
370
     9
100
AcDbLine
 10
37.83385146446663
 20
-63.3285471811353
 30
0.0
 11
41.88337489536808
 21
-63.3285471811353
 31
0.0
  0
LINE
  5
2FB
330
1F
100
AcDbEntity
  8
躯体
  6
Continuous
 62
     2
370
     9
100
AcDbLine
 10
46.14339361595794
 20
-63.3285471811353
 30
0.0
 11
48.57075600642494
 21
-63.3285471811353
 31
0.0
  0
LINE
  5
2FC
330
1F
100
AcDbEntity
  8
躯体
  6
Continuous
 62
     2
370
     9
100
AcDbLine
 10
49.01346102067063
 20
-57.32850405590924
 30
0.0
 11
54.01346779606056
 21
-57.32850405590924
 31
0.0
  0
LINE
  5
2FD
330
1F
100
AcDbEntity
  8
躯体
  6
Continuous
 62
     2
370
     9
100
AcDbLine
 10
-117.9865203032623
 20
-57.3285040559092
 30
0.0
 11
-112.9865485229331
 21
-57.3285040559092
 31
0.0
  0
LINE
  5
2FE
330
1F
100
AcDbEntity
  8
躯体
  6
Continuous
 62
     2
370
     9
100
AcDbLine
 10
-110.1166210984635
 20
-63.32854718113526
 30
0.0
 11
-112.5482562381903
 21
-63.32854718113526
 31
0.0
  0
LINE
  5
2FF
330
1F
100
AcDbEntity
  8
躯体
  6
Continuous
 62
     2
370
     9
100
AcDbLine
 10
-101.8068689766078
 20
-63.32854718113526
 30
0.0
 11
-105.8566023778734
 21
-63.32854718113526
 31
0.0
  0
LINE
  5
300
330
1F
100
AcDbEntity
  8
躯体
  6
Continuous
 62
     2
370
     9
100
AcDbLine
 10
-110.1166210984635
 20
-63.32854718113526
 30
0.0
 11
-110.1166210984635
 21
-69.77159072546283
 31
0.0
  0
LINE
  5
301
330
1F
100
AcDbEntity
  8
躯体
  6
Continuous
 62
     2
370
     9
100
AcDbLine
 10
-110.9866333007816
 20
-63.32854718113526
 30
0.0
 11
-110.9866333007816
 21
-69.53847682828243
 31
0.0
  0
LINE
  5
302
330
1F
100
AcDbEntity
  8
躯体
  6
Continuous
 62
     2
370
     9
100
AcDbLine
 10
-105.8566023778734
 20
-63.32854718113526
 30
0.0
 11
-105.8566023778734
 21
-70.91303398726131
 31
0.0
  0
LINE
  5
303
330
1F
100
AcDbEntity
  8
躯体
  6
Continuous
 62
     2
370
     9
100
AcDbLine
 10
-104.9865901755553
 20
-63.32854718113526
 30
0.0
 11
-104.9865901755553
 21
-71.14614788444169
 31
0.0
  0
LINE
  5
304
330
1F
100
AcDbEntity
  8
仕上
  6
JWW_CENTER1
 62
     6
370
     9
100
AcDbLine
 10
44.01338425566308
 20
-50.28371839063973
 30
0.0
 11
44.01338425566308
 21
-71.45038536453512
 31
0.0
  0
LINE
  5
305
330
1F
100
AcDbEntity
  8
躯体
  6
Continuous
 62
     2
370
     9
100
AcDbLine
 10
47.01340581827603
 20
-63.3285471811353
 30
0.0
 11
47.01340581827603
 21
-69.53873461223614
 31
0.0
  0
LINE
  5
306
330
1F
100
AcDbEntity
  8
躯体
  6
Continuous
 62
     2
370
     9
100
AcDbLine
 10
46.14339361595794
 20
-63.3285471811353
 30
0.0
 11
46.14339361595794
 21
-69.77185367925247
 31
0.0
  0
LINE
  5
307
330
1F
100
AcDbEntity
  8
躯体
  6
Continuous
 62
     2
370
     9
100
AcDbLine
 10
41.88337489536808
 20
-63.3285471811353
 30
0.0
 11
41.88337489536808
 21
-70.91332225517593
 31
0.0
  0
LINE
  5
308
330
1F
100
AcDbEntity
  8
躯体
  6
Continuous
 62
     2
370
     9
100
AcDbLine
 10
41.01336269304998
 20
-63.3285471811353
 30
0.0
 11
41.01336269304998
 21
-71.14644132219226
 31
0.0
  0
LINE
  5
309
330
1F
100
AcDbEntity
  8
躯体
  6
Continuous
 62
     4
370
     9
100
AcDbLine
 10
-82.98653833102084
 20
-79.01475220926181
 30
0.0
 11
-90.98647918112023
 21
-79.01475220926181
 31
0.0
  0
LINE
  5
30A
330
1F
100
AcDbEntity
  8
躯体
  6
Continuous
 62
     4
370
     9
100
AcDbLine
 10
-90.98647918112023
 20
-79.01475220926181
 30
0.0
 11
-90.31002465914584
 21
-79.6912067312362
 31
0.0
  0
LINE
  5
30B
330
1F
100
AcDbEntity
  8
躯体
  6
Continuous
 62
     4
370
     9
100
AcDbLine
 10
-83.66299285299523
 20
-79.6912067312362
 30
0.0
 11
-82.98653833102084
 21
-79.01475220926181
 31
0.0
  0
LINE
  5
30C
330
1F
100
AcDbEntity
  8
躯体
  6
Continuous
 62
     4
370
     9
100
AcDbLine
 10
-90.98647918112022
 20
-40.3678170224705
 30
0.0
 11
-90.31002465914584
 21
-39.6912225202534
 31
0.0
  0
LINE
  5
30D
330
1F
100
AcDbEntity
  8
躯体
  6
Continuous
 62
     4
370
     9
100
AcDbLine
 10
-83.66299285299522
 20
-39.6912225202534
 30
0.0
 11
-82.98653833102084
 21
-40.3678170224705
 31
0.0
  0
LINE
  5
30E
330
1F
100
AcDbEntity
  8
躯体
  6
Continuous
 62
     4
370
     9
100
AcDbLine
 10
-90.31002465914584
 20
-79.6912067312362
 30
0.0
 11
-83.66299285299523
 21
-79.6912067312362
 31
0.0
  0
LINE
  5
30F
330
1F
100
AcDbEntity
  8
躯体
  6
Continuous
 62
     3
370
     9
100
AcDbLine
 10
-90.31002465914584
 20
-80.69122558379422
 30
0.0
 11
-83.66299285299523
 21
-80.69122558379422
 31
0.0
  0
LINE
  5
310
330
1F
100
AcDbEntity
  8
躯体
  6
Continuous
 62
     3
370
     9
100
AcDbLine
 10
-90.31002465914584
 20
-80.69122558379422
 30
0.0
 11
-86.98650875607055
 21
-82.61000475812762
 31
0.0
  0
LINE
  5
311
330
1F
100
AcDbEntity
  8
躯体
  6
Continuous
 62
     3
370
     9
100
AcDbLine
 10
-83.66299285299523
 20
-80.69122558379422
 30
0.0
 11
-86.98650875607055
 21
-82.61000475812762
 31
0.0
  0
LINE
  5
312
330
1F
100
AcDbEntity
  8
躯体
  6
Continuous
 62
     3
370
     9
100
AcDbLine
 10
-90.31002465914584
 20
-79.6912067312362
 30
0.0
 11
-90.31002465914584
 21
-80.69122558379422
 31
0.0
  0
LINE
  5
313
330
1F
100
AcDbEntity
  8
躯体
  6
Continuous
 62
     3
370
     9
100
AcDbLine
 10
-83.66299285299523
 20
-80.69122558379422
 30
0.0
 11
-83.66299285299523
 21
-79.6912067312362
 31
0.0
  0
LINE
  5
314
330
1F
100
AcDbEntity
  8
躯体
  6
Continuous
 62
     4
370
     9
100
AcDbLine
 10
-94.48658016013373
 20
-63.0503364491285
 30
0.0
 11
-94.48658016013373
 21
-68.828650870204
 31
0.0
  0
LINE
  5
315
330
1F
100
AcDbEntity
  8
躯体
  6
Continuous
 62
     4
370
     9
100
AcDbLine
 10
-79.48647234706813
 20
-63.0503364491285
 30
0.0
 11
-79.48647234706813
 21
-68.828650870204
 31
0.0
  0
LINE
  5
316
330
1F
100
AcDbEntity
  8
躯体
  6
Continuous
 62
     4
370
     9
100
AcDbLine
 10
-94.48658016013373
 20
-68.828650870204
 30
0.0
 11
-79.48647234706813
 21
-68.828650870204
 31
0.0
  0
LINE
  5
317
330
1F
100
AcDbEntity
  8
躯体
  6
Continuous
 62
     4
370
     9
100
AcDbLine
 10
-90.73374485325179
 20
-63.0503364491285
 30
0.0
 11
-90.73374485325179
 21
-68.828650870204
 31
0.0
  0
LINE
  5
318
330
1F
100
AcDbEntity
  8
躯体
  6
Continuous
 62
     4
370
     9
100
AcDbLine
 10
-83.23930765395006
 20
-63.0503364491285
 30
0.0
 11
-83.23930765395006
 21
-68.828650870204
 31
0.0
  0
LINE
  5
319
330
1F
100
AcDbEntity
  8
躯体
  6
Continuous
 62
     4
370
     9
100
AcDbLine
 10
-92.61011001410169
 20
-62.32859831869883
 30
0.0
 11
-81.36290749803938
 21
-62.32859831869883
 31
0.0
  0
LINE
  5
31A
330
1F
100
AcDbEntity
  8
躯体
  6
Continuous
 62
     4
370
     9
100
AcDbLine
 10
-83.66299285299523
 20
-62.32859831869883
 30
0.0
 11
-83.66299285299522
 21
-39.6912225202534
 31
0.0
  0
LINE
  5
31B
330
1F
100
AcDbEntity
  8
躯体
  6
Continuous
 62
     4
370
     9
100
AcDbLine
 10
-82.98653833102084
 20
-62.32859831869883
 30
0.0
 11
-82.98653833102084
 21
-40.3678170224705
 31
0.0
  0
LINE
  5
31C
330
1F
100
AcDbEntity
  8
躯体
  6
Continuous
 62
     4
370
     9
100
AcDbLine
 10
-83.66299285299523
 20
-68.828650870204
 30
0.0
 11
-83.66299285299523
 21
-79.6912067312362
 31
0.0
  0
LINE
  5
31D
330
1F
100
AcDbEntity
  8
躯体
  6
Continuous
 62
     4
370
     9
100
AcDbLine
 10
-90.31002465914584
 20
-68.828650870204
 30
0.0
 11
-90.31002465914584
 21
-79.6912067312362
 31
0.0
  0
LINE
  5
31E
330
1F
100
AcDbEntity
  8
躯体
  6
Continuous
 62
     4
370
     9
100
AcDbLine
 10
-90.31002465914584
 20
-62.32859831869883
 30
0.0
 11
-90.31002465914584
 21
-39.6912225202534
 31
0.0
  0
LINE
  5
31F
330
1F
100
AcDbEntity
  8
躯体
  6
Continuous
 62
     4
370
     9
100
AcDbLine
 10
-90.98647918112023
 20
-62.32859831869883
 30
0.0
 11
-90.98647918112022
 21
-40.3678170224705
 31
0.0
  0
LINE
  5
320
330
1F
100
AcDbEntity
  8
躯体
  6
Continuous
 62
     4
370
     9
100
AcDbLine
 10
-90.98647918112023
 20
-68.828650870204
 30
0.0
 11
-90.98647918112023
 21
-79.01475220926181
 31
0.0
  0
LINE
  5
321
330
1F
100
AcDbEntity
  8
躯体
  6
Continuous
 62
     4
370
     9
100
AcDbLine
 10
-82.98653833102084
 20
-68.828650870204
 30
0.0
 11
-82.98653833102084
 21
-79.01475220926181
 31
0.0
  0
ARC
  5
322
330
1F
100
AcDbEntity
  8
躯体
  6
Continuous
 62
     4
370
     9
100
AcDbCircle
 10
-92.61011001410169
 20
-65.12883308017626
 30
0.0
 40
2.800173520121335
100
AcDbArc
 50
47.92556762695312
 51
132.0746307373047
  0
ARC
  5
323
330
1F
100
AcDbEntity
  8
躯体
  6
Continuous
 62
     4
370
     9
100
AcDbCircle
 10
-86.98650875607053
 20
-72.41802424888397
 30
0.0
 40
10.08940952625054
100
AcDbArc
 50
68.19786071777345
 51
111.8021392822266
  0
ARC
  5
324
330
1F
100
AcDbEntity
  8
躯体
  6
Continuous
 62
     4
370
     9
100
AcDbCircle
 10
-81.36290749803938
 20
-65.12883308017626
 30
0.0
 40
2.800189650657094
100
AcDbArc
 50
47.92572021484374
 51
132.0742797851562
  0
LINE
  5
325
330
1F
100
AcDbEntity
  8
躯体
  6
Continuous
 62
     2
370
     9
100
AcDbLine
 10
-94.97569316142312
 20
-73.82850016756902
 30
0.0
 11
-90.98647918112023
 21
-73.82850016756902
 31
0.0
  0
LINE
  5
326
330
1F
100
AcDbEntity
  8
躯体
  6
Continuous
 62
     2
370
     9
100
AcDbLine
 10
-82.98653833102084
 20
-73.82850016756902
 30
0.0
 11
31.00267564928208
 21
-73.82850016756903
 31
0.0
  0
ARC
  5
327
330
1F
100
AcDbEntity
  8
0-9
  6
JWW_CENTER1
 62
     6
370
     9
100
AcDbCircle
 10
-172.9865568006361
 20
-91.69125851685634
 30
0.0
 40
5.000000046026752
100
AcDbArc
 50
270.0
 51
0.0
  0
ARC
  5
328
330
1F
100
AcDbEntity
  8
0-9
  6
Continuous
 62
     6
370
     9
100
AcDbCircle
 10
-172.9865568006361
 20
-91.69125851685634
 30
0.0
 40
1.99999963132571
100
AcDbArc
 50
270.0
 51
0.0
  0
ARC
  5
329
330
1F
100
AcDbEntity
  8
0-9
  6
Continuous
 62
     6
370
     9
100
AcDbCircle
 10
-172.9865568006361
 20
-91.69125851685634
 30
0.0
 40
7.999998525302842
100
AcDbArc
 50
270.0
 51
0.0
  0
LINE
  5
32A
330
1F
100
AcDbEntity
  8
0-9
  6
JWW_CENTER1
 62
     6
370
     9
100
AcDbLine
 10
-167.9866326232674
 20
-62.04280263561235
 30
0.0
 11
-167.9866326232674
 21
-91.69125851685634
 31
0.0
  0
LINE
  5
32B
330
1F
100
AcDbEntity
  8
0-9
  6
Continuous
 62
     6
370
     9
100
AcDbLine
 10
-164.8115199910168
 20
-75.69123359613127
 30
0.0
 11
-164.8115199910168
 21
-77.89126365417837
 31
0.0
  0
LINE
  5
32C
330
1F
100
AcDbEntity
  8
0-9
  6
Continuous
 62
     6
370
     9
100
AcDbLine
 10
-165.6265661467917
 20
-75.69123359613127
 30
0.0
 11
-165.6265661467917
 21
-77.89126365417837
 31
0.0
  0
LINE
  5
32D
330
1F
100
AcDbEntity
  8
0-9
  6
Continuous
 62
     6
370
     9
100
AcDbLine
 10
-171.1614975211243
 20
-75.69123359613127
 30
0.0
 11
-171.1614975211243
 21
-77.89126365417837
 31
0.0
  0
LINE
  5
32E
330
1F
100
AcDbEntity
  8
0-9
  6
Continuous
 62
     6
370
     9
100
AcDbLine
 10
-170.3466000059857
 20
-75.69123359613127
 30
0.0
 11
-170.3466000059857
 21
-77.89126365417837
 31
0.0
  0
LINE
  5
32F
330
1F
100
AcDbEntity
  8
0-9
  6
JWW_CENTER1
 62
     6
370
     9
100
AcDbLine
 10
-172.7865360510396
 20
-96.69128178798266
 30
0.0
 11
-180.6103350370547
 21
-96.69128178798266
 31
0.0
  0
LINE
  5
330
330
1F
100
AcDbEntity
  8
0-9
  6
Continuous
 62
     6
370
     9
100
AcDbLine
 10
-171.1614975211243
 20
-77.89126365417837
 30
0.0
 11
-164.8115199910168
 21
-77.89126365417837
 31
0.0
  0
LINE
  5
331
330
1F
100
AcDbEntity
  8
0-9
  6
Continuous
 62
     6
370
     9
100
AcDbLine
 10
-164.8115199910168
 20
-77.89126365417837
 30
0.0
 11
-164.986569113713
 21
-78.69129710568585
 31
0.0
  0
LINE
  5
332
330
1F
100
AcDbEntity
  8
0-9
  6
Continuous
 62
     6
370
     9
100
AcDbLine
 10
-165.6265661467917
 20
-77.89126365417837
 30
0.0
 11
-164.986569113713
 21
-78.69129710568585
 31
0.0
  0
LINE
  5
333
330
1F
100
AcDbEntity
  8
0-9
  6
Continuous
 62
     6
370
     9
100
AcDbLine
 10
-170.9865474921857
 20
-78.69129710568585
 30
0.0
 11
-170.3466000059857
 21
-77.89126365417837
 31
0.0
  0
LINE
  5
334
330
1F
100
AcDbEntity
  8
0-9
  6
Continuous
 62
     6
370
     9
100
AcDbLine
 10
-171.1614975211243
 20
-77.89126365417837
 30
0.0
 11
-170.9865474921857
 21
-78.69129710568585
 31
0.0
  0
LINE
  5
335
330
1F
100
AcDbEntity
  8
0-9
  6
Continuous
 62
     6
370
     9
100
AcDbLine
 10
-170.9865474921857
 20
-78.69129710568585
 30
0.0
 11
-164.986569113713
 21
-78.69129710568585
 31
0.0
  0
LINE
  5
336
330
1F
100
AcDbEntity
  8
0-9
  6
Continuous
 62
     6
370
     9
100
AcDbLine
 10
-172.9865568006361
 20
-93.69121827842808
 30
0.0
 11
-178.9865351791088
 21
-93.69121827842808
 31
0.0
  0
LINE
  5
337
330
1F
100
AcDbEntity
  8
0-9
  6
Continuous
 62
     6
370
     9
100
AcDbLine
 10
-170.9865474921857
 20
-91.69125851685634
 30
0.0
 11
-170.9865474921857
 21
-78.69129710568585
 31
0.0
  0
LINE
  5
338
330
1F
100
AcDbEntity
  8
0-9
  6
Continuous
 62
     6
370
     9
100
AcDbLine
 10
-172.9865568006361
 20
-99.69124620377941
 30
0.0
 11
-178.9865351791088
 21
-99.69124620377941
 31
0.0
  0
LINE
  5
339
330
1F
100
AcDbEntity
  8
0-9
  6
Continuous
 62
     6
370
     9
100
AcDbLine
 10
-164.986569113713
 20
-91.69125851685634
 30
0.0
 11
-164.986569113713
 21
-78.69129710568585
 31
0.0
  0
LINE
  5
33A
330
1F
100
AcDbEntity
  8
0-9
  6
Continuous
 62
     6
370
     9
100
AcDbLine
 10
-178.9865351791088
 20
-93.69121827842808
 30
0.0
 11
-178.9865351791088
 21
-99.69124620377941
 31
0.0
  0
LINE
  5
33B
330
1F
100
AcDbEntity
  8
建具
  6
Continuous
 62
     4
370
     9
100
AcDbLine
 10
-97.48655376655262
 20
-95.69123359613126
 30
0.0
 11
-101.9864986228206
 21
-95.69123359613126
 31
0.0
  0
LINE
  5
33C
330
1F
100
AcDbEntity
  8
建具
  6
Continuous
 62
     4
370
     9
100
AcDbLine
 10
-101.9864986228206
 20
-165.6912127404891
 30
0.0
 11
38.01348111067949
 21
-165.6912127404892
 31
0.0
  0
LINE
  5
33D
330
1F
100
AcDbEntity
  8
躯体
  6
Continuous
 62
     4
370
     9
100
AcDbLine
 10
-87.73650158746479
 20
-41.69105158592421
 30
0.0
 11
-87.73650158746479
 21
-39.69125755518738
 31
0.0
  0
LINE
  5
33E
330
1F
100
AcDbEntity
  8
躯体
  6
Continuous
 62
     4
370
     9
100
AcDbLine
 10
-86.2365159246763
 20
-41.69112165579212
 30
0.0
 11
-87.73650158746476
 21
-41.69105158592421
 31
0.0
  0
LINE
  5
33F
330
1F
100
AcDbEntity
  8
躯体
  6
Continuous
 62
     4
370
     9
100
AcDbLine
 10
-86.23651592467627
 20
-41.69112165579212
 30
0.0
 11
-86.23651592467627
 21
-39.69118748531941
 31
0.0
  0
LINE
  5
340
330
1F
100
AcDbEntity
  8
躯体
  6
Continuous
 62
     4
370
     9
100
AcDbLine
 10
-82.98653833102084
 20
-40.3678170224705
 30
0.0
 11
-86.23651592467627
 21
-40.3678170224705
 31
0.0
  0
LINE
  5
341
330
1F
100
AcDbEntity
  8
躯体
  6
Continuous
 62
     4
370
     9
100
AcDbLine
 10
-86.23651592467627
 20
-39.6912225202534
 30
0.0
 11
-83.66299285299522
 21
-39.6912225202534
 31
0.0
  0
LINE
  5
342
330
1F
100
AcDbEntity
  8
躯体
  6
Continuous
 62
     4
370
     9
100
AcDbLine
 10
-87.73650158746479
 20
-40.3678170224705
 30
0.0
 11
-90.98647918112022
 21
-40.3678170224705
 31
0.0
  0
LINE
  5
343
330
1F
100
AcDbEntity
  8
躯体
  6
Continuous
 62
     4
370
     9
100
AcDbLine
 10
-90.31002465914584
 20
-39.6912225202534
 30
0.0
 11
-87.73650158746479
 21
-39.6912225202534
 31
0.0
  0
LINE
  5
344
330
1F
100
AcDbEntity
  8
躯体
  6
Continuous
 62
     2
370
     9
100
AcDbLine
 10
-107.5076693383886
 20
-51.79442016296911
 30
0.0
 11
-108.4657291132513
 21
-51.79442016296911
 31
0.0
  0
LINE
  5
345
330
1F
100
AcDbEntity
  8
躯体
  6
Continuous
 62
     2
370
     9
100
AcDbLine
 10
-109.132912899169
 20
-51.79442016296911
 30
0.0
 11
-168.9865369170789
 21
-51.7944201629691
 31
0.0
  0
LINE
  5
346
330
1F
100
AcDbEntity
  8
躯体
  6
Continuous
 62
     2
370
     9
100
AcDbLine
 10
-81.33273180515165
 20
-51.79442016296911
 30
0.0
 11
-82.98653833102084
 21
-51.79442016296911
 31
0.0
  0
LINE
  5
347
330
1F
100
AcDbEntity
  8
躯体
  6
Continuous
 62
     2
370
     9
100
AcDbLine
 10
-90.98647918112023
 20
-51.79442016296911
 30
0.0
 11
-106.8403105771677
 21
-51.79442016296911
 31
0.0
  0
LINE
  5
348
330
1F
100
AcDbEntity
  8
躯体
  6
Continuous
 62
     2
370
     9
100
AcDbLine
 10
45.15968541666366
 20
-51.79442016296915
 30
0.0
 11
105.0135543999985
 21
-51.79442016296915
 31
0.0
  0
LINE
  5
349
330
1F
100
AcDbEntity
  8
躯体
  6
Continuous
 62
     2
370
     9
100
AcDbLine
 10
17.35973548502948
 20
-51.79442016296913
 30
0.0
 11
42.86708309466236
 21
-51.79442016296915
 31
0.0
  0
LINE
  5
34A
330
1F
100
AcDbEntity
  8
躯体
  6
Continuous
 62
     2
370
     9
100
AcDbLine
 10
43.53444185588329
 20
-51.79442016296915
 30
0.0
 11
44.49250163074598
 21
-51.79442016296915
 31
0.0
  0
LINE
  5
34B
330
1F
100
AcDbEntity
  8
仕上
  6
Continuous
 62
     6
370
     9
100
AcDbLine
 10
38.01351610574007
 20
-57.32857404603033
 30
0.0
 11
41.32161579508019
 21
-57.32857404603033
 31
0.0
  0
LINE
  5
34C
330
1F
100
AcDbEntity
  8
仕上
  6
Continuous
 62
     6
370
     9
100
AcDbLine
 10
46.70519009210085
 20
-57.32857404603035
 30
0.0
 11
49.01344352339215
 21
-57.32857404603035
 31
0.0
  0
LINE
  5
34D
330
1F
100
AcDbEntity
  8
仕上
  6
Continuous
 62
     6
370
     9
100
AcDbLine
 10
-101.9866036080028
 20
-57.32857404603033
 30
0.0
 11
-105.2948432775855
 21
-57.32857404603033
 31
0.0
  0
LINE
  5
34E
330
1F
100
AcDbEntity
  8
仕上
  6
Continuous
 62
     6
370
     9
100
AcDbLine
 10
-110.6784175746063
 20
-57.32857404603033
 30
0.0
 11
-112.9865310256546
 21
-57.32857404603033
 31
0.0
  0
ARC
  5
34F
330
1F
100
AcDbEntity
  8
仕上
  6
JWW_DASHED1
 62
     3
370
     9
100
AcDbCircle
 10
38.11143472809914
 20
-94.69125857082525
 30
0.0
 40
1.0
100
AcDbArc
 50
270.0
 51
354.1044904725045
  0
LINE
  5
350
330
1F
100
AcDbEntity
  8
仕上
  6
JWW_HOJO
 62
     3
370
     9
100
AcDbLine
 10
13.1345888011943
 20
-143.6912585708252
 30
0.0
 11
15.01349124392942
 21
-143.6912585708252
 31
0.0
  0
LINE
  5
351
330
1F
100
AcDbEntity
  8
仕上
  6
JWW_HOJO
 62
     3
370
     9
100
AcDbLine
 10
15.13069395816007
 20
-141.8160151431356
 30
0.0
 11
15.01349124392942
 21
-143.6912585708252
 31
0.0
  0
LINE
  5
352
330
1F
100
AcDbEntity
  8
通り芯
  6
Continuous
 62
     3
370
     9
100
AcDbLine
 10
-161.351157021202
 20
-75.69123359613128
 30
0.0
 11
-165.6265661467917
 21
-75.69123359613128
 31
0.0
  0
LINE
  5
353
330
1F
100
AcDbEntity
  8
通り芯
  6
Continuous
 62
     3
370
     9
100
AcDbLine
 10
-170.3466495528644
 20
-75.69123359613128
 30
0.0
 11
-174.5872754962152
 21
-75.69123359613128
 31
0.0
  0
LINE
  5
354
330
1F
100
AcDbEntity
  8
通り芯
  6
Continuous
 62
     3
370
     9
100
AcDbLine
 10
-81.89165037386373
 20
-73.6912335961313
 30
0.0
 11
-83.66299285299523
 21
-73.6912335961313
 31
0.0
  0
LINE
  5
355
330
1F
100
AcDbEntity
  8
通り芯
  6
Continuous
 62
     3
370
     9
100
AcDbLine
 10
-90.98647918112023
 20
-73.6912335961313
 30
0.0
 11
-96.32577834013487
 21
-73.6912335961313
 31
0.0
  0
LINE
  5
356
330
1F
100
AcDbEntity
  8
通り芯
  6
Continuous
 62
     3
370
     9
100
AcDbLine
 10
-90.98647918112022
 20
-45.69123359613118
 30
0.0
 11
-200.1181612536584
 21
-45.69123359613116
 31
0.0
  0
LINE
  5
357
330
1F
100
AcDbEntity
  8
通り芯
  6
Continuous
 62
     3
370
     9
100
AcDbLine
 10
136.1451437415167
 20
-45.69123359613122
 30
0.0
 11
7.548124083430373
 21
-45.6912335961312
 31
0.0
  0
LINE
  5
358
330
1F
100
AcDbEntity
  8
通り芯
  6
Continuous
 62
     3
370
     9
100
AcDbLine
 10
-71.52120939048572
 20
-45.69123359613118
 30
0.0
 11
-82.98653833102092
 21
-45.69123359613118
 31
0.0
  0
LINE
  5
359
330
1F
100
AcDbEntity
  8
通り芯
  6
JWW_CENTER1
 62
     3
370
     9
100
AcDbLine
 10
-31.98650875607054
 20
95.67147807833598
 30
0.0
 11
-31.98650875607058
 21
-173.6912127404892
 31
0.0
  0
LINE
  5
35A
330
1F
100
AcDbEntity
  8
その他
  6
Continuous
 62
     7
370
     9
100
AcDbLine
 10
-78.98650875607075
 20
-205.6912127404892
 30
0.0
 11
15.01349124392942
 21
-205.6912127404892
 31
0.0
  0
LINE
  5
35B
330
1F
100
AcDbEntity
  8
その他
  6
Continuous
 62
     7
370
     9
100
AcDbLine
 10
-78.98650875607075
 20
-205.6912127404892
 30
0.0
 11
-71.55067229576717
 21
-204.7122662988388
 31
0.0
  0
LINE
  5
35C
330
1F
100
AcDbEntity
  8
その他
  6
Continuous
 62
     7
370
     9
100
AcDbLine
 10
-78.98650875607075
 20
-205.6912127404892
 30
0.0
 11
-71.55067229576717
 21
-206.6701591821396
 31
0.0
  0
LINE
  5
35D
330
1F
100
AcDbEntity
  8
その他
  6
Continuous
 62
     7
370
     9
100
AcDbLine
 10
15.01349124392942
 20
-205.6912127404892
 30
0.0
 11
7.577654783625839
 21
-204.7122662988388
 31
0.0
  0
LINE
  5
35E
330
1F
100
AcDbEntity
  8
その他
  6
Continuous
 62
     7
370
     9
100
AcDbLine
 10
15.01349124392942
 20
-205.6912127404892
 30
0.0
 11
7.577654783625839
 21
-206.6701591821396
 31
0.0
  0
LINE
  5
35F
330
1F
100
AcDbEntity
  8
その他
  6
Continuous
 62
     7
370
     9
100
AcDbLine
 10
-78.98650875607075
 20
-206.5912127404892
 30
0.0
 11
-78.98650875607075
 21
-149.6912335961312
 31
0.0
  0
LINE
  5
360
330
1F
100
AcDbEntity
  8
その他
  6
Continuous
 62
     7
370
     9
100
AcDbLine
 10
15.01349124392942
 20
-206.5912127404892
 30
0.0
 11
15.01349124392942
 21
-149.6912585708252
 31
0.0
  0
TEXT
  5
361
330
1F
100
AcDbEntity
  8
その他
  6
Continuous
 62
     2
370
   211
100
AcDbText
 10
-45.11150875607063
 20
-202.1992127404892
 30
0.0
 40
9.144
  1
φ94
 41
1.09375
  7
ＭＳ ゴシック
100
AcDbText
  0
LINE
  5
362
330
1F
100
AcDbEntity
  8
その他
  6
Continuous
 62
     7
370
     9
100
AcDbLine
 10
-81.98650875607062
 20
-225.6912127404892
 30
0.0
 11
18.01349124392937
 21
-225.6912127404892
 31
0.0
  0
LINE
  5
363
330
1F
100
AcDbEntity
  8
その他
  6
Continuous
 62
     7
370
     9
100
AcDbLine
 10
-81.98650875607062
 20
-225.6912127404892
 30
0.0
 11
-74.55067229576704
 21
-224.7122662988388
 31
0.0
  0
LINE
  5
364
330
1F
100
AcDbEntity
  8
その他
  6
Continuous
 62
     7
370
     9
100
AcDbLine
 10
-81.98650875607062
 20
-225.6912127404892
 30
0.0
 11
-74.55067229576704
 21
-226.6701591821396
 31
0.0
  0
LINE
  5
365
330
1F
100
AcDbEntity
  8
その他
  6
Continuous
 62
     7
370
     9
100
AcDbLine
 10
18.01349124392937
 20
-225.6912127404892
 30
0.0
 11
10.57765478362579
 21
-224.7122662988388
 31
0.0
  0
LINE
  5
366
330
1F
100
AcDbEntity
  8
その他
  6
Continuous
 62
     7
370
     9
100
AcDbLine
 10
18.01349124392937
 20
-225.6912127404892
 30
0.0
 11
10.57765478362579
 21
-226.6701591821396
 31
0.0
  0
LINE
  5
367
330
1F
100
AcDbEntity
  8
その他
  6
Continuous
 62
     7
370
     9
100
AcDbLine
 10
-81.98650875607062
 20
-226.5912127404892
 30
0.0
 11
-81.98650875607062
 21
-101.6912335961313
 31
0.0
  0
LINE
  5
368
330
1F
100
AcDbEntity
  8
その他
  6
Continuous
 62
     7
370
     9
100
AcDbLine
 10
18.01349124392937
 20
-226.5912127404892
 30
0.0
 11
18.01349124392937
 21
-101.6912335961313
 31
0.0
  0
TEXT
  5
369
330
1F
100
AcDbEntity
  8
その他
  6
Continuous
 62
     2
370
   211
100
AcDbText
 10
-48.48650875607062
 20
-222.1992127404892
 30
0.0
 40
9.144
  1
φ100
 41
1.1
  7
ＭＳ ゴシック
100
AcDbText
  0
TEXT
  5
36A
330
1F
100
AcDbEntity
  8
その他
  6
Continuous
 62
     2
370
   211
100
AcDbText
 10
-48.48650875607059
 20
-242.1992127404892
 30
0.0
 40
9.144
  1
φ140
 41
1.1
  7
ＭＳ ゴシック
100
AcDbText
  0
LINE
  5
36B
330
1F
100
AcDbEntity
  8
その他
  6
Continuous
 62
     7
370
     9
100
AcDbLine
 10
38.01348111067948
 20
-246.5912127404892
 30
0.0
 11
38.01348111067948
 21
-171.6912127404892
 31
0.0
  0
LINE
  5
36C
330
1F
100
AcDbEntity
  8
その他
  6
Continuous
 62
     7
370
     9
100
AcDbLine
 10
-101.9864986228206
 20
-246.5912127404892
 30
0.0
 11
-101.9864986228206
 21
-171.6912127404891
 31
0.0
  0
LINE
  5
36D
330
1F
100
AcDbEntity
  8
その他
  6
Continuous
 62
     7
370
     9
100
AcDbLine
 10
38.01348111067948
 20
-245.6912127404892
 30
0.0
 11
30.5776446503759
 21
-246.6701591821396
 31
0.0
  0
LINE
  5
36E
330
1F
100
AcDbEntity
  8
その他
  6
Continuous
 62
     7
370
     9
100
AcDbLine
 10
38.01348111067948
 20
-245.6912127404892
 30
0.0
 11
30.5776446503759
 21
-244.7122662988388
 31
0.0
  0
LINE
  5
36F
330
1F
100
AcDbEntity
  8
その他
  6
Continuous
 62
     7
370
     9
100
AcDbLine
 10
-101.9864986228206
 20
-245.6912127404892
 30
0.0
 11
-94.55066216251707
 21
-246.6701591821396
 31
0.0
  0
LINE
  5
370
330
1F
100
AcDbEntity
  8
その他
  6
Continuous
 62
     7
370
     9
100
AcDbLine
 10
-101.9864986228206
 20
-245.6912127404892
 30
0.0
 11
-94.55066216251707
 21
-244.7122662988388
 31
0.0
  0
LINE
  5
371
330
1F
100
AcDbEntity
  8
その他
  6
Continuous
 62
     7
370
     9
100
AcDbLine
 10
-101.9864986228206
 20
-245.6912127404892
 30
0.0
 11
38.01348111067948
 21
-245.6912127404892
 31
0.0
  0
LINE
  5
372
330
1F
100
AcDbEntity
  8
その他
  6
Continuous
 62
     7
370
     9
100
AcDbLine
 10
-112.9865310256546
 20
107.671478078336
 30
0.0
 11
49.01344352339215
 21
107.671478078336
 31
0.0
  0
LINE
  5
373
330
1F
100
AcDbEntity
  8
その他
  6
Continuous
 62
     7
370
     9
100
AcDbLine
 10
-112.9865310256546
 20
107.671478078336
 30
0.0
 11
-105.550694565351
 21
108.6504245199864
 31
0.0
  0
LINE
  5
374
330
1F
100
AcDbEntity
  8
その他
  6
Continuous
 62
     7
370
     9
100
AcDbLine
 10
-112.9865310256546
 20
107.671478078336
 30
0.0
 11
-105.550694565351
 21
106.6925316366856
 31
0.0
  0
LINE
  5
375
330
1F
100
AcDbEntity
  8
その他
  6
Continuous
 62
     7
370
     9
100
AcDbLine
 10
49.01344352339215
 20
107.671478078336
 30
0.0
 11
41.57760706308857
 21
108.6504245199864
 31
0.0
  0
LINE
  5
376
330
1F
100
AcDbEntity
  8
その他
  6
Continuous
 62
     7
370
     9
100
AcDbLine
 10
49.01344352339215
 20
107.671478078336
 30
0.0
 11
41.57760706308857
 21
106.6925316366856
 31
0.0
  0
LINE
  5
377
330
1F
100
AcDbEntity
  8
その他
  6
Continuous
 62
     7
370
     9
100
AcDbLine
 10
-112.9865310256546
 20
108.571478078336
 30
0.0
 11
-112.9865310256546
 21
-51.32857404603033
 31
0.0
  0
LINE
  5
378
330
1F
100
AcDbEntity
  8
その他
  6
Continuous
 62
     7
370
     9
100
AcDbLine
 10
49.01344352339215
 20
108.571478078336
 30
0.0
 11
49.01344352339215
 21
-51.32857404603035
 31
0.0
  0
LINE
  5
379
330
1F
100
AcDbEntity
  8
その他
  6
Continuous
 62
     7
370
     9
100
AcDbLine
 10
-169.486643263744
 20
127.671478078336
 30
0.0
 11
105.5135907565423
 21
127.671478078336
 31
0.0
  0
LINE
  5
37A
330
1F
100
AcDbEntity
  8
その他
  6
Continuous
 62
     7
370
     9
100
AcDbLine
 10
-169.486643263744
 20
127.671478078336
 30
0.0
 11
-162.0508068034405
 21
128.6504245199864
 31
0.0
  0
LINE
  5
37B
330
1F
100
AcDbEntity
  8
その他
  6
Continuous
 62
     7
370
     9
100
AcDbLine
 10
-169.486643263744
 20
127.671478078336
 30
0.0
 11
-162.0508068034405
 21
126.6925316366856
 31
0.0
  0
LINE
  5
37C
330
1F
100
AcDbEntity
  8
その他
  6
Continuous
 62
     7
370
     9
100
AcDbLine
 10
105.5135907565423
 20
127.671478078336
 30
0.0
 11
98.07775429623871
 21
128.6504245199864
 31
0.0
  0
LINE
  5
37D
330
1F
100
AcDbEntity
  8
その他
  6
Continuous
 62
     7
370
     9
100
AcDbLine
 10
105.5135907565423
 20
127.671478078336
 30
0.0
 11
98.07775429623871
 21
126.6925316366856
 31
0.0
  0
LINE
  5
37E
330
1F
100
AcDbEntity
  8
その他
  6
Continuous
 62
     7
370
     9
100
AcDbLine
 10
-169.486643263744
 20
128.571478078336
 30
0.0
 11
-169.486643263744
 21
-46.82854922826406
 31
0.0
  0
LINE
  5
37F
330
1F
100
AcDbEntity
  8
その他
  6
Continuous
 62
     7
370
     9
100
AcDbLine
 10
105.5135907565423
 20
128.571478078336
 30
0.0
 11
105.5135907565423
 21
-46.8285492282641
 31
0.0
  0
LINE
  5
380
330
1F
100
AcDbEntity
  8
その他
  6
Continuous
 62
     7
370
     9
100
AcDbLine
 10
-201.9865087560709
 20
147.671478078336
 30
0.0
 11
138.0134912439294
 21
147.671478078336
 31
0.0
  0
LINE
  5
381
330
1F
100
AcDbEntity
  8
その他
  6
Continuous
 62
     7
370
     9
100
AcDbLine
 10
-201.9865087560709
 20
147.671478078336
 30
0.0
 11
-194.5506722957673
 21
148.6504245199864
 31
0.0
  0
LINE
  5
382
330
1F
100
AcDbEntity
  8
その他
  6
Continuous
 62
     7
370
     9
100
AcDbLine
 10
-201.9865087560709
 20
147.671478078336
 30
0.0
 11
-194.5506722957673
 21
146.6925316366856
 31
0.0
  0
LINE
  5
383
330
1F
100
AcDbEntity
  8
その他
  6
Continuous
 62
     7
370
     9
100
AcDbLine
 10
138.0134912439294
 20
147.671478078336
 30
0.0
 11
130.5776547836258
 21
148.6504245199864
 31
0.0
  0
LINE
  5
384
330
1F
100
AcDbEntity
  8
その他
  6
Continuous
 62
     7
370
     9
100
AcDbLine
 10
138.0134912439294
 20
147.671478078336
 30
0.0
 11
130.5776547836258
 21
146.6925316366856
 31
0.0
  0
LINE
  5
385
330
1F
100
AcDbEntity
  8
その他
  6
Continuous
 62
     7
370
     9
100
AcDbLine
 10
-201.9865087560709
 20
148.571478078336
 30
0.0
 11
-201.9865087560709
 21
-47.69123359613115
 31
0.0
  0
LINE
  5
386
330
1F
100
AcDbEntity
  8
その他
  6
Continuous
 62
     7
370
     9
100
AcDbLine
 10
138.0134912439294
 20
148.571478078336
 30
0.0
 11
138.0134912439294
 21
-47.69123359613123
 31
0.0
  0
TEXT
  5
387
330
1F
100
AcDbEntity
  8
その他
  6
Continuous
 62
     2
370
   211
100
AcDbText
 10
-48.48650875607076
 20
151.163478078336
 30
0.0
 40
9.144
  1
φ340
 41
1.1
  7
ＭＳ ゴシック
100
AcDbText
  0
TEXT
  5
388
330
1F
100
AcDbEntity
  8
その他
  6
Continuous
 62
     2
370
   211
100
AcDbText
 10
-48.48652625360089
 20
131.163478078336
 30
0.0
 40
9.144
  1
φ275
 41
1.1
  7
ＭＳ ゴシック
100
AcDbText
  0
TEXT
  5
389
330
1F
100
AcDbEntity
  8
その他
  6
Continuous
 62
     2
370
   211
100
AcDbText
 10
-48.48654375113124
 20
111.163478078336
 30
0.0
 40
9.144
  1
φ162
 41
1.1
  7
ＭＳ ゴシック
100
AcDbText
  0
LINE
  5
38A
330
1F
100
AcDbEntity
  8
その他
  6
Continuous
 62
     7
370
     9
100
AcDbLine
 10
-221.9865087560709
 20
-63.32854718113525
 30
0.0
 11
-221.9865087560709
 21
87.67147807833598
 31
0.0
  0
LINE
  5
38B
330
1F
100
AcDbEntity
  8
その他
  6
Continuous
 62
     7
370
     9
100
AcDbLine
 10
-221.9865087560709
 20
-63.32854718113525
 30
0.0
 11
-222.9654551977213
 21
-55.89271072083167
 31
0.0
  0
LINE
  5
38C
330
1F
100
AcDbEntity
  8
その他
  6
Continuous
 62
     7
370
     9
100
AcDbLine
 10
-221.9865087560709
 20
-63.32854718113525
 30
0.0
 11
-221.0075623144205
 21
-55.89271072083167
 31
0.0
  0
LINE
  5
38D
330
1F
100
AcDbEntity
  8
その他
  6
Continuous
 62
     7
370
     9
100
AcDbLine
 10
-221.9865087560709
 20
87.67147807833598
 30
0.0
 11
-222.9654551977213
 21
80.2356416180324
 31
0.0
  0
LINE
  5
38E
330
1F
100
AcDbEntity
  8
その他
  6
Continuous
 62
     7
370
     9
100
AcDbLine
 10
-221.9865087560709
 20
87.67147807833598
 30
0.0
 11
-221.0075623144205
 21
80.2356416180324
 31
0.0
  0
LINE
  5
38F
330
1F
100
AcDbEntity
  8
その他
  6
Continuous
 62
     7
370
     9
100
AcDbLine
 10
-222.8865087560709
 20
-63.32854718113525
 30
0.0
 11
-118.5482562381903
 21
-63.32854718113526
 31
0.0
  0
LINE
  5
390
330
1F
100
AcDbEntity
  8
その他
  6
Continuous
 62
     7
370
     9
100
AcDbLine
 10
-222.8865087560709
 20
87.67147807833598
 30
0.0
 11
-37.98650875607055
 21
87.67147807833597
 31
0.0
  0
TEXT
  5
391
330
1F
100
AcDbEntity
  8
その他
  6
Continuous
 62
     2
370
   211
100
AcDbText
 10
-225.4785087560709
 20
2.421465448600362
 30
0.0
 40
9.144
  1
151
 50
90.0
 41
1.083333333333333
  7
ＭＳ ゴシック
100
AcDbText
  0
LINE
  5
392
330
1F
100
AcDbEntity
  8
その他
  6
Continuous
 62
     7
370
     9
100
AcDbLine
 10
163.0134912439294
 20
-95.69123359613127
 30
0.0
 11
163.0134912439294
 21
-45.69123359613122
 31
0.0
  0
LINE
  5
393
330
1F
100
AcDbEntity
  8
その他
  6
Continuous
 62
     7
370
     9
100
AcDbLine
 10
163.0134912439294
 20
-95.69123359613127
 30
0.0
 11
162.034544802279
 21
-88.2553971358277
 31
0.0
  0
LINE
  5
394
330
1F
100
AcDbEntity
  8
その他
  6
Continuous
 62
     7
370
     9
100
AcDbLine
 10
163.0134912439294
 20
-95.69123359613127
 30
0.0
 11
163.9924376855798
 21
-88.2553971358277
 31
0.0
  0
LINE
  5
395
330
1F
100
AcDbEntity
  8
その他
  6
Continuous
 62
     7
370
     9
100
AcDbLine
 10
163.0134912439294
 20
-45.69123359613122
 30
0.0
 11
162.034544802279
 21
-53.1270700564348
 31
0.0
  0
LINE
  5
396
330
1F
100
AcDbEntity
  8
その他
  6
Continuous
 62
     7
370
     9
100
AcDbLine
 10
163.0134912439294
 20
-45.69123359613122
 30
0.0
 11
163.9924376855798
 21
-53.1270700564348
 31
0.0
  0
LINE
  5
397
330
1F
100
AcDbEntity
  8
その他
  6
Continuous
 62
     7
370
     9
100
AcDbLine
 10
163.9134912439294
 20
-95.69123359613127
 30
0.0
 11
44.11143472809931
 21
-95.69123359613127
 31
0.0
  0
TEXT
  5
398
330
1F
100
AcDbEntity
  8
その他
  6
Continuous
 62
     2
370
   211
100
AcDbText
 10
159.5214912439294
 20
-77.06623359613124
 30
0.0
 40
9.144
  1
50
 50
90.0
 41
1.0625
  7
ＭＳ ゴシック
100
AcDbText
  0
LINE
  5
399
330
1F
100
AcDbEntity
  8
その他
  6
Continuous
 62
     7
370
     9
100
AcDbLine
 10
183.0134912439294
 20
-165.6912127404892
 30
0.0
 11
183.0134912439294
 21
-45.69123359613122
 31
0.0
  0
LINE
  5
39A
330
1F
100
AcDbEntity
  8
その他
  6
Continuous
 62
     7
370
     9
100
AcDbLine
 10
183.0134912439294
 20
-165.6912127404892
 30
0.0
 11
182.034544802279
 21
-158.2553762801856
 31
0.0
  0
LINE
  5
39B
330
1F
100
AcDbEntity
  8
その他
  6
Continuous
 62
     7
370
     9
100
AcDbLine
 10
183.0134912439294
 20
-165.6912127404892
 30
0.0
 11
183.9924376855798
 21
-158.2553762801856
 31
0.0
  0
LINE
  5
39C
330
1F
100
AcDbEntity
  8
その他
  6
Continuous
 62
     7
370
     9
100
AcDbLine
 10
183.0134912439294
 20
-45.69123359613122
 30
0.0
 11
182.034544802279
 21
-53.1270700564348
 31
0.0
  0
LINE
  5
39D
330
1F
100
AcDbEntity
  8
その他
  6
Continuous
 62
     7
370
     9
100
AcDbLine
 10
183.0134912439294
 20
-45.69123359613122
 30
0.0
 11
183.9924376855798
 21
-53.1270700564348
 31
0.0
  0
LINE
  5
39E
330
1F
100
AcDbEntity
  8
その他
  6
Continuous
 62
     7
370
     9
100
AcDbLine
 10
183.9134912439294
 20
-165.6912127404892
 30
0.0
 11
44.01348111067949
 21
-165.6912127404892
 31
0.0
  0
LINE
  5
39F
330
1F
100
AcDbEntity
  8
その他
  6
Continuous
 62
     7
370
     9
100
AcDbLine
 10
183.9134912439294
 20
-45.69123359613122
 30
0.0
 11
143.0134912439294
 21
-45.69123359613122
 31
0.0
  0
LINE
  5
3A0
330
1F
100
AcDbEntity
  8
その他
  6
Continuous
 62
     7
370
     9
100
AcDbLine
 10
203.9134912439294
 20
-51.79442016296915
 30
0.0
 11
111.0135543999985
 21
-51.79442016296915
 31
0.0
  0
LINE
  5
3A1
330
1F
100
AcDbEntity
  8
その他
  6
Continuous
 62
     7
370
     9
100
AcDbLine
 10
203.0134912439294
 20
-51.79442016296915
 30
0.0
 11
203.0134912439294
 21
87.67147807833595
 31
0.0
  0
LINE
  5
3A2
330
1F
100
AcDbEntity
  8
その他
  6
Continuous
 62
     7
370
     9
100
AcDbLine
 10
203.0134912439294
 20
-51.79442016296915
 30
0.0
 11
202.034544802279
 21
-44.35858370266558
 31
0.0
  0
LINE
  5
3A3
330
1F
100
AcDbEntity
  8
その他
  6
Continuous
 62
     7
370
     9
100
AcDbLine
 10
203.0134912439294
 20
-51.79442016296915
 30
0.0
 11
203.9924376855798
 21
-44.35858370266558
 31
0.0
  0
LINE
  5
3A4
330
1F
100
AcDbEntity
  8
その他
  6
Continuous
 62
     7
370
     9
100
AcDbLine
 10
203.0134912439294
 20
87.67147807833595
 30
0.0
 11
202.034544802279
 21
80.23564161803239
 31
0.0
  0
LINE
  5
3A5
330
1F
100
AcDbEntity
  8
その他
  6
Continuous
 62
     7
370
     9
100
AcDbLine
 10
203.0134912439294
 20
87.67147807833595
 30
0.0
 11
203.9924376855798
 21
80.23564161803239
 31
0.0
  0
LINE
  5
3A6
330
1F
100
AcDbEntity
  8
その他
  6
Continuous
 62
     7
370
     9
100
AcDbLine
 10
203.9134912439294
 20
87.67147807833595
 30
0.0
 11
-25.98650875607055
 21
87.67147807833597
 31
0.0
  0
TEXT
  5
3A7
330
1F
100
AcDbEntity
  8
その他
  6
Continuous
 62
     2
370
   211
100
AcDbText
 10
199.5214912439294
 20
8.188528957683403
 30
0.0
 40
9.144
  1
139
 50
90.0
 41
1.083333333333333
  7
ＭＳ ゴシック
100
AcDbText
  0
LINE
  5
3A8
330
1F
100
AcDbEntity
  8
寸法
  6
Continuous
 62
     7
370
     9
100
AcDbLine
 10
-89.02326312330531
 20
-39.6912225202534
 30
0.0
 11
-92.48637772256806
 21
-33.03864127141675
 31
0.0
  0
LINE
  5
3A9
330
1F
100
AcDbEntity
  8
寸法
  6
Continuous
 62
     7
370
     9
100
AcDbLine
 10
-89.02326312330531
 20
-39.6912225202534
 30
0.0
 11
-90.64656022784109
 21
-32.36900246685391
 31
0.0
  0
LINE
  5
3AA
330
1F
100
AcDbEntity
  8
寸法
  6
Continuous
 62
     7
370
     9
100
AcDbLine
 10
-89.02326312330531
 20
-39.6912225202534
 30
0.0
 11
-164.7150279091991
 21
168.2701920676601
 31
0.0
  0
TEXT
  5
3AB
330
1F
100
AcDbEntity
  8
寸法
  6
Continuous
 62
     7
370
     9
100
AcDbText
 10
-268.6452640689414
 20
172.2580855827573
 30
0.0
 40
6.858000000000001
  1
ボルト：Ｃ３６０２Ｗ
 41
1.15
  7
ＭＳ ゴシック
100
AcDbText
  0
TEXT
  5
3AC
330
1F
100
AcDbEntity
  8
寸法
  6
Continuous
 62
     7
370
     9
100
AcDbText
 10
-242.1801484634685
 20
157.5883682580106
 30
0.0
 40
6.858000000000001
  1
Ｍ８×４０
 41
1.133333333333335
  7
ＭＳ ゴシック
100
AcDbText
  0
TEXT
  5
3AD
330
1F
100
AcDbEntity
  8
寸法
  6
Continuous
 62
     7
370
     9
100
AcDbText
 10
-173.2423142136843
 20
188.6984758551347
 30
0.0
 40
6.858000000000001
  1
樹脂系塗装
 41
1.133333333333332
  7
ＭＳ ゴシック
100
AcDbText
  0
TEXT
  5
3AE
330
1F
100
AcDbEntity
  8
寸法
  6
Continuous
 62
     7
370
     9
100
AcDbText
 10
-214.4746618567376
 20
202.6585357685638
 30
0.0
 40
6.858000000000001
  1
ストレーナー：ＦＣ１５０
 41
1.152777777777777
  7
ＭＳ ゴシック
100
AcDbText
  0
LINE
  5
3AF
330
1F
100
AcDbEntity
  8
寸法
  6
Continuous
 62
     7
370
     9
100
AcDbLine
 10
-49.98649343836721
 20
84.64719853178235
 30
0.0
 11
-91.49865639496566
 21
198.7009288877572
 31
0.0
  0
LINE
  5
3B0
330
1F
100
AcDbEntity
  8
寸法
  6
Continuous
 62
     7
370
     9
100
AcDbLine
 10
-49.98649343836721
 20
84.64719853178235
 30
0.0
 11
-53.44960803762996
 21
91.29977978061902
 31
0.0
  0
LINE
  5
3B1
330
1F
100
AcDbEntity
  8
寸法
  6
Continuous
 62
     7
370
     9
100
AcDbLine
 10
-49.98649343836721
 20
84.64719853178235
 30
0.0
 11
-51.60979054290297
 21
91.96941858518186
 31
0.0
  0
LINE
  5
3B2
330
1F
100
AcDbEntity
  8
寸法
  6
Continuous
 62
     7
370
     9
100
AcDbLine
 10
-164.7150279091991
 20
168.2701920676601
 30
0.0
 11
-268.6452690177378
 21
168.2701920676601
 31
0.0
  0
LINE
  5
3B3
330
1F
100
AcDbEntity
  8
建具
  6
Continuous
 62
     4
370
     9
100
AcDbLine
 10
-101.9864986228206
 20
-165.6912127404891
 30
0.0
 11
-101.9864986228206
 21
-95.69123359613126
 31
0.0
  0
LINE
  5
3B4
330
1F
100
AcDbEntity
  8
建具
  6
Continuous
 62
     4
370
     9
100
AcDbLine
 10
-97.48655376655262
 20
-165.6912127404891
 30
0.0
 11
-97.48655376655262
 21
-95.69123359613126
 31
0.0
  0
LINE
  5
3B5
330
1F
100
AcDbEntity
  8
建具
  6
Continuous
 62
     4
370
     9
100
AcDbLine
 10
33.51353625441146
 20
-165.6912127404892
 30
0.0
 11
33.51353625441147
 21
-95.69123359613127
 31
0.0
  0
LINE
  5
3B6
330
1F
100
AcDbEntity
  8
建具
  6
Continuous
 62
     4
370
     9
100
AcDbLine
 10
38.01348111067949
 20
-165.6912127404892
 30
0.0
 11
38.0134811106795
 21
-95.69123359613127
 31
0.0
  0
LINE
  5
3B7
330
1F
100
AcDbEntity
  8
寸法
  6
Continuous
 62
     7
370
     9
100
AcDbLine
 10
44.49250163074598
 20
-51.73986286344714
 30
0.0
 11
47.36260562145552
 21
-44.81075602223098
 31
0.0
  0
LINE
  5
3B8
330
1F
100
AcDbEntity
  8
寸法
  6
Continuous
 62
     7
370
     9
100
AcDbLine
 10
44.49250163074598
 20
-51.73986286344714
 30
0.0
 11
45.47147254501974
 21
-44.30401163746535
 31
0.0
  0
LINE
  5
3B9
330
1F
100
AcDbEntity
  8
寸法
  6
Continuous
 62
     7
370
     9
100
AcDbLine
 10
44.49250163074598
 20
-51.73986286344714
 30
0.0
 11
103.4441135665623
 21
168.2701920676601
 31
0.0
  0
TEXT
  5
3BA
330
1F
100
AcDbEntity
  8
寸法
  6
Continuous
 62
     7
370
     9
100
AcDbText
 10
131.4581064907135
 20
158.4035399854216
 30
0.0
 40
6.858000000000001
  1
Ｍ６×１２
 41
1.133333333333333
  7
ＭＳ ゴシック
100
AcDbText
  0
LINE
  5
3BB
330
1F
100
AcDbEntity
  8
寸法
  6
Continuous
 62
     7
370
     9
100
AcDbLine
 10
103.4441135665623
 20
168.2701920676601
 30
0.0
 11
220.7397439205287
 21
168.2701920676601
 31
0.0
  0
TEXT
  5
3BC
330
1F
100
AcDbEntity
  8
寸法
  6
Continuous
 62
     7
370
     9
100
AcDbText
 10
106.7397439205287
 20
172.494604339721
 30
0.0
 40
6.858000000000001
  1
丸小ねじ：Ｃ２７００Ｗ
 41
1.151515151515151
  7
ＭＳ ゴシック
100
AcDbText
  0
LINE
  5
3BD
330
1F
100
AcDbEntity
  8
寸法
  6
Continuous
 62
     7
370
     9
100
AcDbLine
 10
-214.4746630939366
 20
198.7009288877572
 30
0.0
 11
-91.49865639496566
 21
198.7009288877572
 31
0.0
  0
LINE
  5
3BE
330
1F
100
AcDbEntity
  8
寸法
  6
Continuous
 62
     7
370
     9
100
AcDbLine
 10
30.11340928984592
 20
-51.79442016296915
 30
0.0
 11
31.09238020411968
 21
-44.35860605296071
 31
0.0
  0
LINE
  5
3BF
330
1F
100
AcDbEntity
  8
寸法
  6
Continuous
 62
     7
370
     9
100
AcDbLine
 10
30.11340928984592
 20
-51.79442016296915
 30
0.0
 11
32.98351328055546
 21
-44.86535043772633
 31
0.0
  0
LINE
  5
3C0
330
1F
100
AcDbEntity
  8
寸法
  6
Continuous
 62
     7
370
     9
100
AcDbLine
 10
30.11340928984592
 20
-51.79442016296915
 30
0.0
 11
97.23342730831385
 21
198.7009288877572
 31
0.0
  0
LINE
  5
3C1
330
1F
100
AcDbEntity
  8
寸法
  6
Continuous
 62
     7
370
     9
100
AcDbLine
 10
97.23342730831388
 20
198.7009288877572
 30
0.0
 11
216.123720886673
 21
198.7009288877572
 31
0.0
  0
TEXT
  5
3C2
330
1F
100
AcDbEntity
  8
寸法
  6
Continuous
 62
     7
370
     9
100
AcDbText
 10
128.5975104110604
 20
188.9471157609096
 30
0.0
 40
6.858000000000001
  1
樹脂系塗装
 41
1.133333333333333
  7
ＭＳ ゴシック
100
AcDbText
  0
TEXT
  5
3C3
330
1F
100
AcDbEntity
  8
寸法
  6
Continuous
 62
     7
370
     9
100
AcDbText
 10
102.9970572662653
 20
202.4905117570034
 30
0.0
 40
6.858000000000001
  1
防水層押え：ＦＣ１５０
 41
1.151515151515148
  7
ＭＳ ゴシック
100
AcDbText
  0
LINE
  5
3C4
330
1F
100
AcDbEntity
  8
寸法
  6
Continuous
 62
     7
370
     9
100
AcDbLine
 10
-121.3170420716366
 20
-187.3925193607005
 30
0.0
 11
-101.9864986228206
 21
-153.9110359694336
 31
0.0
  0
LINE
  5
3C5
330
1F
100
AcDbEntity
  8
寸法
  6
Continuous
 62
     7
370
     9
100
AcDbLine
 10
-187.7784360773295
 20
-128.2009915399497
 30
0.0
 11
-171.201943534607
 21
-99.48966424466764
 31
0.0
  0
LINE
  5
3C6
330
1F
100
AcDbEntity
  8
寸法
  6
Continuous
 62
     7
370
     9
100
AcDbLine
 10
-171.201943534607
 20
-99.48966424466764
 30
0.0
 11
-174.0720692773451
 21
-106.4187607385023
 31
0.0
  0
LINE
  5
3C7
330
1F
100
AcDbEntity
  8
寸法
  6
Continuous
 62
     7
370
     9
100
AcDbLine
 10
-171.201943534607
 20
-99.48966424466764
 30
0.0
 11
-175.7676542521723
 21
-105.4398142968519
 31
0.0
  0
LINE
  5
3C8
330
1F
100
AcDbEntity
  8
寸法
  6
Continuous
 62
     7
370
     9
100
AcDbLine
 10
-101.9864986228206
 20
-153.9110359694336
 30
0.0
 11
-104.8566243655588
 21
-160.8401324632682
 31
0.0
  0
LINE
  5
3C9
330
1F
100
AcDbEntity
  8
寸法
  6
Continuous
 62
     7
370
     9
100
AcDbLine
 10
-101.9864986228206
 20
-153.9110359694336
 30
0.0
 11
-106.552209340386
 21
-159.8611860216178
 31
0.0
  0
LINE
  5
3CA
330
1F
100
AcDbEntity
  8
寸法
  6
Continuous
 62
     7
370
     9
100
AcDbLine
 10
-172.907280264293
 20
-160.6496298563492
 30
0.0
 11
-121.6442137755712
 21
-71.85939414610162
 31
0.0
  0
LINE
  5
3CB
330
1F
100
AcDbEntity
  8
寸法
  6
Continuous
 62
     7
370
     9
100
AcDbLine
 10
-121.6442137755712
 20
-71.85939414610162
 30
0.0
 11
-124.5143395183094
 21
-78.78849063993626
 31
0.0
  0
LINE
  5
3CC
330
1F
100
AcDbEntity
  8
寸法
  6
Continuous
 62
     7
370
     9
100
AcDbLine
 10
-121.6442137755712
 20
-71.85939414610162
 30
0.0
 11
-126.2099244931366
 21
-77.80954419828586
 31
0.0
  0
TEXT
  5
3CD
330
1F
100
AcDbEntity
  8
寸法
  6
Continuous
 62
     7
370
     9
100
AcDbText
 10
-200.3317038769453
 20
-183.7034094314352
 30
0.0
 40
6.858000000000001
  1
スペーサー
 41
1.133333333333333
  7
ＭＳ ゴシック
100
AcDbText
  0
LINE
  5
3CE
330
1F
100
AcDbEntity
  8
寸法
  6
Continuous
 62
     7
370
     9
100
AcDbLine
 10
-121.3170420716366
 20
-187.3925193607005
 30
0.0
 11
-227.1887033110511
 21
-187.3925193607005
 31
0.0
  0
TEXT
  5
3CF
330
1F
100
AcDbEntity
  8
寸法
  6
Continuous
 62
     7
370
     9
100
AcDbText
 10
-269.2361385800277
 20
-137.5350972396435
 30
0.0
 40
6.858000000000001
  1
りん酸塩被膜
 41
1.138888888888889
  7
ＭＳ ゴシック
100
AcDbText
  0
LINE
  5
3D0
330
1F
100
AcDbEntity
  8
寸法
  6
Continuous
 62
     7
370
     9
100
AcDbLine
 10
-187.7784360773295
 20
-128.2009915399497
 30
0.0
 11
-291.6801249535655
 21
-128.2009915399497
 31
0.0
  0
TEXT
  5
3D1
330
1F
100
AcDbEntity
  8
寸法
  6
Continuous
 62
     7
370
     9
100
AcDbText
 10
-291.1549926784332
 20
-124.7868367415967
 30
0.0
 40
6.858000000000001
  1
アンカー：ＳＷＲＭ８
 41
1.15
  7
ＭＳ ゴシック
100
AcDbText
  0
LINE
  5
3D2
330
1F
100
AcDbEntity
  8
寸法
  6
Continuous
 62
     7
370
     9
100
AcDbLine
 10
-258.455970546413
 20
-160.6496298563492
 30
0.0
 11
-172.907280264293
 21
-160.6496298563492
 31
0.0
  0
TEXT
  5
3D3
330
1F
100
AcDbEntity
  8
寸法
  6
Continuous
 62
     7
370
     9
100
AcDbText
 10
-242.0653426596152
 20
-169.803723085076
 30
0.0
 40
6.858000000000001
  1
樹脂系塗装
 41
1.133333333333333
  7
ＭＳ ゴシック
100
AcDbText
  0
TEXT
  5
3D4
330
1F
100
AcDbEntity
  8
寸法
  6
Continuous
 62
     7
370
     9
100
AcDbText
 10
-255.7241544865788
 20
-157.0554625870292
 30
0.0
 40
6.858000000000001
  1
本体：ＦＣ１５０
 41
1.145833333333333
  7
ＭＳ ゴシック
100
AcDbText
  0
TEXT
  5
3D5
330
1F
100
AcDbEntity
  8
その他
  6
Continuous
 62
     2
370
   211
100
AcDbText
 10
179.5214912439293
 20
-111.6912231683102
 30
0.0
 40
9.144
  1
Ｃ
 50
90.0
  7
ＭＳ ゴシック
100
AcDbText
  0
TEXT
  5
3D6
330
1F
100
AcDbEntity
  8
寸法
  6
Continuous
 62
     7
370
     9
100
AcDbText
 10
-220.959021514805
 20
-199.094254555371
 30
0.0
 40
6.858000000000001
  1
硬質ポリ塩化ビニル
 41
1.148148148148148
  7
ＭＳ ゴシック
100
AcDbText
  0
TEXT
  5
3D7
330
1F
100
AcDbEntity
  8
F-4ﾚｲﾔ
  6
Continuous
 62
     2
370
     9
100
AcDbText
 10
-63.40075757575758
 20
-346.440828407225
 30
0.0
 40
9.144
  1
アスファルト・改質アスファルトシート・シート防水用　ＷＨＰ－１－１００　Ｃ＝指示
 41
0.5993750000000001
  7
ＭＳ ゴシック
100
AcDbText
  0
TEXT
  5
3D8
330
1F
100
AcDbEntity
  8
F-5ﾚｲﾔ
  6
Continuous
 62
     2
370
     0
100
AcDbText
 10
-30.12125000000002
 20
-280.79925
 30
0.0
 40
9.144
  1
※ご注文の際はＣ寸法をご指示ください。
 41
1.118421052631579
  7
ＭＳ ゴシック
100
AcDbText
  0
ENDSEC
  0
SECTION
  2
OBJECTS
  0
DICTIONARY
  5
C
330
0
100
AcDbDictionary
281
     1
  3
ACAD_DETAILVIEWSTYLE
350
41E
  3
ACAD_GROUP
350
D
  3
ACAD_LAYOUT
350
1A
  3
ACAD_MATERIAL
350
43
  3
ACAD_MLEADERSTYLE
350
6B
  3
ACAD_MLINESTYLE
350
17
  3
ACAD_PLOTSETTINGS
350
19
  3
ACAD_PLOTSTYLENAME
350
E
  3
ACAD_SCALELIST
350
47
  3
ACAD_SECTIONVIEWSTYLE
350
41F
  3
ACAD_TABLESTYLE
350
69
  3
ACAD_VISUALSTYLE
350
2A
  3
ACDB_RECOMPOSE_DATA
350
41B
  3
AcDbVariableDictionary
350
3DB
  0
DICTIONARY
  5
3D9
330
8
100
AcDbDictionary
280
     1
281
     1
  3
ACAD_XREC_ROUNDTRIP
360
3DA
  0
DICTIONARY
  5
41E
102
{ACAD_REACTORS
330
C
102
}
330
C
100
AcDbDictionary
281
     1
  0
DICTIONARY
  5
D
102
{ACAD_REACTORS
330
C
102
}
330
C
100
AcDbDictionary
281
     1
  0
DICTIONARY
  5
1A
102
{ACAD_REACTORS
330
C
102
}
330
C
100
AcDbDictionary
281
     1
  3
Layout1
350
1E
  3
Layout2
350
26
  3
Model
350
22
  0
DICTIONARY
  5
43
102
{ACAD_REACTORS
330
C
102
}
330
C
100
AcDbDictionary
281
     1
  3
ByBlock
350
45
  3
ByLayer
350
44
  3
Global
350
46
  0
DICTIONARY
  5
6B
102
{ACAD_REACTORS
330
C
102
}
330
C
100
AcDbDictionary
281
     1
  3
Standard
350
6C
  0
DICTIONARY
  5
17
102
{ACAD_REACTORS
330
C
102
}
330
C
100
AcDbDictionary
281
     1
  3
Standard
350
18
  0
DICTIONARY
  5
19
102
{ACAD_REACTORS
330
C
102
}
330
C
100
AcDbDictionary
281
     1
  0
ACDBDICTIONARYWDFLT
  5
E
102
{ACAD_REACTORS
330
C
102
}
330
C
100
AcDbDictionary
281
     1
  3
Normal
350
F
100
AcDbDictionaryWithDefault
340
F
  0
DICTIONARY
  5
47
102
{ACAD_REACTORS
330
C
102
}
330
C
100
AcDbDictionary
281
     1
  3
A0
350
48
  3
A1
350
49
  3
A2
350
4A
  3
A3
350
4B
  3
A4
350
4C
  3
A5
350
4D
  3
A6
350
4E
  3
A7
350
4F
  3
A8
350
50
  3
A9
350
51
  3
B0
350
52
  3
B1
350
53
  3
B2
350
54
  3
B3
350
55
  3
B4
350
56
  3
B5
350
57
  3
B6
350
58
  3
B7
350
59
  3
B8
350
5A
  3
B9
350
5B
  3
C0
350
5C
  3
C1
350
5D
  3
C2
350
5E
  3
C3
350
5F
  3
C4
350
60
  3
C5
350
61
  3
C6
350
62
  3
C7
350
63
  3
C8
350
64
  3
C9
350
65
  3
D0
350
66
  3
D1
350
67
  3
D2
350
68
  0
DICTIONARY
  5
41F
102
{ACAD_REACTORS
330
C
102
}
330
C
100
AcDbDictionary
281
     1
  0
DICTIONARY
  5
69
102
{ACAD_REACTORS
330
C
102
}
330
C
100
AcDbDictionary
281
     1
  3
Standard
350
6A
  0
DICTIONARY
  5
2A
102
{ACAD_REACTORS
330
C
102
}
330
C
100
AcDbDictionary
281
     1
  3
2dWireframe
350
2F
  3
Basic
350
32
  3
Brighten
350
36
  3
ColorChange
350
3A
  3
Conceptual
350
34
  3
Dim
350
35
  3
EdgeColorOff
350
3D
  3
Facepattern
350
39
  3
Flat
350
2B
  3
FlatWithEdges
350
2C
  3
Gouraud
350
2D
  3
GouraudWithEdges
350
2E
  3
Hidden
350
31
  3
JitterOff
350
3B
  3
Linepattern
350
38
  3
OverhangOff
350
3C
  3
Realistic
350
33
  3
Shaded
350
42
  3
Shaded with edges
350
41
  3
Shades of Gray
350
3E
  3
Sketchy
350
3F
  3
Thicken
350
37
  3
Wireframe
350
30
  3
X-Ray
350
40
  0
XRECORD
  5
41B
102
{ACAD_REACTORS
330
C
102
}
330
C
100
AcDbXrecord
280
     1
 90
        1
330
6A
  0
DICTIONARY
  5
3DB
102
{ACAD_REACTORS
330
C
102
}
330
C
100
AcDbDictionary
281
     1
  3
CANNOSCALE
350
3DC
  3
CENTEREXE
350
420
  3
CENTERLTYPEFILE
350
421
  3
CMLEADERSTYLE
350
41D
  3
CTABLESTYLE
350
41C
  3
MSLTSCALE
350
3DD
  3
XCLIPFRAME
350
3DE
  0
XRECORD
  5
3DA
102
{ACAD_REACTORS
330
3D9
102
}
330
3D9
100
AcDbXrecord
280
     1
102
VTR_0.000_0.000_1.000_1.000_VISUALSTYLE
340
2F
102
VTR_0.000_0.000_1.000_1.000_GRIDDISPLAY
 70
     3
102
VTR_0.000_0.000_1.000_1.000_GRIDMAJOR
 70
     5
102
VTR_0.000_0.000_1.000_1.000_DEFAULTLIGHTING
280
     1
102
VTR_0.000_0.000_1.000_1.000_DEFAULTLIGHTINGTYPE
 70
     1
102
VTR_0.000_0.000_1.000_1.000_BRIGHTNESS
141
0.0
102
VTR_0.000_0.000_1.000_1.000_CONTRAST
142
0.0
  0
LAYOUT
  5
1E
102
{ACAD_REACTORS
330
1A
102
}
330
1A
100
AcDbPlotSettings
  1

  2
none_device
  4

  6

 40
0.0
 41
0.0
 42
0.0
 43
0.0
 44
0.0
 45
0.0
 46
0.0
 47
0.0
 48
0.0
 49
0.0
140
0.0
141
0.0
142
1.0
143
1.0
 70
   688
 72
     1
 73
     0
 74
     5
  7

 75
    16
 76
     0
 77
     5
 78
   300
147
1.0
148
0.0
149
0.0
100
AcDbLayout
  1
Layout1
 70
     1
 71
     1
 10
0.0
 20
0.0
 11
420.0
 21
297.0
 12
0.0
 22
0.0
 32
0.0
 14
1.000000000000000E+20
 24
1.000000000000000E+20
 34
1.000000000000000E+20
 15
-1.000000000000000E+20
 25
-1.000000000000000E+20
 35
-1.000000000000000E+20
146
0.0
 13
0.0
 23
0.0
 33
0.0
 16
1.0
 26
0.0
 36
0.0
 17
0.0
 27
1.0
 37
0.0
 76
     0
330
1B
  0
LAYOUT
  5
26
102
{ACAD_REACTORS
330
1A
102
}
330
1A
100
AcDbPlotSettings
  1

  2
none_device
  4

  6

 40
0.0
 41
0.0
 42
0.0
 43
0.0
 44
0.0
 45
0.0
 46
0.0
 47
0.0
 48
0.0
 49
0.0
140
0.0
141
0.0
142
1.0
143
1.0
 70
   688
 72
     1
 73
     0
 74
     5
  7

 75
    16
 76
     0
 77
     5
 78
   300
147
1.0
148
0.0
149
0.0
100
AcDbLayout
  1
Layout2
 70
     1
 71
     2
 10
0.0
 20
0.0
 11
0.0
 21
0.0
 12
0.0
 22
0.0
 32
0.0
 14
0.0
 24
0.0
 34
0.0
 15
0.0
 25
0.0
 35
0.0
146
0.0
 13
0.0
 23
0.0
 33
0.0
 16
1.0
 26
0.0
 36
0.0
 17
0.0
 27
1.0
 37
0.0
 76
     0
330
23
  0
LAYOUT
  5
22
102
{ACAD_REACTORS
330
1A
102
}
330
1A
100
AcDbPlotSettings
  1

  2
none_device
  4
Letter_(8.50_x_11.00_Inches)
  6

 40
6.35
 41
6.35
 42
6.35000508
 43
6.35000508
 44
215.9
 45
279.4
 46
0.0
 47
0.0
 48
0.0
 49
0.0
140
0.0
141
0.0
142
1.0
143
1.0
 70
  1712
 72
     1
 73
     0
 74
     0
  7

 75
     0
 76
     0
 77
     5
 78
   300
147
1.0
148
0.0
149
0.0
100
AcDbLayout
  1
Model
 70
     1
 71
     0
 10
-630.0
 20
-445.5
 11
630.0
 21
445.5
 12
0.0
 22
0.0
 32
0.0
 14
-630.0
 24
-445.5
 34
0.0
 15
630.0
 25
445.5
 35
0.0
146
0.0
 13
0.0
 23
0.0
 33
0.0
 16
1.0
 26
0.0
 36
0.0
 17
0.0
 27
1.0
 37
0.0
 76
     0
330
1F
331
29
  0
MATERIAL
  5
45
102
{ACAD_REACTORS
330
43
102
}
102
{ACAD_XDICTIONARY
360
411
102
}
330
43
100
AcDbMaterial
  1
ByBlock
  0
MATERIAL
  5
44
102
{ACAD_REACTORS
330
43
102
}
102
{ACAD_XDICTIONARY
360
40F
102
}
330
43
100
AcDbMaterial
  1
ByLayer
  0
MATERIAL
  5
46
102
{ACAD_REACTORS
330
43
102
}
102
{ACAD_XDICTIONARY
360
413
102
}
330
43
100
AcDbMaterial
  1
Global
  0
MLEADERSTYLE
  5
6C
102
{ACAD_REACTORS
330
6B
102
}
102
{ACAD_XDICTIONARY
360
419
102
}
330
6B
100
AcDbMLeaderStyle
170
     2
171
     1
172
     0
 90
        2
 40
0.0
 41
0.0
173
     1
 91
-1056964608
340
14
 92
       -2
290
     1
 42
2.0
291
     1
 43
8.0
  3
Standard
341
0
 44
4.0
300

342
11
174
     1
178
     6
175
     1
176
     0
 93
-1056964608
 45
4.0
292
     0
297
     0
 46
4.0
343
0
 94
-1056964608
 47
1.0
 49
1.0
140
1.0
293
     1
141
0.0
294
     1
177
     0
142
1.0
295
     0
296
     0
143
3.75
1001
ACAD_MLEADERVER
1070
     2
  0
MLINESTYLE
  5
18
102
{ACAD_REACTORS
330
17
102
}
330
17
100
AcDbMlineStyle
  2
Standard
 70
     0
  3

 62
   256
 51
90.0
 52
90.0
 71
     2
 49
0.5
 62
   256
  6
BYLAYER
 49
-0.5
 62
   256
  6
BYLAYER
  0
ACDBPLACEHOLDER
  5
F
102
{ACAD_REACTORS
330
E
102
}
330
E
  0
SCALE
  5
48
102
{ACAD_REACTORS
330
47
102
}
330
47
100
AcDbScale
 70
     0
300
1:1
140
1.0
141
1.0
290
     1
  0
SCALE
  5
49
102
{ACAD_REACTORS
330
47
102
}
330
47
100
AcDbScale
 70
     0
300
1:2
140
1.0
141
2.0
290
     0
  0
SCALE
  5
4A
102
{ACAD_REACTORS
330
47
102
}
330
47
100
AcDbScale
 70
     0
300
1:4
140
1.0
141
4.0
290
     0
  0
SCALE
  5
4B
102
{ACAD_REACTORS
330
47
102
}
330
47
100
AcDbScale
 70
     0
300
1:5
140
1.0
141
5.0
290
     0
  0
SCALE
  5
4C
102
{ACAD_REACTORS
330
47
102
}
330
47
100
AcDbScale
 70
     0
300
1:8
140
1.0
141
8.0
290
     0
  0
SCALE
  5
4D
102
{ACAD_REACTORS
330
47
102
}
330
47
100
AcDbScale
 70
     0
300
1:10
140
1.0
141
10.0
290
     0
  0
SCALE
  5
4E
102
{ACAD_REACTORS
330
47
102
}
330
47
100
AcDbScale
 70
     0
300
1:16
140
1.0
141
16.0
290
     0
  0
SCALE
  5
4F
102
{ACAD_REACTORS
330
47
102
}
330
47
100
AcDbScale
 70
     0
300
1:20
140
1.0
141
20.0
290
     0
  0
SCALE
  5
50
102
{ACAD_REACTORS
330
47
102
}
330
47
100
AcDbScale
 70
     0
300
1:30
140
1.0
141
30.0
290
     0
  0
SCALE
  5
51
102
{ACAD_REACTORS
330
47
102
}
330
47
100
AcDbScale
 70
     0
300
1:40
140
1.0
141
40.0
290
     0
  0
SCALE
  5
52
102
{ACAD_REACTORS
330
47
102
}
330
47
100
AcDbScale
 70
     0
300
1:50
140
1.0
141
50.0
290
     0
  0
SCALE
  5
53
102
{ACAD_REACTORS
330
47
102
}
330
47
100
AcDbScale
 70
     0
300
1:100
140
1.0
141
100.0
290
     0
  0
SCALE
  5
54
102
{ACAD_REACTORS
330
47
102
}
330
47
100
AcDbScale
 70
     0
300
2:1
140
2.0
141
1.0
290
     0
  0
SCALE
  5
55
102
{ACAD_REACTORS
330
47
102
}
330
47
100
AcDbScale
 70
     0
300
4:1
140
4.0
141
1.0
290
     0
  0
SCALE
  5
56
102
{ACAD_REACTORS
330
47
102
}
330
47
100
AcDbScale
 70
     0
300
8:1
140
8.0
141
1.0
290
     0
  0
SCALE
  5
57
102
{ACAD_REACTORS
330
47
102
}
330
47
100
AcDbScale
 70
     0
300
10:1
140
10.0
141
1.0
290
     0
  0
SCALE
  5
58
102
{ACAD_REACTORS
330
47
102
}
330
47
100
AcDbScale
 70
     0
300
100:1
140
100.0
141
1.0
290
     0
  0
SCALE
  5
59
102
{ACAD_REACTORS
330
47
102
}
330
47
100
AcDbScale
 70
     0
300
1/128" = 1'-0"
140
0.0078125
141
12.0
290
     0
  0
SCALE
  5
5A
102
{ACAD_REACTORS
330
47
102
}
330
47
100
AcDbScale
 70
     0
300
1/64" = 1'-0"
140
0.015625
141
12.0
290
     0
  0
SCALE
  5
5B
102
{ACAD_REACTORS
330
47
102
}
330
47
100
AcDbScale
 70
     0
300
1/32" = 1'-0"
140
0.03125
141
12.0
290
     0
  0
SCALE
  5
5C
102
{ACAD_REACTORS
330
47
102
}
330
47
100
AcDbScale
 70
     0
300
1/16" = 1'-0"
140
0.0625
141
12.0
290
     0
  0
SCALE
  5
5D
102
{ACAD_REACTORS
330
47
102
}
330
47
100
AcDbScale
 70
     0
300
3/32" = 1'-0"
140
0.09375
141
12.0
290
     0
  0
SCALE
  5
5E
102
{ACAD_REACTORS
330
47
102
}
330
47
100
AcDbScale
 70
     0
300
1/8" = 1'-0"
140
0.125
141
12.0
290
     0
  0
SCALE
  5
5F
102
{ACAD_REACTORS
330
47
102
}
330
47
100
AcDbScale
 70
     0
300
3/16" = 1'-0"
140
0.1875
141
12.0
290
     0
  0
SCALE
  5
60
102
{ACAD_REACTORS
330
47
102
}
330
47
100
AcDbScale
 70
     0
300
1/4" = 1'-0"
140
0.25
141
12.0
290
     0
  0
SCALE
  5
61
102
{ACAD_REACTORS
330
47
102
}
330
47
100
AcDbScale
 70
     0
300
3/8" = 1'-0"
140
0.375
141
12.0
290
     0
  0
SCALE
  5
62
102
{ACAD_REACTORS
330
47
102
}
330
47
100
AcDbScale
 70
     0
300
1/2" = 1'-0"
140
0.5
141
12.0
290
     0
  0
SCALE
  5
63
102
{ACAD_REACTORS
330
47
102
}
330
47
100
AcDbScale
 70
     0
300
3/4" = 1'-0"
140
0.75
141
12.0
290
     0
  0
SCALE
  5
64
102
{ACAD_REACTORS
330
47
102
}
330
47
100
AcDbScale
 70
     0
300
1" = 1'-0"
140
1.0
141
12.0
290
     0
  0
SCALE
  5
65
102
{ACAD_REACTORS
330
47
102
}
330
47
100
AcDbScale
 70
     0
300
1-1/2" = 1'-0"
140
1.5
141
12.0
290
     0
  0
SCALE
  5
66
102
{ACAD_REACTORS
330
47
102
}
330
47
100
AcDbScale
 70
     0
300
3" = 1'-0"
140
3.0
141
12.0
290
     0
  0
SCALE
  5
67
102
{ACAD_REACTORS
330
47
102
}
330
47
100
AcDbScale
 70
     0
300
6" = 1'-0"
140
6.0
141
12.0
290
     0
  0
SCALE
  5
68
102
{ACAD_REACTORS
330
47
102
}
330
47
100
AcDbScale
 70
     0
300
1'-0" = 1'-0"
140
12.0
141
12.0
290
     0
  0
TABLESTYLE
  5
6A
102
{ACAD_REACTORS
330
69
102
}
102
{ACAD_XDICTIONARY
360
415
102
}
330
69
100
AcDbTableStyle
  3
Standard
 70
     0
 71
     0
 40
0.06
 41
0.06
280
     0
281
     0
  7
Standard
140
4.5
170
     2
 62
     0
 63
   257
283
     0
274
    -2
284
     1
 64
     0
275
    -2
285
     1
 65
     0
276
    -2
286
     1
 66
     0
277
    -2
287
     1
 67
     0
278
    -2
288
     1
 68
     0
279
    -2
289
     1
 69
     0
  7
Standard
140
6.0
170
     5
 62
     0
 63
   257
283
     0
274
    -2
284
     1
 64
     0
275
    -2
285
     1
 65
     0
276
    -2
286
     1
 66
     0
277
    -2
287
     1
 67
     0
278
    -2
288
     1
 68
     0
279
    -2
289
     1
 69
     0
  7
Standard
140
4.5
170
     5
 62
     0
 63
   257
283
     0
274
    -2
284
     1
 64
     0
275
    -2
285
     1
 65
     0
276
    -2
286
     1
 66
     0
277
    -2
287
     1
 67
     0
278
    -2
288
     1
 68
     0
279
    -2
289
     1
 69
     0
  0
VISUALSTYLE
  5
2F
102
{ACAD_REACTORS
330
2A
102
}
102
{ACAD_XDICTIONARY
360
3E7
102
}
330
2A
100
AcDbVisualStyle
  2
2dWireframe
 70
     4
 71
     0
 72
     2
 73
     0
 90
        0
 40
0.6
 41
30.0
 62
     5
 63
     7
421
 16777215
 74
     1
 91
        4
 64
     7
 65
   257
 75
     1
175
     1
 42
1.0
 92
        0
 66
   257
 43
1.0
 76
     1
 77
     6
 78
     2
 67
     7
 79
     5
170
     0
171
     0
290
     0
174
     0
 93
        1
 44
0.0
173
     0
291
     0
 45
0.0
1001
ACAD
1000
AcDbSavedByObjectVersion
1070
     0
  0
VISUALSTYLE
  5
32
102
{ACAD_REACTORS
330
2A
102
}
102
{ACAD_XDICTIONARY
360
3ED
102
}
330
2A
100
AcDbVisualStyle
  2
Basic
 70
     7
 71
     1
 72
     0
 73
     1
 90
        0
 40
0.6
 41
30.0
 62
     5
 63
     7
421
 16777215
 74
     0
 91
        4
 64
     7
 65
   257
 75
     1
175
     1
 42
1.0
 92
        8
 66
     7
 43
1.0
 76
     1
 77
     6
 78
     2
 67
     7
 79
     5
170
     0
171
     0
290
     0
174
     0
 93
        1
 44
0.0
173
     0
291
     1
 45
0.0
1001
ACAD
1000
AcDbSavedByObjectVersion
1070
     0
  0
VISUALSTYLE
  5
36
102
{ACAD_REACTORS
330
2A
102
}
102
{ACAD_XDICTIONARY
360
3F5
102
}
330
2A
100
AcDbVisualStyle
  2
Brighten
 70
    12
 71
     2
 72
     2
 73
     0
 90
        0
 40
0.6
 41
30.0
 62
     5
 63
     7
421
 16777215
 74
     1
 91
        4
 64
     7
 65
   257
 75
     1
175
     1
 42
1.0
 92
        8
 66
     7
 43
1.0
 76
     1
 77
     6
 78
     2
 67
     7
 79
     5
170
     0
171
     0
290
     0
174
     0
 93
        1
 44
50.0
173
     0
291
     1
 45
0.0
1001
ACAD
1000
AcDbSavedByObjectVersion
1070
     0
  0
VISUALSTYLE
  5
3A
102
{ACAD_REACTORS
330
2A
102
}
102
{ACAD_XDICTIONARY
360
3FD
102
}
330
2A
100
AcDbVisualStyle
  2
ColorChange
 70
    16
 71
     2
 72
     2
 73
     3
 90
        0
 40
0.6
 41
30.0
 62
     5
 63
     8
421
  8421504
 74
     1
 91
        4
 64
     7
 65
   257
 75
     1
175
     1
 42
1.0
 92
        8
 66
     8
424
  8421504
 43
1.0
 76
     1
 77
     6
 78
     2
 67
     7
 79
     5
170
     0
171
     0
290
     0
174
     0
 93
        1
 44
0.0
173
     0
291
     1
 45
0.0
1001
ACAD
1000
AcDbSavedByObjectVersion
1070
     0
  0
VISUALSTYLE
  5
34
102
{ACAD_REACTORS
330
2A
102
}
102
{ACAD_XDICTIONARY
360
3F1
102
}
330
2A
100
AcDbVisualStyle
  2
Conceptual
 70
     9
 71
     3
 72
     2
 73
     0
 90
        0
 40
0.6
 41
30.0
 62
     5
 63
     7
421
 16777215
 74
     2
 91
        2
 64
     7
 65
   257
 75
     1
175
     1
 42
179.0
 92
        8
 66
     7
 43
1.0
 76
     1
 77
     6
 78
     2
 67
     7
 79
     3
170
     0
171
     0
290
     0
174
     0
 93
        1
 44
0.0
173
     0
291
     0
 45
0.0
1001
ACAD
1000
AcDbSavedByObjectVersion
1070
     0
  0
VISUALSTYLE
  5
35
102
{ACAD_REACTORS
330
2A
102
}
102
{ACAD_XDICTIONARY
360
3F3
102
}
330
2A
100
AcDbVisualStyle
  2
Dim
 70
    11
 71
     2
 72
     2
 73
     0
 90
        0
 40
0.6
 41
30.0
 62
     5
 63
     7
421
 16777215
 74
     1
 91
        4
 64
     7
 65
   257
 75
     1
175
     1
 42
1.0
 92
        8
 66
     7
 43
1.0
 76
     1
 77
     6
 78
     2
 67
     7
 79
     5
170
     0
171
     0
290
     0
174
     0
 93
        1
 44
-50.0
173
     0
291
     1
 45
0.0
1001
ACAD
1000
AcDbSavedByObjectVersion
1070
     0
  0
VISUALSTYLE
  5
3D
102
{ACAD_REACTORS
330
2A
102
}
102
{ACAD_XDICTIONARY
360
403
102
}
330
2A
100
AcDbVisualStyle
  2
EdgeColorOff
 70
    22
 71
     2
 72
     2
 73
     0
 90
        0
 40
0.6
 41
30.0
 62
     5
 63
     7
421
 16777215
 74
     1
 91
        4
 64
     7
 65
   257
 75
     1
175
     1
 42
1.0
 92
        8
 66
     7
 43
1.0
 76
     1
 77
     6
 78
     2
 67
     7
 79
     5
170
     0
171
     0
290
     0
174
     0
 93
        1
 44
0.0
173
     0
291
     1
 45
0.0
1001
ACAD
1000
AcDbSavedByObjectVersion
1070
     0
  0
VISUALSTYLE
  5
39
102
{ACAD_REACTORS
330
2A
102
}
102
{ACAD_XDICTIONARY
360
3FB
102
}
330
2A
100
AcDbVisualStyle
  2
Facepattern
 70
    15
 71
     2
 72
     2
 73
     0
 90
        0
 40
0.6
 41
30.0
 62
     5
 63
     7
421
 16777215
 74
     1
 91
        4
 64
     7
 65
   257
 75
     1
175
     1
 42
1.0
 92
        8
 66
     7
 43
1.0
 76
     1
 77
     6
 78
     2
 67
     7
 79
     5
170
     0
171
     0
290
     0
174
     0
 93
        1
 44
0.0
173
     0
291
     1
 45
0.0
1001
ACAD
1000
AcDbSavedByObjectVersion
1070
     0
  0
VISUALSTYLE
  5
2B
102
{ACAD_REACTORS
330
2A
102
}
102
{ACAD_XDICTIONARY
360
3DF
102
}
330
2A
100
AcDbVisualStyle
  2
Flat
 70
     0
 71
     2
 72
     1
 73
     1
 90
        2
 40
0.6
 41
30.0
 62
     5
 63
     7
421
 16777215
 74
     0
 91
        0
 64
     7
 65
   257
 75
     1
175
     1
 42
1.0
 92
        8
 66
     7
 43
1.0
 76
     1
 77
     6
 78
     2
 67
     7
 79
     5
170
     0
171
     0
290
     0
174
     0
 93
       13
 44
0.0
173
     0
291
     1
 45
0.0
1001
ACAD
1000
AcDbSavedByObjectVersion
1070
     0
  0
VISUALSTYLE
  5
2C
102
{ACAD_REACTORS
330
2A
102
}
102
{ACAD_XDICTIONARY
360
3E1
102
}
330
2A
100
AcDbVisualStyle
  2
FlatWithEdges
 70
     1
 71
     2
 72
     1
 73
     1
 90
        2
 40
0.6
 41
30.0
 62
     5
 63
     7
421
 16777215
 74
     1
 91
        0
 64
     7
 65
   257
 75
     1
175
     1
 42
1.0
 92
        0
 66
   257
 43
1.0
 76
     1
 77
     6
 78
     2
 67
     7
 79
     5
170
     0
171
     0
290
     0
174
     0
 93
       13
 44
0.0
173
     0
291
     1
 45
0.0
1001
ACAD
1000
AcDbSavedByObjectVersion
1070
     0
  0
VISUALSTYLE
  5
2D
102
{ACAD_REACTORS
330
2A
102
}
102
{ACAD_XDICTIONARY
360
3E3
102
}
330
2A
100
AcDbVisualStyle
  2
Gouraud
 70
     2
 71
     2
 72
     2
 73
     1
 90
        2
 40
0.6
 41
30.0
 62
     5
 63
     7
421
 16777215
 74
     0
 91
        0
 64
     7
 65
   257
 75
     1
175
     1
 42
1.0
 92
        0
 66
     7
 43
1.0
 76
     1
 77
     6
 78
     2
 67
     7
 79
     5
170
     0
171
     0
290
     0
174
     0
 93
       13
 44
0.0
173
     0
291
     1
 45
0.0
1001
ACAD
1000
AcDbSavedByObjectVersion
1070
     0
  0
VISUALSTYLE
  5
2E
102
{ACAD_REACTORS
330
2A
102
}
102
{ACAD_XDICTIONARY
360
3E5
102
}
330
2A
100
AcDbVisualStyle
  2
GouraudWithEdges
 70
     3
 71
     2
 72
     2
 73
     1
 90
        2
 40
0.6
 41
30.0
 62
     5
 63
     7
421
 16777215
 74
     1
 91
        0
 64
     7
 65
   257
 75
     1
175
     1
 42
1.0
 92
        0
 66
   257
 43
1.0
 76
     1
 77
     6
 78
     2
 67
     7
 79
     5
170
     0
171
     0
290
     0
174
     0
 93
       13
 44
0.0
173
     0
291
     1
 45
0.0
1001
ACAD
1000
AcDbSavedByObjectVersion
1070
     0
  0
VISUALSTYLE
  5
31
102
{ACAD_REACTORS
330
2A
102
}
102
{ACAD_XDICTIONARY
360
3EB
102
}
330
2A
100
AcDbVisualStyle
  2
Hidden
 70
     6
 71
     1
 72
     2
 73
     2
 90
        0
 40
0.6
 41
30.0
 62
     5
 63
     7
421
 16777215
 74
     2
 91
        2
 64
     7
 65
   257
 75
     2
175
     1
 42
40.0
 92
        0
 66
   257
 43
1.0
 76
     1
 77
     6
 78
     2
 67
     7
 79
     3
170
     0
171
     0
290
     0
174
     0
 93
        1
 44
0.0
173
     0
291
     0
 45
0.0
1001
ACAD
1000
AcDbSavedByObjectVersion
1070
     0
  0
VISUALSTYLE
  5
3B
102
{ACAD_REACTORS
330
2A
102
}
102
{ACAD_XDICTIONARY
360
3FF
102
}
330
2A
100
AcDbVisualStyle
  2
JitterOff
 70
    20
 71
     2
 72
     2
 73
     0
 90
        0
 40
0.6
 41
30.0
 62
     5
 63
     7
421
 16777215
 74
     1
 91
        4
 64
     7
 65
   257
 75
     1
175
     1
 42
1.0
 92
       10
 66
     7
 43
1.0
 76
     1
 77
     6
 78
     2
 67
     7
 79
     5
170
     0
171
     0
290
     0
174
     0
 93
        1
 44
0.0
173
     0
291
     1
 45
0.0
1001
ACAD
1000
AcDbSavedByObjectVersion
1070
     0
  0
VISUALSTYLE
  5
38
102
{ACAD_REACTORS
330
2A
102
}
102
{ACAD_XDICTIONARY
360
3F9
102
}
330
2A
100
AcDbVisualStyle
  2
Linepattern
 70
    14
 71
     2
 72
     2
 73
     0
 90
        0
 40
0.6
 41
30.0
 62
     5
 63
     7
421
 16777215
 74
     1
 91
        4
 64
     7
 65
   257
 75
     7
175
     7
 42
1.0
 92
        8
 66
     7
 43
1.0
 76
     1
 77
     6
 78
     2
 67
     7
 79
     5
170
     0
171
     0
290
     0
174
     0
 93
        1
 44
0.0
173
     0
291
     1
 45
0.0
1001
ACAD
1000
AcDbSavedByObjectVersion
1070
     0
  0
VISUALSTYLE
  5
3C
102
{ACAD_REACTORS
330
2A
102
}
102
{ACAD_XDICTIONARY
360
401
102
}
330
2A
100
AcDbVisualStyle
  2
OverhangOff
 70
    21
 71
     2
 72
     2
 73
     0
 90
        0
 40
0.6
 41
30.0
 62
     5
 63
     7
421
 16777215
 74
     1
 91
        4
 64
     7
 65
   257
 75
     1
175
     1
 42
1.0
 92
        9
 66
     7
 43
1.0
 76
     1
 77
     6
 78
     2
 67
     7
 79
     5
170
     0
171
     0
290
     0
174
     0
 93
        1
 44
0.0
173
     0
291
     1
 45
0.0
1001
ACAD
1000
AcDbSavedByObjectVersion
1070
     0
  0
VISUALSTYLE
  5
33
102
{ACAD_REACTORS
330
2A
102
}
102
{ACAD_XDICTIONARY
360
3EF
102
}
330
2A
100
AcDbVisualStyle
  2
Realistic
 70
     8
 71
     2
 72
     3
 73
     0
 90
        2
 40
0.6
 41
30.0
 62
     5
 63
     7
421
 16777215
 74
     0
 91
        0
 64
     7
 65
   257
 75
     1
175
     1
 42
1.0
 92
        8
 66
   257
 43
1.0
 76
     1
 77
     6
 78
     2
 67
     7
 79
     3
170
     0
171
     0
290
     0
174
     0
 93
       13
 44
0.0
173
     0
291
     0
 45
0.0
1001
ACAD
1000
AcDbSavedByObjectVersion
1070
     0
  0
VISUALSTYLE
  5
42
102
{ACAD_REACTORS
330
2A
102
}
102
{ACAD_XDICTIONARY
360
40D
102
}
330
2A
100
AcDbVisualStyle
  2
Shaded
 70
    27
 71
     2
 72
     2
 73
     1
 90
        2
 40
0.6
 41
30.0
 62
     5
 63
     7
421
 16777215
 74
     0
 91
        4
 64
     7
 65
   257
 75
     1
175
     1
 42
1.0
 92
        8
 66
   257
 43
1.0
 76
     1
 77
     6
 78
     2
 67
     8
425
  7895160
 79
     3
170
     0
171
     0
290
     0
174
     0
 93
        5
 44
0.0
173
     0
291
     0
 45
0.0
1001
ACAD
1000
AcDbSavedByObjectVersion
1070
     0
  0
VISUALSTYLE
  5
41
102
{ACAD_REACTORS
330
2A
102
}
102
{ACAD_XDICTIONARY
360
40B
102
}
330
2A
100
AcDbVisualStyle
  2
Shaded with edges
 70
    26
 71
     2
 72
     2
 73
     1
 90
        2
 40
0.6
 41
30.0
 62
     5
 63
     7
421
 16777215
 74
     1
 91
       10
 64
     7
 65
   257
 75
     2
175
     1
 42
1.0
 92
        8
 66
   257
 43
1.0
 76
     1
 77
     6
 78
     2
 67
     7
 79
     3
170
     0
171
     0
290
     0
174
     0
 93
        5
 44
0.0
173
     0
291
     0
 45
0.0
1001
ACAD
1000
AcDbSavedByObjectVersion
1070
     0
  0
VISUALSTYLE
  5
3E
102
{ACAD_REACTORS
330
2A
102
}
102
{ACAD_XDICTIONARY
360
405
102
}
330
2A
100
AcDbVisualStyle
  2
Shades of Gray
 70
    23
 71
     2
 72
     2
 73
     3
 90
        0
 40
0.6
 41
30.0
 62
     5
 63
     7
421
 16777215
 74
     2
 91
        2
 64
     7
 65
     7
 75
     1
175
     1
 42
40.0
 92
        8
 66
     7
 43
1.0
 76
     1
 77
     6
 78
     2
 67
     7
 79
     3
170
     0
171
     0
290
     0
174
     0
 93
        1
 44
0.0
173
     0
291
     0
 45
0.0
1001
ACAD
1000
AcDbSavedByObjectVersion
1070
     0
  0
VISUALSTYLE
  5
3F
102
{ACAD_REACTORS
330
2A
102
}
102
{ACAD_XDICTIONARY
360
407
102
}
330
2A
100
AcDbVisualStyle
  2
Sketchy
 70
    24
 71
     1
 72
     2
 73
     2
 90
        0
 40
0.6
 41
30.0
 62
     5
 63
     7
421
 16777215
 74
     2
 91
        2
 64
     7
 65
     7
 75
     1
175
     1
 42
40.0
 92
       11
 66
     7
 43
1.0
 76
     1
 77
     6
 78
     2
 67
     7
 79
     6
170
     0
171
     0
290
     0
174
     0
 93
        1
 44
0.0
173
     0
291
     0
 45
0.0
1001
ACAD
1000
AcDbSavedByObjectVersion
1070
     0
  0
VISUALSTYLE
  5
37
102
{ACAD_REACTORS
330
2A
102
}
102
{ACAD_XDICTIONARY
360
3F7
102
}
330
2A
100
AcDbVisualStyle
  2
Thicken
 70
    13
 71
     2
 72
     2
 73
     0
 90
        0
 40
0.6
 41
30.0
 62
     5
 63
     7
421
 16777215
 74
     1
 91
        4
 64
     7
 65
   257
 75
     1
175
     1
 42
1.0
 92
       12
 66
     7
 43
1.0
 76
     1
 77
     6
 78
     2
 67
     7
 79
     5
170
     0
171
     0
290
     0
174
     0
 93
        1
 44
0.0
173
     0
291
     1
 45
0.0
1001
ACAD
1000
AcDbSavedByObjectVersion
1070
     0
  0
VISUALSTYLE
  5
30
102
{ACAD_REACTORS
330
2A
102
}
102
{ACAD_XDICTIONARY
360
3E9
102
}
330
2A
100
AcDbVisualStyle
  2
Wireframe
 70
     5
 71
     0
 72
     2
 73
     0
 90
        0
 40
0.6
 41
30.0
 62
     5
 63
     7
421
 16777215
 74
     1
 91
        4
 64
     7
 65
   257
 75
     1
175
     1
 42
1.0
 92
        0
 66
   257
 43
1.0
 76
     1
 77
     6
 78
     2
 67
     7
 79
     3
170
     0
171
     0
290
     0
174
     0
 93
        1
 44
0.0
173
     0
291
     0
 45
0.0
1001
ACAD
1000
AcDbSavedByObjectVersion
1070
     0
  0
VISUALSTYLE
  5
40
102
{ACAD_REACTORS
330
2A
102
}
102
{ACAD_XDICTIONARY
360
409
102
}
330
2A
100
AcDbVisualStyle
  2
X-Ray
 70
    25
 71
     2
 72
     2
 73
     1
 90
        1
 40
0.5
 41
30.0
 62
     5
 63
     7
421
 16777215
 74
     1
 91
        0
 64
     7
 65
   257
 75
     1
175
     1
 42
1.0
 92
        8
 66
     7
 43
1.0
 76
     1
 77
     6
 78
     2
 67
     7
 79
     3
170
     0
171
     0
290
     0
174
     0
 93
       13
 44
0.0
173
     0
291
     0
 45
0.0
1001
ACAD
1000
AcDbSavedByObjectVersion
1070
     0
  0
DICTIONARYVAR
  5
3DC
102
{ACAD_REACTORS
330
3DB
102
}
330
3DB
100
DictionaryVariables
280
     0
  1
1:1
  0
DICTIONARYVAR
  5
420
102
{ACAD_REACTORS
330
3DB
102
}
330
3DB
100
DictionaryVariables
280
     0
  1
3.500000
  0
DICTIONARYVAR
  5
421
102
{ACAD_REACTORS
330
3DB
102
}
330
3DB
100
DictionaryVariables
280
     0
  1
acadiso.lin
  0
DICTIONARYVAR
  5
41D
102
{ACAD_REACTORS
330
3DB
102
}
330
3DB
100
DictionaryVariables
280
     0
  1
Standard
  0
DICTIONARYVAR
  5
41C
102
{ACAD_REACTORS
330
3DB
102
}
330
3DB
100
DictionaryVariables
280
     0
  1
Standard
  0
DICTIONARYVAR
  5
3DD
102
{ACAD_REACTORS
330
3DB
102
}
330
3DB
100
DictionaryVariables
280
     0
  1
1
  0
DICTIONARYVAR
  5
3DE
102
{ACAD_REACTORS
330
3DB
102
}
330
3DB
100
DictionaryVariables
280
     0
  1
2
  0
DICTIONARY
  5
411
330
45
100
AcDbDictionary
280
     1
281
     1
  3
ACAD_XREC_ROUNDTRIP
360
412
  0
DICTIONARY
  5
40F
330
44
100
AcDbDictionary
280
     1
281
     1
  3
ACAD_XREC_ROUNDTRIP
360
410
  0
DICTIONARY
  5
413
330
46
100
AcDbDictionary
280
     1
281
     1
  3
ACAD_XREC_ROUNDTRIP
360
414
  0
DICTIONARY
  5
419
330
6C
100
AcDbDictionary
280
     1
281
     1
  3
ACAD_XREC_ROUNDTRIP
360
41A
  0
DICTIONARY
  5
415
330
6A
100
AcDbDictionary
280
     1
281
     1
  3
ACAD_ROUNDTRIP_2008_TABLESTYLE_CELLSTYLEMAP
360
417
  3
ACAD_XREC_ROUNDTRIP
360
416
  0
DICTIONARY
  5
3E7
330
2F
100
AcDbDictionary
280
     1
281
     1
  3
ACAD_XREC_ROUNDTRIP
360
3E8
  0
DICTIONARY
  5
3ED
330
32
100
AcDbDictionary
280
     1
281
     1
  3
ACAD_XREC_ROUNDTRIP
360
3EE
  0
DICTIONARY
  5
3F5
330
36
100
AcDbDictionary
280
     1
281
     1
  3
ACAD_XREC_ROUNDTRIP
360
3F6
  0
DICTIONARY
  5
3FD
330
3A
100
AcDbDictionary
280
     1
281
     1
  3
ACAD_XREC_ROUNDTRIP
360
3FE
  0
DICTIONARY
  5
3F1
330
34
100
AcDbDictionary
280
     1
281
     1
  3
ACAD_XREC_ROUNDTRIP
360
3F2
  0
DICTIONARY
  5
3F3
330
35
100
AcDbDictionary
280
     1
281
     1
  3
ACAD_XREC_ROUNDTRIP
360
3F4
  0
DICTIONARY
  5
403
330
3D
100
AcDbDictionary
280
     1
281
     1
  3
ACAD_XREC_ROUNDTRIP
360
404
  0
DICTIONARY
  5
3FB
330
39
100
AcDbDictionary
280
     1
281
     1
  3
ACAD_XREC_ROUNDTRIP
360
3FC
  0
DICTIONARY
  5
3DF
330
2B
100
AcDbDictionary
280
     1
281
     1
  3
ACAD_XREC_ROUNDTRIP
360
3E0
  0
DICTIONARY
  5
3E1
330
2C
100
AcDbDictionary
280
     1
281
     1
  3
ACAD_XREC_ROUNDTRIP
360
3E2
  0
DICTIONARY
  5
3E3
330
2D
100
AcDbDictionary
280
     1
281
     1
  3
ACAD_XREC_ROUNDTRIP
360
3E4
  0
DICTIONARY
  5
3E5
330
2E
100
AcDbDictionary
280
     1
281
     1
  3
ACAD_XREC_ROUNDTRIP
360
3E6
  0
DICTIONARY
  5
3EB
330
31
100
AcDbDictionary
280
     1
281
     1
  3
ACAD_XREC_ROUNDTRIP
360
3EC
  0
DICTIONARY
  5
3FF
330
3B
100
AcDbDictionary
280
     1
281
     1
  3
ACAD_XREC_ROUNDTRIP
360
400
  0
DICTIONARY
  5
3F9
330
38
100
AcDbDictionary
280
     1
281
     1
  3
ACAD_XREC_ROUNDTRIP
360
3FA
  0
DICTIONARY
  5
401
330
3C
100
AcDbDictionary
280
     1
281
     1
  3
ACAD_XREC_ROUNDTRIP
360
402
  0
DICTIONARY
  5
3EF
330
33
100
AcDbDictionary
280
     1
281
     1
  3
ACAD_XREC_ROUNDTRIP
360
3F0
  0
DICTIONARY
  5
40D
330
42
100
AcDbDictionary
280
     1
281
     1
  3
ACAD_XREC_ROUNDTRIP
360
40E
  0
DICTIONARY
  5
40B
330
41
100
AcDbDictionary
280
     1
281
     1
  3
ACAD_XREC_ROUNDTRIP
360
40C
  0
DICTIONARY
  5
405
330
3E
100
AcDbDictionary
280
     1
281
     1
  3
ACAD_XREC_ROUNDTRIP
360
406
  0
DICTIONARY
  5
407
330
3F
100
AcDbDictionary
280
     1
281
     1
  3
ACAD_XREC_ROUNDTRIP
360
408
  0
DICTIONARY
  5
3F7
330
37
100
AcDbDictionary
280
     1
281
     1
  3
ACAD_XREC_ROUNDTRIP
360
3F8
  0
DICTIONARY
  5
3E9
330
30
100
AcDbDictionary
280
     1
281
     1
  3
ACAD_XREC_ROUNDTRIP
360
3EA
  0
DICTIONARY
  5
409
330
40
100
AcDbDictionary
280
     1
281
     1
  3
ACAD_XREC_ROUNDTRIP
360
40A
  0
XRECORD
  5
412
102
{ACAD_REACTORS
330
411
102
}
330
411
100
AcDbXrecord
280
     1
102
MATERIAL
148
0.0
149
0.0
149
0.0
 93
        0
 94
      127
282
     0
 72
     1
 77
     1
171
     1
175
     1
179
     1
273
     0
  0
XRECORD
  5
410
102
{ACAD_REACTORS
330
40F
102
}
330
40F
100
AcDbXrecord
280
     1
102
MATERIAL
148
0.0
149
0.0
149
0.0
 93
        0
 94
      127
282
     0
 72
     1
 77
     1
171
     1
175
     1
179
     1
273
     0
  0
XRECORD
  5
414
102
{ACAD_REACTORS
330
413
102
}
330
413
100
AcDbXrecord
280
     1
102
MATERIAL
148
0.0
149
0.0
149
0.0
 93
        0
 94
      127
282
     0
 72
     1
 77
     1
171
     1
175
     1
179
     1
273
     0
  0
XRECORD
  5
41A
102
{ACAD_REACTORS
330
419
102
}
330
419
100
AcDbXrecord
280
     1
102
ACAD_ROUNDTRIP_2010_MLEADER_STYLE
  0
CELLSTYLEMAP
  5
417
102
{ACAD_REACTORS
330
415
102
}
330
415
100
AcDbCellStyleMap
 90
        3
300
CELLSTYLE
  1
TABLEFORMAT_BEGIN
 90
        5
170
     1
 91
        0
 92
    32768
 62
   257
 93
        1
300
CONTENTFORMAT
  1
CONTENTFORMAT_BEGIN
 90
        0
 91
        0
 92
        4
 93
        0
300

 40
0.0
140
1.0
 94
        5
 62
     0
340
11
144
6.0
309
CONTENTFORMAT_END
171
     1
301
MARGIN
  1
CELLMARGIN_BEGIN
 40
1.5
 40
1.5
 40
1.5
 40
1.5
 40
1.5
 40
1.5
309
CELLMARGIN_END
 94
        6
 95
        1
302
GRIDFORMAT
  1
GRIDFORMAT_BEGIN
 90
        0
 91
        1
 62
     0
 92
       -2
340
14
 93
        0
 40
0.045
309
GRIDFORMAT_END
 95
        2
302
GRIDFORMAT
  1
GRIDFORMAT_BEGIN
 90
        0
 91
        1
 62
     0
 92
       -2
340
14
 93
        0
 40
0.045
309
GRIDFORMAT_END
 95
        4
302
GRIDFORMAT
  1
GRIDFORMAT_BEGIN
 90
        0
 91
        1
 62
     0
 92
       -2
340
14
 93
        0
 40
0.045
309
GRIDFORMAT_END
 95
        8
302
GRIDFORMAT
  1
GRIDFORMAT_BEGIN
 90
        0
 91
        1
 62
     0
 92
       -2
340
14
 93
        0
 40
0.045
309
GRIDFORMAT_END
 95
       16
302
GRIDFORMAT
  1
GRIDFORMAT_BEGIN
 90
        0
 91
        1
 62
     0
 92
       -2
340
14
 93
        0
 40
0.045
309
GRIDFORMAT_END
 95
       32
302
GRIDFORMAT
  1
GRIDFORMAT_BEGIN
 90
        0
 91
        1
 62
     0
 92
       -2
340
14
 93
        0
 40
0.045
309
GRIDFORMAT_END
309
TABLEFORMAT_END
  1
CELLSTYLE_BEGIN
 90
        1
 91
        1
300
_TITLE
309
CELLSTYLE_END
300
CELLSTYLE
  1
TABLEFORMAT_BEGIN
 90
        5
170
     1
 91
        0
 92
        0
 62
   257
 93
        1
300
CONTENTFORMAT
  1
CONTENTFORMAT_BEGIN
 90
        0
 91
        0
 92
        4
 93
        0
300

 40
0.0
140
1.0
 94
        5
 62
     0
340
11
144
4.5
309
CONTENTFORMAT_END
171
     1
301
MARGIN
  1
CELLMARGIN_BEGIN
 40
1.5
 40
1.5
 40
1.5
 40
1.5
 40
1.5
 40
1.5
309
CELLMARGIN_END
 94
        6
 95
        1
302
GRIDFORMAT
  1
GRIDFORMAT_BEGIN
 90
        0
 91
        1
 62
     0
 92
       -2
340
14
 93
        0
 40
0.045
309
GRIDFORMAT_END
 95
        2
302
GRIDFORMAT
  1
GRIDFORMAT_BEGIN
 90
        0
 91
        1
 62
     0
 92
       -2
340
14
 93
        0
 40
0.045
309
GRIDFORMAT_END
 95
        4
302
GRIDFORMAT
  1
GRIDFORMAT_BEGIN
 90
        0
 91
        1
 62
     0
 92
       -2
340
14
 93
        0
 40
0.045
309
GRIDFORMAT_END
 95
        8
302
GRIDFORMAT
  1
GRIDFORMAT_BEGIN
 90
        0
 91
        1
 62
     0
 92
       -2
340
14
 93
        0
 40
0.045
309
GRIDFORMAT_END
 95
       16
302
GRIDFORMAT
  1
GRIDFORMAT_BEGIN
 90
        0
 91
        1
 62
     0
 92
       -2
340
14
 93
        0
 40
0.045
309
GRIDFORMAT_END
 95
       32
302
GRIDFORMAT
  1
GRIDFORMAT_BEGIN
 90
        0
 91
        1
 62
     0
 92
       -2
340
14
 93
        0
 40
0.045
309
GRIDFORMAT_END
309
TABLEFORMAT_END
  1
CELLSTYLE_BEGIN
 90
        2
 91
        1
300
_HEADER
309
CELLSTYLE_END
300
CELLSTYLE
  1
TABLEFORMAT_BEGIN
 90
        5
170
     1
 91
        0
 92
        0
 62
   257
 93
        1
300
CONTENTFORMAT
  1
CONTENTFORMAT_BEGIN
 90
        0
 91
        0
 92
        4
 93
        0
300

 40
0.0
140
1.0
 94
        2
 62
     0
340
11
144
4.5
309
CONTENTFORMAT_END
171
     1
301
MARGIN
  1
CELLMARGIN_BEGIN
 40
1.5
 40
1.5
 40
1.5
 40
1.5
 40
1.5
 40
1.5
309
CELLMARGIN_END
 94
        6
 95
        1
302
GRIDFORMAT
  1
GRIDFORMAT_BEGIN
 90
        0
 91
        1
 62
     0
 92
       -2
340
14
 93
        0
 40
0.045
309
GRIDFORMAT_END
 95
        2
302
GRIDFORMAT
  1
GRIDFORMAT_BEGIN
 90
        0
 91
        1
 62
     0
 92
       -2
340
14
 93
        0
 40
0.045
309
GRIDFORMAT_END
 95
        4
302
GRIDFORMAT
  1
GRIDFORMAT_BEGIN
 90
        0
 91
        1
 62
     0
 92
       -2
340
14
 93
        0
 40
0.045
309
GRIDFORMAT_END
 95
        8
302
GRIDFORMAT
  1
GRIDFORMAT_BEGIN
 90
        0
 91
        1
 62
     0
 92
       -2
340
14
 93
        0
 40
0.045
309
GRIDFORMAT_END
 95
       16
302
GRIDFORMAT
  1
GRIDFORMAT_BEGIN
 90
        0
 91
        1
 62
     0
 92
       -2
340
14
 93
        0
 40
0.045
309
GRIDFORMAT_END
 95
       32
302
GRIDFORMAT
  1
GRIDFORMAT_BEGIN
 90
        0
 91
        1
 62
     0
 92
       -2
340
14
 93
        0
 40
0.045
309
GRIDFORMAT_END
309
TABLEFORMAT_END
  1
CELLSTYLE_BEGIN
 90
        3
 91
        2
300
_DATA
309
CELLSTYLE_END
  0
XRECORD
  5
416
102
{ACAD_REACTORS
330
415
102
}
330
415
100
AcDbXrecord
280
     1
102
ACAD_ROUNDTRIP_PRE2007_TABLESTYLE
 90
        4
 91
        0
  1

 92
        4
 93
        0
  2

 94
        4
 95
        0
  3

  0
XRECORD
  5
3E8
102
{ACAD_REACTORS
330
3E7
102
}
330
3E7
100
AcDbXrecord
280
     1
102
RTVSPropertyOp0
 70
     1
102
RTVSPropertyOp1
 70
     1
102
RTVSPropertyOp2
 70
     1
102
RTVSPropertyOp3
 70
     1
102
RTVSPropertyOp4
 70
     1
102
RTVSPropertyOp5
 70
     1
102
RTVSPropertyOp6
 70
     1
102
RTVSPropertyOp7
 70
     1
102
RTVSPropertyOp8
 70
     1
102
RTVSPropertyOp9
 70
     1
102
RTVSPropertyOp10
 70
     1
102
RTVSPropertyOp11
 70
     1
102
RTVSPropertyOp12
 70
     1
102
RTVSPropertyOp13
 70
     1
102
RTVSPropertyOp14
 70
     1
102
RTVSPropertyOp15
 70
     1
102
RTVSPropertyOp16
 70
     1
102
RTVSPropertyOp17
 70
     1
102
RTVSPropertyOp18
 70
     1
102
RTVSPropertyOp19
 70
     1
102
RTVSPropertyOp20
 70
     1
102
RTVSPropertyOp21
 70
     1
102
RTVSPropertyOp22
 70
     1
102
RTVSPropertyOp23
 70
     1
102
RTVSPropertyOp24
 70
     1
102
RTVSPropertyOp25
 70
     1
102
RTVSPropertyOp26
 70
     1
102
RTVSPropertyOp27
 70
     1
102
RTVSPropertyOp28
 70
     1
102
RTVSPropertyOp29
 70
     1
102
RTVSPropertyOp30
 70
     1
102
RTVSPropertyOp31
 70
     1
102
RTVSPropertyOp32
 70
     1
102
RTVSPropertyOp33
 70
     1
102
RTVSPropertyOp34
 70
     1
102
RTVSPropertyOp35
 70
     1
102
RTVSPropertyOp36
 70
     1
102
RTVSPropertyOp37
 70
     1
102
RTVSPropertyOp38
 70
     1
102
RTVSPropertyOp39
 70
     1
102
RTVSPropertyOp40
 70
     1
102
RTVSPropertyOp41
 70
     1
102
RTVSPropertyOp42
 70
     1
102
RTVSPropertyOp43
 70
     1
102
RTVSPropertyOp44
 70
     1
102
RTVSPropertyOp45
 70
     1
102
RTVSPropertyOp46
 70
     1
102
RTVSPropertyOp47
 70
     1
102
RTVSPropertyOp48
 70
     1
102
RTVSPropertyOp49
 70
     1
102
RTVSPropertyOp50
 70
     1
102
RTVSPropertyOp51
 70
     0
102
RTVSPropertyOp52
 70
     0
102
RTVSPropertyOp53
 70
     1
102
RTVSPropertyOp54
 70
     1
102
RTVSPropertyOp55
 70
     1
102
RTVSPropertyOp56
 70
     1
102
RTVSPropertyOp57
 70
     1
102
RTVSPost2010Prop28
280
     1
102
RTVSPost2010PropOp28
 70
     1
102
RTVSPost2010Prop29
280
     1
102
RTVSPost2010PropOp29
 70
     1
102
RTVSPost2010Prop30
280
     0
102
RTVSPost2010PropOp30
 70
     1
102
RTVSPost2010Prop31
280
     0
102
RTVSPost2010PropOp31
 70
     1
102
RTVSPost2010Prop32
280
     0
102
RTVSPost2010PropOp32
 70
     1
102
RTVSPost2010Prop33
280
     0
102
RTVSPost2010PropOp33
 70
     1
102
RTVSPost2010Prop34
280
     0
102
RTVSPost2010PropOp34
 70
     1
102
RTVSPost2010Prop35
280
     0
102
RTVSPost2010PropOp35
 70
     1
102
RTVSPost2010Prop36
280
     0
102
RTVSPost2010PropOp36
 70
     1
102
RTVSPost2010Prop37
 90
       50
102
RTVSPost2010PropOp37
 70
     1
102
RTVSPost2010Prop38
140
0.0
102
RTVSPost2010PropOp38
 70
     1
102
RTVSPost2010Prop39
140
1.0
102
RTVSPost2010PropOp39
 70
     1
102
RTVSPost2010Prop40
 90
        0
102
RTVSPost2010PropOp40
 70
     1
102
RTVSPost2010Prop41ColorIndex
 90
       18
102
RTVSPost2010Prop41ColorRGB
 90
        0
102
RTVSPost2010PropOp41
 70
     1
102
RTVSPost2010Prop42
 90
       50
102
RTVSPost2010PropOp42
 70
     1
102
RTVSPost2010Prop43
 90
        3
102
RTVSPost2010PropOp43
 70
     1
102
RTVSPost2010Prop44ColorIndex
 90
        5
102
RTVSPost2010Prop44ColorRGB
 90
      255
102
RTVSPost2010PropOp44
 70
     1
102
RTVSPost2010Prop45
280
     0
102
RTVSPost2010PropOp45
 70
     1
102
RTVSPost2010Prop46
 90
       50
102
RTVSPost2010PropOp46
 70
     1
102
RTVSPost2010Prop47
 90
       50
102
RTVSPost2010PropOp47
 70
     1
102
RTVSPost2010Prop48
 90
       50
102
RTVSPost2010PropOp48
 70
     1
102
RTVSPost2010Prop49
280
     0
102
RTVSPost2010PropOp49
 70
     1
102
RTVSPost2010Prop50
 90
       50
102
RTVSPost2010PropOp50
 70
     1
102
RTVSPost2010Prop51ColorIndex
 90
      256
102
RTVSPost2010Prop51ColorRGB
 90
-16777216
102
RTVSPost2010PropOp51
 70
     0
102
RTVSPost2010Prop52
140
1.0
102
RTVSPost2010PropOp52
 70
     0
102
RTVSPost2010Prop53
 90
        2
102
RTVSPost2010PropOp53
 70
     1
102
RTVSPost2010Prop54
  1
strokes_ogs.tif
102
RTVSPost2010PropOp54
 70
     1
102
RTVSPost2010Prop55
280
     0
102
RTVSPost2010PropOp55
 70
     1
102
RTVSPost2010Prop56
140
1.0
102
RTVSPost2010PropOp56
 70
     1
102
RTVSPost2010Prop57
140
1.0
102
RTVSPost2010PropOp57
 70
     1
  0
XRECORD
  5
3EE
102
{ACAD_REACTORS
330
3ED
102
}
330
3ED
100
AcDbXrecord
280
     1
102
RTVSPropertyOp0
 70
     1
102
RTVSPropertyOp1
 70
     1
102
RTVSPropertyOp2
 70
     1
102
RTVSPropertyOp3
 70
     1
102
RTVSPropertyOp4
 70
     1
102
RTVSPropertyOp5
 70
     1
102
RTVSPropertyOp6
 70
     1
102
RTVSPropertyOp7
 70
     1
102
RTVSPropertyOp8
 70
     1
102
RTVSPropertyOp9
 70
     1
102
RTVSPropertyOp10
 70
     1
102
RTVSPropertyOp11
 70
     1
102
RTVSPropertyOp12
 70
     1
102
RTVSPropertyOp13
 70
     1
102
RTVSPropertyOp14
 70
     1
102
RTVSPropertyOp15
 70
     1
102
RTVSPropertyOp16
 70
     1
102
RTVSPropertyOp17
 70
     1
102
RTVSPropertyOp18
 70
     1
102
RTVSPropertyOp19
 70
     1
102
RTVSPropertyOp20
 70
     1
102
RTVSPropertyOp21
 70
     1
102
RTVSPropertyOp22
 70
     1
102
RTVSPropertyOp23
 70
     1
102
RTVSPropertyOp24
 70
     1
102
RTVSPropertyOp25
 70
     1
102
RTVSPropertyOp26
 70
     1
102
RTVSPropertyOp27
 70
     1
102
RTVSPropertyOp28
 70
     1
102
RTVSPropertyOp29
 70
     1
102
RTVSPropertyOp30
 70
     1
102
RTVSPropertyOp31
 70
     1
102
RTVSPropertyOp32
 70
     1
102
RTVSPropertyOp33
 70
     1
102
RTVSPropertyOp34
 70
     1
102
RTVSPropertyOp35
 70
     1
102
RTVSPropertyOp36
 70
     1
102
RTVSPropertyOp37
 70
     1
102
RTVSPropertyOp38
 70
     1
102
RTVSPropertyOp39
 70
     1
102
RTVSPropertyOp40
 70
     1
102
RTVSPropertyOp41
 70
     1
102
RTVSPropertyOp42
 70
     1
102
RTVSPropertyOp43
 70
     1
102
RTVSPropertyOp44
 70
     1
102
RTVSPropertyOp45
 70
     1
102
RTVSPropertyOp46
 70
     1
102
RTVSPropertyOp47
 70
     1
102
RTVSPropertyOp48
 70
     1
102
RTVSPropertyOp49
 70
     1
102
RTVSPropertyOp50
 70
     1
102
RTVSPropertyOp51
 70
     0
102
RTVSPropertyOp52
 70
     0
102
RTVSPropertyOp53
 70
     1
102
RTVSPropertyOp54
 70
     1
102
RTVSPropertyOp55
 70
     1
102
RTVSPropertyOp56
 70
     1
102
RTVSPropertyOp57
 70
     1
102
RTVSPost2010Prop28
280
     0
102
RTVSPost2010PropOp28
 70
     1
102
RTVSPost2010Prop29
280
     1
102
RTVSPost2010PropOp29
 70
     1
102
RTVSPost2010Prop30
280
     1
102
RTVSPost2010PropOp30
 70
     1
102
RTVSPost2010Prop31
280
     0
102
RTVSPost2010PropOp31
 70
     1
102
RTVSPost2010Prop32
280
     0
102
RTVSPost2010PropOp32
 70
     1
102
RTVSPost2010Prop33
280
     0
102
RTVSPost2010PropOp33
 70
     1
102
RTVSPost2010Prop34
280
     0
102
RTVSPost2010PropOp34
 70
     1
102
RTVSPost2010Prop35
280
     0
102
RTVSPost2010PropOp35
 70
     1
102
RTVSPost2010Prop36
280
     0
102
RTVSPost2010PropOp36
 70
     1
102
RTVSPost2010Prop37
 90
       50
102
RTVSPost2010PropOp37
 70
     1
102
RTVSPost2010Prop38
140
0.0
102
RTVSPost2010PropOp38
 70
     1
102
RTVSPost2010Prop39
140
1.0
102
RTVSPost2010PropOp39
 70
     1
102
RTVSPost2010Prop40
 90
        0
102
RTVSPost2010PropOp40
 70
     1
102
RTVSPost2010Prop41ColorIndex
 90
       18
102
RTVSPost2010Prop41ColorRGB
 90
        0
102
RTVSPost2010PropOp41
 70
     1
102
RTVSPost2010Prop42
 90
       50
102
RTVSPost2010PropOp42
 70
     1
102
RTVSPost2010Prop43
 90
        3
102
RTVSPost2010PropOp43
 70
     1
102
RTVSPost2010Prop44ColorIndex
 90
        5
102
RTVSPost2010Prop44ColorRGB
 90
      255
102
RTVSPost2010PropOp44
 70
     1
102
RTVSPost2010Prop45
280
     0
102
RTVSPost2010PropOp45
 70
     1
102
RTVSPost2010Prop46
 90
       50
102
RTVSPost2010PropOp46
 70
     1
102
RTVSPost2010Prop47
 90
       50
102
RTVSPost2010PropOp47
 70
     1
102
RTVSPost2010Prop48
 90
       50
102
RTVSPost2010PropOp48
 70
     1
102
RTVSPost2010Prop49
280
     0
102
RTVSPost2010PropOp49
 70
     1
102
RTVSPost2010Prop50
 90
       50
102
RTVSPost2010PropOp50
 70
     1
102
RTVSPost2010Prop51ColorIndex
 90
      256
102
RTVSPost2010Prop51ColorRGB
 90
-16777216
102
RTVSPost2010PropOp51
 70
     0
102
RTVSPost2010Prop52
140
1.0
102
RTVSPost2010PropOp52
 70
     0
102
RTVSPost2010Prop53
 90
        2
102
RTVSPost2010PropOp53
 70
     1
102
RTVSPost2010Prop54
  1
strokes_ogs.tif
102
RTVSPost2010PropOp54
 70
     1
102
RTVSPost2010Prop55
280
     0
102
RTVSPost2010PropOp55
 70
     1
102
RTVSPost2010Prop56
140
1.0
102
RTVSPost2010PropOp56
 70
     1
102
RTVSPost2010Prop57
140
1.0
102
RTVSPost2010PropOp57
 70
     1
  0
XRECORD
  5
3F6
102
{ACAD_REACTORS
330
3F5
102
}
330
3F5
100
AcDbXrecord
280
     1
102
RTVSPropertyOp0
 70
     1
102
RTVSPropertyOp1
 70
     1
102
RTVSPropertyOp2
 70
     1
102
RTVSPropertyOp3
 70
     1
102
RTVSPropertyOp4
 70
     1
102
RTVSPropertyOp5
 70
     1
102
RTVSPropertyOp6
 70
     1
102
RTVSPropertyOp7
 70
     1
102
RTVSPropertyOp8
 70
     1
102
RTVSPropertyOp9
 70
     1
102
RTVSPropertyOp10
 70
     1
102
RTVSPropertyOp11
 70
     1
102
RTVSPropertyOp12
 70
     1
102
RTVSPropertyOp13
 70
     1
102
RTVSPropertyOp14
 70
     1
102
RTVSPropertyOp15
 70
     1
102
RTVSPropertyOp16
 70
     1
102
RTVSPropertyOp17
 70
     1
102
RTVSPropertyOp18
 70
     1
102
RTVSPropertyOp19
 70
     1
102
RTVSPropertyOp20
 70
     1
102
RTVSPropertyOp21
 70
     1
102
RTVSPropertyOp22
 70
     1
102
RTVSPropertyOp23
 70
     1
102
RTVSPropertyOp24
 70
     1
102
RTVSPropertyOp25
 70
     1
102
RTVSPropertyOp26
 70
     1
102
RTVSPropertyOp27
 70
     1
102
RTVSPropertyOp28
 70
     1
102
RTVSPropertyOp29
 70
     1
102
RTVSPropertyOp30
 70
     1
102
RTVSPropertyOp31
 70
     1
102
RTVSPropertyOp32
 70
     1
102
RTVSPropertyOp33
 70
     1
102
RTVSPropertyOp34
 70
     1
102
RTVSPropertyOp35
 70
     1
102
RTVSPropertyOp36
 70
     1
102
RTVSPropertyOp37
 70
     1
102
RTVSPropertyOp38
 70
     1
102
RTVSPropertyOp39
 70
     1
102
RTVSPropertyOp40
 70
     1
102
RTVSPropertyOp41
 70
     1
102
RTVSPropertyOp42
 70
     1
102
RTVSPropertyOp43
 70
     1
102
RTVSPropertyOp44
 70
     1
102
RTVSPropertyOp45
 70
     1
102
RTVSPropertyOp46
 70
     1
102
RTVSPropertyOp47
 70
     1
102
RTVSPropertyOp48
 70
     1
102
RTVSPropertyOp49
 70
     1
102
RTVSPropertyOp50
 70
     1
102
RTVSPropertyOp51
 70
     0
102
RTVSPropertyOp52
 70
     0
102
RTVSPropertyOp53
 70
     1
102
RTVSPropertyOp54
 70
     1
102
RTVSPropertyOp55
 70
     1
102
RTVSPropertyOp56
 70
     1
102
RTVSPropertyOp57
 70
     1
102
RTVSPost2010Prop28
280
     0
102
RTVSPost2010PropOp28
 70
     1
102
RTVSPost2010Prop29
280
     1
102
RTVSPost2010PropOp29
 70
     1
102
RTVSPost2010Prop30
280
     1
102
RTVSPost2010PropOp30
 70
     1
102
RTVSPost2010Prop31
280
     0
102
RTVSPost2010PropOp31
 70
     1
102
RTVSPost2010Prop32
280
     0
102
RTVSPost2010PropOp32
 70
     1
102
RTVSPost2010Prop33
280
     0
102
RTVSPost2010PropOp33
 70
     1
102
RTVSPost2010Prop34
280
     0
102
RTVSPost2010PropOp34
 70
     1
102
RTVSPost2010Prop35
280
     0
102
RTVSPost2010PropOp35
 70
     1
102
RTVSPost2010Prop36
280
     0
102
RTVSPost2010PropOp36
 70
     1
102
RTVSPost2010Prop37
 90
       50
102
RTVSPost2010PropOp37
 70
     1
102
RTVSPost2010Prop38
140
0.0
102
RTVSPost2010PropOp38
 70
     1
102
RTVSPost2010Prop39
140
1.0
102
RTVSPost2010PropOp39
 70
     1
102
RTVSPost2010Prop40
 90
        0
102
RTVSPost2010PropOp40
 70
     1
102
RTVSPost2010Prop41ColorIndex
 90
       18
102
RTVSPost2010Prop41ColorRGB
 90
        0
102
RTVSPost2010PropOp41
 70
     1
102
RTVSPost2010Prop42
 90
       50
102
RTVSPost2010PropOp42
 70
     1
102
RTVSPost2010Prop43
 90
        3
102
RTVSPost2010PropOp43
 70
     1
102
RTVSPost2010Prop44ColorIndex
 90
        5
102
RTVSPost2010Prop44ColorRGB
 90
      255
102
RTVSPost2010PropOp44
 70
     1
102
RTVSPost2010Prop45
280
     0
102
RTVSPost2010PropOp45
 70
     1
102
RTVSPost2010Prop46
 90
       50
102
RTVSPost2010PropOp46
 70
     1
102
RTVSPost2010Prop47
 90
       50
102
RTVSPost2010PropOp47
 70
     1
102
RTVSPost2010Prop48
 90
       50
102
RTVSPost2010PropOp48
 70
     1
102
RTVSPost2010Prop49
280
     0
102
RTVSPost2010PropOp49
 70
     1
102
RTVSPost2010Prop50
 90
       50
102
RTVSPost2010PropOp50
 70
     1
102
RTVSPost2010Prop51ColorIndex
 90
      256
102
RTVSPost2010Prop51ColorRGB
 90
-16777216
102
RTVSPost2010PropOp51
 70
     0
102
RTVSPost2010Prop52
140
1.0
102
RTVSPost2010PropOp52
 70
     0
102
RTVSPost2010Prop53
 90
        2
102
RTVSPost2010PropOp53
 70
     1
102
RTVSPost2010Prop54
  1
strokes_ogs.tif
102
RTVSPost2010PropOp54
 70
     1
102
RTVSPost2010Prop55
280
     0
102
RTVSPost2010PropOp55
 70
     1
102
RTVSPost2010Prop56
140
1.0
102
RTVSPost2010PropOp56
 70
     1
102
RTVSPost2010Prop57
140
1.0
102
RTVSPost2010PropOp57
 70
     1
  0
XRECORD
  5
3FE
102
{ACAD_REACTORS
330
3FD
102
}
330
3FD
100
AcDbXrecord
280
     1
102
RTVSPropertyOp0
 70
     1
102
RTVSPropertyOp1
 70
     1
102
RTVSPropertyOp2
 70
     1
102
RTVSPropertyOp3
 70
     1
102
RTVSPropertyOp4
 70
     1
102
RTVSPropertyOp5
 70
     1
102
RTVSPropertyOp6
 70
     1
102
RTVSPropertyOp7
 70
     1
102
RTVSPropertyOp8
 70
     1
102
RTVSPropertyOp9
 70
     1
102
RTVSPropertyOp10
 70
     1
102
RTVSPropertyOp11
 70
     1
102
RTVSPropertyOp12
 70
     1
102
RTVSPropertyOp13
 70
     1
102
RTVSPropertyOp14
 70
     1
102
RTVSPropertyOp15
 70
     1
102
RTVSPropertyOp16
 70
     1
102
RTVSPropertyOp17
 70
     1
102
RTVSPropertyOp18
 70
     1
102
RTVSPropertyOp19
 70
     1
102
RTVSPropertyOp20
 70
     1
102
RTVSPropertyOp21
 70
     1
102
RTVSPropertyOp22
 70
     1
102
RTVSPropertyOp23
 70
     1
102
RTVSPropertyOp24
 70
     1
102
RTVSPropertyOp25
 70
     1
102
RTVSPropertyOp26
 70
     1
102
RTVSPropertyOp27
 70
     1
102
RTVSPropertyOp28
 70
     1
102
RTVSPropertyOp29
 70
     1
102
RTVSPropertyOp30
 70
     1
102
RTVSPropertyOp31
 70
     1
102
RTVSPropertyOp32
 70
     1
102
RTVSPropertyOp33
 70
     1
102
RTVSPropertyOp34
 70
     1
102
RTVSPropertyOp35
 70
     1
102
RTVSPropertyOp36
 70
     1
102
RTVSPropertyOp37
 70
     1
102
RTVSPropertyOp38
 70
     1
102
RTVSPropertyOp39
 70
     1
102
RTVSPropertyOp40
 70
     1
102
RTVSPropertyOp41
 70
     1
102
RTVSPropertyOp42
 70
     1
102
RTVSPropertyOp43
 70
     1
102
RTVSPropertyOp44
 70
     1
102
RTVSPropertyOp45
 70
     1
102
RTVSPropertyOp46
 70
     1
102
RTVSPropertyOp47
 70
     1
102
RTVSPropertyOp48
 70
     1
102
RTVSPropertyOp49
 70
     1
102
RTVSPropertyOp50
 70
     1
102
RTVSPropertyOp51
 70
     0
102
RTVSPropertyOp52
 70
     0
102
RTVSPropertyOp53
 70
     1
102
RTVSPropertyOp54
 70
     1
102
RTVSPropertyOp55
 70
     1
102
RTVSPropertyOp56
 70
     1
102
RTVSPropertyOp57
 70
     1
102
RTVSPost2010Prop28
280
     0
102
RTVSPost2010PropOp28
 70
     1
102
RTVSPost2010Prop29
280
     1
102
RTVSPost2010PropOp29
 70
     1
102
RTVSPost2010Prop30
280
     1
102
RTVSPost2010PropOp30
 70
     1
102
RTVSPost2010Prop31
280
     0
102
RTVSPost2010PropOp31
 70
     1
102
RTVSPost2010Prop32
280
     0
102
RTVSPost2010PropOp32
 70
     1
102
RTVSPost2010Prop33
280
     0
102
RTVSPost2010PropOp33
 70
     1
102
RTVSPost2010Prop34
280
     0
102
RTVSPost2010PropOp34
 70
     1
102
RTVSPost2010Prop35
280
     0
102
RTVSPost2010PropOp35
 70
     1
102
RTVSPost2010Prop36
280
     0
102
RTVSPost2010PropOp36
 70
     1
102
RTVSPost2010Prop37
 90
       50
102
RTVSPost2010PropOp37
 70
     1
102
RTVSPost2010Prop38
140
0.0
102
RTVSPost2010PropOp38
 70
     1
102
RTVSPost2010Prop39
140
1.0
102
RTVSPost2010PropOp39
 70
     1
102
RTVSPost2010Prop40
 90
        0
102
RTVSPost2010PropOp40
 70
     1
102
RTVSPost2010Prop41ColorIndex
 90
       18
102
RTVSPost2010Prop41ColorRGB
 90
        0
102
RTVSPost2010PropOp41
 70
     1
102
RTVSPost2010Prop42
 90
       50
102
RTVSPost2010PropOp42
 70
     1
102
RTVSPost2010Prop43
 90
        3
102
RTVSPost2010PropOp43
 70
     1
102
RTVSPost2010Prop44ColorIndex
 90
        5
102
RTVSPost2010Prop44ColorRGB
 90
      255
102
RTVSPost2010PropOp44
 70
     1
102
RTVSPost2010Prop45
280
     0
102
RTVSPost2010PropOp45
 70
     1
102
RTVSPost2010Prop46
 90
       50
102
RTVSPost2010PropOp46
 70
     1
102
RTVSPost2010Prop47
 90
       50
102
RTVSPost2010PropOp47
 70
     1
102
RTVSPost2010Prop48
 90
       50
102
RTVSPost2010PropOp48
 70
     1
102
RTVSPost2010Prop49
280
     0
102
RTVSPost2010PropOp49
 70
     1
102
RTVSPost2010Prop50
 90
       50
102
RTVSPost2010PropOp50
 70
     1
102
RTVSPost2010Prop51ColorIndex
 90
      256
102
RTVSPost2010Prop51ColorRGB
 90
-16777216
102
RTVSPost2010PropOp51
 70
     0
102
RTVSPost2010Prop52
140
1.0
102
RTVSPost2010PropOp52
 70
     0
102
RTVSPost2010Prop53
 90
        2
102
RTVSPost2010PropOp53
 70
     1
102
RTVSPost2010Prop54
  1
strokes_ogs.tif
102
RTVSPost2010PropOp54
 70
     1
102
RTVSPost2010Prop55
280
     0
102
RTVSPost2010PropOp55
 70
     1
102
RTVSPost2010Prop56
140
1.0
102
RTVSPost2010PropOp56
 70
     1
102
RTVSPost2010Prop57
140
1.0
102
RTVSPost2010PropOp57
 70
     1
  0
XRECORD
  5
3F2
102
{ACAD_REACTORS
330
3F1
102
}
330
3F1
100
AcDbXrecord
280
     1
102
RTVSPropertyOp0
 70
     1
102
RTVSPropertyOp1
 70
     1
102
RTVSPropertyOp2
 70
     1
102
RTVSPropertyOp3
 70
     1
102
RTVSPropertyOp4
 70
     1
102
RTVSPropertyOp5
 70
     1
102
RTVSPropertyOp6
 70
     1
102
RTVSPropertyOp7
 70
     1
102
RTVSPropertyOp8
 70
     1
102
RTVSPropertyOp9
 70
     1
102
RTVSPropertyOp10
 70
     1
102
RTVSPropertyOp11
 70
     1
102
RTVSPropertyOp12
 70
     1
102
RTVSPropertyOp13
 70
     1
102
RTVSPropertyOp14
 70
     1
102
RTVSPropertyOp15
 70
     1
102
RTVSPropertyOp16
 70
     1
102
RTVSPropertyOp17
 70
     1
102
RTVSPropertyOp18
 70
     1
102
RTVSPropertyOp19
 70
     1
102
RTVSPropertyOp20
 70
     1
102
RTVSPropertyOp21
 70
     1
102
RTVSPropertyOp22
 70
     1
102
RTVSPropertyOp23
 70
     1
102
RTVSPropertyOp24
 70
     1
102
RTVSPropertyOp25
 70
     1
102
RTVSPropertyOp26
 70
     1
102
RTVSPropertyOp27
 70
     1
102
RTVSPropertyOp28
 70
     1
102
RTVSPropertyOp29
 70
     1
102
RTVSPropertyOp30
 70
     1
102
RTVSPropertyOp31
 70
     1
102
RTVSPropertyOp32
 70
     1
102
RTVSPropertyOp33
 70
     1
102
RTVSPropertyOp34
 70
     1
102
RTVSPropertyOp35
 70
     1
102
RTVSPropertyOp36
 70
     1
102
RTVSPropertyOp37
 70
     1
102
RTVSPropertyOp38
 70
     1
102
RTVSPropertyOp39
 70
     1
102
RTVSPropertyOp40
 70
     1
102
RTVSPropertyOp41
 70
     1
102
RTVSPropertyOp42
 70
     1
102
RTVSPropertyOp43
 70
     1
102
RTVSPropertyOp44
 70
     1
102
RTVSPropertyOp45
 70
     1
102
RTVSPropertyOp46
 70
     1
102
RTVSPropertyOp47
 70
     1
102
RTVSPropertyOp48
 70
     1
102
RTVSPropertyOp49
 70
     1
102
RTVSPropertyOp50
 70
     1
102
RTVSPropertyOp51
 70
     0
102
RTVSPropertyOp52
 70
     0
102
RTVSPropertyOp53
 70
     1
102
RTVSPropertyOp54
 70
     1
102
RTVSPropertyOp55
 70
     1
102
RTVSPropertyOp56
 70
     1
102
RTVSPropertyOp57
 70
     1
102
RTVSPost2010Prop28
280
     0
102
RTVSPost2010PropOp28
 70
     1
102
RTVSPost2010Prop29
280
     1
102
RTVSPost2010PropOp29
 70
     1
102
RTVSPost2010Prop30
280
     1
102
RTVSPost2010PropOp30
 70
     1
102
RTVSPost2010Prop31
280
     0
102
RTVSPost2010PropOp31
 70
     1
102
RTVSPost2010Prop32
280
     0
102
RTVSPost2010PropOp32
 70
     1
102
RTVSPost2010Prop33
280
     0
102
RTVSPost2010PropOp33
 70
     1
102
RTVSPost2010Prop34
280
     0
102
RTVSPost2010PropOp34
 70
     1
102
RTVSPost2010Prop35
280
     0
102
RTVSPost2010PropOp35
 70
     1
102
RTVSPost2010Prop36
280
     0
102
RTVSPost2010PropOp36
 70
     1
102
RTVSPost2010Prop37
 90
       50
102
RTVSPost2010PropOp37
 70
     1
102
RTVSPost2010Prop38
140
0.0
102
RTVSPost2010PropOp38
 70
     1
102
RTVSPost2010Prop39
140
1.0
102
RTVSPost2010PropOp39
 70
     1
102
RTVSPost2010Prop40
 90
        0
102
RTVSPost2010PropOp40
 70
     1
102
RTVSPost2010Prop41ColorIndex
 90
       18
102
RTVSPost2010Prop41ColorRGB
 90
        0
102
RTVSPost2010PropOp41
 70
     1
102
RTVSPost2010Prop42
 90
       50
102
RTVSPost2010PropOp42
 70
     1
102
RTVSPost2010Prop43
 90
        3
102
RTVSPost2010PropOp43
 70
     1
102
RTVSPost2010Prop44ColorIndex
 90
        5
102
RTVSPost2010Prop44ColorRGB
 90
      255
102
RTVSPost2010PropOp44
 70
     1
102
RTVSPost2010Prop45
280
     0
102
RTVSPost2010PropOp45
 70
     1
102
RTVSPost2010Prop46
 90
       50
102
RTVSPost2010PropOp46
 70
     1
102
RTVSPost2010Prop47
 90
       50
102
RTVSPost2010PropOp47
 70
     1
102
RTVSPost2010Prop48
 90
       50
102
RTVSPost2010PropOp48
 70
     1
102
RTVSPost2010Prop49
280
     0
102
RTVSPost2010PropOp49
 70
     1
102
RTVSPost2010Prop50
 90
       50
102
RTVSPost2010PropOp50
 70
     1
102
RTVSPost2010Prop51ColorIndex
 90
      256
102
RTVSPost2010Prop51ColorRGB
 90
-16777216
102
RTVSPost2010PropOp51
 70
     0
102
RTVSPost2010Prop52
140
1.0
102
RTVSPost2010PropOp52
 70
     0
102
RTVSPost2010Prop53
 90
        2
102
RTVSPost2010PropOp53
 70
     1
102
RTVSPost2010Prop54
  1
strokes_ogs.tif
102
RTVSPost2010PropOp54
 70
     1
102
RTVSPost2010Prop55
280
     0
102
RTVSPost2010PropOp55
 70
     1
102
RTVSPost2010Prop56
140
1.0
102
RTVSPost2010PropOp56
 70
     1
102
RTVSPost2010Prop57
140
1.0
102
RTVSPost2010PropOp57
 70
     1
  0
XRECORD
  5
3F4
102
{ACAD_REACTORS
330
3F3
102
}
330
3F3
100
AcDbXrecord
280
     1
102
RTVSPropertyOp0
 70
     1
102
RTVSPropertyOp1
 70
     1
102
RTVSPropertyOp2
 70
     1
102
RTVSPropertyOp3
 70
     1
102
RTVSPropertyOp4
 70
     1
102
RTVSPropertyOp5
 70
     1
102
RTVSPropertyOp6
 70
     1
102
RTVSPropertyOp7
 70
     1
102
RTVSPropertyOp8
 70
     1
102
RTVSPropertyOp9
 70
     1
102
RTVSPropertyOp10
 70
     1
102
RTVSPropertyOp11
 70
     1
102
RTVSPropertyOp12
 70
     1
102
RTVSPropertyOp13
 70
     1
102
RTVSPropertyOp14
 70
     1
102
RTVSPropertyOp15
 70
     1
102
RTVSPropertyOp16
 70
     1
102
RTVSPropertyOp17
 70
     1
102
RTVSPropertyOp18
 70
     1
102
RTVSPropertyOp19
 70
     1
102
RTVSPropertyOp20
 70
     1
102
RTVSPropertyOp21
 70
     1
102
RTVSPropertyOp22
 70
     1
102
RTVSPropertyOp23
 70
     1
102
RTVSPropertyOp24
 70
     1
102
RTVSPropertyOp25
 70
     1
102
RTVSPropertyOp26
 70
     1
102
RTVSPropertyOp27
 70
     1
102
RTVSPropertyOp28
 70
     1
102
RTVSPropertyOp29
 70
     1
102
RTVSPropertyOp30
 70
     1
102
RTVSPropertyOp31
 70
     1
102
RTVSPropertyOp32
 70
     1
102
RTVSPropertyOp33
 70
     1
102
RTVSPropertyOp34
 70
     1
102
RTVSPropertyOp35
 70
     1
102
RTVSPropertyOp36
 70
     1
102
RTVSPropertyOp37
 70
     1
102
RTVSPropertyOp38
 70
     1
102
RTVSPropertyOp39
 70
     1
102
RTVSPropertyOp40
 70
     1
102
RTVSPropertyOp41
 70
     1
102
RTVSPropertyOp42
 70
     1
102
RTVSPropertyOp43
 70
     1
102
RTVSPropertyOp44
 70
     1
102
RTVSPropertyOp45
 70
     1
102
RTVSPropertyOp46
 70
     1
102
RTVSPropertyOp47
 70
     1
102
RTVSPropertyOp48
 70
     1
102
RTVSPropertyOp49
 70
     1
102
RTVSPropertyOp50
 70
     1
102
RTVSPropertyOp51
 70
     0
102
RTVSPropertyOp52
 70
     0
102
RTVSPropertyOp53
 70
     1
102
RTVSPropertyOp54
 70
     1
102
RTVSPropertyOp55
 70
     1
102
RTVSPropertyOp56
 70
     1
102
RTVSPropertyOp57
 70
     1
102
RTVSPost2010Prop28
280
     0
102
RTVSPost2010PropOp28
 70
     1
102
RTVSPost2010Prop29
280
     1
102
RTVSPost2010PropOp29
 70
     1
102
RTVSPost2010Prop30
280
     1
102
RTVSPost2010PropOp30
 70
     1
102
RTVSPost2010Prop31
280
     0
102
RTVSPost2010PropOp31
 70
     1
102
RTVSPost2010Prop32
280
     0
102
RTVSPost2010PropOp32
 70
     1
102
RTVSPost2010Prop33
280
     0
102
RTVSPost2010PropOp33
 70
     1
102
RTVSPost2010Prop34
280
     0
102
RTVSPost2010PropOp34
 70
     1
102
RTVSPost2010Prop35
280
     0
102
RTVSPost2010PropOp35
 70
     1
102
RTVSPost2010Prop36
280
     0
102
RTVSPost2010PropOp36
 70
     1
102
RTVSPost2010Prop37
 90
       50
102
RTVSPost2010PropOp37
 70
     1
102
RTVSPost2010Prop38
140
0.0
102
RTVSPost2010PropOp38
 70
     1
102
RTVSPost2010Prop39
140
1.0
102
RTVSPost2010PropOp39
 70
     1
102
RTVSPost2010Prop40
 90
        0
102
RTVSPost2010PropOp40
 70
     1
102
RTVSPost2010Prop41ColorIndex
 90
       18
102
RTVSPost2010Prop41ColorRGB
 90
        0
102
RTVSPost2010PropOp41
 70
     1
102
RTVSPost2010Prop42
 90
       50
102
RTVSPost2010PropOp42
 70
     1
102
RTVSPost2010Prop43
 90
        3
102
RTVSPost2010PropOp43
 70
     1
102
RTVSPost2010Prop44ColorIndex
 90
        5
102
RTVSPost2010Prop44ColorRGB
 90
      255
102
RTVSPost2010PropOp44
 70
     1
102
RTVSPost2010Prop45
280
     0
102
RTVSPost2010PropOp45
 70
     1
102
RTVSPost2010Prop46
 90
       50
102
RTVSPost2010PropOp46
 70
     1
102
RTVSPost2010Prop47
 90
       50
102
RTVSPost2010PropOp47
 70
     1
102
RTVSPost2010Prop48
 90
       50
102
RTVSPost2010PropOp48
 70
     1
102
RTVSPost2010Prop49
280
     0
102
RTVSPost2010PropOp49
 70
     1
102
RTVSPost2010Prop50
 90
       50
102
RTVSPost2010PropOp50
 70
     1
102
RTVSPost2010Prop51ColorIndex
 90
      256
102
RTVSPost2010Prop51ColorRGB
 90
-16777216
102
RTVSPost2010PropOp51
 70
     0
102
RTVSPost2010Prop52
140
1.0
102
RTVSPost2010PropOp52
 70
     0
102
RTVSPost2010Prop53
 90
        2
102
RTVSPost2010PropOp53
 70
     1
102
RTVSPost2010Prop54
  1
strokes_ogs.tif
102
RTVSPost2010PropOp54
 70
     1
102
RTVSPost2010Prop55
280
     0
102
RTVSPost2010PropOp55
 70
     1
102
RTVSPost2010Prop56
140
1.0
102
RTVSPost2010PropOp56
 70
     1
102
RTVSPost2010Prop57
140
1.0
102
RTVSPost2010PropOp57
 70
     1
  0
XRECORD
  5
404
102
{ACAD_REACTORS
330
403
102
}
330
403
100
AcDbXrecord
280
     1
102
RTVSPropertyOp0
 70
     0
102
RTVSPropertyOp1
 70
     0
102
RTVSPropertyOp2
 70
     0
102
RTVSPropertyOp3
 70
     0
102
RTVSPropertyOp4
 70
     0
102
RTVSPropertyOp5
 70
     0
102
RTVSPropertyOp6
 70
     0
102
RTVSPropertyOp7
 70
     0
102
RTVSPropertyOp8
 70
     0
102
RTVSPropertyOp9
 70
     0
102
RTVSPropertyOp10
 70
     0
102
RTVSPropertyOp11
 70
     0
102
RTVSPropertyOp12
 70
     0
102
RTVSPropertyOp13
 70
     0
102
RTVSPropertyOp14
 70
     2
102
RTVSPropertyOp15
 70
     0
102
RTVSPropertyOp16
 70
     0
102
RTVSPropertyOp17
 70
     0
102
RTVSPropertyOp18
 70
     0
102
RTVSPropertyOp19
 70
     0
102
RTVSPropertyOp20
 70
     0
102
RTVSPropertyOp21
 70
     0
102
RTVSPropertyOp22
 70
     0
102
RTVSPropertyOp23
 70
     0
102
RTVSPropertyOp24
 70
     0
102
RTVSPropertyOp25
 70
     0
102
RTVSPropertyOp26
 70
     0
102
RTVSPropertyOp27
 70
     0
102
RTVSPropertyOp28
 70
     0
102
RTVSPropertyOp29
 70
     0
102
RTVSPropertyOp30
 70
     0
102
RTVSPropertyOp31
 70
     0
102
RTVSPropertyOp32
 70
     0
102
RTVSPropertyOp33
 70
     0
102
RTVSPropertyOp34
 70
     0
102
RTVSPropertyOp35
 70
     0
102
RTVSPropertyOp36
 70
     0
102
RTVSPropertyOp37
 70
     0
102
RTVSPropertyOp38
 70
     0
102
RTVSPropertyOp39
 70
     0
102
RTVSPropertyOp40
 70
     0
102
RTVSPropertyOp41
 70
     0
102
RTVSPropertyOp42
 70
     0
102
RTVSPropertyOp43
 70
     0
102
RTVSPropertyOp44
 70
     0
102
RTVSPropertyOp45
 70
     0
102
RTVSPropertyOp46
 70
     0
102
RTVSPropertyOp47
 70
     0
102
RTVSPropertyOp48
 70
     0
102
RTVSPropertyOp49
 70
     0
102
RTVSPropertyOp50
 70
     0
102
RTVSPropertyOp51
 70
     0
102
RTVSPropertyOp52
 70
     0
102
RTVSPropertyOp53
 70
     0
102
RTVSPropertyOp54
 70
     0
102
RTVSPropertyOp55
 70
     0
102
RTVSPropertyOp56
 70
     0
102
RTVSPropertyOp57
 70
     0
102
RTVSPost2010Prop28
280
     0
102
RTVSPost2010PropOp28
 70
     0
102
RTVSPost2010Prop29
280
     1
102
RTVSPost2010PropOp29
 70
     0
102
RTVSPost2010Prop30
280
     1
102
RTVSPost2010PropOp30
 70
     0
102
RTVSPost2010Prop31
280
     0
102
RTVSPost2010PropOp31
 70
     0
102
RTVSPost2010Prop32
280
     0
102
RTVSPost2010PropOp32
 70
     0
102
RTVSPost2010Prop33
280
     0
102
RTVSPost2010PropOp33
 70
     0
102
RTVSPost2010Prop34
280
     0
102
RTVSPost2010PropOp34
 70
     0
102
RTVSPost2010Prop35
280
     0
102
RTVSPost2010PropOp35
 70
     0
102
RTVSPost2010Prop36
280
     0
102
RTVSPost2010PropOp36
 70
     0
102
RTVSPost2010Prop37
 90
       50
102
RTVSPost2010PropOp37
 70
     0
102
RTVSPost2010Prop38
140
0.0
102
RTVSPost2010PropOp38
 70
     0
102
RTVSPost2010Prop39
140
1.0
102
RTVSPost2010PropOp39
 70
     0
102
RTVSPost2010Prop40
 90
        0
102
RTVSPost2010PropOp40
 70
     0
102
RTVSPost2010Prop41ColorIndex
 90
       18
102
RTVSPost2010Prop41ColorRGB
 90
        0
102
RTVSPost2010PropOp41
 70
     0
102
RTVSPost2010Prop42
 90
       50
102
RTVSPost2010PropOp42
 70
     0
102
RTVSPost2010Prop43
 90
        3
102
RTVSPost2010PropOp43
 70
     0
102
RTVSPost2010Prop44ColorIndex
 90
        5
102
RTVSPost2010Prop44ColorRGB
 90
      255
102
RTVSPost2010PropOp44
 70
     0
102
RTVSPost2010Prop45
280
     0
102
RTVSPost2010PropOp45
 70
     0
102
RTVSPost2010Prop46
 90
       50
102
RTVSPost2010PropOp46
 70
     0
102
RTVSPost2010Prop47
 90
       50
102
RTVSPost2010PropOp47
 70
     0
102
RTVSPost2010Prop48
 90
       50
102
RTVSPost2010PropOp48
 70
     0
102
RTVSPost2010Prop49
280
     0
102
RTVSPost2010PropOp49
 70
     0
102
RTVSPost2010Prop50
 90
       50
102
RTVSPost2010PropOp50
 70
     0
102
RTVSPost2010Prop51ColorIndex
 90
      256
102
RTVSPost2010Prop51ColorRGB
 90
-16777216
102
RTVSPost2010PropOp51
 70
     0
102
RTVSPost2010Prop52
140
1.0
102
RTVSPost2010PropOp52
 70
     0
102
RTVSPost2010Prop53
 90
        2
102
RTVSPost2010PropOp53
 70
     0
102
RTVSPost2010Prop54
  1
strokes_ogs.tif
102
RTVSPost2010PropOp54
 70
     0
102
RTVSPost2010Prop55
280
     0
102
RTVSPost2010PropOp55
 70
     0
102
RTVSPost2010Prop56
140
1.0
102
RTVSPost2010PropOp56
 70
     0
102
RTVSPost2010Prop57
140
1.0
102
RTVSPost2010PropOp57
 70
     0
  0
XRECORD
  5
3FC
102
{ACAD_REACTORS
330
3FB
102
}
330
3FB
100
AcDbXrecord
280
     1
102
RTVSPropertyOp0
 70
     1
102
RTVSPropertyOp1
 70
     1
102
RTVSPropertyOp2
 70
     1
102
RTVSPropertyOp3
 70
     1
102
RTVSPropertyOp4
 70
     1
102
RTVSPropertyOp5
 70
     1
102
RTVSPropertyOp6
 70
     1
102
RTVSPropertyOp7
 70
     1
102
RTVSPropertyOp8
 70
     1
102
RTVSPropertyOp9
 70
     1
102
RTVSPropertyOp10
 70
     1
102
RTVSPropertyOp11
 70
     1
102
RTVSPropertyOp12
 70
     1
102
RTVSPropertyOp13
 70
     1
102
RTVSPropertyOp14
 70
     1
102
RTVSPropertyOp15
 70
     1
102
RTVSPropertyOp16
 70
     1
102
RTVSPropertyOp17
 70
     1
102
RTVSPropertyOp18
 70
     1
102
RTVSPropertyOp19
 70
     1
102
RTVSPropertyOp20
 70
     1
102
RTVSPropertyOp21
 70
     1
102
RTVSPropertyOp22
 70
     1
102
RTVSPropertyOp23
 70
     1
102
RTVSPropertyOp24
 70
     1
102
RTVSPropertyOp25
 70
     1
102
RTVSPropertyOp26
 70
     1
102
RTVSPropertyOp27
 70
     1
102
RTVSPropertyOp28
 70
     1
102
RTVSPropertyOp29
 70
     1
102
RTVSPropertyOp30
 70
     1
102
RTVSPropertyOp31
 70
     1
102
RTVSPropertyOp32
 70
     1
102
RTVSPropertyOp33
 70
     1
102
RTVSPropertyOp34
 70
     1
102
RTVSPropertyOp35
 70
     1
102
RTVSPropertyOp36
 70
     1
102
RTVSPropertyOp37
 70
     1
102
RTVSPropertyOp38
 70
     1
102
RTVSPropertyOp39
 70
     1
102
RTVSPropertyOp40
 70
     1
102
RTVSPropertyOp41
 70
     1
102
RTVSPropertyOp42
 70
     1
102
RTVSPropertyOp43
 70
     1
102
RTVSPropertyOp44
 70
     1
102
RTVSPropertyOp45
 70
     1
102
RTVSPropertyOp46
 70
     1
102
RTVSPropertyOp47
 70
     1
102
RTVSPropertyOp48
 70
     1
102
RTVSPropertyOp49
 70
     1
102
RTVSPropertyOp50
 70
     1
102
RTVSPropertyOp51
 70
     0
102
RTVSPropertyOp52
 70
     0
102
RTVSPropertyOp53
 70
     1
102
RTVSPropertyOp54
 70
     1
102
RTVSPropertyOp55
 70
     1
102
RTVSPropertyOp56
 70
     1
102
RTVSPropertyOp57
 70
     1
102
RTVSPost2010Prop28
280
     0
102
RTVSPost2010PropOp28
 70
     1
102
RTVSPost2010Prop29
280
     1
102
RTVSPost2010PropOp29
 70
     1
102
RTVSPost2010Prop30
280
     1
102
RTVSPost2010PropOp30
 70
     1
102
RTVSPost2010Prop31
280
     0
102
RTVSPost2010PropOp31
 70
     1
102
RTVSPost2010Prop32
280
     0
102
RTVSPost2010PropOp32
 70
     1
102
RTVSPost2010Prop33
280
     0
102
RTVSPost2010PropOp33
 70
     1
102
RTVSPost2010Prop34
280
     0
102
RTVSPost2010PropOp34
 70
     1
102
RTVSPost2010Prop35
280
     0
102
RTVSPost2010PropOp35
 70
     1
102
RTVSPost2010Prop36
280
     0
102
RTVSPost2010PropOp36
 70
     1
102
RTVSPost2010Prop37
 90
       50
102
RTVSPost2010PropOp37
 70
     1
102
RTVSPost2010Prop38
140
0.0
102
RTVSPost2010PropOp38
 70
     1
102
RTVSPost2010Prop39
140
1.0
102
RTVSPost2010PropOp39
 70
     1
102
RTVSPost2010Prop40
 90
        0
102
RTVSPost2010PropOp40
 70
     1
102
RTVSPost2010Prop41ColorIndex
 90
       18
102
RTVSPost2010Prop41ColorRGB
 90
        0
102
RTVSPost2010PropOp41
 70
     1
102
RTVSPost2010Prop42
 90
       50
102
RTVSPost2010PropOp42
 70
     1
102
RTVSPost2010Prop43
 90
        3
102
RTVSPost2010PropOp43
 70
     1
102
RTVSPost2010Prop44ColorIndex
 90
        5
102
RTVSPost2010Prop44ColorRGB
 90
      255
102
RTVSPost2010PropOp44
 70
     1
102
RTVSPost2010Prop45
280
     0
102
RTVSPost2010PropOp45
 70
     1
102
RTVSPost2010Prop46
 90
       50
102
RTVSPost2010PropOp46
 70
     1
102
RTVSPost2010Prop47
 90
       50
102
RTVSPost2010PropOp47
 70
     1
102
RTVSPost2010Prop48
 90
       50
102
RTVSPost2010PropOp48
 70
     1
102
RTVSPost2010Prop49
280
     0
102
RTVSPost2010PropOp49
 70
     1
102
RTVSPost2010Prop50
 90
       50
102
RTVSPost2010PropOp50
 70
     1
102
RTVSPost2010Prop51ColorIndex
 90
      256
102
RTVSPost2010Prop51ColorRGB
 90
-16777216
102
RTVSPost2010PropOp51
 70
     0
102
RTVSPost2010Prop52
140
1.0
102
RTVSPost2010PropOp52
 70
     0
102
RTVSPost2010Prop53
 90
        2
102
RTVSPost2010PropOp53
 70
     1
102
RTVSPost2010Prop54
  1
strokes_ogs.tif
102
RTVSPost2010PropOp54
 70
     1
102
RTVSPost2010Prop55
280
     0
102
RTVSPost2010PropOp55
 70
     1
102
RTVSPost2010Prop56
140
1.0
102
RTVSPost2010PropOp56
 70
     1
102
RTVSPost2010Prop57
140
1.0
102
RTVSPost2010PropOp57
 70
     1
  0
XRECORD
  5
3E0
102
{ACAD_REACTORS
330
3DF
102
}
330
3DF
100
AcDbXrecord
280
     1
102
RTVSPropertyOp0
 70
     1
102
RTVSPropertyOp1
 70
     1
102
RTVSPropertyOp2
 70
     1
102
RTVSPropertyOp3
 70
     1
102
RTVSPropertyOp4
 70
     1
102
RTVSPropertyOp5
 70
     1
102
RTVSPropertyOp6
 70
     1
102
RTVSPropertyOp7
 70
     1
102
RTVSPropertyOp8
 70
     1
102
RTVSPropertyOp9
 70
     1
102
RTVSPropertyOp10
 70
     1
102
RTVSPropertyOp11
 70
     1
102
RTVSPropertyOp12
 70
     1
102
RTVSPropertyOp13
 70
     1
102
RTVSPropertyOp14
 70
     1
102
RTVSPropertyOp15
 70
     1
102
RTVSPropertyOp16
 70
     1
102
RTVSPropertyOp17
 70
     1
102
RTVSPropertyOp18
 70
     1
102
RTVSPropertyOp19
 70
     1
102
RTVSPropertyOp20
 70
     1
102
RTVSPropertyOp21
 70
     1
102
RTVSPropertyOp22
 70
     1
102
RTVSPropertyOp23
 70
     1
102
RTVSPropertyOp24
 70
     1
102
RTVSPropertyOp25
 70
     1
102
RTVSPropertyOp26
 70
     1
102
RTVSPropertyOp27
 70
     1
102
RTVSPropertyOp28
 70
     1
102
RTVSPropertyOp29
 70
     1
102
RTVSPropertyOp30
 70
     1
102
RTVSPropertyOp31
 70
     1
102
RTVSPropertyOp32
 70
     1
102
RTVSPropertyOp33
 70
     1
102
RTVSPropertyOp34
 70
     1
102
RTVSPropertyOp35
 70
     1
102
RTVSPropertyOp36
 70
     1
102
RTVSPropertyOp37
 70
     1
102
RTVSPropertyOp38
 70
     1
102
RTVSPropertyOp39
 70
     1
102
RTVSPropertyOp40
 70
     1
102
RTVSPropertyOp41
 70
     1
102
RTVSPropertyOp42
 70
     1
102
RTVSPropertyOp43
 70
     1
102
RTVSPropertyOp44
 70
     1
102
RTVSPropertyOp45
 70
     1
102
RTVSPropertyOp46
 70
     1
102
RTVSPropertyOp47
 70
     1
102
RTVSPropertyOp48
 70
     1
102
RTVSPropertyOp49
 70
     1
102
RTVSPropertyOp50
 70
     1
102
RTVSPropertyOp51
 70
     0
102
RTVSPropertyOp52
 70
     0
102
RTVSPropertyOp53
 70
     1
102
RTVSPropertyOp54
 70
     1
102
RTVSPropertyOp55
 70
     1
102
RTVSPropertyOp56
 70
     1
102
RTVSPropertyOp57
 70
     1
102
RTVSPost2010Prop28
280
     0
102
RTVSPost2010PropOp28
 70
     1
102
RTVSPost2010Prop29
280
     1
102
RTVSPost2010PropOp29
 70
     1
102
RTVSPost2010Prop30
280
     1
102
RTVSPost2010PropOp30
 70
     1
102
RTVSPost2010Prop31
280
     0
102
RTVSPost2010PropOp31
 70
     1
102
RTVSPost2010Prop32
280
     0
102
RTVSPost2010PropOp32
 70
     1
102
RTVSPost2010Prop33
280
     0
102
RTVSPost2010PropOp33
 70
     1
102
RTVSPost2010Prop34
280
     0
102
RTVSPost2010PropOp34
 70
     1
102
RTVSPost2010Prop35
280
     0
102
RTVSPost2010PropOp35
 70
     1
102
RTVSPost2010Prop36
280
     0
102
RTVSPost2010PropOp36
 70
     1
102
RTVSPost2010Prop37
 90
       50
102
RTVSPost2010PropOp37
 70
     1
102
RTVSPost2010Prop38
140
0.0
102
RTVSPost2010PropOp38
 70
     1
102
RTVSPost2010Prop39
140
1.0
102
RTVSPost2010PropOp39
 70
     1
102
RTVSPost2010Prop40
 90
        0
102
RTVSPost2010PropOp40
 70
     1
102
RTVSPost2010Prop41ColorIndex
 90
       18
102
RTVSPost2010Prop41ColorRGB
 90
        0
102
RTVSPost2010PropOp41
 70
     1
102
RTVSPost2010Prop42
 90
       50
102
RTVSPost2010PropOp42
 70
     1
102
RTVSPost2010Prop43
 90
        3
102
RTVSPost2010PropOp43
 70
     1
102
RTVSPost2010Prop44ColorIndex
 90
        5
102
RTVSPost2010Prop44ColorRGB
 90
      255
102
RTVSPost2010PropOp44
 70
     1
102
RTVSPost2010Prop45
280
     0
102
RTVSPost2010PropOp45
 70
     1
102
RTVSPost2010Prop46
 90
       50
102
RTVSPost2010PropOp46
 70
     1
102
RTVSPost2010Prop47
 90
       50
102
RTVSPost2010PropOp47
 70
     1
102
RTVSPost2010Prop48
 90
       50
102
RTVSPost2010PropOp48
 70
     1
102
RTVSPost2010Prop49
280
     0
102
RTVSPost2010PropOp49
 70
     1
102
RTVSPost2010Prop50
 90
       50
102
RTVSPost2010PropOp50
 70
     1
102
RTVSPost2010Prop51ColorIndex
 90
      256
102
RTVSPost2010Prop51ColorRGB
 90
-16777216
102
RTVSPost2010PropOp51
 70
     0
102
RTVSPost2010Prop52
140
1.0
102
RTVSPost2010PropOp52
 70
     0
102
RTVSPost2010Prop53
 90
        2
102
RTVSPost2010PropOp53
 70
     1
102
RTVSPost2010Prop54
  1
strokes_ogs.tif
102
RTVSPost2010PropOp54
 70
     1
102
RTVSPost2010Prop55
280
     0
102
RTVSPost2010PropOp55
 70
     1
102
RTVSPost2010Prop56
140
1.0
102
RTVSPost2010PropOp56
 70
     1
102
RTVSPost2010Prop57
140
1.0
102
RTVSPost2010PropOp57
 70
     1
  0
XRECORD
  5
3E2
102
{ACAD_REACTORS
330
3E1
102
}
330
3E1
100
AcDbXrecord
280
     1
102
RTVSPropertyOp0
 70
     1
102
RTVSPropertyOp1
 70
     1
102
RTVSPropertyOp2
 70
     1
102
RTVSPropertyOp3
 70
     1
102
RTVSPropertyOp4
 70
     1
102
RTVSPropertyOp5
 70
     1
102
RTVSPropertyOp6
 70
     1
102
RTVSPropertyOp7
 70
     1
102
RTVSPropertyOp8
 70
     1
102
RTVSPropertyOp9
 70
     1
102
RTVSPropertyOp10
 70
     1
102
RTVSPropertyOp11
 70
     1
102
RTVSPropertyOp12
 70
     1
102
RTVSPropertyOp13
 70
     1
102
RTVSPropertyOp14
 70
     1
102
RTVSPropertyOp15
 70
     1
102
RTVSPropertyOp16
 70
     1
102
RTVSPropertyOp17
 70
     1
102
RTVSPropertyOp18
 70
     1
102
RTVSPropertyOp19
 70
     1
102
RTVSPropertyOp20
 70
     1
102
RTVSPropertyOp21
 70
     1
102
RTVSPropertyOp22
 70
     1
102
RTVSPropertyOp23
 70
     1
102
RTVSPropertyOp24
 70
     1
102
RTVSPropertyOp25
 70
     1
102
RTVSPropertyOp26
 70
     1
102
RTVSPropertyOp27
 70
     1
102
RTVSPropertyOp28
 70
     1
102
RTVSPropertyOp29
 70
     1
102
RTVSPropertyOp30
 70
     1
102
RTVSPropertyOp31
 70
     1
102
RTVSPropertyOp32
 70
     1
102
RTVSPropertyOp33
 70
     1
102
RTVSPropertyOp34
 70
     1
102
RTVSPropertyOp35
 70
     1
102
RTVSPropertyOp36
 70
     1
102
RTVSPropertyOp37
 70
     1
102
RTVSPropertyOp38
 70
     1
102
RTVSPropertyOp39
 70
     1
102
RTVSPropertyOp40
 70
     1
102
RTVSPropertyOp41
 70
     1
102
RTVSPropertyOp42
 70
     1
102
RTVSPropertyOp43
 70
     1
102
RTVSPropertyOp44
 70
     1
102
RTVSPropertyOp45
 70
     1
102
RTVSPropertyOp46
 70
     1
102
RTVSPropertyOp47
 70
     1
102
RTVSPropertyOp48
 70
     1
102
RTVSPropertyOp49
 70
     1
102
RTVSPropertyOp50
 70
     1
102
RTVSPropertyOp51
 70
     0
102
RTVSPropertyOp52
 70
     0
102
RTVSPropertyOp53
 70
     1
102
RTVSPropertyOp54
 70
     1
102
RTVSPropertyOp55
 70
     1
102
RTVSPropertyOp56
 70
     1
102
RTVSPropertyOp57
 70
     1
102
RTVSPost2010Prop28
280
     0
102
RTVSPost2010PropOp28
 70
     1
102
RTVSPost2010Prop29
280
     1
102
RTVSPost2010PropOp29
 70
     1
102
RTVSPost2010Prop30
280
     1
102
RTVSPost2010PropOp30
 70
     1
102
RTVSPost2010Prop31
280
     0
102
RTVSPost2010PropOp31
 70
     1
102
RTVSPost2010Prop32
280
     0
102
RTVSPost2010PropOp32
 70
     1
102
RTVSPost2010Prop33
280
     0
102
RTVSPost2010PropOp33
 70
     1
102
RTVSPost2010Prop34
280
     0
102
RTVSPost2010PropOp34
 70
     1
102
RTVSPost2010Prop35
280
     0
102
RTVSPost2010PropOp35
 70
     1
102
RTVSPost2010Prop36
280
     0
102
RTVSPost2010PropOp36
 70
     1
102
RTVSPost2010Prop37
 90
       50
102
RTVSPost2010PropOp37
 70
     1
102
RTVSPost2010Prop38
140
0.0
102
RTVSPost2010PropOp38
 70
     1
102
RTVSPost2010Prop39
140
1.0
102
RTVSPost2010PropOp39
 70
     1
102
RTVSPost2010Prop40
 90
        0
102
RTVSPost2010PropOp40
 70
     1
102
RTVSPost2010Prop41ColorIndex
 90
       18
102
RTVSPost2010Prop41ColorRGB
 90
        0
102
RTVSPost2010PropOp41
 70
     1
102
RTVSPost2010Prop42
 90
       50
102
RTVSPost2010PropOp42
 70
     1
102
RTVSPost2010Prop43
 90
        3
102
RTVSPost2010PropOp43
 70
     1
102
RTVSPost2010Prop44ColorIndex
 90
        5
102
RTVSPost2010Prop44ColorRGB
 90
      255
102
RTVSPost2010PropOp44
 70
     1
102
RTVSPost2010Prop45
280
     0
102
RTVSPost2010PropOp45
 70
     1
102
RTVSPost2010Prop46
 90
       50
102
RTVSPost2010PropOp46
 70
     1
102
RTVSPost2010Prop47
 90
       50
102
RTVSPost2010PropOp47
 70
     1
102
RTVSPost2010Prop48
 90
       50
102
RTVSPost2010PropOp48
 70
     1
102
RTVSPost2010Prop49
280
     0
102
RTVSPost2010PropOp49
 70
     1
102
RTVSPost2010Prop50
 90
       50
102
RTVSPost2010PropOp50
 70
     1
102
RTVSPost2010Prop51ColorIndex
 90
      256
102
RTVSPost2010Prop51ColorRGB
 90
-16777216
102
RTVSPost2010PropOp51
 70
     0
102
RTVSPost2010Prop52
140
1.0
102
RTVSPost2010PropOp52
 70
     0
102
RTVSPost2010Prop53
 90
        2
102
RTVSPost2010PropOp53
 70
     1
102
RTVSPost2010Prop54
  1
strokes_ogs.tif
102
RTVSPost2010PropOp54
 70
     1
102
RTVSPost2010Prop55
280
     0
102
RTVSPost2010PropOp55
 70
     1
102
RTVSPost2010Prop56
140
1.0
102
RTVSPost2010PropOp56
 70
     1
102
RTVSPost2010Prop57
140
1.0
102
RTVSPost2010PropOp57
 70
     1
  0
XRECORD
  5
3E4
102
{ACAD_REACTORS
330
3E3
102
}
330
3E3
100
AcDbXrecord
280
     1
102
RTVSPropertyOp0
 70
     1
102
RTVSPropertyOp1
 70
     1
102
RTVSPropertyOp2
 70
     1
102
RTVSPropertyOp3
 70
     1
102
RTVSPropertyOp4
 70
     1
102
RTVSPropertyOp5
 70
     1
102
RTVSPropertyOp6
 70
     1
102
RTVSPropertyOp7
 70
     1
102
RTVSPropertyOp8
 70
     1
102
RTVSPropertyOp9
 70
     1
102
RTVSPropertyOp10
 70
     1
102
RTVSPropertyOp11
 70
     1
102
RTVSPropertyOp12
 70
     1
102
RTVSPropertyOp13
 70
     1
102
RTVSPropertyOp14
 70
     1
102
RTVSPropertyOp15
 70
     1
102
RTVSPropertyOp16
 70
     1
102
RTVSPropertyOp17
 70
     1
102
RTVSPropertyOp18
 70
     1
102
RTVSPropertyOp19
 70
     1
102
RTVSPropertyOp20
 70
     1
102
RTVSPropertyOp21
 70
     1
102
RTVSPropertyOp22
 70
     1
102
RTVSPropertyOp23
 70
     1
102
RTVSPropertyOp24
 70
     1
102
RTVSPropertyOp25
 70
     1
102
RTVSPropertyOp26
 70
     1
102
RTVSPropertyOp27
 70
     1
102
RTVSPropertyOp28
 70
     1
102
RTVSPropertyOp29
 70
     1
102
RTVSPropertyOp30
 70
     1
102
RTVSPropertyOp31
 70
     1
102
RTVSPropertyOp32
 70
     1
102
RTVSPropertyOp33
 70
     1
102
RTVSPropertyOp34
 70
     1
102
RTVSPropertyOp35
 70
     1
102
RTVSPropertyOp36
 70
     1
102
RTVSPropertyOp37
 70
     1
102
RTVSPropertyOp38
 70
     1
102
RTVSPropertyOp39
 70
     1
102
RTVSPropertyOp40
 70
     1
102
RTVSPropertyOp41
 70
     1
102
RTVSPropertyOp42
 70
     1
102
RTVSPropertyOp43
 70
     1
102
RTVSPropertyOp44
 70
     1
102
RTVSPropertyOp45
 70
     1
102
RTVSPropertyOp46
 70
     1
102
RTVSPropertyOp47
 70
     1
102
RTVSPropertyOp48
 70
     1
102
RTVSPropertyOp49
 70
     1
102
RTVSPropertyOp50
 70
     1
102
RTVSPropertyOp51
 70
     0
102
RTVSPropertyOp52
 70
     0
102
RTVSPropertyOp53
 70
     1
102
RTVSPropertyOp54
 70
     1
102
RTVSPropertyOp55
 70
     1
102
RTVSPropertyOp56
 70
     1
102
RTVSPropertyOp57
 70
     1
102
RTVSPost2010Prop28
280
     0
102
RTVSPost2010PropOp28
 70
     1
102
RTVSPost2010Prop29
280
     1
102
RTVSPost2010PropOp29
 70
     1
102
RTVSPost2010Prop30
280
     1
102
RTVSPost2010PropOp30
 70
     1
102
RTVSPost2010Prop31
280
     0
102
RTVSPost2010PropOp31
 70
     1
102
RTVSPost2010Prop32
280
     0
102
RTVSPost2010PropOp32
 70
     1
102
RTVSPost2010Prop33
280
     0
102
RTVSPost2010PropOp33
 70
     1
102
RTVSPost2010Prop34
280
     0
102
RTVSPost2010PropOp34
 70
     1
102
RTVSPost2010Prop35
280
     0
102
RTVSPost2010PropOp35
 70
     1
102
RTVSPost2010Prop36
280
     0
102
RTVSPost2010PropOp36
 70
     1
102
RTVSPost2010Prop37
 90
       50
102
RTVSPost2010PropOp37
 70
     1
102
RTVSPost2010Prop38
140
0.0
102
RTVSPost2010PropOp38
 70
     1
102
RTVSPost2010Prop39
140
1.0
102
RTVSPost2010PropOp39
 70
     1
102
RTVSPost2010Prop40
 90
        0
102
RTVSPost2010PropOp40
 70
     1
102
RTVSPost2010Prop41ColorIndex
 90
       18
102
RTVSPost2010Prop41ColorRGB
 90
        0
102
RTVSPost2010PropOp41
 70
     1
102
RTVSPost2010Prop42
 90
       50
102
RTVSPost2010PropOp42
 70
     1
102
RTVSPost2010Prop43
 90
        3
102
RTVSPost2010PropOp43
 70
     1
102
RTVSPost2010Prop44ColorIndex
 90
        5
102
RTVSPost2010Prop44ColorRGB
 90
      255
102
RTVSPost2010PropOp44
 70
     1
102
RTVSPost2010Prop45
280
     0
102
RTVSPost2010PropOp45
 70
     1
102
RTVSPost2010Prop46
 90
       50
102
RTVSPost2010PropOp46
 70
     1
102
RTVSPost2010Prop47
 90
       50
102
RTVSPost2010PropOp47
 70
     1
102
RTVSPost2010Prop48
 90
       50
102
RTVSPost2010PropOp48
 70
     1
102
RTVSPost2010Prop49
280
     0
102
RTVSPost2010PropOp49
 70
     1
102
RTVSPost2010Prop50
 90
       50
102
RTVSPost2010PropOp50
 70
     1
102
RTVSPost2010Prop51ColorIndex
 90
      256
102
RTVSPost2010Prop51ColorRGB
 90
-16777216
102
RTVSPost2010PropOp51
 70
     0
102
RTVSPost2010Prop52
140
1.0
102
RTVSPost2010PropOp52
 70
     0
102
RTVSPost2010Prop53
 90
        2
102
RTVSPost2010PropOp53
 70
     1
102
RTVSPost2010Prop54
  1
strokes_ogs.tif
102
RTVSPost2010PropOp54
 70
     1
102
RTVSPost2010Prop55
280
     0
102
RTVSPost2010PropOp55
 70
     1
102
RTVSPost2010Prop56
140
1.0
102
RTVSPost2010PropOp56
 70
     1
102
RTVSPost2010Prop57
140
1.0
102
RTVSPost2010PropOp57
 70
     1
  0
XRECORD
  5
3E6
102
{ACAD_REACTORS
330
3E5
102
}
330
3E5
100
AcDbXrecord
280
     1
102
RTVSPropertyOp0
 70
     1
102
RTVSPropertyOp1
 70
     1
102
RTVSPropertyOp2
 70
     1
102
RTVSPropertyOp3
 70
     1
102
RTVSPropertyOp4
 70
     1
102
RTVSPropertyOp5
 70
     1
102
RTVSPropertyOp6
 70
     1
102
RTVSPropertyOp7
 70
     1
102
RTVSPropertyOp8
 70
     1
102
RTVSPropertyOp9
 70
     1
102
RTVSPropertyOp10
 70
     1
102
RTVSPropertyOp11
 70
     1
102
RTVSPropertyOp12
 70
     1
102
RTVSPropertyOp13
 70
     1
102
RTVSPropertyOp14
 70
     1
102
RTVSPropertyOp15
 70
     1
102
RTVSPropertyOp16
 70
     1
102
RTVSPropertyOp17
 70
     1
102
RTVSPropertyOp18
 70
     1
102
RTVSPropertyOp19
 70
     1
102
RTVSPropertyOp20
 70
     1
102
RTVSPropertyOp21
 70
     1
102
RTVSPropertyOp22
 70
     1
102
RTVSPropertyOp23
 70
     1
102
RTVSPropertyOp24
 70
     1
102
RTVSPropertyOp25
 70
     1
102
RTVSPropertyOp26
 70
     1
102
RTVSPropertyOp27
 70
     1
102
RTVSPropertyOp28
 70
     1
102
RTVSPropertyOp29
 70
     1
102
RTVSPropertyOp30
 70
     1
102
RTVSPropertyOp31
 70
     1
102
RTVSPropertyOp32
 70
     1
102
RTVSPropertyOp33
 70
     1
102
RTVSPropertyOp34
 70
     1
102
RTVSPropertyOp35
 70
     1
102
RTVSPropertyOp36
 70
     1
102
RTVSPropertyOp37
 70
     1
102
RTVSPropertyOp38
 70
     1
102
RTVSPropertyOp39
 70
     1
102
RTVSPropertyOp40
 70
     1
102
RTVSPropertyOp41
 70
     1
102
RTVSPropertyOp42
 70
     1
102
RTVSPropertyOp43
 70
     1
102
RTVSPropertyOp44
 70
     1
102
RTVSPropertyOp45
 70
     1
102
RTVSPropertyOp46
 70
     1
102
RTVSPropertyOp47
 70
     1
102
RTVSPropertyOp48
 70
     1
102
RTVSPropertyOp49
 70
     1
102
RTVSPropertyOp50
 70
     1
102
RTVSPropertyOp51
 70
     0
102
RTVSPropertyOp52
 70
     0
102
RTVSPropertyOp53
 70
     1
102
RTVSPropertyOp54
 70
     1
102
RTVSPropertyOp55
 70
     1
102
RTVSPropertyOp56
 70
     1
102
RTVSPropertyOp57
 70
     1
102
RTVSPost2010Prop28
280
     0
102
RTVSPost2010PropOp28
 70
     1
102
RTVSPost2010Prop29
280
     1
102
RTVSPost2010PropOp29
 70
     1
102
RTVSPost2010Prop30
280
     1
102
RTVSPost2010PropOp30
 70
     1
102
RTVSPost2010Prop31
280
     0
102
RTVSPost2010PropOp31
 70
     1
102
RTVSPost2010Prop32
280
     0
102
RTVSPost2010PropOp32
 70
     1
102
RTVSPost2010Prop33
280
     0
102
RTVSPost2010PropOp33
 70
     1
102
RTVSPost2010Prop34
280
     0
102
RTVSPost2010PropOp34
 70
     1
102
RTVSPost2010Prop35
280
     0
102
RTVSPost2010PropOp35
 70
     1
102
RTVSPost2010Prop36
280
     0
102
RTVSPost2010PropOp36
 70
     1
102
RTVSPost2010Prop37
 90
       50
102
RTVSPost2010PropOp37
 70
     1
102
RTVSPost2010Prop38
140
0.0
102
RTVSPost2010PropOp38
 70
     1
102
RTVSPost2010Prop39
140
1.0
102
RTVSPost2010PropOp39
 70
     1
102
RTVSPost2010Prop40
 90
        0
102
RTVSPost2010PropOp40
 70
     1
102
RTVSPost2010Prop41ColorIndex
 90
       18
102
RTVSPost2010Prop41ColorRGB
 90
        0
102
RTVSPost2010PropOp41
 70
     1
102
RTVSPost2010Prop42
 90
       50
102
RTVSPost2010PropOp42
 70
     1
102
RTVSPost2010Prop43
 90
        3
102
RTVSPost2010PropOp43
 70
     1
102
RTVSPost2010Prop44ColorIndex
 90
        5
102
RTVSPost2010Prop44ColorRGB
 90
      255
102
RTVSPost2010PropOp44
 70
     1
102
RTVSPost2010Prop45
280
     0
102
RTVSPost2010PropOp45
 70
     1
102
RTVSPost2010Prop46
 90
       50
102
RTVSPost2010PropOp46
 70
     1
102
RTVSPost2010Prop47
 90
       50
102
RTVSPost2010PropOp47
 70
     1
102
RTVSPost2010Prop48
 90
       50
102
RTVSPost2010PropOp48
 70
     1
102
RTVSPost2010Prop49
280
     0
102
RTVSPost2010PropOp49
 70
     1
102
RTVSPost2010Prop50
 90
       50
102
RTVSPost2010PropOp50
 70
     1
102
RTVSPost2010Prop51ColorIndex
 90
      256
102
RTVSPost2010Prop51ColorRGB
 90
-16777216
102
RTVSPost2010PropOp51
 70
     0
102
RTVSPost2010Prop52
140
1.0
102
RTVSPost2010PropOp52
 70
     0
102
RTVSPost2010Prop53
 90
        2
102
RTVSPost2010PropOp53
 70
     1
102
RTVSPost2010Prop54
  1
strokes_ogs.tif
102
RTVSPost2010PropOp54
 70
     1
102
RTVSPost2010Prop55
280
     0
102
RTVSPost2010PropOp55
 70
     1
102
RTVSPost2010Prop56
140
1.0
102
RTVSPost2010PropOp56
 70
     1
102
RTVSPost2010Prop57
140
1.0
102
RTVSPost2010PropOp57
 70
     1
  0
XRECORD
  5
3EC
102
{ACAD_REACTORS
330
3EB
102
}
330
3EB
100
AcDbXrecord
280
     1
102
RTVSPropertyOp0
 70
     1
102
RTVSPropertyOp1
 70
     1
102
RTVSPropertyOp2
 70
     1
102
RTVSPropertyOp3
 70
     1
102
RTVSPropertyOp4
 70
     1
102
RTVSPropertyOp5
 70
     1
102
RTVSPropertyOp6
 70
     1
102
RTVSPropertyOp7
 70
     1
102
RTVSPropertyOp8
 70
     1
102
RTVSPropertyOp9
 70
     1
102
RTVSPropertyOp10
 70
     1
102
RTVSPropertyOp11
 70
     1
102
RTVSPropertyOp12
 70
     1
102
RTVSPropertyOp13
 70
     1
102
RTVSPropertyOp14
 70
     1
102
RTVSPropertyOp15
 70
     1
102
RTVSPropertyOp16
 70
     1
102
RTVSPropertyOp17
 70
     1
102
RTVSPropertyOp18
 70
     1
102
RTVSPropertyOp19
 70
     1
102
RTVSPropertyOp20
 70
     1
102
RTVSPropertyOp21
 70
     1
102
RTVSPropertyOp22
 70
     1
102
RTVSPropertyOp23
 70
     1
102
RTVSPropertyOp24
 70
     1
102
RTVSPropertyOp25
 70
     1
102
RTVSPropertyOp26
 70
     1
102
RTVSPropertyOp27
 70
     1
102
RTVSPropertyOp28
 70
     1
102
RTVSPropertyOp29
 70
     1
102
RTVSPropertyOp30
 70
     1
102
RTVSPropertyOp31
 70
     1
102
RTVSPropertyOp32
 70
     1
102
RTVSPropertyOp33
 70
     1
102
RTVSPropertyOp34
 70
     1
102
RTVSPropertyOp35
 70
     1
102
RTVSPropertyOp36
 70
     1
102
RTVSPropertyOp37
 70
     1
102
RTVSPropertyOp38
 70
     1
102
RTVSPropertyOp39
 70
     1
102
RTVSPropertyOp40
 70
     1
102
RTVSPropertyOp41
 70
     1
102
RTVSPropertyOp42
 70
     1
102
RTVSPropertyOp43
 70
     1
102
RTVSPropertyOp44
 70
     1
102
RTVSPropertyOp45
 70
     1
102
RTVSPropertyOp46
 70
     1
102
RTVSPropertyOp47
 70
     1
102
RTVSPropertyOp48
 70
     1
102
RTVSPropertyOp49
 70
     1
102
RTVSPropertyOp50
 70
     1
102
RTVSPropertyOp51
 70
     0
102
RTVSPropertyOp52
 70
     0
102
RTVSPropertyOp53
 70
     1
102
RTVSPropertyOp54
 70
     1
102
RTVSPropertyOp55
 70
     1
102
RTVSPropertyOp56
 70
     1
102
RTVSPropertyOp57
 70
     1
102
RTVSPost2010Prop28
280
     0
102
RTVSPost2010PropOp28
 70
     1
102
RTVSPost2010Prop29
280
     1
102
RTVSPost2010PropOp29
 70
     1
102
RTVSPost2010Prop30
280
     1
102
RTVSPost2010PropOp30
 70
     1
102
RTVSPost2010Prop31
280
     0
102
RTVSPost2010PropOp31
 70
     1
102
RTVSPost2010Prop32
280
     0
102
RTVSPost2010PropOp32
 70
     1
102
RTVSPost2010Prop33
280
     0
102
RTVSPost2010PropOp33
 70
     1
102
RTVSPost2010Prop34
280
     0
102
RTVSPost2010PropOp34
 70
     1
102
RTVSPost2010Prop35
280
     0
102
RTVSPost2010PropOp35
 70
     1
102
RTVSPost2010Prop36
280
     0
102
RTVSPost2010PropOp36
 70
     1
102
RTVSPost2010Prop37
 90
       50
102
RTVSPost2010PropOp37
 70
     1
102
RTVSPost2010Prop38
140
0.0
102
RTVSPost2010PropOp38
 70
     1
102
RTVSPost2010Prop39
140
1.0
102
RTVSPost2010PropOp39
 70
     1
102
RTVSPost2010Prop40
 90
        0
102
RTVSPost2010PropOp40
 70
     1
102
RTVSPost2010Prop41ColorIndex
 90
       18
102
RTVSPost2010Prop41ColorRGB
 90
        0
102
RTVSPost2010PropOp41
 70
     1
102
RTVSPost2010Prop42
 90
       50
102
RTVSPost2010PropOp42
 70
     1
102
RTVSPost2010Prop43
 90
        3
102
RTVSPost2010PropOp43
 70
     1
102
RTVSPost2010Prop44ColorIndex
 90
        5
102
RTVSPost2010Prop44ColorRGB
 90
      255
102
RTVSPost2010PropOp44
 70
     1
102
RTVSPost2010Prop45
280
     0
102
RTVSPost2010PropOp45
 70
     1
102
RTVSPost2010Prop46
 90
       50
102
RTVSPost2010PropOp46
 70
     1
102
RTVSPost2010Prop47
 90
       50
102
RTVSPost2010PropOp47
 70
     1
102
RTVSPost2010Prop48
 90
       50
102
RTVSPost2010PropOp48
 70
     1
102
RTVSPost2010Prop49
280
     0
102
RTVSPost2010PropOp49
 70
     1
102
RTVSPost2010Prop50
 90
       50
102
RTVSPost2010PropOp50
 70
     1
102
RTVSPost2010Prop51ColorIndex
 90
      256
102
RTVSPost2010Prop51ColorRGB
 90
-16777216
102
RTVSPost2010PropOp51
 70
     0
102
RTVSPost2010Prop52
140
1.0
102
RTVSPost2010PropOp52
 70
     0
102
RTVSPost2010Prop53
 90
        2
102
RTVSPost2010PropOp53
 70
     1
102
RTVSPost2010Prop54
  1
strokes_ogs.tif
102
RTVSPost2010PropOp54
 70
     1
102
RTVSPost2010Prop55
280
     0
102
RTVSPost2010PropOp55
 70
     1
102
RTVSPost2010Prop56
140
1.0
102
RTVSPost2010PropOp56
 70
     1
102
RTVSPost2010Prop57
140
1.0
102
RTVSPost2010PropOp57
 70
     1
  0
XRECORD
  5
400
102
{ACAD_REACTORS
330
3FF
102
}
330
3FF
100
AcDbXrecord
280
     1
102
RTVSPropertyOp0
 70
     0
102
RTVSPropertyOp1
 70
     0
102
RTVSPropertyOp2
 70
     0
102
RTVSPropertyOp3
 70
     0
102
RTVSPropertyOp4
 70
     0
102
RTVSPropertyOp5
 70
     0
102
RTVSPropertyOp6
 70
     0
102
RTVSPropertyOp7
 70
     0
102
RTVSPropertyOp8
 70
     0
102
RTVSPropertyOp9
 70
     0
102
RTVSPropertyOp10
 70
     0
102
RTVSPropertyOp11
 70
     0
102
RTVSPropertyOp12
 70
     0
102
RTVSPropertyOp13
 70
     0
102
RTVSPropertyOp14
 70
     2
102
RTVSPropertyOp15
 70
     0
102
RTVSPropertyOp16
 70
     0
102
RTVSPropertyOp17
 70
     0
102
RTVSPropertyOp18
 70
     0
102
RTVSPropertyOp19
 70
     0
102
RTVSPropertyOp20
 70
     0
102
RTVSPropertyOp21
 70
     0
102
RTVSPropertyOp22
 70
     0
102
RTVSPropertyOp23
 70
     0
102
RTVSPropertyOp24
 70
     0
102
RTVSPropertyOp25
 70
     0
102
RTVSPropertyOp26
 70
     0
102
RTVSPropertyOp27
 70
     0
102
RTVSPropertyOp28
 70
     0
102
RTVSPropertyOp29
 70
     0
102
RTVSPropertyOp30
 70
     0
102
RTVSPropertyOp31
 70
     0
102
RTVSPropertyOp32
 70
     0
102
RTVSPropertyOp33
 70
     0
102
RTVSPropertyOp34
 70
     0
102
RTVSPropertyOp35
 70
     0
102
RTVSPropertyOp36
 70
     0
102
RTVSPropertyOp37
 70
     0
102
RTVSPropertyOp38
 70
     0
102
RTVSPropertyOp39
 70
     0
102
RTVSPropertyOp40
 70
     0
102
RTVSPropertyOp41
 70
     0
102
RTVSPropertyOp42
 70
     0
102
RTVSPropertyOp43
 70
     0
102
RTVSPropertyOp44
 70
     0
102
RTVSPropertyOp45
 70
     0
102
RTVSPropertyOp46
 70
     0
102
RTVSPropertyOp47
 70
     0
102
RTVSPropertyOp48
 70
     0
102
RTVSPropertyOp49
 70
     0
102
RTVSPropertyOp50
 70
     0
102
RTVSPropertyOp51
 70
     0
102
RTVSPropertyOp52
 70
     0
102
RTVSPropertyOp53
 70
     0
102
RTVSPropertyOp54
 70
     0
102
RTVSPropertyOp55
 70
     0
102
RTVSPropertyOp56
 70
     0
102
RTVSPropertyOp57
 70
     0
102
RTVSPost2010Prop28
280
     0
102
RTVSPost2010PropOp28
 70
     0
102
RTVSPost2010Prop29
280
     1
102
RTVSPost2010PropOp29
 70
     0
102
RTVSPost2010Prop30
280
     1
102
RTVSPost2010PropOp30
 70
     0
102
RTVSPost2010Prop31
280
     0
102
RTVSPost2010PropOp31
 70
     0
102
RTVSPost2010Prop32
280
     0
102
RTVSPost2010PropOp32
 70
     0
102
RTVSPost2010Prop33
280
     0
102
RTVSPost2010PropOp33
 70
     0
102
RTVSPost2010Prop34
280
     0
102
RTVSPost2010PropOp34
 70
     0
102
RTVSPost2010Prop35
280
     0
102
RTVSPost2010PropOp35
 70
     0
102
RTVSPost2010Prop36
280
     0
102
RTVSPost2010PropOp36
 70
     0
102
RTVSPost2010Prop37
 90
       50
102
RTVSPost2010PropOp37
 70
     0
102
RTVSPost2010Prop38
140
0.0
102
RTVSPost2010PropOp38
 70
     0
102
RTVSPost2010Prop39
140
1.0
102
RTVSPost2010PropOp39
 70
     0
102
RTVSPost2010Prop40
 90
        0
102
RTVSPost2010PropOp40
 70
     0
102
RTVSPost2010Prop41ColorIndex
 90
       18
102
RTVSPost2010Prop41ColorRGB
 90
        0
102
RTVSPost2010PropOp41
 70
     0
102
RTVSPost2010Prop42
 90
       50
102
RTVSPost2010PropOp42
 70
     0
102
RTVSPost2010Prop43
 90
        3
102
RTVSPost2010PropOp43
 70
     0
102
RTVSPost2010Prop44ColorIndex
 90
        5
102
RTVSPost2010Prop44ColorRGB
 90
      255
102
RTVSPost2010PropOp44
 70
     0
102
RTVSPost2010Prop45
280
     0
102
RTVSPost2010PropOp45
 70
     0
102
RTVSPost2010Prop46
 90
       50
102
RTVSPost2010PropOp46
 70
     0
102
RTVSPost2010Prop47
 90
       50
102
RTVSPost2010PropOp47
 70
     0
102
RTVSPost2010Prop48
 90
       50
102
RTVSPost2010PropOp48
 70
     0
102
RTVSPost2010Prop49
280
     0
102
RTVSPost2010PropOp49
 70
     0
102
RTVSPost2010Prop50
 90
       50
102
RTVSPost2010PropOp50
 70
     0
102
RTVSPost2010Prop51ColorIndex
 90
      256
102
RTVSPost2010Prop51ColorRGB
 90
-16777216
102
RTVSPost2010PropOp51
 70
     0
102
RTVSPost2010Prop52
140
1.0
102
RTVSPost2010PropOp52
 70
     0
102
RTVSPost2010Prop53
 90
        2
102
RTVSPost2010PropOp53
 70
     0
102
RTVSPost2010Prop54
  1
strokes_ogs.tif
102
RTVSPost2010PropOp54
 70
     0
102
RTVSPost2010Prop55
280
     0
102
RTVSPost2010PropOp55
 70
     0
102
RTVSPost2010Prop56
140
1.0
102
RTVSPost2010PropOp56
 70
     0
102
RTVSPost2010Prop57
140
1.0
102
RTVSPost2010PropOp57
 70
     0
  0
XRECORD
  5
3FA
102
{ACAD_REACTORS
330
3F9
102
}
330
3F9
100
AcDbXrecord
280
     1
102
RTVSPropertyOp0
 70
     1
102
RTVSPropertyOp1
 70
     1
102
RTVSPropertyOp2
 70
     1
102
RTVSPropertyOp3
 70
     1
102
RTVSPropertyOp4
 70
     1
102
RTVSPropertyOp5
 70
     1
102
RTVSPropertyOp6
 70
     1
102
RTVSPropertyOp7
 70
     1
102
RTVSPropertyOp8
 70
     1
102
RTVSPropertyOp9
 70
     1
102
RTVSPropertyOp10
 70
     1
102
RTVSPropertyOp11
 70
     1
102
RTVSPropertyOp12
 70
     1
102
RTVSPropertyOp13
 70
     1
102
RTVSPropertyOp14
 70
     1
102
RTVSPropertyOp15
 70
     1
102
RTVSPropertyOp16
 70
     1
102
RTVSPropertyOp17
 70
     1
102
RTVSPropertyOp18
 70
     1
102
RTVSPropertyOp19
 70
     1
102
RTVSPropertyOp20
 70
     1
102
RTVSPropertyOp21
 70
     1
102
RTVSPropertyOp22
 70
     1
102
RTVSPropertyOp23
 70
     1
102
RTVSPropertyOp24
 70
     1
102
RTVSPropertyOp25
 70
     1
102
RTVSPropertyOp26
 70
     1
102
RTVSPropertyOp27
 70
     1
102
RTVSPropertyOp28
 70
     1
102
RTVSPropertyOp29
 70
     1
102
RTVSPropertyOp30
 70
     1
102
RTVSPropertyOp31
 70
     1
102
RTVSPropertyOp32
 70
     1
102
RTVSPropertyOp33
 70
     1
102
RTVSPropertyOp34
 70
     1
102
RTVSPropertyOp35
 70
     1
102
RTVSPropertyOp36
 70
     1
102
RTVSPropertyOp37
 70
     1
102
RTVSPropertyOp38
 70
     1
102
RTVSPropertyOp39
 70
     1
102
RTVSPropertyOp40
 70
     1
102
RTVSPropertyOp41
 70
     1
102
RTVSPropertyOp42
 70
     1
102
RTVSPropertyOp43
 70
     1
102
RTVSPropertyOp44
 70
     1
102
RTVSPropertyOp45
 70
     1
102
RTVSPropertyOp46
 70
     1
102
RTVSPropertyOp47
 70
     1
102
RTVSPropertyOp48
 70
     1
102
RTVSPropertyOp49
 70
     1
102
RTVSPropertyOp50
 70
     1
102
RTVSPropertyOp51
 70
     0
102
RTVSPropertyOp52
 70
     0
102
RTVSPropertyOp53
 70
     1
102
RTVSPropertyOp54
 70
     1
102
RTVSPropertyOp55
 70
     1
102
RTVSPropertyOp56
 70
     1
102
RTVSPropertyOp57
 70
     1
102
RTVSPost2010Prop28
280
     0
102
RTVSPost2010PropOp28
 70
     1
102
RTVSPost2010Prop29
280
     1
102
RTVSPost2010PropOp29
 70
     1
102
RTVSPost2010Prop30
280
     1
102
RTVSPost2010PropOp30
 70
     1
102
RTVSPost2010Prop31
280
     0
102
RTVSPost2010PropOp31
 70
     1
102
RTVSPost2010Prop32
280
     0
102
RTVSPost2010PropOp32
 70
     1
102
RTVSPost2010Prop33
280
     0
102
RTVSPost2010PropOp33
 70
     1
102
RTVSPost2010Prop34
280
     0
102
RTVSPost2010PropOp34
 70
     1
102
RTVSPost2010Prop35
280
     0
102
RTVSPost2010PropOp35
 70
     1
102
RTVSPost2010Prop36
280
     0
102
RTVSPost2010PropOp36
 70
     1
102
RTVSPost2010Prop37
 90
       50
102
RTVSPost2010PropOp37
 70
     1
102
RTVSPost2010Prop38
140
0.0
102
RTVSPost2010PropOp38
 70
     1
102
RTVSPost2010Prop39
140
1.0
102
RTVSPost2010PropOp39
 70
     1
102
RTVSPost2010Prop40
 90
        0
102
RTVSPost2010PropOp40
 70
     1
102
RTVSPost2010Prop41ColorIndex
 90
       18
102
RTVSPost2010Prop41ColorRGB
 90
        0
102
RTVSPost2010PropOp41
 70
     1
102
RTVSPost2010Prop42
 90
       50
102
RTVSPost2010PropOp42
 70
     1
102
RTVSPost2010Prop43
 90
        3
102
RTVSPost2010PropOp43
 70
     1
102
RTVSPost2010Prop44ColorIndex
 90
        5
102
RTVSPost2010Prop44ColorRGB
 90
      255
102
RTVSPost2010PropOp44
 70
     1
102
RTVSPost2010Prop45
280
     0
102
RTVSPost2010PropOp45
 70
     1
102
RTVSPost2010Prop46
 90
       50
102
RTVSPost2010PropOp46
 70
     1
102
RTVSPost2010Prop47
 90
       50
102
RTVSPost2010PropOp47
 70
     1
102
RTVSPost2010Prop48
 90
       50
102
RTVSPost2010PropOp48
 70
     1
102
RTVSPost2010Prop49
280
     0
102
RTVSPost2010PropOp49
 70
     1
102
RTVSPost2010Prop50
 90
       50
102
RTVSPost2010PropOp50
 70
     1
102
RTVSPost2010Prop51ColorIndex
 90
      256
102
RTVSPost2010Prop51ColorRGB
 90
-16777216
102
RTVSPost2010PropOp51
 70
     0
102
RTVSPost2010Prop52
140
1.0
102
RTVSPost2010PropOp52
 70
     0
102
RTVSPost2010Prop53
 90
        2
102
RTVSPost2010PropOp53
 70
     1
102
RTVSPost2010Prop54
  1
strokes_ogs.tif
102
RTVSPost2010PropOp54
 70
     1
102
RTVSPost2010Prop55
280
     0
102
RTVSPost2010PropOp55
 70
     1
102
RTVSPost2010Prop56
140
1.0
102
RTVSPost2010PropOp56
 70
     1
102
RTVSPost2010Prop57
140
1.0
102
RTVSPost2010PropOp57
 70
     1
  0
XRECORD
  5
402
102
{ACAD_REACTORS
330
401
102
}
330
401
100
AcDbXrecord
280
     1
102
RTVSPropertyOp0
 70
     0
102
RTVSPropertyOp1
 70
     0
102
RTVSPropertyOp2
 70
     0
102
RTVSPropertyOp3
 70
     0
102
RTVSPropertyOp4
 70
     0
102
RTVSPropertyOp5
 70
     0
102
RTVSPropertyOp6
 70
     0
102
RTVSPropertyOp7
 70
     0
102
RTVSPropertyOp8
 70
     0
102
RTVSPropertyOp9
 70
     0
102
RTVSPropertyOp10
 70
     0
102
RTVSPropertyOp11
 70
     0
102
RTVSPropertyOp12
 70
     0
102
RTVSPropertyOp13
 70
     0
102
RTVSPropertyOp14
 70
     2
102
RTVSPropertyOp15
 70
     0
102
RTVSPropertyOp16
 70
     0
102
RTVSPropertyOp17
 70
     0
102
RTVSPropertyOp18
 70
     0
102
RTVSPropertyOp19
 70
     0
102
RTVSPropertyOp20
 70
     0
102
RTVSPropertyOp21
 70
     0
102
RTVSPropertyOp22
 70
     0
102
RTVSPropertyOp23
 70
     0
102
RTVSPropertyOp24
 70
     0
102
RTVSPropertyOp25
 70
     0
102
RTVSPropertyOp26
 70
     0
102
RTVSPropertyOp27
 70
     0
102
RTVSPropertyOp28
 70
     0
102
RTVSPropertyOp29
 70
     0
102
RTVSPropertyOp30
 70
     0
102
RTVSPropertyOp31
 70
     0
102
RTVSPropertyOp32
 70
     0
102
RTVSPropertyOp33
 70
     0
102
RTVSPropertyOp34
 70
     0
102
RTVSPropertyOp35
 70
     0
102
RTVSPropertyOp36
 70
     0
102
RTVSPropertyOp37
 70
     0
102
RTVSPropertyOp38
 70
     0
102
RTVSPropertyOp39
 70
     0
102
RTVSPropertyOp40
 70
     0
102
RTVSPropertyOp41
 70
     0
102
RTVSPropertyOp42
 70
     0
102
RTVSPropertyOp43
 70
     0
102
RTVSPropertyOp44
 70
     0
102
RTVSPropertyOp45
 70
     0
102
RTVSPropertyOp46
 70
     0
102
RTVSPropertyOp47
 70
     0
102
RTVSPropertyOp48
 70
     0
102
RTVSPropertyOp49
 70
     0
102
RTVSPropertyOp50
 70
     0
102
RTVSPropertyOp51
 70
     0
102
RTVSPropertyOp52
 70
     0
102
RTVSPropertyOp53
 70
     0
102
RTVSPropertyOp54
 70
     0
102
RTVSPropertyOp55
 70
     0
102
RTVSPropertyOp56
 70
     0
102
RTVSPropertyOp57
 70
     0
102
RTVSPost2010Prop28
280
     0
102
RTVSPost2010PropOp28
 70
     0
102
RTVSPost2010Prop29
280
     1
102
RTVSPost2010PropOp29
 70
     0
102
RTVSPost2010Prop30
280
     1
102
RTVSPost2010PropOp30
 70
     0
102
RTVSPost2010Prop31
280
     0
102
RTVSPost2010PropOp31
 70
     0
102
RTVSPost2010Prop32
280
     0
102
RTVSPost2010PropOp32
 70
     0
102
RTVSPost2010Prop33
280
     0
102
RTVSPost2010PropOp33
 70
     0
102
RTVSPost2010Prop34
280
     0
102
RTVSPost2010PropOp34
 70
     0
102
RTVSPost2010Prop35
280
     0
102
RTVSPost2010PropOp35
 70
     0
102
RTVSPost2010Prop36
280
     0
102
RTVSPost2010PropOp36
 70
     0
102
RTVSPost2010Prop37
 90
       50
102
RTVSPost2010PropOp37
 70
     0
102
RTVSPost2010Prop38
140
0.0
102
RTVSPost2010PropOp38
 70
     0
102
RTVSPost2010Prop39
140
1.0
102
RTVSPost2010PropOp39
 70
     0
102
RTVSPost2010Prop40
 90
        0
102
RTVSPost2010PropOp40
 70
     0
102
RTVSPost2010Prop41ColorIndex
 90
       18
102
RTVSPost2010Prop41ColorRGB
 90
        0
102
RTVSPost2010PropOp41
 70
     0
102
RTVSPost2010Prop42
 90
       50
102
RTVSPost2010PropOp42
 70
     0
102
RTVSPost2010Prop43
 90
        3
102
RTVSPost2010PropOp43
 70
     0
102
RTVSPost2010Prop44ColorIndex
 90
        5
102
RTVSPost2010Prop44ColorRGB
 90
      255
102
RTVSPost2010PropOp44
 70
     0
102
RTVSPost2010Prop45
280
     0
102
RTVSPost2010PropOp45
 70
     0
102
RTVSPost2010Prop46
 90
       50
102
RTVSPost2010PropOp46
 70
     0
102
RTVSPost2010Prop47
 90
       50
102
RTVSPost2010PropOp47
 70
     0
102
RTVSPost2010Prop48
 90
       50
102
RTVSPost2010PropOp48
 70
     0
102
RTVSPost2010Prop49
280
     0
102
RTVSPost2010PropOp49
 70
     0
102
RTVSPost2010Prop50
 90
       50
102
RTVSPost2010PropOp50
 70
     0
102
RTVSPost2010Prop51ColorIndex
 90
      256
102
RTVSPost2010Prop51ColorRGB
 90
-16777216
102
RTVSPost2010PropOp51
 70
     0
102
RTVSPost2010Prop52
140
1.0
102
RTVSPost2010PropOp52
 70
     0
102
RTVSPost2010Prop53
 90
        2
102
RTVSPost2010PropOp53
 70
     0
102
RTVSPost2010Prop54
  1
strokes_ogs.tif
102
RTVSPost2010PropOp54
 70
     0
102
RTVSPost2010Prop55
280
     0
102
RTVSPost2010PropOp55
 70
     0
102
RTVSPost2010Prop56
140
1.0
102
RTVSPost2010PropOp56
 70
     0
102
RTVSPost2010Prop57
140
1.0
102
RTVSPost2010PropOp57
 70
     0
  0
XRECORD
  5
3F0
102
{ACAD_REACTORS
330
3EF
102
}
330
3EF
100
AcDbXrecord
280
     1
102
RTVSPropertyOp0
 70
     1
102
RTVSPropertyOp1
 70
     1
102
RTVSPropertyOp2
 70
     1
102
RTVSPropertyOp3
 70
     1
102
RTVSPropertyOp4
 70
     1
102
RTVSPropertyOp5
 70
     1
102
RTVSPropertyOp6
 70
     1
102
RTVSPropertyOp7
 70
     1
102
RTVSPropertyOp8
 70
     1
102
RTVSPropertyOp9
 70
     1
102
RTVSPropertyOp10
 70
     1
102
RTVSPropertyOp11
 70
     1
102
RTVSPropertyOp12
 70
     1
102
RTVSPropertyOp13
 70
     1
102
RTVSPropertyOp14
 70
     1
102
RTVSPropertyOp15
 70
     1
102
RTVSPropertyOp16
 70
     1
102
RTVSPropertyOp17
 70
     1
102
RTVSPropertyOp18
 70
     1
102
RTVSPropertyOp19
 70
     1
102
RTVSPropertyOp20
 70
     1
102
RTVSPropertyOp21
 70
     1
102
RTVSPropertyOp22
 70
     1
102
RTVSPropertyOp23
 70
     1
102
RTVSPropertyOp24
 70
     1
102
RTVSPropertyOp25
 70
     1
102
RTVSPropertyOp26
 70
     1
102
RTVSPropertyOp27
 70
     1
102
RTVSPropertyOp28
 70
     1
102
RTVSPropertyOp29
 70
     1
102
RTVSPropertyOp30
 70
     1
102
RTVSPropertyOp31
 70
     1
102
RTVSPropertyOp32
 70
     1
102
RTVSPropertyOp33
 70
     1
102
RTVSPropertyOp34
 70
     1
102
RTVSPropertyOp35
 70
     1
102
RTVSPropertyOp36
 70
     1
102
RTVSPropertyOp37
 70
     1
102
RTVSPropertyOp38
 70
     1
102
RTVSPropertyOp39
 70
     1
102
RTVSPropertyOp40
 70
     1
102
RTVSPropertyOp41
 70
     1
102
RTVSPropertyOp42
 70
     1
102
RTVSPropertyOp43
 70
     1
102
RTVSPropertyOp44
 70
     1
102
RTVSPropertyOp45
 70
     1
102
RTVSPropertyOp46
 70
     1
102
RTVSPropertyOp47
 70
     1
102
RTVSPropertyOp48
 70
     1
102
RTVSPropertyOp49
 70
     1
102
RTVSPropertyOp50
 70
     1
102
RTVSPropertyOp51
 70
     0
102
RTVSPropertyOp52
 70
     0
102
RTVSPropertyOp53
 70
     1
102
RTVSPropertyOp54
 70
     1
102
RTVSPropertyOp55
 70
     1
102
RTVSPropertyOp56
 70
     1
102
RTVSPropertyOp57
 70
     1
102
RTVSPost2010Prop28
280
     0
102
RTVSPost2010PropOp28
 70
     1
102
RTVSPost2010Prop29
280
     1
102
RTVSPost2010PropOp29
 70
     1
102
RTVSPost2010Prop30
280
     1
102
RTVSPost2010PropOp30
 70
     1
102
RTVSPost2010Prop31
280
     0
102
RTVSPost2010PropOp31
 70
     1
102
RTVSPost2010Prop32
280
     0
102
RTVSPost2010PropOp32
 70
     1
102
RTVSPost2010Prop33
280
     0
102
RTVSPost2010PropOp33
 70
     1
102
RTVSPost2010Prop34
280
     0
102
RTVSPost2010PropOp34
 70
     1
102
RTVSPost2010Prop35
280
     0
102
RTVSPost2010PropOp35
 70
     1
102
RTVSPost2010Prop36
280
     0
102
RTVSPost2010PropOp36
 70
     1
102
RTVSPost2010Prop37
 90
       50
102
RTVSPost2010PropOp37
 70
     1
102
RTVSPost2010Prop38
140
0.0
102
RTVSPost2010PropOp38
 70
     1
102
RTVSPost2010Prop39
140
1.0
102
RTVSPost2010PropOp39
 70
     1
102
RTVSPost2010Prop40
 90
        0
102
RTVSPost2010PropOp40
 70
     1
102
RTVSPost2010Prop41ColorIndex
 90
       18
102
RTVSPost2010Prop41ColorRGB
 90
        0
102
RTVSPost2010PropOp41
 70
     1
102
RTVSPost2010Prop42
 90
       50
102
RTVSPost2010PropOp42
 70
     1
102
RTVSPost2010Prop43
 90
        3
102
RTVSPost2010PropOp43
 70
     1
102
RTVSPost2010Prop44ColorIndex
 90
        5
102
RTVSPost2010Prop44ColorRGB
 90
      255
102
RTVSPost2010PropOp44
 70
     1
102
RTVSPost2010Prop45
280
     0
102
RTVSPost2010PropOp45
 70
     1
102
RTVSPost2010Prop46
 90
       50
102
RTVSPost2010PropOp46
 70
     1
102
RTVSPost2010Prop47
 90
       50
102
RTVSPost2010PropOp47
 70
     1
102
RTVSPost2010Prop48
 90
       50
102
RTVSPost2010PropOp48
 70
     1
102
RTVSPost2010Prop49
280
     0
102
RTVSPost2010PropOp49
 70
     1
102
RTVSPost2010Prop50
 90
       50
102
RTVSPost2010PropOp50
 70
     1
102
RTVSPost2010Prop51ColorIndex
 90
      256
102
RTVSPost2010Prop51ColorRGB
 90
-16777216
102
RTVSPost2010PropOp51
 70
     0
102
RTVSPost2010Prop52
140
1.0
102
RTVSPost2010PropOp52
 70
     0
102
RTVSPost2010Prop53
 90
        2
102
RTVSPost2010PropOp53
 70
     1
102
RTVSPost2010Prop54
  1
strokes_ogs.tif
102
RTVSPost2010PropOp54
 70
     1
102
RTVSPost2010Prop55
280
     0
102
RTVSPost2010PropOp55
 70
     1
102
RTVSPost2010Prop56
140
1.0
102
RTVSPost2010PropOp56
 70
     1
102
RTVSPost2010Prop57
140
1.0
102
RTVSPost2010PropOp57
 70
     1
  0
XRECORD
  5
40E
102
{ACAD_REACTORS
330
40D
102
}
330
40D
100
AcDbXrecord
280
     1
102
RTVSPropertyOp0
 70
     1
102
RTVSPropertyOp1
 70
     1
102
RTVSPropertyOp2
 70
     1
102
RTVSPropertyOp3
 70
     1
102
RTVSPropertyOp4
 70
     1
102
RTVSPropertyOp5
 70
     1
102
RTVSPropertyOp6
 70
     1
102
RTVSPropertyOp7
 70
     1
102
RTVSPropertyOp8
 70
     1
102
RTVSPropertyOp9
 70
     1
102
RTVSPropertyOp10
 70
     1
102
RTVSPropertyOp11
 70
     1
102
RTVSPropertyOp12
 70
     1
102
RTVSPropertyOp13
 70
     1
102
RTVSPropertyOp14
 70
     1
102
RTVSPropertyOp15
 70
     1
102
RTVSPropertyOp16
 70
     1
102
RTVSPropertyOp17
 70
     1
102
RTVSPropertyOp18
 70
     1
102
RTVSPropertyOp19
 70
     1
102
RTVSPropertyOp20
 70
     1
102
RTVSPropertyOp21
 70
     1
102
RTVSPropertyOp22
 70
     1
102
RTVSPropertyOp23
 70
     1
102
RTVSPropertyOp24
 70
     1
102
RTVSPropertyOp25
 70
     1
102
RTVSPropertyOp26
 70
     1
102
RTVSPropertyOp27
 70
     1
102
RTVSPropertyOp28
 70
     1
102
RTVSPropertyOp29
 70
     1
102
RTVSPropertyOp30
 70
     1
102
RTVSPropertyOp31
 70
     1
102
RTVSPropertyOp32
 70
     1
102
RTVSPropertyOp33
 70
     1
102
RTVSPropertyOp34
 70
     1
102
RTVSPropertyOp35
 70
     1
102
RTVSPropertyOp36
 70
     1
102
RTVSPropertyOp37
 70
     1
102
RTVSPropertyOp38
 70
     1
102
RTVSPropertyOp39
 70
     1
102
RTVSPropertyOp40
 70
     1
102
RTVSPropertyOp41
 70
     1
102
RTVSPropertyOp42
 70
     1
102
RTVSPropertyOp43
 70
     1
102
RTVSPropertyOp44
 70
     1
102
RTVSPropertyOp45
 70
     1
102
RTVSPropertyOp46
 70
     1
102
RTVSPropertyOp47
 70
     1
102
RTVSPropertyOp48
 70
     1
102
RTVSPropertyOp49
 70
     1
102
RTVSPropertyOp50
 70
     1
102
RTVSPropertyOp51
 70
     0
102
RTVSPropertyOp52
 70
     0
102
RTVSPropertyOp53
 70
     1
102
RTVSPropertyOp54
 70
     1
102
RTVSPropertyOp55
 70
     1
102
RTVSPropertyOp56
 70
     1
102
RTVSPropertyOp57
 70
     1
102
RTVSPost2010Prop28
280
     0
102
RTVSPost2010PropOp28
 70
     1
102
RTVSPost2010Prop29
280
     1
102
RTVSPost2010PropOp29
 70
     1
102
RTVSPost2010Prop30
280
     1
102
RTVSPost2010PropOp30
 70
     1
102
RTVSPost2010Prop31
280
     0
102
RTVSPost2010PropOp31
 70
     1
102
RTVSPost2010Prop32
280
     0
102
RTVSPost2010PropOp32
 70
     1
102
RTVSPost2010Prop33
280
     0
102
RTVSPost2010PropOp33
 70
     1
102
RTVSPost2010Prop34
280
     0
102
RTVSPost2010PropOp34
 70
     1
102
RTVSPost2010Prop35
280
     0
102
RTVSPost2010PropOp35
 70
     1
102
RTVSPost2010Prop36
280
     0
102
RTVSPost2010PropOp36
 70
     1
102
RTVSPost2010Prop37
 90
       50
102
RTVSPost2010PropOp37
 70
     1
102
RTVSPost2010Prop38
140
0.0
102
RTVSPost2010PropOp38
 70
     1
102
RTVSPost2010Prop39
140
1.0
102
RTVSPost2010PropOp39
 70
     1
102
RTVSPost2010Prop40
 90
        0
102
RTVSPost2010PropOp40
 70
     1
102
RTVSPost2010Prop41ColorIndex
 90
       18
102
RTVSPost2010Prop41ColorRGB
 90
        0
102
RTVSPost2010PropOp41
 70
     1
102
RTVSPost2010Prop42
 90
       50
102
RTVSPost2010PropOp42
 70
     1
102
RTVSPost2010Prop43
 90
        3
102
RTVSPost2010PropOp43
 70
     1
102
RTVSPost2010Prop44ColorIndex
 90
        5
102
RTVSPost2010Prop44ColorRGB
 90
      255
102
RTVSPost2010PropOp44
 70
     1
102
RTVSPost2010Prop45
280
     0
102
RTVSPost2010PropOp45
 70
     1
102
RTVSPost2010Prop46
 90
       50
102
RTVSPost2010PropOp46
 70
     1
102
RTVSPost2010Prop47
 90
       50
102
RTVSPost2010PropOp47
 70
     1
102
RTVSPost2010Prop48
 90
       50
102
RTVSPost2010PropOp48
 70
     1
102
RTVSPost2010Prop49
280
     0
102
RTVSPost2010PropOp49
 70
     1
102
RTVSPost2010Prop50
 90
       50
102
RTVSPost2010PropOp50
 70
     1
102
RTVSPost2010Prop51ColorIndex
 90
      256
102
RTVSPost2010Prop51ColorRGB
 90
-16777216
102
RTVSPost2010PropOp51
 70
     0
102
RTVSPost2010Prop52
140
1.0
102
RTVSPost2010PropOp52
 70
     0
102
RTVSPost2010Prop53
 90
        2
102
RTVSPost2010PropOp53
 70
     1
102
RTVSPost2010Prop54
  1
strokes_ogs.tif
102
RTVSPost2010PropOp54
 70
     1
102
RTVSPost2010Prop55
280
     0
102
RTVSPost2010PropOp55
 70
     1
102
RTVSPost2010Prop56
140
1.0
102
RTVSPost2010PropOp56
 70
     1
102
RTVSPost2010Prop57
140
1.0
102
RTVSPost2010PropOp57
 70
     1
  0
XRECORD
  5
40C
102
{ACAD_REACTORS
330
40B
102
}
330
40B
100
AcDbXrecord
280
     1
102
RTVSPropertyOp0
 70
     1
102
RTVSPropertyOp1
 70
     1
102
RTVSPropertyOp2
 70
     1
102
RTVSPropertyOp3
 70
     1
102
RTVSPropertyOp4
 70
     1
102
RTVSPropertyOp5
 70
     1
102
RTVSPropertyOp6
 70
     1
102
RTVSPropertyOp7
 70
     1
102
RTVSPropertyOp8
 70
     1
102
RTVSPropertyOp9
 70
     1
102
RTVSPropertyOp10
 70
     1
102
RTVSPropertyOp11
 70
     1
102
RTVSPropertyOp12
 70
     1
102
RTVSPropertyOp13
 70
     1
102
RTVSPropertyOp14
 70
     1
102
RTVSPropertyOp15
 70
     1
102
RTVSPropertyOp16
 70
     1
102
RTVSPropertyOp17
 70
     1
102
RTVSPropertyOp18
 70
     1
102
RTVSPropertyOp19
 70
     1
102
RTVSPropertyOp20
 70
     1
102
RTVSPropertyOp21
 70
     1
102
RTVSPropertyOp22
 70
     1
102
RTVSPropertyOp23
 70
     1
102
RTVSPropertyOp24
 70
     1
102
RTVSPropertyOp25
 70
     1
102
RTVSPropertyOp26
 70
     1
102
RTVSPropertyOp27
 70
     1
102
RTVSPropertyOp28
 70
     1
102
RTVSPropertyOp29
 70
     1
102
RTVSPropertyOp30
 70
     1
102
RTVSPropertyOp31
 70
     1
102
RTVSPropertyOp32
 70
     1
102
RTVSPropertyOp33
 70
     1
102
RTVSPropertyOp34
 70
     1
102
RTVSPropertyOp35
 70
     1
102
RTVSPropertyOp36
 70
     1
102
RTVSPropertyOp37
 70
     1
102
RTVSPropertyOp38
 70
     1
102
RTVSPropertyOp39
 70
     1
102
RTVSPropertyOp40
 70
     1
102
RTVSPropertyOp41
 70
     1
102
RTVSPropertyOp42
 70
     1
102
RTVSPropertyOp43
 70
     1
102
RTVSPropertyOp44
 70
     1
102
RTVSPropertyOp45
 70
     1
102
RTVSPropertyOp46
 70
     1
102
RTVSPropertyOp47
 70
     1
102
RTVSPropertyOp48
 70
     1
102
RTVSPropertyOp49
 70
     1
102
RTVSPropertyOp50
 70
     1
102
RTVSPropertyOp51
 70
     0
102
RTVSPropertyOp52
 70
     0
102
RTVSPropertyOp53
 70
     1
102
RTVSPropertyOp54
 70
     1
102
RTVSPropertyOp55
 70
     1
102
RTVSPropertyOp56
 70
     1
102
RTVSPropertyOp57
 70
     1
102
RTVSPost2010Prop28
280
     0
102
RTVSPost2010PropOp28
 70
     1
102
RTVSPost2010Prop29
280
     1
102
RTVSPost2010PropOp29
 70
     1
102
RTVSPost2010Prop30
280
     1
102
RTVSPost2010PropOp30
 70
     1
102
RTVSPost2010Prop31
280
     0
102
RTVSPost2010PropOp31
 70
     1
102
RTVSPost2010Prop32
280
     0
102
RTVSPost2010PropOp32
 70
     1
102
RTVSPost2010Prop33
280
     0
102
RTVSPost2010PropOp33
 70
     1
102
RTVSPost2010Prop34
280
     0
102
RTVSPost2010PropOp34
 70
     1
102
RTVSPost2010Prop35
280
     0
102
RTVSPost2010PropOp35
 70
     1
102
RTVSPost2010Prop36
280
     0
102
RTVSPost2010PropOp36
 70
     1
102
RTVSPost2010Prop37
 90
       50
102
RTVSPost2010PropOp37
 70
     1
102
RTVSPost2010Prop38
140
0.0
102
RTVSPost2010PropOp38
 70
     1
102
RTVSPost2010Prop39
140
1.0
102
RTVSPost2010PropOp39
 70
     1
102
RTVSPost2010Prop40
 90
        0
102
RTVSPost2010PropOp40
 70
     1
102
RTVSPost2010Prop41ColorIndex
 90
       18
102
RTVSPost2010Prop41ColorRGB
 90
        0
102
RTVSPost2010PropOp41
 70
     1
102
RTVSPost2010Prop42
 90
       50
102
RTVSPost2010PropOp42
 70
     1
102
RTVSPost2010Prop43
 90
        3
102
RTVSPost2010PropOp43
 70
     1
102
RTVSPost2010Prop44ColorIndex
 90
        5
102
RTVSPost2010Prop44ColorRGB
 90
      255
102
RTVSPost2010PropOp44
 70
     1
102
RTVSPost2010Prop45
280
     0
102
RTVSPost2010PropOp45
 70
     1
102
RTVSPost2010Prop46
 90
       50
102
RTVSPost2010PropOp46
 70
     1
102
RTVSPost2010Prop47
 90
       50
102
RTVSPost2010PropOp47
 70
     1
102
RTVSPost2010Prop48
 90
       50
102
RTVSPost2010PropOp48
 70
     1
102
RTVSPost2010Prop49
280
     0
102
RTVSPost2010PropOp49
 70
     1
102
RTVSPost2010Prop50
 90
       50
102
RTVSPost2010PropOp50
 70
     1
102
RTVSPost2010Prop51ColorIndex
 90
      256
102
RTVSPost2010Prop51ColorRGB
 90
-16777216
102
RTVSPost2010PropOp51
 70
     0
102
RTVSPost2010Prop52
140
1.0
102
RTVSPost2010PropOp52
 70
     0
102
RTVSPost2010Prop53
 90
        2
102
RTVSPost2010PropOp53
 70
     1
102
RTVSPost2010Prop54
  1
strokes_ogs.tif
102
RTVSPost2010PropOp54
 70
     1
102
RTVSPost2010Prop55
280
     0
102
RTVSPost2010PropOp55
 70
     1
102
RTVSPost2010Prop56
140
1.0
102
RTVSPost2010PropOp56
 70
     1
102
RTVSPost2010Prop57
140
1.0
102
RTVSPost2010PropOp57
 70
     1
  0
XRECORD
  5
406
102
{ACAD_REACTORS
330
405
102
}
330
405
100
AcDbXrecord
280
     1
102
RTVSPropertyOp0
 70
     1
102
RTVSPropertyOp1
 70
     1
102
RTVSPropertyOp2
 70
     1
102
RTVSPropertyOp3
 70
     1
102
RTVSPropertyOp4
 70
     1
102
RTVSPropertyOp5
 70
     1
102
RTVSPropertyOp6
 70
     1
102
RTVSPropertyOp7
 70
     1
102
RTVSPropertyOp8
 70
     1
102
RTVSPropertyOp9
 70
     1
102
RTVSPropertyOp10
 70
     1
102
RTVSPropertyOp11
 70
     1
102
RTVSPropertyOp12
 70
     1
102
RTVSPropertyOp13
 70
     1
102
RTVSPropertyOp14
 70
     1
102
RTVSPropertyOp15
 70
     1
102
RTVSPropertyOp16
 70
     1
102
RTVSPropertyOp17
 70
     1
102
RTVSPropertyOp18
 70
     1
102
RTVSPropertyOp19
 70
     1
102
RTVSPropertyOp20
 70
     1
102
RTVSPropertyOp21
 70
     1
102
RTVSPropertyOp22
 70
     1
102
RTVSPropertyOp23
 70
     1
102
RTVSPropertyOp24
 70
     1
102
RTVSPropertyOp25
 70
     1
102
RTVSPropertyOp26
 70
     1
102
RTVSPropertyOp27
 70
     1
102
RTVSPropertyOp28
 70
     1
102
RTVSPropertyOp29
 70
     1
102
RTVSPropertyOp30
 70
     1
102
RTVSPropertyOp31
 70
     1
102
RTVSPropertyOp32
 70
     1
102
RTVSPropertyOp33
 70
     1
102
RTVSPropertyOp34
 70
     1
102
RTVSPropertyOp35
 70
     1
102
RTVSPropertyOp36
 70
     1
102
RTVSPropertyOp37
 70
     1
102
RTVSPropertyOp38
 70
     1
102
RTVSPropertyOp39
 70
     1
102
RTVSPropertyOp40
 70
     1
102
RTVSPropertyOp41
 70
     1
102
RTVSPropertyOp42
 70
     1
102
RTVSPropertyOp43
 70
     1
102
RTVSPropertyOp44
 70
     1
102
RTVSPropertyOp45
 70
     1
102
RTVSPropertyOp46
 70
     1
102
RTVSPropertyOp47
 70
     1
102
RTVSPropertyOp48
 70
     1
102
RTVSPropertyOp49
 70
     1
102
RTVSPropertyOp50
 70
     1
102
RTVSPropertyOp51
 70
     0
102
RTVSPropertyOp52
 70
     0
102
RTVSPropertyOp53
 70
     1
102
RTVSPropertyOp54
 70
     1
102
RTVSPropertyOp55
 70
     1
102
RTVSPropertyOp56
 70
     1
102
RTVSPropertyOp57
 70
     1
102
RTVSPost2010Prop28
280
     0
102
RTVSPost2010PropOp28
 70
     1
102
RTVSPost2010Prop29
280
     1
102
RTVSPost2010PropOp29
 70
     1
102
RTVSPost2010Prop30
280
     1
102
RTVSPost2010PropOp30
 70
     1
102
RTVSPost2010Prop31
280
     0
102
RTVSPost2010PropOp31
 70
     1
102
RTVSPost2010Prop32
280
     0
102
RTVSPost2010PropOp32
 70
     1
102
RTVSPost2010Prop33
280
     0
102
RTVSPost2010PropOp33
 70
     1
102
RTVSPost2010Prop34
280
     0
102
RTVSPost2010PropOp34
 70
     1
102
RTVSPost2010Prop35
280
     0
102
RTVSPost2010PropOp35
 70
     1
102
RTVSPost2010Prop36
280
     0
102
RTVSPost2010PropOp36
 70
     1
102
RTVSPost2010Prop37
 90
       50
102
RTVSPost2010PropOp37
 70
     1
102
RTVSPost2010Prop38
140
0.0
102
RTVSPost2010PropOp38
 70
     1
102
RTVSPost2010Prop39
140
1.0
102
RTVSPost2010PropOp39
 70
     1
102
RTVSPost2010Prop40
 90
        0
102
RTVSPost2010PropOp40
 70
     1
102
RTVSPost2010Prop41ColorIndex
 90
       18
102
RTVSPost2010Prop41ColorRGB
 90
        0
102
RTVSPost2010PropOp41
 70
     1
102
RTVSPost2010Prop42
 90
       50
102
RTVSPost2010PropOp42
 70
     1
102
RTVSPost2010Prop43
 90
        3
102
RTVSPost2010PropOp43
 70
     1
102
RTVSPost2010Prop44ColorIndex
 90
        5
102
RTVSPost2010Prop44ColorRGB
 90
      255
102
RTVSPost2010PropOp44
 70
     1
102
RTVSPost2010Prop45
280
     0
102
RTVSPost2010PropOp45
 70
     1
102
RTVSPost2010Prop46
 90
       50
102
RTVSPost2010PropOp46
 70
     1
102
RTVSPost2010Prop47
 90
       50
102
RTVSPost2010PropOp47
 70
     1
102
RTVSPost2010Prop48
 90
       50
102
RTVSPost2010PropOp48
 70
     1
102
RTVSPost2010Prop49
280
     0
102
RTVSPost2010PropOp49
 70
     1
102
RTVSPost2010Prop50
 90
       50
102
RTVSPost2010PropOp50
 70
     1
102
RTVSPost2010Prop51ColorIndex
 90
      256
102
RTVSPost2010Prop51ColorRGB
 90
-16777216
102
RTVSPost2010PropOp51
 70
     0
102
RTVSPost2010Prop52
140
1.0
102
RTVSPost2010PropOp52
 70
     0
102
RTVSPost2010Prop53
 90
        2
102
RTVSPost2010PropOp53
 70
     1
102
RTVSPost2010Prop54
  1
strokes_ogs.tif
102
RTVSPost2010PropOp54
 70
     1
102
RTVSPost2010Prop55
280
     0
102
RTVSPost2010PropOp55
 70
     1
102
RTVSPost2010Prop56
140
1.0
102
RTVSPost2010PropOp56
 70
     1
102
RTVSPost2010Prop57
140
1.0
102
RTVSPost2010PropOp57
 70
     1
  0
XRECORD
  5
408
102
{ACAD_REACTORS
330
407
102
}
330
407
100
AcDbXrecord
280
     1
102
RTVSPropertyOp0
 70
     1
102
RTVSPropertyOp1
 70
     1
102
RTVSPropertyOp2
 70
     1
102
RTVSPropertyOp3
 70
     1
102
RTVSPropertyOp4
 70
     1
102
RTVSPropertyOp5
 70
     1
102
RTVSPropertyOp6
 70
     1
102
RTVSPropertyOp7
 70
     1
102
RTVSPropertyOp8
 70
     1
102
RTVSPropertyOp9
 70
     1
102
RTVSPropertyOp10
 70
     1
102
RTVSPropertyOp11
 70
     1
102
RTVSPropertyOp12
 70
     1
102
RTVSPropertyOp13
 70
     1
102
RTVSPropertyOp14
 70
     1
102
RTVSPropertyOp15
 70
     1
102
RTVSPropertyOp16
 70
     1
102
RTVSPropertyOp17
 70
     1
102
RTVSPropertyOp18
 70
     1
102
RTVSPropertyOp19
 70
     1
102
RTVSPropertyOp20
 70
     1
102
RTVSPropertyOp21
 70
     1
102
RTVSPropertyOp22
 70
     1
102
RTVSPropertyOp23
 70
     1
102
RTVSPropertyOp24
 70
     1
102
RTVSPropertyOp25
 70
     1
102
RTVSPropertyOp26
 70
     1
102
RTVSPropertyOp27
 70
     1
102
RTVSPropertyOp28
 70
     1
102
RTVSPropertyOp29
 70
     1
102
RTVSPropertyOp30
 70
     1
102
RTVSPropertyOp31
 70
     1
102
RTVSPropertyOp32
 70
     1
102
RTVSPropertyOp33
 70
     1
102
RTVSPropertyOp34
 70
     1
102
RTVSPropertyOp35
 70
     1
102
RTVSPropertyOp36
 70
     1
102
RTVSPropertyOp37
 70
     1
102
RTVSPropertyOp38
 70
     1
102
RTVSPropertyOp39
 70
     1
102
RTVSPropertyOp40
 70
     1
102
RTVSPropertyOp41
 70
     1
102
RTVSPropertyOp42
 70
     1
102
RTVSPropertyOp43
 70
     1
102
RTVSPropertyOp44
 70
     1
102
RTVSPropertyOp45
 70
     1
102
RTVSPropertyOp46
 70
     1
102
RTVSPropertyOp47
 70
     1
102
RTVSPropertyOp48
 70
     1
102
RTVSPropertyOp49
 70
     1
102
RTVSPropertyOp50
 70
     1
102
RTVSPropertyOp51
 70
     0
102
RTVSPropertyOp52
 70
     0
102
RTVSPropertyOp53
 70
     1
102
RTVSPropertyOp54
 70
     1
102
RTVSPropertyOp55
 70
     1
102
RTVSPropertyOp56
 70
     1
102
RTVSPropertyOp57
 70
     1
102
RTVSPost2010Prop28
280
     0
102
RTVSPost2010PropOp28
 70
     1
102
RTVSPost2010Prop29
280
     1
102
RTVSPost2010PropOp29
 70
     1
102
RTVSPost2010Prop30
280
     1
102
RTVSPost2010PropOp30
 70
     1
102
RTVSPost2010Prop31
280
     0
102
RTVSPost2010PropOp31
 70
     1
102
RTVSPost2010Prop32
280
     0
102
RTVSPost2010PropOp32
 70
     1
102
RTVSPost2010Prop33
280
     0
102
RTVSPost2010PropOp33
 70
     1
102
RTVSPost2010Prop34
280
     0
102
RTVSPost2010PropOp34
 70
     1
102
RTVSPost2010Prop35
280
     0
102
RTVSPost2010PropOp35
 70
     1
102
RTVSPost2010Prop36
280
     0
102
RTVSPost2010PropOp36
 70
     1
102
RTVSPost2010Prop37
 90
       50
102
RTVSPost2010PropOp37
 70
     1
102
RTVSPost2010Prop38
140
0.0
102
RTVSPost2010PropOp38
 70
     1
102
RTVSPost2010Prop39
140
1.0
102
RTVSPost2010PropOp39
 70
     1
102
RTVSPost2010Prop40
 90
        0
102
RTVSPost2010PropOp40
 70
     1
102
RTVSPost2010Prop41ColorIndex
 90
       18
102
RTVSPost2010Prop41ColorRGB
 90
        0
102
RTVSPost2010PropOp41
 70
     1
102
RTVSPost2010Prop42
 90
       50
102
RTVSPost2010PropOp42
 70
     1
102
RTVSPost2010Prop43
 90
        3
102
RTVSPost2010PropOp43
 70
     1
102
RTVSPost2010Prop44ColorIndex
 90
        5
102
RTVSPost2010Prop44ColorRGB
 90
      255
102
RTVSPost2010PropOp44
 70
     1
102
RTVSPost2010Prop45
280
     0
102
RTVSPost2010PropOp45
 70
     1
102
RTVSPost2010Prop46
 90
       50
102
RTVSPost2010PropOp46
 70
     1
102
RTVSPost2010Prop47
 90
       50
102
RTVSPost2010PropOp47
 70
     1
102
RTVSPost2010Prop48
 90
       50
102
RTVSPost2010PropOp48
 70
     1
102
RTVSPost2010Prop49
280
     0
102
RTVSPost2010PropOp49
 70
     1
102
RTVSPost2010Prop50
 90
       50
102
RTVSPost2010PropOp50
 70
     1
102
RTVSPost2010Prop51ColorIndex
 90
      256
102
RTVSPost2010Prop51ColorRGB
 90
-16777216
102
RTVSPost2010PropOp51
 70
     0
102
RTVSPost2010Prop52
140
1.0
102
RTVSPost2010PropOp52
 70
     0
102
RTVSPost2010Prop53
 90
        2
102
RTVSPost2010PropOp53
 70
     1
102
RTVSPost2010Prop54
  1
strokes_ogs.tif
102
RTVSPost2010PropOp54
 70
     1
102
RTVSPost2010Prop55
280
     0
102
RTVSPost2010PropOp55
 70
     1
102
RTVSPost2010Prop56
140
1.0
102
RTVSPost2010PropOp56
 70
     1
102
RTVSPost2010Prop57
140
1.0
102
RTVSPost2010PropOp57
 70
     1
  0
XRECORD
  5
3F8
102
{ACAD_REACTORS
330
3F7
102
}
330
3F7
100
AcDbXrecord
280
     1
102
RTVSPropertyOp0
 70
     1
102
RTVSPropertyOp1
 70
     1
102
RTVSPropertyOp2
 70
     1
102
RTVSPropertyOp3
 70
     1
102
RTVSPropertyOp4
 70
     1
102
RTVSPropertyOp5
 70
     1
102
RTVSPropertyOp6
 70
     1
102
RTVSPropertyOp7
 70
     1
102
RTVSPropertyOp8
 70
     1
102
RTVSPropertyOp9
 70
     1
102
RTVSPropertyOp10
 70
     1
102
RTVSPropertyOp11
 70
     1
102
RTVSPropertyOp12
 70
     1
102
RTVSPropertyOp13
 70
     1
102
RTVSPropertyOp14
 70
     1
102
RTVSPropertyOp15
 70
     1
102
RTVSPropertyOp16
 70
     1
102
RTVSPropertyOp17
 70
     1
102
RTVSPropertyOp18
 70
     1
102
RTVSPropertyOp19
 70
     1
102
RTVSPropertyOp20
 70
     1
102
RTVSPropertyOp21
 70
     1
102
RTVSPropertyOp22
 70
     1
102
RTVSPropertyOp23
 70
     1
102
RTVSPropertyOp24
 70
     1
102
RTVSPropertyOp25
 70
     1
102
RTVSPropertyOp26
 70
     1
102
RTVSPropertyOp27
 70
     1
102
RTVSPropertyOp28
 70
     1
102
RTVSPropertyOp29
 70
     1
102
RTVSPropertyOp30
 70
     1
102
RTVSPropertyOp31
 70
     1
102
RTVSPropertyOp32
 70
     1
102
RTVSPropertyOp33
 70
     1
102
RTVSPropertyOp34
 70
     1
102
RTVSPropertyOp35
 70
     1
102
RTVSPropertyOp36
 70
     1
102
RTVSPropertyOp37
 70
     1
102
RTVSPropertyOp38
 70
     1
102
RTVSPropertyOp39
 70
     1
102
RTVSPropertyOp40
 70
     1
102
RTVSPropertyOp41
 70
     1
102
RTVSPropertyOp42
 70
     1
102
RTVSPropertyOp43
 70
     1
102
RTVSPropertyOp44
 70
     1
102
RTVSPropertyOp45
 70
     1
102
RTVSPropertyOp46
 70
     1
102
RTVSPropertyOp47
 70
     1
102
RTVSPropertyOp48
 70
     1
102
RTVSPropertyOp49
 70
     1
102
RTVSPropertyOp50
 70
     1
102
RTVSPropertyOp51
 70
     0
102
RTVSPropertyOp52
 70
     0
102
RTVSPropertyOp53
 70
     1
102
RTVSPropertyOp54
 70
     1
102
RTVSPropertyOp55
 70
     1
102
RTVSPropertyOp56
 70
     1
102
RTVSPropertyOp57
 70
     1
102
RTVSPost2010Prop28
280
     0
102
RTVSPost2010PropOp28
 70
     1
102
RTVSPost2010Prop29
280
     1
102
RTVSPost2010PropOp29
 70
     1
102
RTVSPost2010Prop30
280
     1
102
RTVSPost2010PropOp30
 70
     1
102
RTVSPost2010Prop31
280
     0
102
RTVSPost2010PropOp31
 70
     1
102
RTVSPost2010Prop32
280
     0
102
RTVSPost2010PropOp32
 70
     1
102
RTVSPost2010Prop33
280
     0
102
RTVSPost2010PropOp33
 70
     1
102
RTVSPost2010Prop34
280
     0
102
RTVSPost2010PropOp34
 70
     1
102
RTVSPost2010Prop35
280
     0
102
RTVSPost2010PropOp35
 70
     1
102
RTVSPost2010Prop36
280
     0
102
RTVSPost2010PropOp36
 70
     1
102
RTVSPost2010Prop37
 90
       50
102
RTVSPost2010PropOp37
 70
     1
102
RTVSPost2010Prop38
140
0.0
102
RTVSPost2010PropOp38
 70
     1
102
RTVSPost2010Prop39
140
1.0
102
RTVSPost2010PropOp39
 70
     1
102
RTVSPost2010Prop40
 90
        0
102
RTVSPost2010PropOp40
 70
     1
102
RTVSPost2010Prop41ColorIndex
 90
       18
102
RTVSPost2010Prop41ColorRGB
 90
        0
102
RTVSPost2010PropOp41
 70
     1
102
RTVSPost2010Prop42
 90
       50
102
RTVSPost2010PropOp42
 70
     1
102
RTVSPost2010Prop43
 90
        3
102
RTVSPost2010PropOp43
 70
     1
102
RTVSPost2010Prop44ColorIndex
 90
        5
102
RTVSPost2010Prop44ColorRGB
 90
      255
102
RTVSPost2010PropOp44
 70
     1
102
RTVSPost2010Prop45
280
     0
102
RTVSPost2010PropOp45
 70
     1
102
RTVSPost2010Prop46
 90
       50
102
RTVSPost2010PropOp46
 70
     1
102
RTVSPost2010Prop47
 90
       50
102
RTVSPost2010PropOp47
 70
     1
102
RTVSPost2010Prop48
 90
       50
102
RTVSPost2010PropOp48
 70
     1
102
RTVSPost2010Prop49
280
     0
102
RTVSPost2010PropOp49
 70
     1
102
RTVSPost2010Prop50
 90
       50
102
RTVSPost2010PropOp50
 70
     1
102
RTVSPost2010Prop51ColorIndex
 90
      256
102
RTVSPost2010Prop51ColorRGB
 90
-16777216
102
RTVSPost2010PropOp51
 70
     0
102
RTVSPost2010Prop52
140
1.0
102
RTVSPost2010PropOp52
 70
     0
102
RTVSPost2010Prop53
 90
        2
102
RTVSPost2010PropOp53
 70
     1
102
RTVSPost2010Prop54
  1
strokes_ogs.tif
102
RTVSPost2010PropOp54
 70
     1
102
RTVSPost2010Prop55
280
     0
102
RTVSPost2010PropOp55
 70
     1
102
RTVSPost2010Prop56
140
1.0
102
RTVSPost2010PropOp56
 70
     1
102
RTVSPost2010Prop57
140
1.0
102
RTVSPost2010PropOp57
 70
     1
  0
XRECORD
  5
3EA
102
{ACAD_REACTORS
330
3E9
102
}
330
3E9
100
AcDbXrecord
280
     1
102
RTVSPropertyOp0
 70
     1
102
RTVSPropertyOp1
 70
     1
102
RTVSPropertyOp2
 70
     1
102
RTVSPropertyOp3
 70
     1
102
RTVSPropertyOp4
 70
     1
102
RTVSPropertyOp5
 70
     1
102
RTVSPropertyOp6
 70
     1
102
RTVSPropertyOp7
 70
     1
102
RTVSPropertyOp8
 70
     1
102
RTVSPropertyOp9
 70
     1
102
RTVSPropertyOp10
 70
     1
102
RTVSPropertyOp11
 70
     1
102
RTVSPropertyOp12
 70
     1
102
RTVSPropertyOp13
 70
     1
102
RTVSPropertyOp14
 70
     1
102
RTVSPropertyOp15
 70
     1
102
RTVSPropertyOp16
 70
     1
102
RTVSPropertyOp17
 70
     1
102
RTVSPropertyOp18
 70
     1
102
RTVSPropertyOp19
 70
     1
102
RTVSPropertyOp20
 70
     1
102
RTVSPropertyOp21
 70
     1
102
RTVSPropertyOp22
 70
     1
102
RTVSPropertyOp23
 70
     1
102
RTVSPropertyOp24
 70
     1
102
RTVSPropertyOp25
 70
     1
102
RTVSPropertyOp26
 70
     1
102
RTVSPropertyOp27
 70
     1
102
RTVSPropertyOp28
 70
     1
102
RTVSPropertyOp29
 70
     1
102
RTVSPropertyOp30
 70
     1
102
RTVSPropertyOp31
 70
     1
102
RTVSPropertyOp32
 70
     1
102
RTVSPropertyOp33
 70
     1
102
RTVSPropertyOp34
 70
     1
102
RTVSPropertyOp35
 70
     1
102
RTVSPropertyOp36
 70
     1
102
RTVSPropertyOp37
 70
     1
102
RTVSPropertyOp38
 70
     1
102
RTVSPropertyOp39
 70
     1
102
RTVSPropertyOp40
 70
     1
102
RTVSPropertyOp41
 70
     1
102
RTVSPropertyOp42
 70
     1
102
RTVSPropertyOp43
 70
     1
102
RTVSPropertyOp44
 70
     1
102
RTVSPropertyOp45
 70
     1
102
RTVSPropertyOp46
 70
     1
102
RTVSPropertyOp47
 70
     1
102
RTVSPropertyOp48
 70
     1
102
RTVSPropertyOp49
 70
     1
102
RTVSPropertyOp50
 70
     1
102
RTVSPropertyOp51
 70
     0
102
RTVSPropertyOp52
 70
     0
102
RTVSPropertyOp53
 70
     1
102
RTVSPropertyOp54
 70
     1
102
RTVSPropertyOp55
 70
     1
102
RTVSPropertyOp56
 70
     1
102
RTVSPropertyOp57
 70
     1
102
RTVSPost2010Prop28
280
     0
102
RTVSPost2010PropOp28
 70
     1
102
RTVSPost2010Prop29
280
     1
102
RTVSPost2010PropOp29
 70
     1
102
RTVSPost2010Prop30
280
     1
102
RTVSPost2010PropOp30
 70
     1
102
RTVSPost2010Prop31
280
     0
102
RTVSPost2010PropOp31
 70
     1
102
RTVSPost2010Prop32
280
     0
102
RTVSPost2010PropOp32
 70
     1
102
RTVSPost2010Prop33
280
     0
102
RTVSPost2010PropOp33
 70
     1
102
RTVSPost2010Prop34
280
     0
102
RTVSPost2010PropOp34
 70
     1
102
RTVSPost2010Prop35
280
     0
102
RTVSPost2010PropOp35
 70
     1
102
RTVSPost2010Prop36
280
     0
102
RTVSPost2010PropOp36
 70
     1
102
RTVSPost2010Prop37
 90
       50
102
RTVSPost2010PropOp37
 70
     1
102
RTVSPost2010Prop38
140
0.0
102
RTVSPost2010PropOp38
 70
     1
102
RTVSPost2010Prop39
140
1.0
102
RTVSPost2010PropOp39
 70
     1
102
RTVSPost2010Prop40
 90
        0
102
RTVSPost2010PropOp40
 70
     1
102
RTVSPost2010Prop41ColorIndex
 90
       18
102
RTVSPost2010Prop41ColorRGB
 90
        0
102
RTVSPost2010PropOp41
 70
     1
102
RTVSPost2010Prop42
 90
       50
102
RTVSPost2010PropOp42
 70
     1
102
RTVSPost2010Prop43
 90
        3
102
RTVSPost2010PropOp43
 70
     1
102
RTVSPost2010Prop44ColorIndex
 90
        5
102
RTVSPost2010Prop44ColorRGB
 90
      255
102
RTVSPost2010PropOp44
 70
     1
102
RTVSPost2010Prop45
280
     0
102
RTVSPost2010PropOp45
 70
     1
102
RTVSPost2010Prop46
 90
       50
102
RTVSPost2010PropOp46
 70
     1
102
RTVSPost2010Prop47
 90
       50
102
RTVSPost2010PropOp47
 70
     1
102
RTVSPost2010Prop48
 90
       50
102
RTVSPost2010PropOp48
 70
     1
102
RTVSPost2010Prop49
280
     0
102
RTVSPost2010PropOp49
 70
     1
102
RTVSPost2010Prop50
 90
       50
102
RTVSPost2010PropOp50
 70
     1
102
RTVSPost2010Prop51ColorIndex
 90
      256
102
RTVSPost2010Prop51ColorRGB
 90
-16777216
102
RTVSPost2010PropOp51
 70
     0
102
RTVSPost2010Prop52
140
1.0
102
RTVSPost2010PropOp52
 70
     0
102
RTVSPost2010Prop53
 90
        2
102
RTVSPost2010PropOp53
 70
     1
102
RTVSPost2010Prop54
  1
strokes_ogs.tif
102
RTVSPost2010PropOp54
 70
     1
102
RTVSPost2010Prop55
280
     0
102
RTVSPost2010PropOp55
 70
     1
102
RTVSPost2010Prop56
140
1.0
102
RTVSPost2010PropOp56
 70
     1
102
RTVSPost2010Prop57
140
1.0
102
RTVSPost2010PropOp57
 70
     1
  0
XRECORD
  5
40A
102
{ACAD_REACTORS
330
409
102
}
330
409
100
AcDbXrecord
280
     1
102
RTVSPropertyOp0
 70
     1
102
RTVSPropertyOp1
 70
     1
102
RTVSPropertyOp2
 70
     1
102
RTVSPropertyOp3
 70
     1
102
RTVSPropertyOp4
 70
     1
102
RTVSPropertyOp5
 70
     1
102
RTVSPropertyOp6
 70
     1
102
RTVSPropertyOp7
 70
     1
102
RTVSPropertyOp8
 70
     1
102
RTVSPropertyOp9
 70
     1
102
RTVSPropertyOp10
 70
     1
102
RTVSPropertyOp11
 70
     1
102
RTVSPropertyOp12
 70
     1
102
RTVSPropertyOp13
 70
     1
102
RTVSPropertyOp14
 70
     1
102
RTVSPropertyOp15
 70
     1
102
RTVSPropertyOp16
 70
     1
102
RTVSPropertyOp17
 70
     1
102
RTVSPropertyOp18
 70
     1
102
RTVSPropertyOp19
 70
     1
102
RTVSPropertyOp20
 70
     1
102
RTVSPropertyOp21
 70
     1
102
RTVSPropertyOp22
 70
     1
102
RTVSPropertyOp23
 70
     1
102
RTVSPropertyOp24
 70
     1
102
RTVSPropertyOp25
 70
     1
102
RTVSPropertyOp26
 70
     1
102
RTVSPropertyOp27
 70
     1
102
RTVSPropertyOp28
 70
     1
102
RTVSPropertyOp29
 70
     1
102
RTVSPropertyOp30
 70
     1
102
RTVSPropertyOp31
 70
     1
102
RTVSPropertyOp32
 70
     1
102
RTVSPropertyOp33
 70
     1
102
RTVSPropertyOp34
 70
     1
102
RTVSPropertyOp35
 70
     1
102
RTVSPropertyOp36
 70
     1
102
RTVSPropertyOp37
 70
     1
102
RTVSPropertyOp38
 70
     1
102
RTVSPropertyOp39
 70
     1
102
RTVSPropertyOp40
 70
     1
102
RTVSPropertyOp41
 70
     1
102
RTVSPropertyOp42
 70
     1
102
RTVSPropertyOp43
 70
     1
102
RTVSPropertyOp44
 70
     1
102
RTVSPropertyOp45
 70
     1
102
RTVSPropertyOp46
 70
     1
102
RTVSPropertyOp47
 70
     1
102
RTVSPropertyOp48
 70
     1
102
RTVSPropertyOp49
 70
     1
102
RTVSPropertyOp50
 70
     1
102
RTVSPropertyOp51
 70
     0
102
RTVSPropertyOp52
 70
     0
102
RTVSPropertyOp53
 70
     1
102
RTVSPropertyOp54
 70
     1
102
RTVSPropertyOp55
 70
     1
102
RTVSPropertyOp56
 70
     1
102
RTVSPropertyOp57
 70
     1
102
RTVSPost2010Prop28
280
     0
102
RTVSPost2010PropOp28
 70
     1
102
RTVSPost2010Prop29
280
     1
102
RTVSPost2010PropOp29
 70
     1
102
RTVSPost2010Prop30
280
     1
102
RTVSPost2010PropOp30
 70
     1
102
RTVSPost2010Prop31
280
     0
102
RTVSPost2010PropOp31
 70
     1
102
RTVSPost2010Prop32
280
     0
102
RTVSPost2010PropOp32
 70
     1
102
RTVSPost2010Prop33
280
     0
102
RTVSPost2010PropOp33
 70
     1
102
RTVSPost2010Prop34
280
     0
102
RTVSPost2010PropOp34
 70
     1
102
RTVSPost2010Prop35
280
     0
102
RTVSPost2010PropOp35
 70
     1
102
RTVSPost2010Prop36
280
     0
102
RTVSPost2010PropOp36
 70
     1
102
RTVSPost2010Prop37
 90
       50
102
RTVSPost2010PropOp37
 70
     1
102
RTVSPost2010Prop38
140
0.0
102
RTVSPost2010PropOp38
 70
     1
102
RTVSPost2010Prop39
140
1.0
102
RTVSPost2010PropOp39
 70
     1
102
RTVSPost2010Prop40
 90
        0
102
RTVSPost2010PropOp40
 70
     1
102
RTVSPost2010Prop41ColorIndex
 90
       18
102
RTVSPost2010Prop41ColorRGB
 90
        0
102
RTVSPost2010PropOp41
 70
     1
102
RTVSPost2010Prop42
 90
       50
102
RTVSPost2010PropOp42
 70
     1
102
RTVSPost2010Prop43
 90
        3
102
RTVSPost2010PropOp43
 70
     1
102
RTVSPost2010Prop44ColorIndex
 90
        5
102
RTVSPost2010Prop44ColorRGB
 90
      255
102
RTVSPost2010PropOp44
 70
     1
102
RTVSPost2010Prop45
280
     0
102
RTVSPost2010PropOp45
 70
     1
102
RTVSPost2010Prop46
 90
       50
102
RTVSPost2010PropOp46
 70
     1
102
RTVSPost2010Prop47
 90
       50
102
RTVSPost2010PropOp47
 70
     1
102
RTVSPost2010Prop48
 90
       50
102
RTVSPost2010PropOp48
 70
     1
102
RTVSPost2010Prop49
280
     0
102
RTVSPost2010PropOp49
 70
     1
102
RTVSPost2010Prop50
 90
       50
102
RTVSPost2010PropOp50
 70
     1
102
RTVSPost2010Prop51ColorIndex
 90
      256
102
RTVSPost2010Prop51ColorRGB
 90
-16777216
102
RTVSPost2010PropOp51
 70
     0
102
RTVSPost2010Prop52
140
1.0
102
RTVSPost2010PropOp52
 70
     0
102
RTVSPost2010Prop53
 90
        2
102
RTVSPost2010PropOp53
 70
     1
102
RTVSPost2010Prop54
  1
strokes_ogs.tif
102
RTVSPost2010PropOp54
 70
     1
102
RTVSPost2010Prop55
280
     0
102
RTVSPost2010PropOp55
 70
     1
102
RTVSPost2010Prop56
140
1.0
102
RTVSPost2010PropOp56
 70
     1
102
RTVSPost2010Prop57
140
1.0
102
RTVSPost2010PropOp57
 70
     1
  0
ENDSEC
  0
EOF
