  0
SECTION
  2
HEADER
  9
$ACADVER
  1
AC1018
  9
$ACADMAINTVER
 70
     0
  9
$DWGCODEPAGE
  3
ANSI_932
  9
$INSBASE
 10
0.0
 20
0.0
 30
0.0
  9
$EXTMIN
 10
-630.0
 20
-445.5
 30
0.0
  9
$EXTMAX
 10
630.0
 20
445.5
 30
0.0
  9
$LIMMIN
 10
-630.0
 20
-445.5
  9
$LIMMAX
 10
630.0
 20
445.5
  9
$ORTHOMODE
 70
     0
  9
$REGENMODE
 70
     1
  9
$FILLMODE
 70
     1
  9
$QTEXTMODE
 70
     0
  9
$MIRRTEXT
 70
     1
  9
$LTSCALE
 40
3.0
  9
$ATTMODE
 70
     1
  9
$TEXTSIZE
 40
2.5
  9
$TRACEWID
 40
1.0
  9
$TEXTSTYLE
  7
Standard
  9
$CLAYER
  8
0
  9
$CELTYPE
  6
ByLayer
  9
$CECOLOR
 62
   256
  9
$CELTSCALE
 40
1.0
  9
$DISPSILH
 70
     0
  9
$DIMSCALE
 40
1.0
  9
$DIMASZ
 40
2.5
  9
$DIMEXO
 40
0.625
  9
$DIMDLI
 40
3.75
  9
$DIMRND
 40
0.0
  9
$DIMDLE
 40
0.0
  9
$DIMEXE
 40
1.25
  9
$DIMTP
 40
0.0
  9
$DIMTM
 40
0.0
  9
$DIMTXT
 40
2.5
  9
$DIMCEN
 40
2.5
  9
$DIMTSZ
 40
0.0
  9
$DIMTOL
 70
     0
  9
$DIMLIM
 70
     0
  9
$DIMTIH
 70
     0
  9
$DIMTOH
 70
     0
  9
$DIMSE1
 70
     0
  9
$DIMSE2
 70
     0
  9
$DIMTAD
 70
     1
  9
$DIMZIN
 70
     8
  9
$DIMBLK
  1

  9
$DIMASO
 70
     1
  9
$DIMSHO
 70
     1
  9
$DIMPOST
  1

  9
$DIMAPOST
  1

  9
$DIMALT
 70
     0
  9
$DIMALTD
 70
     3
  9
$DIMALTF
 40
0.03937007874016
  9
$DIMLFAC
 40
1.0
  9
$DIMTOFL
 70
     1
  9
$DIMTVP
 40
0.0
  9
$DIMTIX
 70
     0
  9
$DIMSOXD
 70
     0
  9
$DIMSAH
 70
     0
  9
$DIMBLK1
  1

  9
$DIMBLK2
  1

  9
$DIMSTYLE
  2
ISO-25
  9
$DIMCLRD
 70
     0
  9
$DIMCLRE
 70
     0
  9
$DIMCLRT
 70
     0
  9
$DIMTFAC
 40
1.0
  9
$DIMGAP
 40
0.625
  9
$DIMJUST
 70
     0
  9
$DIMSD1
 70
     0
  9
$DIMSD2
 70
     0
  9
$DIMTOLJ
 70
     0
  9
$DIMTZIN
 70
     8
  9
$DIMALTZ
 70
     0
  9
$DIMALTTZ
 70
     0
  9
$DIMUPT
 70
     0
  9
$DIMDEC
 70
     2
  9
$DIMTDEC
 70
     2
  9
$DIMALTU
 70
     2
  9
$DIMALTTD
 70
     3
  9
$DIMTXSTY
  7
Standard
  9
$DIMAUNIT
 70
     0
  9
$DIMADEC
 70
     0
  9
$DIMALTRND
 40
0.0
  9
$DIMAZIN
 70
     0
  9
$DIMDSEP
 70
    44
  9
$DIMATFIT
 70
     3
  9
$DIMFRAC
 70
     0
  9
$DIMLDRBLK
  1

  9
$DIMLUNIT
 70
     2
  9
$DIMLWD
 70
    -2
  9
$DIMLWE
 70
    -2
  9
$DIMTMOVE
 70
     0
  9
$LUNITS
 70
     2
  9
$LUPREC
 70
     4
  9
$SKETCHINC
 40
1.0
  9
$FILLETRAD
 40
10.0
  9
$AUNITS
 70
     0
  9
$AUPREC
 70
     0
  9
$MENU
  1
.
  9
$ELEVATION
 40
0.0
  9
$PELEVATION
 40
0.0
  9
$THICKNESS
 40
0.0
  9
$LIMCHECK
 70
     0
  9
$CHAMFERA
 40
0.0
  9
$CHAMFERB
 40
0.0
  9
$CHAMFERC
 40
0.0
  9
$CHAMFERD
 40
0.0
  9
$SKPOLY
 70
     0
  9
$TDCREATE
 40
2461033.534150706
  9
$TDUCREATE
 40
2461033.159150706
  9
$TDUPDATE
 40
2461033.534157188
  9
$TDUUPDATE
 40
2461033.159157188
  9
$TDINDWG
 40
0.0000000116
  9
$TDUSRTIMER
 40
0.0000000116
  9
$USRTIMER
 70
     1
  9
$ANGBASE
 50
0.0
  9
$ANGDIR
 70
     0
  9
$PDMODE
 70
     0
  9
$PDSIZE
 40
0.0
  9
$PLINEWID
 40
0.0
  9
$SPLFRAME
 70
     0
  9
$SPLINETYPE
 70
     6
  9
$SPLINESEGS
 70
     8
  9
$HANDSEED
  5
3BE
  9
$SURFTAB1
 70
     6
  9
$SURFTAB2
 70
     6
  9
$SURFTYPE
 70
     6
  9
$SURFU
 70
     6
  9
$SURFV
 70
     6
  9
$UCSBASE
  2

  9
$UCSNAME
  2

  9
$UCSORG
 10
0.0
 20
0.0
 30
0.0
  9
$UCSXDIR
 10
1.0
 20
0.0
 30
0.0
  9
$UCSYDIR
 10
0.0
 20
1.0
 30
0.0
  9
$UCSORTHOREF
  2

  9
$UCSORTHOVIEW
 70
     0
  9
$UCSORGTOP
 10
0.0
 20
0.0
 30
0.0
  9
$UCSORGBOTTOM
 10
0.0
 20
0.0
 30
0.0
  9
$UCSORGLEFT
 10
0.0
 20
0.0
 30
0.0
  9
$UCSORGRIGHT
 10
0.0
 20
0.0
 30
0.0
  9
$UCSORGFRONT
 10
0.0
 20
0.0
 30
0.0
  9
$UCSORGBACK
 10
0.0
 20
0.0
 30
0.0
  9
$PUCSBASE
  2

  9
$PUCSNAME
  2

  9
$PUCSORG
 10
0.0
 20
0.0
 30
0.0
  9
$PUCSXDIR
 10
1.0
 20
0.0
 30
0.0
  9
$PUCSYDIR
 10
0.0
 20
1.0
 30
0.0
  9
$PUCSORTHOREF
  2

  9
$PUCSORTHOVIEW
 70
     0
  9
$PUCSORGTOP
 10
0.0
 20
0.0
 30
0.0
  9
$PUCSORGBOTTOM
 10
0.0
 20
0.0
 30
0.0
  9
$PUCSORGLEFT
 10
0.0
 20
0.0
 30
0.0
  9
$PUCSORGRIGHT
 10
0.0
 20
0.0
 30
0.0
  9
$PUCSORGFRONT
 10
0.0
 20
0.0
 30
0.0
  9
$PUCSORGBACK
 10
0.0
 20
0.0
 30
0.0
  9
$USERI1
 70
     0
  9
$USERI2
 70
     0
  9
$USERI3
 70
     0
  9
$USERI4
 70
     0
  9
$USERI5
 70
     0
  9
$USERR1
 40
0.0
  9
$USERR2
 40
0.0
  9
$USERR3
 40
0.0
  9
$USERR4
 40
0.0
  9
$USERR5
 40
0.0
  9
$WORLDVIEW
 70
     1
  9
$SHADEDGE
 70
     3
  9
$SHADEDIF
 70
    70
  9
$TILEMODE
 70
     1
  9
$MAXACTVP
 70
    64
  9
$PINSBASE
 10
0.0
 20
0.0
 30
0.0
  9
$PLIMCHECK
 70
     0
  9
$PEXTMIN
 10
1.000000000000000E+20
 20
1.000000000000000E+20
 30
1.000000000000000E+20
  9
$PEXTMAX
 10
-1.000000000000000E+20
 20
-1.000000000000000E+20
 30
-1.000000000000000E+20
  9
$PLIMMIN
 10
0.0
 20
0.0
  9
$PLIMMAX
 10
420.0
 20
297.0
  9
$UNITMODE
 70
     0
  9
$VISRETAIN
 70
     1
  9
$PLINEGEN
 70
     0
  9
$PSLTSCALE
 70
     1
  9
$TREEDEPTH
 70
  3020
  9
$CMLSTYLE
  2
Standard
  9
$CMLJUST
 70
     0
  9
$CMLSCALE
 40
20.0
  9
$PROXYGRAPHICS
 70
     1
  9
$MEASUREMENT
 70
     1
  9
$CELWEIGHT
370
    -1
  9
$ENDCAPS
280
     0
  9
$JOINSTYLE
280
     0
  9
$LWDISPLAY
290
     0
  9
$INSUNITS
 70
     4
  9
$HYPERLINKBASE
  1

  9
$STYLESHEET
  1

  9
$XEDIT
290
     1
  9
$CEPSNTYPE
380
     0
  9
$PSTYLEMODE
290
     1
  9
$FINGERPRINTGUID
  2
{9E517B0B-FFC4-40F9-ABF7-3A867C2E6980}
  9
$VERSIONGUID
  2
{FAEB1C32-E019-11D5-929B-00C0DF256EC4}
  9
$EXTNAMES
290
     1
  9
$PSVPSCALE
 40
0.0
  9
$OLESTARTUP
290
     0
  9
$SORTENTS
280
   127
  9
$INDEXCTL
280
     0
  9
$HIDETEXT
280
     1
  9
$XCLIPFRAME
290
     0
  9
$HALOGAP
280
     0
  9
$OBSCOLOR
 70
   257
  9
$OBSLTYPE
280
     0
  9
$INTERSECTIONDISPLAY
280
     0
  9
$INTERSECTIONCOLOR
 70
   257
  9
$DIMASSOC
280
     2
  9
$PROJECTNAME
  1

  0
ENDSEC
  0
SECTION
  2
CLASSES
  0
CLASS
  1
ACDBDICTIONARYWDFLT
  2
AcDbDictionaryWithDefault
  3
ObjectDBX Classes
 90
        0
 91
        4
280
     0
281
     0
  0
CLASS
  1
VISUALSTYLE
  2
AcDbVisualStyle
  3
ObjectDBX Classes
 90
     4095
 91
        4
280
     0
281
     0
  0
CLASS
  1
MATERIAL
  2
AcDbMaterial
  3
ObjectDBX Classes
 90
     1153
 91
        4
280
     0
281
     0
  0
CLASS
  1
SCALE
  2
AcDbScale
  3
ObjectDBX Classes
 90
     1153
 91
        4
280
     0
281
     0
  0
CLASS
  1
TABLESTYLE
  2
AcDbTableStyle
  3
ObjectDBX Classes
 90
     4095
 91
        4
280
     0
281
     0
  0
CLASS
  1
MLEADERSTYLE
  2
AcDbMLeaderStyle
  3
ACDB_MLEADERSTYLE_CLASS
 90
     4095
 91
        4
280
     0
281
     0
  0
CLASS
  1
SUN
  2
AcDbSun
  3
SCENEOE
 90
     1153
 91
        4
280
     0
281
     0
  0
CLASS
  1
DICTIONARYVAR
  2
AcDbDictionaryVar
  3
ObjectDBX Classes
 90
        0
 91
        4
280
     0
281
     0
  0
CLASS
  1
CELLSTYLEMAP
  2
AcDbCellStyleMap
  3
ObjectDBX Classes
 90
     1152
 91
        4
280
     0
281
     0
  0
ENDSEC
  0
SECTION
  2
TABLES
  0
TABLE
  2
VPORT
  5
8
102
{ACAD_XDICTIONARY
360
375
102
}
330
0
100
AcDbSymbolTable
 70
     1
  0
VPORT
  5
29
330
8
100
AcDbSymbolTableRecord
100
AcDbViewportTableRecord
  2
*Active
 70
     0
 10
0.0
 20
0.0
 11
1.0
 21
1.0
 12
0.0
 22
0.0
 13
0.0
 23
0.0
 14
10.0
 24
10.0
 15
10.0
 25
10.0
 16
0.0
 26
0.0
 36
1.0
 17
0.0
 27
0.0
 37
0.0
 40
980.1
 41
1.414141414141414
 42
50.0
 43
0.0
 44
0.0
 50
0.0
 51
0.0
 71
     0
 72
 10000
 73
     1
 74
     3
 75
     0
 76
     0
 77
     0
 78
     0
281
     0
 65
     1
110
0.0
120
0.0
130
0.0
111
1.0
121
0.0
131
0.0
112
0.0
122
1.0
132
0.0
 79
     0
146
0.0
  0
ENDTAB
  0
TABLE
  2
LTYPE
  5
5
330
0
100
AcDbSymbolTable
 70
     4
  0
LTYPE
  5
14
330
5
100
AcDbSymbolTableRecord
100
AcDbLinetypeTableRecord
  2
ByBlock
 70
     0
  3

 72
    65
 73
     0
 40
0.0
  0
LTYPE
  5
15
330
5
100
AcDbSymbolTableRecord
100
AcDbLinetypeTableRecord
  2
ByLayer
 70
     0
  3

 72
    65
 73
     0
 40
0.0
  0
LTYPE
  5
16
330
5
100
AcDbSymbolTableRecord
100
AcDbLinetypeTableRecord
  2
Continuous
 70
     0
  3
Solid line
 72
    65
 73
     0
 40
0.0
  0
LTYPE
  5
6F
330
5
100
AcDbSymbolTableRecord
100
AcDbLinetypeTableRecord
  2
JWW_CENTER1
 70
     0
  3
-----  --  ----------  --  -----
 72
    65
 73
     4
 40
6.773333333333333
 49
4.233333333333333
 74
     0
 49
-0.8466666666666667
 74
     0
 49
0.8466666666666667
 74
     0
 49
-0.8466666666666667
 74
     0
  0
LTYPE
  5
70
330
5
100
AcDbSymbolTableRecord
100
AcDbLinetypeTableRecord
  2
JWW_DASHED1
 70
     0
  3
-  --  --  --  --  --  --  --  -
 72
    65
 73
     2
 40
1.693333333333333
 49
0.8466666666666667
 74
     0
 49
-0.8466666666666667
 74
     0
  0
LTYPE
  5
71
330
5
100
AcDbSymbolTableRecord
100
AcDbLinetypeTableRecord
  2
JWW_PHANTOM2
 70
     0
  3
------------  -  -  ------------
 72
    65
 73
     6
 40
13.54666666666667
 49
10.16
 74
     0
 49
-0.8466666666666667
 74
     0
 49
0.4233333333333333
 74
     0
 49
-0.8466666666666667
 74
     0
 49
0.4233333333333333
 74
     0
 49
-0.8466666666666667
 74
     0
  0
ENDTAB
  0
TABLE
  2
LAYER
  5
2
330
0
100
AcDbSymbolTable
 70
    11
  0
LAYER
  5
10
330
2
100
AcDbSymbolTableRecord
100
AcDbLayerTableRecord
  2
0
 70
     0
 62
     7
  6
Continuous
370
    -3
390
F
  0
LAYER
  5
72
330
2
100
AcDbSymbolTableRecord
100
AcDbLayerTableRecord
  2
0-A
 70
     0
 62
     7
  6
Continuous
370
    -3
390
F
  0
LAYER
  5
73
330
2
100
AcDbSymbolTableRecord
100
AcDbLayerTableRecord
  2
0-2
 70
     0
 62
     7
  6
Continuous
370
    -3
390
F
  0
LAYER
  5
74
330
2
100
AcDbSymbolTableRecord
100
AcDbLayerTableRecord
  2
0-0
 70
     0
 62
     7
  6
Continuous
370
    -3
390
F
  0
LAYER
  5
75
330
2
100
AcDbSymbolTableRecord
100
AcDbLayerTableRecord
  2
0-1
 70
     0
 62
     7
  6
Continuous
370
    -3
390
F
  0
LAYER
  5
76
330
2
100
AcDbSymbolTableRecord
100
AcDbLayerTableRecord
  2
0-4
 70
     0
 62
     7
  6
Continuous
370
    -3
390
F
  0
LAYER
  5
77
330
2
100
AcDbSymbolTableRecord
100
AcDbLayerTableRecord
  2
0-5
 70
     0
 62
     7
  6
Continuous
370
    -3
390
F
  0
LAYER
  5
78
330
2
100
AcDbSymbolTableRecord
100
AcDbLayerTableRecord
  2
0-3
 70
     0
 62
     7
  6
Continuous
370
    -3
390
F
  0
LAYER
  5
79
330
2
100
AcDbSymbolTableRecord
100
AcDbLayerTableRecord
  2
F-4
 70
     0
 62
     7
  6
Continuous
370
    -3
390
F
  0
LAYER
  5
7A
330
2
100
AcDbSymbolTableRecord
100
AcDbLayerTableRecord
  2
F-5
 70
     0
 62
     7
  6
Continuous
370
    -3
390
F
  0
LAYER
  5
7B
330
2
100
AcDbSymbolTableRecord
100
AcDbLayerTableRecord
  2
F-0
 70
     0
 62
     7
  6
Continuous
370
    -3
390
F
  0
ENDTAB
  0
TABLE
  2
STYLE
  5
3
330
0
100
AcDbSymbolTable
 70
     2
  0
STYLE
  5
11
330
3
100
AcDbSymbolTableRecord
100
AcDbTextStyleTableRecord
  2
Standard
 70
     0
 40
0.0
 41
1.0
 50
0.0
 71
     0
 42
2.5
  3
txt
  4

  0
STYLE
  5
6E
330
3
100
AcDbSymbolTableRecord
100
AcDbTextStyleTableRecord
  2
ＭＳ ゴシック
 70
     0
 40
1.0
 41
1.0
 50
0.0
 71
     0
 42
2.5
  3

  4

1001
ACAD
1000
MS Gothic
1071
    32817
  0
ENDTAB
  0
TABLE
  2
VIEW
  5
6
330
0
100
AcDbSymbolTable
 70
     0
  0
ENDTAB
  0
TABLE
  2
UCS
  5
7
330
0
100
AcDbSymbolTable
 70
     0
  0
ENDTAB
  0
TABLE
  2
APPID
  5
9
330
0
100
AcDbSymbolTable
 70
     2
  0
APPID
  5
12
330
9
100
AcDbSymbolTableRecord
100
AcDbRegAppTableRecord
  2
ACAD
 70
     0
  0
APPID
  5
3B4
330
9
100
AcDbSymbolTableRecord
100
AcDbRegAppTableRecord
  2
ACAD_MLEADERVER
 70
     0
  0
ENDTAB
  0
TABLE
  2
DIMSTYLE
  5
A
330
0
100
AcDbSymbolTable
 70
     1
100
AcDbDimStyleTable
  0
DIMSTYLE
105
27
330
A
100
AcDbSymbolTableRecord
100
AcDbDimStyleTableRecord
  2
ISO-25
 70
     0
 41
2.5
 42
0.625
 43
3.75
 44
1.25
 73
     0
 74
     0
 77
     1
 78
     8
140
2.5
141
2.5
143
0.03937007874016
147
0.625
171
     3
172
     1
178
     0
271
     2
272
     2
274
     3
278
    44
283
     0
284
     8
340
11
  0
ENDTAB
  0
TABLE
  2
BLOCK_RECORD
  5
1
330
0
100
AcDbSymbolTable
 70
     1
  0
BLOCK_RECORD
  5
1F
330
1
100
AcDbSymbolTableRecord
100
AcDbBlockTableRecord
  2
*Model_Space
340
22
  0
BLOCK_RECORD
  5
1B
330
1
100
AcDbSymbolTableRecord
100
AcDbBlockTableRecord
  2
*Paper_Space
340
1E
  0
BLOCK_RECORD
  5
23
330
1
100
AcDbSymbolTableRecord
100
AcDbBlockTableRecord
  2
*Paper_Space0
340
26
  0
ENDTAB
  0
ENDSEC
  0
SECTION
  2
BLOCKS
  0
BLOCK
  5
20
330
1F
100
AcDbEntity
  8
0
100
AcDbBlockBegin
  2
*Model_Space
 70
     0
 10
0.0
 20
0.0
 30
0.0
  3
*Model_Space
  1

  0
ENDBLK
  5
21
330
1F
100
AcDbEntity
  8
0
100
AcDbBlockEnd
  0
BLOCK
  5
1C
330
1B
100
AcDbEntity
 67
     1
  8
0
100
AcDbBlockBegin
  2
*Paper_Space
 70
     0
 10
0.0
 20
0.0
 30
0.0
  3
*Paper_Space
  1

  0
ENDBLK
  5
1D
330
1B
100
AcDbEntity
 67
     1
  8
0
100
AcDbBlockEnd
  0
BLOCK
  5
24
330
23
100
AcDbEntity
  8
0
100
AcDbBlockBegin
  2
*Paper_Space0
 70
     0
 10
0.0
 20
0.0
 30
0.0
  3
*Paper_Space0
  1

  0
ENDBLK
  5
25
330
23
100
AcDbEntity
  8
0
100
AcDbBlockEnd
  0
ENDSEC
  0
SECTION
  2
ENTITIES
  0
LINE
  5
7C
330
1F
100
AcDbEntity
  8
0-A
  6
Continuous
 62
     2
370
     9
100
AcDbLine
 10
-12.16807738066873
 20
261.0545874388959
 30
0.0
 11
-6.477122885087883
 21
264.3403382514412
 31
0.0
  0
LINE
  5
7D
330
1F
100
AcDbEntity
  8
0-A
  6
Continuous
 62
     2
370
     9
100
AcDbLine
 10
-12.668054934342
 20
261.9206668798043
 30
0.0
 11
-6.977100438761143
 21
265.2062195048344
 31
0.0
  0
LINE
  5
7E
330
1F
100
AcDbEntity
  8
0-A
  6
Continuous
 62
     2
370
     9
100
AcDbLine
 10
-80.53994591188476
 20
227.6895210873182
 30
0.0
 11
-78.45679694085757
 21
231.2977229869021
 31
0.0
  0
LINE
  5
7F
330
1F
100
AcDbEntity
  8
0-A
  6
Continuous
 62
     2
370
     9
100
AcDbLine
 10
-14.5071855274247
 20
258.6773281954866
 30
0.0
 11
-14.99963195552474
 21
259.5303272603997
 31
0.0
  0
LINE
  5
80
330
1F
100
AcDbEntity
  8
0-A
  6
Continuous
 62
     2
370
     9
100
AcDbLine
 10
-10.96141269509181
 20
256.6304475397193
 30
0.0
 11
-9.97711440143681
 21
256.6304475397193
 31
0.0
  0
LINE
  5
81
330
1F
100
AcDbEntity
  8
0-A
  6
Continuous
 62
     2
370
     9
100
AcDbLine
 10
-5.825333694861827
 20
269.630359404011
 30
0.0
 11
-12.44261663593617
 21
269.630359404011
 31
0.0
  0
LINE
  5
82
330
1F
100
AcDbEntity
  8
0-A
  6
Continuous
 62
     2
370
     9
100
AcDbLine
 10
-5.817158459864601
 20
269.6256029036491
 30
0.0
 11
-2.508516989327434
 21
263.8950109050517
 31
0.0
  0
LINE
  5
83
330
1F
100
AcDbEntity
  8
0-A
  6
Continuous
 62
     2
370
     9
100
AcDbLine
 10
-93.97235248096435
 20
230.6413259369502
 30
0.0
 11
-95.17257607230125
 21
230.6413259369502
 31
0.0
  0
LINE
  5
84
330
1F
100
AcDbEntity
  8
0-A
  6
Continuous
 62
     2
370
     9
100
AcDbLine
 10
-93.97235248096435
 20
227.4915317597511
 30
0.0
 11
-93.97235248096435
 21
230.6413259369502
 31
0.0
  0
LINE
  5
85
330
1F
100
AcDbEntity
  8
0-A
  6
Continuous
 62
     2
370
     9
100
AcDbLine
 10
-95.17257607230125
 20
227.4915317597511
 30
0.0
 11
-95.17257607230125
 21
230.6413259369502
 31
0.0
  0
LINE
  5
86
330
1F
100
AcDbEntity
  8
0-A
  6
Continuous
 62
     2
370
     9
100
AcDbLine
 10
-100.5424667934493
 20
226.4914775586472
 30
0.0
 11
-88.60285813484657
 21
226.4914775586472
 31
0.0
  0
LINE
  5
87
330
1F
100
AcDbEntity
  8
0-A
  6
Continuous
 62
     2
370
     9
100
AcDbLine
 10
33.02759449621644
 20
230.6413259369502
 30
0.0
 11
31.82737090487953
 21
230.6413259369502
 31
0.0
  0
LINE
  5
88
330
1F
100
AcDbEntity
  8
0-A
  6
Continuous
 62
     2
370
     9
100
AcDbLine
 10
33.02759449621644
 20
227.4915317597511
 30
0.0
 11
33.02759449621644
 21
230.6413259369502
 31
0.0
  0
LINE
  5
89
330
1F
100
AcDbEntity
  8
0-A
  6
Continuous
 62
     2
370
     9
100
AcDbLine
 10
31.82737090487953
 20
227.4915317597511
 30
0.0
 11
31.82737090487953
 21
230.6413259369502
 31
0.0
  0
LINE
  5
8A
330
1F
100
AcDbEntity
  8
0-A
  6
Continuous
 62
     2
370
     9
100
AcDbLine
 10
26.45748018373169
 20
226.4914775586472
 30
0.0
 11
38.39708884233423
 21
226.4914775586472
 31
0.0
  0
ARC
  5
8B
330
1F
100
AcDbEntity
  8
0-A
  6
Continuous
 62
     2
370
     9
100
AcDbCircle
 10
-9.572613683154401
 20
263.1304034718651
 30
0.0
 40
3.32349972789352
100
AcDbArc
 50
240.0
 51
239.9998321533203
  0
ARC
  5
8C
330
1F
100
AcDbEntity
  8
0-A
  6
Continuous
 62
     2
370
     9
100
AcDbCircle
 10
-9.572613683154401
 20
263.1304034718651
 30
0.0
 40
4.000000036821402
100
AcDbArc
 50
240.0
 51
239.9999542236328
  0
ARC
  5
8D
330
1F
100
AcDbEntity
  8
0-A
  6
Continuous
 62
     2
370
     9
100
AcDbCircle
 10
-9.567857182792437
 20
263.1276288466539
 30
0.0
 40
6.500000834004759
100
AcDbArc
 50
212.7119598388672
 51
266.9346313476562
  0
ARC
  5
8E
330
1F
100
AcDbEntity
  8
0-A
  6
Continuous
 62
     2
370
     9
100
AcDbCircle
 10
-9.567857182792437
 20
263.1276288466539
 30
0.0
 40
6.500000834004759
100
AcDbArc
 50
0.2032012939453125
 51
119.9577026367187
  0
ARC
  5
8F
330
1F
100
AcDbEntity
  8
0-A
  6
Continuous
 62
     2
370
     9
100
AcDbCircle
 10
-92.97229827986042
 20
227.4915317597511
 30
0.0
 40
1.00000000920535
100
AcDbArc
 50
180.0
 51
270.0
  0
ARC
  5
90
330
1F
100
AcDbEntity
  8
0-A
  6
Continuous
 62
     2
370
     9
100
AcDbCircle
 10
-96.17263027340542
 20
227.4915317597511
 30
0.0
 40
1.00000000920535
100
AcDbArc
 50
270.0
 51
0.0
  0
ARC
  5
91
330
1F
100
AcDbEntity
  8
0-A
  6
Continuous
 62
     2
370
     9
100
AcDbCircle
 10
34.02764869732036
 20
227.4915317597511
 30
0.0
 40
1.00000000920535
100
AcDbArc
 50
180.0
 51
270.0
  0
ARC
  5
92
330
1F
100
AcDbEntity
  8
0-A
  6
Continuous
 62
     2
370
     9
100
AcDbCircle
 10
30.82731670377561
 20
227.4915317597511
 30
0.0
 40
1.00000000920535
100
AcDbArc
 50
270.0
 51
0.0
  0
ARC
  5
93
330
1F
100
AcDbEntity
  8
0-A
  6
Continuous
 62
     2
370
     9
100
AcDbCircle
 10
-94.57266246414784
 20
225.8913657629788
 30
0.0
 40
6.000000055232103
100
AcDbArc
 50
0.0
 51
180.0
  0
ARC
  5
94
330
1F
100
AcDbEntity
  8
0-A
  6
Continuous
 62
     2
370
     9
100
AcDbCircle
 10
-74.07264137284882
 20
225.8969150134013
 30
0.0
 40
6.500000834004759
100
AcDbArc
 50
124.8011169433594
 51
180.0489151733074
  0
ARC
  5
95
330
1F
100
AcDbEntity
  8
0-A
  6
Continuous
 62
     2
370
     9
100
AcDbCircle
 10
-74.07264137284882
 20
225.8913657629788
 30
0.0
 40
3.32349972789352
100
AcDbArc
 50
0.0
 51
180.0
  0
ARC
  5
96
330
1F
100
AcDbEntity
  8
0-A
  6
Continuous
 62
     2
370
     9
100
AcDbCircle
 10
-74.07264137284882
 20
225.8913657629788
 30
0.0
 40
4.000000036821402
100
AcDbArc
 50
0.0
 51
180.0
  0
LINE
  5
97
330
1F
100
AcDbEntity
  8
0-A
  6
Continuous
 62
     2
370
     9
100
AcDbLine
 10
-73.07280146744921
 20
225.8913657629788
 30
0.0
 11
-76.66810507036315
 21
227.967181795948
 31
0.0
  0
LINE
  5
98
330
1F
100
AcDbEntity
  8
0-A
  6
Continuous
 62
     2
370
     9
100
AcDbLine
 10
-75.07263036024202
 20
225.8913657629788
 30
0.0
 11
-77.16803307715773
 21
227.1011023550396
 31
0.0
  0
ARC
  5
99
330
1F
100
AcDbEntity
  8
0-A
  6
Continuous
 62
     2
370
     9
100
AcDbCircle
 10
-74.07264137284882
 20
225.8969150134013
 30
0.0
 40
6.500000834004759
100
AcDbArc
 50
359.9510848266925
 51
23.89338684082035
  0
LINE
  5
9A
330
1F
100
AcDbEntity
  8
0-A
  6
JWW_CENTER1
 62
     4
370
     9
100
AcDbLine
 10
-94.57266246414784
 20
224.1926795001506
 30
0.0
 11
-94.57266246414784
 21
233.4639125267486
 31
0.0
  0
ARC
  5
9B
330
1F
100
AcDbEntity
  8
0-A
  6
Continuous
 62
     2
370
     9
100
AcDbCircle
 10
32.42728451303296
 20
225.8913657629788
 30
0.0
 40
6.000000055232103
100
AcDbArc
 50
0.0
 51
180.0
  0
LINE
  5
9C
330
1F
100
AcDbEntity
  8
0-A
  6
JWW_CENTER1
 62
     4
370
     9
100
AcDbLine
 10
32.42733405991165
 20
223.1614751816873
 30
0.0
 11
32.42733405991165
 21
232.7645087860242
 31
0.0
  0
ARC
  5
9D
330
1F
100
AcDbEntity
  8
0-2
  6
Continuous
 62
     6
370
     5
100
AcDbCircle
 10
-61.80790609575379
 20
225.8913657629788
 30
0.0
 40
4.000000036821402
100
AcDbArc
 50
107.9587707519531
 51
180.0
  0
LINE
  5
9E
330
1F
100
AcDbEntity
  8
0-2
  6
Continuous
 62
     6
370
     5
100
AcDbLine
 10
21.75736416980325
 20
235.8913132114736
 30
0.0
 11
35.68256399513447
 21
235.8913132114736
 31
0.0
  0
LINE
  5
9F
330
1F
100
AcDbEntity
  8
0-2
  6
Continuous
 62
     6
370
     5
100
AcDbLine
 10
25.36536788187195
 20
236.8913674125775
 30
0.0
 11
36.5383872321373
 21
236.8913674125775
 31
0.0
  0
LINE
  5
A0
330
1F
100
AcDbEntity
  8
0-2
  6
Continuous
 62
     6
370
     5
100
AcDbLine
 10
25.36536788187195
 20
236.8913674125775
 30
0.0
 11
21.75736416980325
 21
235.8913132114736
 31
0.0
  0
LINE
  5
A1
330
1F
100
AcDbEntity
  8
0-2
  6
Continuous
 62
     6
370
     5
100
AcDbLine
 10
-83.9025439334031
 20
235.8913132114736
 30
0.0
 11
-97.82779330561301
 21
235.8913132114736
 31
0.0
  0
LINE
  5
A2
330
1F
100
AcDbEntity
  8
0-2
  6
Continuous
 62
     6
370
     5
100
AcDbLine
 10
-87.51064673922943
 20
236.8913674125775
 30
0.0
 11
-98.68366608949478
 21
236.8913674125775
 31
0.0
  0
LINE
  5
A3
330
1F
100
AcDbEntity
  8
0-2
  6
Continuous
 62
     6
370
     5
100
AcDbLine
 10
-87.51064673922943
 20
236.8913674125775
 30
0.0
 11
-83.9025439334031
 21
235.8913132114736
 31
0.0
  0
LINE
  5
A4
330
1F
100
AcDbEntity
  8
0-2
  6
Continuous
 62
     6
370
     5
100
AcDbLine
 10
-72.18004969757285
 20
244.9532391510853
 30
0.0
 11
-80.02837438857924
 21
248.5925564905366
 31
0.0
  0
LINE
  5
A5
330
1F
100
AcDbEntity
  8
0-2
  6
Continuous
 62
     6
370
     5
100
AcDbLine
 10
-83.16687187741867
 20
239.9694177093171
 30
0.0
 11
-74.81544817937619
 21
237.7124582875627
 31
0.0
  0
LINE
  5
A6
330
1F
100
AcDbEntity
  8
0-2
  6
Continuous
 62
     6
370
     5
100
AcDbLine
 10
-85.03984298870151
 20
238.921798504593
 30
0.0
 11
-75.20676942790568
 21
236.2645003023732
 31
0.0
  0
LINE
  5
A7
330
1F
100
AcDbEntity
  8
0-2
  6
Continuous
 62
     6
370
     5
100
AcDbLine
 10
-71.54911974330902
 20
246.3141928171536
 30
0.0
 11
-80.78971172776701
 21
250.5990068932275
 31
0.0
  0
LINE
  5
A8
330
1F
100
AcDbEntity
  8
0-2
  6
Continuous
 62
     6
370
     5
100
AcDbLine
 10
-69.31173133866915
 20
263.9671511605416
 30
0.0
 11
-63.18144466902996
 21
257.8631738835298
 31
0.0
  0
LINE
  5
A9
330
1F
100
AcDbEntity
  8
0-2
  6
Continuous
 62
     6
370
     5
100
AcDbLine
 10
-75.21018816254096
 20
256.9376381880966
 30
0.0
 11
-68.1343488584454
 21
251.9605551218411
 31
0.0
  0
LINE
  5
AA
330
1F
100
AcDbEntity
  8
0-2
  6
Continuous
 62
     6
370
     5
100
AcDbLine
 10
-77.32856496437411
 20
256.593782849429
 30
0.0
 11
-68.9973068459914
 21
250.7335762159678
 31
0.0
  0
LINE
  5
AB
330
1F
100
AcDbEntity
  8
0-2
  6
Continuous
 62
     6
370
     5
100
AcDbLine
 10
-69.34091445026492
 20
266.1131255738502
 30
0.0
 11
-62.12307379161317
 21
258.9260535269146
 31
0.0
  0
LINE
  5
AC
330
1F
100
AcDbEntity
  8
0-2
  6
Continuous
 62
     6
370
     5
100
AcDbLine
 10
-35.11829072092738
 20
271.0224285099471
 30
0.0
 11
-35.89082565471713
 21
279.6388289156545
 31
0.0
  0
LINE
  5
AD
330
1F
100
AcDbEntity
  8
0-2
  6
Continuous
 62
     6
370
     5
100
AcDbLine
 10
-44.92777996742817
 20
278.0452031068795
 30
0.0
 11
-42.70659339214617
 21
269.6844645956285
 31
0.0
  0
LINE
  5
AE
330
1F
100
AcDbEntity
  8
0-2
  6
Continuous
 62
     6
370
     5
100
AcDbLine
 10
-34.53383573895044
 20
281.3014239796776
 30
0.0
 11
-33.62430368536016
 21
271.1564032701427
 31
0.0
  0
LINE
  5
AF
330
1F
100
AcDbEntity
  8
0-2
  6
Continuous
 62
     6
370
     5
100
AcDbLine
 10
-46.7715184202365
 20
279.1435583154645
 30
0.0
 11
-44.15633506497139
 21
269.2991880663091
 31
0.0
  0
LINE
  5
B0
330
1F
100
AcDbEntity
  8
0-2
  6
Continuous
 62
     6
370
     5
100
AcDbLine
 10
10.034869933973
 20
244.9532391510853
 30
0.0
 11
17.88309553122198
 21
248.5925564905366
 31
0.0
  0
LINE
  5
B1
330
1F
100
AcDbEntity
  8
0-2
  6
Continuous
 62
     6
370
     5
100
AcDbLine
 10
21.0215930200612
 20
239.9694177093171
 30
0.0
 11
12.67026841577634
 21
237.7124582875627
 31
0.0
  0
LINE
  5
B2
330
1F
100
AcDbEntity
  8
0-2
  6
Continuous
 62
     6
370
     5
100
AcDbLine
 10
22.89456413134402
 20
238.921798504593
 30
0.0
 11
13.06149057054844
 21
236.2645003023732
 31
0.0
  0
LINE
  5
B3
330
1F
100
AcDbEntity
  8
0-2
  6
Continuous
 62
     6
370
     5
100
AcDbLine
 10
9.40384088595155
 20
246.3141928171536
 30
0.0
 11
18.64443287040953
 21
250.5990068932275
 31
0.0
  0
LINE
  5
B4
330
1F
100
AcDbEntity
  8
0-2
  6
Continuous
 62
     6
370
     5
100
AcDbLine
 10
7.166502028190365
 20
263.9671511605416
 30
0.0
 11
1.036215358551171
 21
257.8631738835298
 31
0.0
  0
LINE
  5
B5
330
1F
100
AcDbEntity
  8
0-2
  6
Continuous
 62
     6
370
     5
100
AcDbLine
 10
13.0649588520624
 20
256.9376381880966
 30
0.0
 11
5.989169094845547
 21
251.9605551218411
 31
0.0
  0
LINE
  5
B6
330
1F
100
AcDbEntity
  8
0-2
  6
Continuous
 62
     6
370
     5
100
AcDbLine
 10
15.18328610701664
 20
256.593782849429
 30
0.0
 11
6.852077535512844
 21
250.7335762159678
 31
0.0
  0
LINE
  5
B7
330
1F
100
AcDbEntity
  8
0-2
  6
Continuous
 62
     6
370
     5
100
AcDbLine
 10
7.195635592907447
 20
266.1131255738502
 30
0.0
 11
-0.0221555188656204
 21
258.9260535269146
 31
0.0
  0
LINE
  5
B8
330
1F
100
AcDbEntity
  8
0-2
  6
Continuous
 62
     6
370
     5
100
AcDbLine
 10
-27.02688904267271
 20
271.0224285099471
 30
0.0
 11
-26.25440365576142
 21
279.6388289156545
 31
0.0
  0
LINE
  5
B9
330
1F
100
AcDbEntity
  8
0-2
  6
Continuous
 62
     6
370
     5
100
AcDbLine
 10
-17.21749888992909
 20
278.0452031068795
 30
0.0
 11
-19.43868546521108
 21
269.6844645956285
 31
0.0
  0
LINE
  5
BA
330
1F
100
AcDbEntity
  8
0-2
  6
Continuous
 62
     6
370
     5
100
AcDbLine
 10
-27.61144311840703
 20
281.3014239796776
 30
0.0
 11
-28.52092562511863
 21
271.1564032701427
 31
0.0
  0
LINE
  5
BB
330
1F
100
AcDbEntity
  8
0-2
  6
Continuous
 62
     6
370
     5
100
AcDbLine
 10
-15.37366134336336
 20
279.1435583154645
 30
0.0
 11
-17.9889437923861
 21
269.2991880663091
 31
0.0
  0
LINE
  5
BC
330
1F
100
AcDbEntity
  8
0-2
  6
Continuous
 62
     6
370
     5
100
AcDbLine
 10
-59.35474103406833
 20
230.8914385809836
 30
0.0
 11
-63.04122700210942
 21
229.6965660525539
 31
0.0
  0
LINE
  5
BD
330
1F
100
AcDbEntity
  8
0-2
  6
Continuous
 62
     6
370
     5
100
AcDbLine
 10
-49.52404572345349
 20
247.9008820629002
 30
0.0
 11
-53.11609534055802
 21
249.3551820485723
 31
0.0
  0
LINE
  5
BE
330
1F
100
AcDbEntity
  8
0-2
  6
Continuous
 62
     6
370
     5
100
AcDbLine
 10
-55.95191094698831
 20
240.240538229949
 30
0.0
 11
-58.00790822844957
 21
243.5254962924342
 31
0.0
  0
LINE
  5
BF
330
1F
100
AcDbEntity
  8
0-2
  6
Continuous
 62
     6
370
     5
100
AcDbLine
 10
-55.95191094698831
 20
240.240538229949
 30
0.0
 11
-49.22711127898188
 21
235.800741517081
 31
0.0
  0
LINE
  5
C0
330
1F
100
AcDbEntity
  8
0-2
  6
Continuous
 62
     6
370
     5
100
AcDbLine
 10
-51.34945183111668
 20
229.969668448337
 30
0.0
 11
-59.35474103406833
 21
230.8914385809836
 31
0.0
  0
LINE
  5
C1
330
1F
100
AcDbEntity
  8
0-2
  6
Continuous
 62
     6
370
     5
100
AcDbLine
 10
-40.90784350526147
 20
252.875586878975
 30
0.0
 11
-38.61010700227908
 21
245.1518230411971
 31
0.0
  0
LINE
  5
C2
330
1F
100
AcDbEntity
  8
0-2
  6
Continuous
 62
     6
370
     5
100
AcDbLine
 10
-43.9840605674864
 20
242.0491974925877
 30
0.0
 11
-49.52404572345349
 21
247.9008820629002
 31
0.0
  0
LINE
  5
C3
330
1F
100
AcDbEntity
  8
0-2
  6
Continuous
 62
     6
370
     5
100
AcDbLine
 10
-21.26166377581458
 20
252.8845053171536
 30
0.0
 11
-24.46620725405493
 21
245.4909218795029
 31
0.0
  0
LINE
  5
C4
330
1F
100
AcDbEntity
  8
0-2
  6
Continuous
 62
     6
370
     5
100
AcDbLine
 10
-30.5772201878523
 20
246.5682692114888
 30
0.0
 11
-31.05970769331966
 21
254.6121058861236
 31
0.0
  0
LINE
  5
C5
330
1F
100
AcDbEntity
  8
0-2
  6
Continuous
 62
     6
370
     5
100
AcDbLine
 10
-6.206200551970738
 20
240.2629334191534
 30
0.0
 11
-13.413537272323
 21
236.6588934573866
 31
0.0
  0
LINE
  5
C6
330
1F
100
AcDbEntity
  8
0-2
  6
Continuous
 62
     6
370
     5
100
AcDbLine
 10
-17.40225920086451
 20
241.4124210066294
 30
0.0
 11
-12.6014143823958
 21
247.8844324991488
 31
0.0
  0
LINE
  5
C7
330
1F
100
AcDbEntity
  8
0-2
  6
Continuous
 62
     6
370
     5
100
AcDbLine
 10
-10.62370116939192
 20
228.9939913115882
 30
0.0
 11
-2.786078604199847
 21
230.8658723915383
 31
0.0
  0
LINE
  5
C8
330
1F
100
AcDbEntity
  8
0-2
  6
Continuous
 62
     6
370
     5
100
AcDbLine
 10
-31.05970769331966
 20
254.6121058861236
 30
0.0
 11
-32.8766908315919
 21
258.0350024591058
 31
0.0
  0
LINE
  5
C9
330
1F
100
AcDbEntity
  8
0-2
  6
Continuous
 62
     6
370
     5
100
AcDbLine
 10
-40.90784350526147
 20
252.875586878975
 30
0.0
 11
-40.37120126129813
 21
256.7134881085386
 31
0.0
  0
LINE
  5
CA
330
1F
100
AcDbEntity
  8
0-2
  6
Continuous
 62
     6
370
     5
100
AcDbLine
 10
-12.6014143823958
 20
247.8844324991488
 30
0.0
 11
-11.79305705525476
 21
251.6743723500627
 31
0.0
  0
LINE
  5
CB
330
1F
100
AcDbEntity
  8
0-2
  6
Continuous
 62
     6
370
     5
100
AcDbLine
 10
-21.26166377581458
 20
252.8845053171536
 30
0.0
 11
-18.38363422867193
 21
255.4795726396379
 31
0.0
  0
LINE
  5
CC
330
1F
100
AcDbEntity
  8
0-2
  6
Continuous
 62
     6
370
     5
100
AcDbLine
 10
-2.786078604199847
 20
230.8658723915383
 30
0.0
 11
0.2694774095776609
 21
233.249671822945
 31
0.0
  0
LINE
  5
CD
330
1F
100
AcDbEntity
  8
0-2
  6
Continuous
 62
     6
370
     5
100
AcDbLine
 10
-6.206200551970738
 20
240.2629334191534
 30
0.0
 11
-2.333418319752496
 21
240.4008719296504
 31
0.0
  0
LINE
  5
CE
330
1F
100
AcDbEntity
  8
0-2
  6
Continuous
 62
     6
370
     5
100
AcDbLine
 10
-65.6162773855705
 20
269.3538878204714
 30
0.0
 11
-56.84880854649205
 21
257.6891652452874
 31
0.0
  0
LINE
  5
CF
330
1F
100
AcDbEntity
  8
0-2
  6
Continuous
 62
     6
370
     5
100
AcDbLine
 10
-51.44051899429692
 20
277.5382394432996
 30
0.0
 11
-45.72226416851336
 21
264.1130171716418
 31
0.0
  0
LINE
  5
D0
330
1F
100
AcDbEntity
  8
0-2
  6
Continuous
 62
     6
370
     5
100
AcDbLine
 10
-52.21909864729687
 20
275.538329228607
 30
0.0
 11
-47.10229338290846
 21
263.5251930019086
 31
0.0
  0
LINE
  5
D1
330
1F
100
AcDbEntity
  8
0-2
  6
Continuous
 62
     6
370
     5
100
AcDbLine
 10
-63.49502686476845
 20
269.0282657331919
 30
0.0
 11
-55.64982362712445
 21
258.5903238763654
 31
0.0
  0
LINE
  5
D2
330
1F
100
AcDbEntity
  8
0-2
  6
Continuous
 62
     6
370
     5
100
AcDbLine
 10
1.349797554289893
 20
269.0282657331919
 30
0.0
 11
-6.495455230232809
 21
258.5903238763654
 31
0.0
  0
LINE
  5
D3
330
1F
100
AcDbEntity
  8
0-2
  6
Continuous
 62
     6
370
     5
100
AcDbLine
 10
-9.926180210060839
 20
275.538329228607
 30
0.0
 11
-15.04303502132771
 21
263.5251930019086
 31
0.0
  0
LINE
  5
D4
330
1F
100
AcDbEntity
  8
0-2
  6
Continuous
 62
     6
370
     5
100
AcDbLine
 10
3.470998528213014
 20
269.3538878204714
 30
0.0
 11
-5.296321670229107
 21
257.6891652452874
 31
0.0
  0
LINE
  5
D5
330
1F
100
AcDbEntity
  8
0-2
  6
Continuous
 62
     6
370
     5
100
AcDbLine
 10
-10.70475986306056
 20
277.5382394432996
 30
0.0
 11
-16.42296514196542
 21
264.1130171716418
 31
0.0
  0
LINE
  5
D6
330
1F
100
AcDbEntity
  8
0-2
  6
Continuous
 62
     6
370
     5
100
AcDbLine
 10
-78.22308431369711
 20
231.2846426109064
 30
0.0
 11
-71.42589665580672
 21
230.5071529892398
 31
0.0
  0
LINE
  5
D7
330
1F
100
AcDbEntity
  8
0-2
  6
Continuous
 62
     6
370
     5
100
AcDbLine
 10
16.0778054563394
 20
231.2846426109064
 30
0.0
 11
9.280667345328167
 21
230.5071529892398
 31
0.0
  0
LINE
  5
D8
330
1F
100
AcDbEntity
  8
0-2
  6
Continuous
 62
     6
370
     5
100
AcDbLine
 10
17.43692588789335
 20
232.9500123001408
 30
0.0
 11
9.110226082357567
 21
231.9975231026565
 31
0.0
  0
LINE
  5
D9
330
1F
100
AcDbEntity
  8
0-2
  6
Continuous
 62
     6
370
     5
100
AcDbLine
 10
-79.58215519837212
 20
232.9500123001408
 30
0.0
 11
-71.25540584595741
 21
231.9975231026565
 31
0.0
  0
ARC
  5
DA
330
1F
100
AcDbEntity
  8
0-2
  6
Continuous
 62
     6
370
     5
100
AcDbCircle
 10
-31.07258988179993
 20
225.8913657629788
 30
0.0
 40
67.49999829885122
100
AcDbArc
 50
5.176589965820312
 51
8.519622802734373
  0
ARC
  5
DB
330
1F
100
AcDbEntity
  8
0-2
  6
Continuous
 62
     6
370
     5
100
AcDbCircle
 10
-31.07258988179993
 20
225.8913657629788
 30
0.0
 40
67.49999829885122
100
AcDbArc
 50
171.4803771972656
 51
174.8234100341797
  0
ARC
  5
DC
330
1F
100
AcDbEntity
  8
0-2
  6
Continuous
 62
     6
370
     5
100
AcDbCircle
 10
-31.07258988179993
 20
225.8913657629788
 30
0.0
 40
57.50000130347764
100
AcDbArc
 50
11.02891540527344
 51
168.9710845947266
  0
ARC
  5
DD
330
1F
100
AcDbEntity
  8
0-2
  6
Continuous
 62
     6
370
     5
100
AcDbCircle
 10
-31.07258988179993
 20
225.8913657629788
 30
0.0
 40
68.50000295307646
100
AcDbArc
 50
4.248016357421876
 51
175.7519836425781
  0
ARC
  5
DE
330
1F
100
AcDbEntity
  8
0-2
  6
Continuous
 62
     6
370
     5
100
AcDbCircle
 10
-38.96956960775915
 20
270.6771858586745
 30
0.0
 40
3.866672095644888
100
AcDbArc
 50
194.8774108886719
 51
5.122985839843767
  0
ARC
  5
DF
330
1F
100
AcDbEntity
  8
0-2
  6
Continuous
 62
     6
370
     5
100
AcDbCircle
 10
-38.96956960775915
 20
270.6771858586745
 30
0.0
 40
5.366672109452914
100
AcDbArc
 50
194.8774108886719
 51
5.122985839843767
  0
ARC
  5
E0
330
1F
100
AcDbEntity
  8
0-2
  6
Continuous
 62
     6
370
     5
100
AcDbCircle
 10
-65.90974354852816
 20
255.1232314875202
 30
0.0
 40
3.866672095644888
100
AcDbArc
 50
234.8774108886718
 51
45.12298583984372
  0
ARC
  5
E1
330
1F
100
AcDbEntity
  8
0-2
  6
Continuous
 62
     6
370
     5
100
AcDbCircle
 10
-73.80672327448738
 20
241.4453201341331
 30
0.0
 40
3.866672095644888
100
AcDbArc
 50
254.8774108886719
 51
65.12298583984375
  0
ARC
  5
E2
330
1F
100
AcDbEntity
  8
0-2
  6
Continuous
 62
     6
370
     5
100
AcDbCircle
 10
-73.80672327448738
 20
241.4453201341331
 30
0.0
 40
5.366672109452914
100
AcDbArc
 50
254.8774108886719
 51
65.12298583984375
  0
ARC
  5
E3
330
1F
100
AcDbEntity
  8
0-2
  6
Continuous
 62
     6
370
     5
100
AcDbCircle
 10
-84.51806480836912
 20
240.8525412765226
 30
0.0
 40
2.000000018410701
100
AcDbArc
 50
164.3614196777344
 51
254.8771667480469
  0
ARC
  5
E4
330
1F
100
AcDbEntity
  8
0-2
  6
Continuous
 62
     6
370
     5
100
AcDbCircle
 10
-82.64504415020761
 20
241.9001604812461
 30
0.0
 40
2.000000018410701
100
AcDbArc
 50
162.7549438476562
 51
254.8773040771485
  0
ARC
  5
E5
330
1F
100
AcDbEntity
  8
0-2
  6
Continuous
 62
     6
370
     5
100
AcDbCircle
 10
-81.63101772929022
 20
248.7844020051362
 30
0.0
 40
2.000000018410701
100
AcDbArc
 50
65.12277221679688
 51
155.6386566162109
  0
ARC
  5
E6
330
1F
100
AcDbEntity
  8
0-2
  6
Continuous
 62
     6
370
     5
100
AcDbCircle
 10
-80.86968039010266
 20
246.7779516024453
 30
0.0
 40
2.000000018410701
100
AcDbArc
 50
65.12322998046875
 51
157.245101928711
  0
ARC
  5
E7
330
1F
100
AcDbEntity
  8
0-2
  6
Continuous
 62
     6
370
     5
100
AcDbCircle
 10
-31.07258988179993
 20
225.8913657629788
 30
0.0
 40
56.00000051549962
100
AcDbArc
 50
157.2450714111328
 51
162.7548675537109
  0
ARC
  5
E8
330
1F
100
AcDbEntity
  8
0-2
  6
Continuous
 62
     6
370
     5
100
AcDbCircle
 10
-76.17788825180779
 20
258.2296225989163
 30
0.0
 40
2.000000018410701
100
AcDbArc
 50
144.3614196777344
 51
234.8771667480469
  0
ARC
  5
E9
330
1F
100
AcDbEntity
  8
0-2
  6
Continuous
 62
     6
370
     5
100
AcDbCircle
 10
-74.05951144997461
 20
258.5734779375836
 30
0.0
 40
2.000000018410701
100
AcDbArc
 50
142.7549438476562
 51
234.8773040771484
  0
ARC
  5
EA
330
1F
100
AcDbEntity
  8
0-2
  6
Continuous
 62
     6
370
     5
100
AcDbCircle
 10
-70.75210865140652
 20
264.6958866534983
 30
0.0
 40
2.000000018410701
100
AcDbArc
 50
45.12277221679688
 51
135.6386566162109
  0
ARC
  5
EB
330
1F
100
AcDbEntity
  8
0-2
  6
Continuous
 62
     6
370
     5
100
AcDbCircle
 10
-70.72287599293203
 20
262.5501104277051
 30
0.0
 40
2.000000018410701
100
AcDbArc
 50
45.12322998046876
 51
137.2451019287109
  0
ARC
  5
EC
330
1F
100
AcDbEntity
  8
0-2
  6
Continuous
 62
     6
370
     5
100
AcDbCircle
 10
-31.07258988179993
 20
225.8913657629788
 30
0.0
 40
56.00000051549962
100
AcDbArc
 50
137.2450408935547
 51
142.7548522949219
  0
ARC
  5
ED
330
1F
100
AcDbEntity
  8
0-2
  6
Continuous
 62
     6
370
     5
100
AcDbCircle
 10
-42.99480758595419
 20
278.5589051459725
 30
0.0
 40
2.000000018410701
100
AcDbArc
 50
102.7550964355469
 51
194.8775787353516
  0
ARC
  5
EE
330
1F
100
AcDbEntity
  8
0-2
  6
Continuous
 62
     6
370
     5
100
AcDbCircle
 10
-37.88280836880668
 20
279.4602619645653
 30
0.0
 40
2.000000018410701
100
AcDbArc
 50
5.123016357421876
 51
97.24507141113283
  0
ARC
  5
EF
330
1F
100
AcDbEntity
  8
0-2
  6
Continuous
 62
     6
370
     5
100
AcDbCircle
 10
-31.07258988179993
 20
225.8913657629788
 30
0.0
 40
56.00000051549962
100
AcDbArc
 50
97.24513244628906
 51
102.7549285888672
  0
ARC
  5
F0
330
1F
100
AcDbEntity
  8
0-2
  6
Continuous
 62
     6
370
     5
100
AcDbCircle
 10
-44.83859558564145
 20
279.6570621670417
 30
0.0
 40
2.000000018410701
100
AcDbArc
 50
104.3613433837891
 51
194.8773345947265
  0
ARC
  5
F1
330
1F
100
AcDbEntity
  8
0-2
  6
Continuous
 62
     6
370
     5
100
AcDbCircle
 10
-36.52586799991869
 20
281.1226588410737
 30
0.0
 40
2.000000018410701
100
AcDbArc
 50
5.122970581054688
 51
95.6388244628906
  0
ARC
  5
F2
330
1F
100
AcDbEntity
  8
0-2
  6
Continuous
 62
     6
370
     5
100
AcDbCircle
 10
-31.07258988179993
 20
225.8913657629788
 30
0.0
 40
56.00000051549962
100
AcDbArc
 50
115.1934509277344
 51
124.8065795898437
  0
ARC
  5
F3
330
1F
100
AcDbEntity
  8
0-2
  6
Continuous
 62
     6
370
     5
100
AcDbCircle
 10
-64.01744915452483
 20
270.5554987244141
 30
0.0
 40
2.000000018410701
100
AcDbArc
 50
126.4130859375
 51
216.9291534423828
  0
ARC
  5
F4
330
1F
100
AcDbEntity
  8
0-2
  6
Continuous
 62
     6
370
     5
100
AcDbCircle
 10
-61.8962481806017
 20
270.2298766371342
 30
0.0
 40
2.000000018410701
100
AcDbArc
 50
124.8065338134766
 51
216.9289398193359
  0
ARC
  5
F5
330
1F
100
AcDbEntity
  8
0-2
  6
Continuous
 62
     6
370
     5
100
AcDbCircle
 10
-53.28054143119734
 20
276.7544078211505
 30
0.0
 40
2.000000018410701
100
AcDbArc
 50
23.07093811035156
 51
113.5871276855469
  0
ARC
  5
F6
330
1F
100
AcDbEntity
  8
0-2
  6
Continuous
 62
     6
370
     5
100
AcDbCircle
 10
-54.059170631076
 20
274.7546957939722
 30
0.0
 40
2.000000018410701
100
AcDbArc
 50
23.07093811035156
 51
115.1936492919922
  0
ARC
  5
F7
330
1F
100
AcDbEntity
  8
0-2
  6
Continuous
 62
     6
370
     5
100
AcDbCircle
 10
-23.17575879647703
 20
270.6771858586745
 30
0.0
 40
3.866672095644888
100
AcDbArc
 50
174.8770141601562
 51
345.1225891113281
  0
ARC
  5
F8
330
1F
100
AcDbEntity
  8
0-2
  6
Continuous
 62
     6
370
     5
100
AcDbCircle
 10
-23.17575879647703
 20
270.6771858586745
 30
0.0
 40
5.366672109452914
100
AcDbArc
 50
174.8770141601562
 51
345.1225891113281
  0
ARC
  5
F9
330
1F
100
AcDbEntity
  8
0-2
  6
Continuous
 62
     6
370
     5
100
AcDbCircle
 10
3.764563784928296
 20
255.1232314875202
 30
0.0
 40
3.866672095644888
100
AcDbArc
 50
134.8768768310547
 51
305.1224517822266
  0
ARC
  5
FA
330
1F
100
AcDbEntity
  8
0-2
  6
Continuous
 62
     6
370
     5
100
AcDbCircle
 10
3.764563784928296
 20
255.1232314875202
 30
0.0
 40
5.366672109452914
100
AcDbArc
 50
134.8769836425781
 51
305.12255859375
  0
ARC
  5
FB
330
1F
100
AcDbEntity
  8
0-2
  6
Continuous
 62
     6
370
     5
100
AcDbCircle
 10
11.66144441713013
 20
241.4453201341331
 30
0.0
 40
3.866672095644888
100
AcDbArc
 50
114.8769836425781
 51
285.12255859375
  0
ARC
  5
FC
330
1F
100
AcDbEntity
  8
0-2
  6
Continuous
 62
     6
370
     5
100
AcDbCircle
 10
11.66144441713013
 20
241.4453201341331
 30
0.0
 40
5.366672109452914
100
AcDbArc
 50
114.8769836425781
 51
285.12255859375
  0
ARC
  5
FD
330
1F
100
AcDbEntity
  8
0-2
  6
Continuous
 62
     6
370
     5
100
AcDbCircle
 10
22.37283549789058
 20
240.8525412765226
 30
0.0
 40
2.000000018410701
100
AcDbArc
 50
285.1228332519532
 51
15.63858032226567
  0
ARC
  5
FE
330
1F
100
AcDbEntity
  8
0-2
  6
Continuous
 62
     6
370
     5
100
AcDbCircle
 10
20.49976529285012
 20
241.9001604812461
 30
0.0
 40
2.000000018410701
100
AcDbArc
 50
285.1226959228515
 51
17.24505615234374
  0
ARC
  5
FF
330
1F
100
AcDbEntity
  8
0-2
  6
Continuous
 62
     6
370
     5
100
AcDbCircle
 10
19.48573887193296
 20
248.7844020051362
 30
0.0
 40
2.000000018410701
100
AcDbArc
 50
24.361328125
 51
114.877212524414
  0
ARC
  5
100
330
1F
100
AcDbEntity
  8
0-2
  6
Continuous
 62
     6
370
     5
100
AcDbCircle
 10
18.72440153274519
 20
246.7779516024453
 30
0.0
 40
2.000000018410701
100
AcDbArc
 50
22.75489807128907
 51
114.8767700195312
  0
ARC
  5
101
330
1F
100
AcDbEntity
  8
0-2
  6
Continuous
 62
     6
370
     5
100
AcDbCircle
 10
-31.07258988179993
 20
225.8913657629788
 30
0.0
 40
56.00000051549962
100
AcDbArc
 50
17.24513244628907
 51
22.75492858886719
  0
ARC
  5
102
330
1F
100
AcDbEntity
  8
0-2
  6
Continuous
 62
     6
370
     5
100
AcDbCircle
 10
14.03251030069268
 20
258.2296225989163
 30
0.0
 40
2.000000018410701
100
AcDbArc
 50
305.1229858398438
 51
35.63873291015626
  0
ARC
  5
103
330
1F
100
AcDbEntity
  8
0-2
  6
Continuous
 62
     6
370
     5
100
AcDbCircle
 10
11.91418304573844
 20
258.5734779375836
 30
0.0
 40
2.000000018410701
100
AcDbArc
 50
305.1228485107422
 51
37.24520874023438
  0
ARC
  5
104
330
1F
100
AcDbEntity
  8
0-2
  6
Continuous
 62
     6
370
     5
100
AcDbCircle
 10
8.606730700291648
 20
264.6958866534983
 30
0.0
 40
2.000000018410701
100
AcDbArc
 50
44.36149597167969
 51
134.8773803710938
  0
ARC
  5
105
330
1F
100
AcDbEntity
  8
0-2
  6
Continuous
 62
     6
370
     5
100
AcDbCircle
 10
8.57759713557456
 20
262.5501104277051
 30
0.0
 40
2.000000018410701
100
AcDbArc
 50
42.75505065917969
 51
134.8769226074219
  0
ARC
  5
106
330
1F
100
AcDbEntity
  8
0-2
  6
Continuous
 62
     6
370
     5
100
AcDbCircle
 10
-31.07258988179993
 20
225.8913657629788
 30
0.0
 40
56.00000051549962
100
AcDbArc
 50
37.2451171875
 51
42.75494384765624
  0
ARC
  5
107
330
1F
100
AcDbEntity
  8
0-2
  6
Continuous
 62
     6
370
     5
100
AcDbCircle
 10
-19.15047127140306
 20
278.5589051459725
 30
0.0
 40
2.000000018410701
100
AcDbArc
 50
345.1224212646484
 51
77.24490356445314
  0
ARC
  5
108
330
1F
100
AcDbEntity
  8
0-2
  6
Continuous
 62
     6
370
     5
100
AcDbCircle
 10
-24.26242094167188
 20
279.4602619645653
 30
0.0
 40
2.000000018410701
100
AcDbArc
 50
82.75492858886719
 51
174.8769836425781
  0
ARC
  5
109
330
1F
100
AcDbEntity
  8
0-2
  6
Continuous
 62
     6
370
     5
100
AcDbCircle
 10
-31.07258988179993
 20
225.8913657629788
 30
0.0
 40
56.00000051549962
100
AcDbArc
 50
77.24507141113281
 51
82.75486755371094
  0
ARC
  5
10A
330
1F
100
AcDbEntity
  8
0-2
  6
Continuous
 62
     6
370
     5
100
AcDbCircle
 10
-17.30663372483733
 20
279.6570621670417
 30
0.0
 40
2.000000018410701
100
AcDbArc
 50
345.1226654052734
 51
75.63865661621094
  0
ARC
  5
10B
330
1F
100
AcDbEntity
  8
0-2
  6
Continuous
 62
     6
370
     5
100
AcDbCircle
 10
-25.61936131055987
 20
281.1226588410737
 30
0.0
 40
2.000000018410701
100
AcDbArc
 50
84.36117553710938
 51
174.8770294189453
  0
ARC
  5
10C
330
1F
100
AcDbEntity
  8
0-2
  6
Continuous
 62
     6
370
     5
100
AcDbCircle
 10
-31.07258988179993
 20
225.8913657629788
 30
0.0
 40
56.00000051549962
100
AcDbArc
 50
55.19342041015626
 51
64.80654907226562
  0
ARC
  5
10D
330
1F
100
AcDbEntity
  8
0-2
  6
Continuous
 62
     6
370
     5
100
AcDbCircle
 10
1.87217029716734
 20
270.5554987244141
 30
0.0
 40
2.000000018410701
100
AcDbArc
 50
323.0708465576172
 51
53.58691406250004
  0
ARC
  5
10E
330
1F
100
AcDbEntity
  8
0-2
  6
Continuous
 62
     6
370
     5
100
AcDbCircle
 10
-0.2489315829983845
 20
270.2298766371342
 30
0.0
 40
2.000000018410701
100
AcDbArc
 50
323.0710601806641
 51
55.19346618652345
  0
ARC
  5
10F
330
1F
100
AcDbEntity
  8
0-2
  6
Continuous
 62
     6
370
     5
100
AcDbCircle
 10
-8.864737426159905
 20
276.7544078211505
 30
0.0
 40
2.000000018410701
100
AcDbArc
 50
66.41287231445311
 51
156.9290618896484
  0
ARC
  5
110
330
1F
100
AcDbEntity
  8
0-2
  6
Continuous
 62
     6
370
     5
100
AcDbCircle
 10
-8.086157773160181
 20
274.7546957939722
 30
0.0
 40
2.000000018410701
100
AcDbArc
 50
64.80635070800783
 51
156.9290618896485
  0
ARC
  5
111
330
1F
100
AcDbEntity
  8
0-2
  6
Continuous
 62
     6
370
     5
100
AcDbCircle
 10
-65.90974354852816
 20
255.1232314875202
 30
0.0
 40
5.366672109452914
100
AcDbArc
 50
234.8774108886718
 51
45.12298583984372
  0
ARC
  5
112
330
1F
100
AcDbEntity
  8
0-2
  6
Continuous
 62
     6
370
     5
100
AcDbCircle
 10
-54.61721712666841
 20
245.6476882039325
 30
0.0
 40
4.000000036821402
100
AcDbArc
 50
67.95877075195314
 51
212.0412292480469
  0
ARC
  5
113
330
1F
100
AcDbEntity
  8
0-2
  6
Continuous
 62
     6
370
     5
100
AcDbCircle
 10
-53.43269989590171
 20
234.029737882308
 30
0.0
 40
3.795105500110788
100
AcDbArc
 50
263.4327392578124
 51
56.56715393066409
  0
ARC
  5
114
330
1F
100
AcDbEntity
  8
0-2
  6
Continuous
 62
     6
370
     5
100
AcDbCircle
 10
-50.98458861585063
 20
233.1386868144992
 30
0.0
 40
3.189902762648682
100
AcDbArc
 50
263.4328308105469
 51
56.56716918945317
  0
ARC
  5
115
330
1F
100
AcDbEntity
  8
0-2
  6
Continuous
 62
     6
370
     5
100
AcDbCircle
 10
-31.07258988179993
 20
225.8913657629788
 30
0.0
 40
23.33629965137791
100
AcDbArc
 50
150.8250579833985
 51
169.1749267578125
  0
ARC
  5
116
330
1F
100
AcDbEntity
  8
0-2
  6
Continuous
 62
     6
370
     5
100
AcDbCircle
 10
-31.07258988179993
 20
225.8913657629788
 30
0.0
 40
24.10550875093026
100
AcDbArc
 50
150.68896484375
 51
169.3110504150391
  0
ARC
  5
117
330
1F
100
AcDbEntity
  8
0-2
  6
Continuous
 62
     6
370
     5
100
AcDbCircle
 10
-42.97018278720535
 20
246.49850720618
 30
0.0
 40
3.795105500110788
100
AcDbArc
 50
223.4327545166016
 51
16.56716918945316
  0
ARC
  5
118
330
1F
100
AcDbEntity
  8
0-2
  6
Continuous
 62
     6
370
     5
100
AcDbCircle
 10
-41.66759534432859
 20
244.2423405344858
 30
0.0
 40
3.189902762648682
100
AcDbArc
 50
223.4328308105469
 51
16.56716918945314
  0
ARC
  5
119
330
1F
100
AcDbEntity
  8
0-2
  6
Continuous
 62
     6
370
     5
100
AcDbCircle
 10
-31.07258988179993
 20
225.8913657629788
 30
0.0
 40
23.33629965137791
100
AcDbArc
 50
110.8250579833984
 51
129.1749267578125
  0
ARC
  5
11A
330
1F
100
AcDbEntity
  8
0-2
  6
Continuous
 62
     6
370
     5
100
AcDbCircle
 10
-31.07258988179993
 20
225.8913657629788
 30
0.0
 40
24.10550875093026
100
AcDbArc
 50
110.68896484375
 51
129.3110504150391
  0
ARC
  5
11B
330
1F
100
AcDbEntity
  8
0-2
  6
Continuous
 62
     6
370
     5
100
AcDbCircle
 10
-26.94067747361182
 20
249.3250575462799
 30
0.0
 40
3.795105500110788
100
AcDbArc
 50
183.4327545166015
 51
336.5671691894531
  0
ARC
  5
11C
330
1F
100
AcDbEntity
  8
0-2
  6
Continuous
 62
     6
370
     5
100
AcDbCircle
 10
-27.39304047678676
 20
246.759321976028
 30
0.0
 40
3.189902762648682
100
AcDbArc
 50
183.4328308105469
 51
336.5671691894531
  0
ARC
  5
11D
330
1F
100
AcDbEntity
  8
0-2
  6
Continuous
 62
     6
370
     5
100
AcDbCircle
 10
-31.07258988179993
 20
225.8913657629788
 30
0.0
 40
23.33629965137791
100
AcDbArc
 50
70.82505798339844
 51
89.1749267578125
  0
ARC
  5
11E
330
1F
100
AcDbEntity
  8
0-2
  6
Continuous
 62
     6
370
     5
100
AcDbCircle
 10
-31.07258988179993
 20
225.8913657629788
 30
0.0
 40
24.10550875093026
100
AcDbArc
 50
70.68896484375001
 51
89.31105041503908
  0
ARC
  5
11F
330
1F
100
AcDbEntity
  8
0-2
  6
Continuous
 62
     6
370
     5
100
AcDbCircle
 10
-12.84449136964386
 20
241.1864872394358
 30
0.0
 40
3.795105500110788
100
AcDbArc
 50
143.4327545166016
 51
296.5671691894532
  0
ARC
  5
120
330
1F
100
AcDbEntity
  8
0-2
  6
Continuous
 62
     6
370
     5
100
AcDbCircle
 10
-14.84023964652002
 20
239.5120009245075
 30
0.0
 40
3.189902762648682
100
AcDbArc
 50
143.4328308105469
 51
296.5671691894532
  0
ARC
  5
121
330
1F
100
AcDbEntity
  8
0-2
  6
Continuous
 62
     6
370
     5
100
AcDbCircle
 10
-31.07258988179993
 20
225.8913657629788
 30
0.0
 40
23.33629965137791
100
AcDbArc
 50
30.82505798339843
 51
49.1749267578125
  0
ARC
  5
122
330
1F
100
AcDbEntity
  8
0-2
  6
Continuous
 62
     6
370
     5
100
AcDbCircle
 10
-31.07258988179993
 20
225.8913657629788
 30
0.0
 40
24.10550875093026
100
AcDbArc
 50
30.68896484375
 51
49.31105041503906
  0
ARC
  5
123
330
1F
100
AcDbEntity
  8
0-2
  6
Continuous
 62
     6
370
     5
100
AcDbCircle
 10
-36.40977966295932
 20
256.1597521913996
 30
0.0
 40
4.000000036821402
100
AcDbArc
 50
27.95877075195312
 51
172.0412292480469
  0
ARC
  5
124
330
1F
100
AcDbEntity
  8
0-2
  6
Continuous
 62
     6
370
     5
100
AcDbCircle
 10
-15.70503086858062
 20
252.5089399760732
 30
0.0
 40
4.000000036821402
100
AcDbArc
 50
347.9587707519531
 51
132.0412292480469
  0
ARC
  5
125
330
1F
100
AcDbEntity
  8
0-2
  6
Continuous
 62
     6
370
     5
100
AcDbCircle
 10
-2.190921496408381
 20
236.4034297504455
 30
0.0
 40
4.000000036821402
100
AcDbArc
 50
307.9587707519531
 51
92.04122924804685
  0
ARC
  5
126
330
1F
100
AcDbEntity
  8
0-2
  6
Continuous
 62
     6
370
     5
100
AcDbCircle
 10
-7.277552711625422
 20
225.8913657629788
 30
0.0
 40
3.795105500110788
100
AcDbArc
 50
103.4327545166016
 51
179.9997406005859
  0
ARC
  5
127
330
1F
100
AcDbEntity
  8
0-2
  6
Continuous
 62
     6
370
     5
100
AcDbCircle
 10
-31.07258988179993
 20
225.8913657629788
 30
0.0
 40
28.72067509286652
100
AcDbArc
 50
30.02572631835938
 51
49.97424316406251
  0
ARC
  5
128
330
1F
100
AcDbEntity
  8
0-2
  6
Continuous
 62
     6
370
     5
100
AcDbCircle
 10
-31.07258988179993
 20
225.8913657629788
 30
0.0
 40
28.72067509286652
100
AcDbArc
 50
70.02571105957031
 51
89.9742431640625
  0
ARC
  5
129
330
1F
100
AcDbEntity
  8
0-2
  6
Continuous
 62
     6
370
     5
100
AcDbCircle
 10
-31.07258988179993
 20
225.8913657629788
 30
0.0
 40
28.72067509286652
100
AcDbArc
 50
110.0257263183594
 51
129.9742584228516
  0
ARC
  5
12A
330
1F
100
AcDbEntity
  8
0-2
  6
Continuous
 62
     6
370
     5
100
AcDbCircle
 10
-31.07258988179993
 20
225.8913657629788
 30
0.0
 40
28.72067509286652
100
AcDbArc
 50
150.0257263183594
 51
169.9742431640625
  0
ARC
  5
12B
330
1F
100
AcDbEntity
  8
0-2
  6
Continuous
 62
     6
370
     5
100
AcDbCircle
 10
-51.67586666845673
 20
261.5772079161671
 30
0.0
 40
6.471205194484313
100
AcDbArc
 50
216.9291076660156
 51
23.07086181640629
  0
ARC
  5
12C
330
1F
100
AcDbEntity
  8
0-2
  6
Continuous
 62
     6
370
     5
100
AcDbCircle
 10
-51.67586666845673
 20
261.5772079161671
 30
0.0
 40
4.971205180676287
100
AcDbArc
 50
216.9291076660156
 51
23.07086181640629
  0
ARC
  5
12D
330
1F
100
AcDbEntity
  8
0-2
  6
Continuous
 62
     6
370
     5
100
AcDbCircle
 10
-10.46941218890052
 20
261.5772079161671
 30
0.0
 40
6.471205194484313
100
AcDbArc
 50
156.9291381835938
 51
323.0708923339844
  0
ARC
  5
12E
330
1F
100
AcDbEntity
  8
0-2
  6
Continuous
 62
     6
370
     5
100
AcDbCircle
 10
-10.46941218890052
 20
261.5772079161671
 30
0.0
 40
4.971205180676287
100
AcDbArc
 50
156.9291381835938
 51
323.0708923339844
  0
ARC
  5
12F
330
1F
100
AcDbEntity
  8
0-2
  6
Continuous
 62
     6
370
     5
100
AcDbCircle
 10
-79.80947627817127
 20
230.9629842739283
 30
0.0
 40
2.000000018410701
100
AcDbArc
 50
83.47491455078125
 51
174.0593719482422
  0
ARC
  5
130
330
1F
100
AcDbEntity
  8
0-2
  6
Continuous
 62
     6
370
     5
100
AcDbCircle
 10
-78.45035584661733
 20
229.2976145846938
 30
0.0
 40
2.000000018410701
100
AcDbArc
 50
83.47491455078125
 51
175.8875579833984
  0
ARC
  5
131
330
1F
100
AcDbEntity
  8
0-2
  6
Continuous
 62
     6
370
     5
100
AcDbCircle
 10
17.66419742081379
 20
230.9629842739283
 30
0.0
 40
2.000000018410701
100
AcDbArc
 50
5.940628051757813
 51
96.52508544921874
  0
ARC
  5
132
330
1F
100
AcDbEntity
  8
0-2
  6
Continuous
 62
     6
370
     5
100
AcDbCircle
 10
16.30502744238114
 20
229.2976145846938
 30
0.0
 40
2.000000018410701
100
AcDbArc
 50
4.112442016601562
 51
96.52508544921874
  0
ARC
  5
133
330
1F
100
AcDbEntity
  8
0-2
  6
Continuous
 62
     6
370
     5
100
AcDbCircle
 10
-97.301407265555
 20
231.8912945945727
 30
0.0
 40
1.00000000920535
100
AcDbArc
 50
174.82373046875
 51
244.3008422851562
  0
ARC
  5
134
330
1F
100
AcDbEntity
  8
0-2
  6
Continuous
 62
     6
370
     5
100
AcDbCircle
 10
-98.38717756693214
 20
230.8914385809836
 30
0.0
 40
1.00000000920535
100
AcDbArc
 50
175.7522430419922
 51
238.5513305664062
  0
ARC
  5
135
330
1F
100
AcDbEntity
  8
0-2
  6
Continuous
 62
     6
370
     5
100
AcDbCircle
 10
35.15612840819775
 20
231.8912945945727
 30
0.0
 40
1.00000000920535
100
AcDbArc
 50
295.6953582763672
 51
5.176269531250009
  0
ARC
  5
136
330
1F
100
AcDbEntity
  8
0-2
  6
Continuous
 62
     6
370
     5
100
AcDbCircle
 10
36.24194825645336
 20
230.8914385809836
 30
0.0
 40
1.00000000920535
100
AcDbArc
 50
301.4423522949219
 51
4.247756958007851
  0
ARC
  5
137
330
1F
100
AcDbEntity
  8
0-2
  6
Continuous
 62
     6
370
     5
100
AcDbCircle
 10
-31.07258988179993
 20
225.8913657629788
 30
0.0
 40
53.76800033392593
100
AcDbArc
 50
169.2814788818359
 51
180.0
  0
ARC
  5
138
330
1F
100
AcDbEntity
  8
0-2
  6
Continuous
 62
     6
370
     5
100
AcDbCircle
 10
-31.07258988179993
 20
225.8913657629788
 30
0.0
 40
51.00000821117268
100
AcDbArc
 50
174.0592193603516
 51
180.0
  0
ARC
  5
139
330
1F
100
AcDbEntity
  8
0-2
  6
Continuous
 62
     6
370
     5
100
AcDbCircle
 10
-31.07258988179993
 20
225.8913657629788
 30
0.0
 40
49.50000742319467
100
AcDbArc
 50
175.8876953125
 51
180.0
  0
ARC
  5
13A
330
1F
100
AcDbEntity
  8
0-2
  6
Continuous
 62
     6
370
     5
100
AcDbCircle
 10
-71.95391774286408
 20
225.8913657629788
 30
0.0
 40
4.645955469157244
100
AcDbArc
 50
0.0
 51
83.4747772216797
  0
ARC
  5
13B
330
1F
100
AcDbEntity
  8
0-2
  6
Continuous
 62
     6
370
     5
100
AcDbCircle
 10
-31.07258988179993
 20
225.8913657629788
 30
0.0
 40
53.76800033392593
100
AcDbArc
 50
0.0
 51
10.71852111816408
  0
ARC
  5
13C
330
1F
100
AcDbEntity
  8
0-2
  6
Continuous
 62
     6
370
     5
100
AcDbCircle
 10
-31.07258988179993
 20
225.8913657629788
 30
0.0
 40
51.00000821117268
100
AcDbArc
 50
0.0
 51
5.940780639648432
  0
ARC
  5
13D
330
1F
100
AcDbEntity
  8
0-2
  6
Continuous
 62
     6
370
     5
100
AcDbCircle
 10
-31.07258988179993
 20
225.8913657629788
 30
0.0
 40
49.50000742319467
100
AcDbArc
 50
0.0
 51
4.112304687500053
  0
ARC
  5
13E
330
1F
100
AcDbEntity
  8
0-2
  6
Continuous
 62
     6
370
     5
100
AcDbCircle
 10
9.808638885506836
 20
225.8913657629788
 30
0.0
 40
4.645955469157244
100
AcDbArc
 50
96.52522277832033
 51
180.0
  0
ARC
  5
13F
330
1F
100
AcDbEntity
  8
0-2
  6
Continuous
 62
     6
370
     5
100
AcDbCircle
 10
9.808638885506836
 20
225.8913657629788
 30
0.0
 40
6.145956257135251
100
AcDbArc
 50
96.52522277832033
 51
180.0
  0
ARC
  5
140
330
1F
100
AcDbEntity
  8
0-2
  6
Continuous
 62
     6
370
     5
100
AcDbCircle
 10
-31.07258988179993
 20
225.8913657629788
 30
0.0
 40
28.72067509286652
100
AcDbArc
 50
0.0
 51
9.974258422851554
  0
ARC
  5
141
330
1F
100
AcDbEntity
  8
0-2
  6
Continuous
 62
     6
370
     5
100
AcDbCircle
 10
-31.07258988179993
 20
225.8913657629788
 30
0.0
 40
23.33629965137791
100
AcDbArc
 50
0.0
 51
9.174926757812479
  0
ARC
  5
142
330
1F
100
AcDbEntity
  8
0-2
  6
Continuous
 62
     6
370
     5
100
AcDbCircle
 10
-31.07258988179993
 20
225.8913657629788
 30
0.0
 40
24.10550875093026
100
AcDbArc
 50
0.0
 51
9.311050415039086
  0
ARC
  5
143
330
1F
100
AcDbEntity
  8
0-2
  6
Continuous
 62
     6
370
     5
100
AcDbCircle
 10
-9.882727597378935
 20
225.8913657629788
 30
0.0
 40
3.189902762648682
100
AcDbArc
 50
103.4328308105469
 51
180.0
  0
ARC
  5
144
330
1F
100
AcDbEntity
  8
0-2
  6
Continuous
 62
     6
370
     5
100
AcDbCircle
 10
-71.95391774286408
 20
225.8913657629788
 30
0.0
 40
6.145956257135251
100
AcDbArc
 50
0.0
 51
83.4747772216797
  0
ARC
  5
145
330
1F
100
AcDbEntity
  8
0-2
  6
Continuous
 62
     6
370
     5
100
AcDbCircle
 10
-31.07258988179993
 20
225.8913657629788
 30
0.0
 40
34.73529147733593
100
AcDbArc
 50
0.0
 51
180.0
  0
ARC
  5
146
330
1F
100
AcDbEntity
  8
0-0
  6
Continuous
 62
     3
370
     9
100
AcDbCircle
 10
-31.07258988179993
 20
225.8913657629788
 30
0.0
 40
155.0000277486087
100
AcDbArc
 50
0.0
 51
180.0
  0
ARC
  5
147
330
1F
100
AcDbEntity
  8
0-0
  6
Continuous
 62
     3
370
     9
100
AcDbCircle
 10
-31.07258988179993
 20
225.8913657629788
 30
0.0
 40
154.0000354811031
100
AcDbArc
 50
0.0
 51
180.0
  0
LINE
  5
148
330
1F
100
AcDbEntity
  8
0-0
  6
JWW_CENTER1
 62
     3
370
     9
100
AcDbLine
 10
-31.07258988179993
 20
214.3771645015067
 30
0.0
 11
-31.07258988179993
 21
400.8007268365239
 31
0.0
  0
ARC
  5
149
330
1F
100
AcDbEntity
  8
0-1
  6
Continuous
 62
     2
370
     9
100
AcDbCircle
 10
-31.07258988179993
 20
225.8913657629788
 30
0.0
 40
69.25504164530044
100
AcDbArc
 50
172.3096618652344
 51
178.5335998535157
  0
ARC
  5
14A
330
1F
100
AcDbEntity
  8
0-1
  6
Continuous
 62
     2
370
     9
100
AcDbCircle
 10
-31.07258988179993
 20
225.8913657629788
 30
0.0
 40
73.49999525740338
100
AcDbArc
 50
169.2914428710937
 51
180.0
  0
LINE
  5
14B
330
1F
100
AcDbEntity
  8
0-1
  6
Continuous
 62
     2
370
     9
100
AcDbLine
 10
-84.66080936610697
 20
271.7012207491035
 30
0.0
 11
-86.78835234051294
 21
273.8289619110242
 31
0.0
  0
LINE
  5
14C
330
1F
100
AcDbEntity
  8
0-1
  6
Continuous
 62
     2
370
     9
100
AcDbLine
 10
-82.60937039749288
 20
271.7711809419271
 30
0.0
 11
-86.5045478189153
 21
275.66635836335
 31
0.0
  0
LINE
  5
14D
330
1F
100
AcDbEntity
  8
0-1
  6
Continuous
 62
     2
370
     9
100
AcDbLine
 10
-97.53928183053235
 20
249.3950177391039
 30
0.0
 11
-100.4456521923318
 21
250.1736964858611
 31
0.0
  0
LINE
  5
14E
330
1F
100
AcDbEntity
  8
0-1
  6
Continuous
 62
     2
370
     9
100
AcDbLine
 10
-96.57410863208261
 20
247.5833856637387
 30
0.0
 11
-101.8949974901267
 21
249.0091466472391
 31
0.0
  0
LINE
  5
14F
330
1F
100
AcDbEntity
  8
0-1
  6
Continuous
 62
     2
370
     9
100
AcDbLine
 10
-101.8949974901267
 20
249.0091466472391
 30
0.0
 11
-100.4456521923318
 21
250.1736964858611
 31
0.0
  0
LINE
  5
150
330
1F
100
AcDbEntity
  8
0-1
  6
Continuous
 62
     2
370
     9
100
AcDbLine
 10
-97.53928183053235
 20
249.3950177391039
 30
0.0
 11
-96.57410863208261
 21
247.5833856637387
 31
0.0
  0
LINE
  5
151
330
1F
100
AcDbEntity
  8
0-1
  6
Continuous
 62
     2
370
     9
100
AcDbLine
 10
-84.66080936610697
 20
271.7012207491035
 30
0.0
 11
-82.60937039749288
 21
271.7711809419271
 31
0.0
  0
LINE
  5
152
330
1F
100
AcDbEntity
  8
0-1
  6
Continuous
 62
     2
370
     9
100
AcDbLine
 10
-86.5045478189153
 20
275.66635836335
 30
0.0
 11
-86.78835234051294
 21
273.8289619110242
 31
0.0
  0
LINE
  5
153
330
1F
100
AcDbEntity
  8
0-1
  6
Continuous
 62
     2
370
     9
100
AcDbLine
 10
-54.5763409516825
 20
292.3581072585899
 30
0.0
 11
-55.35506924531879
 21
295.264328979753
 31
0.0
  0
LINE
  5
154
330
1F
100
AcDbEntity
  8
0-1
  6
Continuous
 62
     2
370
     9
100
AcDbLine
 10
-52.76480797007517
 20
291.3929340601404
 30
0.0
 11
-54.19056895357554
 21
296.7136742775479
 31
0.0
  0
LINE
  5
155
330
1F
100
AcDbEntity
  8
0-1
  6
Continuous
 62
     2
370
     9
100
AcDbLine
 10
-76.88264305543944
 20
279.4794861535284
 30
0.0
 11
-79.01018602984541
 21
281.6070291279344
 31
0.0
  0
LINE
  5
156
330
1F
100
AcDbEntity
  8
0-1
  6
Continuous
 62
     2
370
     9
100
AcDbLine
 10
-76.95250415450609
 20
277.4280471849143
 30
0.0
 11
-80.84768157592853
 21
281.3232246063368
 31
0.0
  0
LINE
  5
157
330
1F
100
AcDbEntity
  8
0-1
  6
Continuous
 62
     2
370
     9
100
AcDbLine
 10
-80.84768157592853
 20
281.3232246063368
 30
0.0
 11
-79.01018602984541
 21
281.6070291279344
 31
0.0
  0
LINE
  5
158
330
1F
100
AcDbEntity
  8
0-1
  6
Continuous
 62
     2
370
     9
100
AcDbLine
 10
-76.88264305543944
 20
279.4794861535284
 30
0.0
 11
-76.95250415450609
 21
277.4280471849143
 31
0.0
  0
LINE
  5
159
330
1F
100
AcDbEntity
  8
0-1
  6
Continuous
 62
     2
370
     9
100
AcDbLine
 10
-54.5763409516825
 20
292.3581072585899
 30
0.0
 11
-52.76480797007517
 21
291.3929340601404
 31
0.0
  0
LINE
  5
15A
330
1F
100
AcDbEntity
  8
0-1
  6
Continuous
 62
     2
370
     9
100
AcDbLine
 10
-54.19056895357554
 20
296.7136742775479
 30
0.0
 11
-55.35506924531879
 21
295.264328979753
 31
0.0
  0
LINE
  5
15B
330
1F
100
AcDbEntity
  8
0-1
  6
Continuous
 62
     2
370
     9
100
AcDbLine
 10
-18.19416696425347
 20
295.2050709127435
 30
0.0
 11
-17.41538912373872
 21
298.1112926339066
 31
0.0
  0
LINE
  5
15C
330
1F
100
AcDbEntity
  8
0-1
  6
Continuous
 62
     2
370
     9
100
AcDbLine
 10
-17.10780210033127
 20
293.4633990302023
 30
0.0
 11
-15.68214021058853
 21
298.7843374351252
 31
0.0
  0
LINE
  5
15D
330
1F
100
AcDbEntity
  8
0-1
  6
Continuous
 62
     2
370
     9
100
AcDbLine
 10
-43.95111189310401
 20
295.2050709127435
 30
0.0
 11
-44.72988973361898
 21
298.1112926339066
 31
0.0
  0
LINE
  5
15E
330
1F
100
AcDbEntity
  8
0-1
  6
Continuous
 62
     2
370
     9
100
AcDbLine
 10
-45.03747675702621
 20
293.4633990302023
 30
0.0
 11
-46.46313864676895
 21
298.7843374351252
 31
0.0
  0
LINE
  5
15F
330
1F
100
AcDbEntity
  8
0-1
  6
Continuous
 62
     2
370
     9
100
AcDbLine
 10
-46.46313864676895
 20
298.7843374351252
 30
0.0
 11
-44.72988973361898
 21
298.1112926339066
 31
0.0
  0
LINE
  5
160
330
1F
100
AcDbEntity
  8
0-1
  6
Continuous
 62
     2
370
     9
100
AcDbLine
 10
-43.95111189310401
 20
295.2050709127435
 30
0.0
 11
-45.03747675702621
 21
293.4633990302023
 31
0.0
  0
LINE
  5
161
330
1F
100
AcDbEntity
  8
0-1
  6
Continuous
 62
     2
370
     9
100
AcDbLine
 10
-18.19416696425347
 20
295.2050709127435
 30
0.0
 11
-17.10780210033127
 21
293.4633990302023
 31
0.0
  0
LINE
  5
162
330
1F
100
AcDbEntity
  8
0-1
  6
Continuous
 62
     2
370
     9
100
AcDbLine
 10
-15.68214021058853
 20
298.7843374351252
 30
0.0
 11
-17.41538912373872
 21
298.1112926339066
 31
0.0
  0
LINE
  5
163
330
1F
100
AcDbEntity
  8
0-1
  6
Continuous
 62
     2
370
     9
100
AcDbLine
 10
14.73736419808219
 20
279.4794861535284
 30
0.0
 11
16.8649071724877
 21
281.6070291279344
 31
0.0
  0
LINE
  5
164
330
1F
100
AcDbEntity
  8
0-1
  6
Continuous
 62
     2
370
     9
100
AcDbLine
 10
14.80722529714839
 20
277.4280471849143
 30
0.0
 11
18.70245226544975
 21
281.3232246063368
 31
0.0
  0
LINE
  5
165
330
1F
100
AcDbEntity
  8
0-1
  6
Continuous
 62
     2
370
     9
100
AcDbLine
 10
-7.568838811917347
 20
292.3581072585899
 30
0.0
 11
-6.790160065159768
 21
295.264328979753
 31
0.0
  0
LINE
  5
166
330
1F
100
AcDbEntity
  8
0-1
  6
Continuous
 62
     2
370
     9
100
AcDbLine
 10
-9.380421340403618
 20
291.3929340601404
 30
0.0
 11
-7.954709903782176
 21
296.7136742775479
 31
0.0
  0
LINE
  5
167
330
1F
100
AcDbEntity
  8
0-1
  6
Continuous
 62
     2
370
     9
100
AcDbLine
 10
-7.954709903782176
 20
296.7136742775479
 30
0.0
 11
-6.790160065159768
 21
295.264328979753
 31
0.0
  0
LINE
  5
168
330
1F
100
AcDbEntity
  8
0-1
  6
Continuous
 62
     2
370
     9
100
AcDbLine
 10
-7.568838811917347
 20
292.3581072585899
 30
0.0
 11
-9.380421340403618
 21
291.3929340601404
 31
0.0
  0
LINE
  5
169
330
1F
100
AcDbEntity
  8
0-1
  6
Continuous
 62
     2
370
     9
100
AcDbLine
 10
14.73736419808219
 20
279.4794861535284
 30
0.0
 11
14.80722529714839
 21
277.4280471849143
 31
0.0
  0
LINE
  5
16A
330
1F
100
AcDbEntity
  8
0-1
  6
Continuous
 62
     2
370
     9
100
AcDbLine
 10
18.70245226544975
 20
281.3232246063368
 30
0.0
 11
16.8649071724877
 21
281.6070291279344
 31
0.0
  0
LINE
  5
16B
330
1F
100
AcDbEntity
  8
0-1
  6
Continuous
 62
     2
370
     9
100
AcDbLine
 10
35.39405252005357
 20
249.3950177391039
 30
0.0
 11
38.3003733349743
 21
250.1736964858611
 31
0.0
  0
LINE
  5
16C
330
1F
100
AcDbEntity
  8
0-1
  6
Continuous
 62
     2
370
     9
100
AcDbLine
 10
34.42892886848276
 20
247.5833856637387
 30
0.0
 11
39.74981772652686
 21
249.0091466472391
 31
0.0
  0
LINE
  5
16D
330
1F
100
AcDbEntity
  8
0-1
  6
Continuous
 62
     2
370
     9
100
AcDbLine
 10
22.51553050874972
 20
271.7014189366183
 30
0.0
 11
24.64307348315523
 21
273.8289619110242
 31
0.0
  0
LINE
  5
16E
330
1F
100
AcDbEntity
  8
0-1
  6
Continuous
 62
     2
370
     9
100
AcDbLine
 10
20.46409154013539
 20
271.7711809419271
 30
0.0
 11
24.35926896155805
 21
275.66635836335
 31
0.0
  0
LINE
  5
16F
330
1F
100
AcDbEntity
  8
0-1
  6
Continuous
 62
     2
370
     9
100
AcDbLine
 10
24.35926896155805
 20
275.66635836335
 30
0.0
 11
24.64307348315523
 21
273.8289619110242
 31
0.0
  0
LINE
  5
170
330
1F
100
AcDbEntity
  8
0-1
  6
Continuous
 62
     2
370
     9
100
AcDbLine
 10
22.51553050874972
 20
271.7014189366183
 30
0.0
 11
20.46409154013539
 21
271.7711809419271
 31
0.0
  0
LINE
  5
171
330
1F
100
AcDbEntity
  8
0-1
  6
Continuous
 62
     2
370
     9
100
AcDbLine
 10
35.39405252005357
 20
249.3950177391039
 30
0.0
 11
34.42892886848276
 21
247.5833856637387
 31
0.0
  0
LINE
  5
172
330
1F
100
AcDbEntity
  8
0-1
  6
Continuous
 62
     2
370
     9
100
AcDbLine
 10
39.74981772652686
 20
249.0091466472391
 30
0.0
 11
38.3003733349743
 21
250.1736964858611
 31
0.0
  0
LINE
  5
173
330
1F
100
AcDbEntity
  8
0-1
  6
Continuous
 62
     2
370
     9
100
AcDbLine
 10
38.24106572108585
 20
238.7699868680402
 30
0.0
 11
41.14733698912786
 21
239.5486656147978
 31
0.0
  0
LINE
  5
174
330
1F
100
AcDbEntity
  8
0-1
  6
Continuous
 62
     2
370
     9
100
AcDbLine
 10
36.49944338542363
 20
239.85605445069
 30
0.0
 11
41.82033224346773
 21
241.2818154341904
 31
0.0
  0
LINE
  5
175
330
1F
100
AcDbEntity
  8
0-1
  6
Continuous
 62
     2
370
     9
100
AcDbLine
 10
41.82033224346773
 20
241.2818154341904
 30
0.0
 11
41.14733698912786
 21
239.5486656147978
 31
0.0
  0
LINE
  5
176
330
1F
100
AcDbEntity
  8
0-1
  6
Continuous
 62
     2
370
     9
100
AcDbLine
 10
38.24106572108585
 20
238.7699868680402
 30
0.0
 11
36.49944338542363
 21
239.85605445069
 31
0.0
  0
LINE
  5
177
330
1F
100
AcDbEntity
  8
0-1
  6
Continuous
 62
     2
370
     9
100
AcDbLine
 10
-100.3863445784436
 20
238.7699868680402
 30
0.0
 11
-103.2925662996066
 21
239.5486656147978
 31
0.0
  0
LINE
  5
178
330
1F
100
AcDbEntity
  8
0-1
  6
Continuous
 62
     2
370
     9
100
AcDbLine
 10
-98.64467269590241
 20
239.85605445069
 30
0.0
 11
-103.9656111008252
 21
241.2818154341904
 31
0.0
  0
LINE
  5
179
330
1F
100
AcDbEntity
  8
0-1
  6
Continuous
 62
     2
370
     9
100
AcDbLine
 10
-103.9656111008252
 20
241.2818154341904
 30
0.0
 11
-103.2925662996066
 21
239.5486656147978
 31
0.0
  0
LINE
  5
17A
330
1F
100
AcDbEntity
  8
0-1
  6
Continuous
 62
     2
370
     9
100
AcDbLine
 10
-100.3863445784436
 20
238.7699868680402
 30
0.0
 11
-98.64467269590241
 21
239.85605445069
 31
0.0
  0
LINE
  5
17B
330
1F
100
AcDbEntity
  8
0-1
  6
Continuous
 62
     2
370
     9
100
AcDbLine
 10
-75.47709719847776
 20
237.8914216136814
 30
0.0
 11
-74.07264137284882
 21
237.8914216136814
 31
0.0
  0
LINE
  5
17C
330
1F
100
AcDbEntity
  8
0-1
  6
Continuous
 62
     2
370
     9
100
AcDbLine
 10
-79.17740674569578
 20
238.8912776272706
 30
0.0
 11
-72.2128497313187
 21
238.8912776272706
 31
0.0
  0
LINE
  5
17D
330
1F
100
AcDbEntity
  8
0-1
  6
Continuous
 62
     2
370
     9
100
AcDbLine
 10
-19.26269495181842
 20
270.3468072710326
 30
0.0
 11
-19.96487331775407
 21
269.1305304909743
 31
0.0
  0
LINE
  5
17E
330
1F
100
AcDbEntity
  8
0-1
  6
Continuous
 62
     2
370
     9
100
AcDbLine
 10
-18.27854529879975
 20
274.0513283029464
 30
0.0
 11
-21.76084857942752
 21
268.0198876564542
 31
0.0
  0
LINE
  5
17F
330
1F
100
AcDbEntity
  8
0-1
  6
JWW_CENTER1
 62
     2
370
     9
100
AcDbLine
 10
-12.95498090930224
 20
257.27198052604
 30
0.0
 11
-5.476375027681032
 21
270.2253183242875
 31
0.0
  0
LINE
  5
180
330
1F
100
AcDbEntity
  8
0-1
  6
JWW_CENTER1
 62
     2
370
     9
100
AcDbLine
 10
-14.09822559005298
 20
265.7433076707067
 30
0.0
 11
-5.046902682498201
 21
260.5174992730236
 31
0.0
  0
LINE
  5
181
330
1F
100
AcDbEntity
  8
0-1
  6
Continuous
 62
     2
370
     9
100
AcDbLine
 10
4.238281492853133
 20
261.0514164386546
 30
0.0
 11
0.7558295715890289
 21
255.0197776046476
 31
0.0
  0
LINE
  5
182
330
1F
100
AcDbEntity
  8
0-1
  6
Continuous
 62
     2
370
     9
100
AcDbLine
 10
1.522121598653568
 20
258.3469496078447
 30
0.0
 11
0.8197450452028914
 21
257.1304746402712
 31
0.0
  0
ARC
  5
183
330
1F
100
AcDbEntity
  8
0-1
  6
Continuous
 62
     2
370
     9
100
AcDbCircle
 10
-31.07258988179993
 20
225.8913657629788
 30
0.0
 40
73.49999525740338
100
AcDbArc
 50
139.2914886474609
 51
160.7085418701172
  0
ARC
  5
184
330
1F
100
AcDbEntity
  8
0-1
  6
Continuous
 62
     2
370
     9
100
AcDbCircle
 10
-31.07258988179993
 20
225.8913657629788
 30
0.0
 40
74.49998752490895
100
AcDbArc
 50
138.0777740478516
 51
161.9222412109375
  0
ARC
  5
185
330
1F
100
AcDbEntity
  8
0-1
  6
Continuous
 62
     2
370
     9
100
AcDbCircle
 10
-31.07258988179993
 20
225.8913657629788
 30
0.0
 40
70.49999368144738
100
AcDbArc
 50
139.4744873046875
 51
160.5255737304688
  0
ARC
  5
186
330
1F
100
AcDbEntity
  8
0-1
  6
Continuous
 62
     2
370
     9
100
AcDbCircle
 10
-31.07258988179993
 20
225.8913657629788
 30
0.0
 40
68.99999289346938
100
AcDbArc
 50
138.3233795166016
 51
161.6766510009766
  0
ARC
  5
187
330
1F
100
AcDbEntity
  8
0-1
  6
Continuous
 62
     2
370
     9
100
AcDbCircle
 10
-31.07258988179993
 20
225.8913657629788
 30
0.0
 40
73.49999525740338
100
AcDbArc
 50
109.2914886474609
 51
130.7085418701172
  0
ARC
  5
188
330
1F
100
AcDbEntity
  8
0-1
  6
Continuous
 62
     2
370
     9
100
AcDbCircle
 10
-31.07258988179993
 20
225.8913657629788
 30
0.0
 40
74.49998752490895
100
AcDbArc
 50
108.0777740478516
 51
131.9222412109375
  0
ARC
  5
189
330
1F
100
AcDbEntity
  8
0-1
  6
Continuous
 62
     2
370
     9
100
AcDbCircle
 10
-31.07258988179993
 20
225.8913657629788
 30
0.0
 40
70.49999368144738
100
AcDbArc
 50
109.4744873046875
 51
130.5255737304688
  0
ARC
  5
18A
330
1F
100
AcDbEntity
  8
0-1
  6
Continuous
 62
     2
370
     9
100
AcDbCircle
 10
-31.07258988179993
 20
225.8913657629788
 30
0.0
 40
68.99999289346938
100
AcDbArc
 50
108.3233795166016
 51
131.6766510009766
  0
ARC
  5
18B
330
1F
100
AcDbEntity
  8
0-1
  6
Continuous
 62
     2
370
     9
100
AcDbCircle
 10
-31.07258988179993
 20
225.8913657629788
 30
0.0
 40
73.49999525740338
100
AcDbArc
 50
79.29148864746094
 51
100.7085418701172
  0
ARC
  5
18C
330
1F
100
AcDbEntity
  8
0-1
  6
Continuous
 62
     2
370
     9
100
AcDbCircle
 10
-31.07258988179993
 20
225.8913657629788
 30
0.0
 40
74.49998752490895
100
AcDbArc
 50
78.07777404785156
 51
101.9222412109375
  0
ARC
  5
18D
330
1F
100
AcDbEntity
  8
0-1
  6
Continuous
 62
     2
370
     9
100
AcDbCircle
 10
-31.07258988179993
 20
225.8913657629788
 30
0.0
 40
70.49999368144738
100
AcDbArc
 50
79.47448730468751
 51
100.5255737304688
  0
ARC
  5
18E
330
1F
100
AcDbEntity
  8
0-1
  6
Continuous
 62
     2
370
     9
100
AcDbCircle
 10
-31.07258988179993
 20
225.8913657629788
 30
0.0
 40
73.49999525740338
100
AcDbArc
 50
49.29148864746094
 51
70.70854187011719
  0
ARC
  5
18F
330
1F
100
AcDbEntity
  8
0-1
  6
Continuous
 62
     2
370
     9
100
AcDbCircle
 10
-31.07258988179993
 20
225.8913657629788
 30
0.0
 40
74.49998752490895
100
AcDbArc
 50
48.07777404785157
 51
71.9222412109375
  0
ARC
  5
190
330
1F
100
AcDbEntity
  8
0-1
  6
Continuous
 62
     2
370
     9
100
AcDbCircle
 10
-31.07258988179993
 20
225.8913657629788
 30
0.0
 40
70.49999368144738
100
AcDbArc
 50
49.47448730468749
 51
70.52557373046875
  0
ARC
  5
191
330
1F
100
AcDbEntity
  8
0-1
  6
Continuous
 62
     2
370
     9
100
AcDbCircle
 10
-31.07258988179993
 20
225.8913657629788
 30
0.0
 40
68.99999289346938
100
AcDbArc
 50
48.32337951660157
 51
71.67665100097656
  0
ARC
  5
192
330
1F
100
AcDbEntity
  8
0-1
  6
Continuous
 62
     2
370
     9
100
AcDbCircle
 10
-31.07258988179993
 20
225.8913657629788
 30
0.0
 40
73.49999525740338
100
AcDbArc
 50
19.29148864746094
 51
40.70854187011719
  0
ARC
  5
193
330
1F
100
AcDbEntity
  8
0-1
  6
Continuous
 62
     2
370
     9
100
AcDbCircle
 10
-31.07258988179993
 20
225.8913657629788
 30
0.0
 40
74.49998752490895
100
AcDbArc
 50
18.07777404785156
 51
41.9222412109375
  0
ARC
  5
194
330
1F
100
AcDbEntity
  8
0-1
  6
Continuous
 62
     2
370
     9
100
AcDbCircle
 10
-31.07258988179993
 20
225.8913657629788
 30
0.0
 40
70.49999368144738
100
AcDbArc
 50
19.4744873046875
 51
40.52557373046876
  0
ARC
  5
195
330
1F
100
AcDbEntity
  8
0-1
  6
Continuous
 62
     2
370
     9
100
AcDbCircle
 10
-31.07258988179993
 20
225.8913657629788
 30
0.0
 40
68.99999289346938
100
AcDbArc
 50
18.32337951660156
 51
41.67665100097656
  0
ARC
  5
196
330
1F
100
AcDbEntity
  8
0-1
  6
Continuous
 62
     2
370
     9
100
AcDbCircle
 10
-31.07258988179993
 20
225.8913657629788
 30
0.0
 40
68.99999289346938
100
AcDbArc
 50
8.58367919921875
 51
11.67665100097656
  0
ARC
  5
197
330
1F
100
AcDbEntity
  8
0-1
  6
Continuous
 62
     2
370
     9
100
AcDbCircle
 10
-31.07258988179993
 20
225.8913657629788
 30
0.0
 40
68.99999289346938
100
AcDbArc
 50
168.3233489990234
 51
171.4163208007812
  0
ARC
  5
198
330
1F
100
AcDbEntity
  8
0-1
  6
Continuous
 62
     2
370
     9
100
AcDbCircle
 10
-31.07258988179993
 20
225.8913657629788
 30
0.0
 40
68.99999289346938
100
AcDbArc
 50
95.13783264160156
 51
101.6766510009766
  0
ARC
  5
199
330
1F
100
AcDbEntity
  8
0-1
  6
Continuous
 62
     2
370
     9
100
AcDbCircle
 10
-31.07258988179993
 20
225.8913657629788
 30
0.0
 40
68.99999289346938
100
AcDbArc
 50
78.32337951660156
 51
84.86216735839844
  0
ARC
  5
19A
330
1F
100
AcDbEntity
  8
0-1
  6
Continuous
 62
     2
370
     9
100
AcDbCircle
 10
35.17688855040259
 20
235.8913132114736
 30
0.0
 40
2.000000018410701
100
AcDbArc
 50
326.6130981445313
 51
8.583190917968805
  0
ARC
  5
19B
330
1F
100
AcDbEntity
  8
0-1
  6
Continuous
 62
     2
370
     9
100
AcDbCircle
 10
-37.07256826027256
 20
292.6220930286791
 30
0.0
 40
2.000000018410701
100
AcDbArc
 50
53.16412353515626
 51
95.13787841796876
  0
ARC
  5
19C
330
1F
100
AcDbEntity
  8
0-1
  6
Continuous
 62
     2
370
     9
100
AcDbCircle
 10
-25.07261150332729
 20
292.6220930286791
 30
0.0
 40
2.000000018410701
100
AcDbArc
 50
84.86212158203125
 51
126.8358764648438
  0
ARC
  5
19D
330
1F
100
AcDbEntity
  8
0-1
  6
Continuous
 62
     2
370
     9
100
AcDbCircle
 10
-97.32211786088114
 20
235.8913132114736
 30
0.0
 40
2.000000018410701
100
AcDbArc
 50
171.4168090820313
 51
213.3882446289063
  0
ARC
  5
19E
330
1F
100
AcDbEntity
  8
0-1
  6
Continuous
 62
     2
370
     9
100
AcDbCircle
 10
-69.50288319696566
 20
240.1783073502134
 30
0.0
 40
3.000000027616052
100
AcDbArc
 50
159.6065216064453
 51
205.403305053711
  0
ARC
  5
19F
330
1F
100
AcDbEntity
  8
0-1
  6
Continuous
 62
     2
370
     9
100
AcDbCircle
 10
0.5154281157943785
 20
252.0295243770898
 30
0.0
 40
3.000000027616052
100
AcDbArc
 50
39.60652160644531
 51
85.40330505371094
  0
ARC
  5
1A0
330
1F
100
AcDbEntity
  8
0-1
  6
Continuous
 62
     2
370
     9
100
AcDbCircle
 10
-24.23036411110743
 20
266.316465964324
 30
0.0
 40
3.000000027616052
100
AcDbArc
 50
34.59672546386719
 51
80.39350891113281
  0
ARC
  5
1A1
330
1F
100
AcDbEntity
  8
0-1
  6
Continuous
 62
     2
370
     9
100
AcDbCircle
 10
-69.50288319696566
 20
240.1783073502134
 30
0.0
 40
2.000000018410701
100
AcDbArc
 50
159.6065216064453
 51
222.8408813476562
  0
ARC
  5
1A2
330
1F
100
AcDbEntity
  8
0-1
  6
Continuous
 62
     2
370
     9
100
AcDbCircle
 10
-74.07264137284882
 20
225.8913657629788
 30
0.0
 40
12.00000011046421
100
AcDbArc
 50
82.65150451660158
 51
90.00000000000001
  0
ARC
  5
1A3
330
1F
100
AcDbEntity
  8
0-1
  6
Continuous
 62
     2
370
     9
100
AcDbCircle
 10
-31.07258988179993
 20
225.8913657629788
 30
0.0
 40
44.00004375855435
100
AcDbArc
 50
155.4214630126953
 51
159.6067199707032
  0
ARC
  5
1A4
330
1F
100
AcDbEntity
  8
0-1
  6
Continuous
 62
     2
370
     9
100
AcDbCircle
 10
-31.07258988179993
 20
225.8913657629788
 30
0.0
 40
43.00004220100904
100
AcDbArc
 50
156.1519012451172
 51
159.6067199707031
  0
ARC
  5
1A5
330
1F
100
AcDbEntity
  8
0-1
  6
Continuous
 62
     2
370
     9
100
AcDbCircle
 10
-31.07258988179993
 20
225.8913657629788
 30
0.0
 40
50.35236547536371
100
AcDbArc
 50
155.1225128173828
 51
164.877426147461
  0
ARC
  5
1A6
330
1F
100
AcDbEntity
  8
0-1
  6
Continuous
 62
     2
370
     9
100
AcDbCircle
 10
-31.07258988179993
 20
225.8913657629788
 30
0.0
 40
43.00004220100904
100
AcDbArc
 50
136.1519165039062
 51
143.8480987548828
  0
ARC
  5
1A7
330
1F
100
AcDbEntity
  8
0-1
  6
Continuous
 62
     2
370
     9
100
AcDbCircle
 10
-31.07258988179993
 20
225.8913657629788
 30
0.0
 40
44.00004375855435
100
AcDbArc
 50
135.4214782714844
 51
144.5785064697266
  0
ARC
  5
1A8
330
1F
100
AcDbEntity
  8
0-1
  6
Continuous
 62
     2
370
     9
100
AcDbCircle
 10
-31.07258988179993
 20
225.8913657629788
 30
0.0
 40
50.35236547536371
100
AcDbArc
 50
135.12255859375
 51
144.8774871826172
  0
ARC
  5
1A9
330
1F
100
AcDbEntity
  8
0-1
  6
Continuous
 62
     2
370
     9
100
AcDbCircle
 10
-31.07258988179993
 20
225.8913657629788
 30
0.0
 40
50.35236547536371
100
AcDbArc
 50
113.0709228515625
 51
126.9291687011719
  0
ARC
  5
1AA
330
1F
100
AcDbEntity
  8
0-1
  6
Continuous
 62
     2
370
     9
100
AcDbCircle
 10
-31.07258988179993
 20
225.8913657629788
 30
0.0
 40
44.00004375855435
100
AcDbArc
 50
113.0709228515625
 51
126.92919921875
  0
ARC
  5
1AB
330
1F
100
AcDbEntity
  8
0-1
  6
Continuous
 62
     2
370
     9
100
AcDbCircle
 10
-31.07258988179993
 20
225.8913657629788
 30
0.0
 40
43.00004220100904
100
AcDbArc
 50
113.0709228515625
 51
126.9292144775391
  0
ARC
  5
1AC
330
1F
100
AcDbEntity
  8
0-1
  6
Continuous
 62
     2
370
     9
100
AcDbCircle
 10
-31.07258988179993
 20
225.8913657629788
 30
0.0
 40
50.35236547536371
100
AcDbArc
 50
95.12258911132812
 51
104.8775024414062
  0
ARC
  5
1AD
330
1F
100
AcDbEntity
  8
0-1
  6
Continuous
 62
     2
370
     9
100
AcDbCircle
 10
-31.07258988179993
 20
225.8913657629788
 30
0.0
 40
44.00004375855435
100
AcDbArc
 50
95.42149353027345
 51
104.5785217285156
  0
ARC
  5
1AE
330
1F
100
AcDbEntity
  8
0-1
  6
Continuous
 62
     2
370
     9
100
AcDbCircle
 10
-31.07258988179993
 20
225.8913657629788
 30
0.0
 40
43.00004220100904
100
AcDbArc
 50
96.15191650390625
 51
103.8481140136719
  0
ARC
  5
1AF
330
1F
100
AcDbEntity
  8
0-1
  6
Continuous
 62
     2
370
     9
100
AcDbCircle
 10
-31.07258988179993
 20
225.8913657629788
 30
0.0
 40
43.00004220100904
100
AcDbArc
 50
80.39328002929689
 51
83.84817504882812
  0
ARC
  5
1B0
330
1F
100
AcDbEntity
  8
0-1
  6
Continuous
 62
     2
370
     9
100
AcDbCircle
 10
-31.07258988179993
 20
225.8913657629788
 30
0.0
 40
44.00004375855435
100
AcDbArc
 50
80.39328002929689
 51
84.57859802246094
  0
ARC
  5
1B1
330
1F
100
AcDbEntity
  8
0-1
  6
Continuous
 62
     2
370
     9
100
AcDbCircle
 10
-24.23036411110743
 20
266.316465964324
 30
0.0
 40
2.000000018410701
100
AcDbArc
 50
17.15934753417969
 51
80.39337158203125
  0
ARC
  5
1B2
330
1F
100
AcDbEntity
  8
0-1
  6
Continuous
 62
     2
370
     9
100
AcDbCircle
 10
-9.572613683154401
 20
263.1304034718651
 30
0.0
 40
12.00000011046421
100
AcDbArc
 50
149.9999389648438
 51
157.3485870361328
  0
ARC
  5
1B3
330
1F
100
AcDbEntity
  8
0-1
  6
Continuous
 62
     2
370
     9
100
AcDbCircle
 10
-31.07258988179993
 20
225.8913657629788
 30
0.0
 40
50.35236547536371
100
AcDbArc
 50
75.12257385253906
 51
84.87748718261717
  0
ARC
  5
1B4
330
1F
100
AcDbEntity
  8
0-1
  6
Continuous
 62
     2
370
     9
100
AcDbCircle
 10
-9.572613683154401
 20
263.1304034718651
 30
0.0
 40
12.00000011046421
100
AcDbArc
 50
322.6511840820312
 51
330.0
  0
ARC
  5
1B5
330
1F
100
AcDbEntity
  8
0-1
  6
Continuous
 62
     2
370
     9
100
AcDbCircle
 10
0.5154281157943785
 20
252.0295243770898
 30
0.0
 40
2.000000018410701
100
AcDbArc
 50
39.60652160644531
 51
102.8419189453125
  0
ARC
  5
1B6
330
1F
100
AcDbEntity
  8
0-1
  6
Continuous
 62
     2
370
     9
100
AcDbCircle
 10
-31.07258988179993
 20
225.8913657629788
 30
0.0
 40
43.00004220100904
100
AcDbArc
 50
36.15190124511719
 51
39.60670471191406
  0
ARC
  5
1B7
330
1F
100
AcDbEntity
  8
0-1
  6
Continuous
 62
     2
370
     9
100
AcDbCircle
 10
-31.07258988179993
 20
225.8913657629788
 30
0.0
 40
44.00004375855435
100
AcDbArc
 50
35.42149353027344
 51
39.60671997070312
  0
ARC
  5
1B8
330
1F
100
AcDbEntity
  8
0-1
  6
Continuous
 62
     2
370
     9
100
AcDbCircle
 10
-31.07258988179993
 20
225.8913657629788
 30
0.0
 40
50.35236547536371
100
AcDbArc
 50
35.12254333496094
 51
44.87751770019532
  0
ARC
  5
1B9
330
1F
100
AcDbEntity
  8
0-1
  6
Continuous
 62
     2
370
     9
100
AcDbCircle
 10
-31.07258988179993
 20
225.8913657629788
 30
0.0
 40
43.00004220100904
100
AcDbArc
 50
16.15191650390625
 51
23.84820556640625
  0
ARC
  5
1BA
330
1F
100
AcDbEntity
  8
0-1
  6
Continuous
 62
     2
370
     9
100
AcDbCircle
 10
-31.07258988179993
 20
225.8913657629788
 30
0.0
 40
44.00004375855435
100
AcDbArc
 50
15.42153930664062
 51
24.57859802246094
  0
ARC
  5
1BB
330
1F
100
AcDbEntity
  8
0-1
  6
Continuous
 62
     2
370
     9
100
AcDbCircle
 10
-31.07258988179993
 20
225.8913657629788
 30
0.0
 40
50.35236547536371
100
AcDbArc
 50
15.12257385253906
 51
24.87753295898438
  0
ARC
  5
1BC
330
1F
100
AcDbEntity
  8
0-1
  6
Continuous
 62
     2
370
     9
100
AcDbCircle
 10
-97.72270437574062
 20
234.8914571978849
 30
0.0
 40
2.000000018410701
100
AcDbArc
 50
172.309310913086
 51
224.4750671386719
  0
ARC
  5
1BD
330
1F
100
AcDbEntity
  8
0-1
  6
Continuous
 62
     2
370
     9
100
AcDbCircle
 10
-31.07258988179993
 20
225.8913657629788
 30
0.0
 40
69.25504164530044
100
AcDbArc
 50
86.59028625488283
 51
93.4097137451172
  0
ARC
  5
1BE
330
1F
100
AcDbEntity
  8
0-1
  6
Continuous
 62
     2
370
     9
100
AcDbCircle
 10
-35.07260849870082
 20
293.0273864970218
 30
0.0
 40
2.000000018410701
100
AcDbArc
 50
41.24360656738281
 51
93.40997314453126
  0
ARC
  5
1BF
330
1F
100
AcDbEntity
  8
0-1
  6
Continuous
 62
     2
370
     9
100
AcDbCircle
 10
-27.07257126489904
 20
293.0273864970218
 30
0.0
 40
2.000000018410701
100
AcDbArc
 50
86.59002685546876
 51
138.7563934326172
  0
ARC
  5
1C0
330
1F
100
AcDbEntity
  8
0-1
  6
Continuous
 62
     2
370
     9
100
AcDbCircle
 10
35.57752461214076
 20
234.8914571978849
 30
0.0
 40
2.000000018410701
100
AcDbArc
 50
315.5249328613281
 51
7.690689086914062
  0
ARC
  5
1C1
330
1F
100
AcDbEntity
  8
0-1
  6
Continuous
 62
     2
370
     9
100
AcDbCircle
 10
-31.07258988179993
 20
225.8913657629788
 30
0.0
 40
69.25504164530044
100
AcDbArc
 50
1.466400146484389
 51
7.690338134765639
  0
ARC
  5
1C2
330
1F
100
AcDbEntity
  8
0-1
  6
Continuous
 62
     2
370
     9
100
AcDbCircle
 10
-31.07258988179993
 20
225.8913657629788
 30
0.0
 40
74.49998752490895
100
AcDbArc
 50
168.0777740478516
 51
180.0
  0
ARC
  5
1C3
330
1F
100
AcDbEntity
  8
0-1
  6
Continuous
 62
     2
370
     9
100
AcDbCircle
 10
-31.07258988179993
 20
225.8913657629788
 30
0.0
 40
70.49999368144738
100
AcDbArc
 50
169.4744110107422
 51
180.0
  0
ARC
  5
1C4
330
1F
100
AcDbEntity
  8
0-1
  6
Continuous
 62
     2
370
     9
100
AcDbCircle
 10
-31.07258988179993
 20
225.8913657629788
 30
0.0
 40
122.5000003534855
100
AcDbArc
 50
0.0
 51
180.0
  0
ARC
  5
1C5
330
1F
100
AcDbEntity
  8
0-1
  6
Continuous
 62
     2
370
     9
100
AcDbCircle
 10
-31.07258988179993
 20
225.8913657629788
 30
0.0
 40
121.9999732529335
100
AcDbArc
 50
0.0
 51
180.0
  0
ARC
  5
1C6
330
1F
100
AcDbEntity
  8
0-1
  6
Continuous
 62
     2
370
     9
100
AcDbCircle
 10
-31.07258988179993
 20
225.8913657629788
 30
0.0
 40
114.7681108275896
100
AcDbArc
 50
0.0
 51
180.0
  0
ARC
  5
1C7
330
1F
100
AcDbEntity
  8
0-1
  6
Continuous
 62
     2
370
     9
100
AcDbCircle
 10
-31.07258988179993
 20
225.8913657629788
 30
0.0
 40
74.49998752490895
100
AcDbArc
 50
0.0
 51
11.92224121093751
  0
ARC
  5
1C8
330
1F
100
AcDbEntity
  8
0-1
  6
Continuous
 62
     2
370
     9
100
AcDbCircle
 10
-31.07258988179993
 20
225.8913657629788
 30
0.0
 40
73.49999525740338
100
AcDbArc
 50
0.0
 51
10.70854187011721
  0
ARC
  5
1C9
330
1F
100
AcDbEntity
  8
0-1
  6
Continuous
 62
     2
370
     9
100
AcDbCircle
 10
-31.07258988179993
 20
225.8913657629788
 30
0.0
 40
70.49999368144738
100
AcDbArc
 50
0.0
 51
10.52557373046878
  0
ARC
  5
1CA
330
1F
100
AcDbEntity
  8
0-1
  6
Continuous
 62
     2
370
     9
100
AcDbCircle
 10
-31.07258988179993
 20
225.8913657629788
 30
0.0
 40
44.00004375855435
100
AcDbArc
 50
0.0
 51
6.525482177734368
  0
ARC
  5
1CB
330
1F
100
AcDbEntity
  8
0-1
  6
Continuous
 62
     2
370
     9
100
AcDbCircle
 10
-31.07258988179993
 20
225.8913657629788
 30
0.0
 40
43.00004220100904
100
AcDbArc
 50
0.0
 51
6.525482177734368
  0
LINE
  5
1CC
330
1F
100
AcDbEntity
  8
0-1
  6
JWW_CENTER1
 62
     2
370
     9
100
AcDbLine
 10
-74.07264137284882
 20
224.551569574132
 30
0.0
 11
-74.07264137284882
 21
230.8099835122849
 31
0.0
  0
LINE
  5
1CD
330
1F
100
AcDbEntity
  8
0-0
  6
JWW_CENTER1
 62
     3
370
     9
100
AcDbLine
 10
-216.8432929020845
 20
225.8913657629788
 30
0.0
 11
142.4357708298352
 21
225.8913657629788
 31
0.0
  0
LINE
  5
1CE
330
1F
100
AcDbEntity
  8
0-4
  6
Continuous
 62
     7
370
     9
100
AcDbLine
 10
-99.57271050871344
 20
57.0748466118664
 30
0.0
 11
37.42743165135606
 21
57.0748466118664
 31
0.0
  0
LINE
  5
1CF
330
1F
100
AcDbEntity
  8
0-4
  6
Continuous
 62
     7
370
     9
100
AcDbLine
 10
-99.57271050871344
 20
57.0748466118664
 30
0.0
 11
-92.13687404840988
 21
58.05379305351678
 31
0.0
  0
LINE
  5
1D0
330
1F
100
AcDbEntity
  8
0-4
  6
Continuous
 62
     7
370
     9
100
AcDbLine
 10
-99.57271050871344
 20
57.0748466118664
 30
0.0
 11
-92.13687404840988
 21
56.09590017021601
 31
0.0
  0
LINE
  5
1D1
330
1F
100
AcDbEntity
  8
0-4
  6
Continuous
 62
     7
370
     9
100
AcDbLine
 10
37.42743165135606
 20
57.0748466118664
 30
0.0
 11
29.99159519105248
 21
58.05379305351678
 31
0.0
  0
LINE
  5
1D2
330
1F
100
AcDbEntity
  8
0-4
  6
Continuous
 62
     7
370
     9
100
AcDbLine
 10
37.42743165135606
 20
57.0748466118664
 30
0.0
 11
29.99159519105248
 21
56.09590017021601
 31
0.0
  0
LINE
  5
1D3
330
1F
100
AcDbEntity
  8
0-4
  6
Continuous
 62
     7
370
     9
100
AcDbLine
 10
-99.57271050871344
 20
57.9748466118664
 30
0.0
 11
-99.57271050871344
 21
-89.95711382838039
 31
0.0
  0
LINE
  5
1D4
330
1F
100
AcDbEntity
  8
0-4
  6
Continuous
 62
     7
370
     9
100
AcDbLine
 10
37.42743165135606
 20
57.9748466118664
 30
0.0
 11
37.42743165135606
 21
-89.95711382838039
 31
0.0
  0
LINE
  5
1D5
330
1F
100
AcDbEntity
  8
0-4
  6
Continuous
 62
     7
370
     9
100
AcDbLine
 10
-186.0725680835298
 20
102.6904554559785
 30
0.0
 11
123.9274378668087
 21
102.6904554559785
 31
0.0
  0
LINE
  5
1D6
330
1F
100
AcDbEntity
  8
0-4
  6
Continuous
 62
     7
370
     9
100
AcDbLine
 10
-186.0725680835298
 20
102.6904554559785
 30
0.0
 11
-178.6367316232262
 21
103.6694018976289
 31
0.0
  0
LINE
  5
1D7
330
1F
100
AcDbEntity
  8
0-4
  6
Continuous
 62
     7
370
     9
100
AcDbLine
 10
-186.0725680835298
 20
102.6904554559785
 30
0.0
 11
-178.6367316232262
 21
101.7115090143282
 31
0.0
  0
LINE
  5
1D8
330
1F
100
AcDbEntity
  8
0-4
  6
Continuous
 62
     7
370
     9
100
AcDbLine
 10
123.9274378668087
 20
102.6904554559785
 30
0.0
 11
116.4916014065051
 21
103.6694018976289
 31
0.0
  0
LINE
  5
1D9
330
1F
100
AcDbEntity
  8
0-4
  6
Continuous
 62
     7
370
     9
100
AcDbLine
 10
123.9274378668087
 20
102.6904554559785
 30
0.0
 11
116.4916014065051
 21
101.7115090143282
 31
0.0
  0
LINE
  5
1DA
330
1F
100
AcDbEntity
  8
0-4
  6
Continuous
 62
     7
370
     9
100
AcDbLine
 10
-186.0725680835298
 20
103.5904554559786
 30
0.0
 11
-186.0725680835298
 21
-91.21738823678703
 31
0.0
  0
LINE
  5
1DB
330
1F
100
AcDbEntity
  8
0-4
  6
Continuous
 62
     7
370
     9
100
AcDbLine
 10
123.9274378668087
 20
103.5904554559786
 30
0.0
 11
123.9274378668087
 21
-91.21738823678703
 31
0.0
  0
LINE
  5
1DC
330
1F
100
AcDbEntity
  8
0-4
  6
Continuous
 62
     7
370
     9
100
AcDbLine
 10
-213.6975769085753
 20
-101.9571417537317
 30
0.0
 11
-213.6975769085753
 21
31.04287030895957
 31
0.0
  0
LINE
  5
1DD
330
1F
100
AcDbEntity
  8
0-4
  6
Continuous
 62
     7
370
     9
100
AcDbLine
 10
-213.6975769085753
 20
-101.9571417537317
 30
0.0
 11
-214.6765233502257
 21
-94.52130529342814
 31
0.0
  0
LINE
  5
1DE
330
1F
100
AcDbEntity
  8
0-4
  6
Continuous
 62
     7
370
     9
100
AcDbLine
 10
-213.6975769085753
 20
-101.9571417537317
 30
0.0
 11
-212.7186304669249
 21
-94.52130529342814
 31
0.0
  0
LINE
  5
1DF
330
1F
100
AcDbEntity
  8
0-4
  6
Continuous
 62
     7
370
     9
100
AcDbLine
 10
-213.6975769085753
 20
31.04287030895957
 30
0.0
 11
-214.6765233502257
 21
23.60703384865599
 31
0.0
  0
LINE
  5
1E0
330
1F
100
AcDbEntity
  8
0-4
  6
Continuous
 62
     7
370
     9
100
AcDbLine
 10
-213.6975769085753
 20
31.04287030895957
 30
0.0
 11
-212.7186304669249
 21
23.60703384865599
 31
0.0
  0
LINE
  5
1E1
330
1F
100
AcDbEntity
  8
0-4
  6
Continuous
 62
     7
370
     9
100
AcDbLine
 10
-214.5975769085753
 20
-101.9571417537317
 30
0.0
 11
-93.07267710433736
 21
-101.9571417537317
 31
0.0
  0
TEXT
  5
1E2
330
1F
100
AcDbEntity
  8
0-4
  6
Continuous
 62
     2
370
   211
100
AcDbText
 10
-218.3895769085753
 20
-45.20713572238607
 30
0.0
 40
9.144
  1
133
 50
90.0
 41
1.083333333333333
  7
ＭＳ ゴシック
100
AcDbText
  0
LINE
  5
1E3
330
1F
100
AcDbEntity
  8
0-4
  6
Continuous
 62
     7
370
     9
100
AcDbLine
 10
-214.5975769085753
 20
31.04287030895957
 30
0.0
 11
-50.41583706570187
 21
31.04287030895956
 31
0.0
  0
TEXT
  5
1E4
330
1F
100
AcDbEntity
  8
0-4
  6
Continuous
 62
     2
370
   211
100
AcDbText
 10
-47.57256510836054
 20
107.3824554559785
 30
0.0
 40
9.144
  1
φ310
 41
1.1
  7
ＭＳ ゴシック
100
AcDbText
  0
TEXT
  5
1E5
330
1F
100
AcDbEntity
  8
0-4
  6
Continuous
 62
     2
370
   211
100
AcDbText
 10
-47.5726394286787
 20
61.7668466118664
 30
0.0
 40
9.144
  1
φ137
 41
1.1
  7
ＭＳ ゴシック
100
AcDbText
  0
LINE
  5
1E6
330
1F
100
AcDbEntity
  8
0-5
  6
Continuous
 62
     7
370
     9
100
AcDbLine
 10
42.42740537560347
 20
-95.95721292213793
 30
0.0
 11
43.40637628987723
 21
-88.52139881212949
 31
0.0
  0
LINE
  5
1E7
330
1F
100
AcDbEntity
  8
0-5
  6
Continuous
 62
     7
370
     9
100
AcDbLine
 10
42.42740537560347
 20
-95.95721292213793
 30
0.0
 11
45.29750936631301
 21
-89.02814319689512
 31
0.0
  0
TEXT
  5
1E8
330
1F
100
AcDbEntity
  8
0-5
  6
Continuous
 62
     7
370
     9
100
AcDbText
 10
-222.1916050722271
 20
169.7429771543515
 30
0.0
 40
6.858000000000001
  1
ストレーナー：ＦＣ１５０
 41
1.152777777777778
  7
ＭＳ ゴシック
100
AcDbText
  0
LINE
  5
1E9
330
1F
100
AcDbEntity
  8
0-5
  6
Continuous
 62
     7
370
     9
100
AcDbLine
 10
-222.1916063094262
 20
165.785370273545
 30
0.0
 11
-99.2155996104552
 21
165.785370273545
 31
0.0
  0
LINE
  5
1EA
330
1F
100
AcDbEntity
  8
0-5
  6
Continuous
 62
     7
370
     9
100
AcDbLine
 10
-49.0725745640966
 20
28.01854121552725
 30
0.0
 11
-99.2155996104552
 21
165.785370273545
 31
0.0
  0
LINE
  5
1EB
330
1F
100
AcDbEntity
  8
0-5
  6
Continuous
 62
     7
370
     9
100
AcDbLine
 10
-49.0725745640966
 20
28.01854121552725
 30
0.0
 11
-52.53568916335935
 21
34.67112246436392
 31
0.0
  0
LINE
  5
1EC
330
1F
100
AcDbEntity
  8
0-5
  6
Continuous
 62
     7
370
     9
100
AcDbLine
 10
-49.0725745640966
 20
28.01854121552725
 30
0.0
 11
-50.69587166863236
 21
35.34076126892675
 31
0.0
  0
LINE
  5
1ED
330
1F
100
AcDbEntity
  8
0-A
  6
Continuous
 62
     2
370
     9
100
AcDbLine
 10
29.92754538530309
 20
-106.9572641186155
 30
0.0
 11
34.92742001579298
 21
-106.9572641186155
 31
0.0
  0
LINE
  5
1EE
330
1F
100
AcDbEntity
  8
0-A
  6
Continuous
 62
     2
370
     9
100
AcDbLine
 10
29.4273200972361
 20
-106.4572865649422
 30
0.0
 11
35.42744711634494
 21
-106.4572865649422
 31
0.0
  0
LINE
  5
1EF
330
1F
100
AcDbEntity
  8
0-A
  6
Continuous
 62
     2
370
     9
100
AcDbLine
 10
29.4273200972361
 20
-106.4572865649422
 30
0.0
 11
29.92754538530309
 21
-106.9572641186155
 31
0.0
  0
LINE
  5
1F0
330
1F
100
AcDbEntity
  8
0-A
  6
Continuous
 62
     2
370
     9
100
AcDbLine
 10
35.42744711634494
 20
-106.4572865649422
 30
0.0
 11
34.92742001579298
 21
-106.9572641186155
 31
0.0
  0
LINE
  5
1F1
330
1F
100
AcDbEntity
  8
0-A
  6
Continuous
 62
     2
370
     9
100
AcDbLine
 10
-92.07272514890295
 20
-106.9572641186155
 30
0.0
 11
-97.07259977939277
 21
-106.9572641186155
 31
0.0
  0
LINE
  5
1F2
330
1F
100
AcDbEntity
  8
0-A
  6
Continuous
 62
     2
370
     9
100
AcDbLine
 10
-91.57269804835093
 20
-106.4572865649422
 30
0.0
 11
-97.5726268799448
 21
-106.4572865649422
 31
0.0
  0
LINE
  5
1F3
330
1F
100
AcDbEntity
  8
0-A
  6
Continuous
 62
     2
370
     9
100
AcDbLine
 10
-91.57269804835093
 20
-106.4572865649422
 30
0.0
 11
-92.07272514890295
 21
-106.9572641186155
 31
0.0
  0
LINE
  5
1F4
330
1F
100
AcDbEntity
  8
0-A
  6
Continuous
 62
     2
370
     9
100
AcDbLine
 10
-97.5726268799448
 20
-106.4572865649422
 30
0.0
 11
-97.07259977939277
 21
-106.9572641186155
 31
0.0
  0
LINE
  5
1F5
330
1F
100
AcDbEntity
  8
0-A
  6
JWW_CENTER1
 62
     4
370
     9
100
AcDbLine
 10
-94.57266246414788
 20
-89.77524885794111
 30
0.0
 11
-94.57266246414788
 21
-109.0578535909701
 31
0.0
  0
LINE
  5
1F6
330
1F
100
AcDbEntity
  8
0-A
  6
JWW_CENTER1
 62
     4
370
     9
100
AcDbLine
 10
32.42748270054809
 20
-89.77524885794111
 30
0.0
 11
32.42748270054809
 21
-109.0578535909701
 31
0.0
  0
LINE
  5
1F7
330
1F
100
AcDbEntity
  8
0-A
  6
Continuous
 62
     2
370
     9
100
AcDbLine
 10
-70.07272184970529
 20
-119.643296505896
 30
0.0
 11
-78.0725608959921
 21
-119.643296505896
 31
0.0
  0
LINE
  5
1F8
330
1F
100
AcDbEntity
  8
0-A
  6
Continuous
 62
     2
370
     9
100
AcDbLine
 10
-78.0725608959921
 20
-119.643296505896
 30
0.0
 11
-77.39614690701708
 21
-120.3197600417498
 31
0.0
  0
LINE
  5
1F9
330
1F
100
AcDbEntity
  8
0-A
  6
Continuous
 62
     2
370
     9
100
AcDbLine
 10
-77.39614690701708
 20
-120.3197600417498
 30
0.0
 11
-70.74913583868029
 21
-120.3197600417498
 31
0.0
  0
LINE
  5
1FA
330
1F
100
AcDbEntity
  8
0-A
  6
Continuous
 62
     2
370
     9
100
AcDbLine
 10
-70.74913583868029
 20
-120.3197600417498
 30
0.0
 11
-70.07272184970529
 21
-119.643296505896
 31
0.0
  0
LINE
  5
1FB
330
1F
100
AcDbEntity
  8
0-A
  6
Continuous
 62
     2
370
     9
100
AcDbLine
 10
-81.57255241234103
 20
-101.6788864825565
 30
0.0
 11
-81.57255241234103
 21
-107.4571921254099
 31
0.0
  0
LINE
  5
1FC
330
1F
100
AcDbEntity
  8
0-A
  6
Continuous
 62
     2
370
     9
100
AcDbLine
 10
-66.57253214584128
 20
-101.6788864825565
 30
0.0
 11
-66.57253214584128
 21
-107.4571921254099
 31
0.0
  0
LINE
  5
1FD
330
1F
100
AcDbEntity
  8
0-A
  6
Continuous
 62
     2
370
     9
100
AcDbLine
 10
-77.81987181426247
 20
-101.6788864825565
 30
0.0
 11
-77.81987181426247
 21
-107.4571921254099
 31
0.0
  0
LINE
  5
1FE
330
1F
100
AcDbEntity
  8
0-A
  6
Continuous
 62
     2
370
     9
100
AcDbLine
 10
-70.3254109314349
 20
-101.6788864825565
 30
0.0
 11
-70.3254109314349
 21
-107.4571921254099
 31
0.0
  0
LINE
  5
1FF
330
1F
100
AcDbEntity
  8
0-A
  6
Continuous
 62
     2
370
     9
100
AcDbLine
 10
-79.69631120705932
 20
-100.9570875526277
 30
0.0
 11
-68.44897153863812
 21
-100.9570875526277
 31
0.0
  0
LINE
  5
200
330
1F
100
AcDbEntity
  8
0-A
  6
Continuous
 62
     2
370
     9
100
AcDbLine
 10
-78.0725608959921
 20
-80.99628514298803
 30
0.0
 11
-77.39614690701708
 21
-80.3197720602555
 31
0.0
  0
LINE
  5
201
330
1F
100
AcDbEntity
  8
0-A
  6
Continuous
 62
     2
370
     9
100
AcDbLine
 10
-70.74913583868029
 20
-80.3197720602555
 30
0.0
 11
-70.07272184970529
 21
-80.99628514298803
 31
0.0
  0
LINE
  5
202
330
1F
100
AcDbEntity
  8
0-A
  6
Continuous
 62
     2
370
     9
100
AcDbLine
 10
-74.82248383616164
 20
-82.31963272806962
 30
0.0
 11
-74.82248383616164
 21
-80.3197720602555
 31
0.0
  0
LINE
  5
203
330
1F
100
AcDbEntity
  8
0-A
  6
Continuous
 62
     2
370
     9
100
AcDbLine
 10
-73.32260072202071
 20
-82.31968227494843
 30
0.0
 11
-74.82248383616164
 21
-82.31963272806962
 31
0.0
  0
LINE
  5
204
330
1F
100
AcDbEntity
  8
0-A
  6
Continuous
 62
     2
370
     9
100
AcDbLine
 10
-73.32260072202071
 20
-82.31968227494843
 30
0.0
 11
-73.32260072202071
 21
-80.31972251337669
 31
0.0
  0
LINE
  5
205
330
1F
100
AcDbEntity
  8
0-A
  6
Continuous
 62
     2
370
     9
100
AcDbLine
 10
-77.39614690701708
 20
-80.3197720602555
 30
0.0
 11
-74.82248383616164
 21
-80.3197720602555
 31
0.0
  0
LINE
  5
206
330
1F
100
AcDbEntity
  8
0-A
  6
Continuous
 62
     2
370
     9
100
AcDbLine
 10
-73.32260072202071
 20
-80.3197720602555
 30
0.0
 11
-70.74913583868029
 21
-80.3197720602555
 31
0.0
  0
LINE
  5
207
330
1F
100
AcDbEntity
  8
0-A
  6
Continuous
 62
     2
370
     9
100
AcDbLine
 10
-70.07272184970529
 20
-80.99628514298803
 30
0.0
 11
-73.32260072202071
 21
-80.99628514298803
 31
0.0
  0
LINE
  5
208
330
1F
100
AcDbEntity
  8
0-A
  6
Continuous
 62
     2
370
     9
100
AcDbLine
 10
-74.82248383616164
 20
-80.99628514298803
 30
0.0
 11
-78.0725608959921
 21
-80.99628514298803
 31
0.0
  0
LINE
  5
209
330
1F
100
AcDbEntity
  8
0-A
  6
Continuous
 62
     2
370
     9
100
AcDbLine
 10
-77.39614690701708
 20
-100.9570875526277
 30
0.0
 11
-77.39614690701708
 21
-80.3197720602555
 31
0.0
  0
LINE
  5
20A
330
1F
100
AcDbEntity
  8
0-A
  6
Continuous
 62
     2
370
     9
100
AcDbLine
 10
-78.0725608959921
 20
-100.9570875526277
 30
0.0
 11
-78.0725608959921
 21
-80.99628514298803
 31
0.0
  0
LINE
  5
20B
330
1F
100
AcDbEntity
  8
0-A
  6
Continuous
 62
     2
370
     9
100
AcDbLine
 10
-70.74913583868029
 20
-100.9570875526277
 30
0.0
 11
-70.74913583868029
 21
-80.3197720602555
 31
0.0
  0
LINE
  5
20C
330
1F
100
AcDbEntity
  8
0-A
  6
Continuous
 62
     2
370
     9
100
AcDbLine
 10
-70.07272184970529
 20
-100.9570875526277
 30
0.0
 11
-70.07272184970529
 21
-80.99628514298803
 31
0.0
  0
LINE
  5
20D
330
1F
100
AcDbEntity
  8
0-A
  6
Continuous
 62
     2
370
     9
100
AcDbLine
 10
-70.74913583868029
 20
-107.4571921254099
 30
0.0
 11
-70.74913583868029
 21
-120.3197600417498
 31
0.0
  0
LINE
  5
20E
330
1F
100
AcDbEntity
  8
0-A
  6
Continuous
 62
     2
370
     9
100
AcDbLine
 10
-70.07272184970529
 20
-107.4571921254099
 30
0.0
 11
-70.07272184970529
 21
-119.643296505896
 31
0.0
  0
LINE
  5
20F
330
1F
100
AcDbEntity
  8
0-A
  6
Continuous
 62
     2
370
     9
100
AcDbLine
 10
-77.39614690701708
 20
-107.4571921254099
 30
0.0
 11
-77.39614690701708
 21
-120.3197600417498
 31
0.0
  0
LINE
  5
210
330
1F
100
AcDbEntity
  8
0-A
  6
Continuous
 62
     2
370
     9
100
AcDbLine
 10
-78.0725608959921
 20
-107.4571921254099
 30
0.0
 11
-78.0725608959921
 21
-119.643296505896
 31
0.0
  0
LINE
  5
211
330
1F
100
AcDbEntity
  8
0-A
  6
Continuous
 62
     2
370
     9
100
AcDbLine
 10
-88.572733632554
 20
-92.35723580442999
 30
0.0
 11
-88.572733632554
 21
-94.95715872103386
 31
0.0
  0
LINE
  5
212
330
1F
100
AcDbEntity
  8
0-A
  6
Continuous
 62
     2
370
     9
100
AcDbLine
 10
-100.5725912957417
 20
-92.35723580442999
 30
0.0
 11
-100.5725912957417
 21
-94.95715872103386
 31
0.0
  0
LINE
  5
213
330
1F
100
AcDbEntity
  8
0-A
  6
Continuous
 62
     2
370
     9
100
AcDbLine
 10
-95.05168168810117
 20
-90.98974195036391
 30
0.0
 11
-94.09364324019455
 21
-90.98974195036391
 31
0.0
  0
LINE
  5
214
330
1F
100
AcDbEntity
  8
0-A
  6
Continuous
 62
     2
370
     9
100
AcDbLine
 10
-94.09364324019455
 20
-90.36862227809678
 30
0.0
 11
-94.09364324019455
 21
-90.98974195036391
 31
0.0
  0
LINE
  5
215
330
1F
100
AcDbEntity
  8
0-A
  6
Continuous
 62
     2
370
     9
100
AcDbLine
 10
-95.05168168810117
 20
-90.36862227809678
 30
0.0
 11
-95.05168168810117
 21
-90.98974195036391
 31
0.0
  0
LINE
  5
216
330
1F
100
AcDbEntity
  8
0-A
  6
Continuous
 62
     2
370
     9
100
AcDbLine
 10
-100.5725912957417
 20
-94.95715872103386
 30
0.0
 11
-98.57268108104883
 21
-94.95715872103386
 31
0.0
  0
LINE
  5
217
330
1F
100
AcDbEntity
  8
0-A
  6
Continuous
 62
     2
370
     9
100
AcDbLine
 10
26.42755386895416
 20
-92.35723580442999
 30
0.0
 11
26.42755386895416
 21
-94.95715872103386
 31
0.0
  0
LINE
  5
218
330
1F
100
AcDbEntity
  8
0-A
  6
Continuous
 62
     2
370
     9
100
AcDbLine
 10
38.42741153214192
 20
-92.35723580442999
 30
0.0
 11
38.42741153214192
 21
-94.95715872103386
 31
0.0
  0
LINE
  5
219
330
1F
100
AcDbEntity
  8
0-A
  6
Continuous
 62
     2
370
     9
100
AcDbLine
 10
32.90630373698625
 20
-90.98974195036391
 30
0.0
 11
31.94826528907967
 21
-90.98974195036391
 31
0.0
  0
LINE
  5
21A
330
1F
100
AcDbEntity
  8
0-A
  6
Continuous
 62
     2
370
     9
100
AcDbLine
 10
31.94826528907967
 20
-90.36862227809678
 30
0.0
 11
31.94826528907967
 21
-90.98974195036391
 31
0.0
  0
LINE
  5
21B
330
1F
100
AcDbEntity
  8
0-A
  6
Continuous
 62
     2
370
     9
100
AcDbLine
 10
32.90630373698625
 20
-90.36862227809678
 30
0.0
 11
32.90630373698625
 21
-90.98974195036391
 31
0.0
  0
LINE
  5
21C
330
1F
100
AcDbEntity
  8
0-A
  6
Continuous
 62
     2
370
     9
100
AcDbLine
 10
38.42741153214192
 20
-94.95715872103386
 30
0.0
 11
36.42730312993395
 21
-94.95715872103386
 31
0.0
  0
LINE
  5
21D
330
1F
100
AcDbEntity
  8
0-5
  6
Continuous
 62
     3
370
     9
100
AcDbLine
 10
-163.0726096769857
 20
-131.8197887919006
 30
0.0
 11
-163.0726096769857
 21
-137.819816717252
 31
0.0
  0
LINE
  5
21E
330
1F
100
AcDbEntity
  8
0-5
  6
Continuous
 62
     3
370
     9
100
AcDbLine
 10
-157.0724826578767
 20
-131.8197887919006
 30
0.0
 11
-163.0726096769857
 21
-131.8197887919006
 31
0.0
  0
LINE
  5
21F
330
1F
100
AcDbEntity
  8
0-5
  6
Continuous
 62
     3
370
     9
100
AcDbLine
 10
-149.0724454240749
 20
-129.8198785772077
 30
0.0
 11
-149.0724454240749
 21
-116.8197685254008
 31
0.0
  0
LINE
  5
220
330
1F
100
AcDbEntity
  8
0-5
  6
Continuous
 62
     3
370
     9
100
AcDbLine
 10
-157.0724826578767
 20
-137.819816717252
 30
0.0
 11
-163.0726096769857
 21
-137.819816717252
 31
0.0
  0
LINE
  5
221
330
1F
100
AcDbEntity
  8
0-5
  6
Continuous
 62
     3
370
     9
100
AcDbLine
 10
-155.0725724431838
 20
-129.8198785772077
 30
0.0
 11
-155.0725724431838
 21
-116.8197685254008
 31
0.0
  0
LINE
  5
222
330
1F
100
AcDbEntity
  8
0-5
  6
Continuous
 62
     3
370
     9
100
AcDbLine
 10
-148.8976440357725
 20
-116.8197685254008
 30
0.0
 11
-155.2473738314862
 21
-116.8197685254008
 31
0.0
  0
LINE
  5
223
330
1F
100
AcDbEntity
  8
0-5
  6
Continuous
 62
     3
370
     9
100
AcDbLine
 10
-154.4326249569839
 20
-116.8197685254008
 30
0.0
 11
-154.4326249569839
 21
-114.8198087638291
 31
0.0
  0
LINE
  5
224
330
1F
100
AcDbEntity
  8
0-5
  6
Continuous
 62
     3
370
     9
100
AcDbLine
 10
-149.712789285305
 20
-116.8197685254008
 30
0.0
 11
-149.712789285305
 21
-114.8198087638291
 31
0.0
  0
LINE
  5
225
330
1F
100
AcDbEntity
  8
0-5
  6
Continuous
 62
     3
370
     9
100
AcDbLine
 10
-148.8976440357725
 20
-116.8197685254008
 30
0.0
 11
-148.8976440357725
 21
-114.8198087638291
 31
0.0
  0
LINE
  5
226
330
1F
100
AcDbEntity
  8
0-5
  6
Continuous
 62
     3
370
     9
100
AcDbLine
 10
-155.2473738314862
 20
-116.8197685254008
 30
0.0
 11
-155.2473738314862
 21
-114.8198087638291
 31
0.0
  0
LINE
  5
227
330
1F
100
AcDbEntity
  8
0-5
  6
JWW_CENTER1
 62
     3
370
     9
100
AcDbLine
 10
-157.0726808453918
 20
-134.8197532076975
 30
0.0
 11
-164.4609132201354
 21
-134.8197532076975
 31
0.0
  0
LINE
  5
228
330
1F
100
AcDbEntity
  8
0-A
  6
Continuous
 62
     2
370
     9
100
AcDbLine
 10
-97.5726268799448
 20
-94.95715872103386
 30
0.0
 11
-97.5726268799448
 21
-106.4572865649422
 31
0.0
  0
LINE
  5
229
330
1F
100
AcDbEntity
  8
0-A
  6
Continuous
 62
     2
370
     9
100
AcDbLine
 10
-97.07259977939277
 20
-94.95715872103386
 30
0.0
 11
-97.07259977939277
 21
-106.9572641186155
 31
0.0
  0
LINE
  5
22A
330
1F
100
AcDbEntity
  8
0-A
  6
Continuous
 62
     2
370
     9
100
AcDbLine
 10
-92.07272514890295
 20
-94.95715872103386
 30
0.0
 11
-92.07272514890295
 21
-106.9572641186155
 31
0.0
  0
LINE
  5
22B
330
1F
100
AcDbEntity
  8
0-A
  6
Continuous
 62
     2
370
     9
100
AcDbLine
 10
-91.57269804835093
 20
-94.95715872103386
 30
0.0
 11
-91.57269804835093
 21
-106.4572865649422
 31
0.0
  0
LINE
  5
22C
330
1F
100
AcDbEntity
  8
0-A
  6
Continuous
 62
     2
370
     9
100
AcDbLine
 10
35.42744711634494
 20
-94.95715872103386
 30
0.0
 11
35.42744711634494
 21
-106.4572865649422
 31
0.0
  0
LINE
  5
22D
330
1F
100
AcDbEntity
  8
0-A
  6
Continuous
 62
     2
370
     9
100
AcDbLine
 10
34.92742001579298
 20
-94.95715872103386
 30
0.0
 11
34.92742001579298
 21
-106.9572641186155
 31
0.0
  0
LINE
  5
22E
330
1F
100
AcDbEntity
  8
0-A
  6
Continuous
 62
     2
370
     9
100
AcDbLine
 10
29.4273200972361
 20
-94.95715872103386
 30
0.0
 11
29.4273200972361
 21
-106.4572865649422
 31
0.0
  0
LINE
  5
22F
330
1F
100
AcDbEntity
  8
0-A
  6
Continuous
 62
     2
370
     9
100
AcDbLine
 10
29.92754538530309
 20
-94.95715872103386
 30
0.0
 11
29.92754538530309
 21
-106.9572641186155
 31
0.0
  0
ARC
  5
230
330
1F
100
AcDbEntity
  8
0-A
  6
Continuous
 62
     2
370
     9
100
AcDbCircle
 10
-79.69631120705932
 20
-103.7573780469795
 30
0.0
 40
2.800173594684674
100
AcDbArc
 50
47.92556762695312
 51
132.0746307373047
  0
ARC
  5
231
330
1F
100
AcDbEntity
  8
0-A
  6
Continuous
 62
     2
370
     9
100
AcDbCircle
 10
-74.07254227909115
 20
-111.0465662110608
 30
0.0
 40
10.08940975730484
100
AcDbArc
 50
68.19786071777344
 51
111.8021392822266
  0
ARC
  5
232
330
1F
100
AcDbEntity
  8
0-A
  6
Continuous
 62
     2
370
     9
100
AcDbCircle
 10
-68.44897153863812
 20
-103.7573780469795
 30
0.0
 40
2.80018946516928
100
AcDbArc
 50
47.92572021484374
 51
132.0742797851562
  0
ARC
  5
233
330
1F
100
AcDbEntity
  8
0-A
  6
Continuous
 62
     2
370
     9
100
AcDbCircle
 10
-94.57266246414788
 20
-100.3573721319895
 30
0.0
 40
10.0000000920535
100
AcDbArc
 50
53.130126953125
 51
87.25430297851562
  0
ARC
  5
234
330
1F
100
AcDbEntity
  8
0-A
  6
Continuous
 62
     2
370
     9
100
AcDbCircle
 10
-94.57266246414788
 20
-100.3573721319895
 30
0.0
 40
10.0000000920535
100
AcDbArc
 50
92.74591064453126
 51
126.869873046875
  0
ARC
  5
235
330
1F
100
AcDbEntity
  8
0-A
  6
Continuous
 62
     2
370
     9
100
AcDbCircle
 10
32.42748270054809
 20
-100.3573721319895
 30
0.0
 40
10.0000000920535
100
AcDbArc
 50
92.74569702148439
 51
126.869873046875
  0
ARC
  5
236
330
1F
100
AcDbEntity
  8
0-A
  6
Continuous
 62
     2
370
     9
100
AcDbCircle
 10
32.42748270054809
 20
-100.3573721319895
 30
0.0
 40
10.0000000920535
100
AcDbArc
 50
53.130126953125
 51
87.25408935546876
  0
ARC
  5
237
330
1F
100
AcDbEntity
  8
0-5
  6
Continuous
 62
     3
370
     9
100
AcDbCircle
 10
-157.0724826578767
 20
-129.8198785772077
 30
0.0
 40
2.000000018410701
100
AcDbArc
 50
270.0
 51
0.0
  0
ARC
  5
238
330
1F
100
AcDbEntity
  8
0-5
  6
Continuous
 62
     3
370
     9
100
AcDbCircle
 10
-157.0724826578767
 20
-129.8198785772077
 30
0.0
 40
8.000000073642804
100
AcDbArc
 50
270.0
 51
0.0
  0
ARC
  5
239
330
1F
100
AcDbEntity
  8
0-5
  6
JWW_CENTER1
 62
     3
370
     9
100
AcDbCircle
 10
-157.0726808453918
 20
-129.8198785772077
 30
0.0
 40
5.000000046026752
100
AcDbArc
 50
270.0
 51
0.0
  0
LINE
  5
23A
330
1F
100
AcDbEntity
  8
0-5
  6
Continuous
 62
     7
370
     9
100
AcDbLine
 10
-163.0726096769857
 20
-134.8197532076975
 30
0.0
 11
-167.6383203945511
 21
-140.7699032598818
 31
0.0
  0
LINE
  5
23B
330
1F
100
AcDbEntity
  8
0-5
  6
Continuous
 62
     7
370
     9
100
AcDbLine
 10
-163.0726096769857
 20
-134.8197532076975
 30
0.0
 11
-165.9427354197239
 21
-141.7488497015322
 31
0.0
  0
LINE
  5
23C
330
1F
100
AcDbEntity
  8
0-5
  6
Continuous
 62
     7
370
     9
100
AcDbLine
 10
32.90630373698625
 20
-90.36862227809678
 30
0.0
 11
33.88527465126
 21
-82.93277105211499
 31
0.0
  0
LINE
  5
23D
330
1F
100
AcDbEntity
  8
0-5
  6
Continuous
 62
     7
370
     9
100
AcDbLine
 10
32.90630373698625
 20
-90.36862227809678
 30
0.0
 11
35.77640772769578
 21
-83.43951543688061
 31
0.0
  0
LINE
  5
23E
330
1F
100
AcDbEntity
  8
0-5
  6
Continuous
 62
     7
370
     9
100
AcDbLine
 10
-74.82248383616164
 20
-80.3197720602555
 30
0.0
 11
-78.28559843542439
 21
-73.66719081141885
 31
0.0
  0
LINE
  5
23F
330
1F
100
AcDbEntity
  8
0-5
  6
Continuous
 62
     7
370
     9
100
AcDbLine
 10
-74.82248383616164
 20
-80.3197720602555
 30
0.0
 11
-76.44578094069742
 21
-72.99755200685601
 31
0.0
  0
LINE
  5
240
330
1F
100
AcDbEntity
  8
0-5
  6
Continuous
 62
     7
370
     9
100
AcDbLine
 10
32.90630373698625
 20
-90.36862227809678
 30
0.0
 11
97.90347955639595
 21
152.2037477185769
 31
0.0
  0
LINE
  5
241
330
1F
100
AcDbEntity
  8
0-4
  6
Continuous
 62
     7
370
     9
100
AcDbLine
 10
-153.5726750760262
 20
81.16444010799901
 30
0.0
 11
91.42731137792802
 21
81.16444010799901
 31
0.0
  0
LINE
  5
242
330
1F
100
AcDbEntity
  8
0-4
  6
Continuous
 62
     7
370
     9
100
AcDbLine
 10
-153.5726750760262
 20
81.16444010799901
 30
0.0
 11
-146.1368386157226
 21
82.14338654964939
 31
0.0
  0
LINE
  5
243
330
1F
100
AcDbEntity
  8
0-4
  6
Continuous
 62
     7
370
     9
100
AcDbLine
 10
-153.5726750760262
 20
81.16444010799901
 30
0.0
 11
-146.1368386157226
 21
80.18549366634863
 31
0.0
  0
LINE
  5
244
330
1F
100
AcDbEntity
  8
0-4
  6
Continuous
 62
     7
370
     9
100
AcDbLine
 10
91.42731137792802
 20
81.16444010799901
 30
0.0
 11
83.99147491762443
 21
82.14338654964939
 31
0.0
  0
LINE
  5
245
330
1F
100
AcDbEntity
  8
0-4
  6
Continuous
 62
     7
370
     9
100
AcDbLine
 10
91.42731137792802
 20
81.16444010799901
 30
0.0
 11
83.99147491762443
 21
80.18549366634863
 31
0.0
  0
LINE
  5
246
330
1F
100
AcDbEntity
  8
0-4
  6
Continuous
 62
     7
370
     9
100
AcDbLine
 10
-153.5726750760262
 20
82.06444010799902
 30
0.0
 11
-153.5726750760262
 21
-85.95701492514482
 31
0.0
  0
LINE
  5
247
330
1F
100
AcDbEntity
  8
0-4
  6
Continuous
 62
     7
370
     9
100
AcDbLine
 10
91.42731137792802
 20
82.06444010799902
 30
0.0
 11
91.42731137792802
 21
-85.95694657084306
 31
0.0
  0
TEXT
  5
248
330
1F
100
AcDbEntity
  8
0-4
  6
Continuous
 62
     2
370
   211
100
AcDbText
 10
-47.5726818490491
 20
85.85644010799902
 30
0.0
 40
9.144
  1
φ245
 41
1.1
  7
ＭＳ ゴシック
100
AcDbText
  0
LINE
  5
249
330
1F
100
AcDbEntity
  8
0-4
  6
Continuous
 62
     7
370
     9
100
AcDbLine
 10
137.8261211335691
 20
-84.81981777770835
 30
0.0
 11
136.8471746919187
 21
-92.25565423801191
 31
0.0
  0
LINE
  5
24A
330
1F
100
AcDbEntity
  8
0-4
  6
Continuous
 62
     7
370
     9
100
AcDbLine
 10
137.8261211335691
 20
-84.81981777770835
 30
0.0
 11
138.8050675752195
 21
-92.25565423801191
 31
0.0
  0
LINE
  5
24B
330
1F
100
AcDbEntity
  8
0-4
  6
Continuous
 62
     7
370
     9
100
AcDbLine
 10
163.6217220986526
 20
-84.81981777770835
 30
0.0
 11
126.044526449794
 21
-84.81981777770835
 31
0.0
  0
LINE
  5
24C
330
1F
100
AcDbEntity
  8
0-3
  6
Continuous
 62
     7
370
     9
100
AcDbLine
 10
19.79382664562483
 20
-170.2250323079845
 30
0.0
 11
29.08603840696191
 21
-164.4574525940511
 31
0.0
  0
LINE
  5
24D
330
1F
100
AcDbEntity
  8
0-3
  6
Continuous
 62
     7
370
     9
100
AcDbLine
 10
19.79382664562483
 20
-172.9082324113003
 30
0.0
 11
29.08603840696191
 21
-167.140652697367
 31
0.0
  0
LINE
  5
24E
330
1F
100
AcDbEntity
  8
0-3
  6
Continuous
 62
     7
370
     9
100
AcDbLine
 10
-91.50033675340812
 20
-170.2250323079845
 30
0.0
 11
-82.20812499207103
 21
-164.4574525940511
 31
0.0
  0
LINE
  5
24F
330
1F
100
AcDbEntity
  8
0-3
  6
Continuous
 62
     7
370
     9
100
AcDbLine
 10
-91.50033675340812
 20
-172.9082324113003
 30
0.0
 11
-82.20812499207103
 21
-167.140652697367
 31
0.0
  0
LINE
  5
250
330
1F
100
AcDbEntity
  8
0-2
  6
Continuous
 62
     6
370
     5
100
AcDbLine
 10
-1.722604398269512
 20
-93.5994751489643
 30
0.0
 11
-60.42257536533029
 21
-93.5994751489643
 31
0.0
  0
LINE
  5
251
330
1F
100
AcDbEntity
  8
0-2
  6
Continuous
 62
     6
370
     5
100
AcDbLine
 10
-7.736406355919058
 20
-7.599471260624171
 30
0.0
 11
-54.40897159519577
 21
-7.599471260624171
 31
0.0
  0
LINE
  5
252
330
1F
100
AcDbEntity
  8
0-2
  6
Continuous
 62
     6
370
     5
100
AcDbLine
 10
-6.967042422370612
 20
-18.59947291022303
 30
0.0
 11
-55.17813734122919
 21
-18.59947291022303
 31
0.0
  0
LINE
  5
253
330
1F
100
AcDbEntity
  8
0-2
  6
Continuous
 62
     6
370
     5
100
AcDbLine
 10
-1.722604398269512
 20
-93.5994751489643
 30
0.0
 11
21.92730996398617
 21
-99.9364218499552
 31
0.0
  0
LINE
  5
254
330
1F
100
AcDbEntity
  8
0-2
  6
Continuous
 62
     6
370
     5
100
AcDbLine
 10
21.92730996398617
 20
-99.9364218499552
 30
0.0
 11
24.92747256729816
 21
-101.9571417537317
 31
0.0
  0
LINE
  5
255
330
1F
100
AcDbEntity
  8
0-2
  6
Continuous
 62
     6
370
     5
100
AcDbLine
 10
37.42735733103788
 20
-95.95711382838033
 30
0.0
 11
36.42730312993395
 21
-94.95715872103386
 31
0.0
  0
LINE
  5
256
330
1F
100
AcDbEntity
  8
0-2
  6
Continuous
 62
     6
370
     5
100
AcDbLine
 10
28.42746408364709
 20
-95.95711382838033
 30
0.0
 11
27.42740988254317
 21
-94.95715872103386
 31
0.0
  0
LINE
  5
257
330
1F
100
AcDbEntity
  8
0-2
  6
Continuous
 62
     6
370
     5
100
AcDbLine
 10
28.42746408364709
 20
-95.95711382838033
 30
0.0
 11
26.92738278199109
 21
-101.9571417537317
 31
0.0
  0
LINE
  5
258
330
1F
100
AcDbEntity
  8
0-2
  6
Continuous
 62
     6
370
     5
100
AcDbLine
 10
22.69548477244413
 20
-94.95715872103386
 30
0.0
 11
36.42730312993395
 21
-94.95715872103386
 31
0.0
  0
LINE
  5
259
330
1F
100
AcDbEntity
  8
0-2
  6
Continuous
 62
     6
370
     5
100
AcDbLine
 10
19.92739974929324
 20
-94.2154419458393
 30
0.0
 11
18.42751663515227
 21
-98.99859852858691
 31
0.0
  0
LINE
  5
25A
330
1F
100
AcDbEntity
  8
0-2
  6
Continuous
 62
     6
370
     5
100
AcDbLine
 10
-11.12204367606572
 20
-8.63440646438261
 30
0.0
 11
-7.736406355919058
 21
-7.599471260624171
 31
0.0
  0
LINE
  5
25B
330
1F
100
AcDbEntity
  8
0-2
  6
Continuous
 62
     6
370
     5
100
AcDbLine
 10
-12.18135594417928
 20
-15.71118715917482
 30
0.0
 11
-12.53254422090461
 21
-10.68653908929974
 31
0.0
  0
LINE
  5
25C
330
1F
100
AcDbEntity
  8
0-2
  6
Continuous
 62
     6
370
     5
100
AcDbLine
 10
-10.7486583976511
 20
-17.49091104461155
 30
0.0
 11
-6.967042422370612
 21
-18.59947291022303
 31
0.0
  0
LINE
  5
25D
330
1F
100
AcDbEntity
  8
0-2
  6
Continuous
 62
     6
370
     5
100
AcDbLine
 10
-51.39652136594864
 20
-17.49091104461155
 30
0.0
 11
-55.17813734122919
 21
-18.59947291022303
 31
0.0
  0
LINE
  5
25E
330
1F
100
AcDbEntity
  8
0-2
  6
Continuous
 62
     6
370
     5
100
AcDbLine
 10
-11.91756836160508
 20
-9.099453468522661
 30
0.0
 11
-50.22761140199478
 21
-9.099453468522661
 31
0.0
  0
LINE
  5
25F
330
1F
100
AcDbEntity
  8
0-2
  6
Continuous
 62
     6
370
     5
100
AcDbLine
 10
-11.47679932806253
 20
-17.09949070232455
 30
0.0
 11
-50.66838043553722
 21
-17.09949070232455
 31
0.0
  0
LINE
  5
260
330
1F
100
AcDbEntity
  8
0-2
  6
Continuous
 62
     6
370
     5
100
AcDbLine
 10
36.21147692600957
 20
-100.8209327297664
 30
0.0
 11
37.42735733103788
 21
-95.95711382838033
 31
0.0
  0
LINE
  5
261
330
1F
100
AcDbEntity
  8
0-2
  6
Continuous
 62
     6
370
     5
100
AcDbLine
 10
-13.07260519950322
 20
28.01854121552725
 30
0.0
 11
-11.07269498481028
 21
19.04649331400554
 31
0.0
  0
LINE
  5
262
330
1F
100
AcDbEntity
  8
0-2
  6
JWW_DASHED1
 62
     6
370
     5
100
AcDbLine
 10
-49.07257456409658
 20
28.01854121552725
 30
0.0
 11
-51.07248477878951
 21
19.04649331400554
 31
0.0
  0
LINE
  5
263
330
1F
100
AcDbEntity
  8
0-2
  6
Continuous
 62
     6
370
     5
100
AcDbLine
 10
6.793314937290997
 20
-90.69622624052738
 30
0.0
 11
22.69548477244413
 21
-94.95715872103386
 31
0.0
  0
LINE
  5
264
330
1F
100
AcDbEntity
  8
0-2
  6
Continuous
 62
     6
370
     5
100
AcDbLine
 10
4.037517540075072
 20
-89.9577795593317
 30
0.0
 11
-3.257368515064885
 21
14.36203411376874
 31
0.0
  0
LINE
  5
265
330
1F
100
AcDbEntity
  8
0-2
  6
Continuous
 62
     6
370
     5
100
AcDbLine
 10
4.037517540075072
 20
-89.9577795593317
 30
0.0
 11
5.537400654216043
 21
-95.5447847032521
 31
0.0
  0
LINE
  5
266
330
1F
100
AcDbEntity
  8
0-2
  6
Continuous
 62
     6
370
     5
100
AcDbLine
 10
-49.61243735518011
 20
-10.68653908929974
 30
0.0
 11
-49.96382381942058
 21
-15.71118715917482
 31
0.0
  0
LINE
  5
267
330
1F
100
AcDbEntity
  8
0-2
  6
Continuous
 62
     6
370
     5
100
AcDbLine
 10
-51.022937900019
 20
-8.63440646438261
 30
0.0
 11
-54.40897159519577
 21
-7.599471260624171
 31
0.0
  0
LINE
  5
268
330
1F
100
AcDbEntity
  8
0-2
  6
Continuous
 62
     6
370
     5
100
AcDbLine
 10
-1.722604398269512
 20
-93.5994751489643
 30
0.0
 11
-9.242631470542648
 21
13.94356117567297
 31
0.0
  0
LINE
  5
269
330
1F
100
AcDbEntity
  8
0-2
  6
Continuous
 62
     6
370
     5
100
AcDbLine
 10
-60.42257536533029
 20
-93.5994751489643
 30
0.0
 11
-55.17813734122919
 21
-18.59947291022303
 31
0.0
  0
LINE
  5
26A
330
1F
100
AcDbEntity
  8
0-2
  6
Continuous
 62
     6
370
     5
100
AcDbLine
 10
-54.40877340768068
 20
-7.599471260624171
 30
0.0
 11
-52.90254829305714
 21
13.94356117567297
 31
0.0
  0
LINE
  5
26B
330
1F
100
AcDbEntity
  8
0-2
  6
Continuous
 62
     6
370
     5
100
AcDbLine
 10
3.662546761539915
 20
-84.59948280781595
 30
0.0
 11
-59.79313181742972
 21
-84.59948280781595
 31
0.0
  0
LINE
  5
26C
330
1F
100
AcDbEntity
  8
0-2
  6
Continuous
 62
     6
370
     5
100
AcDbLine
 10
-84.07268791510106
 20
-99.9364218499552
 30
0.0
 11
-87.07265233089795
 21
-101.9571417537317
 31
0.0
  0
LINE
  5
26D
330
1F
100
AcDbEntity
  8
0-2
  6
Continuous
 62
     6
370
     5
100
AcDbLine
 10
-99.57273528215282
 20
-95.95711382838033
 30
0.0
 11
-98.57268108104883
 21
-94.95715872103386
 31
0.0
  0
LINE
  5
26E
330
1F
100
AcDbEntity
  8
0-2
  6
Continuous
 62
     6
370
     5
100
AcDbLine
 10
-90.57264384724694
 20
-95.95711382838033
 30
0.0
 11
-89.572787833658
 21
-94.95715872103386
 31
0.0
  0
LINE
  5
26F
330
1F
100
AcDbEntity
  8
0-2
  6
Continuous
 62
     6
370
     5
100
AcDbLine
 10
-90.57264384724694
 20
-95.95711382838033
 30
0.0
 11
-89.07256254559088
 21
-101.9571417537317
 31
0.0
  0
LINE
  5
270
330
1F
100
AcDbEntity
  8
0-2
  6
Continuous
 62
     6
370
     5
100
AcDbLine
 10
-82.07257951289304
 20
-94.2154419458393
 30
0.0
 11
-80.57269639875211
 21
-98.99859852858691
 31
0.0
  0
LINE
  5
271
330
1F
100
AcDbEntity
  8
0-2
  6
Continuous
 62
     6
370
     5
100
AcDbLine
 10
-98.35665668960937
 20
-100.8209327297664
 30
0.0
 11
-99.57273528215282
 21
-95.95711382838033
 31
0.0
  0
LINE
  5
272
330
1F
100
AcDbEntity
  8
0-2
  6
Continuous
 62
     6
370
     5
100
AcDbLine
 10
-66.18249911615985
 20
-89.95738318430153
 30
0.0
 11
-58.88781124853492
 21
14.36203411376874
 31
0.0
  0
LINE
  5
273
330
1F
100
AcDbEntity
  8
0-2
  6
Continuous
 62
     6
370
     5
100
AcDbLine
 10
-66.18249911615985
 20
-89.95738318430153
 30
0.0
 11
-67.68258041781584
 21
-95.5447847032521
 31
0.0
  0
LINE
  5
274
330
1F
100
AcDbEntity
  8
0-2
  6
Continuous
 62
     6
370
     5
100
AcDbLine
 10
-84.84066453604399
 20
-94.95715872103386
 30
0.0
 11
-98.57268108104883
 21
-94.95715872103386
 31
0.0
  0
LINE
  5
275
330
1F
100
AcDbEntity
  8
0-2
  6
Continuous
 62
     6
370
     5
100
AcDbLine
 10
-68.93849470089074
 20
-90.69622624052738
 30
0.0
 11
-70.07272184970529
 21
-91.00014679490573
 31
0.0
  0
LINE
  5
276
330
1F
100
AcDbEntity
  8
0-2
  6
Continuous
 62
     6
370
     5
100
AcDbLine
 10
-78.0725608959921
 20
-93.1437429580331
 30
0.0
 11
-84.84066453604399
 21
-94.95715872103386
 31
0.0
  0
LINE
  5
277
330
1F
100
AcDbEntity
  8
0-2
  6
Continuous
 62
     6
370
     5
100
AcDbLine
 10
-60.42257536533029
 20
-93.5994751489643
 30
0.0
 11
-70.07272184970529
 21
-96.18522765823974
 31
0.0
  0
LINE
  5
278
330
1F
100
AcDbEntity
  8
0-2
  6
Continuous
 62
     6
370
     5
100
AcDbLine
 10
-78.0725608959921
 20
-98.3287247276096
 30
0.0
 11
-84.07268791510106
 21
-99.9364218499552
 31
0.0
  0
LINE
  5
279
330
1F
100
AcDbEntity
  8
0-2
  6
Continuous
 62
     6
370
     5
100
AcDbLine
 10
-81.57255241234103
 20
-101.9571417537317
 30
0.0
 11
-88.38742830595228
 21
-101.9571417537317
 31
0.0
  0
LINE
  5
27A
330
1F
100
AcDbEntity
  8
0-2
  6
Continuous
 62
     6
370
     5
100
AcDbLine
 10
26.24224854235248
 20
-101.9571417537317
 30
0.0
 11
-66.57253214584128
 21
-101.9571417537317
 31
0.0
  0
ARC
  5
27B
330
1F
100
AcDbEntity
  8
0-2
  6
Continuous
 62
     6
370
     5
100
AcDbCircle
 10
-42.92677972140231
 20
13.24594112258415
 30
0.0
 40
10.00000086622349
100
AcDbArc
 50
107.2388305664062
 51
176.0000457763672
  0
ARC
  5
27C
330
1F
100
AcDbEntity
  8
0-2
  6
Continuous
 62
     6
370
     5
100
AcDbCircle
 10
-42.92677972140231
 20
13.24594112258415
 30
0.0
 40
16.00000014728561
100
AcDbArc
 50
107.2388305664062
 51
176.0000457763672
  0
ARC
  5
27D
330
1F
100
AcDbEntity
  8
0-2
  6
Continuous
 62
     6
370
     5
100
AcDbCircle
 10
-19.21840004219749
 20
13.24594112258415
 30
0.0
 40
10.00000086622349
100
AcDbArc
 50
3.999954223632812
 51
72.76116943359376
  0
ARC
  5
27E
330
1F
100
AcDbEntity
  8
0-2
  6
Continuous
 62
     6
370
     5
100
AcDbCircle
 10
-19.21840004219749
 20
13.24594112258415
 30
0.0
 40
16.00000014728561
100
AcDbArc
 50
3.999954223632812
 51
72.76116943359376
  0
ARC
  5
27F
330
1F
100
AcDbEntity
  8
0-2
  6
Continuous
 62
     6
370
     5
100
AcDbCircle
 10
-31.07258988179993
 20
-24.95717975341876
 30
0.0
 40
50.00000355694745
100
AcDbArc
 50
72.7611541748047
 51
107.2388458251953
  0
ARC
  5
280
330
1F
100
AcDbEntity
  8
0-2
  6
Continuous
 62
     6
370
     5
100
AcDbCircle
 10
-31.07258988179993
 20
-24.95717975341876
 30
0.0
 40
56.00000051549962
100
AcDbArc
 50
72.7611541748047
 51
107.2388458251953
  0
ARC
  5
281
330
1F
100
AcDbEntity
  8
0-2
  6
Continuous
 62
     6
370
     5
100
AcDbCircle
 10
-10.53758869408879
 20
-10.54701507868191
 30
0.0
 40
2.000000018410701
100
AcDbArc
 50
106.9967193603516
 51
184.0003662109375
  0
ARC
  5
282
330
1F
100
AcDbEntity
  8
0-2
  6
Continuous
 62
     6
370
     5
100
AcDbCircle
 10
-10.18620222984831
 20
-15.5716631485571
 30
0.0
 40
2.000000018410701
100
AcDbArc
 50
184.0003662109375
 51
253.6626739501953
  0
ARC
  5
283
330
1F
100
AcDbEntity
  8
0-2
  6
Continuous
 62
     6
370
     5
100
AcDbCircle
 10
-51.95917572126658
 20
-15.5716631485571
 30
0.0
 40
2.000000018410701
100
AcDbArc
 50
286.3373260498047
 51
355.9996337890625
  0
ARC
  5
284
330
1F
100
AcDbEntity
  8
0-2
  6
Continuous
 62
     6
370
     5
100
AcDbCircle
 10
-51.60759106951107
 20
-10.54701507868191
 30
0.0
 40
2.000000018410701
100
AcDbArc
 50
355.9996337890625
 51
73.00326538085936
  0
ARC
  5
285
330
1F
100
AcDbEntity
  8
0-2
  6
Continuous
 62
     6
370
     5
100
AcDbCircle
 10
7.828646516079601
 20
-86.83251108712415
 30
0.0
 40
4.000000036821402
100
AcDbArc
 50
183.9998474121094
 51
254.999984741211
  0
ARC
  5
286
330
1F
100
AcDbEntity
  8
0-2
  6
Continuous
 62
     6
370
     5
100
AcDbCircle
 10
-69.97382627967933
 20
-86.83251108712415
 30
0.0
 40
4.000000036821402
100
AcDbArc
 50
285.0000152587891
 51
356.0001525878906
  0
ARC
  5
287
330
1F
100
AcDbEntity
  8
0-2
  6
Continuous
 62
     6
370
     5
100
AcDbCircle
 10
34.75618600276206
 20
-100.4571595458332
 30
0.0
 40
1.500000013808026
100
AcDbArc
 50
296.5782012939453
 51
345.9637603759766
  0
ARC
  5
288
330
1F
100
AcDbEntity
  8
0-2
  6
Continuous
 62
     6
370
     5
100
AcDbCircle
 10
-96.9013657663619
 20
-100.4571595458332
 30
0.0
 40
1.500000013808026
100
AcDbArc
 50
194.0362396240234
 51
243.4217987060547
  0
LINE
  5
289
330
1F
100
AcDbEntity
  8
0-1
  6
Continuous
 62
     2
370
     9
100
AcDbLine
 10
-97.5726268799448
 20
-106.2007823735473
 30
0.0
 11
-97.5726268799448
 21
-107.9974017446448
 31
0.0
  0
LINE
  5
28A
330
1F
100
AcDbEntity
  8
0-1
  6
Continuous
 62
     2
370
     9
100
AcDbLine
 10
-97.07259977939277
 20
-106.7007103803417
 30
0.0
 11
-97.07259977939277
 21
-108.1313765048403
 31
0.0
  0
LINE
  5
28B
330
1F
100
AcDbEntity
  8
0-1
  6
Continuous
 62
     2
370
     9
100
AcDbLine
 10
-92.07272514890295
 20
-106.7007103803417
 30
0.0
 11
-92.07272514890295
 21
-109.4711241067949
 31
0.0
  0
LINE
  5
28C
330
1F
100
AcDbEntity
  8
0-1
  6
Continuous
 62
     2
370
     9
100
AcDbLine
 10
-91.57249986083585
 20
-106.2006337329109
 30
0.0
 11
-91.57249986083585
 21
-109.6050988669904
 31
0.0
  0
LINE
  5
28D
330
1F
100
AcDbEntity
  8
0-1
  6
Continuous
 62
     2
370
     9
100
AcDbLine
 10
-153.5726893290429
 20
-91.95694657084306
 30
0.0
 11
-153.0724640409758
 21
-90.92290321090246
 31
0.0
  0
LINE
  5
28E
330
1F
100
AcDbEntity
  8
0-1
  6
Continuous
 62
     2
370
     9
100
AcDbLine
 10
-153.0724640409758
 20
-90.92290321090246
 30
0.0
 11
-145.8406016156319
 21
-90.92290321090246
 31
0.0
  0
LINE
  5
28F
330
1F
100
AcDbEntity
  8
0-1
  6
Continuous
 62
     2
370
     9
100
AcDbLine
 10
-68.07320801004252
 20
-107.4571921254099
 30
0.0
 11
-69.07306402363147
 21
-111.4570621016745
 31
0.0
  0
LINE
  5
290
330
1F
100
AcDbEntity
  8
0-1
  6
Continuous
 62
     2
370
     9
100
AcDbLine
 10
-69.07306402363147
 20
-111.4570621016745
 30
0.0
 11
-68.57323511059454
 21
-112.4571163027786
 31
0.0
  0
LINE
  5
291
330
1F
100
AcDbEntity
  8
0-1
  6
Continuous
 62
     2
370
     9
100
AcDbLine
 10
-80.07266929820011
 20
-107.4571921254099
 30
0.0
 11
-79.07261509709613
 21
-111.4570621016745
 31
0.0
  0
LINE
  5
292
330
1F
100
AcDbEntity
  8
0-1
  6
Continuous
 62
     2
370
     9
100
AcDbLine
 10
-79.07261509709613
 20
-111.4570621016745
 30
0.0
 11
-79.5726421976481
 21
-112.4571163027786
 31
0.0
  0
LINE
  5
293
330
1F
100
AcDbEntity
  8
0-1
  6
Continuous
 62
     2
370
     9
100
AcDbLine
 10
-61.07263041479941
 20
-111.4571611954321
 30
0.0
 11
11.92736251549135
 21
-111.4571611954321
 31
0.0
  0
LINE
  5
294
330
1F
100
AcDbEntity
  8
0-1
  6
Continuous
 62
     2
370
     9
100
AcDbLine
 10
35.42744711634494
 20
-106.2007823735473
 30
0.0
 11
35.42744711634494
 21
-107.9974017446448
 31
0.0
  0
LINE
  5
295
330
1F
100
AcDbEntity
  8
0-1
  6
Continuous
 62
     2
370
     9
100
AcDbLine
 10
34.92742001579298
 20
-106.7007103803417
 30
0.0
 11
34.92742001579298
 21
-108.1313765048403
 31
0.0
  0
LINE
  5
296
330
1F
100
AcDbEntity
  8
0-1
  6
Continuous
 62
     2
370
     9
100
AcDbLine
 10
29.92754538530309
 20
-106.7007103803417
 30
0.0
 11
29.92754538530309
 21
-109.4711241067949
 31
0.0
  0
LINE
  5
297
330
1F
100
AcDbEntity
  8
0-1
  6
Continuous
 62
     2
370
     9
100
AcDbLine
 10
29.4273200972361
 20
-106.2006337329109
 30
0.0
 11
29.4273200972361
 21
-109.6050988669904
 31
0.0
  0
LINE
  5
298
330
1F
100
AcDbEntity
  8
0-1
  6
JWW_PHANTOM2
 62
     2
370
     9
100
AcDbLine
 10
90.40644748774044
 20
-93.26577692044486
 30
0.0
 11
91.68634246014024
 21
-92.92291251935296
 31
0.0
  0
LINE
  5
299
330
1F
100
AcDbEntity
  8
0-1
  6
Continuous
 62
     2
370
     9
100
AcDbLine
 10
91.42731137792802
 20
-91.95694657084306
 30
0.0
 11
90.92728427737606
 21
-90.92290321090246
 31
0.0
  0
LINE
  5
29A
330
1F
100
AcDbEntity
  8
0-1
  6
Continuous
 62
     2
370
     9
100
AcDbLine
 10
90.92728427737606
 20
-90.92290321090246
 30
0.0
 11
83.69542185203211
 21
-90.92290321090246
 31
0.0
  0
LINE
  5
29B
330
1F
100
AcDbEntity
  8
0-1
  6
Continuous
 62
     2
370
     9
100
AcDbLine
 10
-61.78848371927577
 20
-108.5933516024965
 30
0.0
 11
-61.07263041479941
 21
-111.4570621016745
 31
0.0
  0
LINE
  5
29C
330
1F
100
AcDbEntity
  8
0-1
  6
Continuous
 62
     2
370
     9
100
AcDbLine
 10
46.62068159314887
 20
-100.8570524043901
 30
0.0
 11
83.69542185203211
 21
-90.92290321090246
 31
0.0
  0
LINE
  5
29D
330
1F
100
AcDbEntity
  8
0-1
  6
Continuous
 62
     2
370
     9
100
AcDbLine
 10
-80.9284429883244
 20
-112.4571658496573
 30
0.0
 11
-151.6716746843759
 21
-93.50157051651377
 31
0.0
  0
LINE
  5
29E
330
1F
100
AcDbEntity
  8
0-1
  6
Continuous
 62
     2
370
     9
100
AcDbLine
 10
-78.0725608959921
 20
-112.4571658496573
 30
0.0
 11
-80.9284429883244
 21
-112.4571658496573
 31
0.0
  0
LINE
  5
29F
330
1F
100
AcDbEntity
  8
0-1
  6
Continuous
 62
     2
370
     9
100
AcDbLine
 10
-63.30223995947242
 20
-107.4571921254099
 30
0.0
 11
-84.13412604477647
 21
-107.4571921254099
 31
0.0
  0
LINE
  5
2A0
330
1F
100
AcDbEntity
  8
0-1
  6
Continuous
 62
     2
370
     9
100
AcDbLine
 10
18.78326322472454
 20
-112.4571658496573
 30
0.0
 11
89.5264949207761
 21
-93.50157051651377
 31
0.0
  0
LINE
  5
2A1
330
1F
100
AcDbEntity
  8
0-1
  6
Continuous
 62
     2
370
     9
100
AcDbLine
 10
-70.07272184970529
 20
-112.4571658496573
 30
0.0
 11
18.78326322472454
 21
-112.4571658496573
 31
0.0
  0
LINE
  5
2A2
330
1F
100
AcDbEntity
  8
0-1
  6
Continuous
 62
     2
370
     9
100
AcDbLine
 10
-104.5726099126427
 20
-95.95716337525909
 30
0.0
 11
-101.5724473093307
 21
-95.95716337525909
 31
0.0
  0
LINE
  5
2A3
330
1F
100
AcDbEntity
  8
0-1
  6
Continuous
 62
     2
370
     9
100
AcDbLine
 10
-108.7428716049991
 20
-100.8632457642364
 30
0.0
 11
-145.8406016156319
 21
-90.92290321090246
 31
0.0
  0
LINE
  5
2A4
330
1F
100
AcDbEntity
  8
0-1
  6
Continuous
 62
     2
370
     9
100
AcDbLine
 10
-105.0108025084891
 20
-98.47904995779936
 30
0.0
 11
-104.5726099126427
 21
-95.95716337525909
 31
0.0
  0
LINE
  5
2A5
330
1F
100
AcDbEntity
  8
0-1
  6
Continuous
 62
     2
370
     9
100
AcDbLine
 10
42.42743014904291
 20
-95.95716337525909
 30
0.0
 11
39.42726754573081
 21
-95.95716337525909
 31
0.0
  0
LINE
  5
2A6
330
1F
100
AcDbEntity
  8
0-1
  6
Continuous
 62
     2
370
     9
100
AcDbLine
 10
42.86562274488924
 20
-98.47904995779936
 30
0.0
 11
42.42743014904291
 21
-95.95716337525909
 31
0.0
  0
LINE
  5
2A7
330
1F
100
AcDbEntity
  8
0-1
  6
Continuous
 62
     2
370
     9
100
AcDbLine
 10
12.69950107425106
 20
-109.1409437066682
 30
0.0
 11
11.92756070300649
 21
-111.4571611954321
 31
0.0
  0
LINE
  5
2A8
330
1F
100
AcDbEntity
  8
0-1
  6
Continuous
 62
     2
370
     9
100
AcDbLine
 10
-61.82970672241284
 20
-108.4571472327564
 30
0.0
 11
18.25707537218178
 21
-108.4571472327564
 31
0.0
  0
LINE
  5
2A9
330
1F
100
AcDbEntity
  8
0-1
  6
Continuous
 62
     2
370
     9
100
AcDbLine
 10
-99.10679643419493
 20
-101.9571417537317
 30
0.0
 11
-97.07259977939277
 21
-101.9571417537317
 31
0.0
  0
LINE
  5
2AA
330
1F
100
AcDbEntity
  8
0-1
  6
Continuous
 62
     2
370
     9
100
AcDbLine
 10
-100.5757622959831
 20
-100.7618728502719
 30
0.0
 11
-101.5724473093307
 21
-95.95716337525909
 31
0.0
  0
LINE
  5
2AB
330
1F
100
AcDbEntity
  8
0-1
  6
Continuous
 62
     2
370
     9
100
AcDbLine
 10
-88.38742830595228
 20
-101.9571417537317
 30
0.0
 11
-92.07272514890295
 21
-101.9571417537317
 31
0.0
  0
LINE
  5
2AC
330
1F
100
AcDbEntity
  8
0-1
  6
Continuous
 62
     2
370
     9
100
AcDbLine
 10
-85.38092370215767
 20
-107.1231470687391
 30
0.0
 11
-84.13412604477647
 21
-107.4571921254099
 31
0.0
  0
LINE
  5
2AD
330
1F
100
AcDbEntity
  8
0-1
  6
Continuous
 62
     2
370
     9
100
AcDbLine
 10
-86.82194512431923
 20
-105.5953690618504
 30
0.0
 11
-87.40798560641682
 21
-102.7550942363308
 31
0.0
  0
LINE
  5
2AE
330
1F
100
AcDbEntity
  8
0-1
  6
Continuous
 62
     2
370
     9
100
AcDbLine
 10
36.96161667059513
 20
-101.9571417537317
 30
0.0
 11
34.92742001579298
 21
-101.9571417537317
 31
0.0
  0
LINE
  5
2AF
330
1F
100
AcDbEntity
  8
0-1
  6
Continuous
 62
     2
370
     9
100
AcDbLine
 10
26.24224854235248
 20
-101.9571417537317
 30
0.0
 11
29.92754538530309
 21
-101.9571417537317
 31
0.0
  0
LINE
  5
2B0
330
1F
100
AcDbEntity
  8
0-1
  6
Continuous
 62
     2
370
     9
100
AcDbLine
 10
24.67676536071937
 20
-105.5953690618504
 30
0.0
 11
25.26280584281695
 21
-102.7550942363308
 31
0.0
  0
LINE
  5
2B1
330
1F
100
AcDbEntity
  8
0-1
  6
Continuous
 62
     2
370
     9
100
AcDbLine
 10
38.43038434486819
 20
-100.7618728502719
 30
0.0
 11
39.42726754573081
 21
-95.95716337525909
 31
0.0
  0
LINE
  5
2B2
330
1F
100
AcDbEntity
  8
0-1
  6
Continuous
 62
     2
370
     9
100
AcDbLine
 10
23.23574393855787
 20
-107.1230975218604
 30
0.0
 11
18.25707537218178
 21
-108.4571472327564
 31
0.0
  0
LINE
  5
2B3
330
1F
100
AcDbEntity
  8
0-1
  6
JWW_PHANTOM2
 62
     2
370
     9
100
AcDbLine
 10
-152.5516272513402
 20
-93.26577692044486
 30
0.0
 11
-153.8942237988241
 21
-92.90611612744976
 31
0.0
  0
LINE
  5
2B4
330
1F
100
AcDbEntity
  8
0-1
  6
JWW_CENTER1
 62
     2
370
     9
100
AcDbLine
 10
-74.07254227909115
 20
-78.50997321940503
 30
0.0
 11
-74.07254227909115
 21
-124.5920883043735
 31
0.0
  0
ARC
  5
2B5
330
1F
100
AcDbEntity
  8
0-1
  6
Continuous
 62
     2
370
     9
100
AcDbCircle
 10
-150.8951760002845
 20
-90.60387085849914
 30
0.0
 40
3.000000027616052
100
AcDbArc
 50
206.8109436035157
 51
255.0001373291015
  0
ARC
  5
2B6
330
1F
100
AcDbEntity
  8
0-1
  6
Continuous
 62
     2
370
     9
100
AcDbCircle
 10
-63.30858195995509
 20
-109.4571518869816
 30
0.0
 40
3.000000027616052
100
AcDbArc
 50
270.0
 51
318.1893310546875
  0
ARC
  5
2B7
330
1F
100
AcDbEntity
  8
0-1
  6
Continuous
 62
     2
370
     9
100
AcDbCircle
 10
14.16371043567719
 20
-109.4571518869816
 30
0.0
 40
3.000000027616052
100
AcDbArc
 50
221.810317993164
 51
270.0
  0
ARC
  5
2B8
330
1F
100
AcDbEntity
  8
0-1
  6
Continuous
 62
     2
370
     9
100
AcDbCircle
 10
88.74999623668461
 20
-90.60387085849914
 30
0.0
 40
3.000000027616052
100
AcDbArc
 50
284.9998626708984
 51
333.1890563964844
  0
ARC
  5
2B9
330
1F
100
AcDbEntity
  8
0-1
  6
Continuous
 62
     2
370
     9
100
AcDbCircle
 10
-63.2439728300383
 20
-108.9571743333084
 30
0.0
 40
1.500000013808026
100
AcDbArc
 50
14.03440856933594
 51
90.0
  0
ARC
  5
2BA
330
1F
100
AcDbEntity
  8
0-1
  6
Continuous
 62
     2
370
     9
100
AcDbCircle
 10
-107.9663729209077
 20
-97.96549655934297
 30
0.0
 40
3.000000027616052
100
AcDbArc
 50
255.0001373291015
 51
350.1437835693359
  0
ARC
  5
2BB
330
1F
100
AcDbEntity
  8
0-1
  6
Continuous
 62
     2
370
     9
100
AcDbCircle
 10
45.82119315730787
 20
-97.96549655934297
 30
0.0
 40
3.000000027616052
100
AcDbArc
 50
189.8562164306641
 51
284.9998626708984
  0
ARC
  5
2BC
330
1F
100
AcDbEntity
  8
0-1
  6
Continuous
 62
     2
370
     9
100
AcDbCircle
 10
13.64822470894873
 20
-109.4571518869816
 30
0.0
 40
1.00000000920535
100
AcDbArc
 50
90.0
 51
161.5659484863281
  0
ARC
  5
2BD
330
1F
100
AcDbEntity
  8
0-1
  6
Continuous
 62
     2
370
     9
100
AcDbCircle
 10
-99.10679643419493
 20
-100.4571595458332
 30
0.0
 40
1.500000013808026
100
AcDbArc
 50
191.7213592529297
 51
270.0
  0
ARC
  5
2BE
330
1F
100
AcDbEntity
  8
0-1
  6
Continuous
 62
     2
370
     9
100
AcDbCircle
 10
-88.38742830595228
 20
-102.9571464079569
 30
0.0
 40
1.00000000920535
100
AcDbArc
 50
11.65817260742188
 51
90.0
  0
ARC
  5
2BF
330
1F
100
AcDbEntity
  8
0-1
  6
Continuous
 62
     2
370
     9
100
AcDbCircle
 10
-84.86325791276332
 20
-105.1912647185981
 30
0.0
 40
2.000000018410701
100
AcDbArc
 50
191.6584472656251
 51
255.0008392333985
  0
ARC
  5
2C0
330
1F
100
AcDbEntity
  8
0-1
  6
Continuous
 62
     2
370
     9
100
AcDbCircle
 10
36.96161667059513
 20
-100.4571595458332
 30
0.0
 40
1.500000013808026
100
AcDbArc
 50
270.0
 51
348.2786407470704
  0
ARC
  5
2C1
330
1F
100
AcDbEntity
  8
0-1
  6
Continuous
 62
     2
370
     9
100
AcDbCircle
 10
26.24224854235248
 20
-102.9571464079569
 30
0.0
 40
1.00000000920535
100
AcDbArc
 50
90.0
 51
168.3418273925781
  0
ARC
  5
2C2
330
1F
100
AcDbEntity
  8
0-1
  6
Continuous
 62
     2
370
     9
100
AcDbCircle
 10
22.71807814916357
 20
-105.1912647185981
 30
0.0
 40
2.000000018410701
100
AcDbArc
 50
284.9991607666016
 51
348.3415527343751
  0
LINE
  5
2C3
330
1F
100
AcDbEntity
  8
0-3
  6
Continuous
 62
     4
370
     9
100
AcDbLine
 10
-88.07260743824442
 20
-191.4256254911869
 30
0.0
 11
25.92742767464469
 21
-191.4256254911869
 31
0.0
  0
LINE
  5
2C4
330
1F
100
AcDbEntity
  8
0-3
  6
Continuous
 62
     4
370
     9
100
AcDbLine
 10
22.42743615829576
 20
-171.2735782310218
 30
0.0
 11
22.42743615829576
 21
-191.4256254911869
 31
0.0
  0
LINE
  5
2C5
330
1F
100
AcDbEntity
  8
0-3
  6
Continuous
 62
     4
370
     9
100
AcDbLine
 10
25.92742767464469
 20
-169.1011697036328
 30
0.0
 11
25.92742767464469
 21
-191.4256254911869
 31
0.0
  0
LINE
  5
2C6
330
1F
100
AcDbEntity
  8
0-3
  6
Continuous
 62
     4
370
     9
100
AcDbLine
 10
-88.07260743824442
 20
-170.780676284647
 30
0.0
 11
-88.07260743824442
 21
-191.4256254911869
 31
0.0
  0
LINE
  5
2C7
330
1F
100
AcDbEntity
  8
0-3
  6
Continuous
 62
     4
370
     9
100
AcDbLine
 10
-84.5726159218955
 20
-168.608267757258
 30
0.0
 11
-84.5726159218955
 21
-191.4256254911869
 31
0.0
  0
LINE
  5
2C8
330
1F
100
AcDbEntity
  8
0-0
  6
JWW_CENTER1
 62
     3
370
     9
100
AcDbLine
 10
-31.07258988179993
 20
40.91207593109873
 30
0.0
 11
-31.07258988179993
 21
-197.4548926002044
 31
0.0
  0
TEXT
  5
2C9
330
1F
100
AcDbEntity
  8
0-5
  6
Continuous
 62
     7
370
     9
100
AcDbText
 10
-182.5032895373044
 20
-214.437822182133
 30
0.0
 40
6.858000000000001
  1
スペーサー
 41
1.133333333333333
  7
ＭＳ ゴシック
100
AcDbText
  0
LINE
  5
2CA
330
1F
100
AcDbEntity
  8
0-5
  6
Continuous
 62
     7
370
     9
100
AcDbLine
 10
-103.4886277319957
 20
-218.1269321113983
 30
0.0
 11
-209.3602889714102
 21
-218.1269321113983
 31
0.0
  0
LINE
  5
2CB
330
1F
100
AcDbEntity
  8
0-5
  6
Continuous
 62
     7
370
     9
100
AcDbLine
 10
-88.07260743824442
 20
-191.4256254911869
 30
0.0
 11
-103.4886277319957
 21
-218.1269321113983
 31
0.0
  0
LINE
  5
2CC
330
1F
100
AcDbEntity
  8
0-5
  6
Continuous
 62
     7
370
     9
100
AcDbLine
 10
-88.07260743824442
 20
-191.4256254911869
 30
0.0
 11
-92.63831755754349
 21
-197.3757614181295
 31
0.0
  0
LINE
  5
2CD
330
1F
100
AcDbEntity
  8
0-5
  6
Continuous
 62
     7
370
     9
100
AcDbLine
 10
-88.07260743824442
 20
-191.4256254911869
 30
0.0
 11
-90.94278566090067
 21
-198.3547323324032
 31
0.0
  0
LINE
  5
2CE
330
1F
100
AcDbEntity
  8
0-5
  6
Continuous
 62
     7
370
     9
100
AcDbLine
 10
-163.0726096769857
 20
-134.8197532076975
 30
0.0
 11
-185.218603590303
 21
-173.1777398496743
 31
0.0
  0
LINE
  5
2CF
330
1F
100
AcDbEntity
  8
0-5
  6
Continuous
 62
     7
370
     9
100
AcDbLine
 10
-74.82248383616164
 20
-80.3197720602555
 30
0.0
 11
-149.7986116216879
 21
125.6754460286222
 31
0.0
  0
LINE
  5
2D0
330
1F
100
AcDbEntity
  8
0-4
  6
Continuous
 62
     7
370
     9
100
AcDbLine
 10
-73.43700446510181
 20
-216.1689555621931
 30
0.0
 11
11.29182470150202
 21
-216.1689555621931
 31
0.0
  0
LINE
  5
2D1
330
1F
100
AcDbEntity
  8
0-4
  6
Continuous
 62
     7
370
     9
100
AcDbLine
 10
-73.43700446510181
 20
-216.1689555621931
 30
0.0
 11
-66.00116800479822
 21
-215.1900091205427
 31
0.0
  0
LINE
  5
2D2
330
1F
100
AcDbEntity
  8
0-4
  6
Continuous
 62
     7
370
     9
100
AcDbLine
 10
-73.43700446510181
 20
-216.1689555621931
 30
0.0
 11
-66.00116800479822
 21
-217.1479020038435
 31
0.0
  0
LINE
  5
2D3
330
1F
100
AcDbEntity
  8
0-4
  6
Continuous
 62
     7
370
     9
100
AcDbLine
 10
11.29182470150202
 20
-216.1689555621931
 30
0.0
 11
3.855988241198443
 21
-215.1900091205427
 31
0.0
  0
LINE
  5
2D4
330
1F
100
AcDbEntity
  8
0-4
  6
Continuous
 62
     7
370
     9
100
AcDbLine
 10
11.29182470150202
 20
-216.1689555621931
 30
0.0
 11
3.855988241198443
 21
-217.1479020038435
 31
0.0
  0
LINE
  5
2D5
330
1F
100
AcDbEntity
  8
0-4
  6
Continuous
 62
     7
370
     9
100
AcDbLine
 10
-73.43700446510181
 20
-217.0689555621931
 30
0.0
 11
-73.43700446510181
 21
-163.6398068974259
 31
0.0
  0
LINE
  5
2D6
330
1F
100
AcDbEntity
  8
0-4
  6
Continuous
 62
     7
370
     9
100
AcDbLine
 10
11.29182470150202
 20
-217.0689555621931
 30
0.0
 11
11.29182470150202
 21
-163.6397078036684
 31
0.0
  0
LINE
  5
2D7
330
1F
100
AcDbEntity
  8
0-4
  6
Continuous
 62
     7
370
     9
100
AcDbLine
 10
-88.23150427846153
 20
-237.3725848675766
 30
0.0
 11
25.76858038130636
 21
-237.3725848675766
 31
0.0
  0
LINE
  5
2D8
330
1F
100
AcDbEntity
  8
0-4
  6
Continuous
 62
     7
370
     9
100
AcDbLine
 10
-88.23150427846153
 20
-237.3725848675766
 30
0.0
 11
-80.79566781815795
 21
-236.3936384259262
 31
0.0
  0
LINE
  5
2D9
330
1F
100
AcDbEntity
  8
0-4
  6
Continuous
 62
     7
370
     9
100
AcDbLine
 10
-88.23150427846153
 20
-237.3725848675766
 30
0.0
 11
-80.79566781815795
 21
-238.3515313092271
 31
0.0
  0
LINE
  5
2DA
330
1F
100
AcDbEntity
  8
0-4
  6
Continuous
 62
     7
370
     9
100
AcDbLine
 10
25.76858038130636
 20
-237.3725848675766
 30
0.0
 11
18.33274392100278
 21
-236.3936384259262
 31
0.0
  0
LINE
  5
2DB
330
1F
100
AcDbEntity
  8
0-4
  6
Continuous
 62
     7
370
     9
100
AcDbLine
 10
25.76858038130636
 20
-237.3725848675766
 30
0.0
 11
18.33274392100278
 21
-238.3515313092271
 31
0.0
  0
TEXT
  5
2DC
330
1F
100
AcDbEntity
  8
0-4
  6
Continuous
 62
     2
370
   211
100
AcDbText
 10
-47.73146194857759
 20
-232.6805848675766
 30
0.0
 40
9.144
  1
φ114
 41
1.1
  7
ＭＳ ゴシック
100
AcDbText
  0
TEXT
  5
2DD
330
1F
100
AcDbEntity
  8
0-4
  6
Continuous
 62
     2
370
   211
100
AcDbText
 10
-40.82258988179989
 20
-211.4769555621931
 30
0.0
 40
9.144
  1
Rc3
 41
1.083333333333333
  7
ＭＳ ゴシック
100
AcDbText
  0
LINE
  5
2DE
330
1F
100
AcDbEntity
  8
0-4
  6
Continuous
 62
     7
370
     9
100
AcDbLine
 10
-88.23150427846153
 20
-238.2725848675767
 30
0.0
 11
-88.23150427846153
 21
-198.2183896169569
 31
0.0
  0
LINE
  5
2DF
330
1F
100
AcDbEntity
  8
0-4
  6
Continuous
 62
     7
370
     9
100
AcDbLine
 10
25.76858038130636
 20
-238.2725848675767
 30
0.0
 11
25.76858038130636
 21
-198.2183896169569
 31
0.0
  0
LINE
  5
2E0
330
1F
100
AcDbEntity
  8
0-4
  6
Continuous
 62
     7
370
     9
100
AcDbLine
 10
175.2343709042488
 20
-90.92290321090246
 30
0.0
 11
175.2343709042488
 21
31.04283314880053
 31
0.0
  0
LINE
  5
2E1
330
1F
100
AcDbEntity
  8
0-4
  6
Continuous
 62
     7
370
     9
100
AcDbLine
 10
175.2343709042488
 20
-90.92290321090246
 30
0.0
 11
174.4512329384021
 21
-84.97425539883608
 31
0.0
  0
LINE
  5
2E2
330
1F
100
AcDbEntity
  8
0-4
  6
Continuous
 62
     7
370
     9
100
AcDbLine
 10
175.2343709042488
 20
-90.92290321090246
 30
0.0
 11
176.0175088700955
 21
-84.97425539883608
 31
0.0
  0
LINE
  5
2E3
330
1F
100
AcDbEntity
  8
0-4
  6
Continuous
 62
     7
370
     9
100
AcDbLine
 10
175.2343709042488
 20
31.04283314880053
 30
0.0
 11
174.4512329384021
 21
25.09418533673414
 31
0.0
  0
LINE
  5
2E4
330
1F
100
AcDbEntity
  8
0-4
  6
Continuous
 62
     7
370
     9
100
AcDbLine
 10
175.2343709042488
 20
31.04283314880053
 30
0.0
 11
176.0175088700955
 21
25.09418533673414
 31
0.0
  0
LINE
  5
2E5
330
1F
100
AcDbEntity
  8
0-4
  6
Continuous
 62
     7
370
     9
100
AcDbLine
 10
164.4048600644993
 20
-84.81981777770835
 30
0.0
 11
163.6217220986526
 21
-90.76846558977479
 31
0.0
  0
LINE
  5
2E6
330
1F
100
AcDbEntity
  8
0-4
  6
Continuous
 62
     7
370
     9
100
AcDbLine
 10
164.4048600644993
 20
-84.81981777770835
 30
0.0
 11
165.1879980303461
 21
-90.76846558977479
 31
0.0
  0
TEXT
  5
2E7
330
1F
100
AcDbEntity
  8
0-4
  6
Continuous
 62
     2
370
     9
100
AcDbText
 10
170.4099554396269
 20
-39.69639786546414
 30
0.0
 40
9.144
  1
122
 50
90.0
 41
1.083333333333333
  7
ＭＳ ゴシック
100
AcDbText
  0
LINE
  5
2E8
330
1F
100
AcDbEntity
  8
0-4
  6
Continuous
 62
     7
370
     9
100
AcDbLine
 10
-27.07257126489893
 20
31.04283314880053
 30
0.0
 11
176.0175088700955
 21
31.04283314880053
 31
0.0
  0
LINE
  5
2E9
330
1F
100
AcDbEntity
  8
0-4
  6
Continuous
 62
     7
370
     9
100
AcDbLine
 10
94.92730289427693
 20
-90.92290321090246
 30
0.0
 11
176.0175088700955
 21
-90.92290321090246
 31
0.0
  0
LINE
  5
2EA
330
1F
100
AcDbEntity
  8
0-4
  6
Continuous
 62
     7
370
     9
100
AcDbLine
 10
164.4048600644993
 20
-191.4256254911869
 30
0.0
 11
163.6217220986526
 21
-185.4769529056812
 31
0.0
  0
LINE
  5
2EB
330
1F
100
AcDbEntity
  8
0-4
  6
Continuous
 62
     7
370
     9
100
AcDbLine
 10
164.4048600644993
 20
-191.4256254911869
 30
0.0
 11
165.1879980303461
 21
-185.4769529056812
 31
0.0
  0
LINE
  5
2EC
330
1F
100
AcDbEntity
  8
0-4
  6
Continuous
 62
     7
370
     9
100
AcDbLine
 10
29.92744629154557
 20
-191.4256254911869
 30
0.0
 11
165.1879980303461
 21
-191.4256254911869
 31
0.0
  0
LINE
  5
2ED
330
1F
100
AcDbEntity
  8
0-4
  6
Continuous
 62
     7
370
     9
100
AcDbLine
 10
164.4048600644993
 20
-191.4256254911869
 30
0.0
 11
164.4048600644993
 21
-84.81981777770835
 31
0.0
  0
LINE
  5
2EE
330
1F
100
AcDbEntity
  8
0-5
  6
Continuous
 62
     7
370
     9
100
AcDbLine
 10
-169.8026117672631
 20
-93.81981011885676
 30
0.0
 11
-189.123462360385
 21
-127.2845694508777
 31
0.0
  0
LINE
  5
2EF
330
1F
100
AcDbEntity
  8
0-5
  6
Continuous
 62
     7
370
     9
100
AcDbLine
 10
-169.8026117672631
 20
-93.81981011885676
 30
0.0
 11
-172.6727528739461
 21
-100.7489169600729
 31
0.0
  0
LINE
  5
2F0
330
1F
100
AcDbEntity
  8
0-5
  6
Continuous
 62
     7
370
     9
100
AcDbLine
 10
-169.8026117672631
 20
-93.81981011885676
 30
0.0
 11
-174.3683218865621
 21
-99.76994604579932
 31
0.0
  0
LINE
  5
2F1
330
1F
100
AcDbEntity
  8
0-5
  6
Continuous
 62
     7
370
     9
100
AcDbLine
 10
-291.0899769714616
 20
-127.2845694508777
 30
0.0
 11
-189.123462360385
 21
-127.2845694508777
 31
0.0
  0
LINE
  5
2F2
330
1F
100
AcDbEntity
  8
0-5
  6
Continuous
 62
     7
370
     9
100
AcDbLine
 10
-185.218603590303
 20
-173.1777398496743
 30
0.0
 11
-288.5896270500658
 21
-173.1777398496743
 31
0.0
  0
LINE
  5
2F3
330
1F
100
AcDbEntity
  8
0-5
  6
Continuous
 62
     7
370
     9
100
AcDbLine
 10
42.42740537560347
 20
-95.95721292213793
 30
0.0
 11
99.71987380083087
 21
117.86121710579
 31
0.0
  0
LINE
  5
2F4
330
1F
100
AcDbEntity
  8
0-5
  6
Continuous
 62
     7
370
     9
100
AcDbLine
 10
99.71987380083085
 20
117.86121710579
 30
0.0
 11
218.6101673791899
 21
117.86121710579
 31
0.0
  0
TEXT
  5
2F5
330
1F
100
AcDbEntity
  8
F-4
  6
Continuous
 62
     2
370
     9
100
AcDbText
 10
-35.92741300719818
 20
-331.1127114795967
 30
0.0
 40
9.144
  1
鋳鉄製高耐食性ルーフドレン　防水層張掛け幅100mm　たて引き用　打込型　ねじ込み式
 41
0.549367088607595
  7
ＭＳ ゴシック
100
AcDbText
  0
TEXT
  5
2F6
330
1F
100
AcDbEntity
  8
F-4
  6
Continuous
 62
     2
370
     9
100
AcDbText
 10
-49.97587067936178
 20
-346.1891050789918
 30
0.0
 40
9.144
  1
アスファルト・改質アスファルトシート・シート防水用　ＷＨＰ－２Ｒ－７５　Ｃ＝指示
 41
0.5743750000000001
  7
ＭＳ ゴシック
100
AcDbText
  0
TEXT
  5
2F7
330
1F
100
AcDbEntity
  8
0-5
  6
Continuous
 62
     7
370
     9
100
AcDbText
 10
-203.1306071751641
 20
-229.8286673060688
 30
0.0
 40
6.858000000000001
  1
硬質ポリ塩化ビニル
 41
1.148148148148148
  7
ＭＳ ゴシック
100
AcDbText
  0
TEXT
  5
2F8
330
1F
100
AcDbEntity
  8
0-5
  6
Continuous
 62
     7
370
     9
100
AcDbText
 10
-253.2694877455529
 20
129.6633395437194
 30
0.0
 40
6.858000000000001
  1
ボルト：Ｃ３６０４Ｂ
 41
1.15
  7
ＭＳ ゴシック
100
AcDbText
  0
TEXT
  5
2F9
330
1F
100
AcDbEntity
  8
0-5
  6
Continuous
 62
     7
370
     9
100
AcDbText
 10
101.1991099103623
 20
156.4281599906377
 30
0.0
 40
6.858000000000001
  1
丸小ねじ：Ｃ２７００Ｗ
 41
1.151515151515151
  7
ＭＳ ゴシック
100
AcDbText
  0
LINE
  5
2FA
330
1F
100
AcDbEntity
  8
0-5
  6
Continuous
 62
     7
370
     9
100
AcDbLine
 10
97.90347955639595
 20
152.2037477185769
 30
0.0
 11
214.5383061397262
 21
152.2037477185769
 31
0.0
  0
LINE
  5
2FB
330
1F
100
AcDbEntity
  8
0-5
  6
Continuous
 62
     7
370
     9
100
AcDbLine
 10
-149.7986116216879
 20
125.6754460286222
 30
0.0
 11
-253.2937279005155
 21
125.6754460286222
 31
0.0
  0
TEXT
  5
2FC
330
1F
100
AcDbEntity
  8
0-5
  6
Continuous
 62
     7
370
     9
100
AcDbText
 10
-212.4536029599407
 20
155.7829172409225
 30
0.0
 40
6.858000000000001
  1
ナイロンコーティング
 41
1.15
  7
ＭＳ ゴシック
100
AcDbText
  0
TEXT
  5
2FD
330
1F
100
AcDbEntity
  8
0-5
  6
Continuous
 62
     7
370
     9
100
AcDbText
 10
-227.0461697611017
 20
114.9936222189727
 30
0.0
 40
6.858000000000001
  1
Ｍ８×４０
 41
1.133333333333333
  7
ＭＳ ゴシック
100
AcDbText
  0
TEXT
  5
2FE
330
1F
100
AcDbEntity
  8
0-5
  6
Continuous
 62
     7
370
     9
100
AcDbText
 10
130.7208928480611
 20
142.3370956363384
 30
0.0
 40
6.858000000000001
  1
Ｍ６×１２
 41
1.133333333333333
  7
ＭＳ ゴシック
100
AcDbText
  0
TEXT
  5
2FF
330
1F
100
AcDbEntity
  8
0-5
  6
Continuous
 62
     7
370
     9
100
AcDbText
 10
107.4150205900104
 20
108.3425762928252
 30
0.0
 40
6.858000000000001
  1
ナイロンコーティング
 41
1.149999999999999
  7
ＭＳ ゴシック
100
AcDbText
  0
TEXT
  5
300
330
1F
100
AcDbEntity
  8
0-5
  6
Continuous
 62
     7
370
     9
100
AcDbText
 10
102.1650205900104
 20
121.6507999750361
 30
0.0
 40
6.858000000000001
  1
防水層押え：ＦＣ１５０
 41
1.151515151515151
  7
ＭＳ ゴシック
100
AcDbText
  0
TEXT
  5
301
330
1F
100
AcDbEntity
  8
0-5
  6
Continuous
 62
     7
370
     9
100
AcDbText
 10
-291.8567196659233
 20
-136.7464234954753
 30
0.0
 40
6.858000000000001
  1
ナイロンコーティング
 41
1.15
  7
ＭＳ ゴシック
100
AcDbText
  0
TEXT
  5
302
330
1F
100
AcDbEntity
  8
0-5
  6
Continuous
 62
     7
370
     9
100
AcDbText
 10
-281.3567196659233
 20
-123.5092768527918
 30
0.0
 40
6.858000000000001
  1
本体：ＦＣ１５０
 41
1.145833333333333
  7
ＭＳ ゴシック
100
AcDbText
  0
TEXT
  5
303
330
1F
100
AcDbEntity
  8
0-5
  6
Continuous
 62
     7
370
     9
100
AcDbText
 10
-288.6541153201844
 20
-170.1516089689146
 30
0.0
 40
6.858000000000001
  1
アンカー：ＳＷＲＭ８
 41
1.15
  7
ＭＳ ゴシック
100
AcDbText
  0
TEXT
  5
304
330
1F
100
AcDbEntity
  8
0-5
  6
Continuous
 62
     7
370
     9
100
AcDbText
 10
-288.6541153201844
 20
-182.4881191163039
 30
0.0
 40
6.858000000000001
  1
ナイロンコーティング
 41
1.15
  7
ＭＳ ゴシック
100
AcDbText
  0
TEXT
  5
305
330
1F
100
AcDbEntity
  8
0-4
  6
Continuous
 62
     2
370
     9
100
AcDbText
 10
159.0202284230577
 20
-141.5621656380789
 30
0.0
 40
9.144
  1
Ｃ
 50
90.0
  7
ＭＳ ゴシック
100
AcDbText
  0
TEXT
  5
306
330
1F
100
AcDbEntity
  8
F-5
  6
Continuous
 62
     2
370
     9
100
AcDbText
 10
-38.96491561615161
 20
-280.8996833218828
 30
0.0
 40
9.144
  1
※ご注文の際はＣ寸法をご指示ください。
 41
1.118421052631579
  7
ＭＳ ゴシック
100
AcDbText
  0
LINE
  5
307
330
1F
100
AcDbEntity
  8
0-0
  6
Continuous
 62
     3
370
     9
100
AcDbLine
 10
-77.39614690701703
 20
-121.3197151490962
 30
0.0
 11
-70.74913583868025
 21
-121.3197151490962
 31
0.0
  0
LINE
  5
308
330
1F
100
AcDbEntity
  8
0-0
  6
Continuous
 62
     3
370
     9
100
AcDbLine
 10
-70.74913583868025
 20
-120.3197600417498
 30
0.0
 11
-70.74913583868025
 21
-121.3197151490962
 31
0.0
  0
LINE
  5
309
330
1F
100
AcDbEntity
  8
0-0
  6
Continuous
 62
     3
370
     9
100
AcDbLine
 10
-77.39614690701703
 20
-121.3197151490962
 30
0.0
 11
-77.39614690701703
 21
-120.3197600417498
 31
0.0
  0
LINE
  5
30A
330
1F
100
AcDbEntity
  8
0-0
  6
Continuous
 62
     3
370
     9
100
AcDbLine
 10
-70.74913583868025
 20
-121.3197151490962
 30
0.0
 11
-74.07254227909111
 21
-123.2385666701206
 31
0.0
  0
LINE
  5
30B
330
1F
100
AcDbEntity
  8
0-0
  6
Continuous
 62
     3
370
     9
100
AcDbLine
 10
-77.39614690701703
 20
-121.3197151490962
 30
0.0
 11
-74.07254227909111
 21
-123.2385666701206
 31
0.0
  0
LINE
  5
30C
330
1F
100
AcDbEntity
  8
0-0
  6
Continuous
 62
     3
370
     9
100
AcDbLine
 10
-185.1820124845086
 20
-85.69575704749224
 30
0.0
 11
-186.0726671772873
 21
-92.81980546463154
 31
0.0
  0
LINE
  5
30D
330
1F
100
AcDbEntity
  8
0-0
  6
Continuous
 62
     3
370
     9
100
AcDbLine
 10
-184.0725587750793
 20
-84.81981777770835
 30
0.0
 11
-184.1896875964927
 21
-84.81981777770835
 31
0.0
  0
LINE
  5
30E
330
1F
100
AcDbEntity
  8
0-0
  6
Continuous
 62
     3
370
     9
100
AcDbLine
 10
22.41068931327129
 20
-112.520486760726
 30
0.0
 11
20.96193857802156
 21
-112.9087361027717
 31
0.0
  0
LINE
  5
30F
330
1F
100
AcDbEntity
  8
0-0
  6
Continuous
 62
     3
370
     9
100
AcDbLine
 10
23.11782236708406
 20
-111.2957870112765
 30
0.0
 11
22.41068931327129
 21
-112.520486760726
 31
0.0
  0
LINE
  5
310
330
1F
100
AcDbEntity
  8
0-0
  6
Continuous
 62
     3
370
     9
100
AcDbLine
 10
123.0368327209088
 20
-85.69575704749224
 30
0.0
 11
123.9274874136876
 21
-92.81980546463154
 31
0.0
  0
LINE
  5
311
330
1F
100
AcDbEntity
  8
0-0
  6
Continuous
 62
     3
370
     9
100
AcDbLine
 10
121.9273790114796
 20
-84.81981777770835
 30
0.0
 11
122.044507832893
 21
-84.81981777770835
 31
0.0
  0
LINE
  5
312
330
1F
100
AcDbEntity
  8
0-0
  6
Continuous
 62
     3
370
     9
100
AcDbLine
 10
9.205455183354614
 20
-126.1519231418267
 30
0.0
 11
9.094073799878414
 21
-126.819864614532
 31
0.0
  0
LINE
  5
313
330
1F
100
AcDbEntity
  8
0-0
  6
Continuous
 62
     3
370
     9
100
AcDbLine
 10
14.90572449214438
 20
-121.1085958986551
 30
0.0
 11
14.27529000666833
 21
-121.1985234836236
 31
0.0
  0
LINE
  5
314
330
1F
100
AcDbEntity
  8
0-0
  6
Continuous
 62
     3
370
     9
100
AcDbLine
 10
18.65087396464982
 20
-113.5787585443854
 30
0.0
 11
17.39991436945196
 21
-118.8335023192707
 31
0.0
  0
LINE
  5
315
330
1F
100
AcDbEntity
  8
0-0
  6
Continuous
 62
     3
370
     9
100
AcDbLine
 10
20.96193857802156
 20
-112.9087361027717
 30
0.0
 11
19.77003886231809
 21
-112.2206785972857
 31
0.0
  0
LINE
  5
316
330
1F
100
AcDbEntity
  8
0-0
  6
Continuous
 62
     3
370
     9
100
AcDbLine
 10
12.3469254849201
 20
-121.8195936090119
 30
0.0
 11
-66.96157423794732
 21
-121.8195936090119
 31
0.0
  0
LINE
  5
317
330
1F
100
AcDbEntity
  8
0-0
  6
Continuous
 62
     3
370
     9
100
AcDbLine
 10
-146.9526317627572
 20
-113.9575939794647
 30
0.0
 11
-145.3845721434281
 21
-102.6883050437482
 31
0.0
  0
LINE
  5
318
330
1F
100
AcDbEntity
  8
0-0
  6
Continuous
 62
     3
370
     9
100
AcDbLine
 10
-157.1707836653574
 20
-113.929451352323
 30
0.0
 11
-158.9227612986827
 21
-98.05354136291817
 31
0.0
  0
LINE
  5
319
330
1F
100
AcDbEntity
  8
0-0
  6
Continuous
 62
     3
370
     9
100
AcDbLine
 10
-68.93988201349626
 20
-114.3197816632771
 30
0.0
 11
-70.74913583868025
 21
-114.3197816632771
 31
0.0
  0
LINE
  5
31A
330
1F
100
AcDbEntity
  8
0-0
  6
Continuous
 62
     3
370
     9
100
AcDbLine
 10
-77.39614690701703
 20
-114.3197816632771
 30
0.0
 11
-79.82988959222453
 21
-114.3197816632771
 31
0.0
  0
LINE
  5
31B
330
1F
100
AcDbEntity
  8
0-0
  6
Continuous
 62
     3
370
     9
100
AcDbLine
 10
13.92747091769946
 20
-126.8198150676532
 30
0.0
 11
13.92747091769946
 21
-136.8198120630268
 31
0.0
  0
LINE
  5
31C
330
1F
100
AcDbEntity
  8
0-0
  6
Continuous
 62
     3
370
     9
100
AcDbLine
 10
-76.07265068129912
 20
-126.8198150676532
 30
0.0
 11
13.92747091769946
 21
-126.8198150676532
 31
0.0
  0
LINE
  5
31D
330
1F
100
AcDbEntity
  8
0-0
  6
Continuous
 62
     3
370
     9
100
AcDbLine
 10
-76.07265068129912
 20
-126.8198150676532
 30
0.0
 11
-76.07265068129912
 21
-136.8198120630268
 31
0.0
  0
LINE
  5
31E
330
1F
100
AcDbEntity
  8
0-0
  6
Continuous
 62
     3
370
     9
100
AcDbLine
 10
-76.07265068129912
 20
-136.8198120630268
 30
0.0
 11
13.92747091769946
 21
-136.8198120630268
 31
0.0
  0
LINE
  5
31F
330
1F
100
AcDbEntity
  8
0-0
  6
Continuous
 62
     3
370
     9
100
AcDbLine
 10
-73.43695491822301
 20
-153.2421250315128
 30
0.0
 11
-72.41054177761308
 21
-136.8198120630268
 31
0.0
  0
LINE
  5
320
330
1F
100
AcDbEntity
  8
0-0
  6
Continuous
 62
     3
370
     9
100
AcDbLine
 10
-75.01472572579118
 20
-154.8197967453235
 30
0.0
 11
-73.88961520267041
 21
-136.8198120630268
 31
0.0
  0
LINE
  5
321
330
1F
100
AcDbEntity
  8
0-0
  6
Continuous
 62
     3
370
     9
100
AcDbLine
 10
11.29177515462322
 20
-153.2422241252704
 30
0.0
 11
10.26536201401338
 21
-136.8198120630268
 31
0.0
  0
LINE
  5
322
330
1F
100
AcDbEntity
  8
0-0
  6
Continuous
 62
     3
370
     9
100
AcDbLine
 10
12.86954596219139
 20
-154.8197967453235
 30
0.0
 11
11.74443543907067
 21
-136.8198120630268
 31
0.0
  0
LINE
  5
323
330
1F
100
AcDbEntity
  8
0-0
  6
Continuous
 62
     3
370
     9
100
AcDbLine
 10
-67.94537706281457
 20
-115.1776858691886
 30
0.0
 11
-66.2207493065706
 21
-126.8198150676532
 31
0.0
  0
LINE
  5
324
330
1F
100
AcDbEntity
  8
0-0
  6
Continuous
 62
     3
370
     9
100
AcDbLine
 10
-84.55586907687102
 20
-112.520486760726
 30
0.0
 11
-85.26300213068376
 21
-111.2957870112765
 31
0.0
  0
LINE
  5
325
330
1F
100
AcDbEntity
  8
0-0
  6
Continuous
 62
     3
370
     9
100
AcDbLine
 10
-83.10711834162126
 20
-112.9087361027717
 30
0.0
 11
-84.55586907687102
 21
-112.520486760726
 31
0.0
  0
LINE
  5
326
330
1F
100
AcDbEntity
  8
0-0
  6
Continuous
 62
     3
370
     9
100
AcDbLine
 10
-83.10711834162126
 20
-112.9087361027717
 30
0.0
 11
-82.46935091808726
 21
-112.5406027935068
 31
0.0
  0
LINE
  5
327
330
1F
100
AcDbEntity
  8
0-0
  6
JWW_PHANTOM2
 62
     3
370
     9
100
AcDbLine
 10
-80.79585554073444
 20
-113.5787089975066
 30
0.0
 11
-81.07193074924376
 21
-112.418816565489
 31
0.0
  0
LINE
  5
328
330
1F
100
AcDbEntity
  8
0-0
  6
JWW_PHANTOM2
 62
     3
370
     9
100
AcDbLine
 10
-82.46935091808726
 20
-112.5406027935068
 30
0.0
 11
-81.8823194984142
 21
-112.2017021427166
 31
0.0
  0
LINE
  5
329
330
1F
100
AcDbEntity
  8
0-0
  6
JWW_PHANTOM2
 62
     3
370
     9
100
AcDbLine
 10
-81.8823194984142
 20
-112.2017021427166
 30
0.0
 11
-81.07193074924376
 21
-112.418816565489
 31
0.0
  0
LINE
  5
32A
330
1F
100
AcDbEntity
  8
0-0
  6
Continuous
 62
     3
370
     9
100
AcDbLine
 10
-156.1768732772209
 20
-114.8198087638291
 30
0.0
 11
-147.9431729631373
 21
-114.8198087638291
 31
0.0
  0
LINE
  5
32B
330
1F
100
AcDbEntity
  8
0-0
  6
Continuous
 62
     3
370
     9
100
AcDbLine
 10
-75.01472572579118
 20
-154.8197967453235
 30
0.0
 11
-73.43695491822301
 21
-153.2421250315128
 31
0.0
  0
LINE
  5
32C
330
1F
100
AcDbEntity
  8
0-0
  6
Continuous
 62
     3
370
     9
100
AcDbLine
 10
-73.43695491822301
 20
-153.2421250315128
 30
0.0
 11
11.29177515462322
 21
-153.2422241252704
 31
0.0
  0
LINE
  5
32D
330
1F
100
AcDbEntity
  8
0-0
  6
Continuous
 62
     3
370
     9
100
AcDbLine
 10
11.29177515462322
 20
-153.2422241252704
 30
0.0
 11
12.86954596219139
 21
-154.8197967453235
 31
0.0
  0
LINE
  5
32E
330
1F
100
AcDbEntity
  8
0-0
  6
Continuous
 62
     3
370
     9
100
AcDbLine
 10
-78.73668725903198
 20
-154.8197967453235
 30
0.0
 11
16.59150749543232
 21
-154.8197967453235
 31
0.0
  0
LINE
  5
32F
330
1F
100
AcDbEntity
  8
0-0
  6
JWW_CENTER1
 62
     3
370
     9
100
AcDbLine
 10
-152.0726080273868
 20
-129.8198785772077
 30
0.0
 11
-152.0726080273868
 21
-98.57051349600971
 31
0.0
  0
LINE
  5
330
330
1F
100
AcDbEntity
  8
0-0
  6
Continuous
 62
     3
370
     9
100
AcDbLine
 10
19.42796721128651
 20
-112.4187174717314
 30
0.0
 11
18.92675098564406
 21
-112.4187174717314
 31
0.0
  0
LINE
  5
331
330
1F
100
AcDbEntity
  8
0-0
  6
Continuous
 62
     3
370
     9
100
AcDbLine
 10
-81.07193074924376
 20
-112.4187174717314
 30
0.0
 11
-81.81434118074108
 21
-112.4187174717314
 31
0.0
  0
LINE
  5
332
330
1F
100
AcDbEntity
  8
0-0
  6
Continuous
 62
     3
370
     9
100
AcDbLine
 10
89.52644537389729
 20
-93.50162006339252
 30
0.0
 11
121.9273790114796
 21
-84.81981777770835
 31
0.0
  0
LINE
  5
333
330
1F
100
AcDbEntity
  8
0-0
  6
Continuous
 62
     3
370
     9
100
AcDbLine
 10
-151.6716251374971
 20
-93.50162006339252
 30
0.0
 11
-184.0725587750793
 21
-84.81981777770835
 31
0.0
  0
ARC
  5
334
330
1F
100
AcDbEntity
  8
0-0
  6
Continuous
 62
     3
370
     9
100
AcDbCircle
 10
-184.1896875964927
 20
-85.81977288505487
 30
0.0
 40
1.00000000920535
100
AcDbArc
 50
90.0
 51
172.8747100830078
  0
ARC
  5
335
330
1F
100
AcDbEntity
  8
0-0
  6
Continuous
 62
     3
370
     9
100
AcDbCircle
 10
-68.93988201349626
 20
-115.3198358643812
 30
0.0
 40
1.00000000920535
100
AcDbArc
 50
8.129302978515625
 51
90.00000000000001
  0
ARC
  5
336
330
1F
100
AcDbEntity
  8
0-0
  6
Continuous
 62
     3
370
     9
100
AcDbCircle
 10
-79.82988959222453
 20
-113.3197770090519
 30
0.0
 40
1.00000000920535
100
AcDbArc
 50
195.0025634765625
 51
270.0
  0
ARC
  5
337
330
1F
100
AcDbEntity
  8
0-0
  6
Continuous
 62
     3
370
     9
100
AcDbCircle
 10
122.044507832893
 20
-85.81977288505487
 30
0.0
 40
1.00000000920535
100
AcDbArc
 50
7.125289916992188
 51
90.0
  0
ARC
  5
338
330
1F
100
AcDbEntity
  8
0-0
  6
Continuous
 62
     3
370
     9
100
AcDbCircle
 10
15.12373075873461
 20
-127.1383519512688
 30
0.0
 40
6.000000055232103
100
AcDbArc
 50
98.12835693359375
 51
170.5382232666016
  0
ARC
  5
339
330
1F
100
AcDbEntity
  8
0-0
  6
Continuous
 62
     3
370
     9
100
AcDbCircle
 10
14.48140502235368
 20
-118.1387559851506
 30
0.0
 40
3.000000027616052
100
AcDbArc
 50
278.1280670166016
 51
346.6094970703125
  0
ARC
  5
33A
330
1F
100
AcDbEntity
  8
0-0
  6
Continuous
 62
     3
370
     9
100
AcDbCircle
 10
20.59648080021033
 20
-114.0419227671321
 30
0.0
 40
2.000000018410701
100
AcDbArc
 50
114.4075317382812
 51
166.6099395751953
  0
ARC
  5
33B
330
1F
100
AcDbEntity
  8
0-0
  6
Continuous
 62
     3
370
     9
100
AcDbCircle
 10
-143.4036879301831
 20
-102.9639343303485
 30
0.0
 40
2.000000018410701
100
AcDbArc
 50
75.00010681152344
 51
172.0778503417969
  0
ARC
  5
33C
330
1F
100
AcDbEntity
  8
0-0
  6
Continuous
 62
     3
370
     9
100
AcDbCircle
 10
-160.9105820749556
 20
-98.27293494211403
 30
0.0
 40
2.000000018410701
100
AcDbArc
 50
6.29754638671875
 51
75.00010681152344
  0
ARC
  5
33D
330
1F
100
AcDbEntity
  8
0-0
  6
Continuous
 62
     3
370
     9
100
AcDbCircle
 10
-147.9431729631373
 20
-113.8198041096039
 30
0.0
 40
1.00000000920535
100
AcDbArc
 50
270.0
 51
352.0788726806641
  0
ARC
  5
33E
330
1F
100
AcDbEntity
  8
0-0
  6
Continuous
 62
     3
370
     9
100
AcDbCircle
 10
-156.1768732772209
 20
-113.8198041096039
 30
0.0
 40
1.00000000920535
100
AcDbArc
 50
186.2965698242187
 51
270.0
  0
ARC
  5
33F
330
1F
100
AcDbEntity
  8
0-0
  6
Continuous
 62
     3
370
     9
100
AcDbCircle
 10
-85.92197561833159
 20
-112.154533514127
 30
0.0
 40
1.00000000920535
100
AcDbArc
 50
30.00509643554688
 51
74.99909973144531
  0
ARC
  5
340
330
1F
100
AcDbEntity
  8
0-0
  6
Continuous
 62
     3
370
     9
100
AcDbCircle
 10
-83.89689558922326
 20
-111.661839351633
 30
0.0
 40
1.00000000920535
100
AcDbArc
 50
210.0063171386719
 51
254.996353149414
  0
ARC
  5
341
330
1F
100
AcDbEntity
  8
0-0
  6
Continuous
 62
     3
370
     9
100
AcDbCircle
 10
-83.24822785235969
 20
-111.83564980236
 30
0.0
 40
1.00000000920535
100
AcDbArc
 50
254.9990997314453
 51
299.9987640380859
  0
ARC
  5
342
330
1F
100
AcDbEntity
  8
0-0
  6
Continuous
 62
     3
370
     9
100
AcDbCircle
 10
-81.96932381753524
 20
-113.4066326875366
 30
0.0
 40
1.00000000920535
100
AcDbArc
 50
39.43991088867188
 51
119.998764038086
  0
ARC
  5
343
330
1F
100
AcDbEntity
  8
0-0
  6
Continuous
 62
     3
370
     9
100
AcDbCircle
 10
-82.74166056380997
 20
-114.0419227671321
 30
0.0
 40
2.000000018410701
100
AcDbArc
 50
13.39006042480469
 51
39.44046020507812
  0
LINE
  5
344
330
1F
100
AcDbEntity
  8
0-0
  6
Continuous
 62
     3
370
     9
100
AcDbLine
 10
-186.0726671772873
 20
-92.81980546463154
 30
0.0
 11
-185.0726129761834
 21
-93.81981011885678
 31
0.0
  0
ARC
  5
345
330
1F
100
AcDbEntity
  8
0-0
  6
Continuous
 62
     3
370
     9
100
AcDbCircle
 10
-175.305734045425
 20
-103.733298263897
 30
0.0
 40
11.00000010125886
100
AcDbArc
 50
74.99995422363281
 51
115.6804656982422
  0
ARC
  5
346
330
1F
100
AcDbEntity
  8
0-0
  6
Continuous
 62
     3
370
     9
100
AcDbCircle
 10
-94.48064264192958
 20
-121.2492143652011
 30
0.0
 40
5.0
100
AcDbArc
 50
5.815611334247627
 51
74.99998815045326
  0
ARC
  5
347
330
1F
100
AcDbEntity
  8
0-0
  6
Continuous
 62
     3
370
     9
100
AcDbCircle
 10
-94.69745198475314
 20
-119.120535217217
 30
0.0
 40
5.0
100
AcDbArc
 50
5.815611334247716
 51
75.00001496645127
  0
ARC
  5
348
330
1F
100
AcDbEntity
  8
0-0
  6
Continuous
 62
     3
370
     9
100
AcDbCircle
 10
-87.16926797562249
 20
-133.8197967453235
 30
0.0
 40
1.0
100
AcDbArc
 50
185.8156113342477
 51
270.0
  0
ARC
  5
349
330
1F
100
AcDbEntity
  8
0-0
  6
Continuous
 62
     3
370
     9
100
AcDbCircle
 10
-84.43377730260775
 20
-135.8197967453235
 30
0.0
 40
1.0
100
AcDbArc
 50
8.530765609948126
 51
90.0
  0
ARC
  5
34A
330
1F
100
AcDbEntity
  8
0-0
  6
Continuous
 62
     3
370
     9
100
AcDbCircle
 10
-78.85021504018418
 20
-152.8197967453235
 30
0.0
 40
2.0
100
AcDbArc
 50
188.5307656099481
 51
270.0
  0
LINE
  5
34B
330
1F
100
AcDbEntity
  8
0-0
  6
Continuous
 62
     3
370
     9
100
AcDbLine
 10
-80.82808774592084
 20
-153.116477651184
 30
0.0
 11
-83.44484094973959
 21
-135.6714562923932
 31
0.0
  0
LINE
  5
34C
330
1F
100
AcDbEntity
  8
0-0
  6
Continuous
 62
     3
370
     9
100
AcDbLine
 10
-88.16412111279529
 20
-133.9211241130861
 30
0.0
 11
-89.72318629888971
 21
-118.613898378404
 31
0.0
  0
LINE
  5
34D
330
1F
100
AcDbEntity
  8
0-0
  6
Continuous
 62
     3
370
     9
100
AcDbLine
 10
-84.43377730260775
 20
-134.8197967453235
 30
0.0
 11
-87.16926797562249
 21
-134.8197967453235
 31
0.0
  0
LINE
  5
34E
330
1F
100
AcDbEntity
  8
0-0
  6
Continuous
 62
     3
370
     9
100
AcDbLine
 10
-185.0726129761834
 20
-93.81981011885678
 30
0.0
 11
-180.0726044183802
 21
-93.81981011885678
 31
0.0
  0
ARC
  5
34F
330
1F
100
AcDbEntity
  8
0-0
  6
Continuous
 62
     3
370
     9
100
AcDbCircle
 10
113.1605542818253
 20
-103.7332982638971
 30
0.0
 40
11.00000010125886
100
AcDbArc
 50
64.3195343017578
 51
105.0000457763672
  0
LINE
  5
350
330
1F
100
AcDbEntity
  8
0-0
  6
Continuous
 62
     3
370
     9
100
AcDbLine
 10
122.9274332125837
 20
-93.81981011885678
 30
0.0
 11
115.384812763591
 21
-93.81981011885678
 31
0.0
  0
LINE
  5
351
330
1F
100
AcDbEntity
  8
0-0
  6
Continuous
 62
     3
370
     9
100
AcDbLine
 10
123.9274874136876
 20
-92.81980546463154
 30
0.0
 11
122.9274332125837
 21
-93.81981011885678
 31
0.0
  0
ARC
  5
352
330
1F
100
AcDbEntity
  8
0-0
  6
Continuous
 62
     3
370
     9
100
AcDbCircle
 10
32.55227222115323
 20
-119.120535217217
 30
0.0
 40
5.0
100
AcDbArc
 50
104.9999850335488
 51
174.1843886657523
  0
ARC
  5
353
330
1F
100
AcDbEntity
  8
0-0
  6
Continuous
 62
     3
370
     9
100
AcDbCircle
 10
22.28859753900784
 20
-135.8197967453235
 30
0.0
 40
1.0
100
AcDbArc
 50
90.0
 51
171.4692343900519
  0
ARC
  5
354
330
1F
100
AcDbEntity
  8
0-0
  6
Continuous
 62
     3
370
     9
100
AcDbCircle
 10
25.02408821202258
 20
-133.8197967453235
 30
0.0
 40
1.0
100
AcDbArc
 50
270.0
 51
354.1843886657522
  0
ARC
  5
355
330
1F
100
AcDbEntity
  8
0-0
  6
Continuous
 62
     3
370
     9
100
AcDbCircle
 10
16.70503527658444
 20
-152.8197967453235
 30
0.0
 40
2.0
100
AcDbArc
 50
270.0
 51
351.4692343900519
  0
LINE
  5
356
330
1F
100
AcDbEntity
  8
0-0
  6
Continuous
 62
     3
370
     9
100
AcDbLine
 10
31.25817825720674
 20
-114.2909057477363
 30
0.0
 11
110.3135906276717
 21
-93.10809397875767
 31
0.0
  0
LINE
  5
357
330
1F
100
AcDbEntity
  8
0-0
  6
Continuous
 62
     3
370
     9
100
AcDbLine
 10
31.04136665398417
 20
-116.4195855013924
 30
0.0
 11
116.9401883819549
 21
-93.40304654807863
 31
0.0
  0
LINE
  5
358
330
1F
100
AcDbEntity
  8
0-0
  6
Continuous
 62
     3
370
     9
100
AcDbLine
 10
21.29966118613956
 20
-135.6714562923932
 30
0.0
 11
18.68290798232093
 21
-153.116477651184
 31
0.0
  0
LINE
  5
359
330
1F
100
AcDbEntity
  8
0-0
  6
Continuous
 62
     3
370
     9
100
AcDbLine
 10
27.5780065352899
 20
-118.6138983784042
 30
0.0
 11
26.01894134919526
 21
-133.9211241130861
 31
0.0
  0
LINE
  5
35A
330
1F
100
AcDbEntity
  8
0-0
  6
Continuous
 62
     3
370
     9
100
AcDbLine
 10
25.02408821202258
 20
-134.8197967453235
 30
0.0
 11
22.28859753900784
 21
-134.8197967453235
 31
0.0
  0
ARC
  5
35B
330
1F
100
AcDbEntity
  8
0-0
  6
Continuous
 62
     3
370
     9
100
AcDbCircle
 10
32.33546287832981
 20
-121.2492143652011
 30
0.0
 40
5.0
100
AcDbArc
 50
105.0000118495468
 51
174.1843886657524
  0
LINE
  5
35C
330
1F
100
AcDbEntity
  8
0-0
  6
Continuous
 62
     3
370
     9
100
AcDbLine
 10
-93.18654641758398
 20
-116.4195855013924
 30
0.0
 11
-145.3355388748139
 21
-102.4462935269222
 31
0.0
  0
LINE
  5
35D
330
1F
100
AcDbEntity
  8
0-0
  6
Continuous
 62
     3
370
     9
100
AcDbLine
 10
-158.8372388390151
 20
-98.82852093225111
 30
0.0
 11
-179.0853681455547
 21
-93.40304654807863
 31
0.0
  0
LINE
  5
35E
330
1F
100
AcDbEntity
  8
0-0
  6
Continuous
 62
     3
370
     9
100
AcDbLine
 10
-93.40335802080656
 20
-114.2909057477362
 30
0.0
 11
-142.8860508441826
 21
-101.0320720199729
 31
0.0
  0
LINE
  5
35F
330
1F
100
AcDbEntity
  8
0-0
  6
Continuous
 62
     3
370
     9
100
AcDbLine
 10
-160.3929565243293
 20
-96.34111568238559
 30
0.0
 11
-172.4587703912714
 21
-93.10809397875772
 31
0.0
  0
LINE
  5
360
330
1F
100
AcDbEntity
  8
0-0
  6
JWW_DASHED1
 62
     3
370
     9
100
AcDbLine
 10
-160.392947581369
 20
-96.34108230676833
 30
0.0
 11
-142.8860508441826
 21
-101.0320720199729
 31
0.0
  0
LINE
  5
361
330
1F
100
AcDbEntity
  8
0-0
  6
Continuous
 62
     3
370
     9
100
AcDbLine
 10
-184.1896875964927
 20
-84.81977287584954
 30
0.0
 11
-78.0725608959921
 21
-84.81977287584954
 31
0.0
  0
LINE
  5
362
330
1F
100
AcDbEntity
  8
0-0
  6
Continuous
 62
     3
370
     9
100
AcDbLine
 10
122.044507832893
 20
-84.81977287584954
 30
0.0
 11
3.678226510050777
 21
-84.81977287584954
 31
0.0
  0
LINE
  5
363
330
1F
100
AcDbEntity
  8
0-0
  6
Continuous
 62
     3
370
     9
100
AcDbLine
 10
-70.07272184970529
 20
-84.81977287584954
 30
0.0
 11
-65.82324419932527
 21
-84.81977287584954
 31
0.0
  0
LINE
  5
364
330
1F
100
AcDbEntity
  8
0-4
  6
Continuous
 62
     7
370
     9
100
AcDbLine
 10
138.7261211335691
 20
-134.8197967453235
 30
0.0
 11
31.92742767464469
 21
-134.8197967453235
 31
0.0
  0
LINE
  5
365
330
1F
100
AcDbEntity
  8
0-3
  6
Continuous
 62
     4
370
     9
100
AcDbLine
 10
25.92742767464469
 20
-134.8197967453235
 30
0.0
 11
25.92742767464469
 21
-166.417969600317
 31
0.0
  0
LINE
  5
366
330
1F
100
AcDbEntity
  8
0-3
  6
Continuous
 62
     4
370
     9
100
AcDbLine
 10
25.92742767464469
 20
-134.8197967453235
 30
0.0
 11
22.42743615829576
 21
-134.8197967453235
 31
0.0
  0
LINE
  5
367
330
1F
100
AcDbEntity
  8
0-3
  6
Continuous
 62
     4
370
     9
100
AcDbLine
 10
22.42743615829576
 20
-168.590378127706
 30
0.0
 11
22.42743615829576
 21
-134.8197967453235
 31
0.0
  0
LINE
  5
368
330
1F
100
AcDbEntity
  8
0-4
  6
Continuous
 62
     7
370
     9
100
AcDbLine
 10
137.8261211335691
 20
-134.8197967453235
 30
0.0
 11
137.8261211335691
 21
-84.81981777770835
 31
0.0
  0
TEXT
  5
369
330
1F
100
AcDbEntity
  8
0-4
  6
Continuous
 62
     2
370
   211
100
AcDbText
 10
133.1341211335691
 20
-116.1948072615159
 30
0.0
 40
9.144
  1
50
 50
90.0
 41
1.0625
  7
ＭＳ ゴシック
100
AcDbText
  0
LINE
  5
36A
330
1F
100
AcDbEntity
  8
0-4
  6
Continuous
 62
     7
370
     9
100
AcDbLine
 10
137.8261211335691
 20
-134.8197967453235
 30
0.0
 11
136.8471746919187
 21
-127.3839602850199
 31
0.0
  0
LINE
  5
36B
330
1F
100
AcDbEntity
  8
0-4
  6
Continuous
 62
     7
370
     9
100
AcDbLine
 10
137.8261211335691
 20
-134.8197967453235
 30
0.0
 11
138.8050675752195
 21
-127.3839602850199
 31
0.0
  0
LINE
  5
36C
330
1F
100
AcDbEntity
  8
0-3
  6
Continuous
 62
     4
370
     9
100
AcDbLine
 10
-88.07260743824442
 20
-134.8197967453235
 30
0.0
 11
-88.07260743824442
 21
-168.0974761813312
 31
0.0
  0
LINE
  5
36D
330
1F
100
AcDbEntity
  8
0-3
  6
Continuous
 62
     4
370
     9
100
AcDbLine
 10
-88.07260743824442
 20
-134.8197967453235
 30
0.0
 11
-84.5726159218955
 21
-134.8197967453235
 31
0.0
  0
LINE
  5
36E
330
1F
100
AcDbEntity
  8
0-3
  6
Continuous
 62
     4
370
     9
100
AcDbLine
 10
-84.5726159218955
 20
-165.9250676539422
 30
0.0
 11
-84.5726159218955
 21
-134.8197967453235
 31
0.0
  0
TEXT
  5
36F
330
1F
100
AcDbEntity
  8
F-0
  6
Continuous
 62
     9
370
     5
100
AcDbText
 10
0.0
 20
-2998.731
 30
0.0
 40
6.858000000000001
  1
Printer_Orientation = 0
 41
0.0
  7
ＭＳ ゴシック
100
AcDbText
  0
TEXT
  5
370
330
1F
100
AcDbEntity
  8
F-0
  6
Continuous
 62
     9
370
     5
100
AcDbText
 10
0.0
 20
-2998.731
 30
0.0
 40
6.858000000000001
  1
Printer_PaperSize = 0
 41
0.0
  7
ＭＳ ゴシック
100
AcDbText
  0
TEXT
  5
371
330
1F
100
AcDbEntity
  8
F-0
  6
Continuous
 62
     9
370
     5
100
AcDbText
 10
0.0
 20
-2998.731
 30
0.0
 40
6.858000000000001
  1
Printer_D2dBMP = 0
 41
0.0
  7
ＭＳ ゴシック
100
AcDbText
  0
TEXT
  5
372
330
1F
100
AcDbEntity
  8
F-0
  6
Continuous
 62
     9
370
     5
100
AcDbText
 10
0.0
 20
-2998.731
 30
0.0
 40
6.858000000000001
  1
Printer_BmpZENTAI = 0
 41
0.0
  7
ＭＳ ゴシック
100
AcDbText
  0
TEXT
  5
373
330
1F
100
AcDbEntity
  8
F-0
  6
Continuous
 62
     9
370
     5
100
AcDbText
 10
0.0
 20
-2998.731
 30
0.0
 40
6.858000000000001
  1
View_Direct2d = 1
 41
0.0
  7
ＭＳ ゴシック
100
AcDbText
  0
TEXT
  5
374
330
1F
100
AcDbEntity
  8
F-0
  6
Continuous
 62
     9
370
     5
100
AcDbText
 10
0.0
 20
-2998.731
 30
0.0
 40
6.858000000000001
  1
Draw_BmpTOUKA = 1
 41
0.0
  7
ＭＳ ゴシック
100
AcDbText
  0
ENDSEC
  0
SECTION
  2
OBJECTS
  0
DICTIONARY
  5
C
330
0
100
AcDbDictionary
281
     1
  3
ACAD_DETAILVIEWSTYLE
350
3BA
  3
ACAD_GROUP
350
D
  3
ACAD_LAYOUT
350
1A
  3
ACAD_MATERIAL
350
43
  3
ACAD_MLEADERSTYLE
350
6B
  3
ACAD_MLINESTYLE
350
17
  3
ACAD_PLOTSETTINGS
350
19
  3
ACAD_PLOTSTYLENAME
350
E
  3
ACAD_SCALELIST
350
47
  3
ACAD_SECTIONVIEWSTYLE
350
3BB
  3
ACAD_TABLESTYLE
350
69
  3
ACAD_VISUALSTYLE
350
2A
  3
ACDB_RECOMPOSE_DATA
350
3B7
  3
AcDbVariableDictionary
350
377
  0
DICTIONARY
  5
375
330
8
100
AcDbDictionary
280
     1
281
     1
  3
ACAD_XREC_ROUNDTRIP
360
376
  0
DICTIONARY
  5
3BA
102
{ACAD_REACTORS
330
C
102
}
330
C
100
AcDbDictionary
281
     1
  0
DICTIONARY
  5
D
102
{ACAD_REACTORS
330
C
102
}
330
C
100
AcDbDictionary
281
     1
  0
DICTIONARY
  5
1A
102
{ACAD_REACTORS
330
C
102
}
330
C
100
AcDbDictionary
281
     1
  3
Layout1
350
1E
  3
Layout2
350
26
  3
Model
350
22
  0
DICTIONARY
  5
43
102
{ACAD_REACTORS
330
C
102
}
330
C
100
AcDbDictionary
281
     1
  3
ByBlock
350
45
  3
ByLayer
350
44
  3
Global
350
46
  0
DICTIONARY
  5
6B
102
{ACAD_REACTORS
330
C
102
}
330
C
100
AcDbDictionary
281
     1
  3
Standard
350
6C
  0
DICTIONARY
  5
17
102
{ACAD_REACTORS
330
C
102
}
330
C
100
AcDbDictionary
281
     1
  3
Standard
350
18
  0
DICTIONARY
  5
19
102
{ACAD_REACTORS
330
C
102
}
330
C
100
AcDbDictionary
281
     1
  0
ACDBDICTIONARYWDFLT
  5
E
102
{ACAD_REACTORS
330
C
102
}
330
C
100
AcDbDictionary
281
     1
  3
Normal
350
F
100
AcDbDictionaryWithDefault
340
F
  0
DICTIONARY
  5
47
102
{ACAD_REACTORS
330
C
102
}
330
C
100
AcDbDictionary
281
     1
  3
A0
350
48
  3
A1
350
49
  3
A2
350
4A
  3
A3
350
4B
  3
A4
350
4C
  3
A5
350
4D
  3
A6
350
4E
  3
A7
350
4F
  3
A8
350
50
  3
A9
350
51
  3
B0
350
52
  3
B1
350
53
  3
B2
350
54
  3
B3
350
55
  3
B4
350
56
  3
B5
350
57
  3
B6
350
58
  3
B7
350
59
  3
B8
350
5A
  3
B9
350
5B
  3
C0
350
5C
  3
C1
350
5D
  3
C2
350
5E
  3
C3
350
5F
  3
C4
350
60
  3
C5
350
61
  3
C6
350
62
  3
C7
350
63
  3
C8
350
64
  3
C9
350
65
  3
D0
350
66
  3
D1
350
67
  3
D2
350
68
  0
DICTIONARY
  5
3BB
102
{ACAD_REACTORS
330
C
102
}
330
C
100
AcDbDictionary
281
     1
  0
DICTIONARY
  5
69
102
{ACAD_REACTORS
330
C
102
}
330
C
100
AcDbDictionary
281
     1
  3
Standard
350
6A
  0
DICTIONARY
  5
2A
102
{ACAD_REACTORS
330
C
102
}
330
C
100
AcDbDictionary
281
     1
  3
2dWireframe
350
2F
  3
Basic
350
32
  3
Brighten
350
36
  3
ColorChange
350
3A
  3
Conceptual
350
34
  3
Dim
350
35
  3
EdgeColorOff
350
3D
  3
Facepattern
350
39
  3
Flat
350
2B
  3
FlatWithEdges
350
2C
  3
Gouraud
350
2D
  3
GouraudWithEdges
350
2E
  3
Hidden
350
31
  3
JitterOff
350
3B
  3
Linepattern
350
38
  3
OverhangOff
350
3C
  3
Realistic
350
33
  3
Shaded
350
42
  3
Shaded with edges
350
41
  3
Shades of Gray
350
3E
  3
Sketchy
350
3F
  3
Thicken
350
37
  3
Wireframe
350
30
  3
X-Ray
350
40
  0
XRECORD
  5
3B7
102
{ACAD_REACTORS
330
C
102
}
330
C
100
AcDbXrecord
280
     1
 90
        1
330
6A
  0
DICTIONARY
  5
377
102
{ACAD_REACTORS
330
C
102
}
330
C
100
AcDbDictionary
281
     1
  3
CANNOSCALE
350
378
  3
CENTEREXE
350
3BC
  3
CENTERLTYPEFILE
350
3BD
  3
CMLEADERSTYLE
350
3B9
  3
CTABLESTYLE
350
3B8
  3
MSLTSCALE
350
379
  3
XCLIPFRAME
350
37A
  0
XRECORD
  5
376
102
{ACAD_REACTORS
330
375
102
}
330
375
100
AcDbXrecord
280
     1
102
VTR_0.000_0.000_1.000_1.000_VISUALSTYLE
340
2F
102
VTR_0.000_0.000_1.000_1.000_GRIDDISPLAY
 70
     3
102
VTR_0.000_0.000_1.000_1.000_GRIDMAJOR
 70
     5
102
VTR_0.000_0.000_1.000_1.000_DEFAULTLIGHTING
280
     1
102
VTR_0.000_0.000_1.000_1.000_DEFAULTLIGHTINGTYPE
 70
     1
102
VTR_0.000_0.000_1.000_1.000_BRIGHTNESS
141
0.0
102
VTR_0.000_0.000_1.000_1.000_CONTRAST
142
0.0
  0
LAYOUT
  5
1E
102
{ACAD_REACTORS
330
1A
102
}
330
1A
100
AcDbPlotSettings
  1

  2
none_device
  4

  6

 40
0.0
 41
0.0
 42
0.0
 43
0.0
 44
0.0
 45
0.0
 46
0.0
 47
0.0
 48
0.0
 49
0.0
140
0.0
141
0.0
142
1.0
143
1.0
 70
   688
 72
     1
 73
     0
 74
     5
  7

 75
    16
 76
     0
 77
     5
 78
   300
147
1.0
148
0.0
149
0.0
100
AcDbLayout
  1
Layout1
 70
     1
 71
     1
 10
0.0
 20
0.0
 11
420.0
 21
297.0
 12
0.0
 22
0.0
 32
0.0
 14
1.000000000000000E+20
 24
1.000000000000000E+20
 34
1.000000000000000E+20
 15
-1.000000000000000E+20
 25
-1.000000000000000E+20
 35
-1.000000000000000E+20
146
0.0
 13
0.0
 23
0.0
 33
0.0
 16
1.0
 26
0.0
 36
0.0
 17
0.0
 27
1.0
 37
0.0
 76
     0
330
1B
  0
LAYOUT
  5
26
102
{ACAD_REACTORS
330
1A
102
}
330
1A
100
AcDbPlotSettings
  1

  2
none_device
  4

  6

 40
0.0
 41
0.0
 42
0.0
 43
0.0
 44
0.0
 45
0.0
 46
0.0
 47
0.0
 48
0.0
 49
0.0
140
0.0
141
0.0
142
1.0
143
1.0
 70
   688
 72
     1
 73
     0
 74
     5
  7

 75
    16
 76
     0
 77
     5
 78
   300
147
1.0
148
0.0
149
0.0
100
AcDbLayout
  1
Layout2
 70
     1
 71
     2
 10
0.0
 20
0.0
 11
0.0
 21
0.0
 12
0.0
 22
0.0
 32
0.0
 14
0.0
 24
0.0
 34
0.0
 15
0.0
 25
0.0
 35
0.0
146
0.0
 13
0.0
 23
0.0
 33
0.0
 16
1.0
 26
0.0
 36
0.0
 17
0.0
 27
1.0
 37
0.0
 76
     0
330
23
  0
LAYOUT
  5
22
102
{ACAD_REACTORS
330
1A
102
}
330
1A
100
AcDbPlotSettings
  1

  2
none_device
  4
Letter_(8.50_x_11.00_Inches)
  6

 40
6.35
 41
6.35
 42
6.35000508
 43
6.35000508
 44
215.9
 45
279.4
 46
0.0
 47
0.0
 48
0.0
 49
0.0
140
0.0
141
0.0
142
1.0
143
1.0
 70
  1712
 72
     1
 73
     0
 74
     0
  7

 75
     0
 76
     0
 77
     5
 78
   300
147
1.0
148
0.0
149
0.0
100
AcDbLayout
  1
Model
 70
     1
 71
     0
 10
-630.0
 20
-445.5
 11
630.0
 21
445.5
 12
0.0
 22
0.0
 32
0.0
 14
-630.0
 24
-445.5
 34
0.0
 15
630.0
 25
445.5
 35
0.0
146
0.0
 13
0.0
 23
0.0
 33
0.0
 16
1.0
 26
0.0
 36
0.0
 17
0.0
 27
1.0
 37
0.0
 76
     0
330
1F
331
29
  0
MATERIAL
  5
45
102
{ACAD_REACTORS
330
43
102
}
102
{ACAD_XDICTIONARY
360
3AD
102
}
330
43
100
AcDbMaterial
  1
ByBlock
  0
MATERIAL
  5
44
102
{ACAD_REACTORS
330
43
102
}
102
{ACAD_XDICTIONARY
360
3AB
102
}
330
43
100
AcDbMaterial
  1
ByLayer
  0
MATERIAL
  5
46
102
{ACAD_REACTORS
330
43
102
}
102
{ACAD_XDICTIONARY
360
3AF
102
}
330
43
100
AcDbMaterial
  1
Global
  0
MLEADERSTYLE
  5
6C
102
{ACAD_REACTORS
330
6B
102
}
102
{ACAD_XDICTIONARY
360
3B5
102
}
330
6B
100
AcDbMLeaderStyle
170
     2
171
     1
172
     0
 90
        2
 40
0.0
 41
0.0
173
     1
 91
-1056964608
340
14
 92
       -2
290
     1
 42
2.0
291
     1
 43
8.0
  3
Standard
341
0
 44
4.0
300

342
11
174
     1
178
     6
175
     1
176
     0
 93
-1056964608
 45
4.0
292
     0
297
     0
 46
4.0
343
0
 94
-1056964608
 47
1.0
 49
1.0
140
1.0
293
     1
141
0.0
294
     1
177
     0
142
1.0
295
     0
296
     0
143
3.75
1001
ACAD_MLEADERVER
1070
     2
  0
MLINESTYLE
  5
18
102
{ACAD_REACTORS
330
17
102
}
330
17
100
AcDbMlineStyle
  2
Standard
 70
     0
  3

 62
   256
 51
90.0
 52
90.0
 71
     2
 49
0.5
 62
   256
  6
BYLAYER
 49
-0.5
 62
   256
  6
BYLAYER
  0
ACDBPLACEHOLDER
  5
F
102
{ACAD_REACTORS
330
E
102
}
330
E
  0
SCALE
  5
48
102
{ACAD_REACTORS
330
47
102
}
330
47
100
AcDbScale
 70
     0
300
1:1
140
1.0
141
1.0
290
     1
  0
SCALE
  5
49
102
{ACAD_REACTORS
330
47
102
}
330
47
100
AcDbScale
 70
     0
300
1:2
140
1.0
141
2.0
290
     0
  0
SCALE
  5
4A
102
{ACAD_REACTORS
330
47
102
}
330
47
100
AcDbScale
 70
     0
300
1:4
140
1.0
141
4.0
290
     0
  0
SCALE
  5
4B
102
{ACAD_REACTORS
330
47
102
}
330
47
100
AcDbScale
 70
     0
300
1:5
140
1.0
141
5.0
290
     0
  0
SCALE
  5
4C
102
{ACAD_REACTORS
330
47
102
}
330
47
100
AcDbScale
 70
     0
300
1:8
140
1.0
141
8.0
290
     0
  0
SCALE
  5
4D
102
{ACAD_REACTORS
330
47
102
}
330
47
100
AcDbScale
 70
     0
300
1:10
140
1.0
141
10.0
290
     0
  0
SCALE
  5
4E
102
{ACAD_REACTORS
330
47
102
}
330
47
100
AcDbScale
 70
     0
300
1:16
140
1.0
141
16.0
290
     0
  0
SCALE
  5
4F
102
{ACAD_REACTORS
330
47
102
}
330
47
100
AcDbScale
 70
     0
300
1:20
140
1.0
141
20.0
290
     0
  0
SCALE
  5
50
102
{ACAD_REACTORS
330
47
102
}
330
47
100
AcDbScale
 70
     0
300
1:30
140
1.0
141
30.0
290
     0
  0
SCALE
  5
51
102
{ACAD_REACTORS
330
47
102
}
330
47
100
AcDbScale
 70
     0
300
1:40
140
1.0
141
40.0
290
     0
  0
SCALE
  5
52
102
{ACAD_REACTORS
330
47
102
}
330
47
100
AcDbScale
 70
     0
300
1:50
140
1.0
141
50.0
290
     0
  0
SCALE
  5
53
102
{ACAD_REACTORS
330
47
102
}
330
47
100
AcDbScale
 70
     0
300
1:100
140
1.0
141
100.0
290
     0
  0
SCALE
  5
54
102
{ACAD_REACTORS
330
47
102
}
330
47
100
AcDbScale
 70
     0
300
2:1
140
2.0
141
1.0
290
     0
  0
SCALE
  5
55
102
{ACAD_REACTORS
330
47
102
}
330
47
100
AcDbScale
 70
     0
300
4:1
140
4.0
141
1.0
290
     0
  0
SCALE
  5
56
102
{ACAD_REACTORS
330
47
102
}
330
47
100
AcDbScale
 70
     0
300
8:1
140
8.0
141
1.0
290
     0
  0
SCALE
  5
57
102
{ACAD_REACTORS
330
47
102
}
330
47
100
AcDbScale
 70
     0
300
10:1
140
10.0
141
1.0
290
     0
  0
SCALE
  5
58
102
{ACAD_REACTORS
330
47
102
}
330
47
100
AcDbScale
 70
     0
300
100:1
140
100.0
141
1.0
290
     0
  0
SCALE
  5
59
102
{ACAD_REACTORS
330
47
102
}
330
47
100
AcDbScale
 70
     0
300
1/128" = 1'-0"
140
0.0078125
141
12.0
290
     0
  0
SCALE
  5
5A
102
{ACAD_REACTORS
330
47
102
}
330
47
100
AcDbScale
 70
     0
300
1/64" = 1'-0"
140
0.015625
141
12.0
290
     0
  0
SCALE
  5
5B
102
{ACAD_REACTORS
330
47
102
}
330
47
100
AcDbScale
 70
     0
300
1/32" = 1'-0"
140
0.03125
141
12.0
290
     0
  0
SCALE
  5
5C
102
{ACAD_REACTORS
330
47
102
}
330
47
100
AcDbScale
 70
     0
300
1/16" = 1'-0"
140
0.0625
141
12.0
290
     0
  0
SCALE
  5
5D
102
{ACAD_REACTORS
330
47
102
}
330
47
100
AcDbScale
 70
     0
300
3/32" = 1'-0"
140
0.09375
141
12.0
290
     0
  0
SCALE
  5
5E
102
{ACAD_REACTORS
330
47
102
}
330
47
100
AcDbScale
 70
     0
300
1/8" = 1'-0"
140
0.125
141
12.0
290
     0
  0
SCALE
  5
5F
102
{ACAD_REACTORS
330
47
102
}
330
47
100
AcDbScale
 70
     0
300
3/16" = 1'-0"
140
0.1875
141
12.0
290
     0
  0
SCALE
  5
60
102
{ACAD_REACTORS
330
47
102
}
330
47
100
AcDbScale
 70
     0
300
1/4" = 1'-0"
140
0.25
141
12.0
290
     0
  0
SCALE
  5
61
102
{ACAD_REACTORS
330
47
102
}
330
47
100
AcDbScale
 70
     0
300
3/8" = 1'-0"
140
0.375
141
12.0
290
     0
  0
SCALE
  5
62
102
{ACAD_REACTORS
330
47
102
}
330
47
100
AcDbScale
 70
     0
300
1/2" = 1'-0"
140
0.5
141
12.0
290
     0
  0
SCALE
  5
63
102
{ACAD_REACTORS
330
47
102
}
330
47
100
AcDbScale
 70
     0
300
3/4" = 1'-0"
140
0.75
141
12.0
290
     0
  0
SCALE
  5
64
102
{ACAD_REACTORS
330
47
102
}
330
47
100
AcDbScale
 70
     0
300
1" = 1'-0"
140
1.0
141
12.0
290
     0
  0
SCALE
  5
65
102
{ACAD_REACTORS
330
47
102
}
330
47
100
AcDbScale
 70
     0
300
1-1/2" = 1'-0"
140
1.5
141
12.0
290
     0
  0
SCALE
  5
66
102
{ACAD_REACTORS
330
47
102
}
330
47
100
AcDbScale
 70
     0
300
3" = 1'-0"
140
3.0
141
12.0
290
     0
  0
SCALE
  5
67
102
{ACAD_REACTORS
330
47
102
}
330
47
100
AcDbScale
 70
     0
300
6" = 1'-0"
140
6.0
141
12.0
290
     0
  0
SCALE
  5
68
102
{ACAD_REACTORS
330
47
102
}
330
47
100
AcDbScale
 70
     0
300
1'-0" = 1'-0"
140
12.0
141
12.0
290
     0
  0
TABLESTYLE
  5
6A
102
{ACAD_REACTORS
330
69
102
}
102
{ACAD_XDICTIONARY
360
3B1
102
}
330
69
100
AcDbTableStyle
  3
Standard
 70
     0
 71
     0
 40
0.06
 41
0.06
280
     0
281
     0
  7
Standard
140
4.5
170
     2
 62
     0
 63
   257
283
     0
274
    -2
284
     1
 64
     0
275
    -2
285
     1
 65
     0
276
    -2
286
     1
 66
     0
277
    -2
287
     1
 67
     0
278
    -2
288
     1
 68
     0
279
    -2
289
     1
 69
     0
  7
Standard
140
6.0
170
     5
 62
     0
 63
   257
283
     0
274
    -2
284
     1
 64
     0
275
    -2
285
     1
 65
     0
276
    -2
286
     1
 66
     0
277
    -2
287
     1
 67
     0
278
    -2
288
     1
 68
     0
279
    -2
289
     1
 69
     0
  7
Standard
140
4.5
170
     5
 62
     0
 63
   257
283
     0
274
    -2
284
     1
 64
     0
275
    -2
285
     1
 65
     0
276
    -2
286
     1
 66
     0
277
    -2
287
     1
 67
     0
278
    -2
288
     1
 68
     0
279
    -2
289
     1
 69
     0
  0
VISUALSTYLE
  5
2F
102
{ACAD_REACTORS
330
2A
102
}
102
{ACAD_XDICTIONARY
360
383
102
}
330
2A
100
AcDbVisualStyle
  2
2dWireframe
 70
     4
 71
     0
 72
     2
 73
     0
 90
        0
 40
0.6
 41
30.0
 62
     5
 63
     7
421
 16777215
 74
     1
 91
        4
 64
     7
 65
   257
 75
     1
175
     1
 42
1.0
 92
        0
 66
   257
 43
1.0
 76
     1
 77
     6
 78
     2
 67
     7
 79
     5
170
     0
171
     0
290
     0
174
     0
 93
        1
 44
0.0
173
     0
291
     0
 45
0.0
1001
ACAD
1000
AcDbSavedByObjectVersion
1070
     0
  0
VISUALSTYLE
  5
32
102
{ACAD_REACTORS
330
2A
102
}
102
{ACAD_XDICTIONARY
360
389
102
}
330
2A
100
AcDbVisualStyle
  2
Basic
 70
     7
 71
     1
 72
     0
 73
     1
 90
        0
 40
0.6
 41
30.0
 62
     5
 63
     7
421
 16777215
 74
     0
 91
        4
 64
     7
 65
   257
 75
     1
175
     1
 42
1.0
 92
        8
 66
     7
 43
1.0
 76
     1
 77
     6
 78
     2
 67
     7
 79
     5
170
     0
171
     0
290
     0
174
     0
 93
        1
 44
0.0
173
     0
291
     1
 45
0.0
1001
ACAD
1000
AcDbSavedByObjectVersion
1070
     0
  0
VISUALSTYLE
  5
36
102
{ACAD_REACTORS
330
2A
102
}
102
{ACAD_XDICTIONARY
360
391
102
}
330
2A
100
AcDbVisualStyle
  2
Brighten
 70
    12
 71
     2
 72
     2
 73
     0
 90
        0
 40
0.6
 41
30.0
 62
     5
 63
     7
421
 16777215
 74
     1
 91
        4
 64
     7
 65
   257
 75
     1
175
     1
 42
1.0
 92
        8
 66
     7
 43
1.0
 76
     1
 77
     6
 78
     2
 67
     7
 79
     5
170
     0
171
     0
290
     0
174
     0
 93
        1
 44
50.0
173
     0
291
     1
 45
0.0
1001
ACAD
1000
AcDbSavedByObjectVersion
1070
     0
  0
VISUALSTYLE
  5
3A
102
{ACAD_REACTORS
330
2A
102
}
102
{ACAD_XDICTIONARY
360
399
102
}
330
2A
100
AcDbVisualStyle
  2
ColorChange
 70
    16
 71
     2
 72
     2
 73
     3
 90
        0
 40
0.6
 41
30.0
 62
     5
 63
     8
421
  8421504
 74
     1
 91
        4
 64
     7
 65
   257
 75
     1
175
     1
 42
1.0
 92
        8
 66
     8
424
  8421504
 43
1.0
 76
     1
 77
     6
 78
     2
 67
     7
 79
     5
170
     0
171
     0
290
     0
174
     0
 93
        1
 44
0.0
173
     0
291
     1
 45
0.0
1001
ACAD
1000
AcDbSavedByObjectVersion
1070
     0
  0
VISUALSTYLE
  5
34
102
{ACAD_REACTORS
330
2A
102
}
102
{ACAD_XDICTIONARY
360
38D
102
}
330
2A
100
AcDbVisualStyle
  2
Conceptual
 70
     9
 71
     3
 72
     2
 73
     0
 90
        0
 40
0.6
 41
30.0
 62
     5
 63
     7
421
 16777215
 74
     2
 91
        2
 64
     7
 65
   257
 75
     1
175
     1
 42
179.0
 92
        8
 66
     7
 43
1.0
 76
     1
 77
     6
 78
     2
 67
     7
 79
     3
170
     0
171
     0
290
     0
174
     0
 93
        1
 44
0.0
173
     0
291
     0
 45
0.0
1001
ACAD
1000
AcDbSavedByObjectVersion
1070
     0
  0
VISUALSTYLE
  5
35
102
{ACAD_REACTORS
330
2A
102
}
102
{ACAD_XDICTIONARY
360
38F
102
}
330
2A
100
AcDbVisualStyle
  2
Dim
 70
    11
 71
     2
 72
     2
 73
     0
 90
        0
 40
0.6
 41
30.0
 62
     5
 63
     7
421
 16777215
 74
     1
 91
        4
 64
     7
 65
   257
 75
     1
175
     1
 42
1.0
 92
        8
 66
     7
 43
1.0
 76
     1
 77
     6
 78
     2
 67
     7
 79
     5
170
     0
171
     0
290
     0
174
     0
 93
        1
 44
-50.0
173
     0
291
     1
 45
0.0
1001
ACAD
1000
AcDbSavedByObjectVersion
1070
     0
  0
VISUALSTYLE
  5
3D
102
{ACAD_REACTORS
330
2A
102
}
102
{ACAD_XDICTIONARY
360
39F
102
}
330
2A
100
AcDbVisualStyle
  2
EdgeColorOff
 70
    22
 71
     2
 72
     2
 73
     0
 90
        0
 40
0.6
 41
30.0
 62
     5
 63
     7
421
 16777215
 74
     1
 91
        4
 64
     7
 65
   257
 75
     1
175
     1
 42
1.0
 92
        8
 66
     7
 43
1.0
 76
     1
 77
     6
 78
     2
 67
     7
 79
     5
170
     0
171
     0
290
     0
174
     0
 93
        1
 44
0.0
173
     0
291
     1
 45
0.0
1001
ACAD
1000
AcDbSavedByObjectVersion
1070
     0
  0
VISUALSTYLE
  5
39
102
{ACAD_REACTORS
330
2A
102
}
102
{ACAD_XDICTIONARY
360
397
102
}
330
2A
100
AcDbVisualStyle
  2
Facepattern
 70
    15
 71
     2
 72
     2
 73
     0
 90
        0
 40
0.6
 41
30.0
 62
     5
 63
     7
421
 16777215
 74
     1
 91
        4
 64
     7
 65
   257
 75
     1
175
     1
 42
1.0
 92
        8
 66
     7
 43
1.0
 76
     1
 77
     6
 78
     2
 67
     7
 79
     5
170
     0
171
     0
290
     0
174
     0
 93
        1
 44
0.0
173
     0
291
     1
 45
0.0
1001
ACAD
1000
AcDbSavedByObjectVersion
1070
     0
  0
VISUALSTYLE
  5
2B
102
{ACAD_REACTORS
330
2A
102
}
102
{ACAD_XDICTIONARY
360
37B
102
}
330
2A
100
AcDbVisualStyle
  2
Flat
 70
     0
 71
     2
 72
     1
 73
     1
 90
        2
 40
0.6
 41
30.0
 62
     5
 63
     7
421
 16777215
 74
     0
 91
        0
 64
     7
 65
   257
 75
     1
175
     1
 42
1.0
 92
        8
 66
     7
 43
1.0
 76
     1
 77
     6
 78
     2
 67
     7
 79
     5
170
     0
171
     0
290
     0
174
     0
 93
       13
 44
0.0
173
     0
291
     1
 45
0.0
1001
ACAD
1000
AcDbSavedByObjectVersion
1070
     0
  0
VISUALSTYLE
  5
2C
102
{ACAD_REACTORS
330
2A
102
}
102
{ACAD_XDICTIONARY
360
37D
102
}
330
2A
100
AcDbVisualStyle
  2
FlatWithEdges
 70
     1
 71
     2
 72
     1
 73
     1
 90
        2
 40
0.6
 41
30.0
 62
     5
 63
     7
421
 16777215
 74
     1
 91
        0
 64
     7
 65
   257
 75
     1
175
     1
 42
1.0
 92
        0
 66
   257
 43
1.0
 76
     1
 77
     6
 78
     2
 67
     7
 79
     5
170
     0
171
     0
290
     0
174
     0
 93
       13
 44
0.0
173
     0
291
     1
 45
0.0
1001
ACAD
1000
AcDbSavedByObjectVersion
1070
     0
  0
VISUALSTYLE
  5
2D
102
{ACAD_REACTORS
330
2A
102
}
102
{ACAD_XDICTIONARY
360
37F
102
}
330
2A
100
AcDbVisualStyle
  2
Gouraud
 70
     2
 71
     2
 72
     2
 73
     1
 90
        2
 40
0.6
 41
30.0
 62
     5
 63
     7
421
 16777215
 74
     0
 91
        0
 64
     7
 65
   257
 75
     1
175
     1
 42
1.0
 92
        0
 66
     7
 43
1.0
 76
     1
 77
     6
 78
     2
 67
     7
 79
     5
170
     0
171
     0
290
     0
174
     0
 93
       13
 44
0.0
173
     0
291
     1
 45
0.0
1001
ACAD
1000
AcDbSavedByObjectVersion
1070
     0
  0
VISUALSTYLE
  5
2E
102
{ACAD_REACTORS
330
2A
102
}
102
{ACAD_XDICTIONARY
360
381
102
}
330
2A
100
AcDbVisualStyle
  2
GouraudWithEdges
 70
     3
 71
     2
 72
     2
 73
     1
 90
        2
 40
0.6
 41
30.0
 62
     5
 63
     7
421
 16777215
 74
     1
 91
        0
 64
     7
 65
   257
 75
     1
175
     1
 42
1.0
 92
        0
 66
   257
 43
1.0
 76
     1
 77
     6
 78
     2
 67
     7
 79
     5
170
     0
171
     0
290
     0
174
     0
 93
       13
 44
0.0
173
     0
291
     1
 45
0.0
1001
ACAD
1000
AcDbSavedByObjectVersion
1070
     0
  0
VISUALSTYLE
  5
31
102
{ACAD_REACTORS
330
2A
102
}
102
{ACAD_XDICTIONARY
360
387
102
}
330
2A
100
AcDbVisualStyle
  2
Hidden
 70
     6
 71
     1
 72
     2
 73
     2
 90
        0
 40
0.6
 41
30.0
 62
     5
 63
     7
421
 16777215
 74
     2
 91
        2
 64
     7
 65
   257
 75
     2
175
     1
 42
40.0
 92
        0
 66
   257
 43
1.0
 76
     1
 77
     6
 78
     2
 67
     7
 79
     3
170
     0
171
     0
290
     0
174
     0
 93
        1
 44
0.0
173
     0
291
     0
 45
0.0
1001
ACAD
1000
AcDbSavedByObjectVersion
1070
     0
  0
VISUALSTYLE
  5
3B
102
{ACAD_REACTORS
330
2A
102
}
102
{ACAD_XDICTIONARY
360
39B
102
}
330
2A
100
AcDbVisualStyle
  2
JitterOff
 70
    20
 71
     2
 72
     2
 73
     0
 90
        0
 40
0.6
 41
30.0
 62
     5
 63
     7
421
 16777215
 74
     1
 91
        4
 64
     7
 65
   257
 75
     1
175
     1
 42
1.0
 92
       10
 66
     7
 43
1.0
 76
     1
 77
     6
 78
     2
 67
     7
 79
     5
170
     0
171
     0
290
     0
174
     0
 93
        1
 44
0.0
173
     0
291
     1
 45
0.0
1001
ACAD
1000
AcDbSavedByObjectVersion
1070
     0
  0
VISUALSTYLE
  5
38
102
{ACAD_REACTORS
330
2A
102
}
102
{ACAD_XDICTIONARY
360
395
102
}
330
2A
100
AcDbVisualStyle
  2
Linepattern
 70
    14
 71
     2
 72
     2
 73
     0
 90
        0
 40
0.6
 41
30.0
 62
     5
 63
     7
421
 16777215
 74
     1
 91
        4
 64
     7
 65
   257
 75
     7
175
     7
 42
1.0
 92
        8
 66
     7
 43
1.0
 76
     1
 77
     6
 78
     2
 67
     7
 79
     5
170
     0
171
     0
290
     0
174
     0
 93
        1
 44
0.0
173
     0
291
     1
 45
0.0
1001
ACAD
1000
AcDbSavedByObjectVersion
1070
     0
  0
VISUALSTYLE
  5
3C
102
{ACAD_REACTORS
330
2A
102
}
102
{ACAD_XDICTIONARY
360
39D
102
}
330
2A
100
AcDbVisualStyle
  2
OverhangOff
 70
    21
 71
     2
 72
     2
 73
     0
 90
        0
 40
0.6
 41
30.0
 62
     5
 63
     7
421
 16777215
 74
     1
 91
        4
 64
     7
 65
   257
 75
     1
175
     1
 42
1.0
 92
        9
 66
     7
 43
1.0
 76
     1
 77
     6
 78
     2
 67
     7
 79
     5
170
     0
171
     0
290
     0
174
     0
 93
        1
 44
0.0
173
     0
291
     1
 45
0.0
1001
ACAD
1000
AcDbSavedByObjectVersion
1070
     0
  0
VISUALSTYLE
  5
33
102
{ACAD_REACTORS
330
2A
102
}
102
{ACAD_XDICTIONARY
360
38B
102
}
330
2A
100
AcDbVisualStyle
  2
Realistic
 70
     8
 71
     2
 72
     3
 73
     0
 90
        2
 40
0.6
 41
30.0
 62
     5
 63
     7
421
 16777215
 74
     0
 91
        0
 64
     7
 65
   257
 75
     1
175
     1
 42
1.0
 92
        8
 66
   257
 43
1.0
 76
     1
 77
     6
 78
     2
 67
     7
 79
     3
170
     0
171
     0
290
     0
174
     0
 93
       13
 44
0.0
173
     0
291
     0
 45
0.0
1001
ACAD
1000
AcDbSavedByObjectVersion
1070
     0
  0
VISUALSTYLE
  5
42
102
{ACAD_REACTORS
330
2A
102
}
102
{ACAD_XDICTIONARY
360
3A9
102
}
330
2A
100
AcDbVisualStyle
  2
Shaded
 70
    27
 71
     2
 72
     2
 73
     1
 90
        2
 40
0.6
 41
30.0
 62
     5
 63
     7
421
 16777215
 74
     0
 91
        4
 64
     7
 65
   257
 75
     1
175
     1
 42
1.0
 92
        8
 66
   257
 43
1.0
 76
     1
 77
     6
 78
     2
 67
     8
425
  7895160
 79
     3
170
     0
171
     0
290
     0
174
     0
 93
        5
 44
0.0
173
     0
291
     0
 45
0.0
1001
ACAD
1000
AcDbSavedByObjectVersion
1070
     0
  0
VISUALSTYLE
  5
41
102
{ACAD_REACTORS
330
2A
102
}
102
{ACAD_XDICTIONARY
360
3A7
102
}
330
2A
100
AcDbVisualStyle
  2
Shaded with edges
 70
    26
 71
     2
 72
     2
 73
     1
 90
        2
 40
0.6
 41
30.0
 62
     5
 63
     7
421
 16777215
 74
     1
 91
       10
 64
     7
 65
   257
 75
     2
175
     1
 42
1.0
 92
        8
 66
   257
 43
1.0
 76
     1
 77
     6
 78
     2
 67
     7
 79
     3
170
     0
171
     0
290
     0
174
     0
 93
        5
 44
0.0
173
     0
291
     0
 45
0.0
1001
ACAD
1000
AcDbSavedByObjectVersion
1070
     0
  0
VISUALSTYLE
  5
3E
102
{ACAD_REACTORS
330
2A
102
}
102
{ACAD_XDICTIONARY
360
3A1
102
}
330
2A
100
AcDbVisualStyle
  2
Shades of Gray
 70
    23
 71
     2
 72
     2
 73
     3
 90
        0
 40
0.6
 41
30.0
 62
     5
 63
     7
421
 16777215
 74
     2
 91
        2
 64
     7
 65
     7
 75
     1
175
     1
 42
40.0
 92
        8
 66
     7
 43
1.0
 76
     1
 77
     6
 78
     2
 67
     7
 79
     3
170
     0
171
     0
290
     0
174
     0
 93
        1
 44
0.0
173
     0
291
     0
 45
0.0
1001
ACAD
1000
AcDbSavedByObjectVersion
1070
     0
  0
VISUALSTYLE
  5
3F
102
{ACAD_REACTORS
330
2A
102
}
102
{ACAD_XDICTIONARY
360
3A3
102
}
330
2A
100
AcDbVisualStyle
  2
Sketchy
 70
    24
 71
     1
 72
     2
 73
     2
 90
        0
 40
0.6
 41
30.0
 62
     5
 63
     7
421
 16777215
 74
     2
 91
        2
 64
     7
 65
     7
 75
     1
175
     1
 42
40.0
 92
       11
 66
     7
 43
1.0
 76
     1
 77
     6
 78
     2
 67
     7
 79
     6
170
     0
171
     0
290
     0
174
     0
 93
        1
 44
0.0
173
     0
291
     0
 45
0.0
1001
ACAD
1000
AcDbSavedByObjectVersion
1070
     0
  0
VISUALSTYLE
  5
37
102
{ACAD_REACTORS
330
2A
102
}
102
{ACAD_XDICTIONARY
360
393
102
}
330
2A
100
AcDbVisualStyle
  2
Thicken
 70
    13
 71
     2
 72
     2
 73
     0
 90
        0
 40
0.6
 41
30.0
 62
     5
 63
     7
421
 16777215
 74
     1
 91
        4
 64
     7
 65
   257
 75
     1
175
     1
 42
1.0
 92
       12
 66
     7
 43
1.0
 76
     1
 77
     6
 78
     2
 67
     7
 79
     5
170
     0
171
     0
290
     0
174
     0
 93
        1
 44
0.0
173
     0
291
     1
 45
0.0
1001
ACAD
1000
AcDbSavedByObjectVersion
1070
     0
  0
VISUALSTYLE
  5
30
102
{ACAD_REACTORS
330
2A
102
}
102
{ACAD_XDICTIONARY
360
385
102
}
330
2A
100
AcDbVisualStyle
  2
Wireframe
 70
     5
 71
     0
 72
     2
 73
     0
 90
        0
 40
0.6
 41
30.0
 62
     5
 63
     7
421
 16777215
 74
     1
 91
        4
 64
     7
 65
   257
 75
     1
175
     1
 42
1.0
 92
        0
 66
   257
 43
1.0
 76
     1
 77
     6
 78
     2
 67
     7
 79
     3
170
     0
171
     0
290
     0
174
     0
 93
        1
 44
0.0
173
     0
291
     0
 45
0.0
1001
ACAD
1000
AcDbSavedByObjectVersion
1070
     0
  0
VISUALSTYLE
  5
40
102
{ACAD_REACTORS
330
2A
102
}
102
{ACAD_XDICTIONARY
360
3A5
102
}
330
2A
100
AcDbVisualStyle
  2
X-Ray
 70
    25
 71
     2
 72
     2
 73
     1
 90
        1
 40
0.5
 41
30.0
 62
     5
 63
     7
421
 16777215
 74
     1
 91
        0
 64
     7
 65
   257
 75
     1
175
     1
 42
1.0
 92
        8
 66
     7
 43
1.0
 76
     1
 77
     6
 78
     2
 67
     7
 79
     3
170
     0
171
     0
290
     0
174
     0
 93
       13
 44
0.0
173
     0
291
     0
 45
0.0
1001
ACAD
1000
AcDbSavedByObjectVersion
1070
     0
  0
DICTIONARYVAR
  5
378
102
{ACAD_REACTORS
330
377
102
}
330
377
100
DictionaryVariables
280
     0
  1
1:1
  0
DICTIONARYVAR
  5
3BC
102
{ACAD_REACTORS
330
377
102
}
330
377
100
DictionaryVariables
280
     0
  1
3.500000
  0
DICTIONARYVAR
  5
3BD
102
{ACAD_REACTORS
330
377
102
}
330
377
100
DictionaryVariables
280
     0
  1
acadiso.lin
  0
DICTIONARYVAR
  5
3B9
102
{ACAD_REACTORS
330
377
102
}
330
377
100
DictionaryVariables
280
     0
  1
Standard
  0
DICTIONARYVAR
  5
3B8
102
{ACAD_REACTORS
330
377
102
}
330
377
100
DictionaryVariables
280
     0
  1
Standard
  0
DICTIONARYVAR
  5
379
102
{ACAD_REACTORS
330
377
102
}
330
377
100
DictionaryVariables
280
     0
  1
1
  0
DICTIONARYVAR
  5
37A
102
{ACAD_REACTORS
330
377
102
}
330
377
100
DictionaryVariables
280
     0
  1
2
  0
DICTIONARY
  5
3AD
330
45
100
AcDbDictionary
280
     1
281
     1
  3
ACAD_XREC_ROUNDTRIP
360
3AE
  0
DICTIONARY
  5
3AB
330
44
100
AcDbDictionary
280
     1
281
     1
  3
ACAD_XREC_ROUNDTRIP
360
3AC
  0
DICTIONARY
  5
3AF
330
46
100
AcDbDictionary
280
     1
281
     1
  3
ACAD_XREC_ROUNDTRIP
360
3B0
  0
DICTIONARY
  5
3B5
330
6C
100
AcDbDictionary
280
     1
281
     1
  3
ACAD_XREC_ROUNDTRIP
360
3B6
  0
DICTIONARY
  5
3B1
330
6A
100
AcDbDictionary
280
     1
281
     1
  3
ACAD_ROUNDTRIP_2008_TABLESTYLE_CELLSTYLEMAP
360
3B3
  3
ACAD_XREC_ROUNDTRIP
360
3B2
  0
DICTIONARY
  5
383
330
2F
100
AcDbDictionary
280
     1
281
     1
  3
ACAD_XREC_ROUNDTRIP
360
384
  0
DICTIONARY
  5
389
330
32
100
AcDbDictionary
280
     1
281
     1
  3
ACAD_XREC_ROUNDTRIP
360
38A
  0
DICTIONARY
  5
391
330
36
100
AcDbDictionary
280
     1
281
     1
  3
ACAD_XREC_ROUNDTRIP
360
392
  0
DICTIONARY
  5
399
330
3A
100
AcDbDictionary
280
     1
281
     1
  3
ACAD_XREC_ROUNDTRIP
360
39A
  0
DICTIONARY
  5
38D
330
34
100
AcDbDictionary
280
     1
281
     1
  3
ACAD_XREC_ROUNDTRIP
360
38E
  0
DICTIONARY
  5
38F
330
35
100
AcDbDictionary
280
     1
281
     1
  3
ACAD_XREC_ROUNDTRIP
360
390
  0
DICTIONARY
  5
39F
330
3D
100
AcDbDictionary
280
     1
281
     1
  3
ACAD_XREC_ROUNDTRIP
360
3A0
  0
DICTIONARY
  5
397
330
39
100
AcDbDictionary
280
     1
281
     1
  3
ACAD_XREC_ROUNDTRIP
360
398
  0
DICTIONARY
  5
37B
330
2B
100
AcDbDictionary
280
     1
281
     1
  3
ACAD_XREC_ROUNDTRIP
360
37C
  0
DICTIONARY
  5
37D
330
2C
100
AcDbDictionary
280
     1
281
     1
  3
ACAD_XREC_ROUNDTRIP
360
37E
  0
DICTIONARY
  5
37F
330
2D
100
AcDbDictionary
280
     1
281
     1
  3
ACAD_XREC_ROUNDTRIP
360
380
  0
DICTIONARY
  5
381
330
2E
100
AcDbDictionary
280
     1
281
     1
  3
ACAD_XREC_ROUNDTRIP
360
382
  0
DICTIONARY
  5
387
330
31
100
AcDbDictionary
280
     1
281
     1
  3
ACAD_XREC_ROUNDTRIP
360
388
  0
DICTIONARY
  5
39B
330
3B
100
AcDbDictionary
280
     1
281
     1
  3
ACAD_XREC_ROUNDTRIP
360
39C
  0
DICTIONARY
  5
395
330
38
100
AcDbDictionary
280
     1
281
     1
  3
ACAD_XREC_ROUNDTRIP
360
396
  0
DICTIONARY
  5
39D
330
3C
100
AcDbDictionary
280
     1
281
     1
  3
ACAD_XREC_ROUNDTRIP
360
39E
  0
DICTIONARY
  5
38B
330
33
100
AcDbDictionary
280
     1
281
     1
  3
ACAD_XREC_ROUNDTRIP
360
38C
  0
DICTIONARY
  5
3A9
330
42
100
AcDbDictionary
280
     1
281
     1
  3
ACAD_XREC_ROUNDTRIP
360
3AA
  0
DICTIONARY
  5
3A7
330
41
100
AcDbDictionary
280
     1
281
     1
  3
ACAD_XREC_ROUNDTRIP
360
3A8
  0
DICTIONARY
  5
3A1
330
3E
100
AcDbDictionary
280
     1
281
     1
  3
ACAD_XREC_ROUNDTRIP
360
3A2
  0
DICTIONARY
  5
3A3
330
3F
100
AcDbDictionary
280
     1
281
     1
  3
ACAD_XREC_ROUNDTRIP
360
3A4
  0
DICTIONARY
  5
393
330
37
100
AcDbDictionary
280
     1
281
     1
  3
ACAD_XREC_ROUNDTRIP
360
394
  0
DICTIONARY
  5
385
330
30
100
AcDbDictionary
280
     1
281
     1
  3
ACAD_XREC_ROUNDTRIP
360
386
  0
DICTIONARY
  5
3A5
330
40
100
AcDbDictionary
280
     1
281
     1
  3
ACAD_XREC_ROUNDTRIP
360
3A6
  0
XRECORD
  5
3AE
102
{ACAD_REACTORS
330
3AD
102
}
330
3AD
100
AcDbXrecord
280
     1
102
MATERIAL
148
0.0
149
0.0
149
0.0
 93
        0
 94
      127
282
     0
 72
     1
 77
     1
171
     1
175
     1
179
     1
273
     0
  0
XRECORD
  5
3AC
102
{ACAD_REACTORS
330
3AB
102
}
330
3AB
100
AcDbXrecord
280
     1
102
MATERIAL
148
0.0
149
0.0
149
0.0
 93
        0
 94
      127
282
     0
 72
     1
 77
     1
171
     1
175
     1
179
     1
273
     0
  0
XRECORD
  5
3B0
102
{ACAD_REACTORS
330
3AF
102
}
330
3AF
100
AcDbXrecord
280
     1
102
MATERIAL
148
0.0
149
0.0
149
0.0
 93
        0
 94
      127
282
     0
 72
     1
 77
     1
171
     1
175
     1
179
     1
273
     0
  0
XRECORD
  5
3B6
102
{ACAD_REACTORS
330
3B5
102
}
330
3B5
100
AcDbXrecord
280
     1
102
ACAD_ROUNDTRIP_2010_MLEADER_STYLE
  0
CELLSTYLEMAP
  5
3B3
102
{ACAD_REACTORS
330
3B1
102
}
330
3B1
100
AcDbCellStyleMap
 90
        3
300
CELLSTYLE
  1
TABLEFORMAT_BEGIN
 90
        5
170
     1
 91
        0
 92
    32768
 62
   257
 93
        1
300
CONTENTFORMAT
  1
CONTENTFORMAT_BEGIN
 90
        0
 91
        0
 92
        4
 93
        0
300

 40
0.0
140
1.0
 94
        5
 62
     0
340
11
144
6.0
309
CONTENTFORMAT_END
171
     1
301
MARGIN
  1
CELLMARGIN_BEGIN
 40
1.5
 40
1.5
 40
1.5
 40
1.5
 40
1.5
 40
1.5
309
CELLMARGIN_END
 94
        6
 95
        1
302
GRIDFORMAT
  1
GRIDFORMAT_BEGIN
 90
        0
 91
        1
 62
     0
 92
       -2
340
14
 93
        0
 40
0.045
309
GRIDFORMAT_END
 95
        2
302
GRIDFORMAT
  1
GRIDFORMAT_BEGIN
 90
        0
 91
        1
 62
     0
 92
       -2
340
14
 93
        0
 40
0.045
309
GRIDFORMAT_END
 95
        4
302
GRIDFORMAT
  1
GRIDFORMAT_BEGIN
 90
        0
 91
        1
 62
     0
 92
       -2
340
14
 93
        0
 40
0.045
309
GRIDFORMAT_END
 95
        8
302
GRIDFORMAT
  1
GRIDFORMAT_BEGIN
 90
        0
 91
        1
 62
     0
 92
       -2
340
14
 93
        0
 40
0.045
309
GRIDFORMAT_END
 95
       16
302
GRIDFORMAT
  1
GRIDFORMAT_BEGIN
 90
        0
 91
        1
 62
     0
 92
       -2
340
14
 93
        0
 40
0.045
309
GRIDFORMAT_END
 95
       32
302
GRIDFORMAT
  1
GRIDFORMAT_BEGIN
 90
        0
 91
        1
 62
     0
 92
       -2
340
14
 93
        0
 40
0.045
309
GRIDFORMAT_END
309
TABLEFORMAT_END
  1
CELLSTYLE_BEGIN
 90
        1
 91
        1
300
_TITLE
309
CELLSTYLE_END
300
CELLSTYLE
  1
TABLEFORMAT_BEGIN
 90
        5
170
     1
 91
        0
 92
        0
 62
   257
 93
        1
300
CONTENTFORMAT
  1
CONTENTFORMAT_BEGIN
 90
        0
 91
        0
 92
        4
 93
        0
300

 40
0.0
140
1.0
 94
        5
 62
     0
340
11
144
4.5
309
CONTENTFORMAT_END
171
     1
301
MARGIN
  1
CELLMARGIN_BEGIN
 40
1.5
 40
1.5
 40
1.5
 40
1.5
 40
1.5
 40
1.5
309
CELLMARGIN_END
 94
        6
 95
        1
302
GRIDFORMAT
  1
GRIDFORMAT_BEGIN
 90
        0
 91
        1
 62
     0
 92
       -2
340
14
 93
        0
 40
0.045
309
GRIDFORMAT_END
 95
        2
302
GRIDFORMAT
  1
GRIDFORMAT_BEGIN
 90
        0
 91
        1
 62
     0
 92
       -2
340
14
 93
        0
 40
0.045
309
GRIDFORMAT_END
 95
        4
302
GRIDFORMAT
  1
GRIDFORMAT_BEGIN
 90
        0
 91
        1
 62
     0
 92
       -2
340
14
 93
        0
 40
0.045
309
GRIDFORMAT_END
 95
        8
302
GRIDFORMAT
  1
GRIDFORMAT_BEGIN
 90
        0
 91
        1
 62
     0
 92
       -2
340
14
 93
        0
 40
0.045
309
GRIDFORMAT_END
 95
       16
302
GRIDFORMAT
  1
GRIDFORMAT_BEGIN
 90
        0
 91
        1
 62
     0
 92
       -2
340
14
 93
        0
 40
0.045
309
GRIDFORMAT_END
 95
       32
302
GRIDFORMAT
  1
GRIDFORMAT_BEGIN
 90
        0
 91
        1
 62
     0
 92
       -2
340
14
 93
        0
 40
0.045
309
GRIDFORMAT_END
309
TABLEFORMAT_END
  1
CELLSTYLE_BEGIN
 90
        2
 91
        1
300
_HEADER
309
CELLSTYLE_END
300
CELLSTYLE
  1
TABLEFORMAT_BEGIN
 90
        5
170
     1
 91
        0
 92
        0
 62
   257
 93
        1
300
CONTENTFORMAT
  1
CONTENTFORMAT_BEGIN
 90
        0
 91
        0
 92
        4
 93
        0
300

 40
0.0
140
1.0
 94
        2
 62
     0
340
11
144
4.5
309
CONTENTFORMAT_END
171
     1
301
MARGIN
  1
CELLMARGIN_BEGIN
 40
1.5
 40
1.5
 40
1.5
 40
1.5
 40
1.5
 40
1.5
309
CELLMARGIN_END
 94
        6
 95
        1
302
GRIDFORMAT
  1
GRIDFORMAT_BEGIN
 90
        0
 91
        1
 62
     0
 92
       -2
340
14
 93
        0
 40
0.045
309
GRIDFORMAT_END
 95
        2
302
GRIDFORMAT
  1
GRIDFORMAT_BEGIN
 90
        0
 91
        1
 62
     0
 92
       -2
340
14
 93
        0
 40
0.045
309
GRIDFORMAT_END
 95
        4
302
GRIDFORMAT
  1
GRIDFORMAT_BEGIN
 90
        0
 91
        1
 62
     0
 92
       -2
340
14
 93
        0
 40
0.045
309
GRIDFORMAT_END
 95
        8
302
GRIDFORMAT
  1
GRIDFORMAT_BEGIN
 90
        0
 91
        1
 62
     0
 92
       -2
340
14
 93
        0
 40
0.045
309
GRIDFORMAT_END
 95
       16
302
GRIDFORMAT
  1
GRIDFORMAT_BEGIN
 90
        0
 91
        1
 62
     0
 92
       -2
340
14
 93
        0
 40
0.045
309
GRIDFORMAT_END
 95
       32
302
GRIDFORMAT
  1
GRIDFORMAT_BEGIN
 90
        0
 91
        1
 62
     0
 92
       -2
340
14
 93
        0
 40
0.045
309
GRIDFORMAT_END
309
TABLEFORMAT_END
  1
CELLSTYLE_BEGIN
 90
        3
 91
        2
300
_DATA
309
CELLSTYLE_END
  0
XRECORD
  5
3B2
102
{ACAD_REACTORS
330
3B1
102
}
330
3B1
100
AcDbXrecord
280
     1
102
ACAD_ROUNDTRIP_PRE2007_TABLESTYLE
 90
        4
 91
        0
  1

 92
        4
 93
        0
  2

 94
        4
 95
        0
  3

  0
XRECORD
  5
384
102
{ACAD_REACTORS
330
383
102
}
330
383
100
AcDbXrecord
280
     1
102
RTVSPropertyOp0
 70
     1
102
RTVSPropertyOp1
 70
     1
102
RTVSPropertyOp2
 70
     1
102
RTVSPropertyOp3
 70
     1
102
RTVSPropertyOp4
 70
     1
102
RTVSPropertyOp5
 70
     1
102
RTVSPropertyOp6
 70
     1
102
RTVSPropertyOp7
 70
     1
102
RTVSPropertyOp8
 70
     1
102
RTVSPropertyOp9
 70
     1
102
RTVSPropertyOp10
 70
     1
102
RTVSPropertyOp11
 70
     1
102
RTVSPropertyOp12
 70
     1
102
RTVSPropertyOp13
 70
     1
102
RTVSPropertyOp14
 70
     1
102
RTVSPropertyOp15
 70
     1
102
RTVSPropertyOp16
 70
     1
102
RTVSPropertyOp17
 70
     1
102
RTVSPropertyOp18
 70
     1
102
RTVSPropertyOp19
 70
     1
102
RTVSPropertyOp20
 70
     1
102
RTVSPropertyOp21
 70
     1
102
RTVSPropertyOp22
 70
     1
102
RTVSPropertyOp23
 70
     1
102
RTVSPropertyOp24
 70
     1
102
RTVSPropertyOp25
 70
     1
102
RTVSPropertyOp26
 70
     1
102
RTVSPropertyOp27
 70
     1
102
RTVSPropertyOp28
 70
     1
102
RTVSPropertyOp29
 70
     1
102
RTVSPropertyOp30
 70
     1
102
RTVSPropertyOp31
 70
     1
102
RTVSPropertyOp32
 70
     1
102
RTVSPropertyOp33
 70
     1
102
RTVSPropertyOp34
 70
     1
102
RTVSPropertyOp35
 70
     1
102
RTVSPropertyOp36
 70
     1
102
RTVSPropertyOp37
 70
     1
102
RTVSPropertyOp38
 70
     1
102
RTVSPropertyOp39
 70
     1
102
RTVSPropertyOp40
 70
     1
102
RTVSPropertyOp41
 70
     1
102
RTVSPropertyOp42
 70
     1
102
RTVSPropertyOp43
 70
     1
102
RTVSPropertyOp44
 70
     1
102
RTVSPropertyOp45
 70
     1
102
RTVSPropertyOp46
 70
     1
102
RTVSPropertyOp47
 70
     1
102
RTVSPropertyOp48
 70
     1
102
RTVSPropertyOp49
 70
     1
102
RTVSPropertyOp50
 70
     1
102
RTVSPropertyOp51
 70
     0
102
RTVSPropertyOp52
 70
     0
102
RTVSPropertyOp53
 70
     1
102
RTVSPropertyOp54
 70
     1
102
RTVSPropertyOp55
 70
     1
102
RTVSPropertyOp56
 70
     1
102
RTVSPropertyOp57
 70
     1
102
RTVSPost2010Prop28
280
     1
102
RTVSPost2010PropOp28
 70
     1
102
RTVSPost2010Prop29
280
     1
102
RTVSPost2010PropOp29
 70
     1
102
RTVSPost2010Prop30
280
     0
102
RTVSPost2010PropOp30
 70
     1
102
RTVSPost2010Prop31
280
     0
102
RTVSPost2010PropOp31
 70
     1
102
RTVSPost2010Prop32
280
     0
102
RTVSPost2010PropOp32
 70
     1
102
RTVSPost2010Prop33
280
     0
102
RTVSPost2010PropOp33
 70
     1
102
RTVSPost2010Prop34
280
     0
102
RTVSPost2010PropOp34
 70
     1
102
RTVSPost2010Prop35
280
     0
102
RTVSPost2010PropOp35
 70
     1
102
RTVSPost2010Prop36
280
     0
102
RTVSPost2010PropOp36
 70
     1
102
RTVSPost2010Prop37
 90
       50
102
RTVSPost2010PropOp37
 70
     1
102
RTVSPost2010Prop38
140
0.0
102
RTVSPost2010PropOp38
 70
     1
102
RTVSPost2010Prop39
140
1.0
102
RTVSPost2010PropOp39
 70
     1
102
RTVSPost2010Prop40
 90
        0
102
RTVSPost2010PropOp40
 70
     1
102
RTVSPost2010Prop41ColorIndex
 90
       18
102
RTVSPost2010Prop41ColorRGB
 90
        0
102
RTVSPost2010PropOp41
 70
     1
102
RTVSPost2010Prop42
 90
       50
102
RTVSPost2010PropOp42
 70
     1
102
RTVSPost2010Prop43
 90
        3
102
RTVSPost2010PropOp43
 70
     1
102
RTVSPost2010Prop44ColorIndex
 90
        5
102
RTVSPost2010Prop44ColorRGB
 90
      255
102
RTVSPost2010PropOp44
 70
     1
102
RTVSPost2010Prop45
280
     0
102
RTVSPost2010PropOp45
 70
     1
102
RTVSPost2010Prop46
 90
       50
102
RTVSPost2010PropOp46
 70
     1
102
RTVSPost2010Prop47
 90
       50
102
RTVSPost2010PropOp47
 70
     1
102
RTVSPost2010Prop48
 90
       50
102
RTVSPost2010PropOp48
 70
     1
102
RTVSPost2010Prop49
280
     0
102
RTVSPost2010PropOp49
 70
     1
102
RTVSPost2010Prop50
 90
       50
102
RTVSPost2010PropOp50
 70
     1
102
RTVSPost2010Prop51ColorIndex
 90
      256
102
RTVSPost2010Prop51ColorRGB
 90
-16777216
102
RTVSPost2010PropOp51
 70
     0
102
RTVSPost2010Prop52
140
1.0
102
RTVSPost2010PropOp52
 70
     0
102
RTVSPost2010Prop53
 90
        2
102
RTVSPost2010PropOp53
 70
     1
102
RTVSPost2010Prop54
  1
strokes_ogs.tif
102
RTVSPost2010PropOp54
 70
     1
102
RTVSPost2010Prop55
280
     0
102
RTVSPost2010PropOp55
 70
     1
102
RTVSPost2010Prop56
140
1.0
102
RTVSPost2010PropOp56
 70
     1
102
RTVSPost2010Prop57
140
1.0
102
RTVSPost2010PropOp57
 70
     1
  0
XRECORD
  5
38A
102
{ACAD_REACTORS
330
389
102
}
330
389
100
AcDbXrecord
280
     1
102
RTVSPropertyOp0
 70
     1
102
RTVSPropertyOp1
 70
     1
102
RTVSPropertyOp2
 70
     1
102
RTVSPropertyOp3
 70
     1
102
RTVSPropertyOp4
 70
     1
102
RTVSPropertyOp5
 70
     1
102
RTVSPropertyOp6
 70
     1
102
RTVSPropertyOp7
 70
     1
102
RTVSPropertyOp8
 70
     1
102
RTVSPropertyOp9
 70
     1
102
RTVSPropertyOp10
 70
     1
102
RTVSPropertyOp11
 70
     1
102
RTVSPropertyOp12
 70
     1
102
RTVSPropertyOp13
 70
     1
102
RTVSPropertyOp14
 70
     1
102
RTVSPropertyOp15
 70
     1
102
RTVSPropertyOp16
 70
     1
102
RTVSPropertyOp17
 70
     1
102
RTVSPropertyOp18
 70
     1
102
RTVSPropertyOp19
 70
     1
102
RTVSPropertyOp20
 70
     1
102
RTVSPropertyOp21
 70
     1
102
RTVSPropertyOp22
 70
     1
102
RTVSPropertyOp23
 70
     1
102
RTVSPropertyOp24
 70
     1
102
RTVSPropertyOp25
 70
     1
102
RTVSPropertyOp26
 70
     1
102
RTVSPropertyOp27
 70
     1
102
RTVSPropertyOp28
 70
     1
102
RTVSPropertyOp29
 70
     1
102
RTVSPropertyOp30
 70
     1
102
RTVSPropertyOp31
 70
     1
102
RTVSPropertyOp32
 70
     1
102
RTVSPropertyOp33
 70
     1
102
RTVSPropertyOp34
 70
     1
102
RTVSPropertyOp35
 70
     1
102
RTVSPropertyOp36
 70
     1
102
RTVSPropertyOp37
 70
     1
102
RTVSPropertyOp38
 70
     1
102
RTVSPropertyOp39
 70
     1
102
RTVSPropertyOp40
 70
     1
102
RTVSPropertyOp41
 70
     1
102
RTVSPropertyOp42
 70
     1
102
RTVSPropertyOp43
 70
     1
102
RTVSPropertyOp44
 70
     1
102
RTVSPropertyOp45
 70
     1
102
RTVSPropertyOp46
 70
     1
102
RTVSPropertyOp47
 70
     1
102
RTVSPropertyOp48
 70
     1
102
RTVSPropertyOp49
 70
     1
102
RTVSPropertyOp50
 70
     1
102
RTVSPropertyOp51
 70
     0
102
RTVSPropertyOp52
 70
     0
102
RTVSPropertyOp53
 70
     1
102
RTVSPropertyOp54
 70
     1
102
RTVSPropertyOp55
 70
     1
102
RTVSPropertyOp56
 70
     1
102
RTVSPropertyOp57
 70
     1
102
RTVSPost2010Prop28
280
     0
102
RTVSPost2010PropOp28
 70
     1
102
RTVSPost2010Prop29
280
     1
102
RTVSPost2010PropOp29
 70
     1
102
RTVSPost2010Prop30
280
     1
102
RTVSPost2010PropOp30
 70
     1
102
RTVSPost2010Prop31
280
     0
102
RTVSPost2010PropOp31
 70
     1
102
RTVSPost2010Prop32
280
     0
102
RTVSPost2010PropOp32
 70
     1
102
RTVSPost2010Prop33
280
     0
102
RTVSPost2010PropOp33
 70
     1
102
RTVSPost2010Prop34
280
     0
102
RTVSPost2010PropOp34
 70
     1
102
RTVSPost2010Prop35
280
     0
102
RTVSPost2010PropOp35
 70
     1
102
RTVSPost2010Prop36
280
     0
102
RTVSPost2010PropOp36
 70
     1
102
RTVSPost2010Prop37
 90
       50
102
RTVSPost2010PropOp37
 70
     1
102
RTVSPost2010Prop38
140
0.0
102
RTVSPost2010PropOp38
 70
     1
102
RTVSPost2010Prop39
140
1.0
102
RTVSPost2010PropOp39
 70
     1
102
RTVSPost2010Prop40
 90
        0
102
RTVSPost2010PropOp40
 70
     1
102
RTVSPost2010Prop41ColorIndex
 90
       18
102
RTVSPost2010Prop41ColorRGB
 90
        0
102
RTVSPost2010PropOp41
 70
     1
102
RTVSPost2010Prop42
 90
       50
102
RTVSPost2010PropOp42
 70
     1
102
RTVSPost2010Prop43
 90
        3
102
RTVSPost2010PropOp43
 70
     1
102
RTVSPost2010Prop44ColorIndex
 90
        5
102
RTVSPost2010Prop44ColorRGB
 90
      255
102
RTVSPost2010PropOp44
 70
     1
102
RTVSPost2010Prop45
280
     0
102
RTVSPost2010PropOp45
 70
     1
102
RTVSPost2010Prop46
 90
       50
102
RTVSPost2010PropOp46
 70
     1
102
RTVSPost2010Prop47
 90
       50
102
RTVSPost2010PropOp47
 70
     1
102
RTVSPost2010Prop48
 90
       50
102
RTVSPost2010PropOp48
 70
     1
102
RTVSPost2010Prop49
280
     0
102
RTVSPost2010PropOp49
 70
     1
102
RTVSPost2010Prop50
 90
       50
102
RTVSPost2010PropOp50
 70
     1
102
RTVSPost2010Prop51ColorIndex
 90
      256
102
RTVSPost2010Prop51ColorRGB
 90
-16777216
102
RTVSPost2010PropOp51
 70
     0
102
RTVSPost2010Prop52
140
1.0
102
RTVSPost2010PropOp52
 70
     0
102
RTVSPost2010Prop53
 90
        2
102
RTVSPost2010PropOp53
 70
     1
102
RTVSPost2010Prop54
  1
strokes_ogs.tif
102
RTVSPost2010PropOp54
 70
     1
102
RTVSPost2010Prop55
280
     0
102
RTVSPost2010PropOp55
 70
     1
102
RTVSPost2010Prop56
140
1.0
102
RTVSPost2010PropOp56
 70
     1
102
RTVSPost2010Prop57
140
1.0
102
RTVSPost2010PropOp57
 70
     1
  0
XRECORD
  5
392
102
{ACAD_REACTORS
330
391
102
}
330
391
100
AcDbXrecord
280
     1
102
RTVSPropertyOp0
 70
     1
102
RTVSPropertyOp1
 70
     1
102
RTVSPropertyOp2
 70
     1
102
RTVSPropertyOp3
 70
     1
102
RTVSPropertyOp4
 70
     1
102
RTVSPropertyOp5
 70
     1
102
RTVSPropertyOp6
 70
     1
102
RTVSPropertyOp7
 70
     1
102
RTVSPropertyOp8
 70
     1
102
RTVSPropertyOp9
 70
     1
102
RTVSPropertyOp10
 70
     1
102
RTVSPropertyOp11
 70
     1
102
RTVSPropertyOp12
 70
     1
102
RTVSPropertyOp13
 70
     1
102
RTVSPropertyOp14
 70
     1
102
RTVSPropertyOp15
 70
     1
102
RTVSPropertyOp16
 70
     1
102
RTVSPropertyOp17
 70
     1
102
RTVSPropertyOp18
 70
     1
102
RTVSPropertyOp19
 70
     1
102
RTVSPropertyOp20
 70
     1
102
RTVSPropertyOp21
 70
     1
102
RTVSPropertyOp22
 70
     1
102
RTVSPropertyOp23
 70
     1
102
RTVSPropertyOp24
 70
     1
102
RTVSPropertyOp25
 70
     1
102
RTVSPropertyOp26
 70
     1
102
RTVSPropertyOp27
 70
     1
102
RTVSPropertyOp28
 70
     1
102
RTVSPropertyOp29
 70
     1
102
RTVSPropertyOp30
 70
     1
102
RTVSPropertyOp31
 70
     1
102
RTVSPropertyOp32
 70
     1
102
RTVSPropertyOp33
 70
     1
102
RTVSPropertyOp34
 70
     1
102
RTVSPropertyOp35
 70
     1
102
RTVSPropertyOp36
 70
     1
102
RTVSPropertyOp37
 70
     1
102
RTVSPropertyOp38
 70
     1
102
RTVSPropertyOp39
 70
     1
102
RTVSPropertyOp40
 70
     1
102
RTVSPropertyOp41
 70
     1
102
RTVSPropertyOp42
 70
     1
102
RTVSPropertyOp43
 70
     1
102
RTVSPropertyOp44
 70
     1
102
RTVSPropertyOp45
 70
     1
102
RTVSPropertyOp46
 70
     1
102
RTVSPropertyOp47
 70
     1
102
RTVSPropertyOp48
 70
     1
102
RTVSPropertyOp49
 70
     1
102
RTVSPropertyOp50
 70
     1
102
RTVSPropertyOp51
 70
     0
102
RTVSPropertyOp52
 70
     0
102
RTVSPropertyOp53
 70
     1
102
RTVSPropertyOp54
 70
     1
102
RTVSPropertyOp55
 70
     1
102
RTVSPropertyOp56
 70
     1
102
RTVSPropertyOp57
 70
     1
102
RTVSPost2010Prop28
280
     0
102
RTVSPost2010PropOp28
 70
     1
102
RTVSPost2010Prop29
280
     1
102
RTVSPost2010PropOp29
 70
     1
102
RTVSPost2010Prop30
280
     1
102
RTVSPost2010PropOp30
 70
     1
102
RTVSPost2010Prop31
280
     0
102
RTVSPost2010PropOp31
 70
     1
102
RTVSPost2010Prop32
280
     0
102
RTVSPost2010PropOp32
 70
     1
102
RTVSPost2010Prop33
280
     0
102
RTVSPost2010PropOp33
 70
     1
102
RTVSPost2010Prop34
280
     0
102
RTVSPost2010PropOp34
 70
     1
102
RTVSPost2010Prop35
280
     0
102
RTVSPost2010PropOp35
 70
     1
102
RTVSPost2010Prop36
280
     0
102
RTVSPost2010PropOp36
 70
     1
102
RTVSPost2010Prop37
 90
       50
102
RTVSPost2010PropOp37
 70
     1
102
RTVSPost2010Prop38
140
0.0
102
RTVSPost2010PropOp38
 70
     1
102
RTVSPost2010Prop39
140
1.0
102
RTVSPost2010PropOp39
 70
     1
102
RTVSPost2010Prop40
 90
        0
102
RTVSPost2010PropOp40
 70
     1
102
RTVSPost2010Prop41ColorIndex
 90
       18
102
RTVSPost2010Prop41ColorRGB
 90
        0
102
RTVSPost2010PropOp41
 70
     1
102
RTVSPost2010Prop42
 90
       50
102
RTVSPost2010PropOp42
 70
     1
102
RTVSPost2010Prop43
 90
        3
102
RTVSPost2010PropOp43
 70
     1
102
RTVSPost2010Prop44ColorIndex
 90
        5
102
RTVSPost2010Prop44ColorRGB
 90
      255
102
RTVSPost2010PropOp44
 70
     1
102
RTVSPost2010Prop45
280
     0
102
RTVSPost2010PropOp45
 70
     1
102
RTVSPost2010Prop46
 90
       50
102
RTVSPost2010PropOp46
 70
     1
102
RTVSPost2010Prop47
 90
       50
102
RTVSPost2010PropOp47
 70
     1
102
RTVSPost2010Prop48
 90
       50
102
RTVSPost2010PropOp48
 70
     1
102
RTVSPost2010Prop49
280
     0
102
RTVSPost2010PropOp49
 70
     1
102
RTVSPost2010Prop50
 90
       50
102
RTVSPost2010PropOp50
 70
     1
102
RTVSPost2010Prop51ColorIndex
 90
      256
102
RTVSPost2010Prop51ColorRGB
 90
-16777216
102
RTVSPost2010PropOp51
 70
     0
102
RTVSPost2010Prop52
140
1.0
102
RTVSPost2010PropOp52
 70
     0
102
RTVSPost2010Prop53
 90
        2
102
RTVSPost2010PropOp53
 70
     1
102
RTVSPost2010Prop54
  1
strokes_ogs.tif
102
RTVSPost2010PropOp54
 70
     1
102
RTVSPost2010Prop55
280
     0
102
RTVSPost2010PropOp55
 70
     1
102
RTVSPost2010Prop56
140
1.0
102
RTVSPost2010PropOp56
 70
     1
102
RTVSPost2010Prop57
140
1.0
102
RTVSPost2010PropOp57
 70
     1
  0
XRECORD
  5
39A
102
{ACAD_REACTORS
330
399
102
}
330
399
100
AcDbXrecord
280
     1
102
RTVSPropertyOp0
 70
     1
102
RTVSPropertyOp1
 70
     1
102
RTVSPropertyOp2
 70
     1
102
RTVSPropertyOp3
 70
     1
102
RTVSPropertyOp4
 70
     1
102
RTVSPropertyOp5
 70
     1
102
RTVSPropertyOp6
 70
     1
102
RTVSPropertyOp7
 70
     1
102
RTVSPropertyOp8
 70
     1
102
RTVSPropertyOp9
 70
     1
102
RTVSPropertyOp10
 70
     1
102
RTVSPropertyOp11
 70
     1
102
RTVSPropertyOp12
 70
     1
102
RTVSPropertyOp13
 70
     1
102
RTVSPropertyOp14
 70
     1
102
RTVSPropertyOp15
 70
     1
102
RTVSPropertyOp16
 70
     1
102
RTVSPropertyOp17
 70
     1
102
RTVSPropertyOp18
 70
     1
102
RTVSPropertyOp19
 70
     1
102
RTVSPropertyOp20
 70
     1
102
RTVSPropertyOp21
 70
     1
102
RTVSPropertyOp22
 70
     1
102
RTVSPropertyOp23
 70
     1
102
RTVSPropertyOp24
 70
     1
102
RTVSPropertyOp25
 70
     1
102
RTVSPropertyOp26
 70
     1
102
RTVSPropertyOp27
 70
     1
102
RTVSPropertyOp28
 70
     1
102
RTVSPropertyOp29
 70
     1
102
RTVSPropertyOp30
 70
     1
102
RTVSPropertyOp31
 70
     1
102
RTVSPropertyOp32
 70
     1
102
RTVSPropertyOp33
 70
     1
102
RTVSPropertyOp34
 70
     1
102
RTVSPropertyOp35
 70
     1
102
RTVSPropertyOp36
 70
     1
102
RTVSPropertyOp37
 70
     1
102
RTVSPropertyOp38
 70
     1
102
RTVSPropertyOp39
 70
     1
102
RTVSPropertyOp40
 70
     1
102
RTVSPropertyOp41
 70
     1
102
RTVSPropertyOp42
 70
     1
102
RTVSPropertyOp43
 70
     1
102
RTVSPropertyOp44
 70
     1
102
RTVSPropertyOp45
 70
     1
102
RTVSPropertyOp46
 70
     1
102
RTVSPropertyOp47
 70
     1
102
RTVSPropertyOp48
 70
     1
102
RTVSPropertyOp49
 70
     1
102
RTVSPropertyOp50
 70
     1
102
RTVSPropertyOp51
 70
     0
102
RTVSPropertyOp52
 70
     0
102
RTVSPropertyOp53
 70
     1
102
RTVSPropertyOp54
 70
     1
102
RTVSPropertyOp55
 70
     1
102
RTVSPropertyOp56
 70
     1
102
RTVSPropertyOp57
 70
     1
102
RTVSPost2010Prop28
280
     0
102
RTVSPost2010PropOp28
 70
     1
102
RTVSPost2010Prop29
280
     1
102
RTVSPost2010PropOp29
 70
     1
102
RTVSPost2010Prop30
280
     1
102
RTVSPost2010PropOp30
 70
     1
102
RTVSPost2010Prop31
280
     0
102
RTVSPost2010PropOp31
 70
     1
102
RTVSPost2010Prop32
280
     0
102
RTVSPost2010PropOp32
 70
     1
102
RTVSPost2010Prop33
280
     0
102
RTVSPost2010PropOp33
 70
     1
102
RTVSPost2010Prop34
280
     0
102
RTVSPost2010PropOp34
 70
     1
102
RTVSPost2010Prop35
280
     0
102
RTVSPost2010PropOp35
 70
     1
102
RTVSPost2010Prop36
280
     0
102
RTVSPost2010PropOp36
 70
     1
102
RTVSPost2010Prop37
 90
       50
102
RTVSPost2010PropOp37
 70
     1
102
RTVSPost2010Prop38
140
0.0
102
RTVSPost2010PropOp38
 70
     1
102
RTVSPost2010Prop39
140
1.0
102
RTVSPost2010PropOp39
 70
     1
102
RTVSPost2010Prop40
 90
        0
102
RTVSPost2010PropOp40
 70
     1
102
RTVSPost2010Prop41ColorIndex
 90
       18
102
RTVSPost2010Prop41ColorRGB
 90
        0
102
RTVSPost2010PropOp41
 70
     1
102
RTVSPost2010Prop42
 90
       50
102
RTVSPost2010PropOp42
 70
     1
102
RTVSPost2010Prop43
 90
        3
102
RTVSPost2010PropOp43
 70
     1
102
RTVSPost2010Prop44ColorIndex
 90
        5
102
RTVSPost2010Prop44ColorRGB
 90
      255
102
RTVSPost2010PropOp44
 70
     1
102
RTVSPost2010Prop45
280
     0
102
RTVSPost2010PropOp45
 70
     1
102
RTVSPost2010Prop46
 90
       50
102
RTVSPost2010PropOp46
 70
     1
102
RTVSPost2010Prop47
 90
       50
102
RTVSPost2010PropOp47
 70
     1
102
RTVSPost2010Prop48
 90
       50
102
RTVSPost2010PropOp48
 70
     1
102
RTVSPost2010Prop49
280
     0
102
RTVSPost2010PropOp49
 70
     1
102
RTVSPost2010Prop50
 90
       50
102
RTVSPost2010PropOp50
 70
     1
102
RTVSPost2010Prop51ColorIndex
 90
      256
102
RTVSPost2010Prop51ColorRGB
 90
-16777216
102
RTVSPost2010PropOp51
 70
     0
102
RTVSPost2010Prop52
140
1.0
102
RTVSPost2010PropOp52
 70
     0
102
RTVSPost2010Prop53
 90
        2
102
RTVSPost2010PropOp53
 70
     1
102
RTVSPost2010Prop54
  1
strokes_ogs.tif
102
RTVSPost2010PropOp54
 70
     1
102
RTVSPost2010Prop55
280
     0
102
RTVSPost2010PropOp55
 70
     1
102
RTVSPost2010Prop56
140
1.0
102
RTVSPost2010PropOp56
 70
     1
102
RTVSPost2010Prop57
140
1.0
102
RTVSPost2010PropOp57
 70
     1
  0
XRECORD
  5
38E
102
{ACAD_REACTORS
330
38D
102
}
330
38D
100
AcDbXrecord
280
     1
102
RTVSPropertyOp0
 70
     1
102
RTVSPropertyOp1
 70
     1
102
RTVSPropertyOp2
 70
     1
102
RTVSPropertyOp3
 70
     1
102
RTVSPropertyOp4
 70
     1
102
RTVSPropertyOp5
 70
     1
102
RTVSPropertyOp6
 70
     1
102
RTVSPropertyOp7
 70
     1
102
RTVSPropertyOp8
 70
     1
102
RTVSPropertyOp9
 70
     1
102
RTVSPropertyOp10
 70
     1
102
RTVSPropertyOp11
 70
     1
102
RTVSPropertyOp12
 70
     1
102
RTVSPropertyOp13
 70
     1
102
RTVSPropertyOp14
 70
     1
102
RTVSPropertyOp15
 70
     1
102
RTVSPropertyOp16
 70
     1
102
RTVSPropertyOp17
 70
     1
102
RTVSPropertyOp18
 70
     1
102
RTVSPropertyOp19
 70
     1
102
RTVSPropertyOp20
 70
     1
102
RTVSPropertyOp21
 70
     1
102
RTVSPropertyOp22
 70
     1
102
RTVSPropertyOp23
 70
     1
102
RTVSPropertyOp24
 70
     1
102
RTVSPropertyOp25
 70
     1
102
RTVSPropertyOp26
 70
     1
102
RTVSPropertyOp27
 70
     1
102
RTVSPropertyOp28
 70
     1
102
RTVSPropertyOp29
 70
     1
102
RTVSPropertyOp30
 70
     1
102
RTVSPropertyOp31
 70
     1
102
RTVSPropertyOp32
 70
     1
102
RTVSPropertyOp33
 70
     1
102
RTVSPropertyOp34
 70
     1
102
RTVSPropertyOp35
 70
     1
102
RTVSPropertyOp36
 70
     1
102
RTVSPropertyOp37
 70
     1
102
RTVSPropertyOp38
 70
     1
102
RTVSPropertyOp39
 70
     1
102
RTVSPropertyOp40
 70
     1
102
RTVSPropertyOp41
 70
     1
102
RTVSPropertyOp42
 70
     1
102
RTVSPropertyOp43
 70
     1
102
RTVSPropertyOp44
 70
     1
102
RTVSPropertyOp45
 70
     1
102
RTVSPropertyOp46
 70
     1
102
RTVSPropertyOp47
 70
     1
102
RTVSPropertyOp48
 70
     1
102
RTVSPropertyOp49
 70
     1
102
RTVSPropertyOp50
 70
     1
102
RTVSPropertyOp51
 70
     0
102
RTVSPropertyOp52
 70
     0
102
RTVSPropertyOp53
 70
     1
102
RTVSPropertyOp54
 70
     1
102
RTVSPropertyOp55
 70
     1
102
RTVSPropertyOp56
 70
     1
102
RTVSPropertyOp57
 70
     1
102
RTVSPost2010Prop28
280
     0
102
RTVSPost2010PropOp28
 70
     1
102
RTVSPost2010Prop29
280
     1
102
RTVSPost2010PropOp29
 70
     1
102
RTVSPost2010Prop30
280
     1
102
RTVSPost2010PropOp30
 70
     1
102
RTVSPost2010Prop31
280
     0
102
RTVSPost2010PropOp31
 70
     1
102
RTVSPost2010Prop32
280
     0
102
RTVSPost2010PropOp32
 70
     1
102
RTVSPost2010Prop33
280
     0
102
RTVSPost2010PropOp33
 70
     1
102
RTVSPost2010Prop34
280
     0
102
RTVSPost2010PropOp34
 70
     1
102
RTVSPost2010Prop35
280
     0
102
RTVSPost2010PropOp35
 70
     1
102
RTVSPost2010Prop36
280
     0
102
RTVSPost2010PropOp36
 70
     1
102
RTVSPost2010Prop37
 90
       50
102
RTVSPost2010PropOp37
 70
     1
102
RTVSPost2010Prop38
140
0.0
102
RTVSPost2010PropOp38
 70
     1
102
RTVSPost2010Prop39
140
1.0
102
RTVSPost2010PropOp39
 70
     1
102
RTVSPost2010Prop40
 90
        0
102
RTVSPost2010PropOp40
 70
     1
102
RTVSPost2010Prop41ColorIndex
 90
       18
102
RTVSPost2010Prop41ColorRGB
 90
        0
102
RTVSPost2010PropOp41
 70
     1
102
RTVSPost2010Prop42
 90
       50
102
RTVSPost2010PropOp42
 70
     1
102
RTVSPost2010Prop43
 90
        3
102
RTVSPost2010PropOp43
 70
     1
102
RTVSPost2010Prop44ColorIndex
 90
        5
102
RTVSPost2010Prop44ColorRGB
 90
      255
102
RTVSPost2010PropOp44
 70
     1
102
RTVSPost2010Prop45
280
     0
102
RTVSPost2010PropOp45
 70
     1
102
RTVSPost2010Prop46
 90
       50
102
RTVSPost2010PropOp46
 70
     1
102
RTVSPost2010Prop47
 90
       50
102
RTVSPost2010PropOp47
 70
     1
102
RTVSPost2010Prop48
 90
       50
102
RTVSPost2010PropOp48
 70
     1
102
RTVSPost2010Prop49
280
     0
102
RTVSPost2010PropOp49
 70
     1
102
RTVSPost2010Prop50
 90
       50
102
RTVSPost2010PropOp50
 70
     1
102
RTVSPost2010Prop51ColorIndex
 90
      256
102
RTVSPost2010Prop51ColorRGB
 90
-16777216
102
RTVSPost2010PropOp51
 70
     0
102
RTVSPost2010Prop52
140
1.0
102
RTVSPost2010PropOp52
 70
     0
102
RTVSPost2010Prop53
 90
        2
102
RTVSPost2010PropOp53
 70
     1
102
RTVSPost2010Prop54
  1
strokes_ogs.tif
102
RTVSPost2010PropOp54
 70
     1
102
RTVSPost2010Prop55
280
     0
102
RTVSPost2010PropOp55
 70
     1
102
RTVSPost2010Prop56
140
1.0
102
RTVSPost2010PropOp56
 70
     1
102
RTVSPost2010Prop57
140
1.0
102
RTVSPost2010PropOp57
 70
     1
  0
XRECORD
  5
390
102
{ACAD_REACTORS
330
38F
102
}
330
38F
100
AcDbXrecord
280
     1
102
RTVSPropertyOp0
 70
     1
102
RTVSPropertyOp1
 70
     1
102
RTVSPropertyOp2
 70
     1
102
RTVSPropertyOp3
 70
     1
102
RTVSPropertyOp4
 70
     1
102
RTVSPropertyOp5
 70
     1
102
RTVSPropertyOp6
 70
     1
102
RTVSPropertyOp7
 70
     1
102
RTVSPropertyOp8
 70
     1
102
RTVSPropertyOp9
 70
     1
102
RTVSPropertyOp10
 70
     1
102
RTVSPropertyOp11
 70
     1
102
RTVSPropertyOp12
 70
     1
102
RTVSPropertyOp13
 70
     1
102
RTVSPropertyOp14
 70
     1
102
RTVSPropertyOp15
 70
     1
102
RTVSPropertyOp16
 70
     1
102
RTVSPropertyOp17
 70
     1
102
RTVSPropertyOp18
 70
     1
102
RTVSPropertyOp19
 70
     1
102
RTVSPropertyOp20
 70
     1
102
RTVSPropertyOp21
 70
     1
102
RTVSPropertyOp22
 70
     1
102
RTVSPropertyOp23
 70
     1
102
RTVSPropertyOp24
 70
     1
102
RTVSPropertyOp25
 70
     1
102
RTVSPropertyOp26
 70
     1
102
RTVSPropertyOp27
 70
     1
102
RTVSPropertyOp28
 70
     1
102
RTVSPropertyOp29
 70
     1
102
RTVSPropertyOp30
 70
     1
102
RTVSPropertyOp31
 70
     1
102
RTVSPropertyOp32
 70
     1
102
RTVSPropertyOp33
 70
     1
102
RTVSPropertyOp34
 70
     1
102
RTVSPropertyOp35
 70
     1
102
RTVSPropertyOp36
 70
     1
102
RTVSPropertyOp37
 70
     1
102
RTVSPropertyOp38
 70
     1
102
RTVSPropertyOp39
 70
     1
102
RTVSPropertyOp40
 70
     1
102
RTVSPropertyOp41
 70
     1
102
RTVSPropertyOp42
 70
     1
102
RTVSPropertyOp43
 70
     1
102
RTVSPropertyOp44
 70
     1
102
RTVSPropertyOp45
 70
     1
102
RTVSPropertyOp46
 70
     1
102
RTVSPropertyOp47
 70
     1
102
RTVSPropertyOp48
 70
     1
102
RTVSPropertyOp49
 70
     1
102
RTVSPropertyOp50
 70
     1
102
RTVSPropertyOp51
 70
     0
102
RTVSPropertyOp52
 70
     0
102
RTVSPropertyOp53
 70
     1
102
RTVSPropertyOp54
 70
     1
102
RTVSPropertyOp55
 70
     1
102
RTVSPropertyOp56
 70
     1
102
RTVSPropertyOp57
 70
     1
102
RTVSPost2010Prop28
280
     0
102
RTVSPost2010PropOp28
 70
     1
102
RTVSPost2010Prop29
280
     1
102
RTVSPost2010PropOp29
 70
     1
102
RTVSPost2010Prop30
280
     1
102
RTVSPost2010PropOp30
 70
     1
102
RTVSPost2010Prop31
280
     0
102
RTVSPost2010PropOp31
 70
     1
102
RTVSPost2010Prop32
280
     0
102
RTVSPost2010PropOp32
 70
     1
102
RTVSPost2010Prop33
280
     0
102
RTVSPost2010PropOp33
 70
     1
102
RTVSPost2010Prop34
280
     0
102
RTVSPost2010PropOp34
 70
     1
102
RTVSPost2010Prop35
280
     0
102
RTVSPost2010PropOp35
 70
     1
102
RTVSPost2010Prop36
280
     0
102
RTVSPost2010PropOp36
 70
     1
102
RTVSPost2010Prop37
 90
       50
102
RTVSPost2010PropOp37
 70
     1
102
RTVSPost2010Prop38
140
0.0
102
RTVSPost2010PropOp38
 70
     1
102
RTVSPost2010Prop39
140
1.0
102
RTVSPost2010PropOp39
 70
     1
102
RTVSPost2010Prop40
 90
        0
102
RTVSPost2010PropOp40
 70
     1
102
RTVSPost2010Prop41ColorIndex
 90
       18
102
RTVSPost2010Prop41ColorRGB
 90
        0
102
RTVSPost2010PropOp41
 70
     1
102
RTVSPost2010Prop42
 90
       50
102
RTVSPost2010PropOp42
 70
     1
102
RTVSPost2010Prop43
 90
        3
102
RTVSPost2010PropOp43
 70
     1
102
RTVSPost2010Prop44ColorIndex
 90
        5
102
RTVSPost2010Prop44ColorRGB
 90
      255
102
RTVSPost2010PropOp44
 70
     1
102
RTVSPost2010Prop45
280
     0
102
RTVSPost2010PropOp45
 70
     1
102
RTVSPost2010Prop46
 90
       50
102
RTVSPost2010PropOp46
 70
     1
102
RTVSPost2010Prop47
 90
       50
102
RTVSPost2010PropOp47
 70
     1
102
RTVSPost2010Prop48
 90
       50
102
RTVSPost2010PropOp48
 70
     1
102
RTVSPost2010Prop49
280
     0
102
RTVSPost2010PropOp49
 70
     1
102
RTVSPost2010Prop50
 90
       50
102
RTVSPost2010PropOp50
 70
     1
102
RTVSPost2010Prop51ColorIndex
 90
      256
102
RTVSPost2010Prop51ColorRGB
 90
-16777216
102
RTVSPost2010PropOp51
 70
     0
102
RTVSPost2010Prop52
140
1.0
102
RTVSPost2010PropOp52
 70
     0
102
RTVSPost2010Prop53
 90
        2
102
RTVSPost2010PropOp53
 70
     1
102
RTVSPost2010Prop54
  1
strokes_ogs.tif
102
RTVSPost2010PropOp54
 70
     1
102
RTVSPost2010Prop55
280
     0
102
RTVSPost2010PropOp55
 70
     1
102
RTVSPost2010Prop56
140
1.0
102
RTVSPost2010PropOp56
 70
     1
102
RTVSPost2010Prop57
140
1.0
102
RTVSPost2010PropOp57
 70
     1
  0
XRECORD
  5
3A0
102
{ACAD_REACTORS
330
39F
102
}
330
39F
100
AcDbXrecord
280
     1
102
RTVSPropertyOp0
 70
     0
102
RTVSPropertyOp1
 70
     0
102
RTVSPropertyOp2
 70
     0
102
RTVSPropertyOp3
 70
     0
102
RTVSPropertyOp4
 70
     0
102
RTVSPropertyOp5
 70
     0
102
RTVSPropertyOp6
 70
     0
102
RTVSPropertyOp7
 70
     0
102
RTVSPropertyOp8
 70
     0
102
RTVSPropertyOp9
 70
     0
102
RTVSPropertyOp10
 70
     0
102
RTVSPropertyOp11
 70
     0
102
RTVSPropertyOp12
 70
     0
102
RTVSPropertyOp13
 70
     0
102
RTVSPropertyOp14
 70
     2
102
RTVSPropertyOp15
 70
     0
102
RTVSPropertyOp16
 70
     0
102
RTVSPropertyOp17
 70
     0
102
RTVSPropertyOp18
 70
     0
102
RTVSPropertyOp19
 70
     0
102
RTVSPropertyOp20
 70
     0
102
RTVSPropertyOp21
 70
     0
102
RTVSPropertyOp22
 70
     0
102
RTVSPropertyOp23
 70
     0
102
RTVSPropertyOp24
 70
     0
102
RTVSPropertyOp25
 70
     0
102
RTVSPropertyOp26
 70
     0
102
RTVSPropertyOp27
 70
     0
102
RTVSPropertyOp28
 70
     0
102
RTVSPropertyOp29
 70
     0
102
RTVSPropertyOp30
 70
     0
102
RTVSPropertyOp31
 70
     0
102
RTVSPropertyOp32
 70
     0
102
RTVSPropertyOp33
 70
     0
102
RTVSPropertyOp34
 70
     0
102
RTVSPropertyOp35
 70
     0
102
RTVSPropertyOp36
 70
     0
102
RTVSPropertyOp37
 70
     0
102
RTVSPropertyOp38
 70
     0
102
RTVSPropertyOp39
 70
     0
102
RTVSPropertyOp40
 70
     0
102
RTVSPropertyOp41
 70
     0
102
RTVSPropertyOp42
 70
     0
102
RTVSPropertyOp43
 70
     0
102
RTVSPropertyOp44
 70
     0
102
RTVSPropertyOp45
 70
     0
102
RTVSPropertyOp46
 70
     0
102
RTVSPropertyOp47
 70
     0
102
RTVSPropertyOp48
 70
     0
102
RTVSPropertyOp49
 70
     0
102
RTVSPropertyOp50
 70
     0
102
RTVSPropertyOp51
 70
     0
102
RTVSPropertyOp52
 70
     0
102
RTVSPropertyOp53
 70
     0
102
RTVSPropertyOp54
 70
     0
102
RTVSPropertyOp55
 70
     0
102
RTVSPropertyOp56
 70
     0
102
RTVSPropertyOp57
 70
     0
102
RTVSPost2010Prop28
280
     0
102
RTVSPost2010PropOp28
 70
     0
102
RTVSPost2010Prop29
280
     1
102
RTVSPost2010PropOp29
 70
     0
102
RTVSPost2010Prop30
280
     1
102
RTVSPost2010PropOp30
 70
     0
102
RTVSPost2010Prop31
280
     0
102
RTVSPost2010PropOp31
 70
     0
102
RTVSPost2010Prop32
280
     0
102
RTVSPost2010PropOp32
 70
     0
102
RTVSPost2010Prop33
280
     0
102
RTVSPost2010PropOp33
 70
     0
102
RTVSPost2010Prop34
280
     0
102
RTVSPost2010PropOp34
 70
     0
102
RTVSPost2010Prop35
280
     0
102
RTVSPost2010PropOp35
 70
     0
102
RTVSPost2010Prop36
280
     0
102
RTVSPost2010PropOp36
 70
     0
102
RTVSPost2010Prop37
 90
       50
102
RTVSPost2010PropOp37
 70
     0
102
RTVSPost2010Prop38
140
0.0
102
RTVSPost2010PropOp38
 70
     0
102
RTVSPost2010Prop39
140
1.0
102
RTVSPost2010PropOp39
 70
     0
102
RTVSPost2010Prop40
 90
        0
102
RTVSPost2010PropOp40
 70
     0
102
RTVSPost2010Prop41ColorIndex
 90
       18
102
RTVSPost2010Prop41ColorRGB
 90
        0
102
RTVSPost2010PropOp41
 70
     0
102
RTVSPost2010Prop42
 90
       50
102
RTVSPost2010PropOp42
 70
     0
102
RTVSPost2010Prop43
 90
        3
102
RTVSPost2010PropOp43
 70
     0
102
RTVSPost2010Prop44ColorIndex
 90
        5
102
RTVSPost2010Prop44ColorRGB
 90
      255
102
RTVSPost2010PropOp44
 70
     0
102
RTVSPost2010Prop45
280
     0
102
RTVSPost2010PropOp45
 70
     0
102
RTVSPost2010Prop46
 90
       50
102
RTVSPost2010PropOp46
 70
     0
102
RTVSPost2010Prop47
 90
       50
102
RTVSPost2010PropOp47
 70
     0
102
RTVSPost2010Prop48
 90
       50
102
RTVSPost2010PropOp48
 70
     0
102
RTVSPost2010Prop49
280
     0
102
RTVSPost2010PropOp49
 70
     0
102
RTVSPost2010Prop50
 90
       50
102
RTVSPost2010PropOp50
 70
     0
102
RTVSPost2010Prop51ColorIndex
 90
      256
102
RTVSPost2010Prop51ColorRGB
 90
-16777216
102
RTVSPost2010PropOp51
 70
     0
102
RTVSPost2010Prop52
140
1.0
102
RTVSPost2010PropOp52
 70
     0
102
RTVSPost2010Prop53
 90
        2
102
RTVSPost2010PropOp53
 70
     0
102
RTVSPost2010Prop54
  1
strokes_ogs.tif
102
RTVSPost2010PropOp54
 70
     0
102
RTVSPost2010Prop55
280
     0
102
RTVSPost2010PropOp55
 70
     0
102
RTVSPost2010Prop56
140
1.0
102
RTVSPost2010PropOp56
 70
     0
102
RTVSPost2010Prop57
140
1.0
102
RTVSPost2010PropOp57
 70
     0
  0
XRECORD
  5
398
102
{ACAD_REACTORS
330
397
102
}
330
397
100
AcDbXrecord
280
     1
102
RTVSPropertyOp0
 70
     1
102
RTVSPropertyOp1
 70
     1
102
RTVSPropertyOp2
 70
     1
102
RTVSPropertyOp3
 70
     1
102
RTVSPropertyOp4
 70
     1
102
RTVSPropertyOp5
 70
     1
102
RTVSPropertyOp6
 70
     1
102
RTVSPropertyOp7
 70
     1
102
RTVSPropertyOp8
 70
     1
102
RTVSPropertyOp9
 70
     1
102
RTVSPropertyOp10
 70
     1
102
RTVSPropertyOp11
 70
     1
102
RTVSPropertyOp12
 70
     1
102
RTVSPropertyOp13
 70
     1
102
RTVSPropertyOp14
 70
     1
102
RTVSPropertyOp15
 70
     1
102
RTVSPropertyOp16
 70
     1
102
RTVSPropertyOp17
 70
     1
102
RTVSPropertyOp18
 70
     1
102
RTVSPropertyOp19
 70
     1
102
RTVSPropertyOp20
 70
     1
102
RTVSPropertyOp21
 70
     1
102
RTVSPropertyOp22
 70
     1
102
RTVSPropertyOp23
 70
     1
102
RTVSPropertyOp24
 70
     1
102
RTVSPropertyOp25
 70
     1
102
RTVSPropertyOp26
 70
     1
102
RTVSPropertyOp27
 70
     1
102
RTVSPropertyOp28
 70
     1
102
RTVSPropertyOp29
 70
     1
102
RTVSPropertyOp30
 70
     1
102
RTVSPropertyOp31
 70
     1
102
RTVSPropertyOp32
 70
     1
102
RTVSPropertyOp33
 70
     1
102
RTVSPropertyOp34
 70
     1
102
RTVSPropertyOp35
 70
     1
102
RTVSPropertyOp36
 70
     1
102
RTVSPropertyOp37
 70
     1
102
RTVSPropertyOp38
 70
     1
102
RTVSPropertyOp39
 70
     1
102
RTVSPropertyOp40
 70
     1
102
RTVSPropertyOp41
 70
     1
102
RTVSPropertyOp42
 70
     1
102
RTVSPropertyOp43
 70
     1
102
RTVSPropertyOp44
 70
     1
102
RTVSPropertyOp45
 70
     1
102
RTVSPropertyOp46
 70
     1
102
RTVSPropertyOp47
 70
     1
102
RTVSPropertyOp48
 70
     1
102
RTVSPropertyOp49
 70
     1
102
RTVSPropertyOp50
 70
     1
102
RTVSPropertyOp51
 70
     0
102
RTVSPropertyOp52
 70
     0
102
RTVSPropertyOp53
 70
     1
102
RTVSPropertyOp54
 70
     1
102
RTVSPropertyOp55
 70
     1
102
RTVSPropertyOp56
 70
     1
102
RTVSPropertyOp57
 70
     1
102
RTVSPost2010Prop28
280
     0
102
RTVSPost2010PropOp28
 70
     1
102
RTVSPost2010Prop29
280
     1
102
RTVSPost2010PropOp29
 70
     1
102
RTVSPost2010Prop30
280
     1
102
RTVSPost2010PropOp30
 70
     1
102
RTVSPost2010Prop31
280
     0
102
RTVSPost2010PropOp31
 70
     1
102
RTVSPost2010Prop32
280
     0
102
RTVSPost2010PropOp32
 70
     1
102
RTVSPost2010Prop33
280
     0
102
RTVSPost2010PropOp33
 70
     1
102
RTVSPost2010Prop34
280
     0
102
RTVSPost2010PropOp34
 70
     1
102
RTVSPost2010Prop35
280
     0
102
RTVSPost2010PropOp35
 70
     1
102
RTVSPost2010Prop36
280
     0
102
RTVSPost2010PropOp36
 70
     1
102
RTVSPost2010Prop37
 90
       50
102
RTVSPost2010PropOp37
 70
     1
102
RTVSPost2010Prop38
140
0.0
102
RTVSPost2010PropOp38
 70
     1
102
RTVSPost2010Prop39
140
1.0
102
RTVSPost2010PropOp39
 70
     1
102
RTVSPost2010Prop40
 90
        0
102
RTVSPost2010PropOp40
 70
     1
102
RTVSPost2010Prop41ColorIndex
 90
       18
102
RTVSPost2010Prop41ColorRGB
 90
        0
102
RTVSPost2010PropOp41
 70
     1
102
RTVSPost2010Prop42
 90
       50
102
RTVSPost2010PropOp42
 70
     1
102
RTVSPost2010Prop43
 90
        3
102
RTVSPost2010PropOp43
 70
     1
102
RTVSPost2010Prop44ColorIndex
 90
        5
102
RTVSPost2010Prop44ColorRGB
 90
      255
102
RTVSPost2010PropOp44
 70
     1
102
RTVSPost2010Prop45
280
     0
102
RTVSPost2010PropOp45
 70
     1
102
RTVSPost2010Prop46
 90
       50
102
RTVSPost2010PropOp46
 70
     1
102
RTVSPost2010Prop47
 90
       50
102
RTVSPost2010PropOp47
 70
     1
102
RTVSPost2010Prop48
 90
       50
102
RTVSPost2010PropOp48
 70
     1
102
RTVSPost2010Prop49
280
     0
102
RTVSPost2010PropOp49
 70
     1
102
RTVSPost2010Prop50
 90
       50
102
RTVSPost2010PropOp50
 70
     1
102
RTVSPost2010Prop51ColorIndex
 90
      256
102
RTVSPost2010Prop51ColorRGB
 90
-16777216
102
RTVSPost2010PropOp51
 70
     0
102
RTVSPost2010Prop52
140
1.0
102
RTVSPost2010PropOp52
 70
     0
102
RTVSPost2010Prop53
 90
        2
102
RTVSPost2010PropOp53
 70
     1
102
RTVSPost2010Prop54
  1
strokes_ogs.tif
102
RTVSPost2010PropOp54
 70
     1
102
RTVSPost2010Prop55
280
     0
102
RTVSPost2010PropOp55
 70
     1
102
RTVSPost2010Prop56
140
1.0
102
RTVSPost2010PropOp56
 70
     1
102
RTVSPost2010Prop57
140
1.0
102
RTVSPost2010PropOp57
 70
     1
  0
XRECORD
  5
37C
102
{ACAD_REACTORS
330
37B
102
}
330
37B
100
AcDbXrecord
280
     1
102
RTVSPropertyOp0
 70
     1
102
RTVSPropertyOp1
 70
     1
102
RTVSPropertyOp2
 70
     1
102
RTVSPropertyOp3
 70
     1
102
RTVSPropertyOp4
 70
     1
102
RTVSPropertyOp5
 70
     1
102
RTVSPropertyOp6
 70
     1
102
RTVSPropertyOp7
 70
     1
102
RTVSPropertyOp8
 70
     1
102
RTVSPropertyOp9
 70
     1
102
RTVSPropertyOp10
 70
     1
102
RTVSPropertyOp11
 70
     1
102
RTVSPropertyOp12
 70
     1
102
RTVSPropertyOp13
 70
     1
102
RTVSPropertyOp14
 70
     1
102
RTVSPropertyOp15
 70
     1
102
RTVSPropertyOp16
 70
     1
102
RTVSPropertyOp17
 70
     1
102
RTVSPropertyOp18
 70
     1
102
RTVSPropertyOp19
 70
     1
102
RTVSPropertyOp20
 70
     1
102
RTVSPropertyOp21
 70
     1
102
RTVSPropertyOp22
 70
     1
102
RTVSPropertyOp23
 70
     1
102
RTVSPropertyOp24
 70
     1
102
RTVSPropertyOp25
 70
     1
102
RTVSPropertyOp26
 70
     1
102
RTVSPropertyOp27
 70
     1
102
RTVSPropertyOp28
 70
     1
102
RTVSPropertyOp29
 70
     1
102
RTVSPropertyOp30
 70
     1
102
RTVSPropertyOp31
 70
     1
102
RTVSPropertyOp32
 70
     1
102
RTVSPropertyOp33
 70
     1
102
RTVSPropertyOp34
 70
     1
102
RTVSPropertyOp35
 70
     1
102
RTVSPropertyOp36
 70
     1
102
RTVSPropertyOp37
 70
     1
102
RTVSPropertyOp38
 70
     1
102
RTVSPropertyOp39
 70
     1
102
RTVSPropertyOp40
 70
     1
102
RTVSPropertyOp41
 70
     1
102
RTVSPropertyOp42
 70
     1
102
RTVSPropertyOp43
 70
     1
102
RTVSPropertyOp44
 70
     1
102
RTVSPropertyOp45
 70
     1
102
RTVSPropertyOp46
 70
     1
102
RTVSPropertyOp47
 70
     1
102
RTVSPropertyOp48
 70
     1
102
RTVSPropertyOp49
 70
     1
102
RTVSPropertyOp50
 70
     1
102
RTVSPropertyOp51
 70
     0
102
RTVSPropertyOp52
 70
     0
102
RTVSPropertyOp53
 70
     1
102
RTVSPropertyOp54
 70
     1
102
RTVSPropertyOp55
 70
     1
102
RTVSPropertyOp56
 70
     1
102
RTVSPropertyOp57
 70
     1
102
RTVSPost2010Prop28
280
     0
102
RTVSPost2010PropOp28
 70
     1
102
RTVSPost2010Prop29
280
     1
102
RTVSPost2010PropOp29
 70
     1
102
RTVSPost2010Prop30
280
     1
102
RTVSPost2010PropOp30
 70
     1
102
RTVSPost2010Prop31
280
     0
102
RTVSPost2010PropOp31
 70
     1
102
RTVSPost2010Prop32
280
     0
102
RTVSPost2010PropOp32
 70
     1
102
RTVSPost2010Prop33
280
     0
102
RTVSPost2010PropOp33
 70
     1
102
RTVSPost2010Prop34
280
     0
102
RTVSPost2010PropOp34
 70
     1
102
RTVSPost2010Prop35
280
     0
102
RTVSPost2010PropOp35
 70
     1
102
RTVSPost2010Prop36
280
     0
102
RTVSPost2010PropOp36
 70
     1
102
RTVSPost2010Prop37
 90
       50
102
RTVSPost2010PropOp37
 70
     1
102
RTVSPost2010Prop38
140
0.0
102
RTVSPost2010PropOp38
 70
     1
102
RTVSPost2010Prop39
140
1.0
102
RTVSPost2010PropOp39
 70
     1
102
RTVSPost2010Prop40
 90
        0
102
RTVSPost2010PropOp40
 70
     1
102
RTVSPost2010Prop41ColorIndex
 90
       18
102
RTVSPost2010Prop41ColorRGB
 90
        0
102
RTVSPost2010PropOp41
 70
     1
102
RTVSPost2010Prop42
 90
       50
102
RTVSPost2010PropOp42
 70
     1
102
RTVSPost2010Prop43
 90
        3
102
RTVSPost2010PropOp43
 70
     1
102
RTVSPost2010Prop44ColorIndex
 90
        5
102
RTVSPost2010Prop44ColorRGB
 90
      255
102
RTVSPost2010PropOp44
 70
     1
102
RTVSPost2010Prop45
280
     0
102
RTVSPost2010PropOp45
 70
     1
102
RTVSPost2010Prop46
 90
       50
102
RTVSPost2010PropOp46
 70
     1
102
RTVSPost2010Prop47
 90
       50
102
RTVSPost2010PropOp47
 70
     1
102
RTVSPost2010Prop48
 90
       50
102
RTVSPost2010PropOp48
 70
     1
102
RTVSPost2010Prop49
280
     0
102
RTVSPost2010PropOp49
 70
     1
102
RTVSPost2010Prop50
 90
       50
102
RTVSPost2010PropOp50
 70
     1
102
RTVSPost2010Prop51ColorIndex
 90
      256
102
RTVSPost2010Prop51ColorRGB
 90
-16777216
102
RTVSPost2010PropOp51
 70
     0
102
RTVSPost2010Prop52
140
1.0
102
RTVSPost2010PropOp52
 70
     0
102
RTVSPost2010Prop53
 90
        2
102
RTVSPost2010PropOp53
 70
     1
102
RTVSPost2010Prop54
  1
strokes_ogs.tif
102
RTVSPost2010PropOp54
 70
     1
102
RTVSPost2010Prop55
280
     0
102
RTVSPost2010PropOp55
 70
     1
102
RTVSPost2010Prop56
140
1.0
102
RTVSPost2010PropOp56
 70
     1
102
RTVSPost2010Prop57
140
1.0
102
RTVSPost2010PropOp57
 70
     1
  0
XRECORD
  5
37E
102
{ACAD_REACTORS
330
37D
102
}
330
37D
100
AcDbXrecord
280
     1
102
RTVSPropertyOp0
 70
     1
102
RTVSPropertyOp1
 70
     1
102
RTVSPropertyOp2
 70
     1
102
RTVSPropertyOp3
 70
     1
102
RTVSPropertyOp4
 70
     1
102
RTVSPropertyOp5
 70
     1
102
RTVSPropertyOp6
 70
     1
102
RTVSPropertyOp7
 70
     1
102
RTVSPropertyOp8
 70
     1
102
RTVSPropertyOp9
 70
     1
102
RTVSPropertyOp10
 70
     1
102
RTVSPropertyOp11
 70
     1
102
RTVSPropertyOp12
 70
     1
102
RTVSPropertyOp13
 70
     1
102
RTVSPropertyOp14
 70
     1
102
RTVSPropertyOp15
 70
     1
102
RTVSPropertyOp16
 70
     1
102
RTVSPropertyOp17
 70
     1
102
RTVSPropertyOp18
 70
     1
102
RTVSPropertyOp19
 70
     1
102
RTVSPropertyOp20
 70
     1
102
RTVSPropertyOp21
 70
     1
102
RTVSPropertyOp22
 70
     1
102
RTVSPropertyOp23
 70
     1
102
RTVSPropertyOp24
 70
     1
102
RTVSPropertyOp25
 70
     1
102
RTVSPropertyOp26
 70
     1
102
RTVSPropertyOp27
 70
     1
102
RTVSPropertyOp28
 70
     1
102
RTVSPropertyOp29
 70
     1
102
RTVSPropertyOp30
 70
     1
102
RTVSPropertyOp31
 70
     1
102
RTVSPropertyOp32
 70
     1
102
RTVSPropertyOp33
 70
     1
102
RTVSPropertyOp34
 70
     1
102
RTVSPropertyOp35
 70
     1
102
RTVSPropertyOp36
 70
     1
102
RTVSPropertyOp37
 70
     1
102
RTVSPropertyOp38
 70
     1
102
RTVSPropertyOp39
 70
     1
102
RTVSPropertyOp40
 70
     1
102
RTVSPropertyOp41
 70
     1
102
RTVSPropertyOp42
 70
     1
102
RTVSPropertyOp43
 70
     1
102
RTVSPropertyOp44
 70
     1
102
RTVSPropertyOp45
 70
     1
102
RTVSPropertyOp46
 70
     1
102
RTVSPropertyOp47
 70
     1
102
RTVSPropertyOp48
 70
     1
102
RTVSPropertyOp49
 70
     1
102
RTVSPropertyOp50
 70
     1
102
RTVSPropertyOp51
 70
     0
102
RTVSPropertyOp52
 70
     0
102
RTVSPropertyOp53
 70
     1
102
RTVSPropertyOp54
 70
     1
102
RTVSPropertyOp55
 70
     1
102
RTVSPropertyOp56
 70
     1
102
RTVSPropertyOp57
 70
     1
102
RTVSPost2010Prop28
280
     0
102
RTVSPost2010PropOp28
 70
     1
102
RTVSPost2010Prop29
280
     1
102
RTVSPost2010PropOp29
 70
     1
102
RTVSPost2010Prop30
280
     1
102
RTVSPost2010PropOp30
 70
     1
102
RTVSPost2010Prop31
280
     0
102
RTVSPost2010PropOp31
 70
     1
102
RTVSPost2010Prop32
280
     0
102
RTVSPost2010PropOp32
 70
     1
102
RTVSPost2010Prop33
280
     0
102
RTVSPost2010PropOp33
 70
     1
102
RTVSPost2010Prop34
280
     0
102
RTVSPost2010PropOp34
 70
     1
102
RTVSPost2010Prop35
280
     0
102
RTVSPost2010PropOp35
 70
     1
102
RTVSPost2010Prop36
280
     0
102
RTVSPost2010PropOp36
 70
     1
102
RTVSPost2010Prop37
 90
       50
102
RTVSPost2010PropOp37
 70
     1
102
RTVSPost2010Prop38
140
0.0
102
RTVSPost2010PropOp38
 70
     1
102
RTVSPost2010Prop39
140
1.0
102
RTVSPost2010PropOp39
 70
     1
102
RTVSPost2010Prop40
 90
        0
102
RTVSPost2010PropOp40
 70
     1
102
RTVSPost2010Prop41ColorIndex
 90
       18
102
RTVSPost2010Prop41ColorRGB
 90
        0
102
RTVSPost2010PropOp41
 70
     1
102
RTVSPost2010Prop42
 90
       50
102
RTVSPost2010PropOp42
 70
     1
102
RTVSPost2010Prop43
 90
        3
102
RTVSPost2010PropOp43
 70
     1
102
RTVSPost2010Prop44ColorIndex
 90
        5
102
RTVSPost2010Prop44ColorRGB
 90
      255
102
RTVSPost2010PropOp44
 70
     1
102
RTVSPost2010Prop45
280
     0
102
RTVSPost2010PropOp45
 70
     1
102
RTVSPost2010Prop46
 90
       50
102
RTVSPost2010PropOp46
 70
     1
102
RTVSPost2010Prop47
 90
       50
102
RTVSPost2010PropOp47
 70
     1
102
RTVSPost2010Prop48
 90
       50
102
RTVSPost2010PropOp48
 70
     1
102
RTVSPost2010Prop49
280
     0
102
RTVSPost2010PropOp49
 70
     1
102
RTVSPost2010Prop50
 90
       50
102
RTVSPost2010PropOp50
 70
     1
102
RTVSPost2010Prop51ColorIndex
 90
      256
102
RTVSPost2010Prop51ColorRGB
 90
-16777216
102
RTVSPost2010PropOp51
 70
     0
102
RTVSPost2010Prop52
140
1.0
102
RTVSPost2010PropOp52
 70
     0
102
RTVSPost2010Prop53
 90
        2
102
RTVSPost2010PropOp53
 70
     1
102
RTVSPost2010Prop54
  1
strokes_ogs.tif
102
RTVSPost2010PropOp54
 70
     1
102
RTVSPost2010Prop55
280
     0
102
RTVSPost2010PropOp55
 70
     1
102
RTVSPost2010Prop56
140
1.0
102
RTVSPost2010PropOp56
 70
     1
102
RTVSPost2010Prop57
140
1.0
102
RTVSPost2010PropOp57
 70
     1
  0
XRECORD
  5
380
102
{ACAD_REACTORS
330
37F
102
}
330
37F
100
AcDbXrecord
280
     1
102
RTVSPropertyOp0
 70
     1
102
RTVSPropertyOp1
 70
     1
102
RTVSPropertyOp2
 70
     1
102
RTVSPropertyOp3
 70
     1
102
RTVSPropertyOp4
 70
     1
102
RTVSPropertyOp5
 70
     1
102
RTVSPropertyOp6
 70
     1
102
RTVSPropertyOp7
 70
     1
102
RTVSPropertyOp8
 70
     1
102
RTVSPropertyOp9
 70
     1
102
RTVSPropertyOp10
 70
     1
102
RTVSPropertyOp11
 70
     1
102
RTVSPropertyOp12
 70
     1
102
RTVSPropertyOp13
 70
     1
102
RTVSPropertyOp14
 70
     1
102
RTVSPropertyOp15
 70
     1
102
RTVSPropertyOp16
 70
     1
102
RTVSPropertyOp17
 70
     1
102
RTVSPropertyOp18
 70
     1
102
RTVSPropertyOp19
 70
     1
102
RTVSPropertyOp20
 70
     1
102
RTVSPropertyOp21
 70
     1
102
RTVSPropertyOp22
 70
     1
102
RTVSPropertyOp23
 70
     1
102
RTVSPropertyOp24
 70
     1
102
RTVSPropertyOp25
 70
     1
102
RTVSPropertyOp26
 70
     1
102
RTVSPropertyOp27
 70
     1
102
RTVSPropertyOp28
 70
     1
102
RTVSPropertyOp29
 70
     1
102
RTVSPropertyOp30
 70
     1
102
RTVSPropertyOp31
 70
     1
102
RTVSPropertyOp32
 70
     1
102
RTVSPropertyOp33
 70
     1
102
RTVSPropertyOp34
 70
     1
102
RTVSPropertyOp35
 70
     1
102
RTVSPropertyOp36
 70
     1
102
RTVSPropertyOp37
 70
     1
102
RTVSPropertyOp38
 70
     1
102
RTVSPropertyOp39
 70
     1
102
RTVSPropertyOp40
 70
     1
102
RTVSPropertyOp41
 70
     1
102
RTVSPropertyOp42
 70
     1
102
RTVSPropertyOp43
 70
     1
102
RTVSPropertyOp44
 70
     1
102
RTVSPropertyOp45
 70
     1
102
RTVSPropertyOp46
 70
     1
102
RTVSPropertyOp47
 70
     1
102
RTVSPropertyOp48
 70
     1
102
RTVSPropertyOp49
 70
     1
102
RTVSPropertyOp50
 70
     1
102
RTVSPropertyOp51
 70
     0
102
RTVSPropertyOp52
 70
     0
102
RTVSPropertyOp53
 70
     1
102
RTVSPropertyOp54
 70
     1
102
RTVSPropertyOp55
 70
     1
102
RTVSPropertyOp56
 70
     1
102
RTVSPropertyOp57
 70
     1
102
RTVSPost2010Prop28
280
     0
102
RTVSPost2010PropOp28
 70
     1
102
RTVSPost2010Prop29
280
     1
102
RTVSPost2010PropOp29
 70
     1
102
RTVSPost2010Prop30
280
     1
102
RTVSPost2010PropOp30
 70
     1
102
RTVSPost2010Prop31
280
     0
102
RTVSPost2010PropOp31
 70
     1
102
RTVSPost2010Prop32
280
     0
102
RTVSPost2010PropOp32
 70
     1
102
RTVSPost2010Prop33
280
     0
102
RTVSPost2010PropOp33
 70
     1
102
RTVSPost2010Prop34
280
     0
102
RTVSPost2010PropOp34
 70
     1
102
RTVSPost2010Prop35
280
     0
102
RTVSPost2010PropOp35
 70
     1
102
RTVSPost2010Prop36
280
     0
102
RTVSPost2010PropOp36
 70
     1
102
RTVSPost2010Prop37
 90
       50
102
RTVSPost2010PropOp37
 70
     1
102
RTVSPost2010Prop38
140
0.0
102
RTVSPost2010PropOp38
 70
     1
102
RTVSPost2010Prop39
140
1.0
102
RTVSPost2010PropOp39
 70
     1
102
RTVSPost2010Prop40
 90
        0
102
RTVSPost2010PropOp40
 70
     1
102
RTVSPost2010Prop41ColorIndex
 90
       18
102
RTVSPost2010Prop41ColorRGB
 90
        0
102
RTVSPost2010PropOp41
 70
     1
102
RTVSPost2010Prop42
 90
       50
102
RTVSPost2010PropOp42
 70
     1
102
RTVSPost2010Prop43
 90
        3
102
RTVSPost2010PropOp43
 70
     1
102
RTVSPost2010Prop44ColorIndex
 90
        5
102
RTVSPost2010Prop44ColorRGB
 90
      255
102
RTVSPost2010PropOp44
 70
     1
102
RTVSPost2010Prop45
280
     0
102
RTVSPost2010PropOp45
 70
     1
102
RTVSPost2010Prop46
 90
       50
102
RTVSPost2010PropOp46
 70
     1
102
RTVSPost2010Prop47
 90
       50
102
RTVSPost2010PropOp47
 70
     1
102
RTVSPost2010Prop48
 90
       50
102
RTVSPost2010PropOp48
 70
     1
102
RTVSPost2010Prop49
280
     0
102
RTVSPost2010PropOp49
 70
     1
102
RTVSPost2010Prop50
 90
       50
102
RTVSPost2010PropOp50
 70
     1
102
RTVSPost2010Prop51ColorIndex
 90
      256
102
RTVSPost2010Prop51ColorRGB
 90
-16777216
102
RTVSPost2010PropOp51
 70
     0
102
RTVSPost2010Prop52
140
1.0
102
RTVSPost2010PropOp52
 70
     0
102
RTVSPost2010Prop53
 90
        2
102
RTVSPost2010PropOp53
 70
     1
102
RTVSPost2010Prop54
  1
strokes_ogs.tif
102
RTVSPost2010PropOp54
 70
     1
102
RTVSPost2010Prop55
280
     0
102
RTVSPost2010PropOp55
 70
     1
102
RTVSPost2010Prop56
140
1.0
102
RTVSPost2010PropOp56
 70
     1
102
RTVSPost2010Prop57
140
1.0
102
RTVSPost2010PropOp57
 70
     1
  0
XRECORD
  5
382
102
{ACAD_REACTORS
330
381
102
}
330
381
100
AcDbXrecord
280
     1
102
RTVSPropertyOp0
 70
     1
102
RTVSPropertyOp1
 70
     1
102
RTVSPropertyOp2
 70
     1
102
RTVSPropertyOp3
 70
     1
102
RTVSPropertyOp4
 70
     1
102
RTVSPropertyOp5
 70
     1
102
RTVSPropertyOp6
 70
     1
102
RTVSPropertyOp7
 70
     1
102
RTVSPropertyOp8
 70
     1
102
RTVSPropertyOp9
 70
     1
102
RTVSPropertyOp10
 70
     1
102
RTVSPropertyOp11
 70
     1
102
RTVSPropertyOp12
 70
     1
102
RTVSPropertyOp13
 70
     1
102
RTVSPropertyOp14
 70
     1
102
RTVSPropertyOp15
 70
     1
102
RTVSPropertyOp16
 70
     1
102
RTVSPropertyOp17
 70
     1
102
RTVSPropertyOp18
 70
     1
102
RTVSPropertyOp19
 70
     1
102
RTVSPropertyOp20
 70
     1
102
RTVSPropertyOp21
 70
     1
102
RTVSPropertyOp22
 70
     1
102
RTVSPropertyOp23
 70
     1
102
RTVSPropertyOp24
 70
     1
102
RTVSPropertyOp25
 70
     1
102
RTVSPropertyOp26
 70
     1
102
RTVSPropertyOp27
 70
     1
102
RTVSPropertyOp28
 70
     1
102
RTVSPropertyOp29
 70
     1
102
RTVSPropertyOp30
 70
     1
102
RTVSPropertyOp31
 70
     1
102
RTVSPropertyOp32
 70
     1
102
RTVSPropertyOp33
 70
     1
102
RTVSPropertyOp34
 70
     1
102
RTVSPropertyOp35
 70
     1
102
RTVSPropertyOp36
 70
     1
102
RTVSPropertyOp37
 70
     1
102
RTVSPropertyOp38
 70
     1
102
RTVSPropertyOp39
 70
     1
102
RTVSPropertyOp40
 70
     1
102
RTVSPropertyOp41
 70
     1
102
RTVSPropertyOp42
 70
     1
102
RTVSPropertyOp43
 70
     1
102
RTVSPropertyOp44
 70
     1
102
RTVSPropertyOp45
 70
     1
102
RTVSPropertyOp46
 70
     1
102
RTVSPropertyOp47
 70
     1
102
RTVSPropertyOp48
 70
     1
102
RTVSPropertyOp49
 70
     1
102
RTVSPropertyOp50
 70
     1
102
RTVSPropertyOp51
 70
     0
102
RTVSPropertyOp52
 70
     0
102
RTVSPropertyOp53
 70
     1
102
RTVSPropertyOp54
 70
     1
102
RTVSPropertyOp55
 70
     1
102
RTVSPropertyOp56
 70
     1
102
RTVSPropertyOp57
 70
     1
102
RTVSPost2010Prop28
280
     0
102
RTVSPost2010PropOp28
 70
     1
102
RTVSPost2010Prop29
280
     1
102
RTVSPost2010PropOp29
 70
     1
102
RTVSPost2010Prop30
280
     1
102
RTVSPost2010PropOp30
 70
     1
102
RTVSPost2010Prop31
280
     0
102
RTVSPost2010PropOp31
 70
     1
102
RTVSPost2010Prop32
280
     0
102
RTVSPost2010PropOp32
 70
     1
102
RTVSPost2010Prop33
280
     0
102
RTVSPost2010PropOp33
 70
     1
102
RTVSPost2010Prop34
280
     0
102
RTVSPost2010PropOp34
 70
     1
102
RTVSPost2010Prop35
280
     0
102
RTVSPost2010PropOp35
 70
     1
102
RTVSPost2010Prop36
280
     0
102
RTVSPost2010PropOp36
 70
     1
102
RTVSPost2010Prop37
 90
       50
102
RTVSPost2010PropOp37
 70
     1
102
RTVSPost2010Prop38
140
0.0
102
RTVSPost2010PropOp38
 70
     1
102
RTVSPost2010Prop39
140
1.0
102
RTVSPost2010PropOp39
 70
     1
102
RTVSPost2010Prop40
 90
        0
102
RTVSPost2010PropOp40
 70
     1
102
RTVSPost2010Prop41ColorIndex
 90
       18
102
RTVSPost2010Prop41ColorRGB
 90
        0
102
RTVSPost2010PropOp41
 70
     1
102
RTVSPost2010Prop42
 90
       50
102
RTVSPost2010PropOp42
 70
     1
102
RTVSPost2010Prop43
 90
        3
102
RTVSPost2010PropOp43
 70
     1
102
RTVSPost2010Prop44ColorIndex
 90
        5
102
RTVSPost2010Prop44ColorRGB
 90
      255
102
RTVSPost2010PropOp44
 70
     1
102
RTVSPost2010Prop45
280
     0
102
RTVSPost2010PropOp45
 70
     1
102
RTVSPost2010Prop46
 90
       50
102
RTVSPost2010PropOp46
 70
     1
102
RTVSPost2010Prop47
 90
       50
102
RTVSPost2010PropOp47
 70
     1
102
RTVSPost2010Prop48
 90
       50
102
RTVSPost2010PropOp48
 70
     1
102
RTVSPost2010Prop49
280
     0
102
RTVSPost2010PropOp49
 70
     1
102
RTVSPost2010Prop50
 90
       50
102
RTVSPost2010PropOp50
 70
     1
102
RTVSPost2010Prop51ColorIndex
 90
      256
102
RTVSPost2010Prop51ColorRGB
 90
-16777216
102
RTVSPost2010PropOp51
 70
     0
102
RTVSPost2010Prop52
140
1.0
102
RTVSPost2010PropOp52
 70
     0
102
RTVSPost2010Prop53
 90
        2
102
RTVSPost2010PropOp53
 70
     1
102
RTVSPost2010Prop54
  1
strokes_ogs.tif
102
RTVSPost2010PropOp54
 70
     1
102
RTVSPost2010Prop55
280
     0
102
RTVSPost2010PropOp55
 70
     1
102
RTVSPost2010Prop56
140
1.0
102
RTVSPost2010PropOp56
 70
     1
102
RTVSPost2010Prop57
140
1.0
102
RTVSPost2010PropOp57
 70
     1
  0
XRECORD
  5
388
102
{ACAD_REACTORS
330
387
102
}
330
387
100
AcDbXrecord
280
     1
102
RTVSPropertyOp0
 70
     1
102
RTVSPropertyOp1
 70
     1
102
RTVSPropertyOp2
 70
     1
102
RTVSPropertyOp3
 70
     1
102
RTVSPropertyOp4
 70
     1
102
RTVSPropertyOp5
 70
     1
102
RTVSPropertyOp6
 70
     1
102
RTVSPropertyOp7
 70
     1
102
RTVSPropertyOp8
 70
     1
102
RTVSPropertyOp9
 70
     1
102
RTVSPropertyOp10
 70
     1
102
RTVSPropertyOp11
 70
     1
102
RTVSPropertyOp12
 70
     1
102
RTVSPropertyOp13
 70
     1
102
RTVSPropertyOp14
 70
     1
102
RTVSPropertyOp15
 70
     1
102
RTVSPropertyOp16
 70
     1
102
RTVSPropertyOp17
 70
     1
102
RTVSPropertyOp18
 70
     1
102
RTVSPropertyOp19
 70
     1
102
RTVSPropertyOp20
 70
     1
102
RTVSPropertyOp21
 70
     1
102
RTVSPropertyOp22
 70
     1
102
RTVSPropertyOp23
 70
     1
102
RTVSPropertyOp24
 70
     1
102
RTVSPropertyOp25
 70
     1
102
RTVSPropertyOp26
 70
     1
102
RTVSPropertyOp27
 70
     1
102
RTVSPropertyOp28
 70
     1
102
RTVSPropertyOp29
 70
     1
102
RTVSPropertyOp30
 70
     1
102
RTVSPropertyOp31
 70
     1
102
RTVSPropertyOp32
 70
     1
102
RTVSPropertyOp33
 70
     1
102
RTVSPropertyOp34
 70
     1
102
RTVSPropertyOp35
 70
     1
102
RTVSPropertyOp36
 70
     1
102
RTVSPropertyOp37
 70
     1
102
RTVSPropertyOp38
 70
     1
102
RTVSPropertyOp39
 70
     1
102
RTVSPropertyOp40
 70
     1
102
RTVSPropertyOp41
 70
     1
102
RTVSPropertyOp42
 70
     1
102
RTVSPropertyOp43
 70
     1
102
RTVSPropertyOp44
 70
     1
102
RTVSPropertyOp45
 70
     1
102
RTVSPropertyOp46
 70
     1
102
RTVSPropertyOp47
 70
     1
102
RTVSPropertyOp48
 70
     1
102
RTVSPropertyOp49
 70
     1
102
RTVSPropertyOp50
 70
     1
102
RTVSPropertyOp51
 70
     0
102
RTVSPropertyOp52
 70
     0
102
RTVSPropertyOp53
 70
     1
102
RTVSPropertyOp54
 70
     1
102
RTVSPropertyOp55
 70
     1
102
RTVSPropertyOp56
 70
     1
102
RTVSPropertyOp57
 70
     1
102
RTVSPost2010Prop28
280
     0
102
RTVSPost2010PropOp28
 70
     1
102
RTVSPost2010Prop29
280
     1
102
RTVSPost2010PropOp29
 70
     1
102
RTVSPost2010Prop30
280
     1
102
RTVSPost2010PropOp30
 70
     1
102
RTVSPost2010Prop31
280
     0
102
RTVSPost2010PropOp31
 70
     1
102
RTVSPost2010Prop32
280
     0
102
RTVSPost2010PropOp32
 70
     1
102
RTVSPost2010Prop33
280
     0
102
RTVSPost2010PropOp33
 70
     1
102
RTVSPost2010Prop34
280
     0
102
RTVSPost2010PropOp34
 70
     1
102
RTVSPost2010Prop35
280
     0
102
RTVSPost2010PropOp35
 70
     1
102
RTVSPost2010Prop36
280
     0
102
RTVSPost2010PropOp36
 70
     1
102
RTVSPost2010Prop37
 90
       50
102
RTVSPost2010PropOp37
 70
     1
102
RTVSPost2010Prop38
140
0.0
102
RTVSPost2010PropOp38
 70
     1
102
RTVSPost2010Prop39
140
1.0
102
RTVSPost2010PropOp39
 70
     1
102
RTVSPost2010Prop40
 90
        0
102
RTVSPost2010PropOp40
 70
     1
102
RTVSPost2010Prop41ColorIndex
 90
       18
102
RTVSPost2010Prop41ColorRGB
 90
        0
102
RTVSPost2010PropOp41
 70
     1
102
RTVSPost2010Prop42
 90
       50
102
RTVSPost2010PropOp42
 70
     1
102
RTVSPost2010Prop43
 90
        3
102
RTVSPost2010PropOp43
 70
     1
102
RTVSPost2010Prop44ColorIndex
 90
        5
102
RTVSPost2010Prop44ColorRGB
 90
      255
102
RTVSPost2010PropOp44
 70
     1
102
RTVSPost2010Prop45
280
     0
102
RTVSPost2010PropOp45
 70
     1
102
RTVSPost2010Prop46
 90
       50
102
RTVSPost2010PropOp46
 70
     1
102
RTVSPost2010Prop47
 90
       50
102
RTVSPost2010PropOp47
 70
     1
102
RTVSPost2010Prop48
 90
       50
102
RTVSPost2010PropOp48
 70
     1
102
RTVSPost2010Prop49
280
     0
102
RTVSPost2010PropOp49
 70
     1
102
RTVSPost2010Prop50
 90
       50
102
RTVSPost2010PropOp50
 70
     1
102
RTVSPost2010Prop51ColorIndex
 90
      256
102
RTVSPost2010Prop51ColorRGB
 90
-16777216
102
RTVSPost2010PropOp51
 70
     0
102
RTVSPost2010Prop52
140
1.0
102
RTVSPost2010PropOp52
 70
     0
102
RTVSPost2010Prop53
 90
        2
102
RTVSPost2010PropOp53
 70
     1
102
RTVSPost2010Prop54
  1
strokes_ogs.tif
102
RTVSPost2010PropOp54
 70
     1
102
RTVSPost2010Prop55
280
     0
102
RTVSPost2010PropOp55
 70
     1
102
RTVSPost2010Prop56
140
1.0
102
RTVSPost2010PropOp56
 70
     1
102
RTVSPost2010Prop57
140
1.0
102
RTVSPost2010PropOp57
 70
     1
  0
XRECORD
  5
39C
102
{ACAD_REACTORS
330
39B
102
}
330
39B
100
AcDbXrecord
280
     1
102
RTVSPropertyOp0
 70
     0
102
RTVSPropertyOp1
 70
     0
102
RTVSPropertyOp2
 70
     0
102
RTVSPropertyOp3
 70
     0
102
RTVSPropertyOp4
 70
     0
102
RTVSPropertyOp5
 70
     0
102
RTVSPropertyOp6
 70
     0
102
RTVSPropertyOp7
 70
     0
102
RTVSPropertyOp8
 70
     0
102
RTVSPropertyOp9
 70
     0
102
RTVSPropertyOp10
 70
     0
102
RTVSPropertyOp11
 70
     0
102
RTVSPropertyOp12
 70
     0
102
RTVSPropertyOp13
 70
     0
102
RTVSPropertyOp14
 70
     2
102
RTVSPropertyOp15
 70
     0
102
RTVSPropertyOp16
 70
     0
102
RTVSPropertyOp17
 70
     0
102
RTVSPropertyOp18
 70
     0
102
RTVSPropertyOp19
 70
     0
102
RTVSPropertyOp20
 70
     0
102
RTVSPropertyOp21
 70
     0
102
RTVSPropertyOp22
 70
     0
102
RTVSPropertyOp23
 70
     0
102
RTVSPropertyOp24
 70
     0
102
RTVSPropertyOp25
 70
     0
102
RTVSPropertyOp26
 70
     0
102
RTVSPropertyOp27
 70
     0
102
RTVSPropertyOp28
 70
     0
102
RTVSPropertyOp29
 70
     0
102
RTVSPropertyOp30
 70
     0
102
RTVSPropertyOp31
 70
     0
102
RTVSPropertyOp32
 70
     0
102
RTVSPropertyOp33
 70
     0
102
RTVSPropertyOp34
 70
     0
102
RTVSPropertyOp35
 70
     0
102
RTVSPropertyOp36
 70
     0
102
RTVSPropertyOp37
 70
     0
102
RTVSPropertyOp38
 70
     0
102
RTVSPropertyOp39
 70
     0
102
RTVSPropertyOp40
 70
     0
102
RTVSPropertyOp41
 70
     0
102
RTVSPropertyOp42
 70
     0
102
RTVSPropertyOp43
 70
     0
102
RTVSPropertyOp44
 70
     0
102
RTVSPropertyOp45
 70
     0
102
RTVSPropertyOp46
 70
     0
102
RTVSPropertyOp47
 70
     0
102
RTVSPropertyOp48
 70
     0
102
RTVSPropertyOp49
 70
     0
102
RTVSPropertyOp50
 70
     0
102
RTVSPropertyOp51
 70
     0
102
RTVSPropertyOp52
 70
     0
102
RTVSPropertyOp53
 70
     0
102
RTVSPropertyOp54
 70
     0
102
RTVSPropertyOp55
 70
     0
102
RTVSPropertyOp56
 70
     0
102
RTVSPropertyOp57
 70
     0
102
RTVSPost2010Prop28
280
     0
102
RTVSPost2010PropOp28
 70
     0
102
RTVSPost2010Prop29
280
     1
102
RTVSPost2010PropOp29
 70
     0
102
RTVSPost2010Prop30
280
     1
102
RTVSPost2010PropOp30
 70
     0
102
RTVSPost2010Prop31
280
     0
102
RTVSPost2010PropOp31
 70
     0
102
RTVSPost2010Prop32
280
     0
102
RTVSPost2010PropOp32
 70
     0
102
RTVSPost2010Prop33
280
     0
102
RTVSPost2010PropOp33
 70
     0
102
RTVSPost2010Prop34
280
     0
102
RTVSPost2010PropOp34
 70
     0
102
RTVSPost2010Prop35
280
     0
102
RTVSPost2010PropOp35
 70
     0
102
RTVSPost2010Prop36
280
     0
102
RTVSPost2010PropOp36
 70
     0
102
RTVSPost2010Prop37
 90
       50
102
RTVSPost2010PropOp37
 70
     0
102
RTVSPost2010Prop38
140
0.0
102
RTVSPost2010PropOp38
 70
     0
102
RTVSPost2010Prop39
140
1.0
102
RTVSPost2010PropOp39
 70
     0
102
RTVSPost2010Prop40
 90
        0
102
RTVSPost2010PropOp40
 70
     0
102
RTVSPost2010Prop41ColorIndex
 90
       18
102
RTVSPost2010Prop41ColorRGB
 90
        0
102
RTVSPost2010PropOp41
 70
     0
102
RTVSPost2010Prop42
 90
       50
102
RTVSPost2010PropOp42
 70
     0
102
RTVSPost2010Prop43
 90
        3
102
RTVSPost2010PropOp43
 70
     0
102
RTVSPost2010Prop44ColorIndex
 90
        5
102
RTVSPost2010Prop44ColorRGB
 90
      255
102
RTVSPost2010PropOp44
 70
     0
102
RTVSPost2010Prop45
280
     0
102
RTVSPost2010PropOp45
 70
     0
102
RTVSPost2010Prop46
 90
       50
102
RTVSPost2010PropOp46
 70
     0
102
RTVSPost2010Prop47
 90
       50
102
RTVSPost2010PropOp47
 70
     0
102
RTVSPost2010Prop48
 90
       50
102
RTVSPost2010PropOp48
 70
     0
102
RTVSPost2010Prop49
280
     0
102
RTVSPost2010PropOp49
 70
     0
102
RTVSPost2010Prop50
 90
       50
102
RTVSPost2010PropOp50
 70
     0
102
RTVSPost2010Prop51ColorIndex
 90
      256
102
RTVSPost2010Prop51ColorRGB
 90
-16777216
102
RTVSPost2010PropOp51
 70
     0
102
RTVSPost2010Prop52
140
1.0
102
RTVSPost2010PropOp52
 70
     0
102
RTVSPost2010Prop53
 90
        2
102
RTVSPost2010PropOp53
 70
     0
102
RTVSPost2010Prop54
  1
strokes_ogs.tif
102
RTVSPost2010PropOp54
 70
     0
102
RTVSPost2010Prop55
280
     0
102
RTVSPost2010PropOp55
 70
     0
102
RTVSPost2010Prop56
140
1.0
102
RTVSPost2010PropOp56
 70
     0
102
RTVSPost2010Prop57
140
1.0
102
RTVSPost2010PropOp57
 70
     0
  0
XRECORD
  5
396
102
{ACAD_REACTORS
330
395
102
}
330
395
100
AcDbXrecord
280
     1
102
RTVSPropertyOp0
 70
     1
102
RTVSPropertyOp1
 70
     1
102
RTVSPropertyOp2
 70
     1
102
RTVSPropertyOp3
 70
     1
102
RTVSPropertyOp4
 70
     1
102
RTVSPropertyOp5
 70
     1
102
RTVSPropertyOp6
 70
     1
102
RTVSPropertyOp7
 70
     1
102
RTVSPropertyOp8
 70
     1
102
RTVSPropertyOp9
 70
     1
102
RTVSPropertyOp10
 70
     1
102
RTVSPropertyOp11
 70
     1
102
RTVSPropertyOp12
 70
     1
102
RTVSPropertyOp13
 70
     1
102
RTVSPropertyOp14
 70
     1
102
RTVSPropertyOp15
 70
     1
102
RTVSPropertyOp16
 70
     1
102
RTVSPropertyOp17
 70
     1
102
RTVSPropertyOp18
 70
     1
102
RTVSPropertyOp19
 70
     1
102
RTVSPropertyOp20
 70
     1
102
RTVSPropertyOp21
 70
     1
102
RTVSPropertyOp22
 70
     1
102
RTVSPropertyOp23
 70
     1
102
RTVSPropertyOp24
 70
     1
102
RTVSPropertyOp25
 70
     1
102
RTVSPropertyOp26
 70
     1
102
RTVSPropertyOp27
 70
     1
102
RTVSPropertyOp28
 70
     1
102
RTVSPropertyOp29
 70
     1
102
RTVSPropertyOp30
 70
     1
102
RTVSPropertyOp31
 70
     1
102
RTVSPropertyOp32
 70
     1
102
RTVSPropertyOp33
 70
     1
102
RTVSPropertyOp34
 70
     1
102
RTVSPropertyOp35
 70
     1
102
RTVSPropertyOp36
 70
     1
102
RTVSPropertyOp37
 70
     1
102
RTVSPropertyOp38
 70
     1
102
RTVSPropertyOp39
 70
     1
102
RTVSPropertyOp40
 70
     1
102
RTVSPropertyOp41
 70
     1
102
RTVSPropertyOp42
 70
     1
102
RTVSPropertyOp43
 70
     1
102
RTVSPropertyOp44
 70
     1
102
RTVSPropertyOp45
 70
     1
102
RTVSPropertyOp46
 70
     1
102
RTVSPropertyOp47
 70
     1
102
RTVSPropertyOp48
 70
     1
102
RTVSPropertyOp49
 70
     1
102
RTVSPropertyOp50
 70
     1
102
RTVSPropertyOp51
 70
     0
102
RTVSPropertyOp52
 70
     0
102
RTVSPropertyOp53
 70
     1
102
RTVSPropertyOp54
 70
     1
102
RTVSPropertyOp55
 70
     1
102
RTVSPropertyOp56
 70
     1
102
RTVSPropertyOp57
 70
     1
102
RTVSPost2010Prop28
280
     0
102
RTVSPost2010PropOp28
 70
     1
102
RTVSPost2010Prop29
280
     1
102
RTVSPost2010PropOp29
 70
     1
102
RTVSPost2010Prop30
280
     1
102
RTVSPost2010PropOp30
 70
     1
102
RTVSPost2010Prop31
280
     0
102
RTVSPost2010PropOp31
 70
     1
102
RTVSPost2010Prop32
280
     0
102
RTVSPost2010PropOp32
 70
     1
102
RTVSPost2010Prop33
280
     0
102
RTVSPost2010PropOp33
 70
     1
102
RTVSPost2010Prop34
280
     0
102
RTVSPost2010PropOp34
 70
     1
102
RTVSPost2010Prop35
280
     0
102
RTVSPost2010PropOp35
 70
     1
102
RTVSPost2010Prop36
280
     0
102
RTVSPost2010PropOp36
 70
     1
102
RTVSPost2010Prop37
 90
       50
102
RTVSPost2010PropOp37
 70
     1
102
RTVSPost2010Prop38
140
0.0
102
RTVSPost2010PropOp38
 70
     1
102
RTVSPost2010Prop39
140
1.0
102
RTVSPost2010PropOp39
 70
     1
102
RTVSPost2010Prop40
 90
        0
102
RTVSPost2010PropOp40
 70
     1
102
RTVSPost2010Prop41ColorIndex
 90
       18
102
RTVSPost2010Prop41ColorRGB
 90
        0
102
RTVSPost2010PropOp41
 70
     1
102
RTVSPost2010Prop42
 90
       50
102
RTVSPost2010PropOp42
 70
     1
102
RTVSPost2010Prop43
 90
        3
102
RTVSPost2010PropOp43
 70
     1
102
RTVSPost2010Prop44ColorIndex
 90
        5
102
RTVSPost2010Prop44ColorRGB
 90
      255
102
RTVSPost2010PropOp44
 70
     1
102
RTVSPost2010Prop45
280
     0
102
RTVSPost2010PropOp45
 70
     1
102
RTVSPost2010Prop46
 90
       50
102
RTVSPost2010PropOp46
 70
     1
102
RTVSPost2010Prop47
 90
       50
102
RTVSPost2010PropOp47
 70
     1
102
RTVSPost2010Prop48
 90
       50
102
RTVSPost2010PropOp48
 70
     1
102
RTVSPost2010Prop49
280
     0
102
RTVSPost2010PropOp49
 70
     1
102
RTVSPost2010Prop50
 90
       50
102
RTVSPost2010PropOp50
 70
     1
102
RTVSPost2010Prop51ColorIndex
 90
      256
102
RTVSPost2010Prop51ColorRGB
 90
-16777216
102
RTVSPost2010PropOp51
 70
     0
102
RTVSPost2010Prop52
140
1.0
102
RTVSPost2010PropOp52
 70
     0
102
RTVSPost2010Prop53
 90
        2
102
RTVSPost2010PropOp53
 70
     1
102
RTVSPost2010Prop54
  1
strokes_ogs.tif
102
RTVSPost2010PropOp54
 70
     1
102
RTVSPost2010Prop55
280
     0
102
RTVSPost2010PropOp55
 70
     1
102
RTVSPost2010Prop56
140
1.0
102
RTVSPost2010PropOp56
 70
     1
102
RTVSPost2010Prop57
140
1.0
102
RTVSPost2010PropOp57
 70
     1
  0
XRECORD
  5
39E
102
{ACAD_REACTORS
330
39D
102
}
330
39D
100
AcDbXrecord
280
     1
102
RTVSPropertyOp0
 70
     0
102
RTVSPropertyOp1
 70
     0
102
RTVSPropertyOp2
 70
     0
102
RTVSPropertyOp3
 70
     0
102
RTVSPropertyOp4
 70
     0
102
RTVSPropertyOp5
 70
     0
102
RTVSPropertyOp6
 70
     0
102
RTVSPropertyOp7
 70
     0
102
RTVSPropertyOp8
 70
     0
102
RTVSPropertyOp9
 70
     0
102
RTVSPropertyOp10
 70
     0
102
RTVSPropertyOp11
 70
     0
102
RTVSPropertyOp12
 70
     0
102
RTVSPropertyOp13
 70
     0
102
RTVSPropertyOp14
 70
     2
102
RTVSPropertyOp15
 70
     0
102
RTVSPropertyOp16
 70
     0
102
RTVSPropertyOp17
 70
     0
102
RTVSPropertyOp18
 70
     0
102
RTVSPropertyOp19
 70
     0
102
RTVSPropertyOp20
 70
     0
102
RTVSPropertyOp21
 70
     0
102
RTVSPropertyOp22
 70
     0
102
RTVSPropertyOp23
 70
     0
102
RTVSPropertyOp24
 70
     0
102
RTVSPropertyOp25
 70
     0
102
RTVSPropertyOp26
 70
     0
102
RTVSPropertyOp27
 70
     0
102
RTVSPropertyOp28
 70
     0
102
RTVSPropertyOp29
 70
     0
102
RTVSPropertyOp30
 70
     0
102
RTVSPropertyOp31
 70
     0
102
RTVSPropertyOp32
 70
     0
102
RTVSPropertyOp33
 70
     0
102
RTVSPropertyOp34
 70
     0
102
RTVSPropertyOp35
 70
     0
102
RTVSPropertyOp36
 70
     0
102
RTVSPropertyOp37
 70
     0
102
RTVSPropertyOp38
 70
     0
102
RTVSPropertyOp39
 70
     0
102
RTVSPropertyOp40
 70
     0
102
RTVSPropertyOp41
 70
     0
102
RTVSPropertyOp42
 70
     0
102
RTVSPropertyOp43
 70
     0
102
RTVSPropertyOp44
 70
     0
102
RTVSPropertyOp45
 70
     0
102
RTVSPropertyOp46
 70
     0
102
RTVSPropertyOp47
 70
     0
102
RTVSPropertyOp48
 70
     0
102
RTVSPropertyOp49
 70
     0
102
RTVSPropertyOp50
 70
     0
102
RTVSPropertyOp51
 70
     0
102
RTVSPropertyOp52
 70
     0
102
RTVSPropertyOp53
 70
     0
102
RTVSPropertyOp54
 70
     0
102
RTVSPropertyOp55
 70
     0
102
RTVSPropertyOp56
 70
     0
102
RTVSPropertyOp57
 70
     0
102
RTVSPost2010Prop28
280
     0
102
RTVSPost2010PropOp28
 70
     0
102
RTVSPost2010Prop29
280
     1
102
RTVSPost2010PropOp29
 70
     0
102
RTVSPost2010Prop30
280
     1
102
RTVSPost2010PropOp30
 70
     0
102
RTVSPost2010Prop31
280
     0
102
RTVSPost2010PropOp31
 70
     0
102
RTVSPost2010Prop32
280
     0
102
RTVSPost2010PropOp32
 70
     0
102
RTVSPost2010Prop33
280
     0
102
RTVSPost2010PropOp33
 70
     0
102
RTVSPost2010Prop34
280
     0
102
RTVSPost2010PropOp34
 70
     0
102
RTVSPost2010Prop35
280
     0
102
RTVSPost2010PropOp35
 70
     0
102
RTVSPost2010Prop36
280
     0
102
RTVSPost2010PropOp36
 70
     0
102
RTVSPost2010Prop37
 90
       50
102
RTVSPost2010PropOp37
 70
     0
102
RTVSPost2010Prop38
140
0.0
102
RTVSPost2010PropOp38
 70
     0
102
RTVSPost2010Prop39
140
1.0
102
RTVSPost2010PropOp39
 70
     0
102
RTVSPost2010Prop40
 90
        0
102
RTVSPost2010PropOp40
 70
     0
102
RTVSPost2010Prop41ColorIndex
 90
       18
102
RTVSPost2010Prop41ColorRGB
 90
        0
102
RTVSPost2010PropOp41
 70
     0
102
RTVSPost2010Prop42
 90
       50
102
RTVSPost2010PropOp42
 70
     0
102
RTVSPost2010Prop43
 90
        3
102
RTVSPost2010PropOp43
 70
     0
102
RTVSPost2010Prop44ColorIndex
 90
        5
102
RTVSPost2010Prop44ColorRGB
 90
      255
102
RTVSPost2010PropOp44
 70
     0
102
RTVSPost2010Prop45
280
     0
102
RTVSPost2010PropOp45
 70
     0
102
RTVSPost2010Prop46
 90
       50
102
RTVSPost2010PropOp46
 70
     0
102
RTVSPost2010Prop47
 90
       50
102
RTVSPost2010PropOp47
 70
     0
102
RTVSPost2010Prop48
 90
       50
102
RTVSPost2010PropOp48
 70
     0
102
RTVSPost2010Prop49
280
     0
102
RTVSPost2010PropOp49
 70
     0
102
RTVSPost2010Prop50
 90
       50
102
RTVSPost2010PropOp50
 70
     0
102
RTVSPost2010Prop51ColorIndex
 90
      256
102
RTVSPost2010Prop51ColorRGB
 90
-16777216
102
RTVSPost2010PropOp51
 70
     0
102
RTVSPost2010Prop52
140
1.0
102
RTVSPost2010PropOp52
 70
     0
102
RTVSPost2010Prop53
 90
        2
102
RTVSPost2010PropOp53
 70
     0
102
RTVSPost2010Prop54
  1
strokes_ogs.tif
102
RTVSPost2010PropOp54
 70
     0
102
RTVSPost2010Prop55
280
     0
102
RTVSPost2010PropOp55
 70
     0
102
RTVSPost2010Prop56
140
1.0
102
RTVSPost2010PropOp56
 70
     0
102
RTVSPost2010Prop57
140
1.0
102
RTVSPost2010PropOp57
 70
     0
  0
XRECORD
  5
38C
102
{ACAD_REACTORS
330
38B
102
}
330
38B
100
AcDbXrecord
280
     1
102
RTVSPropertyOp0
 70
     1
102
RTVSPropertyOp1
 70
     1
102
RTVSPropertyOp2
 70
     1
102
RTVSPropertyOp3
 70
     1
102
RTVSPropertyOp4
 70
     1
102
RTVSPropertyOp5
 70
     1
102
RTVSPropertyOp6
 70
     1
102
RTVSPropertyOp7
 70
     1
102
RTVSPropertyOp8
 70
     1
102
RTVSPropertyOp9
 70
     1
102
RTVSPropertyOp10
 70
     1
102
RTVSPropertyOp11
 70
     1
102
RTVSPropertyOp12
 70
     1
102
RTVSPropertyOp13
 70
     1
102
RTVSPropertyOp14
 70
     1
102
RTVSPropertyOp15
 70
     1
102
RTVSPropertyOp16
 70
     1
102
RTVSPropertyOp17
 70
     1
102
RTVSPropertyOp18
 70
     1
102
RTVSPropertyOp19
 70
     1
102
RTVSPropertyOp20
 70
     1
102
RTVSPropertyOp21
 70
     1
102
RTVSPropertyOp22
 70
     1
102
RTVSPropertyOp23
 70
     1
102
RTVSPropertyOp24
 70
     1
102
RTVSPropertyOp25
 70
     1
102
RTVSPropertyOp26
 70
     1
102
RTVSPropertyOp27
 70
     1
102
RTVSPropertyOp28
 70
     1
102
RTVSPropertyOp29
 70
     1
102
RTVSPropertyOp30
 70
     1
102
RTVSPropertyOp31
 70
     1
102
RTVSPropertyOp32
 70
     1
102
RTVSPropertyOp33
 70
     1
102
RTVSPropertyOp34
 70
     1
102
RTVSPropertyOp35
 70
     1
102
RTVSPropertyOp36
 70
     1
102
RTVSPropertyOp37
 70
     1
102
RTVSPropertyOp38
 70
     1
102
RTVSPropertyOp39
 70
     1
102
RTVSPropertyOp40
 70
     1
102
RTVSPropertyOp41
 70
     1
102
RTVSPropertyOp42
 70
     1
102
RTVSPropertyOp43
 70
     1
102
RTVSPropertyOp44
 70
     1
102
RTVSPropertyOp45
 70
     1
102
RTVSPropertyOp46
 70
     1
102
RTVSPropertyOp47
 70
     1
102
RTVSPropertyOp48
 70
     1
102
RTVSPropertyOp49
 70
     1
102
RTVSPropertyOp50
 70
     1
102
RTVSPropertyOp51
 70
     0
102
RTVSPropertyOp52
 70
     0
102
RTVSPropertyOp53
 70
     1
102
RTVSPropertyOp54
 70
     1
102
RTVSPropertyOp55
 70
     1
102
RTVSPropertyOp56
 70
     1
102
RTVSPropertyOp57
 70
     1
102
RTVSPost2010Prop28
280
     0
102
RTVSPost2010PropOp28
 70
     1
102
RTVSPost2010Prop29
280
     1
102
RTVSPost2010PropOp29
 70
     1
102
RTVSPost2010Prop30
280
     1
102
RTVSPost2010PropOp30
 70
     1
102
RTVSPost2010Prop31
280
     0
102
RTVSPost2010PropOp31
 70
     1
102
RTVSPost2010Prop32
280
     0
102
RTVSPost2010PropOp32
 70
     1
102
RTVSPost2010Prop33
280
     0
102
RTVSPost2010PropOp33
 70
     1
102
RTVSPost2010Prop34
280
     0
102
RTVSPost2010PropOp34
 70
     1
102
RTVSPost2010Prop35
280
     0
102
RTVSPost2010PropOp35
 70
     1
102
RTVSPost2010Prop36
280
     0
102
RTVSPost2010PropOp36
 70
     1
102
RTVSPost2010Prop37
 90
       50
102
RTVSPost2010PropOp37
 70
     1
102
RTVSPost2010Prop38
140
0.0
102
RTVSPost2010PropOp38
 70
     1
102
RTVSPost2010Prop39
140
1.0
102
RTVSPost2010PropOp39
 70
     1
102
RTVSPost2010Prop40
 90
        0
102
RTVSPost2010PropOp40
 70
     1
102
RTVSPost2010Prop41ColorIndex
 90
       18
102
RTVSPost2010Prop41ColorRGB
 90
        0
102
RTVSPost2010PropOp41
 70
     1
102
RTVSPost2010Prop42
 90
       50
102
RTVSPost2010PropOp42
 70
     1
102
RTVSPost2010Prop43
 90
        3
102
RTVSPost2010PropOp43
 70
     1
102
RTVSPost2010Prop44ColorIndex
 90
        5
102
RTVSPost2010Prop44ColorRGB
 90
      255
102
RTVSPost2010PropOp44
 70
     1
102
RTVSPost2010Prop45
280
     0
102
RTVSPost2010PropOp45
 70
     1
102
RTVSPost2010Prop46
 90
       50
102
RTVSPost2010PropOp46
 70
     1
102
RTVSPost2010Prop47
 90
       50
102
RTVSPost2010PropOp47
 70
     1
102
RTVSPost2010Prop48
 90
       50
102
RTVSPost2010PropOp48
 70
     1
102
RTVSPost2010Prop49
280
     0
102
RTVSPost2010PropOp49
 70
     1
102
RTVSPost2010Prop50
 90
       50
102
RTVSPost2010PropOp50
 70
     1
102
RTVSPost2010Prop51ColorIndex
 90
      256
102
RTVSPost2010Prop51ColorRGB
 90
-16777216
102
RTVSPost2010PropOp51
 70
     0
102
RTVSPost2010Prop52
140
1.0
102
RTVSPost2010PropOp52
 70
     0
102
RTVSPost2010Prop53
 90
        2
102
RTVSPost2010PropOp53
 70
     1
102
RTVSPost2010Prop54
  1
strokes_ogs.tif
102
RTVSPost2010PropOp54
 70
     1
102
RTVSPost2010Prop55
280
     0
102
RTVSPost2010PropOp55
 70
     1
102
RTVSPost2010Prop56
140
1.0
102
RTVSPost2010PropOp56
 70
     1
102
RTVSPost2010Prop57
140
1.0
102
RTVSPost2010PropOp57
 70
     1
  0
XRECORD
  5
3AA
102
{ACAD_REACTORS
330
3A9
102
}
330
3A9
100
AcDbXrecord
280
     1
102
RTVSPropertyOp0
 70
     1
102
RTVSPropertyOp1
 70
     1
102
RTVSPropertyOp2
 70
     1
102
RTVSPropertyOp3
 70
     1
102
RTVSPropertyOp4
 70
     1
102
RTVSPropertyOp5
 70
     1
102
RTVSPropertyOp6
 70
     1
102
RTVSPropertyOp7
 70
     1
102
RTVSPropertyOp8
 70
     1
102
RTVSPropertyOp9
 70
     1
102
RTVSPropertyOp10
 70
     1
102
RTVSPropertyOp11
 70
     1
102
RTVSPropertyOp12
 70
     1
102
RTVSPropertyOp13
 70
     1
102
RTVSPropertyOp14
 70
     1
102
RTVSPropertyOp15
 70
     1
102
RTVSPropertyOp16
 70
     1
102
RTVSPropertyOp17
 70
     1
102
RTVSPropertyOp18
 70
     1
102
RTVSPropertyOp19
 70
     1
102
RTVSPropertyOp20
 70
     1
102
RTVSPropertyOp21
 70
     1
102
RTVSPropertyOp22
 70
     1
102
RTVSPropertyOp23
 70
     1
102
RTVSPropertyOp24
 70
     1
102
RTVSPropertyOp25
 70
     1
102
RTVSPropertyOp26
 70
     1
102
RTVSPropertyOp27
 70
     1
102
RTVSPropertyOp28
 70
     1
102
RTVSPropertyOp29
 70
     1
102
RTVSPropertyOp30
 70
     1
102
RTVSPropertyOp31
 70
     1
102
RTVSPropertyOp32
 70
     1
102
RTVSPropertyOp33
 70
     1
102
RTVSPropertyOp34
 70
     1
102
RTVSPropertyOp35
 70
     1
102
RTVSPropertyOp36
 70
     1
102
RTVSPropertyOp37
 70
     1
102
RTVSPropertyOp38
 70
     1
102
RTVSPropertyOp39
 70
     1
102
RTVSPropertyOp40
 70
     1
102
RTVSPropertyOp41
 70
     1
102
RTVSPropertyOp42
 70
     1
102
RTVSPropertyOp43
 70
     1
102
RTVSPropertyOp44
 70
     1
102
RTVSPropertyOp45
 70
     1
102
RTVSPropertyOp46
 70
     1
102
RTVSPropertyOp47
 70
     1
102
RTVSPropertyOp48
 70
     1
102
RTVSPropertyOp49
 70
     1
102
RTVSPropertyOp50
 70
     1
102
RTVSPropertyOp51
 70
     0
102
RTVSPropertyOp52
 70
     0
102
RTVSPropertyOp53
 70
     1
102
RTVSPropertyOp54
 70
     1
102
RTVSPropertyOp55
 70
     1
102
RTVSPropertyOp56
 70
     1
102
RTVSPropertyOp57
 70
     1
102
RTVSPost2010Prop28
280
     0
102
RTVSPost2010PropOp28
 70
     1
102
RTVSPost2010Prop29
280
     1
102
RTVSPost2010PropOp29
 70
     1
102
RTVSPost2010Prop30
280
     1
102
RTVSPost2010PropOp30
 70
     1
102
RTVSPost2010Prop31
280
     0
102
RTVSPost2010PropOp31
 70
     1
102
RTVSPost2010Prop32
280
     0
102
RTVSPost2010PropOp32
 70
     1
102
RTVSPost2010Prop33
280
     0
102
RTVSPost2010PropOp33
 70
     1
102
RTVSPost2010Prop34
280
     0
102
RTVSPost2010PropOp34
 70
     1
102
RTVSPost2010Prop35
280
     0
102
RTVSPost2010PropOp35
 70
     1
102
RTVSPost2010Prop36
280
     0
102
RTVSPost2010PropOp36
 70
     1
102
RTVSPost2010Prop37
 90
       50
102
RTVSPost2010PropOp37
 70
     1
102
RTVSPost2010Prop38
140
0.0
102
RTVSPost2010PropOp38
 70
     1
102
RTVSPost2010Prop39
140
1.0
102
RTVSPost2010PropOp39
 70
     1
102
RTVSPost2010Prop40
 90
        0
102
RTVSPost2010PropOp40
 70
     1
102
RTVSPost2010Prop41ColorIndex
 90
       18
102
RTVSPost2010Prop41ColorRGB
 90
        0
102
RTVSPost2010PropOp41
 70
     1
102
RTVSPost2010Prop42
 90
       50
102
RTVSPost2010PropOp42
 70
     1
102
RTVSPost2010Prop43
 90
        3
102
RTVSPost2010PropOp43
 70
     1
102
RTVSPost2010Prop44ColorIndex
 90
        5
102
RTVSPost2010Prop44ColorRGB
 90
      255
102
RTVSPost2010PropOp44
 70
     1
102
RTVSPost2010Prop45
280
     0
102
RTVSPost2010PropOp45
 70
     1
102
RTVSPost2010Prop46
 90
       50
102
RTVSPost2010PropOp46
 70
     1
102
RTVSPost2010Prop47
 90
       50
102
RTVSPost2010PropOp47
 70
     1
102
RTVSPost2010Prop48
 90
       50
102
RTVSPost2010PropOp48
 70
     1
102
RTVSPost2010Prop49
280
     0
102
RTVSPost2010PropOp49
 70
     1
102
RTVSPost2010Prop50
 90
       50
102
RTVSPost2010PropOp50
 70
     1
102
RTVSPost2010Prop51ColorIndex
 90
      256
102
RTVSPost2010Prop51ColorRGB
 90
-16777216
102
RTVSPost2010PropOp51
 70
     0
102
RTVSPost2010Prop52
140
1.0
102
RTVSPost2010PropOp52
 70
     0
102
RTVSPost2010Prop53
 90
        2
102
RTVSPost2010PropOp53
 70
     1
102
RTVSPost2010Prop54
  1
strokes_ogs.tif
102
RTVSPost2010PropOp54
 70
     1
102
RTVSPost2010Prop55
280
     0
102
RTVSPost2010PropOp55
 70
     1
102
RTVSPost2010Prop56
140
1.0
102
RTVSPost2010PropOp56
 70
     1
102
RTVSPost2010Prop57
140
1.0
102
RTVSPost2010PropOp57
 70
     1
  0
XRECORD
  5
3A8
102
{ACAD_REACTORS
330
3A7
102
}
330
3A7
100
AcDbXrecord
280
     1
102
RTVSPropertyOp0
 70
     1
102
RTVSPropertyOp1
 70
     1
102
RTVSPropertyOp2
 70
     1
102
RTVSPropertyOp3
 70
     1
102
RTVSPropertyOp4
 70
     1
102
RTVSPropertyOp5
 70
     1
102
RTVSPropertyOp6
 70
     1
102
RTVSPropertyOp7
 70
     1
102
RTVSPropertyOp8
 70
     1
102
RTVSPropertyOp9
 70
     1
102
RTVSPropertyOp10
 70
     1
102
RTVSPropertyOp11
 70
     1
102
RTVSPropertyOp12
 70
     1
102
RTVSPropertyOp13
 70
     1
102
RTVSPropertyOp14
 70
     1
102
RTVSPropertyOp15
 70
     1
102
RTVSPropertyOp16
 70
     1
102
RTVSPropertyOp17
 70
     1
102
RTVSPropertyOp18
 70
     1
102
RTVSPropertyOp19
 70
     1
102
RTVSPropertyOp20
 70
     1
102
RTVSPropertyOp21
 70
     1
102
RTVSPropertyOp22
 70
     1
102
RTVSPropertyOp23
 70
     1
102
RTVSPropertyOp24
 70
     1
102
RTVSPropertyOp25
 70
     1
102
RTVSPropertyOp26
 70
     1
102
RTVSPropertyOp27
 70
     1
102
RTVSPropertyOp28
 70
     1
102
RTVSPropertyOp29
 70
     1
102
RTVSPropertyOp30
 70
     1
102
RTVSPropertyOp31
 70
     1
102
RTVSPropertyOp32
 70
     1
102
RTVSPropertyOp33
 70
     1
102
RTVSPropertyOp34
 70
     1
102
RTVSPropertyOp35
 70
     1
102
RTVSPropertyOp36
 70
     1
102
RTVSPropertyOp37
 70
     1
102
RTVSPropertyOp38
 70
     1
102
RTVSPropertyOp39
 70
     1
102
RTVSPropertyOp40
 70
     1
102
RTVSPropertyOp41
 70
     1
102
RTVSPropertyOp42
 70
     1
102
RTVSPropertyOp43
 70
     1
102
RTVSPropertyOp44
 70
     1
102
RTVSPropertyOp45
 70
     1
102
RTVSPropertyOp46
 70
     1
102
RTVSPropertyOp47
 70
     1
102
RTVSPropertyOp48
 70
     1
102
RTVSPropertyOp49
 70
     1
102
RTVSPropertyOp50
 70
     1
102
RTVSPropertyOp51
 70
     0
102
RTVSPropertyOp52
 70
     0
102
RTVSPropertyOp53
 70
     1
102
RTVSPropertyOp54
 70
     1
102
RTVSPropertyOp55
 70
     1
102
RTVSPropertyOp56
 70
     1
102
RTVSPropertyOp57
 70
     1
102
RTVSPost2010Prop28
280
     0
102
RTVSPost2010PropOp28
 70
     1
102
RTVSPost2010Prop29
280
     1
102
RTVSPost2010PropOp29
 70
     1
102
RTVSPost2010Prop30
280
     1
102
RTVSPost2010PropOp30
 70
     1
102
RTVSPost2010Prop31
280
     0
102
RTVSPost2010PropOp31
 70
     1
102
RTVSPost2010Prop32
280
     0
102
RTVSPost2010PropOp32
 70
     1
102
RTVSPost2010Prop33
280
     0
102
RTVSPost2010PropOp33
 70
     1
102
RTVSPost2010Prop34
280
     0
102
RTVSPost2010PropOp34
 70
     1
102
RTVSPost2010Prop35
280
     0
102
RTVSPost2010PropOp35
 70
     1
102
RTVSPost2010Prop36
280
     0
102
RTVSPost2010PropOp36
 70
     1
102
RTVSPost2010Prop37
 90
       50
102
RTVSPost2010PropOp37
 70
     1
102
RTVSPost2010Prop38
140
0.0
102
RTVSPost2010PropOp38
 70
     1
102
RTVSPost2010Prop39
140
1.0
102
RTVSPost2010PropOp39
 70
     1
102
RTVSPost2010Prop40
 90
        0
102
RTVSPost2010PropOp40
 70
     1
102
RTVSPost2010Prop41ColorIndex
 90
       18
102
RTVSPost2010Prop41ColorRGB
 90
        0
102
RTVSPost2010PropOp41
 70
     1
102
RTVSPost2010Prop42
 90
       50
102
RTVSPost2010PropOp42
 70
     1
102
RTVSPost2010Prop43
 90
        3
102
RTVSPost2010PropOp43
 70
     1
102
RTVSPost2010Prop44ColorIndex
 90
        5
102
RTVSPost2010Prop44ColorRGB
 90
      255
102
RTVSPost2010PropOp44
 70
     1
102
RTVSPost2010Prop45
280
     0
102
RTVSPost2010PropOp45
 70
     1
102
RTVSPost2010Prop46
 90
       50
102
RTVSPost2010PropOp46
 70
     1
102
RTVSPost2010Prop47
 90
       50
102
RTVSPost2010PropOp47
 70
     1
102
RTVSPost2010Prop48
 90
       50
102
RTVSPost2010PropOp48
 70
     1
102
RTVSPost2010Prop49
280
     0
102
RTVSPost2010PropOp49
 70
     1
102
RTVSPost2010Prop50
 90
       50
102
RTVSPost2010PropOp50
 70
     1
102
RTVSPost2010Prop51ColorIndex
 90
      256
102
RTVSPost2010Prop51ColorRGB
 90
-16777216
102
RTVSPost2010PropOp51
 70
     0
102
RTVSPost2010Prop52
140
1.0
102
RTVSPost2010PropOp52
 70
     0
102
RTVSPost2010Prop53
 90
        2
102
RTVSPost2010PropOp53
 70
     1
102
RTVSPost2010Prop54
  1
strokes_ogs.tif
102
RTVSPost2010PropOp54
 70
     1
102
RTVSPost2010Prop55
280
     0
102
RTVSPost2010PropOp55
 70
     1
102
RTVSPost2010Prop56
140
1.0
102
RTVSPost2010PropOp56
 70
     1
102
RTVSPost2010Prop57
140
1.0
102
RTVSPost2010PropOp57
 70
     1
  0
XRECORD
  5
3A2
102
{ACAD_REACTORS
330
3A1
102
}
330
3A1
100
AcDbXrecord
280
     1
102
RTVSPropertyOp0
 70
     1
102
RTVSPropertyOp1
 70
     1
102
RTVSPropertyOp2
 70
     1
102
RTVSPropertyOp3
 70
     1
102
RTVSPropertyOp4
 70
     1
102
RTVSPropertyOp5
 70
     1
102
RTVSPropertyOp6
 70
     1
102
RTVSPropertyOp7
 70
     1
102
RTVSPropertyOp8
 70
     1
102
RTVSPropertyOp9
 70
     1
102
RTVSPropertyOp10
 70
     1
102
RTVSPropertyOp11
 70
     1
102
RTVSPropertyOp12
 70
     1
102
RTVSPropertyOp13
 70
     1
102
RTVSPropertyOp14
 70
     1
102
RTVSPropertyOp15
 70
     1
102
RTVSPropertyOp16
 70
     1
102
RTVSPropertyOp17
 70
     1
102
RTVSPropertyOp18
 70
     1
102
RTVSPropertyOp19
 70
     1
102
RTVSPropertyOp20
 70
     1
102
RTVSPropertyOp21
 70
     1
102
RTVSPropertyOp22
 70
     1
102
RTVSPropertyOp23
 70
     1
102
RTVSPropertyOp24
 70
     1
102
RTVSPropertyOp25
 70
     1
102
RTVSPropertyOp26
 70
     1
102
RTVSPropertyOp27
 70
     1
102
RTVSPropertyOp28
 70
     1
102
RTVSPropertyOp29
 70
     1
102
RTVSPropertyOp30
 70
     1
102
RTVSPropertyOp31
 70
     1
102
RTVSPropertyOp32
 70
     1
102
RTVSPropertyOp33
 70
     1
102
RTVSPropertyOp34
 70
     1
102
RTVSPropertyOp35
 70
     1
102
RTVSPropertyOp36
 70
     1
102
RTVSPropertyOp37
 70
     1
102
RTVSPropertyOp38
 70
     1
102
RTVSPropertyOp39
 70
     1
102
RTVSPropertyOp40
 70
     1
102
RTVSPropertyOp41
 70
     1
102
RTVSPropertyOp42
 70
     1
102
RTVSPropertyOp43
 70
     1
102
RTVSPropertyOp44
 70
     1
102
RTVSPropertyOp45
 70
     1
102
RTVSPropertyOp46
 70
     1
102
RTVSPropertyOp47
 70
     1
102
RTVSPropertyOp48
 70
     1
102
RTVSPropertyOp49
 70
     1
102
RTVSPropertyOp50
 70
     1
102
RTVSPropertyOp51
 70
     0
102
RTVSPropertyOp52
 70
     0
102
RTVSPropertyOp53
 70
     1
102
RTVSPropertyOp54
 70
     1
102
RTVSPropertyOp55
 70
     1
102
RTVSPropertyOp56
 70
     1
102
RTVSPropertyOp57
 70
     1
102
RTVSPost2010Prop28
280
     0
102
RTVSPost2010PropOp28
 70
     1
102
RTVSPost2010Prop29
280
     1
102
RTVSPost2010PropOp29
 70
     1
102
RTVSPost2010Prop30
280
     1
102
RTVSPost2010PropOp30
 70
     1
102
RTVSPost2010Prop31
280
     0
102
RTVSPost2010PropOp31
 70
     1
102
RTVSPost2010Prop32
280
     0
102
RTVSPost2010PropOp32
 70
     1
102
RTVSPost2010Prop33
280
     0
102
RTVSPost2010PropOp33
 70
     1
102
RTVSPost2010Prop34
280
     0
102
RTVSPost2010PropOp34
 70
     1
102
RTVSPost2010Prop35
280
     0
102
RTVSPost2010PropOp35
 70
     1
102
RTVSPost2010Prop36
280
     0
102
RTVSPost2010PropOp36
 70
     1
102
RTVSPost2010Prop37
 90
       50
102
RTVSPost2010PropOp37
 70
     1
102
RTVSPost2010Prop38
140
0.0
102
RTVSPost2010PropOp38
 70
     1
102
RTVSPost2010Prop39
140
1.0
102
RTVSPost2010PropOp39
 70
     1
102
RTVSPost2010Prop40
 90
        0
102
RTVSPost2010PropOp40
 70
     1
102
RTVSPost2010Prop41ColorIndex
 90
       18
102
RTVSPost2010Prop41ColorRGB
 90
        0
102
RTVSPost2010PropOp41
 70
     1
102
RTVSPost2010Prop42
 90
       50
102
RTVSPost2010PropOp42
 70
     1
102
RTVSPost2010Prop43
 90
        3
102
RTVSPost2010PropOp43
 70
     1
102
RTVSPost2010Prop44ColorIndex
 90
        5
102
RTVSPost2010Prop44ColorRGB
 90
      255
102
RTVSPost2010PropOp44
 70
     1
102
RTVSPost2010Prop45
280
     0
102
RTVSPost2010PropOp45
 70
     1
102
RTVSPost2010Prop46
 90
       50
102
RTVSPost2010PropOp46
 70
     1
102
RTVSPost2010Prop47
 90
       50
102
RTVSPost2010PropOp47
 70
     1
102
RTVSPost2010Prop48
 90
       50
102
RTVSPost2010PropOp48
 70
     1
102
RTVSPost2010Prop49
280
     0
102
RTVSPost2010PropOp49
 70
     1
102
RTVSPost2010Prop50
 90
       50
102
RTVSPost2010PropOp50
 70
     1
102
RTVSPost2010Prop51ColorIndex
 90
      256
102
RTVSPost2010Prop51ColorRGB
 90
-16777216
102
RTVSPost2010PropOp51
 70
     0
102
RTVSPost2010Prop52
140
1.0
102
RTVSPost2010PropOp52
 70
     0
102
RTVSPost2010Prop53
 90
        2
102
RTVSPost2010PropOp53
 70
     1
102
RTVSPost2010Prop54
  1
strokes_ogs.tif
102
RTVSPost2010PropOp54
 70
     1
102
RTVSPost2010Prop55
280
     0
102
RTVSPost2010PropOp55
 70
     1
102
RTVSPost2010Prop56
140
1.0
102
RTVSPost2010PropOp56
 70
     1
102
RTVSPost2010Prop57
140
1.0
102
RTVSPost2010PropOp57
 70
     1
  0
XRECORD
  5
3A4
102
{ACAD_REACTORS
330
3A3
102
}
330
3A3
100
AcDbXrecord
280
     1
102
RTVSPropertyOp0
 70
     1
102
RTVSPropertyOp1
 70
     1
102
RTVSPropertyOp2
 70
     1
102
RTVSPropertyOp3
 70
     1
102
RTVSPropertyOp4
 70
     1
102
RTVSPropertyOp5
 70
     1
102
RTVSPropertyOp6
 70
     1
102
RTVSPropertyOp7
 70
     1
102
RTVSPropertyOp8
 70
     1
102
RTVSPropertyOp9
 70
     1
102
RTVSPropertyOp10
 70
     1
102
RTVSPropertyOp11
 70
     1
102
RTVSPropertyOp12
 70
     1
102
RTVSPropertyOp13
 70
     1
102
RTVSPropertyOp14
 70
     1
102
RTVSPropertyOp15
 70
     1
102
RTVSPropertyOp16
 70
     1
102
RTVSPropertyOp17
 70
     1
102
RTVSPropertyOp18
 70
     1
102
RTVSPropertyOp19
 70
     1
102
RTVSPropertyOp20
 70
     1
102
RTVSPropertyOp21
 70
     1
102
RTVSPropertyOp22
 70
     1
102
RTVSPropertyOp23
 70
     1
102
RTVSPropertyOp24
 70
     1
102
RTVSPropertyOp25
 70
     1
102
RTVSPropertyOp26
 70
     1
102
RTVSPropertyOp27
 70
     1
102
RTVSPropertyOp28
 70
     1
102
RTVSPropertyOp29
 70
     1
102
RTVSPropertyOp30
 70
     1
102
RTVSPropertyOp31
 70
     1
102
RTVSPropertyOp32
 70
     1
102
RTVSPropertyOp33
 70
     1
102
RTVSPropertyOp34
 70
     1
102
RTVSPropertyOp35
 70
     1
102
RTVSPropertyOp36
 70
     1
102
RTVSPropertyOp37
 70
     1
102
RTVSPropertyOp38
 70
     1
102
RTVSPropertyOp39
 70
     1
102
RTVSPropertyOp40
 70
     1
102
RTVSPropertyOp41
 70
     1
102
RTVSPropertyOp42
 70
     1
102
RTVSPropertyOp43
 70
     1
102
RTVSPropertyOp44
 70
     1
102
RTVSPropertyOp45
 70
     1
102
RTVSPropertyOp46
 70
     1
102
RTVSPropertyOp47
 70
     1
102
RTVSPropertyOp48
 70
     1
102
RTVSPropertyOp49
 70
     1
102
RTVSPropertyOp50
 70
     1
102
RTVSPropertyOp51
 70
     0
102
RTVSPropertyOp52
 70
     0
102
RTVSPropertyOp53
 70
     1
102
RTVSPropertyOp54
 70
     1
102
RTVSPropertyOp55
 70
     1
102
RTVSPropertyOp56
 70
     1
102
RTVSPropertyOp57
 70
     1
102
RTVSPost2010Prop28
280
     0
102
RTVSPost2010PropOp28
 70
     1
102
RTVSPost2010Prop29
280
     1
102
RTVSPost2010PropOp29
 70
     1
102
RTVSPost2010Prop30
280
     1
102
RTVSPost2010PropOp30
 70
     1
102
RTVSPost2010Prop31
280
     0
102
RTVSPost2010PropOp31
 70
     1
102
RTVSPost2010Prop32
280
     0
102
RTVSPost2010PropOp32
 70
     1
102
RTVSPost2010Prop33
280
     0
102
RTVSPost2010PropOp33
 70
     1
102
RTVSPost2010Prop34
280
     0
102
RTVSPost2010PropOp34
 70
     1
102
RTVSPost2010Prop35
280
     0
102
RTVSPost2010PropOp35
 70
     1
102
RTVSPost2010Prop36
280
     0
102
RTVSPost2010PropOp36
 70
     1
102
RTVSPost2010Prop37
 90
       50
102
RTVSPost2010PropOp37
 70
     1
102
RTVSPost2010Prop38
140
0.0
102
RTVSPost2010PropOp38
 70
     1
102
RTVSPost2010Prop39
140
1.0
102
RTVSPost2010PropOp39
 70
     1
102
RTVSPost2010Prop40
 90
        0
102
RTVSPost2010PropOp40
 70
     1
102
RTVSPost2010Prop41ColorIndex
 90
       18
102
RTVSPost2010Prop41ColorRGB
 90
        0
102
RTVSPost2010PropOp41
 70
     1
102
RTVSPost2010Prop42
 90
       50
102
RTVSPost2010PropOp42
 70
     1
102
RTVSPost2010Prop43
 90
        3
102
RTVSPost2010PropOp43
 70
     1
102
RTVSPost2010Prop44ColorIndex
 90
        5
102
RTVSPost2010Prop44ColorRGB
 90
      255
102
RTVSPost2010PropOp44
 70
     1
102
RTVSPost2010Prop45
280
     0
102
RTVSPost2010PropOp45
 70
     1
102
RTVSPost2010Prop46
 90
       50
102
RTVSPost2010PropOp46
 70
     1
102
RTVSPost2010Prop47
 90
       50
102
RTVSPost2010PropOp47
 70
     1
102
RTVSPost2010Prop48
 90
       50
102
RTVSPost2010PropOp48
 70
     1
102
RTVSPost2010Prop49
280
     0
102
RTVSPost2010PropOp49
 70
     1
102
RTVSPost2010Prop50
 90
       50
102
RTVSPost2010PropOp50
 70
     1
102
RTVSPost2010Prop51ColorIndex
 90
      256
102
RTVSPost2010Prop51ColorRGB
 90
-16777216
102
RTVSPost2010PropOp51
 70
     0
102
RTVSPost2010Prop52
140
1.0
102
RTVSPost2010PropOp52
 70
     0
102
RTVSPost2010Prop53
 90
        2
102
RTVSPost2010PropOp53
 70
     1
102
RTVSPost2010Prop54
  1
strokes_ogs.tif
102
RTVSPost2010PropOp54
 70
     1
102
RTVSPost2010Prop55
280
     0
102
RTVSPost2010PropOp55
 70
     1
102
RTVSPost2010Prop56
140
1.0
102
RTVSPost2010PropOp56
 70
     1
102
RTVSPost2010Prop57
140
1.0
102
RTVSPost2010PropOp57
 70
     1
  0
XRECORD
  5
394
102
{ACAD_REACTORS
330
393
102
}
330
393
100
AcDbXrecord
280
     1
102
RTVSPropertyOp0
 70
     1
102
RTVSPropertyOp1
 70
     1
102
RTVSPropertyOp2
 70
     1
102
RTVSPropertyOp3
 70
     1
102
RTVSPropertyOp4
 70
     1
102
RTVSPropertyOp5
 70
     1
102
RTVSPropertyOp6
 70
     1
102
RTVSPropertyOp7
 70
     1
102
RTVSPropertyOp8
 70
     1
102
RTVSPropertyOp9
 70
     1
102
RTVSPropertyOp10
 70
     1
102
RTVSPropertyOp11
 70
     1
102
RTVSPropertyOp12
 70
     1
102
RTVSPropertyOp13
 70
     1
102
RTVSPropertyOp14
 70
     1
102
RTVSPropertyOp15
 70
     1
102
RTVSPropertyOp16
 70
     1
102
RTVSPropertyOp17
 70
     1
102
RTVSPropertyOp18
 70
     1
102
RTVSPropertyOp19
 70
     1
102
RTVSPropertyOp20
 70
     1
102
RTVSPropertyOp21
 70
     1
102
RTVSPropertyOp22
 70
     1
102
RTVSPropertyOp23
 70
     1
102
RTVSPropertyOp24
 70
     1
102
RTVSPropertyOp25
 70
     1
102
RTVSPropertyOp26
 70
     1
102
RTVSPropertyOp27
 70
     1
102
RTVSPropertyOp28
 70
     1
102
RTVSPropertyOp29
 70
     1
102
RTVSPropertyOp30
 70
     1
102
RTVSPropertyOp31
 70
     1
102
RTVSPropertyOp32
 70
     1
102
RTVSPropertyOp33
 70
     1
102
RTVSPropertyOp34
 70
     1
102
RTVSPropertyOp35
 70
     1
102
RTVSPropertyOp36
 70
     1
102
RTVSPropertyOp37
 70
     1
102
RTVSPropertyOp38
 70
     1
102
RTVSPropertyOp39
 70
     1
102
RTVSPropertyOp40
 70
     1
102
RTVSPropertyOp41
 70
     1
102
RTVSPropertyOp42
 70
     1
102
RTVSPropertyOp43
 70
     1
102
RTVSPropertyOp44
 70
     1
102
RTVSPropertyOp45
 70
     1
102
RTVSPropertyOp46
 70
     1
102
RTVSPropertyOp47
 70
     1
102
RTVSPropertyOp48
 70
     1
102
RTVSPropertyOp49
 70
     1
102
RTVSPropertyOp50
 70
     1
102
RTVSPropertyOp51
 70
     0
102
RTVSPropertyOp52
 70
     0
102
RTVSPropertyOp53
 70
     1
102
RTVSPropertyOp54
 70
     1
102
RTVSPropertyOp55
 70
     1
102
RTVSPropertyOp56
 70
     1
102
RTVSPropertyOp57
 70
     1
102
RTVSPost2010Prop28
280
     0
102
RTVSPost2010PropOp28
 70
     1
102
RTVSPost2010Prop29
280
     1
102
RTVSPost2010PropOp29
 70
     1
102
RTVSPost2010Prop30
280
     1
102
RTVSPost2010PropOp30
 70
     1
102
RTVSPost2010Prop31
280
     0
102
RTVSPost2010PropOp31
 70
     1
102
RTVSPost2010Prop32
280
     0
102
RTVSPost2010PropOp32
 70
     1
102
RTVSPost2010Prop33
280
     0
102
RTVSPost2010PropOp33
 70
     1
102
RTVSPost2010Prop34
280
     0
102
RTVSPost2010PropOp34
 70
     1
102
RTVSPost2010Prop35
280
     0
102
RTVSPost2010PropOp35
 70
     1
102
RTVSPost2010Prop36
280
     0
102
RTVSPost2010PropOp36
 70
     1
102
RTVSPost2010Prop37
 90
       50
102
RTVSPost2010PropOp37
 70
     1
102
RTVSPost2010Prop38
140
0.0
102
RTVSPost2010PropOp38
 70
     1
102
RTVSPost2010Prop39
140
1.0
102
RTVSPost2010PropOp39
 70
     1
102
RTVSPost2010Prop40
 90
        0
102
RTVSPost2010PropOp40
 70
     1
102
RTVSPost2010Prop41ColorIndex
 90
       18
102
RTVSPost2010Prop41ColorRGB
 90
        0
102
RTVSPost2010PropOp41
 70
     1
102
RTVSPost2010Prop42
 90
       50
102
RTVSPost2010PropOp42
 70
     1
102
RTVSPost2010Prop43
 90
        3
102
RTVSPost2010PropOp43
 70
     1
102
RTVSPost2010Prop44ColorIndex
 90
        5
102
RTVSPost2010Prop44ColorRGB
 90
      255
102
RTVSPost2010PropOp44
 70
     1
102
RTVSPost2010Prop45
280
     0
102
RTVSPost2010PropOp45
 70
     1
102
RTVSPost2010Prop46
 90
       50
102
RTVSPost2010PropOp46
 70
     1
102
RTVSPost2010Prop47
 90
       50
102
RTVSPost2010PropOp47
 70
     1
102
RTVSPost2010Prop48
 90
       50
102
RTVSPost2010PropOp48
 70
     1
102
RTVSPost2010Prop49
280
     0
102
RTVSPost2010PropOp49
 70
     1
102
RTVSPost2010Prop50
 90
       50
102
RTVSPost2010PropOp50
 70
     1
102
RTVSPost2010Prop51ColorIndex
 90
      256
102
RTVSPost2010Prop51ColorRGB
 90
-16777216
102
RTVSPost2010PropOp51
 70
     0
102
RTVSPost2010Prop52
140
1.0
102
RTVSPost2010PropOp52
 70
     0
102
RTVSPost2010Prop53
 90
        2
102
RTVSPost2010PropOp53
 70
     1
102
RTVSPost2010Prop54
  1
strokes_ogs.tif
102
RTVSPost2010PropOp54
 70
     1
102
RTVSPost2010Prop55
280
     0
102
RTVSPost2010PropOp55
 70
     1
102
RTVSPost2010Prop56
140
1.0
102
RTVSPost2010PropOp56
 70
     1
102
RTVSPost2010Prop57
140
1.0
102
RTVSPost2010PropOp57
 70
     1
  0
XRECORD
  5
386
102
{ACAD_REACTORS
330
385
102
}
330
385
100
AcDbXrecord
280
     1
102
RTVSPropertyOp0
 70
     1
102
RTVSPropertyOp1
 70
     1
102
RTVSPropertyOp2
 70
     1
102
RTVSPropertyOp3
 70
     1
102
RTVSPropertyOp4
 70
     1
102
RTVSPropertyOp5
 70
     1
102
RTVSPropertyOp6
 70
     1
102
RTVSPropertyOp7
 70
     1
102
RTVSPropertyOp8
 70
     1
102
RTVSPropertyOp9
 70
     1
102
RTVSPropertyOp10
 70
     1
102
RTVSPropertyOp11
 70
     1
102
RTVSPropertyOp12
 70
     1
102
RTVSPropertyOp13
 70
     1
102
RTVSPropertyOp14
 70
     1
102
RTVSPropertyOp15
 70
     1
102
RTVSPropertyOp16
 70
     1
102
RTVSPropertyOp17
 70
     1
102
RTVSPropertyOp18
 70
     1
102
RTVSPropertyOp19
 70
     1
102
RTVSPropertyOp20
 70
     1
102
RTVSPropertyOp21
 70
     1
102
RTVSPropertyOp22
 70
     1
102
RTVSPropertyOp23
 70
     1
102
RTVSPropertyOp24
 70
     1
102
RTVSPropertyOp25
 70
     1
102
RTVSPropertyOp26
 70
     1
102
RTVSPropertyOp27
 70
     1
102
RTVSPropertyOp28
 70
     1
102
RTVSPropertyOp29
 70
     1
102
RTVSPropertyOp30
 70
     1
102
RTVSPropertyOp31
 70
     1
102
RTVSPropertyOp32
 70
     1
102
RTVSPropertyOp33
 70
     1
102
RTVSPropertyOp34
 70
     1
102
RTVSPropertyOp35
 70
     1
102
RTVSPropertyOp36
 70
     1
102
RTVSPropertyOp37
 70
     1
102
RTVSPropertyOp38
 70
     1
102
RTVSPropertyOp39
 70
     1
102
RTVSPropertyOp40
 70
     1
102
RTVSPropertyOp41
 70
     1
102
RTVSPropertyOp42
 70
     1
102
RTVSPropertyOp43
 70
     1
102
RTVSPropertyOp44
 70
     1
102
RTVSPropertyOp45
 70
     1
102
RTVSPropertyOp46
 70
     1
102
RTVSPropertyOp47
 70
     1
102
RTVSPropertyOp48
 70
     1
102
RTVSPropertyOp49
 70
     1
102
RTVSPropertyOp50
 70
     1
102
RTVSPropertyOp51
 70
     0
102
RTVSPropertyOp52
 70
     0
102
RTVSPropertyOp53
 70
     1
102
RTVSPropertyOp54
 70
     1
102
RTVSPropertyOp55
 70
     1
102
RTVSPropertyOp56
 70
     1
102
RTVSPropertyOp57
 70
     1
102
RTVSPost2010Prop28
280
     0
102
RTVSPost2010PropOp28
 70
     1
102
RTVSPost2010Prop29
280
     1
102
RTVSPost2010PropOp29
 70
     1
102
RTVSPost2010Prop30
280
     1
102
RTVSPost2010PropOp30
 70
     1
102
RTVSPost2010Prop31
280
     0
102
RTVSPost2010PropOp31
 70
     1
102
RTVSPost2010Prop32
280
     0
102
RTVSPost2010PropOp32
 70
     1
102
RTVSPost2010Prop33
280
     0
102
RTVSPost2010PropOp33
 70
     1
102
RTVSPost2010Prop34
280
     0
102
RTVSPost2010PropOp34
 70
     1
102
RTVSPost2010Prop35
280
     0
102
RTVSPost2010PropOp35
 70
     1
102
RTVSPost2010Prop36
280
     0
102
RTVSPost2010PropOp36
 70
     1
102
RTVSPost2010Prop37
 90
       50
102
RTVSPost2010PropOp37
 70
     1
102
RTVSPost2010Prop38
140
0.0
102
RTVSPost2010PropOp38
 70
     1
102
RTVSPost2010Prop39
140
1.0
102
RTVSPost2010PropOp39
 70
     1
102
RTVSPost2010Prop40
 90
        0
102
RTVSPost2010PropOp40
 70
     1
102
RTVSPost2010Prop41ColorIndex
 90
       18
102
RTVSPost2010Prop41ColorRGB
 90
        0
102
RTVSPost2010PropOp41
 70
     1
102
RTVSPost2010Prop42
 90
       50
102
RTVSPost2010PropOp42
 70
     1
102
RTVSPost2010Prop43
 90
        3
102
RTVSPost2010PropOp43
 70
     1
102
RTVSPost2010Prop44ColorIndex
 90
        5
102
RTVSPost2010Prop44ColorRGB
 90
      255
102
RTVSPost2010PropOp44
 70
     1
102
RTVSPost2010Prop45
280
     0
102
RTVSPost2010PropOp45
 70
     1
102
RTVSPost2010Prop46
 90
       50
102
RTVSPost2010PropOp46
 70
     1
102
RTVSPost2010Prop47
 90
       50
102
RTVSPost2010PropOp47
 70
     1
102
RTVSPost2010Prop48
 90
       50
102
RTVSPost2010PropOp48
 70
     1
102
RTVSPost2010Prop49
280
     0
102
RTVSPost2010PropOp49
 70
     1
102
RTVSPost2010Prop50
 90
       50
102
RTVSPost2010PropOp50
 70
     1
102
RTVSPost2010Prop51ColorIndex
 90
      256
102
RTVSPost2010Prop51ColorRGB
 90
-16777216
102
RTVSPost2010PropOp51
 70
     0
102
RTVSPost2010Prop52
140
1.0
102
RTVSPost2010PropOp52
 70
     0
102
RTVSPost2010Prop53
 90
        2
102
RTVSPost2010PropOp53
 70
     1
102
RTVSPost2010Prop54
  1
strokes_ogs.tif
102
RTVSPost2010PropOp54
 70
     1
102
RTVSPost2010Prop55
280
     0
102
RTVSPost2010PropOp55
 70
     1
102
RTVSPost2010Prop56
140
1.0
102
RTVSPost2010PropOp56
 70
     1
102
RTVSPost2010Prop57
140
1.0
102
RTVSPost2010PropOp57
 70
     1
  0
XRECORD
  5
3A6
102
{ACAD_REACTORS
330
3A5
102
}
330
3A5
100
AcDbXrecord
280
     1
102
RTVSPropertyOp0
 70
     1
102
RTVSPropertyOp1
 70
     1
102
RTVSPropertyOp2
 70
     1
102
RTVSPropertyOp3
 70
     1
102
RTVSPropertyOp4
 70
     1
102
RTVSPropertyOp5
 70
     1
102
RTVSPropertyOp6
 70
     1
102
RTVSPropertyOp7
 70
     1
102
RTVSPropertyOp8
 70
     1
102
RTVSPropertyOp9
 70
     1
102
RTVSPropertyOp10
 70
     1
102
RTVSPropertyOp11
 70
     1
102
RTVSPropertyOp12
 70
     1
102
RTVSPropertyOp13
 70
     1
102
RTVSPropertyOp14
 70
     1
102
RTVSPropertyOp15
 70
     1
102
RTVSPropertyOp16
 70
     1
102
RTVSPropertyOp17
 70
     1
102
RTVSPropertyOp18
 70
     1
102
RTVSPropertyOp19
 70
     1
102
RTVSPropertyOp20
 70
     1
102
RTVSPropertyOp21
 70
     1
102
RTVSPropertyOp22
 70
     1
102
RTVSPropertyOp23
 70
     1
102
RTVSPropertyOp24
 70
     1
102
RTVSPropertyOp25
 70
     1
102
RTVSPropertyOp26
 70
     1
102
RTVSPropertyOp27
 70
     1
102
RTVSPropertyOp28
 70
     1
102
RTVSPropertyOp29
 70
     1
102
RTVSPropertyOp30
 70
     1
102
RTVSPropertyOp31
 70
     1
102
RTVSPropertyOp32
 70
     1
102
RTVSPropertyOp33
 70
     1
102
RTVSPropertyOp34
 70
     1
102
RTVSPropertyOp35
 70
     1
102
RTVSPropertyOp36
 70
     1
102
RTVSPropertyOp37
 70
     1
102
RTVSPropertyOp38
 70
     1
102
RTVSPropertyOp39
 70
     1
102
RTVSPropertyOp40
 70
     1
102
RTVSPropertyOp41
 70
     1
102
RTVSPropertyOp42
 70
     1
102
RTVSPropertyOp43
 70
     1
102
RTVSPropertyOp44
 70
     1
102
RTVSPropertyOp45
 70
     1
102
RTVSPropertyOp46
 70
     1
102
RTVSPropertyOp47
 70
     1
102
RTVSPropertyOp48
 70
     1
102
RTVSPropertyOp49
 70
     1
102
RTVSPropertyOp50
 70
     1
102
RTVSPropertyOp51
 70
     0
102
RTVSPropertyOp52
 70
     0
102
RTVSPropertyOp53
 70
     1
102
RTVSPropertyOp54
 70
     1
102
RTVSPropertyOp55
 70
     1
102
RTVSPropertyOp56
 70
     1
102
RTVSPropertyOp57
 70
     1
102
RTVSPost2010Prop28
280
     0
102
RTVSPost2010PropOp28
 70
     1
102
RTVSPost2010Prop29
280
     1
102
RTVSPost2010PropOp29
 70
     1
102
RTVSPost2010Prop30
280
     1
102
RTVSPost2010PropOp30
 70
     1
102
RTVSPost2010Prop31
280
     0
102
RTVSPost2010PropOp31
 70
     1
102
RTVSPost2010Prop32
280
     0
102
RTVSPost2010PropOp32
 70
     1
102
RTVSPost2010Prop33
280
     0
102
RTVSPost2010PropOp33
 70
     1
102
RTVSPost2010Prop34
280
     0
102
RTVSPost2010PropOp34
 70
     1
102
RTVSPost2010Prop35
280
     0
102
RTVSPost2010PropOp35
 70
     1
102
RTVSPost2010Prop36
280
     0
102
RTVSPost2010PropOp36
 70
     1
102
RTVSPost2010Prop37
 90
       50
102
RTVSPost2010PropOp37
 70
     1
102
RTVSPost2010Prop38
140
0.0
102
RTVSPost2010PropOp38
 70
     1
102
RTVSPost2010Prop39
140
1.0
102
RTVSPost2010PropOp39
 70
     1
102
RTVSPost2010Prop40
 90
        0
102
RTVSPost2010PropOp40
 70
     1
102
RTVSPost2010Prop41ColorIndex
 90
       18
102
RTVSPost2010Prop41ColorRGB
 90
        0
102
RTVSPost2010PropOp41
 70
     1
102
RTVSPost2010Prop42
 90
       50
102
RTVSPost2010PropOp42
 70
     1
102
RTVSPost2010Prop43
 90
        3
102
RTVSPost2010PropOp43
 70
     1
102
RTVSPost2010Prop44ColorIndex
 90
        5
102
RTVSPost2010Prop44ColorRGB
 90
      255
102
RTVSPost2010PropOp44
 70
     1
102
RTVSPost2010Prop45
280
     0
102
RTVSPost2010PropOp45
 70
     1
102
RTVSPost2010Prop46
 90
       50
102
RTVSPost2010PropOp46
 70
     1
102
RTVSPost2010Prop47
 90
       50
102
RTVSPost2010PropOp47
 70
     1
102
RTVSPost2010Prop48
 90
       50
102
RTVSPost2010PropOp48
 70
     1
102
RTVSPost2010Prop49
280
     0
102
RTVSPost2010PropOp49
 70
     1
102
RTVSPost2010Prop50
 90
       50
102
RTVSPost2010PropOp50
 70
     1
102
RTVSPost2010Prop51ColorIndex
 90
      256
102
RTVSPost2010Prop51ColorRGB
 90
-16777216
102
RTVSPost2010PropOp51
 70
     0
102
RTVSPost2010Prop52
140
1.0
102
RTVSPost2010PropOp52
 70
     0
102
RTVSPost2010Prop53
 90
        2
102
RTVSPost2010PropOp53
 70
     1
102
RTVSPost2010Prop54
  1
strokes_ogs.tif
102
RTVSPost2010PropOp54
 70
     1
102
RTVSPost2010Prop55
280
     0
102
RTVSPost2010PropOp55
 70
     1
102
RTVSPost2010Prop56
140
1.0
102
RTVSPost2010PropOp56
 70
     1
102
RTVSPost2010Prop57
140
1.0
102
RTVSPost2010PropOp57
 70
     1
  0
ENDSEC
  0
EOF
