  0
SECTION
  2
HEADER
  9
$ACADVER
  1
AC1018
  9
$ACADMAINTVER
 70
     0
  9
$DWGCODEPAGE
  3
ANSI_932
  9
$INSBASE
 10
0.0
 20
0.0
 30
0.0
  9
$EXTMIN
 10
-840.0
 20
-594.0
 30
0.0
  9
$EXTMAX
 10
840.0
 20
594.0
 30
0.0
  9
$LIMMIN
 10
-840.0
 20
-594.0
  9
$LIMMAX
 10
840.0
 20
594.0
  9
$ORTHOMODE
 70
     0
  9
$REGENMODE
 70
     1
  9
$FILLMODE
 70
     1
  9
$QTEXTMODE
 70
     0
  9
$MIRRTEXT
 70
     1
  9
$LTSCALE
 40
4.0
  9
$ATTMODE
 70
     1
  9
$TEXTSIZE
 40
2.5
  9
$TRACEWID
 40
1.0
  9
$TEXTSTYLE
  7
Standard
  9
$CLAYER
  8
0
  9
$CELTYPE
  6
ByLayer
  9
$CECOLOR
 62
   256
  9
$CELTSCALE
 40
1.0
  9
$DISPSILH
 70
     0
  9
$DIMSCALE
 40
1.0
  9
$DIMASZ
 40
2.5
  9
$DIMEXO
 40
0.625
  9
$DIMDLI
 40
3.75
  9
$DIMRND
 40
0.0
  9
$DIMDLE
 40
0.0
  9
$DIMEXE
 40
1.25
  9
$DIMTP
 40
0.0
  9
$DIMTM
 40
0.0
  9
$DIMTXT
 40
2.5
  9
$DIMCEN
 40
2.5
  9
$DIMTSZ
 40
0.0
  9
$DIMTOL
 70
     0
  9
$DIMLIM
 70
     0
  9
$DIMTIH
 70
     0
  9
$DIMTOH
 70
     0
  9
$DIMSE1
 70
     0
  9
$DIMSE2
 70
     0
  9
$DIMTAD
 70
     1
  9
$DIMZIN
 70
     8
  9
$DIMBLK
  1

  9
$DIMASO
 70
     1
  9
$DIMSHO
 70
     1
  9
$DIMPOST
  1

  9
$DIMAPOST
  1

  9
$DIMALT
 70
     0
  9
$DIMALTD
 70
     3
  9
$DIMALTF
 40
0.03937007874016
  9
$DIMLFAC
 40
1.0
  9
$DIMTOFL
 70
     1
  9
$DIMTVP
 40
0.0
  9
$DIMTIX
 70
     0
  9
$DIMSOXD
 70
     0
  9
$DIMSAH
 70
     0
  9
$DIMBLK1
  1

  9
$DIMBLK2
  1

  9
$DIMSTYLE
  2
ISO-25
  9
$DIMCLRD
 70
     0
  9
$DIMCLRE
 70
     0
  9
$DIMCLRT
 70
     0
  9
$DIMTFAC
 40
1.0
  9
$DIMGAP
 40
0.625
  9
$DIMJUST
 70
     0
  9
$DIMSD1
 70
     0
  9
$DIMSD2
 70
     0
  9
$DIMTOLJ
 70
     0
  9
$DIMTZIN
 70
     8
  9
$DIMALTZ
 70
     0
  9
$DIMALTTZ
 70
     0
  9
$DIMUPT
 70
     0
  9
$DIMDEC
 70
     2
  9
$DIMTDEC
 70
     2
  9
$DIMALTU
 70
     2
  9
$DIMALTTD
 70
     3
  9
$DIMTXSTY
  7
Standard
  9
$DIMAUNIT
 70
     0
  9
$DIMADEC
 70
     0
  9
$DIMALTRND
 40
0.0
  9
$DIMAZIN
 70
     0
  9
$DIMDSEP
 70
    44
  9
$DIMATFIT
 70
     3
  9
$DIMFRAC
 70
     0
  9
$DIMLDRBLK
  1

  9
$DIMLUNIT
 70
     2
  9
$DIMLWD
 70
    -2
  9
$DIMLWE
 70
    -2
  9
$DIMTMOVE
 70
     0
  9
$LUNITS
 70
     2
  9
$LUPREC
 70
     4
  9
$SKETCHINC
 40
1.0
  9
$FILLETRAD
 40
10.0
  9
$AUNITS
 70
     0
  9
$AUPREC
 70
     0
  9
$MENU
  1
.
  9
$ELEVATION
 40
0.0
  9
$PELEVATION
 40
0.0
  9
$THICKNESS
 40
0.0
  9
$LIMCHECK
 70
     0
  9
$CHAMFERA
 40
0.0
  9
$CHAMFERB
 40
0.0
  9
$CHAMFERC
 40
0.0
  9
$CHAMFERD
 40
0.0
  9
$SKPOLY
 70
     0
  9
$TDCREATE
 40
2460095.462455255
  9
$TDUCREATE
 40
2460095.087455255
  9
$TDUPDATE
 40
2460095.462455394
  9
$TDUUPDATE
 40
2460095.087455394
  9
$TDINDWG
 40
0.0000000116
  9
$TDUSRTIMER
 40
0.0000000116
  9
$USRTIMER
 70
     1
  9
$ANGBASE
 50
0.0
  9
$ANGDIR
 70
     0
  9
$PDMODE
 70
     0
  9
$PDSIZE
 40
0.0
  9
$PLINEWID
 40
0.0
  9
$SPLFRAME
 70
     0
  9
$SPLINETYPE
 70
     6
  9
$SPLINESEGS
 70
     8
  9
$HANDSEED
  5
412
  9
$SURFTAB1
 70
     6
  9
$SURFTAB2
 70
     6
  9
$SURFTYPE
 70
     6
  9
$SURFU
 70
     6
  9
$SURFV
 70
     6
  9
$UCSBASE
  2

  9
$UCSNAME
  2

  9
$UCSORG
 10
0.0
 20
0.0
 30
0.0
  9
$UCSXDIR
 10
1.0
 20
0.0
 30
0.0
  9
$UCSYDIR
 10
0.0
 20
1.0
 30
0.0
  9
$UCSORTHOREF
  2

  9
$UCSORTHOVIEW
 70
     0
  9
$UCSORGTOP
 10
0.0
 20
0.0
 30
0.0
  9
$UCSORGBOTTOM
 10
0.0
 20
0.0
 30
0.0
  9
$UCSORGLEFT
 10
0.0
 20
0.0
 30
0.0
  9
$UCSORGRIGHT
 10
0.0
 20
0.0
 30
0.0
  9
$UCSORGFRONT
 10
0.0
 20
0.0
 30
0.0
  9
$UCSORGBACK
 10
0.0
 20
0.0
 30
0.0
  9
$PUCSBASE
  2

  9
$PUCSNAME
  2

  9
$PUCSORG
 10
0.0
 20
0.0
 30
0.0
  9
$PUCSXDIR
 10
1.0
 20
0.0
 30
0.0
  9
$PUCSYDIR
 10
0.0
 20
1.0
 30
0.0
  9
$PUCSORTHOREF
  2

  9
$PUCSORTHOVIEW
 70
     0
  9
$PUCSORGTOP
 10
0.0
 20
0.0
 30
0.0
  9
$PUCSORGBOTTOM
 10
0.0
 20
0.0
 30
0.0
  9
$PUCSORGLEFT
 10
0.0
 20
0.0
 30
0.0
  9
$PUCSORGRIGHT
 10
0.0
 20
0.0
 30
0.0
  9
$PUCSORGFRONT
 10
0.0
 20
0.0
 30
0.0
  9
$PUCSORGBACK
 10
0.0
 20
0.0
 30
0.0
  9
$USERI1
 70
     0
  9
$USERI2
 70
     0
  9
$USERI3
 70
     0
  9
$USERI4
 70
     0
  9
$USERI5
 70
     0
  9
$USERR1
 40
0.0
  9
$USERR2
 40
0.0
  9
$USERR3
 40
0.0
  9
$USERR4
 40
0.0
  9
$USERR5
 40
0.0
  9
$WORLDVIEW
 70
     1
  9
$SHADEDGE
 70
     3
  9
$SHADEDIF
 70
    70
  9
$TILEMODE
 70
     1
  9
$MAXACTVP
 70
    64
  9
$PINSBASE
 10
0.0
 20
0.0
 30
0.0
  9
$PLIMCHECK
 70
     0
  9
$PEXTMIN
 10
1.000000000000000E+20
 20
1.000000000000000E+20
 30
1.000000000000000E+20
  9
$PEXTMAX
 10
-1.000000000000000E+20
 20
-1.000000000000000E+20
 30
-1.000000000000000E+20
  9
$PLIMMIN
 10
0.0
 20
0.0
  9
$PLIMMAX
 10
420.0
 20
297.0
  9
$UNITMODE
 70
     0
  9
$VISRETAIN
 70
     1
  9
$PLINEGEN
 70
     0
  9
$PSLTSCALE
 70
     1
  9
$TREEDEPTH
 70
  3020
  9
$CMLSTYLE
  2
Standard
  9
$CMLJUST
 70
     0
  9
$CMLSCALE
 40
20.0
  9
$PROXYGRAPHICS
 70
     1
  9
$MEASUREMENT
 70
     1
  9
$CELWEIGHT
370
    -1
  9
$ENDCAPS
280
     0
  9
$JOINSTYLE
280
     0
  9
$LWDISPLAY
290
     0
  9
$INSUNITS
 70
     4
  9
$HYPERLINKBASE
  1

  9
$STYLESHEET
  1

  9
$XEDIT
290
     1
  9
$CEPSNTYPE
380
     0
  9
$PSTYLEMODE
290
     1
  9
$FINGERPRINTGUID
  2
{55E8460B-19AB-481D-A907-36FC8A887314}
  9
$VERSIONGUID
  2
{FAEB1C32-E019-11D5-929B-00C0DF256EC4}
  9
$EXTNAMES
290
     1
  9
$PSVPSCALE
 40
0.0
  9
$OLESTARTUP
290
     0
  9
$SORTENTS
280
   127
  9
$INDEXCTL
280
     0
  9
$HIDETEXT
280
     1
  9
$XCLIPFRAME
290
     0
  9
$HALOGAP
280
     0
  9
$OBSCOLOR
 70
   257
  9
$OBSLTYPE
280
     0
  9
$INTERSECTIONDISPLAY
280
     0
  9
$INTERSECTIONCOLOR
 70
   257
  9
$DIMASSOC
280
     2
  9
$PROJECTNAME
  1

  0
ENDSEC
  0
SECTION
  2
CLASSES
  0
CLASS
  1
ACDBDICTIONARYWDFLT
  2
AcDbDictionaryWithDefault
  3
ObjectDBX Classes
 90
        0
 91
        4
280
     0
281
     0
  0
CLASS
  1
VISUALSTYLE
  2
AcDbVisualStyle
  3
ObjectDBX Classes
 90
     4095
 91
        4
280
     0
281
     0
  0
CLASS
  1
MATERIAL
  2
AcDbMaterial
  3
ObjectDBX Classes
 90
     1153
 91
        4
280
     0
281
     0
  0
CLASS
  1
SCALE
  2
AcDbScale
  3
ObjectDBX Classes
 90
     1153
 91
        4
280
     0
281
     0
  0
CLASS
  1
TABLESTYLE
  2
AcDbTableStyle
  3
ObjectDBX Classes
 90
     4095
 91
        4
280
     0
281
     0
  0
CLASS
  1
MLEADERSTYLE
  2
AcDbMLeaderStyle
  3
ACDB_MLEADERSTYLE_CLASS
 90
     4095
 91
        4
280
     0
281
     0
  0
CLASS
  1
SUN
  2
AcDbSun
  3
SCENEOE
 90
     1153
 91
        4
280
     0
281
     0
  0
CLASS
  1
DICTIONARYVAR
  2
AcDbDictionaryVar
  3
ObjectDBX Classes
 90
        0
 91
        4
280
     0
281
     0
  0
CLASS
  1
CELLSTYLEMAP
  2
AcDbCellStyleMap
  3
ObjectDBX Classes
 90
     1152
 91
        4
280
     0
281
     0
  0
ENDSEC
  0
SECTION
  2
TABLES
  0
TABLE
  2
VPORT
  5
8
102
{ACAD_XDICTIONARY
360
3C9
102
}
330
0
100
AcDbSymbolTable
 70
     1
  0
VPORT
  5
29
330
8
100
AcDbSymbolTableRecord
100
AcDbViewportTableRecord
  2
*Active
 70
     0
 10
0.0
 20
0.0
 11
1.0
 21
1.0
 12
0.0
 22
0.0
 13
0.0
 23
0.0
 14
10.0
 24
10.0
 15
10.0
 25
10.0
 16
0.0
 26
0.0
 36
1.0
 17
0.0
 27
0.0
 37
0.0
 40
1306.8
 41
1.414141414141414
 42
50.0
 43
0.0
 44
0.0
 50
0.0
 51
0.0
 71
     0
 72
 10000
 73
     1
 74
     3
 75
     0
 76
     0
 77
     0
 78
     0
281
     0
 65
     1
110
0.0
120
0.0
130
0.0
111
1.0
121
0.0
131
0.0
112
0.0
122
1.0
132
0.0
 79
     0
146
0.0
  0
ENDTAB
  0
TABLE
  2
LTYPE
  5
5
330
0
100
AcDbSymbolTable
 70
     6
  0
LTYPE
  5
14
330
5
100
AcDbSymbolTableRecord
100
AcDbLinetypeTableRecord
  2
ByBlock
 70
     0
  3

 72
    65
 73
     0
 40
0.0
  0
LTYPE
  5
15
330
5
100
AcDbSymbolTableRecord
100
AcDbLinetypeTableRecord
  2
ByLayer
 70
     0
  3

 72
    65
 73
     0
 40
0.0
  0
LTYPE
  5
16
330
5
100
AcDbSymbolTableRecord
100
AcDbLinetypeTableRecord
  2
Continuous
 70
     0
  3
Solid line
 72
    65
 73
     0
 40
0.0
  0
LTYPE
  5
6F
330
5
100
AcDbSymbolTableRecord
100
AcDbLinetypeTableRecord
  2
JWW_CENTER1
 70
     0
  3
-----  --  ----------  --  -----
 72
    65
 73
     4
 40
6.773333333333333
 49
4.233333333333333
 74
     0
 49
-0.8466666666666667
 74
     0
 49
0.8466666666666667
 74
     0
 49
-0.8466666666666667
 74
     0
  0
LTYPE
  5
70
330
5
100
AcDbSymbolTableRecord
100
AcDbLinetypeTableRecord
  2
JWW_HOJO
 70
     0
  3
  -   -   -   -   -   -   -   - 
 72
    65
 73
     2
 40
1.693333333333333
 49
-1.27
 74
     0
 49
0.4233333333333333
 74
     0
  0
LTYPE
  5
71
330
5
100
AcDbSymbolTableRecord
100
AcDbLinetypeTableRecord
  2
JWW_DASHED1
 70
     0
  3
-  --  --  --  --  --  --  --  -
 72
    65
 73
     2
 40
1.693333333333333
 49
0.8466666666666667
 74
     0
 49
-0.8466666666666667
 74
     0
  0
LTYPE
  5
72
330
5
100
AcDbSymbolTableRecord
100
AcDbLinetypeTableRecord
  2
JWW_CENTER2
 70
     0
  3
-------------  --  -------------
 72
    65
 73
     4
 40
13.54666666666667
 49
11.00666666666667
 74
     0
 49
-0.8466666666666667
 74
     0
 49
0.8466666666666667
 74
     0
 49
-0.8466666666666667
 74
     0
  0
LTYPE
  5
73
330
5
100
AcDbSymbolTableRecord
100
AcDbLinetypeTableRecord
  2
JWW_DASHED2
 70
     0
  3
--    ----    ----    ----    --
 72
    65
 73
     2
 40
3.386666666666667
 49
1.693333333333333
 74
     0
 49
-1.693333333333333
 74
     0
  0
ENDTAB
  0
TABLE
  2
LAYER
  5
2
330
0
100
AcDbSymbolTable
 70
    11
  0
LAYER
  5
10
330
2
100
AcDbSymbolTableRecord
100
AcDbLayerTableRecord
  2
0
 70
     0
 62
     7
  6
Continuous
370
    -3
390
F
  0
LAYER
  5
74
330
2
100
AcDbSymbolTableRecord
100
AcDbLayerTableRecord
  2
A-0
 70
     0
 62
     7
  6
Continuous
370
    -3
390
F
  0
LAYER
  5
75
330
2
100
AcDbSymbolTableRecord
100
AcDbLayerTableRecord
  2
A-1
 70
     0
 62
     7
  6
Continuous
370
    -3
390
F
  0
LAYER
  5
76
330
2
100
AcDbSymbolTableRecord
100
AcDbLayerTableRecord
  2
A-2
 70
     0
 62
     7
  6
Continuous
370
    -3
390
F
  0
LAYER
  5
77
330
2
100
AcDbSymbolTableRecord
100
AcDbLayerTableRecord
  2
A-A
 70
     0
 62
     7
  6
Continuous
370
    -3
390
F
  0
LAYER
  5
78
330
2
100
AcDbSymbolTableRecord
100
AcDbLayerTableRecord
  2
A-8
 70
     0
 62
     7
  6
Continuous
370
    -3
390
F
  0
LAYER
  5
79
330
2
100
AcDbSymbolTableRecord
100
AcDbLayerTableRecord
  2
A-C
 70
     0
 62
     7
  6
Continuous
370
    -3
390
F
  0
LAYER
  5
7A
330
2
100
AcDbSymbolTableRecord
100
AcDbLayerTableRecord
  2
A-9
 70
     0
 62
     7
  6
Continuous
370
    -3
390
F
  0
LAYER
  5
7B
330
2
100
AcDbSymbolTableRecord
100
AcDbLayerTableRecord
  2
A-4
 70
     0
 62
     7
  6
Continuous
370
    -3
390
F
  0
LAYER
  5
7C
330
2
100
AcDbSymbolTableRecord
100
AcDbLayerTableRecord
  2
A-5
 70
     0
 62
     7
  6
Continuous
370
    -3
390
F
  0
LAYER
  5
7D
330
2
100
AcDbSymbolTableRecord
100
AcDbLayerTableRecord
  2
F-5ﾚｲﾔ
 70
     0
 62
     7
  6
Continuous
370
    -3
390
F
  0
ENDTAB
  0
TABLE
  2
STYLE
  5
3
330
0
100
AcDbSymbolTable
 70
     2
  0
STYLE
  5
11
330
3
100
AcDbSymbolTableRecord
100
AcDbTextStyleTableRecord
  2
Standard
 70
     0
 40
0.0
 41
1.0
 50
0.0
 71
     0
 42
2.5
  3
txt
  4

  0
STYLE
  5
6E
330
3
100
AcDbSymbolTableRecord
100
AcDbTextStyleTableRecord
  2
ＭＳ ゴシック
 70
     0
 40
1.0
 41
1.0
 50
0.0
 71
     0
 42
2.5
  3

  4

1001
ACAD
1000
MS Gothic
1071
    32817
  0
ENDTAB
  0
TABLE
  2
VIEW
  5
6
330
0
100
AcDbSymbolTable
 70
     0
  0
ENDTAB
  0
TABLE
  2
UCS
  5
7
330
0
100
AcDbSymbolTable
 70
     0
  0
ENDTAB
  0
TABLE
  2
APPID
  5
9
330
0
100
AcDbSymbolTable
 70
     2
  0
APPID
  5
12
330
9
100
AcDbSymbolTableRecord
100
AcDbRegAppTableRecord
  2
ACAD
 70
     0
  0
APPID
  5
408
330
9
100
AcDbSymbolTableRecord
100
AcDbRegAppTableRecord
  2
ACAD_MLEADERVER
 70
     0
  0
ENDTAB
  0
TABLE
  2
DIMSTYLE
  5
A
330
0
100
AcDbSymbolTable
 70
     1
100
AcDbDimStyleTable
  0
DIMSTYLE
105
27
330
A
100
AcDbSymbolTableRecord
100
AcDbDimStyleTableRecord
  2
ISO-25
 70
     0
 41
2.5
 42
0.625
 43
3.75
 44
1.25
 73
     0
 74
     0
 77
     1
 78
     8
140
2.5
141
2.5
143
0.03937007874016
147
0.625
171
     3
172
     1
178
     0
271
     2
272
     2
274
     3
278
    44
283
     0
284
     8
340
11
  0
ENDTAB
  0
TABLE
  2
BLOCK_RECORD
  5
1
330
0
100
AcDbSymbolTable
 70
     1
  0
BLOCK_RECORD
  5
1F
330
1
100
AcDbSymbolTableRecord
100
AcDbBlockTableRecord
  2
*Model_Space
340
22
  0
BLOCK_RECORD
  5
1B
330
1
100
AcDbSymbolTableRecord
100
AcDbBlockTableRecord
  2
*Paper_Space
340
1E
  0
BLOCK_RECORD
  5
23
330
1
100
AcDbSymbolTableRecord
100
AcDbBlockTableRecord
  2
*Paper_Space0
340
26
  0
ENDTAB
  0
ENDSEC
  0
SECTION
  2
BLOCKS
  0
BLOCK
  5
20
330
1F
100
AcDbEntity
  8
0
100
AcDbBlockBegin
  2
*Model_Space
 70
     0
 10
0.0
 20
0.0
 30
0.0
  3
*Model_Space
  1

  0
ENDBLK
  5
21
330
1F
100
AcDbEntity
  8
0
100
AcDbBlockEnd
  0
BLOCK
  5
1C
330
1B
100
AcDbEntity
 67
     1
  8
0
100
AcDbBlockBegin
  2
*Paper_Space
 70
     0
 10
0.0
 20
0.0
 30
0.0
  3
*Paper_Space
  1

  0
ENDBLK
  5
1D
330
1B
100
AcDbEntity
 67
     1
  8
0
100
AcDbBlockEnd
  0
BLOCK
  5
24
330
23
100
AcDbEntity
  8
0
100
AcDbBlockBegin
  2
*Paper_Space0
 70
     0
 10
0.0
 20
0.0
 30
0.0
  3
*Paper_Space0
  1

  0
ENDBLK
  5
25
330
23
100
AcDbEntity
  8
0
100
AcDbBlockEnd
  0
ENDSEC
  0
SECTION
  2
ENTITIES
  0
LINE
  5
7E
330
1F
100
AcDbEntity
  8
A-0
  6
JWW_CENTER1
 62
     4
370
     9
100
AcDbLine
 10
-14.48961924212806
 20
436.4874524616135
 30
0.0
 11
-14.48961924212806
 21
211.4864773193073
 31
0.0
  0
ARC
  5
7F
330
1F
100
AcDbEntity
  8
A-0
  6
Continuous
 62
     4
370
     9
100
AcDbCircle
 10
-14.48961924212806
 20
227.5615970973759
 30
0.0
 40
76.16673214002925
100
AcDbArc
 50
14.1598358154297
 51
25.84017944335939
  0
ARC
  5
80
330
1F
100
AcDbEntity
  8
A-0
  6
Continuous
 62
     4
370
     9
100
AcDbCircle
 10
-14.48961924212806
 20
227.5615970973759
 30
0.0
 40
76.16673214002925
100
AcDbArc
 50
34.15982055664062
 51
45.84017944335937
  0
ARC
  5
81
330
1F
100
AcDbEntity
  8
A-0
  6
Continuous
 62
     4
370
     9
100
AcDbCircle
 10
-14.48961924212806
 20
227.5615970973759
 30
0.0
 40
76.16673214002925
100
AcDbArc
 50
74.15979003906251
 51
85.8401336669922
  0
ARC
  5
82
330
1F
100
AcDbEntity
  8
A-0
  6
Continuous
 62
     4
370
     9
100
AcDbCircle
 10
-14.48961924212806
 20
227.5615970973759
 30
0.0
 40
76.16673214002925
100
AcDbArc
 50
94.15979003906244
 51
105.8401336669922
  0
ARC
  5
83
330
1F
100
AcDbEntity
  8
A-0
  6
Continuous
 62
     4
370
     9
100
AcDbCircle
 10
-14.48961924212806
 20
227.5615970973759
 30
0.0
 40
76.16673214002925
100
AcDbArc
 50
114.1597595214844
 51
125.8401184082031
  0
ARC
  5
84
330
1F
100
AcDbEntity
  8
A-0
  6
Continuous
 62
     4
370
     9
100
AcDbCircle
 10
-14.48961924212806
 20
227.5615970973759
 30
0.0
 40
76.16673214002925
100
AcDbArc
 50
134.1597747802735
 51
145.8401184082032
  0
ARC
  5
85
330
1F
100
AcDbEntity
  8
A-0
  6
Continuous
 62
     4
370
     9
100
AcDbCircle
 10
-14.48961924212806
 20
227.5615970973759
 30
0.0
 40
76.16673214002925
100
AcDbArc
 50
154.1597747802735
 51
165.8401184082031
  0
ARC
  5
86
330
1F
100
AcDbEntity
  8
A-0
  6
Continuous
 62
     4
370
     9
100
AcDbCircle
 10
-14.48961924212806
 20
227.5615970973759
 30
0.0
 40
76.16673214002925
100
AcDbArc
 50
174.1598358154297
 51
175.5146789550781
  0
LINE
  5
87
330
1F
100
AcDbEntity
  8
A-1
  6
Continuous
 62
     6
370
     9
100
AcDbLine
 10
92.67973452282187
 20
254.4867087869987
 30
0.0
 11
95.62574238763777
 21
255.0727492690963
 31
0.0
  0
LINE
  5
88
330
1F
100
AcDbEntity
  8
A-1
  6
Continuous
 62
     6
370
     9
100
AcDbLine
 10
91.56359198475859
 20
252.7353257162187
 30
0.0
 11
96.96132805177574
 21
253.8090313526151
 31
0.0
  0
LINE
  5
89
330
1F
100
AcDbEntity
  8
A-1
  6
Continuous
 62
     6
370
     9
100
AcDbLine
 10
80.32953087984781
 20
284.3029180130401
 30
0.0
 11
82.82699085115432
 21
285.971644503311
 31
0.0
  0
LINE
  5
8A
330
1F
100
AcDbEntity
  8
A-1
  6
Continuous
 62
     6
370
     9
100
AcDbLine
 10
78.30177531928591
 20
284.7520728558144
 30
0.0
 11
82.87772685501538
 21
287.8096355181821
 31
0.0
  0
LINE
  5
8B
330
1F
100
AcDbEntity
  8
A-1
  6
Continuous
 62
     6
370
     9
100
AcDbLine
 10
92.67973452282187
 20
254.4867087869987
 30
0.0
 11
91.56359198475859
 21
252.7353257162187
 31
0.0
  0
LINE
  5
8C
330
1F
100
AcDbEntity
  8
A-1
  6
Continuous
 62
     6
370
     9
100
AcDbLine
 10
95.62574238763777
 20
255.0727492690963
 30
0.0
 11
96.96132805177574
 21
253.8090313526151
 31
0.0
  0
LINE
  5
8D
330
1F
100
AcDbEntity
  8
A-1
  6
Continuous
 62
     6
370
     9
100
AcDbLine
 10
82.87772685501538
 20
287.8096355181821
 30
0.0
 11
82.82699085115432
 21
285.971644503311
 31
0.0
  0
LINE
  5
8E
330
1F
100
AcDbEntity
  8
A-1
  6
Continuous
 62
     6
370
     9
100
AcDbLine
 10
80.32953087984781
 20
284.3029180130401
 30
0.0
 11
78.30177531928591
 21
284.7520728558144
 31
0.0
  0
LINE
  5
8F
330
1F
100
AcDbEntity
  8
A-1
  6
Continuous
 62
     6
370
     9
100
AcDbLine
 10
74.21817111789908
 20
293.449086033281
 30
0.0
 11
76.71563108920547
 21
295.1179240040292
 31
0.0
  0
LINE
  5
90
330
1F
100
AcDbEntity
  8
A-1
  6
Continuous
 62
     6
370
     9
100
AcDbLine
 10
73.85717255917727
 20
291.4038404245131
 30
0.0
 11
78.43312409490652
 21
294.4614030868807
 31
0.0
  0
LINE
  5
91
330
1F
100
AcDbEntity
  8
A-1
  6
Continuous
 62
     6
370
     9
100
AcDbLine
 10
51.39786969377694
 20
316.2694617777213
 30
0.0
 11
53.06670766452537
 21
318.7668226552703
 31
0.0
  0
LINE
  5
92
330
1F
100
AcDbEntity
  8
A-1
  6
Continuous
 62
     6
370
     9
100
AcDbLine
 10
49.35262408500903
 20
315.9085003791586
 30
0.0
 11
52.41018674737659
 21
320.4844643016077
 31
0.0
  0
LINE
  5
93
330
1F
100
AcDbEntity
  8
A-1
  6
Continuous
 62
     6
370
     9
100
AcDbLine
 10
74.21817111789908
 20
293.449086033281
 30
0.0
 11
73.85717255917727
 21
291.4038404245131
 31
0.0
  0
LINE
  5
94
330
1F
100
AcDbEntity
  8
A-1
  6
Continuous
 62
     6
370
     9
100
AcDbLine
 10
76.71563108920547
 20
295.1179240040292
 30
0.0
 11
78.43312409490652
 21
294.4614030868807
 31
0.0
  0
LINE
  5
95
330
1F
100
AcDbEntity
  8
A-1
  6
Continuous
 62
     6
370
     9
100
AcDbLine
 10
52.41018674737659
 20
320.4844643016077
 30
0.0
 11
53.06670766452537
 21
318.7668226552703
 31
0.0
  0
LINE
  5
96
330
1F
100
AcDbEntity
  8
A-1
  6
Continuous
 62
     6
370
     9
100
AcDbLine
 10
51.39786969377694
 20
316.2694617777213
 30
0.0
 11
49.35262408500903
 21
315.9085003791586
 31
0.0
  0
LINE
  5
97
330
1F
100
AcDbEntity
  8
A-1
  6
Continuous
 62
     6
370
     9
100
AcDbLine
 10
42.25161496649802
 20
322.3807348326323
 30
0.0
 11
43.92032907004948
 21
324.8781948039387
 31
0.0
  0
LINE
  5
98
330
1F
100
AcDbEntity
  8
A-1
  6
Continuous
 62
     6
370
     9
100
AcDbLine
 10
42.70075742255271
 20
320.3530164322295
 30
0.0
 11
45.7584191786779
 21
324.9290670617164
 31
0.0
  0
LINE
  5
99
330
1F
100
AcDbEntity
  8
A-1
  6
Continuous
 62
     6
370
     9
100
AcDbLine
 10
12.4354924474947
 20
334.730950862326
 30
0.0
 11
13.02143383583477
 21
337.6769711138616
 31
0.0
  0
LINE
  5
9A
330
1F
100
AcDbEntity
  8
A-1
  6
Continuous
 62
     6
370
     9
100
AcDbLine
 10
10.6841093767146
 20
333.6148950313005
 30
0.0
 11
11.7577159193534
 21
339.0125443912798
 31
0.0
  0
LINE
  5
9B
330
1F
100
AcDbEntity
  8
A-1
  6
Continuous
 62
     6
370
     9
100
AcDbLine
 10
42.25161496649802
 20
322.3807348326323
 30
0.0
 11
42.70075742255271
 21
320.3530164322295
 31
0.0
  0
LINE
  5
9C
330
1F
100
AcDbEntity
  8
A-1
  6
Continuous
 62
     6
370
     9
100
AcDbLine
 10
43.92032907004948
 20
324.8781948039387
 30
0.0
 11
45.7584191786779
 21
324.9290670617164
 31
0.0
  0
LINE
  5
9D
330
1F
100
AcDbEntity
  8
A-1
  6
Continuous
 62
     6
370
     9
100
AcDbLine
 10
11.7577159193534
 20
339.0125443912798
 30
0.0
 11
13.02143383583477
 21
337.6769711138616
 31
0.0
  0
LINE
  5
9E
330
1F
100
AcDbEntity
  8
A-1
  6
Continuous
 62
     6
370
     9
100
AcDbLine
 10
12.4354924474947
 20
334.730950862326
 30
0.0
 11
10.6841093767146
 21
333.6148950313005
 31
0.0
  0
LINE
  5
9F
330
1F
100
AcDbEntity
  8
A-1
  6
Continuous
 62
     6
370
     9
100
AcDbLine
 10
1.646733915533971
 20
336.8770491428314
 30
0.0
 11
2.232749624192209
 21
339.8229703006094
 31
0.0
  0
LINE
  5
A0
330
1F
100
AcDbEntity
  8
A-1
  6
Continuous
 62
     6
370
     9
100
AcDbLine
 10
2.83769224054079
 20
335.1755473922536
 30
0.0
 11
3.911397876937102
 21
340.5732958459903
 31
0.0
  0
LINE
  5
A1
330
1F
100
AcDbEntity
  8
A-1
  6
Continuous
 62
     6
370
     9
100
AcDbLine
 10
-30.62607149354771
 20
336.8770491428314
 30
0.0
 11
-31.21198810844844
 21
339.8229703006094
 31
0.0
  0
LINE
  5
A2
330
1F
100
AcDbEntity
  8
A-1
  6
Continuous
 62
     6
370
     9
100
AcDbLine
 10
-31.8169307247969
 20
335.1755473922536
 30
0.0
 11
-32.89063636119333
 21
340.5732958459903
 31
0.0
  0
LINE
  5
A3
330
1F
100
AcDbEntity
  8
A-1
  6
Continuous
 62
     6
370
     9
100
AcDbLine
 10
1.646733915533971
 20
336.8770491428314
 30
0.0
 11
2.83769224054079
 21
335.1755473922536
 31
0.0
  0
LINE
  5
A4
330
1F
100
AcDbEntity
  8
A-1
  6
Continuous
 62
     6
370
     9
100
AcDbLine
 10
2.232749624192209
 20
339.8229703006094
 30
0.0
 11
3.911397876937102
 21
340.5732958459903
 31
0.0
  0
LINE
  5
A5
330
1F
100
AcDbEntity
  8
A-1
  6
Continuous
 62
     6
370
     9
100
AcDbLine
 10
-32.89063636119333
 20
340.5732958459903
 30
0.0
 11
-31.21198810844844
 21
339.8229703006094
 31
0.0
  0
LINE
  5
A6
330
1F
100
AcDbEntity
  8
A-1
  6
Continuous
 62
     6
370
     9
100
AcDbLine
 10
-30.62607149354771
 20
336.8770491428314
 30
0.0
 11
-31.8169307247969
 21
335.1755473922536
 31
0.0
  0
LINE
  5
A7
330
1F
100
AcDbEntity
  8
A-1
  6
Continuous
 62
     6
370
     9
100
AcDbLine
 10
-41.41473093175095
 20
334.730950862326
 30
0.0
 11
-42.00077141384854
 21
337.6769711138616
 31
0.0
  0
LINE
  5
A8
330
1F
100
AcDbEntity
  8
A-1
  6
Continuous
 62
     6
370
     9
100
AcDbLine
 10
-39.66334786097086
 20
333.6148950313005
 30
0.0
 11
-40.73705349736728
 21
339.0125443912798
 31
0.0
  0
LINE
  5
A9
330
1F
100
AcDbEntity
  8
A-1
  6
Continuous
 62
     6
370
     9
100
AcDbLine
 10
-71.2309525445118
 20
322.3807348326323
 30
0.0
 11
-72.89966664806325
 21
324.8781948039387
 31
0.0
  0
LINE
  5
AA
330
1F
100
AcDbEntity
  8
A-1
  6
Continuous
 62
     6
370
     9
100
AcDbLine
 10
-71.68009500056648
 20
320.3530164322295
 30
0.0
 11
-74.73770720981297
 21
324.9290670617164
 31
0.0
  0
LINE
  5
AB
330
1F
100
AcDbEntity
  8
A-1
  6
Continuous
 62
     6
370
     9
100
AcDbLine
 10
-41.41473093175095
 20
334.730950862326
 30
0.0
 11
-39.66334786097086
 21
333.6148950313005
 31
0.0
  0
LINE
  5
AC
330
1F
100
AcDbEntity
  8
A-1
  6
Continuous
 62
     6
370
     9
100
AcDbLine
 10
-42.00077141384854
 20
337.6769711138616
 30
0.0
 11
-40.73705349736728
 21
339.0125443912798
 31
0.0
  0
LINE
  5
AD
330
1F
100
AcDbEntity
  8
A-1
  6
Continuous
 62
     6
370
     9
100
AcDbLine
 10
-74.73770720981297
 20
324.9290670617164
 30
0.0
 11
-72.89966664806325
 21
324.8781948039387
 31
0.0
  0
LINE
  5
AE
330
1F
100
AcDbEntity
  8
A-1
  6
Continuous
 62
     6
370
     9
100
AcDbLine
 10
-71.2309525445118
 20
322.3807348326323
 30
0.0
 11
-71.68009500056648
 21
320.3530164322295
 31
0.0
  0
LINE
  5
AF
330
1F
100
AcDbEntity
  8
A-1
  6
Continuous
 62
     6
370
     9
100
AcDbLine
 10
-80.37720727179074
 20
316.2694617777213
 30
0.0
 11
-82.04594614878154
 21
318.7668226552703
 31
0.0
  0
LINE
  5
B0
330
1F
100
AcDbEntity
  8
A-1
  6
Continuous
 62
     6
370
     9
100
AcDbLine
 10
-78.33191211614398
 20
315.9085003791586
 30
0.0
 11
-81.3895243253905
 21
320.4843652078501
 31
0.0
  0
LINE
  5
B1
330
1F
100
AcDbEntity
  8
A-1
  6
Continuous
 62
     6
370
     9
100
AcDbLine
 10
-103.1974343755948
 20
293.449086033281
 30
0.0
 11
-105.6948448000225
 21
295.1179240040292
 31
0.0
  0
LINE
  5
B2
330
1F
100
AcDbEntity
  8
A-1
  6
Continuous
 62
     6
370
     9
100
AcDbLine
 10
-102.836510137191
 20
291.4038404245131
 30
0.0
 11
-107.4124864463598
 21
294.4614030868807
 31
0.0
  0
LINE
  5
B3
330
1F
100
AcDbEntity
  8
A-1
  6
Continuous
 62
     6
370
     9
100
AcDbLine
 10
-80.37720727179074
 20
316.2694617777213
 30
0.0
 11
-78.33191211614398
 21
315.9085003791586
 31
0.0
  0
LINE
  5
B4
330
1F
100
AcDbEntity
  8
A-1
  6
Continuous
 62
     6
370
     9
100
AcDbLine
 10
-82.04594614878154
 20
318.7668226552703
 30
0.0
 11
-81.3895243253905
 21
320.4843652078501
 31
0.0
  0
LINE
  5
B5
330
1F
100
AcDbEntity
  8
A-1
  6
Continuous
 62
     6
370
     9
100
AcDbLine
 10
-107.4124864463598
 20
294.4614030868807
 30
0.0
 11
-105.6948448000225
 21
295.1179240040292
 31
0.0
  0
LINE
  5
B6
330
1F
100
AcDbEntity
  8
A-1
  6
Continuous
 62
     6
370
     9
100
AcDbLine
 10
-103.1974343755948
 20
293.449086033281
 30
0.0
 11
-102.836510137191
 21
291.4038404245131
 31
0.0
  0
LINE
  5
B7
330
1F
100
AcDbEntity
  8
A-1
  6
Continuous
 62
     6
370
     9
100
AcDbLine
 10
-109.308818910983
 20
284.3029180130401
 30
0.0
 11
-111.8062293354106
 21
285.971644503311
 31
0.0
  0
LINE
  5
B8
330
1F
100
AcDbEntity
  8
A-1
  6
Continuous
 62
     6
370
     9
100
AcDbLine
 10
-107.2810385769816
 20
284.7520728558144
 30
0.0
 11
-111.8570892064685
 21
287.8096355181821
 31
0.0
  0
LINE
  5
B9
330
1F
100
AcDbEntity
  8
A-1
  6
Continuous
 62
     6
370
     9
100
AcDbLine
 10
-121.6590721008358
 20
254.4867087869987
 30
0.0
 11
-124.604980871894
 21
255.0727492690963
 31
0.0
  0
LINE
  5
BA
330
1F
100
AcDbEntity
  8
A-1
  6
Continuous
 62
     6
370
     9
100
AcDbLine
 10
-120.5428800158937
 20
252.7353257162187
 30
0.0
 11
-125.940566536032
 21
253.8090313526151
 31
0.0
  0
LINE
  5
BB
330
1F
100
AcDbEntity
  8
A-1
  6
Continuous
 62
     6
370
     9
100
AcDbLine
 10
-109.308818910983
 20
284.3029180130401
 30
0.0
 11
-107.2810385769816
 21
284.7520728558144
 31
0.0
  0
LINE
  5
BC
330
1F
100
AcDbEntity
  8
A-1
  6
Continuous
 62
     6
370
     9
100
AcDbLine
 10
-111.8062293354106
 20
285.971644503311
 30
0.0
 11
-111.8570892064685
 21
287.8096355181821
 31
0.0
  0
LINE
  5
BD
330
1F
100
AcDbEntity
  8
A-1
  6
Continuous
 62
     6
370
     9
100
AcDbLine
 10
-125.940566536032
 20
253.8090313526151
 30
0.0
 11
-124.604980871894
 21
255.0727492690963
 31
0.0
  0
LINE
  5
BE
330
1F
100
AcDbEntity
  8
A-1
  6
Continuous
 62
     6
370
     9
100
AcDbLine
 10
-121.6590721008358
 20
254.4867087869987
 30
0.0
 11
-120.5428800158937
 21
252.7353257162187
 31
0.0
  0
LINE
  5
BF
330
1F
100
AcDbEntity
  8
A-1
  6
Continuous
 62
     6
370
     9
100
AcDbLine
 10
94.82585757676661
 20
243.6980493487955
 30
0.0
 11
97.77166725406737
 21
244.2839659636962
 31
0.0
  0
LINE
  5
C0
330
1F
100
AcDbEntity
  8
A-1
  6
Continuous
 62
     6
370
     9
100
AcDbLine
 10
93.12431866602974
 20
244.8889085800448
 30
0.0
 11
98.52205473304677
 21
245.9626142164412
 31
0.0
  0
LINE
  5
C1
330
1F
100
AcDbEntity
  8
A-1
  6
Continuous
 62
     6
370
     9
100
AcDbLine
 10
98.52205473304677
 20
245.9626142164412
 30
0.0
 11
97.77166725406737
 21
244.2839659636962
 31
0.0
  0
LINE
  5
C2
330
1F
100
AcDbEntity
  8
A-1
  6
Continuous
 62
     6
370
     9
100
AcDbLine
 10
94.82585757676661
 20
243.6980493487955
 30
0.0
 11
93.12431866602974
 21
244.8889085800448
 31
0.0
  0
LINE
  5
C3
330
1F
100
AcDbEntity
  8
A-1
  6
Continuous
 62
     6
370
     9
100
AcDbLine
 10
-123.8050712875835
 20
243.6980493487955
 30
0.0
 11
-126.7510048320813
 21
244.2839659636962
 31
0.0
  0
LINE
  5
C4
330
1F
100
AcDbEntity
  8
A-1
  6
Continuous
 62
     6
370
     9
100
AcDbLine
 10
-122.1036314706042
 20
244.8889085800448
 30
0.0
 11
-127.5013923110607
 21
245.9626142164412
 31
0.0
  0
LINE
  5
C5
330
1F
100
AcDbEntity
  8
A-1
  6
Continuous
 62
     6
370
     9
100
AcDbLine
 10
-127.5013923110607
 20
245.9626142164412
 30
0.0
 11
-126.7510048320813
 21
244.2839659636962
 31
0.0
  0
LINE
  5
C6
330
1F
100
AcDbEntity
  8
A-1
  6
Continuous
 62
     6
370
     9
100
AcDbLine
 10
-123.8050712875835
 20
243.6980493487955
 30
0.0
 11
-122.1036314706042
 21
244.8889085800448
 31
0.0
  0
ARC
  5
C7
330
1F
100
AcDbEntity
  8
A-1
  6
Continuous
 62
     6
370
     9
100
AcDbCircle
 10
-14.48961924212806
 20
227.5615970973759
 30
0.0
 40
110.4999940496614
100
AcDbArc
 50
14.10302734375001
 51
30.89695739746094
  0
ARC
  5
C8
330
1F
100
AcDbEntity
  8
A-1
  6
Continuous
 62
     6
370
     9
100
AcDbCircle
 10
-14.48961924212806
 20
227.5615970973759
 30
0.0
 40
113.4999956256174
100
AcDbArc
 50
14.02755737304687
 51
30.97242736816405
  0
ARC
  5
C9
330
1F
100
AcDbEntity
  8
A-1
  6
Continuous
 62
     6
370
     9
100
AcDbCircle
 10
-14.48961924212806
 20
227.5615970973759
 30
0.0
 40
114.5000126665623
100
AcDbArc
 50
13.25202941894532
 51
31.74798583984376
  0
ARC
  5
CA
330
1F
100
AcDbEntity
  8
A-1
  6
Continuous
 62
     6
370
     9
100
AcDbCircle
 10
-14.48961924212806
 20
227.5615970973759
 30
0.0
 40
108.9999994550433
100
AcDbArc
 50
13.35308837890625
 51
31.64689636230469
  0
ARC
  5
CB
330
1F
100
AcDbEntity
  8
A-1
  6
Continuous
 62
     6
370
     9
100
AcDbCircle
 10
-14.48961924212806
 20
227.5615970973759
 30
0.0
 40
110.4999940496614
100
AcDbArc
 50
36.60302734374999
 51
53.39695739746093
  0
ARC
  5
CC
330
1F
100
AcDbEntity
  8
A-1
  6
Continuous
 62
     6
370
     9
100
AcDbCircle
 10
-14.48961924212806
 20
227.5615970973759
 30
0.0
 40
113.4999956256174
100
AcDbArc
 50
36.52755737304688
 51
53.47242736816406
  0
ARC
  5
CD
330
1F
100
AcDbEntity
  8
A-1
  6
Continuous
 62
     6
370
     9
100
AcDbCircle
 10
-14.48961924212806
 20
227.5615970973759
 30
0.0
 40
114.5000126665623
100
AcDbArc
 50
35.75202941894531
 51
54.24798583984375
  0
ARC
  5
CE
330
1F
100
AcDbEntity
  8
A-1
  6
Continuous
 62
     6
370
     9
100
AcDbCircle
 10
-14.48961924212806
 20
227.5615970973759
 30
0.0
 40
108.9999994550433
100
AcDbArc
 50
35.85308837890625
 51
54.14689636230469
  0
ARC
  5
CF
330
1F
100
AcDbEntity
  8
A-1
  6
Continuous
 62
     6
370
     9
100
AcDbCircle
 10
-14.48961924212806
 20
227.5615970973759
 30
0.0
 40
110.4999940496614
100
AcDbArc
 50
59.10302734375
 51
75.89695739746092
  0
ARC
  5
D0
330
1F
100
AcDbEntity
  8
A-1
  6
Continuous
 62
     6
370
     9
100
AcDbCircle
 10
-14.48961924212806
 20
227.5615970973759
 30
0.0
 40
113.4999956256174
100
AcDbArc
 50
59.02755737304688
 51
75.97242736816406
  0
ARC
  5
D1
330
1F
100
AcDbEntity
  8
A-1
  6
Continuous
 62
     6
370
     9
100
AcDbCircle
 10
-14.48961924212806
 20
227.5615970973759
 30
0.0
 40
114.5000126665623
100
AcDbArc
 50
58.25202941894531
 51
76.74798583984374
  0
ARC
  5
D2
330
1F
100
AcDbEntity
  8
A-1
  6
Continuous
 62
     6
370
     9
100
AcDbCircle
 10
-14.48961924212806
 20
227.5615970973759
 30
0.0
 40
108.9999994550433
100
AcDbArc
 50
58.35308837890625
 51
76.64689636230469
  0
ARC
  5
D3
330
1F
100
AcDbEntity
  8
A-1
  6
Continuous
 62
     6
370
     9
100
AcDbCircle
 10
-14.48961924212806
 20
227.5615970973759
 30
0.0
 40
110.4999940496614
100
AcDbArc
 50
81.60302734375001
 51
98.39695739746095
  0
ARC
  5
D4
330
1F
100
AcDbEntity
  8
A-1
  6
Continuous
 62
     6
370
     9
100
AcDbCircle
 10
-14.48961924212806
 20
227.5615970973759
 30
0.0
 40
113.4999956256174
100
AcDbArc
 50
81.5275573730469
 51
98.47242736816409
  0
ARC
  5
D5
330
1F
100
AcDbEntity
  8
A-1
  6
Continuous
 62
     6
370
     9
100
AcDbCircle
 10
-14.48961924212806
 20
227.5615970973759
 30
0.0
 40
114.5000126665623
100
AcDbArc
 50
80.75202941894531
 51
99.24798583984375
  0
ARC
  5
D6
330
1F
100
AcDbEntity
  8
A-1
  6
Continuous
 62
     6
370
     9
100
AcDbCircle
 10
-14.48961924212806
 20
227.5615970973759
 30
0.0
 40
110.4999940496614
100
AcDbArc
 50
104.10302734375
 51
120.896957397461
  0
ARC
  5
D7
330
1F
100
AcDbEntity
  8
A-1
  6
Continuous
 62
     6
370
     9
100
AcDbCircle
 10
-14.48961924212806
 20
227.5615970973759
 30
0.0
 40
113.4999956256174
100
AcDbArc
 50
104.0275573730469
 51
120.9724273681641
  0
ARC
  5
D8
330
1F
100
AcDbEntity
  8
A-1
  6
Continuous
 62
     6
370
     9
100
AcDbCircle
 10
-14.48961924212806
 20
227.5615970973759
 30
0.0
 40
114.5000126665623
100
AcDbArc
 50
103.2520294189453
 51
121.7479858398438
  0
ARC
  5
D9
330
1F
100
AcDbEntity
  8
A-1
  6
Continuous
 62
     6
370
     9
100
AcDbCircle
 10
-14.48961924212806
 20
227.5615970973759
 30
0.0
 40
108.9999994550433
100
AcDbArc
 50
103.3530883789062
 51
121.6468963623047
  0
ARC
  5
DA
330
1F
100
AcDbEntity
  8
A-1
  6
Continuous
 62
     6
370
     9
100
AcDbCircle
 10
-14.48961924212806
 20
227.5615970973759
 30
0.0
 40
110.4999940496614
100
AcDbArc
 50
126.60302734375
 51
143.3969573974609
  0
ARC
  5
DB
330
1F
100
AcDbEntity
  8
A-1
  6
Continuous
 62
     6
370
     9
100
AcDbCircle
 10
-14.48961924212806
 20
227.5615970973759
 30
0.0
 40
113.4999956256174
100
AcDbArc
 50
126.5275573730469
 51
143.4724273681641
  0
ARC
  5
DC
330
1F
100
AcDbEntity
  8
A-1
  6
Continuous
 62
     6
370
     9
100
AcDbCircle
 10
-14.48961924212806
 20
227.5615970973759
 30
0.0
 40
114.5000126665623
100
AcDbArc
 50
125.7520294189453
 51
144.2479858398438
  0
ARC
  5
DD
330
1F
100
AcDbEntity
  8
A-1
  6
Continuous
 62
     6
370
     9
100
AcDbCircle
 10
-14.48961924212806
 20
227.5615970973759
 30
0.0
 40
108.9999994550433
100
AcDbArc
 50
125.8530883789063
 51
144.1468963623047
  0
ARC
  5
DE
330
1F
100
AcDbEntity
  8
A-1
  6
Continuous
 62
     6
370
     9
100
AcDbCircle
 10
-14.48961924212806
 20
227.5615970973759
 30
0.0
 40
110.4999940496614
100
AcDbArc
 50
149.1030273437501
 51
165.896957397461
  0
ARC
  5
DF
330
1F
100
AcDbEntity
  8
A-1
  6
Continuous
 62
     6
370
     9
100
AcDbCircle
 10
-14.48961924212806
 20
227.5615970973759
 30
0.0
 40
113.4999956256174
100
AcDbArc
 50
149.0275573730469
 51
165.9724273681641
  0
ARC
  5
E0
330
1F
100
AcDbEntity
  8
A-1
  6
Continuous
 62
     6
370
     9
100
AcDbCircle
 10
-14.48961924212806
 20
227.5615970973759
 30
0.0
 40
114.5000126665623
100
AcDbArc
 50
148.2520294189453
 51
166.7479858398437
  0
ARC
  5
E1
330
1F
100
AcDbEntity
  8
A-1
  6
Continuous
 62
     6
370
     9
100
AcDbCircle
 10
-14.48961924212806
 20
227.5615970973759
 30
0.0
 40
108.9999994550433
100
AcDbArc
 50
148.3530883789062
 51
166.6468963623047
  0
ARC
  5
E2
330
1F
100
AcDbEntity
  8
A-1
  6
Continuous
 62
     6
370
     9
100
AcDbCircle
 10
-14.48961924212806
 20
227.5615970973759
 30
0.0
 40
108.9999994550433
100
AcDbArc
 50
5.362579345703131
 51
9.146896362304693
  0
ARC
  5
E3
330
1F
100
AcDbEntity
  8
A-1
  6
Continuous
 62
     6
370
     9
100
AcDbCircle
 10
-14.48961924212806
 20
227.5615970973759
 30
0.0
 40
108.9999994550433
100
AcDbArc
 50
170.8531036376954
 51
174.637420654297
  0
ARC
  5
E4
330
1F
100
AcDbEntity
  8
A-1
  6
Continuous
 62
     6
370
     9
100
AcDbCircle
 10
-14.48961924212806
 20
227.5615970973759
 30
0.0
 40
109.3509647708142
100
AcDbArc
 50
175.1908111572266
 51
180.0
  0
ARC
  5
E5
330
1F
100
AcDbEntity
  8
A-1
  6
Continuous
 62
     6
370
     9
100
AcDbCircle
 10
-14.48961924212806
 20
227.5615970973759
 30
0.0
 40
110.4999940496614
100
AcDbArc
 50
171.6030426025391
 51
180.0
  0
ARC
  5
E6
330
1F
100
AcDbEntity
  8
A-1
  6
Continuous
 62
     6
370
     9
100
AcDbCircle
 10
-14.48961924212806
 20
227.5615970973759
 30
0.0
 40
113.4999956256174
100
AcDbArc
 50
171.527572631836
 51
180.0
  0
ARC
  5
E7
330
1F
100
AcDbEntity
  8
A-1
  6
Continuous
 62
     6
370
     9
100
AcDbCircle
 10
-14.48961924212806
 20
227.5615970973759
 30
0.0
 40
114.5000126665623
100
AcDbArc
 50
170.7520141601562
 51
180.0
  0
ARC
  5
E8
330
1F
100
AcDbEntity
  8
A-1
  6
Continuous
 62
     6
370
     9
100
AcDbCircle
 10
-14.48961924212806
 20
227.5615970973759
 30
0.0
 40
108.9999994550433
100
AcDbArc
 50
93.21452331542962
 51
99.14689636230463
  0
ARC
  5
E9
330
1F
100
AcDbEntity
  8
A-1
  6
Continuous
 62
     6
370
     9
100
AcDbCircle
 10
-14.48961924212806
 20
227.5615970973759
 30
0.0
 40
108.9999994550433
100
AcDbArc
 50
80.85308837890625
 51
86.78547668457031
  0
ARC
  5
EA
330
1F
100
AcDbEntity
  8
A-1
  6
Continuous
 62
     6
370
     9
100
AcDbCircle
 10
-14.48961924212806
 20
227.5615970973759
 30
0.0
 40
109.3509647708142
100
AcDbArc
 50
87.33041381835935
 51
92.66958618164061
  0
ARC
  5
EB
330
1F
100
AcDbEntity
  8
A-1
  6
Continuous
 62
     6
370
     9
100
AcDbCircle
 10
-121.0213046773018
 20
237.561618866189
 30
0.0
 40
2.000000018410701
100
AcDbArc
 50
174.6373901367188
 51
216.4017791748047
  0
ARC
  5
EC
330
1F
100
AcDbEntity
  8
A-1
  6
Continuous
 62
     6
370
     9
100
AcDbCircle
 10
-121.4626187265107
 20
236.5616885322819
 30
0.0
 40
2.000000018410701
100
AcDbArc
 50
175.1904449462891
 51
230.5632629394531
  0
ARC
  5
ED
330
1F
100
AcDbEntity
  8
A-1
  6
Continuous
 62
     6
370
     9
100
AcDbCircle
 10
-9.489645517880646
 20
334.7960802344699
 30
0.0
 40
2.000000018410701
100
AcDbArc
 50
87.33023071289062
 51
142.7010955810547
  0
ARC
  5
EE
330
1F
100
AcDbEntity
  8
A-1
  6
Continuous
 62
     6
370
     9
100
AcDbCircle
 10
-8.489690410534237
 20
334.3932517233459
 30
0.0
 40
2.000000018410701
100
AcDbArc
 50
86.78555297851562
 51
128.5486602783203
  0
ARC
  5
EF
330
1F
100
AcDbEntity
  8
A-1
  6
Continuous
 62
     6
370
     9
100
AcDbCircle
 10
-19.48959296637547
 20
334.7960802344699
 30
0.0
 40
2.000000018410701
100
AcDbArc
 50
37.29718017578126
 51
92.66976928710939
  0
ARC
  5
F0
330
1F
100
AcDbEntity
  8
A-1
  6
Continuous
 62
     6
370
     9
100
AcDbCircle
 10
-20.4896471674795
 20
334.3932517233459
 30
0.0
 40
2.000000018410701
100
AcDbArc
 50
51.44956970214844
 51
93.21444702148438
  0
ARC
  5
F1
330
1F
100
AcDbEntity
  8
A-1
  6
Continuous
 62
     6
370
     9
100
AcDbCircle
 10
92.48338024225443
 20
236.5616885322819
 30
0.0
 40
2.000000018410701
100
AcDbArc
 50
309.4405364990235
 51
4.809555053710945
  0
ARC
  5
F2
330
1F
100
AcDbEntity
  8
A-1
  6
Continuous
 62
     6
370
     9
100
AcDbCircle
 10
92.04201664616669
 20
237.561618866189
 30
0.0
 40
2.000000018410701
100
AcDbArc
 50
323.6013488769531
 51
5.362609863281249
  0
ARC
  5
F3
330
1F
100
AcDbEntity
  8
A-1
  6
Continuous
 62
     6
370
     9
100
AcDbCircle
 10
-14.48961924212806
 20
227.5615970973759
 30
0.0
 40
86.55463164929718
100
AcDbArc
 50
0.0
 51
5.514144897460938
  0
ARC
  5
F4
330
1F
100
AcDbEntity
  8
A-1
  6
Continuous
 62
     6
370
     9
100
AcDbCircle
 10
-14.48961924212806
 20
227.5615970973759
 30
0.0
 40
86.55463164929718
100
AcDbArc
 50
14.1598358154297
 51
25.84019470214845
  0
ARC
  5
F5
330
1F
100
AcDbEntity
  8
A-1
  6
Continuous
 62
     6
370
     9
100
AcDbCircle
 10
-14.48961924212806
 20
227.5615970973759
 30
0.0
 40
77.99999142797758
100
AcDbArc
 50
0.0
 51
5.840164184570312
  0
ARC
  5
F6
330
1F
100
AcDbEntity
  8
A-1
  6
Continuous
 62
     6
370
     9
100
AcDbCircle
 10
-14.48961924212806
 20
227.5615970973759
 30
0.0
 40
77.99999142797758
100
AcDbArc
 50
14.15982055664063
 51
25.84017944335938
  0
ARC
  5
F7
330
1F
100
AcDbEntity
  8
A-1
  6
Continuous
 62
     6
370
     9
100
AcDbCircle
 10
-14.48961924212806
 20
227.5615970973759
 30
0.0
 40
86.55463164929718
100
AcDbArc
 50
34.15982055664062
 51
45.84017944335937
  0
ARC
  5
F8
330
1F
100
AcDbEntity
  8
A-1
  6
Continuous
 62
     6
370
     9
100
AcDbCircle
 10
-14.48961924212806
 20
227.5615970973759
 30
0.0
 40
77.99999142797758
100
AcDbArc
 50
34.15982055664062
 51
45.84017944335937
  0
ARC
  5
F9
330
1F
100
AcDbEntity
  8
A-1
  6
Continuous
 62
     6
370
     9
100
AcDbCircle
 10
-14.48961924212806
 20
227.5615970973759
 30
0.0
 40
90.2868493864435
100
AcDbArc
 50
54.15982055664065
 51
65.8401794433594
  0
ARC
  5
FA
330
1F
100
AcDbEntity
  8
A-1
  6
Continuous
 62
     6
370
     9
100
AcDbCircle
 10
25.51041828624493
 20
296.8436913384849
 30
0.0
 40
12.00000011046421
100
AcDbArc
 50
203.1246948242188
 51
276.8754425048829
  0
ARC
  5
FB
330
1F
100
AcDbEntity
  8
A-1
  6
Continuous
 62
     6
370
     9
100
AcDbCircle
 10
25.51041828624493
 20
296.8436913384849
 30
0.0
 40
13.00000011966956
100
AcDbArc
 50
207.179916381836
 51
272.8199920654297
  0
ARC
  5
FC
330
1F
100
AcDbEntity
  8
A-1
  6
Continuous
 62
     6
370
     9
100
AcDbCircle
 10
-14.48961924212806
 20
227.5615970973759
 30
0.0
 40
77.00001154719172
100
AcDbArc
 50
34.15982055664062
 51
45.84017944335937
  0
ARC
  5
FD
330
1F
100
AcDbEntity
  8
A-1
  6
Continuous
 62
     6
370
     9
100
AcDbCircle
 10
-14.48961924212806
 20
227.5615970973759
 30
0.0
 40
86.55463164929718
100
AcDbArc
 50
74.15980529785155
 51
85.84014892578124
  0
ARC
  5
FE
330
1F
100
AcDbEntity
  8
A-1
  6
Continuous
 62
     6
370
     9
100
AcDbCircle
 10
-14.48961924212806
 20
227.5615970973759
 30
0.0
 40
77.00001154719172
100
AcDbArc
 50
74.15979003906251
 51
85.8401336669922
  0
ARC
  5
FF
330
1F
100
AcDbEntity
  8
A-1
  6
Continuous
 62
     6
370
     9
100
AcDbCircle
 10
-14.48961924212806
 20
227.5615970973759
 30
0.0
 40
77.99999142797758
100
AcDbArc
 50
74.15979003906251
 51
85.8401336669922
  0
ARC
  5
100
330
1F
100
AcDbEntity
  8
A-1
  6
Continuous
 62
     6
370
     9
100
AcDbCircle
 10
-14.48961924212806
 20
227.5615970973759
 30
0.0
 40
86.55463164929718
100
AcDbArc
 50
94.15977478027345
 51
105.8401336669922
  0
ARC
  5
101
330
1F
100
AcDbEntity
  8
A-1
  6
Continuous
 62
     6
370
     9
100
AcDbCircle
 10
-14.48961924212806
 20
227.5615970973759
 30
0.0
 40
77.99999142797758
100
AcDbArc
 50
94.15977478027345
 51
105.8401336669922
  0
ARC
  5
102
330
1F
100
AcDbEntity
  8
A-1
  6
Continuous
 62
     6
370
     9
100
AcDbCircle
 10
-14.48961924212806
 20
227.5615970973759
 30
0.0
 40
77.00001154719172
100
AcDbArc
 50
94.15977478027345
 51
105.8401184082031
  0
ARC
  5
103
330
1F
100
AcDbEntity
  8
A-1
  6
Continuous
 62
     6
370
     9
100
AcDbCircle
 10
-14.48961924212806
 20
227.5615970973759
 30
0.0
 40
77.00001154719172
100
AcDbArc
 50
114.1597747802735
 51
125.8401184082031
  0
ARC
  5
104
330
1F
100
AcDbEntity
  8
A-1
  6
Continuous
 62
     6
370
     9
100
AcDbCircle
 10
-14.48961924212806
 20
227.5615970973759
 30
0.0
 40
77.99999142797758
100
AcDbArc
 50
114.1597595214844
 51
125.8401184082031
  0
ARC
  5
105
330
1F
100
AcDbEntity
  8
A-1
  6
Continuous
 62
     6
370
     9
100
AcDbCircle
 10
-14.48961924212806
 20
227.5615970973759
 30
0.0
 40
86.55463164929718
100
AcDbArc
 50
114.1597747802735
 51
125.8401184082031
  0
ARC
  5
106
330
1F
100
AcDbEntity
  8
A-1
  6
Continuous
 62
     6
370
     9
100
AcDbCircle
 10
-14.48961924212806
 20
227.5615970973759
 30
0.0
 40
86.55463164929718
100
AcDbArc
 50
134.1597595214844
 51
145.8401184082031
  0
ARC
  5
107
330
1F
100
AcDbEntity
  8
A-1
  6
Continuous
 62
     6
370
     9
100
AcDbCircle
 10
-14.48961924212806
 20
227.5615970973759
 30
0.0
 40
77.00001154719172
100
AcDbArc
 50
134.1597747802735
 51
145.8401184082032
  0
ARC
  5
108
330
1F
100
AcDbEntity
  8
A-1
  6
Continuous
 62
     6
370
     9
100
AcDbCircle
 10
-14.48961924212806
 20
227.5615970973759
 30
0.0
 40
77.99999142797758
100
AcDbArc
 50
134.1597747802735
 51
145.8401184082032
  0
ARC
  5
109
330
1F
100
AcDbEntity
  8
A-1
  6
Continuous
 62
     6
370
     9
100
AcDbCircle
 10
-94.48969429887431
 20
227.5615970973759
 30
0.0
 40
12.00000011046421
100
AcDbArc
 50
0.0
 51
36.87538146972656
  0
ARC
  5
10A
330
1F
100
AcDbEntity
  8
A-1
  6
Continuous
 62
     6
370
     9
100
AcDbCircle
 10
-14.48961924212806
 20
227.5615970973759
 30
0.0
 40
77.00001154719172
100
AcDbArc
 50
154.1597747802735
 51
165.8401336669922
  0
ARC
  5
10B
330
1F
100
AcDbEntity
  8
A-1
  6
Continuous
 62
     6
370
     9
100
AcDbCircle
 10
-14.48961924212806
 20
227.5615970973759
 30
0.0
 40
77.99999142797758
100
AcDbArc
 50
154.1597747802735
 51
165.8401336669922
  0
ARC
  5
10C
330
1F
100
AcDbEntity
  8
A-1
  6
Continuous
 62
     6
370
     9
100
AcDbCircle
 10
-14.48961924212806
 20
227.5615970973759
 30
0.0
 40
86.55463164929718
100
AcDbArc
 50
154.1597747802735
 51
165.8401489257813
  0
ARC
  5
10D
330
1F
100
AcDbEntity
  8
A-1
  6
Continuous
 62
     6
370
     9
100
AcDbCircle
 10
-14.48961924212806
 20
227.5615970973759
 30
0.0
 40
77.00001154719172
100
AcDbArc
 50
0.0
 51
5.840179443359375
  0
ARC
  5
10E
330
1F
100
AcDbEntity
  8
A-1
  6
Continuous
 62
     6
370
     9
100
AcDbCircle
 10
-14.48961924212806
 20
227.5615970973759
 30
0.0
 40
77.00001154719172
100
AcDbArc
 50
14.1598358154297
 51
25.84017944335939
  0
LINE
  5
10F
330
1F
100
AcDbEntity
  8
A-2
  6
Continuous
 62
     3
370
     9
100
AcDbLine
 10
-67.96625915544409
 20
235.0616072306258
 30
0.0
 11
-71.83468126233053
 21
233.685839047805
 31
0.0
  0
LINE
  5
110
330
1F
100
AcDbEntity
  8
A-2
  6
Continuous
 62
     3
370
     9
100
AcDbLine
 10
38.98697112430902
 20
235.0616072306258
 30
0.0
 11
42.85544277807428
 21
233.685839047805
 31
0.0
  0
LINE
  5
111
330
1F
100
AcDbEntity
  8
A-2
  6
Continuous
 62
     3
370
     9
100
AcDbLine
 10
35.57249752071804
 20
247.8047423956895
 30
0.0
 11
38.23475041081512
 21
250.9304072429271
 31
0.0
  0
LINE
  5
112
330
1F
100
AcDbEntity
  8
A-2
  6
Continuous
 62
     3
370
     9
100
AcDbLine
 10
28.07251216090746
 20
260.7951412592573
 30
0.0
 11
32.11063232758299
 21
261.5378489720273
 31
0.0
  0
LINE
  5
113
330
1F
100
AcDbEntity
  8
A-2
  6
Continuous
 62
     3
370
     9
100
AcDbLine
 10
35.57249752071804
 20
247.8047423956895
 30
0.0
 11
19.42536791692332
 21
240.4311511236225
 31
0.0
  0
LINE
  5
114
330
1F
100
AcDbEntity
  8
A-2
  6
Continuous
 62
     3
370
     9
100
AcDbLine
 10
18.74392491975316
 20
270.123716113692
 30
0.0
 11
19.48663263252313
 21
274.1617371866099
 31
0.0
  0
LINE
  5
115
330
1F
100
AcDbEntity
  8
A-2
  6
Continuous
 62
     3
370
     9
100
AcDbLine
 10
5.753526056185322
 20
277.623713860222
 30
0.0
 11
8.879190903423094
 21
280.2859667503193
 31
0.0
  0
LINE
  5
116
330
1F
100
AcDbEntity
  8
A-2
  6
Continuous
 62
     3
370
     9
100
AcDbLine
 10
18.74392491975316
 20
270.123716113692
 30
0.0
 11
8.446869612710955
 21
255.6644257086542
 31
0.0
  0
LINE
  5
117
330
1F
100
AcDbEntity
  8
A-2
  6
Continuous
 62
     3
370
     9
100
AcDbLine
 10
-6.989609108878241
 20
281.0381874638132
 30
0.0
 11
-8.365377291699062
 21
284.9066591175784
 31
0.0
  0
LINE
  5
118
330
1F
100
AcDbEntity
  8
A-2
  6
Continuous
 62
     3
370
     9
100
AcDbLine
 10
-21.98962937537799
 20
281.0382865575706
 30
0.0
 11
-20.61386119255717
 21
284.9066591175784
 31
0.0
  0
LINE
  5
119
330
1F
100
AcDbEntity
  8
A-2
  6
Continuous
 62
     3
370
     9
100
AcDbLine
 10
-6.989609108878241
 20
281.0381874638132
 30
0.0
 11
-8.67744830763506
 21
263.3676275917418
 31
0.0
  0
LINE
  5
11A
330
1F
100
AcDbEntity
  8
A-2
  6
Continuous
 62
     3
370
     9
100
AcDbLine
 10
-34.73266544668404
 20
277.623713860222
 30
0.0
 11
-37.85842938767932
 21
280.2859667503193
 31
0.0
  0
LINE
  5
11B
330
1F
100
AcDbEntity
  8
A-2
  6
Continuous
 62
     3
370
     9
100
AcDbLine
 10
-47.72316340400941
 20
270.123716113692
 30
0.0
 11
-48.46587111677938
 21
274.1617371866099
 31
0.0
  0
LINE
  5
11C
330
1F
100
AcDbEntity
  8
A-2
  6
Continuous
 62
     3
370
     9
100
AcDbLine
 10
-34.73266544668404
 20
277.623713860222
 30
0.0
 11
-27.35917326837459
 21
261.4765842564274
 31
0.0
  0
LINE
  5
11D
330
1F
100
AcDbEntity
  8
A-2
  6
Continuous
 62
     3
370
     9
100
AcDbLine
 10
-57.05175064516372
 20
260.7951412592573
 30
0.0
 11
-61.08977171808162
 21
261.5378489720273
 31
0.0
  0
LINE
  5
11E
330
1F
100
AcDbEntity
  8
A-2
  6
Continuous
 62
     3
370
     9
100
AcDbLine
 10
-64.55173600497419
 20
247.8046433019318
 30
0.0
 11
-67.21398889507138
 21
250.9304072429271
 31
0.0
  0
LINE
  5
11F
330
1F
100
AcDbEntity
  8
A-2
  6
Continuous
 62
     3
370
     9
100
AcDbLine
 10
-57.05175064516372
 20
260.7951412592573
 30
0.0
 11
-42.59246024012593
 21
250.4980859522151
 31
0.0
  0
LINE
  5
120
330
1F
100
AcDbEntity
  8
A-2
  6
Continuous
 62
     3
370
     9
100
AcDbLine
 10
21.31649795927562
 20
233.3736689381114
 30
0.0
 11
38.98697112430902
 21
235.0616072306258
 31
0.0
  0
LINE
  5
121
330
1F
100
AcDbEntity
  8
A-2
  6
Continuous
 62
     3
370
     9
100
AcDbLine
 10
-37.42610809696718
 20
255.6644257086542
 30
0.0
 11
-47.72316340400941
 21
270.123716113692
 31
0.0
  0
LINE
  5
122
330
1F
100
AcDbEntity
  8
A-2
  6
Continuous
 62
     3
370
     9
100
AcDbLine
 10
-67.96625915544409
 20
235.0616072306258
 30
0.0
 11
-50.29563734977437
 21
233.3736689381114
 31
0.0
  0
LINE
  5
123
330
1F
100
AcDbEntity
  8
A-2
  6
Continuous
 62
     3
370
     9
100
AcDbLine
 10
-48.40460640117958
 20
240.4311511236225
 30
0.0
 11
-64.55173600497419
 21
247.8046433019318
 31
0.0
  0
LINE
  5
124
330
1F
100
AcDbEntity
  8
A-2
  6
Continuous
 62
     3
370
     9
100
AcDbLine
 10
-1.619966122124012
 20
261.476683350185
 30
0.0
 11
5.753526056185322
 21
277.623713860222
 31
0.0
  0
LINE
  5
125
330
1F
100
AcDbEntity
  8
A-2
  6
Continuous
 62
     3
370
     9
100
AcDbLine
 10
-20.30169108286354
 20
263.3676275917418
 30
0.0
 11
-21.98962937537799
 21
281.0382865575706
 31
0.0
  0
LINE
  5
126
330
1F
100
AcDbEntity
  8
A-2
  6
Continuous
 62
     3
370
     9
100
AcDbLine
 10
13.6133208496273
 20
250.4980859522151
 30
0.0
 11
28.07251216090746
 21
260.7951412592573
 31
0.0
  0
LINE
  5
127
330
1F
100
AcDbEntity
  8
A-2
  6
Continuous
 62
     3
370
     9
100
AcDbLine
 10
81.38131202238826
 20
238.5615739735355
 30
0.0
 11
77.73783274511997
 21
237.561618866189
 31
0.0
  0
LINE
  5
128
330
1F
100
AcDbEntity
  8
A-2
  6
Continuous
 62
     3
370
     9
100
AcDbLine
 10
92.5442238093846
 20
237.561618866189
 30
0.0
 11
77.73783274511997
 21
237.561618866189
 31
0.0
  0
LINE
  5
129
330
1F
100
AcDbEntity
  8
A-2
  6
Continuous
 62
     3
370
     9
100
AcDbLine
 10
93.45122897215758
 20
238.5615739735355
 30
0.0
 11
81.38131202238826
 21
238.5615739735355
 31
0.0
  0
LINE
  5
12A
330
1F
100
AcDbEntity
  8
A-2
  6
Continuous
 62
     3
370
     9
100
AcDbLine
 10
93.45122897215758
 20
238.5615739735355
 30
0.0
 11
92.5442238093846
 21
237.561618866189
 31
0.0
  0
LINE
  5
12B
330
1F
100
AcDbEntity
  8
A-2
  6
Continuous
 62
     3
370
     9
100
AcDbLine
 10
92.89402477350443
 20
232.5616699153809
 30
0.0
 11
93.9366397434723
 21
231.5616157142769
 31
0.0
  0
LINE
  5
12C
330
1F
100
AcDbEntity
  8
A-2
  6
Continuous
 62
     3
370
     9
100
AcDbLine
 10
-110.3606248269628
 20
238.5615739735355
 30
0.0
 11
-106.7170712293762
 21
237.561618866189
 31
0.0
  0
LINE
  5
12D
330
1F
100
AcDbEntity
  8
A-2
  6
Continuous
 62
     3
370
     9
100
AcDbLine
 10
-121.5234622936409
 20
237.561618866189
 30
0.0
 11
-106.7170712293762
 21
237.561618866189
 31
0.0
  0
LINE
  5
12E
330
1F
100
AcDbEntity
  8
A-2
  6
Continuous
 62
     3
370
     9
100
AcDbLine
 10
-122.430541776732
 20
238.5615739735355
 30
0.0
 11
-110.3606248269628
 21
238.5615739735355
 31
0.0
  0
LINE
  5
12F
330
1F
100
AcDbEntity
  8
A-2
  6
Continuous
 62
     3
370
     9
100
AcDbLine
 10
-122.430541776732
 20
238.5615739735355
 30
0.0
 11
-121.5234622936409
 21
237.561618866189
 31
0.0
  0
LINE
  5
130
330
1F
100
AcDbEntity
  8
A-2
  6
Continuous
 62
     3
370
     9
100
AcDbLine
 10
-121.8732632577607
 20
232.5616699153809
 30
0.0
 11
-122.9158286808497
 21
231.5616157142769
 31
0.0
  0
LINE
  5
131
330
1F
100
AcDbEntity
  8
A-2
  6
Continuous
 62
     3
370
     9
100
AcDbLine
 10
62.44771550341891
 20
279.7693166719397
 30
0.0
 11
43.39847656939905
 21
266.8430066960615
 31
0.0
  0
LINE
  5
132
330
1F
100
AcDbEntity
  8
A-2
  6
Continuous
 62
     3
370
     9
100
AcDbLine
 10
63.28996289563877
 20
278.5281054251399
 30
0.0
 11
44.24072396161903
 21
265.6017954492619
 31
0.0
  0
LINE
  5
133
330
1F
100
AcDbEntity
  8
A-2
  6
Continuous
 62
     3
370
     9
100
AcDbLine
 10
50.28497247627313
 20
294.2643056031316
 30
0.0
 11
34.24719283392498
 21
277.7491170103903
 31
0.0
  0
LINE
  5
134
330
1F
100
AcDbEntity
  8
A-2
  6
Continuous
 62
     3
370
     9
100
AcDbLine
 10
49.20888858969572
 20
295.3092864365606
 30
0.0
 11
33.17108417390823
 21
278.7940978438195
 31
0.0
  0
LINE
  5
135
330
1F
100
AcDbEntity
  8
A-2
  6
Continuous
 62
     3
370
     9
100
AcDbLine
 10
39.95174794772849
 20
302.934935067653
 30
0.0
 11
26.47239571101379
 21
284.2729545381036
 31
0.0
  0
LINE
  5
136
330
1F
100
AcDbEntity
  8
A-2
  6
Continuous
 62
     3
370
     9
100
AcDbLine
 10
41.16772744651432
 20
302.0566423211276
 30
0.0
 11
27.68835043636038
 21
283.394661791578
 31
0.0
  0
LINE
  5
137
330
1F
100
AcDbEntity
  8
A-2
  6
Continuous
 62
     3
370
     9
100
AcDbLine
 10
23.56493531788139
 20
312.3958620220035
 30
0.0
 11
14.14287788992651
 21
291.3914165446614
 31
0.0
  0
LINE
  5
138
330
1F
100
AcDbEntity
  8
A-2
  6
Continuous
 62
     3
370
     9
100
AcDbLine
 10
22.19635143248233
 20
313.0097850101291
 30
0.0
 11
12.77426923108798
 21
292.0053271460673
 31
0.0
  0
LINE
  5
139
330
1F
100
AcDbEntity
  8
A-2
  6
Continuous
 62
     3
370
     9
100
AcDbLine
 10
10.88935732202144
 20
317.0094196387195
 30
0.0
 11
4.605673515708943
 21
294.8626708713232
 31
0.0
  0
LINE
  5
13A
330
1F
100
AcDbEntity
  8
A-2
  6
Continuous
 62
     3
370
     9
100
AcDbLine
 10
12.33241016621257
 20
316.5999766192797
 30
0.0
 11
6.048701586460723
 21
294.4532278518835
 31
0.0
  0
LINE
  5
13B
330
1F
100
AcDbEntity
  8
A-2
  6
Continuous
 62
     3
370
     9
100
AcDbLine
 10
-7.745025596052798
 20
320.2951580645452
 30
0.0
 11
-9.41492882469474
 21
297.3348990946159
 31
0.0
  0
LINE
  5
13C
330
1F
100
AcDbEntity
  8
A-2
  6
Continuous
 62
     3
370
     9
100
AcDbLine
 10
-9.241068827088995
 20
320.4039753970449
 30
0.0
 11
-10.91097205573094
 21
297.443704040396
 31
0.0
  0
LINE
  5
13D
330
1F
100
AcDbEntity
  8
A-2
  6
Continuous
 62
     3
370
     9
100
AcDbLine
 10
-21.23408902100645
 20
320.2951704512648
 30
0.0
 11
-19.56421056580386
 21
297.3348867078963
 31
0.0
  0
LINE
  5
13E
330
1F
100
AcDbEntity
  8
A-2
  6
Continuous
 62
     3
370
     9
100
AcDbLine
 10
-19.73804578997026
 20
320.4039630103253
 30
0.0
 11
-18.06816733476767
 21
297.4436792669565
 31
0.0
  0
LINE
  5
13F
330
1F
100
AcDbEntity
  8
A-2
  6
Continuous
 62
     3
370
     9
100
AcDbLine
 10
-39.86849671252018
 20
317.0094196387195
 30
0.0
 11
-33.58481290620755
 21
294.8626956447627
 31
0.0
  0
LINE
  5
140
330
1F
100
AcDbEntity
  8
A-2
  6
Continuous
 62
     3
370
     9
100
AcDbLine
 10
-41.31152478327196
 20
316.5999890059996
 30
0.0
 11
-35.02784097695933
 21
294.4532526253229
 31
0.0
  0
LINE
  5
141
330
1F
100
AcDbEntity
  8
A-2
  6
Continuous
 62
     3
370
     9
100
AcDbLine
 10
-52.54407470838014
 20
312.3958867954428
 30
0.0
 11
-43.12201728042514
 21
291.3914041579418
 31
0.0
  0
LINE
  5
142
330
1F
100
AcDbEntity
  8
A-2
  6
Continuous
 62
     3
370
     9
100
AcDbLine
 10
-51.17546604954173
 20
313.0097973968489
 30
0.0
 11
-41.75340862158673
 21
292.0053271460673
 31
0.0
  0
LINE
  5
143
330
1F
100
AcDbEntity
  8
A-2
  6
Continuous
 62
     3
370
     9
100
AcDbLine
 10
-68.93088733822712
 20
302.934935067653
 30
0.0
 11
-55.45153510151253
 21
284.2729793115428
 31
0.0
  0
LINE
  5
144
330
1F
100
AcDbEntity
  8
A-2
  6
Continuous
 62
     3
370
     9
100
AcDbLine
 10
-70.14686683701306
 20
302.0566670945669
 30
0.0
 11
-56.66751460029847
 21
283.3946865650174
 31
0.0
  0
LINE
  5
145
330
1F
100
AcDbEntity
  8
A-2
  6
Continuous
 62
     3
370
     9
100
AcDbLine
 10
-79.26411186677187
 20
294.2643303765709
 30
0.0
 11
-63.22633222442362
 21
277.7491170103903
 31
0.0
  0
LINE
  5
146
330
1F
100
AcDbEntity
  8
A-2
  6
Continuous
 62
     3
370
     9
100
AcDbLine
 10
-78.18802798019446
 20
295.3093112100001
 30
0.0
 11
-62.15022356440697
 21
278.7941102305391
 31
0.0
  0
LINE
  5
147
330
1F
100
AcDbEntity
  8
A-2
  6
Continuous
 62
     3
370
     9
100
AcDbLine
 10
-91.42685489391765
 20
279.7693414453792
 30
0.0
 11
-72.37764073333715
 21
266.8430438562206
 31
0.0
  0
LINE
  5
148
330
1F
100
AcDbEntity
  8
A-2
  6
Continuous
 62
     3
370
     9
100
AcDbLine
 10
-92.26910228613751
 20
278.528142585299
 30
0.0
 11
-73.21988812555712
 21
265.6018202227011
 31
0.0
  0
LINE
  5
149
330
1F
100
AcDbEntity
  8
A-2
  6
Continuous
 62
     3
370
     9
100
AcDbLine
 10
-98.17137421967475
 20
268.0874508767012
 30
0.0
 11
-77.4522568304523
 21
258.0534771092106
 31
0.0
  0
LINE
  5
14A
330
1F
100
AcDbEntity
  8
A-2
  6
Continuous
 62
     3
370
     9
100
AcDbLine
 10
-97.51760315429787
 20
269.4374546825612
 30
0.0
 11
-76.79846099163608
 21
259.4034933017905
 31
0.0
  0
LINE
  5
14B
330
1F
100
AcDbEntity
  8
A-2
  6
Continuous
 62
     3
370
     9
100
AcDbLine
 10
-104.6430388840427
 20
250.3067111329639
 30
0.0
 11
-82.32157543538192
 21
244.6751881184681
 31
0.0
  0
LINE
  5
14C
330
1F
100
AcDbEntity
  8
A-2
  6
Continuous
 62
     3
370
     9
100
AcDbLine
 10
-105.0099830682171
 20
248.8522872800949
 30
0.0
 11
-82.68851961955629
 21
243.2207394921599
 31
0.0
  0
LINE
  5
14D
330
1F
100
AcDbEntity
  8
A-2
  6
Continuous
 62
     3
370
     9
100
AcDbLine
 10
75.66389949354395
 20
250.3066863595246
 30
0.0
 11
53.34241127144382
 21
244.6751633450289
 31
0.0
  0
LINE
  5
14E
330
1F
100
AcDbEntity
  8
A-2
  6
Continuous
 62
     3
370
     9
100
AcDbLine
 10
76.03084367771832
 20
248.8522625066556
 30
0.0
 11
53.70933068217884
 21
243.2207394921599
 31
0.0
  0
LINE
  5
14F
330
1F
100
AcDbEntity
  8
A-2
  6
Continuous
 62
     3
370
     9
100
AcDbLine
 10
69.192234829176
 20
268.0874261032617
 30
0.0
 11
48.47311743995367
 21
258.053464722491
 31
0.0
  0
LINE
  5
150
330
1F
100
AcDbEntity
  8
A-2
  6
Continuous
 62
     3
370
     9
100
AcDbLine
 10
68.53846376379913
 20
269.4374299091218
 30
0.0
 11
47.81932160113733
 21
259.4034809150709
 31
0.0
  0
LINE
  5
151
330
1F
100
AcDbEntity
  8
A-2
  6
Continuous
 62
     3
370
     9
100
AcDbLine
 10
72.5103397535584
 20
234.2453719497605
 30
0.0
 11
72.5103397535584
 21
227.5615970973759
 31
0.0
  0
LINE
  5
152
330
1F
100
AcDbEntity
  8
A-2
  6
Continuous
 62
     3
370
     9
100
AcDbLine
 10
70.30684141399745
 20
236.2349764136691
 30
0.0
 11
55.10481852275022
 21
234.6800467172141
 31
0.0
  0
LINE
  5
153
330
1F
100
AcDbEntity
  8
A-2
  6
Continuous
 62
     3
370
     9
100
AcDbLine
 10
74.0104210552144
 20
234.2453719497605
 30
0.0
 11
74.0104210552144
 21
227.5615970973759
 31
0.0
  0
LINE
  5
154
330
1F
100
AcDbEntity
  8
A-2
  6
Continuous
 62
     3
370
     9
100
AcDbLine
 10
70.1541874805054
 20
237.7271797616005
 30
0.0
 11
54.9521645892584
 21
236.1722500651456
 31
0.0
  0
LINE
  5
155
330
1F
100
AcDbEntity
  8
A-2
  6
Continuous
 62
     3
370
     9
100
AcDbLine
 10
-101.4895782378147
 20
234.2453719497605
 30
0.0
 11
-101.4895782378147
 21
227.5615970973759
 31
0.0
  0
LINE
  5
156
330
1F
100
AcDbEntity
  8
A-2
  6
Continuous
 62
     3
370
     9
100
AcDbLine
 10
-99.2860798982537
 20
236.2349764136691
 30
0.0
 11
-84.08405700700659
 21
234.6800467172141
 31
0.0
  0
LINE
  5
157
330
1F
100
AcDbEntity
  8
A-2
  6
Continuous
 62
     3
370
     9
100
AcDbLine
 10
-102.9896595394707
 20
234.2453719497605
 30
0.0
 11
-102.9896595394707
 21
227.5615970973759
 31
0.0
  0
LINE
  5
158
330
1F
100
AcDbEntity
  8
A-2
  6
Continuous
 62
     3
370
     9
100
AcDbLine
 10
-99.13342596476177
 20
237.7271797616005
 30
0.0
 11
-83.93140307351455
 21
236.1722500651456
 31
0.0
  0
LINE
  5
159
330
1F
100
AcDbEntity
  8
A-2
  6
Continuous
 62
     3
370
     9
100
AcDbLine
 10
-117.9896302590917
 20
232.5616699153809
 30
0.0
 11
-121.8732632577607
 21
232.5616699153809
 31
0.0
  0
LINE
  5
15A
330
1F
100
AcDbEntity
  8
A-2
  6
Continuous
 62
     3
370
     9
100
AcDbLine
 10
-120.9895946748887
 20
231.5616157142769
 30
0.0
 11
-122.9158782277286
 21
231.5616157142769
 31
0.0
  0
LINE
  5
15B
330
1F
100
AcDbEntity
  8
A-2
  6
Continuous
 62
     3
370
     9
100
AcDbLine
 10
89.01039177483533
 20
232.5616699153809
 30
0.0
 11
92.89402477350443
 21
232.5616699153809
 31
0.0
  0
LINE
  5
15C
330
1F
100
AcDbEntity
  8
A-2
  6
Continuous
 62
     3
370
     9
100
AcDbLine
 10
92.0103561906323
 20
231.5616157142769
 30
0.0
 11
93.9366397434723
 21
231.5616157142769
 31
0.0
  0
ARC
  5
15D
330
1F
100
AcDbEntity
  8
A-2
  6
Continuous
 62
     3
370
     9
100
AcDbCircle
 10
33.28645408112531
 20
255.145100098821
 30
0.0
 40
6.499999285664797
100
AcDbArc
 50
319.5777435302734
 51
100.4222564697266
  0
ARC
  5
15E
330
1F
100
AcDbEntity
  8
A-2
  6
Continuous
 62
     3
370
     9
100
AcDbCircle
 10
20.96424442465666
 20
237.0613935781217
 30
0.0
 40
3.704485033009503
100
AcDbArc
 50
114.5438385009766
 51
275.4564056396485
  0
ARC
  5
15F
330
1F
100
AcDbEntity
  8
A-2
  6
Continuous
 62
     3
370
     9
100
AcDbCircle
 10
25.75626989870425
 20
238.3454257148991
 30
0.0
 40
6.665602760425405
100
AcDbArc
 50
161.765380859375
 51
228.2347259521484
  0
ARC
  5
160
330
1F
100
AcDbEntity
  8
A-2
  6
Continuous
 62
     3
370
     9
100
AcDbCircle
 10
13.09387137259721
 20
275.3375713268719
 30
0.0
 40
6.499999285664797
100
AcDbArc
 50
349.5777435302734
 51
130.4222564697266
  0
ARC
  5
161
330
1F
100
AcDbEntity
  8
A-2
  6
Continuous
 62
     3
370
     9
100
AcDbCircle
 10
11.46444794391077
 20
253.5155651896574
 30
0.0
 40
3.704485033009503
100
AcDbArc
 50
144.5438385009766
 51
305.4564056396484
  0
ARC
  5
162
330
1F
100
AcDbEntity
  8
A-2
  6
Continuous
 62
     3
370
     9
100
AcDbCircle
 10
14.97244128118113
 20
257.0236576206852
 30
0.0
 40
6.665602760425405
100
AcDbArc
 50
191.765380859375
 51
258.2347259521484
  0
ARC
  5
163
330
1F
100
AcDbEntity
  8
A-2
  6
Continuous
 62
     3
370
     9
100
AcDbCircle
 10
-14.48961924212806
 20
282.728603100266
 30
0.0
 40
6.499999285664797
100
AcDbArc
 50
19.57774353027344
 51
160.4222564697266
  0
ARC
  5
164
330
1F
100
AcDbEntity
  8
A-2
  6
Continuous
 62
     3
370
     9
100
AcDbCircle
 10
-4.989822761382172
 20
263.0153616704032
 30
0.0
 40
3.704485033009503
100
AcDbArc
 50
174.5438385009766
 51
335.4564056396484
  0
ARC
  5
165
330
1F
100
AcDbEntity
  8
A-2
  6
Continuous
 62
     3
370
     9
100
AcDbCircle
 10
-3.705691530847432
 20
267.8074862382083
 30
0.0
 40
6.665602760425405
100
AcDbArc
 50
221.765380859375
 51
288.2347259521484
  0
ARC
  5
166
330
1F
100
AcDbEntity
  8
A-2
  6
Continuous
 62
     3
370
     9
100
AcDbCircle
 10
-42.07310985685346
 20
275.3375713268719
 30
0.0
 40
6.499999285664797
100
AcDbArc
 50
49.57774353027345
 51
190.4222564697266
  0
ARC
  5
167
330
1F
100
AcDbEntity
  8
A-2
  6
Continuous
 62
     3
370
     9
100
AcDbCircle
 10
-23.98941572287394
 20
263.0153616704032
 30
0.0
 40
3.704485033009503
100
AcDbArc
 50
204.5438385009766
 51
5.456405639648425
  0
ARC
  5
168
330
1F
100
AcDbEntity
  8
A-2
  6
Continuous
 62
     3
370
     9
100
AcDbCircle
 10
-25.27344785965117
 20
267.8074862382083
 30
0.0
 40
6.665602760425405
100
AcDbArc
 50
251.765380859375
 51
318.2347259521485
  0
ARC
  5
169
330
1F
100
AcDbEntity
  8
A-2
  6
Continuous
 62
     3
370
     9
100
AcDbCircle
 10
-62.26564301850287
 20
255.145100098821
 30
0.0
 40
6.499999285664797
100
AcDbArc
 50
79.57774353027344
 51
220.4222564697266
  0
ARC
  5
16A
330
1F
100
AcDbEntity
  8
A-2
  6
Continuous
 62
     3
370
     9
100
AcDbCircle
 10
-40.44358733440951
 20
253.5155651896574
 30
0.0
 40
3.704485033009503
100
AcDbArc
 50
234.5438385009766
 51
35.45640563964844
  0
ARC
  5
16B
330
1F
100
AcDbEntity
  8
A-2
  6
Continuous
 62
     3
370
     9
100
AcDbCircle
 10
-43.95158067167988
 20
257.0236576206852
 30
0.0
 40
6.665602760425405
100
AcDbArc
 50
281.765380859375
 51
348.2347259521484
  0
ARC
  5
16C
330
1F
100
AcDbEntity
  8
A-2
  6
Continuous
 62
     3
370
     9
100
AcDbCircle
 10
-49.9433838151554
 20
237.0613935781217
 30
0.0
 40
3.704485033009503
100
AcDbArc
 50
264.5435943603516
 51
65.45616149902341
  0
ARC
  5
16D
330
1F
100
AcDbEntity
  8
A-2
  6
Continuous
 62
     3
370
     9
100
AcDbCircle
 10
-54.7355083829605
 20
238.3454257148991
 30
0.0
 40
6.665602760425405
100
AcDbArc
 50
311.7652740478516
 51
18.23461914062501
  0
ARC
  5
16E
330
1F
100
AcDbEntity
  8
A-2
  6
Continuous
 62
     3
370
     9
100
AcDbCircle
 10
-14.48961924212806
 20
227.5615970973759
 30
0.0
 40
54.00000359376885
100
AcDbArc
 50
37.98358154296876
 51
52.01644897460939
  0
ARC
  5
16F
330
1F
100
AcDbEntity
  8
A-2
  6
Continuous
 62
     3
370
     9
100
AcDbCircle
 10
-14.48961924212806
 20
227.5615970973759
 30
0.0
 40
54.00000359376885
100
AcDbArc
 50
67.98358154296876
 51
82.01643371582033
  0
ARC
  5
170
330
1F
100
AcDbEntity
  8
A-2
  6
Continuous
 62
     3
370
     9
100
AcDbCircle
 10
-14.48961924212806
 20
227.5615970973759
 30
0.0
 40
54.00000359376885
100
AcDbArc
 50
97.98356628417969
 51
112.0164337158203
  0
ARC
  5
171
330
1F
100
AcDbEntity
  8
A-2
  6
Continuous
 62
     3
370
     9
100
AcDbCircle
 10
-14.48961924212806
 20
227.5615970973759
 30
0.0
 40
54.00000359376885
100
AcDbArc
 50
127.9835815429688
 51
142.0164489746094
  0
ARC
  5
172
330
1F
100
AcDbEntity
  8
A-2
  6
Continuous
 62
     3
370
     9
100
AcDbCircle
 10
-14.48961924212806
 20
227.5615970973759
 30
0.0
 40
54.00000359376885
100
AcDbArc
 50
157.9835815429688
 51
172.0164337158203
  0
ARC
  5
173
330
1F
100
AcDbEntity
  8
A-2
  6
Continuous
 62
     3
370
     9
100
AcDbCircle
 10
-14.48961924212806
 20
227.5615970973759
 30
0.0
 40
54.00000359376885
100
AcDbArc
 50
7.983566284179702
 51
22.01643371582033
  0
ARC
  5
174
330
1F
100
AcDbEntity
  8
A-2
  6
Continuous
 62
     3
370
     9
100
AcDbCircle
 10
-14.48961924212806
 20
227.5615970973759
 30
0.0
 40
107.4999924737054
100
AcDbArc
 50
2.66587829589845
 51
5.337554931640637
  0
ARC
  5
175
330
1F
100
AcDbEntity
  8
A-2
  6
Continuous
 62
     3
370
     9
100
AcDbCircle
 10
-14.48961924212806
 20
227.5615970973759
 30
0.0
 40
107.4999924737054
100
AcDbArc
 50
174.6624450683594
 51
177.3341217041016
  0
ARC
  5
176
330
1F
100
AcDbEntity
  8
A-2
  6
Continuous
 62
     3
370
     9
100
AcDbCircle
 10
-14.48961924212806
 20
227.5615970973759
 30
0.0
 40
96.50000321082626
100
AcDbArc
 50
6.545349121093747
 51
173.4546508789063
  0
ARC
  5
177
330
1F
100
AcDbEntity
  8
A-2
  6
Continuous
 62
     3
370
     9
100
AcDbCircle
 10
-14.48961924212806
 20
227.5615970973759
 30
0.0
 40
108.4999971279306
100
AcDbArc
 50
2.112762451171874
 51
177.8872375488281
  0
ARC
  5
178
330
1F
100
AcDbEntity
  8
A-2
  6
Continuous
 62
     3
370
     9
100
AcDbCircle
 10
40.67728766700445
 20
227.5615970973759
 30
0.0
 40
6.499999285664797
100
AcDbArc
 50
0.0
 51
70.42225646972656
  0
ARC
  5
179
330
1F
100
AcDbEntity
  8
A-2
  6
Continuous
 62
     3
370
     9
100
AcDbCircle
 10
-69.65662524501822
 20
227.5615970973759
 30
0.0
 40
6.499999285664797
100
AcDbArc
 50
109.5777435302734
 51
180.0
  0
ARC
  5
17A
330
1F
100
AcDbEntity
  8
A-2
  6
Continuous
 62
     3
370
     9
100
AcDbCircle
 10
-14.48961924212806
 20
227.5615970973759
 30
0.0
 40
61.66699909519505
100
AcDbArc
 50
0.0
 51
180.0
  0
ARC
  5
17B
330
1F
100
AcDbEntity
  8
A-2
  6
Continuous
 62
     3
370
     9
100
AcDbCircle
 10
-14.48961924212806
 20
227.5615970973759
 30
0.0
 40
92.76798985455487
100
AcDbArc
 50
173.8475036621094
 51
180.0
  0
ARC
  5
17C
330
1F
100
AcDbEntity
  8
A-2
  6
Continuous
 62
     3
370
     9
100
AcDbCircle
 10
39.38059630270133
 20
272.7640940568118
 30
0.0
 40
7.155595843856399
100
AcDbArc
 50
135.8402252197266
 51
304.1596984863282
  0
ARC
  5
17D
330
1F
100
AcDbEntity
  8
A-2
  6
Continuous
 62
     3
370
     9
100
AcDbCircle
 10
39.38059630270133
 20
272.7640816700922
 30
0.0
 40
8.655585019284693
100
AcDbArc
 50
135.8401947021484
 51
304.1597137451172
  0
ARC
  5
17E
330
1F
100
AcDbEntity
  8
A-2
  6
Continuous
 62
     3
370
     9
100
AcDbCircle
 10
51.71977576514898
 20
292.8709854385064
 30
0.0
 40
2.000000018410701
100
AcDbArc
 50
44.60806274414063
 51
135.8403625488281
  0
ARC
  5
17F
330
1F
100
AcDbEntity
  8
A-2
  6
Continuous
 62
     3
370
     9
100
AcDbCircle
 10
61.32471072264586
 20
281.4242691299127
 30
0.0
 40
2.000000018410701
100
AcDbArc
 50
304.1597290039063
 51
35.39198303222656
  0
ARC
  5
180
330
1F
100
AcDbEntity
  8
A-2
  6
Continuous
 62
     3
370
     9
100
AcDbCircle
 10
51.71977576514898
 20
292.8709854385064
 30
0.0
 40
3.500000032218727
100
AcDbArc
 50
44.60806274414063
 51
135.8403625488281
  0
ARC
  5
181
330
1F
100
AcDbEntity
  8
A-2
  6
Continuous
 62
     3
370
     9
100
AcDbCircle
 10
61.32471072264586
 20
281.4242691299127
 30
0.0
 40
3.500000032218727
100
AcDbArc
 50
304.1597290039063
 51
35.39198303222656
  0
ARC
  5
182
330
1F
100
AcDbEntity
  8
A-2
  6
Continuous
 62
     3
370
     9
100
AcDbCircle
 10
-14.48961924212806
 20
227.5615970973759
 30
0.0
 40
95.00000242284827
100
AcDbArc
 50
35.39208984375001
 51
44.60792541503908
  0
ARC
  5
183
330
1F
100
AcDbEntity
  8
A-2
  6
Continuous
 62
     3
370
     9
100
AcDbCircle
 10
20.67167010551684
 20
288.4627624741348
 30
0.0
 40
7.155595843856399
100
AcDbArc
 50
155.8402252197266
 51
324.1596984863281
  0
ARC
  5
184
330
1F
100
AcDbEntity
  8
A-2
  6
Continuous
 62
     3
370
     9
100
AcDbCircle
 10
20.67169487895619
 20
288.4627377006956
 30
0.0
 40
8.655585019284693
100
AcDbArc
 50
155.8401947021484
 51
324.1597137451172
  0
ARC
  5
185
330
1F
100
AcDbEntity
  8
A-2
  6
Continuous
 62
     3
370
     9
100
AcDbCircle
 10
25.38974686299939
 20
311.5772980378359
 30
0.0
 40
2.000000018410701
100
AcDbArc
 50
64.60806274414062
 51
155.8403625488282
  0
ARC
  5
186
330
1F
100
AcDbEntity
  8
A-2
  6
Continuous
 62
     3
370
     9
100
AcDbCircle
 10
38.33045020716035
 20
304.1059879341138
 30
0.0
 40
2.000000018410701
100
AcDbArc
 50
324.1597290039062
 51
55.39198303222657
  0
ARC
  5
187
330
1F
100
AcDbEntity
  8
A-2
  6
Continuous
 62
     3
370
     9
100
AcDbCircle
 10
25.38974686299939
 20
311.5772980378359
 30
0.0
 40
3.500000032218727
100
AcDbArc
 50
64.60806274414062
 51
155.8403625488282
  0
ARC
  5
188
330
1F
100
AcDbEntity
  8
A-2
  6
Continuous
 62
     3
370
     9
100
AcDbCircle
 10
38.33045020716035
 20
304.1059879341138
 30
0.0
 40
3.500000032218727
100
AcDbArc
 50
324.1597290039062
 51
55.39198303222657
  0
ARC
  5
189
330
1F
100
AcDbEntity
  8
A-2
  6
Continuous
 62
     3
370
     9
100
AcDbCircle
 10
-14.48959446868871
 20
227.5615970973759
 30
0.0
 40
95.00000242284827
100
AcDbArc
 50
55.39208984375002
 51
64.60792541503908
  0
ARC
  5
18A
330
1F
100
AcDbEntity
  8
A-2
  6
Continuous
 62
     3
370
     9
100
AcDbCircle
 10
-2.278196406590311
 20
296.8158459926161
 30
0.0
 40
7.155595843856399
100
AcDbArc
 50
175.8402252197266
 51
344.1596984863281
  0
ARC
  5
18B
330
1F
100
AcDbEntity
  8
A-2
  6
Continuous
 62
     3
370
     9
100
AcDbCircle
 10
-2.278196406590311
 20
296.8158336058962
 30
0.0
 40
8.655585019284693
100
AcDbArc
 50
175.8401947021485
 51
344.1597137451172
  0
ARC
  5
18C
330
1F
100
AcDbEntity
  8
A-2
  6
Continuous
 62
     3
370
     9
100
AcDbCircle
 10
-5.750293030191457
 20
320.1500848035051
 30
0.0
 40
2.000000018410701
100
AcDbArc
 50
84.60806274414064
 51
175.8403625488281
  0
ARC
  5
18D
330
1F
100
AcDbEntity
  8
A-2
  6
Continuous
 62
     3
370
     9
100
AcDbCircle
 10
8.965303378726205
 20
317.5553271490131
 30
0.0
 40
2.000000018410701
100
AcDbArc
 50
344.1597290039062
 51
75.39198303222658
  0
ARC
  5
18E
330
1F
100
AcDbEntity
  8
A-2
  6
Continuous
 62
     3
370
     9
100
AcDbCircle
 10
-5.750293030191457
 20
320.1500848035051
 30
0.0
 40
3.500000032218727
100
AcDbArc
 50
84.60806274414064
 51
175.8403625488281
  0
ARC
  5
18F
330
1F
100
AcDbEntity
  8
A-2
  6
Continuous
 62
     3
370
     9
100
AcDbCircle
 10
8.965303378726205
 20
317.5553271490131
 30
0.0
 40
3.500000032218727
100
AcDbArc
 50
344.1597290039062
 51
75.39198303222658
  0
ARC
  5
190
330
1F
100
AcDbEntity
  8
A-2
  6
Continuous
 62
     3
370
     9
100
AcDbCircle
 10
-14.48956969524936
 20
227.5616218708154
 30
0.0
 40
95.00000242284827
100
AcDbArc
 50
75.39208984375003
 51
84.60792541503908
  0
ARC
  5
191
330
1F
100
AcDbEntity
  8
A-2
  6
Continuous
 62
     3
370
     9
100
AcDbCircle
 10
-26.70096775734775
 20
296.8158459926161
 30
0.0
 40
7.155595843856399
100
AcDbArc
 50
195.8402252197265
 51
4.15969848632813
  0
ARC
  5
192
330
1F
100
AcDbEntity
  8
A-2
  6
Continuous
 62
     3
370
     9
100
AcDbCircle
 10
-26.7009429839084
 20
296.8158336058962
 30
0.0
 40
8.655585019284693
100
AcDbArc
 50
195.8401947021485
 51
4.159713745117203
  0
ARC
  5
193
330
1F
100
AcDbEntity
  8
A-2
  6
Continuous
 62
     3
370
     9
100
AcDbCircle
 10
-37.94444276922484
 20
317.5553271490131
 30
0.0
 40
2.000000018410701
100
AcDbArc
 50
104.6080627441407
 51
195.8403625488282
  0
ARC
  5
194
330
1F
100
AcDbEntity
  8
A-2
  6
Continuous
 62
     3
370
     9
100
AcDbCircle
 10
-23.22884636030726
 20
320.1500971902247
 30
0.0
 40
2.000000018410701
100
AcDbArc
 50
4.159729003906248
 51
95.39198303222656
  0
ARC
  5
195
330
1F
100
AcDbEntity
  8
A-2
  6
Continuous
 62
     3
370
     9
100
AcDbCircle
 10
-37.94444276922484
 20
317.5553271490131
 30
0.0
 40
3.500000032218727
100
AcDbArc
 50
104.6080627441407
 51
195.8403625488282
  0
ARC
  5
196
330
1F
100
AcDbEntity
  8
A-2
  6
Continuous
 62
     3
370
     9
100
AcDbCircle
 10
-23.22884636030726
 20
320.1500971902247
 30
0.0
 40
3.500000032218727
100
AcDbArc
 50
4.159729003906248
 51
95.39198303222656
  0
ARC
  5
197
330
1F
100
AcDbEntity
  8
A-2
  6
Continuous
 62
     3
370
     9
100
AcDbCircle
 10
-14.48956969524936
 20
227.5616218708154
 30
0.0
 40
95.00000242284827
100
AcDbArc
 50
95.39208984374999
 51
104.6079254150391
  0
ARC
  5
198
330
1F
100
AcDbEntity
  8
A-2
  6
Continuous
 62
     3
370
     9
100
AcDbCircle
 10
-49.65083426945493
 20
288.4627624741348
 30
0.0
 40
7.155595843856399
100
AcDbArc
 50
215.8402252197266
 51
24.15969848632816
  0
ARC
  5
199
330
1F
100
AcDbEntity
  8
A-2
  6
Continuous
 62
     3
370
     9
100
AcDbCircle
 10
-49.65083426945493
 20
288.4627624741348
 30
0.0
 40
8.655585019284693
100
AcDbArc
 50
215.8401947021485
 51
24.15971374511723
  0
ARC
  5
19A
330
1F
100
AcDbEntity
  8
A-2
  6
Continuous
 62
     3
370
     9
100
AcDbCircle
 10
-67.3095895976591
 20
304.1060003208334
 30
0.0
 40
2.000000018410701
100
AcDbArc
 50
124.6080627441407
 51
215.8403625488281
  0
ARC
  5
19B
330
1F
100
AcDbEntity
  8
A-2
  6
Continuous
 62
     3
370
     9
100
AcDbCircle
 10
-54.36888625349813
 20
311.5773228112751
 30
0.0
 40
2.000000018410701
100
AcDbArc
 50
24.15972900390625
 51
115.3919830322266
  0
ARC
  5
19C
330
1F
100
AcDbEntity
  8
A-2
  6
Continuous
 62
     3
370
     9
100
AcDbCircle
 10
-67.3095895976591
 20
304.1060003208334
 30
0.0
 40
3.500000032218727
100
AcDbArc
 50
124.6080627441407
 51
215.8403625488281
  0
ARC
  5
19D
330
1F
100
AcDbEntity
  8
A-2
  6
Continuous
 62
     3
370
     9
100
AcDbCircle
 10
-54.36888625349813
 20
311.5773228112751
 30
0.0
 40
3.500000032218727
100
AcDbArc
 50
24.15972900390625
 51
115.3919830322266
  0
ARC
  5
19E
330
1F
100
AcDbEntity
  8
A-2
  6
Continuous
 62
     3
370
     9
100
AcDbCircle
 10
-14.48954492180989
 20
227.5616218708154
 30
0.0
 40
95.00000242284827
100
AcDbArc
 50
115.39208984375
 51
124.6079254150391
  0
ARC
  5
19F
330
1F
100
AcDbEntity
  8
A-2
  6
Continuous
 62
     3
370
     9
100
AcDbCircle
 10
-68.35976046663943
 20
272.7640940568118
 30
0.0
 40
7.155595843856399
100
AcDbArc
 50
235.8402252197266
 51
44.15969848632819
  0
ARC
  5
1A0
330
1F
100
AcDbEntity
  8
A-2
  6
Continuous
 62
     3
370
     9
100
AcDbCircle
 10
-68.35976046663943
 20
272.7640940568118
 30
0.0
 40
8.655585019284693
100
AcDbArc
 50
235.8401947021484
 51
44.15971374511721
  0
ARC
  5
1A1
330
1F
100
AcDbEntity
  8
A-2
  6
Continuous
 62
     3
370
     9
100
AcDbCircle
 10
-90.3038501131446
 20
281.4242815166323
 30
0.0
 40
2.000000018410701
100
AcDbArc
 50
144.6080627441407
 51
235.8403625488282
  0
ARC
  5
1A2
330
1F
100
AcDbEntity
  8
A-2
  6
Continuous
 62
     3
370
     9
100
AcDbCircle
 10
-80.69891515564773
 20
292.870997825226
 30
0.0
 40
2.000000018410701
100
AcDbArc
 50
44.15972900390625
 51
135.3919830322266
  0
ARC
  5
1A3
330
1F
100
AcDbEntity
  8
A-2
  6
Continuous
 62
     3
370
     9
100
AcDbCircle
 10
-90.3038501131446
 20
281.4242815166323
 30
0.0
 40
3.500000032218727
100
AcDbArc
 50
144.6080627441407
 51
235.8403625488282
  0
ARC
  5
1A4
330
1F
100
AcDbEntity
  8
A-2
  6
Continuous
 62
     3
370
     9
100
AcDbCircle
 10
-80.69891515564773
 20
292.870997825226
 30
0.0
 40
3.500000032218727
100
AcDbArc
 50
44.15972900390625
 51
135.3919830322266
  0
ARC
  5
1A5
330
1F
100
AcDbEntity
  8
A-2
  6
Continuous
 62
     3
370
     9
100
AcDbCircle
 10
-14.48952014837054
 20
227.5616218708154
 30
0.0
 40
95.00000242284827
100
AcDbArc
 50
135.39208984375
 51
144.607925415039
  0
ARC
  5
1A6
330
1F
100
AcDbEntity
  8
A-2
  6
Continuous
 62
     3
370
     9
100
AcDbCircle
 10
-80.57113375529848
 20
251.6133490331803
 30
0.0
 40
7.155595843856399
100
AcDbArc
 50
255.8402252197265
 51
64.15969848632817
  0
ARC
  5
1A7
330
1F
100
AcDbEntity
  8
A-2
  6
Continuous
 62
     3
370
     9
100
AcDbCircle
 10
-80.57110898185913
 20
251.6133490331803
 30
0.0
 40
8.655585019284693
100
AcDbArc
 50
255.8401947021485
 51
64.15971374511723
  0
ARC
  5
1A8
330
1F
100
AcDbEntity
  8
A-2
  6
Continuous
 62
     3
370
     9
100
AcDbCircle
 10
-104.1537882296232
 20
252.2459388078827
 30
0.0
 40
2.000000018410701
100
AcDbArc
 50
164.6080627441406
 51
255.8403625488282
  0
ARC
  5
1A9
330
1F
100
AcDbEntity
  8
A-2
  6
Continuous
 62
     3
370
     9
100
AcDbCircle
 10
-99.04310200476316
 20
266.2874127709684
 30
0.0
 40
2.000000018410701
100
AcDbArc
 50
64.15972900390625
 51
155.3919830322266
  0
ARC
  5
1AA
330
1F
100
AcDbEntity
  8
A-2
  6
Continuous
 62
     3
370
     9
100
AcDbCircle
 10
-104.1537882296232
 20
252.2459388078827
 30
0.0
 40
3.500000032218727
100
AcDbArc
 50
164.6080627441406
 51
255.8403625488282
  0
ARC
  5
1AB
330
1F
100
AcDbEntity
  8
A-2
  6
Continuous
 62
     3
370
     9
100
AcDbCircle
 10
-99.04310200476316
 20
266.2874127709684
 30
0.0
 40
3.500000032218727
100
AcDbArc
 50
64.15972900390625
 51
155.3919830322266
  0
ARC
  5
1AC
330
1F
100
AcDbEntity
  8
A-2
  6
Continuous
 62
     3
370
     9
100
AcDbCircle
 10
-14.48952014837054
 20
227.5616218708154
 30
0.0
 40
95.00000242284827
100
AcDbArc
 50
155.39208984375
 51
164.6079254150391
  0
ARC
  5
1AD
330
1F
100
AcDbEntity
  8
A-2
  6
Continuous
 62
     3
370
     9
100
AcDbCircle
 10
51.59196959136038
 20
251.6133490331803
 30
0.0
 40
7.155595843856399
100
AcDbArc
 50
115.8402252197266
 51
284.1596984863281
  0
ARC
  5
1AE
330
1F
100
AcDbEntity
  8
A-2
  6
Continuous
 62
     3
370
     9
100
AcDbCircle
 10
51.59196959136038
 20
251.6133366464604
 30
0.0
 40
8.655585019284693
100
AcDbArc
 50
115.8401947021484
 51
284.1597137451172
  0
ARC
  5
1AF
330
1F
100
AcDbEntity
  8
A-2
  6
Continuous
 62
     3
370
     9
100
AcDbCircle
 10
70.06396261426441
 20
266.2874003842488
 30
0.0
 40
2.000000018410701
100
AcDbArc
 50
24.60806274414063
 51
115.8403625488281
  0
ARC
  5
1B0
330
1F
100
AcDbEntity
  8
A-2
  6
Continuous
 62
     3
370
     9
100
AcDbCircle
 10
75.17462406568511
 20
252.2459264211631
 30
0.0
 40
2.000000018410701
100
AcDbArc
 50
284.1597290039062
 51
15.39198303222656
  0
ARC
  5
1B1
330
1F
100
AcDbEntity
  8
A-2
  6
Continuous
 62
     3
370
     9
100
AcDbCircle
 10
70.06396261426441
 20
266.2874003842488
 30
0.0
 40
3.500000032218727
100
AcDbArc
 50
24.60806274414063
 51
115.8403625488281
  0
ARC
  5
1B2
330
1F
100
AcDbEntity
  8
A-2
  6
Continuous
 62
     3
370
     9
100
AcDbCircle
 10
75.17462406568511
 20
252.2459264211631
 30
0.0
 40
3.500000032218727
100
AcDbArc
 50
284.1597290039062
 51
15.39198303222656
  0
ARC
  5
1B3
330
1F
100
AcDbEntity
  8
A-2
  6
Continuous
 62
     3
370
     9
100
AcDbCircle
 10
-14.48964401556752
 20
227.5615970973759
 30
0.0
 40
95.00000242284827
100
AcDbArc
 50
15.39208984375
 51
24.60792541503906
  0
ARC
  5
1B4
330
1F
100
AcDbEntity
  8
A-2
  6
Continuous
 62
     3
370
     9
100
AcDbCircle
 10
55.83290990628295
 20
227.5616218708154
 30
0.0
 40
7.155595843856399
100
AcDbArc
 50
95.84022521972656
 51
180.0001983642578
  0
ARC
  5
1B5
330
1F
100
AcDbEntity
  8
A-2
  6
Continuous
 62
     3
370
     9
100
AcDbCircle
 10
55.83290990628295
 20
227.5615970973759
 30
0.0
 40
8.655585019284693
100
AcDbArc
 50
95.8401947021485
 51
180.0
  0
ARC
  5
1B6
330
1F
100
AcDbEntity
  8
A-2
  6
Continuous
 62
     3
370
     9
100
AcDbCircle
 10
70.51033044510784
 20
234.2453719497605
 30
0.0
 40
2.000000018410701
100
AcDbArc
 50
0.0
 51
95.83969116210939
  0
ARC
  5
1B7
330
1F
100
AcDbEntity
  8
A-2
  6
Continuous
 62
     3
370
     9
100
AcDbCircle
 10
70.51033044510784
 20
234.2453719497605
 30
0.0
 40
3.500000032218727
100
AcDbArc
 50
0.0
 51
95.83969116210939
  0
ARC
  5
1B8
330
1F
100
AcDbEntity
  8
A-2
  6
Continuous
 62
     3
370
     9
100
AcDbCircle
 10
-84.81214839053932
 20
227.5616218708154
 30
0.0
 40
7.155595843856399
100
AcDbArc
 50
359.9998931884766
 51
84.15986633300781
  0
ARC
  5
1B9
330
1F
100
AcDbEntity
  8
A-2
  6
Continuous
 62
     3
370
     9
100
AcDbCircle
 10
-84.81214839053932
 20
227.5615970973759
 30
0.0
 40
8.655585019284693
100
AcDbArc
 50
359.9999542236328
 51
84.15975952148438
  0
ARC
  5
1BA
330
1F
100
AcDbEntity
  8
A-2
  6
Continuous
 62
     3
370
     9
100
AcDbCircle
 10
-99.48956892936421
 20
234.2453719497605
 30
0.0
 40
2.000000018410701
100
AcDbArc
 50
84.16030883789062
 51
180.0
  0
ARC
  5
1BB
330
1F
100
AcDbEntity
  8
A-2
  6
Continuous
 62
     3
370
     9
100
AcDbCircle
 10
-99.48956892936421
 20
234.2453719497605
 30
0.0
 40
3.500000032218727
100
AcDbArc
 50
84.16030883789062
 51
180.0
  0
LINE
  5
1BC
330
1F
100
AcDbEntity
  8
A-A
  6
Continuous
 62
     2
370
     9
100
AcDbLine
 10
18.01040815299511
 20
296.8435550845684
 30
0.0
 11
21.76318784483117
 21
303.3435977237521
 31
0.0
  0
LINE
  5
1BD
330
1F
100
AcDbEntity
  8
A-A
  6
Continuous
 62
     2
370
     9
100
AcDbLine
 10
18.01040815299511
 20
296.8435550845684
 30
0.0
 11
21.76318784483117
 21
290.3436115391422
 31
0.0
  0
LINE
  5
1BE
330
1F
100
AcDbEntity
  8
A-A
  6
Continuous
 62
     2
370
     9
100
AcDbLine
 10
21.76318784483117
 20
290.3436115391422
 30
0.0
 11
29.2576487276588
 21
290.3436115391422
 31
0.0
  0
LINE
  5
1BF
330
1F
100
AcDbEntity
  8
A-A
  6
Continuous
 62
     2
370
     9
100
AcDbLine
 10
33.01032932573735
 20
296.8435550845684
 30
0.0
 11
29.2576487276588
 21
290.3436115391422
 31
0.0
  0
LINE
  5
1C0
330
1F
100
AcDbEntity
  8
A-A
  6
Continuous
 62
     2
370
     9
100
AcDbLine
 10
22.41492748817852
 20
295.6337813323485
 30
0.0
 11
28.10585721032002
 21
298.9193835042575
 31
0.0
  0
LINE
  5
1C1
330
1F
100
AcDbEntity
  8
A-A
  6
Continuous
 62
     2
370
     9
100
AcDbLine
 10
22.91485549497297
 20
294.7678381453566
 30
0.0
 11
28.6058843108721
 21
298.0534403172656
 31
0.0
  0
LINE
  5
1C2
330
1F
100
AcDbEntity
  8
A-A
  6
Continuous
 62
     2
370
     9
100
AcDbLine
 10
-86.98685999353454
 20
227.5663535977379
 30
0.0
 11
-90.7340904349483
 21
234.0567965291598
 31
0.0
  0
LINE
  5
1C3
330
1F
100
AcDbEntity
  8
A-A
  6
Continuous
 62
     2
370
     9
100
AcDbLine
 10
-86.98958507186698
 20
227.5615970973759
 30
0.0
 11
-86.98685999353454
 21
227.5663535977379
 31
0.0
  0
LINE
  5
1C4
330
1F
100
AcDbEntity
  8
A-A
  6
Continuous
 62
     2
370
     9
100
AcDbLine
 10
-98.23960027174171
 20
234.0567965291598
 30
0.0
 11
-90.7340904349483
 21
234.0567965291598
 31
0.0
  0
LINE
  5
1C5
330
1F
100
AcDbEntity
  8
A-A
  6
Continuous
 62
     2
370
     9
100
AcDbLine
 10
21.76318784483117
 20
303.3435977237521
 30
0.0
 11
29.2631979780811
 21
303.3435977237521
 31
0.0
  0
LINE
  5
1C6
330
1F
100
AcDbEntity
  8
A-A
  6
Continuous
 62
     2
370
     9
100
AcDbLine
 10
33.01032932573735
 20
296.8435550845684
 30
0.0
 11
29.26042335286995
 21
303.338766903072
 31
0.0
  0
LINE
  5
1C7
330
1F
100
AcDbEntity
  8
A-A
  6
Continuous
 62
     2
370
     9
100
AcDbLine
 10
-98.23960027174171
 20
234.0567965291598
 30
0.0
 11
-101.4896277846935
 21
228.4279242726784
 31
0.0
  0
LINE
  5
1C8
330
1F
100
AcDbEntity
  8
A-A
  6
JWW_CENTER1
 62
     2
370
     9
100
AcDbLine
 10
29.93829897476864
 20
304.5129412228953
 30
0.0
 11
21.17340657338643
 21
289.3317280207319
 31
0.0
  0
LINE
  5
1C9
330
1F
100
AcDbEntity
  8
A-A
  6
JWW_CENTER1
 62
     2
370
     9
100
AcDbLine
 10
18.78101075851286
 20
300.7289098372747
 30
0.0
 11
32.54384546211297
 21
292.7828910880525
 31
0.0
  0
LINE
  5
1CA
330
1F
100
AcDbEntity
  8
A-A
  6
Continuous
 62
     2
370
     9
100
AcDbLine
 10
-117.3895184634232
 20
229.1617135472696
 30
0.0
 11
-117.3895184634232
 21
230.3115975097756
 31
0.0
  0
LINE
  5
1CB
330
1F
100
AcDbEntity
  8
A-A
  6
Continuous
 62
     2
370
     9
100
AcDbLine
 10
-118.5897420547602
 20
230.3115975097756
 30
0.0
 11
-117.3895184634232
 21
230.3115975097756
 31
0.0
  0
LINE
  5
1CC
330
1F
100
AcDbEntity
  8
A-A
  6
Continuous
 62
     2
370
     9
100
AcDbLine
 10
-118.5897420547602
 20
229.1617135472696
 30
0.0
 11
-118.5897420547602
 21
230.3115975097756
 31
0.0
  0
LINE
  5
1CD
330
1F
100
AcDbEntity
  8
A-A
  6
Continuous
 62
     2
370
     9
100
AcDbLine
 10
-122.9534843087154
 20
228.1617088930444
 30
0.0
 11
-119.5897962558641
 21
228.1617088930444
 31
0.0
  0
LINE
  5
1CE
330
1F
100
AcDbEntity
  8
A-A
  6
Continuous
 62
     2
370
     9
100
AcDbLine
 10
-116.3895633560767
 20
228.1617088930444
 30
0.0
 11
-113.025776209468
 21
228.1617088930444
 31
0.0
  0
LINE
  5
1CF
330
1F
100
AcDbEntity
  8
A-A
  6
Continuous
 62
     2
370
     9
100
AcDbLine
 10
88.41027997916687
 20
229.1617135472696
 30
0.0
 11
88.41027997916687
 21
230.3115975097756
 31
0.0
  0
LINE
  5
1D0
330
1F
100
AcDbEntity
  8
A-A
  6
Continuous
 62
     2
370
     9
100
AcDbLine
 10
89.61050357050378
 20
230.3115975097756
 30
0.0
 11
88.41027997916687
 21
230.3115975097756
 31
0.0
  0
LINE
  5
1D1
330
1F
100
AcDbEntity
  8
A-A
  6
Continuous
 62
     2
370
     9
100
AcDbLine
 10
89.61050357050378
 20
229.1617135472696
 30
0.0
 11
89.61050357050378
 21
230.3115975097756
 31
0.0
  0
LINE
  5
1D2
330
1F
100
AcDbEntity
  8
A-A
  6
Continuous
 62
     2
370
     9
100
AcDbLine
 10
93.97424582445903
 20
228.1617088930444
 30
0.0
 11
90.61055777160782
 21
228.1617088930444
 31
0.0
  0
LINE
  5
1D3
330
1F
100
AcDbEntity
  8
A-A
  6
Continuous
 62
     2
370
     9
100
AcDbLine
 10
87.41032487182046
 20
228.1617088930444
 30
0.0
 11
84.04653772521162
 21
228.1617088930444
 31
0.0
  0
CIRCLE
  5
1D4
330
1F
100
AcDbEntity
  8
A-A
  6
Continuous
 62
     2
370
     9
100
AcDbCircle
 10
25.51041828624493
 20
296.8435550845684
 30
0.0
 40
4.000000036821402
  0
CIRCLE
  5
1D5
330
1F
100
AcDbEntity
  8
A-A
  6
Continuous
 62
     2
370
     9
100
AcDbCircle
 10
25.51041828624493
 20
296.8435550845684
 30
0.0
 40
3.32350011497851
  0
ARC
  5
1D6
330
1F
100
AcDbEntity
  8
A-A
  6
Continuous
 62
     2
370
     9
100
AcDbCircle
 10
-94.48969429887431
 20
227.5615970973759
 30
0.0
 40
4.000000036821402
100
AcDbArc
 50
0.0
 51
180.0
  0
ARC
  5
1D7
330
1F
100
AcDbEntity
  8
A-A
  6
Continuous
 62
     2
370
     9
100
AcDbCircle
 10
-94.48969429887431
 20
227.5615970973759
 30
0.0
 40
3.32350011497851
100
AcDbArc
 50
0.0
 51
180.0
  0
CIRCLE
  5
1D8
330
1F
100
AcDbEntity
  8
A-A
  6
Continuous
 62
     2
370
     9
100
AcDbCircle
 10
25.51527388036452
 20
296.8408919398344
 30
0.0
 40
6.50000160817474
  0
ARC
  5
1D9
330
1F
100
AcDbEntity
  8
A-A
  6
Continuous
 62
     2
370
     9
100
AcDbCircle
 10
-94.48969429887431
 20
227.5671463477982
 30
0.0
 40
6.50000160817474
100
AcDbArc
 50
359.9509277343751
 51
180.0488586425781
  0
ARC
  5
1DA
330
1F
100
AcDbEntity
  8
A-A
  6
Continuous
 62
     2
370
     9
100
AcDbCircle
 10
-116.3895633560767
 20
229.1617135472696
 30
0.0
 40
1.00000000920535
100
AcDbArc
 50
180.0
 51
270.0
  0
ARC
  5
1DB
330
1F
100
AcDbEntity
  8
A-A
  6
Continuous
 62
     2
370
     9
100
AcDbCircle
 10
-119.5897962558641
 20
229.1617135472696
 30
0.0
 40
1.00000000920535
100
AcDbArc
 50
270.0
 51
0.0
  0
ARC
  5
1DC
330
1F
100
AcDbEntity
  8
A-A
  6
Continuous
 62
     2
370
     9
100
AcDbCircle
 10
-117.9896302590917
 20
227.5615970973759
 30
0.0
 40
5.000000046026753
100
AcDbArc
 50
0.0
 51
180.0
  0
ARC
  5
1DD
330
1F
100
AcDbEntity
  8
A-A
  6
Continuous
 62
     2
370
     9
100
AcDbCircle
 10
87.41032487182046
 20
229.1617135472696
 30
0.0
 40
1.00000000920535
100
AcDbArc
 50
270.0
 51
0.0
  0
ARC
  5
1DE
330
1F
100
AcDbEntity
  8
A-A
  6
Continuous
 62
     2
370
     9
100
AcDbCircle
 10
90.61055777160782
 20
229.1617135472696
 30
0.0
 40
1.00000000920535
100
AcDbArc
 50
180.0
 51
270.0
  0
ARC
  5
1DF
330
1F
100
AcDbEntity
  8
A-A
  6
Continuous
 62
     2
370
     9
100
AcDbCircle
 10
89.01039177483533
 20
227.5615970973759
 30
0.0
 40
5.000000046026753
100
AcDbArc
 50
0.0
 51
180.0
  0
ARC
  5
1E0
330
1F
100
AcDbEntity
  8
A-1
  6
Continuous
 62
     6
370
     9
100
AcDbCircle
 10
-94.48969429887431
 20
227.5615970973759
 30
0.0
 40
13.00000011966956
100
AcDbArc
 50
0.0
 51
32.82019042968753
  0
ARC
  5
1E1
330
1F
100
AcDbEntity
  8
A-1
  6
Continuous
 62
     6
370
     9
100
AcDbCircle
 10
-88.23962804980754
 20
241.1974679241266
 30
0.0
 40
2.000000018410701
100
AcDbArc
 50
224.4560089111328
 51
245.3751983642578
  0
LINE
  5
1E2
330
1F
100
AcDbEntity
  8
A-A
  6
Continuous
 62
     2
370
     9
100
AcDbLine
 10
-86.98958507186698
 20
227.5615970973759
 30
0.0
 11
-86.98685999353454
 21
227.5568405970139
 31
0.0
  0
LINE
  5
1E3
330
1F
100
AcDbEntity
  8
A-8
  6
Continuous
 62
     2
370
     9
100
AcDbLine
 10
235.510380757872
 20
477.5615970973759
 30
0.0
 11
-264.489619242128
 21
477.5615970973759
 31
0.0
  0
LINE
  5
1E4
330
1F
100
AcDbEntity
  8
A-8
  6
JWW_CENTER1
 62
     2
370
     9
100
AcDbLine
 10
-255.5878032459212
 20
462.5615017152158
 30
0.0
 11
-243.7865294728456
 21
462.5615017152158
 31
0.0
  0
LINE
  5
1E5
330
1F
100
AcDbEntity
  8
A-8
  6
JWW_CENTER1
 62
     2
370
     9
100
AcDbLine
 10
-249.4896725006042
 20
454.4524613481188
 30
0.0
 11
-249.4896725006042
 21
470.4450046901495
 31
0.0
  0
LINE
  5
1E6
330
1F
100
AcDbEntity
  8
A-8
  6
JWW_CENTER1
 62
     2
370
     9
100
AcDbLine
 10
220.5103349225904
 20
468.6599297418053
 30
0.0
 11
220.5103349225904
 21
456.8584577812148
 31
0.0
  0
LINE
  5
1E7
330
1F
100
AcDbEntity
  8
A-8
  6
JWW_CENTER1
 62
     2
370
     9
100
AcDbLine
 10
212.4012945554935
 20
462.5615017152158
 30
0.0
 11
228.3936397100091
 21
462.5615017152158
 31
0.0
  0
CIRCLE
  5
1E8
330
1F
100
AcDbEntity
  8
A-8
  6
Continuous
 62
     2
370
     9
100
AcDbCircle
 10
-249.4896725006042
 20
462.5615017152158
 30
0.0
 40
2.099999941914238
  0
CIRCLE
  5
1E9
330
1F
100
AcDbEntity
  8
A-8
  6
Continuous
 62
     2
370
     9
100
AcDbCircle
 10
220.5103349225904
 20
462.5615017152158
 30
0.0
 40
2.099999941914238
  0
ARC
  5
1EA
330
1F
100
AcDbEntity
  8
A-2
  6
Continuous
 62
     3
370
     9
100
AcDbCircle
 10
-14.48961924212806
 20
227.5615970973759
 30
0.0
 40
92.76798985455487
100
AcDbArc
 50
0.0
 51
6.152496337890624
  0
ARC
  5
1EB
330
1F
100
AcDbEntity
  8
A-1
  6
Continuous
 62
     6
370
     9
100
AcDbCircle
 10
-14.48961924212806
 20
227.5615970973759
 30
0.0
 40
109.3509647708142
100
AcDbArc
 50
0.0
 51
4.809188842773432
  0
ARC
  5
1EC
330
1F
100
AcDbEntity
  8
A-1
  6
Continuous
 62
     6
370
     9
100
AcDbCircle
 10
-14.48961924212806
 20
227.5615970973759
 30
0.0
 40
110.4999940496614
100
AcDbArc
 50
0.0
 51
8.396957397460932
  0
ARC
  5
1ED
330
1F
100
AcDbEntity
  8
A-1
  6
Continuous
 62
     6
370
     9
100
AcDbCircle
 10
-14.48961924212806
 20
227.5615970973759
 30
0.0
 40
113.4999956256174
100
AcDbArc
 50
0.0
 51
8.472427368164062
  0
ARC
  5
1EE
330
1F
100
AcDbEntity
  8
A-1
  6
Continuous
 62
     6
370
     9
100
AcDbCircle
 10
-14.48961924212806
 20
227.5615970973759
 30
0.0
 40
114.5000126665623
100
AcDbArc
 50
0.0
 51
9.247985839843754
  0
LINE
  5
1EF
330
1F
100
AcDbEntity
  8
A-A
  6
Continuous
 62
     2
370
     9
100
AcDbLine
 10
-93.4896400977703
 20
227.5615970973759
 30
0.0
 11
-97.0850836760706
 21
229.6374131303454
 31
0.0
  0
ARC
  5
1F0
330
1F
100
AcDbEntity
  8
A-1
  6
Continuous
 62
     6
370
     9
100
AcDbCircle
 10
-14.48961924212806
 20
227.5615970973759
 30
0.0
 40
157.7092712426493
100
AcDbArc
 50
0.0
 51
180.0
  0
ARC
  5
1F1
330
1F
100
AcDbEntity
  8
A-1
  6
Continuous
 62
     6
370
     9
100
AcDbCircle
 10
-14.48961924212806
 20
227.5615970973759
 30
0.0
 40
167.0
100
AcDbArc
 50
0.0
 51
180.0
  0
ARC
  5
1F2
330
1F
100
AcDbEntity
  8
A-1
  6
Continuous
 62
     6
370
     9
100
AcDbCircle
 10
-14.48961924212806
 20
227.5615970973759
 30
0.0
 40
167.5
100
AcDbArc
 50
0.0
 51
180.0
  0
ARC
  5
1F3
330
1F
100
AcDbEntity
  8
A-0
  6
Continuous
 62
     4
370
     9
100
AcDbCircle
 10
-14.48961924212806
 20
227.5615970973759
 30
0.0
 40
195.5
100
AcDbArc
 50
0.0
 51
180.0
  0
ARC
  5
1F4
330
1F
100
AcDbEntity
  8
A-0
  6
Continuous
 62
     4
370
     9
100
AcDbCircle
 10
-14.48961924212806
 20
227.5615970973759
 30
0.0
 40
197.5
100
AcDbArc
 50
0.0
 51
180.0
  0
ARC
  5
1F5
330
1F
100
AcDbEntity
  8
A-0
  6
Continuous
 62
     4
370
     9
100
AcDbCircle
 10
-14.48961924212806
 20
227.5615970973759
 30
0.0
 40
196.5
100
AcDbArc
 50
0.0
 51
180.0
  0
LINE
  5
1F6
330
1F
100
AcDbEntity
  8
A-8
  6
Continuous
 62
     2
370
     9
100
AcDbLine
 10
-264.489619242128
 20
477.5615970973759
 30
0.0
 11
-264.489619242128
 21
227.5615970973759
 31
0.0
  0
LINE
  5
1F7
330
1F
100
AcDbEntity
  8
A-8
  6
Continuous
 62
     2
370
     9
100
AcDbLine
 10
235.510380757872
 20
227.5615970973759
 30
0.0
 11
235.510380757872
 21
477.5615970973759
 31
0.0
  0
ARC
  5
1F8
330
1F
100
AcDbEntity
  8
A-0
  6
Continuous
 62
     4
370
     9
100
AcDbCircle
 10
80.83465189283997
 20
-271.0486993689702
 30
0.0
 40
1.00000000920535
100
AcDbArc
 50
284.9923095703125
 51
330.0012359619141
  0
LINE
  5
1F9
330
1F
100
AcDbEntity
  8
A-1
  6
Continuous
 62
     6
370
     9
100
AcDbLine
 10
-120.9895946748886
 20
-265.7559236383845
 30
0.0
 11
-120.9895946748886
 21
-268.0526196569127
 31
0.0
  0
LINE
  5
1FA
330
1F
100
AcDbEntity
  8
A-1
  6
Continuous
 62
     6
370
     9
100
AcDbLine
 10
-120.4895675743366
 20
-266.2559011920576
 30
0.0
 11
-120.4895675743366
 21
-268.1865944171082
 31
0.0
  0
LINE
  5
1FB
330
1F
100
AcDbEntity
  8
A-1
  6
Continuous
 62
     6
370
     9
100
AcDbLine
 10
-115.4896929438467
 20
-266.2559011920576
 30
0.0
 11
-115.4896929438467
 21
-269.5262924721841
 31
0.0
  0
LINE
  5
1FC
330
1F
100
AcDbEntity
  8
A-1
  6
Continuous
 62
     6
370
     9
100
AcDbLine
 10
-114.9896658432947
 20
-265.7559236383845
 30
0.0
 11
-114.9896658432947
 21
-269.6602672323795
 31
0.0
  0
ARC
  5
1FD
330
1F
100
AcDbEntity
  8
A-1
  6
Continuous
 62
     6
370
     9
100
AcDbCircle
 10
-179.3120984136419
 20
-249.3191047914389
 30
0.0
 40
3.0
100
AcDbArc
 50
206.8100214751602
 51
254.9997065793817
  0
LINE
  5
1FE
330
1F
100
AcDbEntity
  8
A-1
  6
Continuous
 62
     6
370
     9
100
AcDbLine
 10
-181.9896192421281
 20
-250.6722057533123
 30
0.0
 11
-181.4896192421281
 21
-249.6722057533123
 31
0.0
  0
LINE
  5
1FF
330
1F
100
AcDbEntity
  8
A-1
  6
Continuous
 62
     6
370
     9
100
AcDbLine
 10
-172.1988904847774
 20
-249.6722057533123
 30
0.0
 11
-181.4896192421281
 21
-249.6722057533123
 31
0.0
  0
LINE
  5
200
330
1F
100
AcDbEntity
  8
A-1
  6
JWW_HOJO
 62
     6
370
     9
100
AcDbLine
 10
-117.9896302590916
 20
-258.8499227516303
 30
0.0
 11
-117.9896302590916
 21
-270.3505252199222
 31
0.0
  0
LINE
  5
201
330
1F
100
AcDbEntity
  8
A-1
  6
Continuous
 62
     6
370
     9
100
AcDbLine
 10
-100.4896323652759
 20
-268.1722057533124
 30
0.0
 11
-99.48963236527585
 21
-273.1722057533125
 31
0.0
  0
LINE
  5
202
330
1F
100
AcDbEntity
  8
A-1
  6
Continuous
 62
     6
370
     9
100
AcDbLine
 10
-88.48963236527585
 20
-268.1722057533124
 30
0.0
 11
-89.48963236527585
 21
-273.1722057533125
 31
0.0
  0
LINE
  5
203
330
1F
100
AcDbEntity
  8
A-1
  6
JWW_HOJO
 62
     6
370
     9
100
AcDbLine
 10
-14.48961924212803
 20
-225.3856240483543
 30
0.0
 11
-14.48961924212803
 21
-302.1144646852124
 31
0.0
  0
LINE
  5
204
330
1F
100
AcDbEntity
  8
A-1
  6
Continuous
 62
     6
370
     9
100
AcDbLine
 10
92.01035619063258
 20
-265.7559236383845
 30
0.0
 11
92.01035619063258
 21
-268.0526196569127
 31
0.0
  0
LINE
  5
205
330
1F
100
AcDbEntity
  8
A-1
  6
Continuous
 62
     6
370
     9
100
AcDbLine
 10
91.5103290900805
 20
-266.2559011920576
 30
0.0
 11
91.5103290900805
 21
-268.1865944171082
 31
0.0
  0
LINE
  5
206
330
1F
100
AcDbEntity
  8
A-1
  6
Continuous
 62
     6
370
     9
100
AcDbLine
 10
86.5104544595906
 20
-266.2559011920576
 30
0.0
 11
86.5104544595906
 21
-269.5262924721841
 31
0.0
  0
LINE
  5
207
330
1F
100
AcDbEntity
  8
A-1
  6
Continuous
 62
     6
370
     9
100
AcDbLine
 10
86.01042735903864
 20
-265.7559236383845
 30
0.0
 11
86.01042735903864
 21
-269.6602672323795
 31
0.0
  0
ARC
  5
208
330
1F
100
AcDbEntity
  8
A-1
  6
Continuous
 62
     6
370
     9
100
AcDbCircle
 10
150.3328599293858
 20
-249.3191047914389
 30
0.0
 40
3.0
100
AcDbArc
 50
285.0002934206183
 51
333.1899785248398
  0
LINE
  5
209
330
1F
100
AcDbEntity
  8
A-1
  6
Continuous
 62
     6
370
     9
100
AcDbLine
 10
153.010380757872
 20
-250.6722057533123
 30
0.0
 11
152.510380757872
 21
-249.6722057533123
 31
0.0
  0
LINE
  5
20A
330
1F
100
AcDbEntity
  8
A-1
  6
Continuous
 62
     6
370
     9
100
AcDbLine
 10
143.2196520005213
 20
-249.6722057533123
 30
0.0
 11
152.510380757872
 21
-249.6722057533123
 31
0.0
  0
LINE
  5
20B
330
1F
100
AcDbEntity
  8
A-1
  6
Continuous
 62
     6
370
     9
100
AcDbLine
 10
151.1093319046534
 20
-252.21687829391
 30
0.0
 11
72.90458713387231
 21
-273.1722057533125
 31
0.0
  0
LINE
  5
20C
330
1F
100
AcDbEntity
  8
A-1
  6
Continuous
 62
     6
370
     9
100
AcDbLine
 10
63.51039230506363
 20
-268.6722057533125
 30
0.0
 11
62.51039230506363
 21
-273.1722057533125
 31
0.0
  0
LINE
  5
20D
330
1F
100
AcDbEntity
  8
A-1
  6
Continuous
 62
     6
370
     9
100
AcDbLine
 10
-128.4857208270256
 20
-257.9356646707046
 30
0.0
 11
-127.9896132917895
 21
-254.6722057533123
 31
0.0
  0
LINE
  5
20E
330
1F
100
AcDbEntity
  8
A-1
  6
Continuous
 62
     6
370
     9
100
AcDbLine
 10
-132.2281176462802
 20
-260.3825614496466
 30
0.0
 11
-172.1988904847774
 21
-249.6722057533123
 31
0.0
  0
ARC
  5
20F
330
1F
100
AcDbEntity
  8
A-1
  6
Continuous
 62
     6
370
     9
100
AcDbCircle
 10
-131.4516456710127
 20
-257.4847879471754
 30
0.0
 40
3.0
100
AcDbArc
 50
254.999706579382
 51
351.3561372636343
  0
ARC
  5
210
330
1F
100
AcDbEntity
  8
A-1
  6
Continuous
 62
     6
370
     9
100
AcDbCircle
 10
-122.5323471544828
 20
-259.6722057533124
 30
0.0
 40
1.5
100
AcDbArc
 50
190.5527737902883
 51
270.0
  0
ARC
  5
211
330
1F
100
AcDbEntity
  8
A-1
  6
Continuous
 62
     6
370
     9
100
AcDbCircle
 10
-112.2272631982187
 20
-262.6722057533124
 30
0.0
 40
1.5
100
AcDbArc
 50
10.94869484887046
 51
90.00000000000001
  0
ARC
  5
212
330
1F
100
AcDbEntity
  8
A-1
  6
Continuous
 62
     6
370
     9
100
AcDbCircle
 10
-108.6951322650239
 20
-265.1354186454147
 30
0.0
 40
1.5
100
AcDbArc
 50
190.9486948488705
 51
254.9997065793821
  0
LINE
  5
213
330
1F
100
AcDbEntity
  8
A-1
  6
Continuous
 62
     6
370
     9
100
AcDbLine
 10
-180.0885703889095
 20
-252.21687829391
 30
0.0
 11
-101.8838256181284
 21
-273.1722057533125
 31
0.0
  0
LINE
  5
214
330
1F
100
AcDbEntity
  8
A-1
  6
Continuous
 62
     6
370
     9
100
AcDbLine
 10
-83.7193382193537
 20
-268.1722057533124
 30
0.0
 11
-103.1573648363535
 21
-268.1722057533124
 31
0.0
  0
LINE
  5
215
330
1F
100
AcDbEntity
  8
A-1
  6
Continuous
 62
     6
370
     9
100
AcDbLine
 10
-82.2484672058173
 20
-269.3780315506051
 30
0.0
 11
-81.48963236527585
 21
-273.1722057533125
 31
0.0
  0
ARC
  5
216
330
1F
100
AcDbEntity
  8
A-1
  6
Continuous
 62
     6
370
     9
100
AcDbCircle
 10
-83.7193382193537
 20
-269.6722057533125
 30
0.0
 40
1.5
100
AcDbArc
 50
11.3099324740202
 51
90.00000000000001
  0
LINE
  5
217
330
1F
100
AcDbEntity
  8
A-1
  6
Continuous
 62
     6
370
     9
100
AcDbLine
 10
72.31213917241028
 20
-268.6722057533125
 30
0.0
 11
-82.60130423060379
 21
-268.6722057533125
 31
0.0
  0
LINE
  5
218
330
1F
100
AcDbEntity
  8
A-1
  6
Continuous
 62
     6
370
     9
100
AcDbLine
 10
99.5064823427695
 20
-257.9356646707046
 30
0.0
 11
99.01037480753347
 21
-254.6722057533123
 31
0.0
  0
LINE
  5
219
330
1F
100
AcDbEntity
  8
A-1
  6
Continuous
 62
     6
370
     9
100
AcDbLine
 10
103.2488791620241
 20
-260.3825614496466
 30
0.0
 11
143.2196520005213
 21
-249.6722057533123
 31
0.0
  0
ARC
  5
21A
330
1F
100
AcDbEntity
  8
A-1
  6
Continuous
 62
     6
370
     9
100
AcDbCircle
 10
102.4724071867566
 20
-257.4847879471754
 30
0.0
 40
3.0
100
AcDbArc
 50
188.6438627363657
 51
285.000293420618
  0
ARC
  5
21B
330
1F
100
AcDbEntity
  8
A-1
  6
Continuous
 62
     6
370
     9
100
AcDbCircle
 10
93.55310867022676
 20
-259.6722057533124
 30
0.0
 40
1.5
100
AcDbArc
 50
270.0
 51
349.4472262097116
  0
ARC
  5
21C
330
1F
100
AcDbEntity
  8
A-1
  6
Continuous
 62
     6
370
     9
100
AcDbCircle
 10
79.71589378076781
 20
-265.1354186454147
 30
0.0
 40
1.5
100
AcDbArc
 50
285.0002934206179
 51
349.0513051511295
  0
LINE
  5
21D
330
1F
100
AcDbEntity
  8
A-1
  6
Continuous
 62
     6
370
     9
100
AcDbLine
 10
81.77532824104041
 20
-262.3873108627955
 30
0.0
 11
81.18859025368998
 21
-265.4203135359315
 31
0.0
  0
ARC
  5
21E
330
1F
100
AcDbEntity
  8
A-1
  6
Continuous
 62
     6
370
     9
100
AcDbCircle
 10
83.24802471396258
 20
-262.6722057533124
 30
0.0
 40
1.5
100
AcDbArc
 50
90.0
 51
169.0513051511294
  0
LINE
  5
21F
330
1F
100
AcDbEntity
  8
A-1
  6
Continuous
 62
     6
370
     9
100
AcDbLine
 10
80.10412976840165
 20
-266.5843053966503
 30
0.0
 11
72.31213917241028
 21
-268.6722057533125
 31
0.0
  0
LINE
  5
220
330
1F
100
AcDbEntity
  8
A-1
  6
Continuous
 62
     6
370
     9
100
AcDbLine
 10
95.02773862671425
 20
-259.9469174047393
 30
0.0
 11
96.01037480753347
 21
-254.6722057533123
 31
0.0
  0
LINE
  5
221
330
1F
100
AcDbEntity
  8
A-1
  6
Continuous
 62
     6
370
     9
100
AcDbLine
 10
-124.0069771109703
 20
-259.9469174047393
 30
0.0
 11
-124.9896132917895
 21
-254.6722057533123
 31
0.0
  0
LINE
  5
222
330
1F
100
AcDbEntity
  8
A-1
  6
Continuous
 62
     6
370
     9
100
AcDbLine
 10
-120.4895675743366
 20
-261.1722057533124
 30
0.0
 11
-122.5323471544828
 21
-261.1722057533124
 31
0.0
  0
LINE
  5
223
330
1F
100
AcDbEntity
  8
A-1
  6
Continuous
 62
     6
370
     9
100
AcDbLine
 10
-98.48958904857831
 20
-273.1722057533125
 30
0.0
 11
-101.8838256181284
 21
-273.1722057533125
 31
0.0
  0
LINE
  5
224
330
1F
100
AcDbEntity
  8
A-1
  6
Continuous
 62
     6
370
     9
100
AcDbLine
 10
-94.48963236527585
 20
-273.1722057533125
 30
0.0
 11
-94.48969429887428
 21
-273.1722057533125
 31
0.0
  0
LINE
  5
225
330
1F
100
AcDbEntity
  8
A-1
  6
Continuous
 62
     6
370
     9
100
AcDbLine
 10
72.90458713387231
 20
-273.1722057533125
 30
0.0
 11
-90.48967568197328
 21
-273.1722057533125
 31
0.0
  0
LINE
  5
226
330
1F
100
AcDbEntity
  8
A-2
  6
Continuous
 62
     3
370
     9
100
AcDbLine
 10
94.0103654990828
 20
-255.1722273748397
 30
0.0
 11
93.01041039173639
 21
-254.1722227206145
 31
0.0
  0
LINE
  5
227
330
1F
100
AcDbEntity
  8
A-2
  6
Continuous
 62
     3
370
     9
100
AcDbLine
 10
39.51035957820135
 20
-249.9961144965631
 30
0.0
 11
77.51041257156338
 21
-260.1780971776608
 31
0.0
  0
LINE
  5
228
330
1F
100
AcDbEntity
  8
A-2
  6
Continuous
 62
     3
370
     9
100
AcDbLine
 10
77.51041257156338
 20
-260.1780971776608
 30
0.0
 11
80.51037698736035
 21
-261.1722553001912
 31
0.0
  0
LINE
  5
229
330
1F
100
AcDbEntity
  8
A-2
  6
Continuous
 62
     3
370
     9
100
AcDbLine
 10
-76.15648208340646
 20
-245.838734992687
 30
0.0
 11
-63.16806509498953
 21
-97.37983663248261
 31
0.0
  0
LINE
  5
22A
330
1F
100
AcDbEntity
  8
A-2
  6
Continuous
 62
     3
370
     9
100
AcDbLine
 10
92.79443554717567
 20
-260.0360462762258
 30
0.0
 11
94.0103654990828
 21
-255.1722273748397
 31
0.0
  0
LINE
  5
22B
330
1F
100
AcDbEntity
  8
A-2
  6
JWW_DASHED1
 62
     3
370
     9
100
AcDbLine
 10
18.51043525354713
 20
-74.5402119256398
 30
0.0
 11
20.51044456199757
 21
-85.75148146631611
 31
0.0
  0
LINE
  5
22C
330
1F
100
AcDbEntity
  8
A-2
  6
JWW_DASHED1
 62
     3
370
     9
100
AcDbLine
 10
-47.48957464404579
 20
-74.5402119256398
 30
0.0
 11
-49.48958395249623
 21
-85.75148146631611
 31
0.0
  0
LINE
  5
22D
330
1F
100
AcDbEntity
  8
A-2
  6
Continuous
 62
     3
370
     9
100
AcDbLine
 10
39.51035957820135
 20
-249.9961144965631
 30
0.0
 11
-68.48964760933633
 21
-249.9961144965631
 31
0.0
  0
LINE
  5
22E
330
1F
100
AcDbEntity
  8
A-2
  6
Continuous
 62
     3
370
     9
100
AcDbLine
 10
30.45534542817835
 20
-146.4960539327209
 30
0.0
 11
-59.43448481867701
 21
-146.4960539327209
 31
0.0
  0
LINE
  5
22F
330
1F
100
AcDbEntity
  8
A-2
  6
Continuous
 62
     3
370
     9
100
AcDbLine
 10
29.31802159944071
 20
-133.4960429746716
 30
0.0
 11
-58.29716098993926
 21
-133.4960429746716
 31
0.0
  0
LINE
  5
230
330
1F
100
AcDbEntity
  8
A-2
  6
Continuous
 62
     3
370
     9
100
AcDbLine
 10
23.19556333664728
 20
-134.6586109381429
 30
0.0
 11
29.31802159944071
 21
-133.4960429746716
 31
0.0
  0
LINE
  5
231
330
1F
100
AcDbEntity
  8
A-2
  6
Continuous
 62
     3
370
     9
100
AcDbLine
 10
22.16077677352517
 20
-143.4786490155967
 30
0.0
 11
21.57632179154824
 21
-136.797747882181
 31
0.0
  0
LINE
  5
232
330
1F
100
AcDbEntity
  8
A-2
  6
Continuous
 62
     3
370
     9
100
AcDbLine
 10
23.79168660857475
 20
-145.2714037301502
 30
0.0
 11
30.45534542817835
 21
-146.4960539327209
 31
0.0
  0
LINE
  5
233
330
1F
100
AcDbEntity
  8
A-2
  6
Continuous
 62
     3
370
     9
100
AcDbLine
 10
-52.17470272714594
 20
-134.6586109381429
 30
0.0
 11
-58.29716098993926
 21
-133.4960429746716
 31
0.0
  0
LINE
  5
234
330
1F
100
AcDbEntity
  8
A-2
  6
Continuous
 62
     3
370
     9
100
AcDbLine
 10
-51.14001525778134
 20
-143.4786490155967
 30
0.0
 11
-50.5554611820469
 21
-136.797747882181
 31
0.0
  0
LINE
  5
235
330
1F
100
AcDbEntity
  8
A-2
  6
Continuous
 62
     3
370
     9
100
AcDbLine
 10
-52.77082599907341
 20
-145.2714037301502
 30
0.0
 11
-59.43448481867701
 21
-146.4960539327209
 31
0.0
  0
LINE
  5
236
330
1F
100
AcDbEntity
  8
A-2
  6
Continuous
 62
     3
370
     9
100
AcDbLine
 10
22.40623201095433
 20
-134.9960251825701
 30
0.0
 11
-51.38537140145287
 21
-134.9960251825701
 31
0.0
  0
LINE
  5
237
330
1F
100
AcDbEntity
  8
A-2
  6
Continuous
 62
     3
370
     9
100
AcDbLine
 10
23.08638678927649
 20
-144.9960717248224
 30
0.0
 11
-52.06552617977515
 21
-144.9960717248224
 31
0.0
  0
LINE
  5
238
330
1F
100
AcDbEntity
  8
A-2
  6
Continuous
 62
     3
370
     9
100
AcDbLine
 10
29.31802159944071
 20
-133.4960429746716
 30
0.0
 11
26.21928548081472
 21
-98.07715940429878
 31
0.0
  0
LINE
  5
239
330
1F
100
AcDbEntity
  8
A-2
  6
JWW_DASHED1
 62
     3
370
     9
100
AcDbLine
 10
30.45534542817835
 20
-146.4960539327209
 30
0.0
 11
29.31802159944071
 21
-133.4960429746716
 31
0.0
  0
LINE
  5
23A
330
1F
100
AcDbEntity
  8
A-2
  6
Continuous
 62
     3
370
     9
100
AcDbLine
 10
-76.15648208340646
 20
-245.838734992687
 30
0.0
 11
-77.65643951786559
 21
-252.4523019178536
 31
0.0
  0
LINE
  5
23B
330
1F
100
AcDbEntity
  8
A-2
  6
Continuous
 62
     3
370
     9
100
AcDbLine
 10
38.89788583627966
 20
-242.9960819169865
 30
0.0
 11
-67.87717386741464
 21
-242.9960819169865
 31
0.0
  0
LINE
  5
23C
330
1F
100
AcDbEntity
  8
A-2
  6
Continuous
 62
     3
370
     9
100
AcDbLine
 10
38.89788583627966
 20
-245.996145426541
 30
0.0
 11
-67.87717386741464
 21
-245.996145426541
 31
0.0
  0
LINE
  5
23D
330
1F
100
AcDbEntity
  8
A-2
  6
Continuous
 62
     3
370
     9
100
AcDbLine
 10
47.1772435991504
 20
-245.838734992687
 30
0.0
 11
48.67720103360942
 21
-252.4523019178536
 31
0.0
  0
LINE
  5
23E
330
1F
100
AcDbEntity
  8
A-2
  6
Continuous
 62
     3
370
     9
100
AcDbLine
 10
47.1772435991504
 20
-245.838734992687
 30
0.0
 11
34.18882661073336
 21
-97.37983663248261
 31
0.0
  0
LINE
  5
23F
330
1F
100
AcDbEntity
  8
A-2
  6
Continuous
 62
     3
370
     9
100
AcDbLine
 10
-58.29718576337872
 20
-133.4960429746716
 30
0.0
 11
-55.19842487131338
 21
-98.07715940429878
 31
0.0
  0
LINE
  5
240
330
1F
100
AcDbEntity
  8
A-2
  6
JWW_DASHED1
 62
     3
370
     9
100
AcDbLine
 10
-59.43458391243452
 20
-146.4960539327209
 30
0.0
 11
-58.29726008369688
 21
-133.4960429746716
 31
0.0
  0
LINE
  5
241
330
1F
100
AcDbEntity
  8
A-2
  6
Continuous
 62
     3
370
     9
100
AcDbLine
 10
84.51034605738253
 20
-255.1722273748397
 30
0.0
 11
83.51034140315731
 21
-254.1722227206145
 31
0.0
  0
LINE
  5
242
330
1F
100
AcDbEntity
  8
A-2
  6
Continuous
 62
     3
370
     9
100
AcDbLine
 10
84.51034605738253
 20
-255.1722273748397
 30
0.0
 11
83.01036384948405
 21
-261.1722553001912
 31
0.0
  0
LINE
  5
243
330
1F
100
AcDbEntity
  8
A-2
  6
Continuous
 62
     3
370
     9
100
AcDbLine
 10
74.01037150833575
 20
-253.0286312117123
 30
0.0
 11
72.51038930043727
 21
-258.8383495757062
 31
0.0
  0
LINE
  5
244
330
1F
100
AcDbEntity
  8
A-2
  6
Continuous
 62
     3
370
     9
100
AcDbLine
 10
78.2783396456275
 20
-254.1722227206145
 30
0.0
 11
93.01041039173639
 21
-254.1722227206145
 31
0.0
  0
LINE
  5
245
330
1F
100
AcDbEntity
  8
A-2
  6
Continuous
 62
     3
370
     9
100
AcDbLine
 10
47.1772435991504
 20
-245.838734992687
 30
0.0
 11
78.2783396456275
 21
-254.1722227206145
 31
0.0
  0
LINE
  5
246
330
1F
100
AcDbEntity
  8
A-2
  6
Continuous
 62
     3
370
     9
100
AcDbLine
 10
38.54793623152362
 20
-238.9960137532068
 30
0.0
 11
30.45534542817835
 21
-146.4960539327209
 31
0.0
  0
LINE
  5
247
330
1F
100
AcDbEntity
  8
A-2
  6
Continuous
 62
     3
370
     9
100
AcDbLine
 10
38.54793623152362
 20
-238.9960137532068
 30
0.0
 11
-67.52722426265849
 21
-238.9960137532068
 31
0.0
  0
LINE
  5
248
330
1F
100
AcDbEntity
  8
A-2
  6
Continuous
 62
     3
370
     9
100
AcDbLine
 10
-67.52722426265849
 20
-238.9960137532068
 30
0.0
 11
-59.43453436555582
 21
-146.4960539327209
 31
0.0
  0
LINE
  5
249
330
1F
100
AcDbEntity
  8
A-2
  6
Continuous
 62
     3
370
     9
100
AcDbLine
 10
-122.9896039833391
 20
-255.1722273748397
 30
0.0
 11
-121.9896488759926
 21
-254.1722227206145
 31
0.0
  0
LINE
  5
24A
330
1F
100
AcDbEntity
  8
A-2
  6
Continuous
 62
     3
370
     9
100
AcDbLine
 10
-121.773674031432
 20
-260.0360462762258
 30
0.0
 11
-122.9896039833391
 21
-255.1722273748397
 31
0.0
  0
LINE
  5
24B
330
1F
100
AcDbEntity
  8
A-2
  6
Continuous
 62
     3
370
     9
100
AcDbLine
 10
-113.4895845416387
 20
-255.1722273748397
 30
0.0
 11
-112.4895798874135
 21
-254.1722227206145
 31
0.0
  0
LINE
  5
24C
330
1F
100
AcDbEntity
  8
A-2
  6
Continuous
 62
     3
370
     9
100
AcDbLine
 10
-113.4895845416387
 20
-255.1722273748397
 30
0.0
 11
-111.9896023337402
 21
-261.1722553001912
 31
0.0
  0
LINE
  5
24D
330
1F
100
AcDbEntity
  8
A-2
  6
Continuous
 62
     3
370
     9
100
AcDbLine
 10
-102.9896099925918
 20
-253.0286312117123
 30
0.0
 11
-101.4896277846934
 21
-258.8383495757062
 31
0.0
  0
LINE
  5
24E
330
1F
100
AcDbEntity
  8
A-2
  6
Continuous
 62
     3
370
     9
100
AcDbLine
 10
-107.257404715808
 20
-254.1722227206145
 30
0.0
 11
-121.9896488759926
 21
-254.1722227206145
 31
0.0
  0
LINE
  5
24F
330
1F
100
AcDbEntity
  8
A-2
  6
Continuous
 62
     3
370
     9
100
AcDbLine
 10
-106.4910135949858
 20
-260.1785430995698
 30
0.0
 11
-109.4896154716165
 21
-261.1722553001912
 31
0.0
  0
LINE
  5
250
330
1F
100
AcDbEntity
  8
A-2
  6
Continuous
 62
     3
370
     9
100
AcDbLine
 10
-76.15648208340646
 20
-245.838734992687
 30
0.0
 11
-90.48967568197328
 21
-249.6793117537045
 31
0.0
  0
LINE
  5
251
330
1F
100
AcDbEntity
  8
A-2
  6
Continuous
 62
     3
370
     9
100
AcDbLine
 10
-98.48958904857831
 20
-251.8229079168319
 30
0.0
 11
-107.257404715808
 21
-254.1722227206145
 31
0.0
  0
LINE
  5
252
330
1F
100
AcDbEntity
  8
A-2
  6
Continuous
 62
     3
370
     9
100
AcDbLine
 10
-68.48964760933633
 20
-249.9961144965631
 30
0.0
 11
-90.48967568197328
 21
-255.8910039451635
 31
0.0
  0
LINE
  5
253
330
1F
100
AcDbEntity
  8
A-2
  6
Continuous
 62
     3
370
     9
100
AcDbLine
 10
-98.48958904857831
 20
-258.0345505614122
 30
0.0
 11
-106.4910135949858
 21
-260.1785430995698
 31
0.0
  0
ARC
  5
254
330
1F
100
AcDbEntity
  8
A-2
  6
Continuous
 62
     3
370
     9
100
AcDbCircle
 10
6.295321175540934
 20
-99.82026814632414
 30
0.0
 40
20.00000018410701
100
AcDbArc
 50
4.999984741210936
 51
58.69299316406249
  0
ARC
  5
255
330
1F
100
AcDbEntity
  8
A-2
  6
Continuous
 62
     3
370
     9
100
AcDbCircle
 10
-35.27446056603948
 20
-99.82026814632414
 30
0.0
 40
20.00000018410701
100
AcDbArc
 50
121.3070068359375
 51
175.0000152587891
  0
ARC
  5
256
330
1F
100
AcDbEntity
  8
A-2
  6
Continuous
 62
     3
370
     9
100
AcDbCircle
 10
-14.48961924212803
 20
-133.9960700752236
 30
0.0
 40
60.00000055232103
100
AcDbArc
 50
58.69300842285156
 51
121.3069915771484
  0
ARC
  5
257
330
1F
100
AcDbEntity
  8
A-2
  6
Continuous
 62
     3
370
     9
100
AcDbCircle
 10
6.295321175540934
 20
-99.82026814632414
 30
0.0
 40
28.00000025774981
100
AcDbArc
 50
4.999984741210936
 51
58.69299316406249
  0
ARC
  5
258
330
1F
100
AcDbEntity
  8
A-2
  6
Continuous
 62
     3
370
     9
100
AcDbCircle
 10
-14.48961924212803
 20
-133.9960700752236
 30
0.0
 40
68.00000062596384
100
AcDbArc
 50
58.69300842285156
 51
121.3069915771484
  0
ARC
  5
259
330
1F
100
AcDbEntity
  8
A-2
  6
Continuous
 62
     3
370
     9
100
AcDbCircle
 10
-35.27446056603948
 20
-99.82026814632414
 30
0.0
 40
28.00000025774981
100
AcDbArc
 50
121.3070068359375
 51
175.0000152587891
  0
ARC
  5
25A
330
1F
100
AcDbEntity
  8
A-2
  6
Continuous
 62
     3
370
     9
100
AcDbCircle
 10
38.89788583627966
 20
-244.4960145780062
 30
0.0
 40
1.500006787795358
100
AcDbArc
 50
270.0
 51
90.0
  0
ARC
  5
25B
330
1F
100
AcDbEntity
  8
A-2
  6
Continuous
 62
     3
370
     9
100
AcDbCircle
 10
-67.87717386741464
 20
-244.4960145780062
 30
0.0
 40
1.500006787795358
100
AcDbArc
 50
90.0
 51
270.0
  0
ARC
  5
25C
330
1F
100
AcDbEntity
  8
A-2
  6
Continuous
 62
     3
370
     9
100
AcDbCircle
 10
23.56870088066806
 20
-136.6234419626662
 30
0.0
 40
2.000000018410701
100
AcDbArc
 50
100.7519226074219
 51
184.9998016357422
  0
ARC
  5
25D
330
1F
100
AcDbEntity
  8
A-2
  6
Continuous
 62
     3
370
     9
100
AcDbCircle
 10
24.15315586264499
 20
-143.304343096082
 30
0.0
 40
2.000000018410701
100
AcDbArc
 50
184.9998016357422
 51
259.5860290527343
  0
ARC
  5
25E
330
1F
100
AcDbEntity
  8
A-2
  6
Continuous
 62
     3
370
     9
100
AcDbCircle
 10
-52.54784027116672
 20
-136.6234419626662
 30
0.0
 40
2.000000018410701
100
AcDbArc
 50
355.0001983642578
 51
79.24807739257812
  0
ARC
  5
25F
330
1F
100
AcDbEntity
  8
A-2
  6
Continuous
 62
     3
370
     9
100
AcDbCircle
 10
-53.13239434690117
 20
-143.304343096082
 30
0.0
 40
2.000000018410701
100
AcDbArc
 50
280.4139709472656
 51
355.0001983642578
  0
ARC
  5
260
330
1F
100
AcDbEntity
  8
A-2
  6
Continuous
 62
     3
370
     9
100
AcDbCircle
 10
91.33919417080709
 20
-259.6722730922927
 30
0.0
 40
1.500000013808026
100
AcDbArc
 50
296.5819854736328
 51
345.9651336669922
  0
ARC
  5
261
330
1F
100
AcDbEntity
  8
A-2
  6
Continuous
 62
     3
370
     9
100
AcDbCircle
 10
-120.3184326550633
 20
-259.6722730922927
 30
0.0
 40
1.500000013808026
100
AcDbArc
 50
194.0348663330078
 51
243.4180145263672
  0
LINE
  5
262
330
1F
100
AcDbEntity
  8
A-2
  6
Continuous
 62
     3
370
     9
100
AcDbLine
 10
-112.2456606032263
 20
-261.1722057533124
 30
0.0
 11
-98.48958904857831
 21
-261.1722057533124
 31
0.0
  0
LINE
  5
263
330
1F
100
AcDbEntity
  8
A-2
  6
Continuous
 62
     3
370
     9
100
AcDbLine
 10
83.26642211897
 20
-261.1722553001912
 30
0.0
 11
-90.48967568197328
 21
-261.1722553001912
 31
0.0
  0
LINE
  5
264
330
1F
100
AcDbEntity
  8
A-1
  6
Continuous
 62
     6
370
     9
100
AcDbLine
 10
-122.489607136207
 20
-254.6722057533123
 30
0.0
 11
-127.9896132917895
 21
-254.6722057533123
 31
0.0
  0
LINE
  5
265
330
1F
100
AcDbEntity
  8
A-1
  6
Continuous
 62
     6
370
     9
100
AcDbLine
 10
93.51036865195083
 20
-254.6722057533123
 30
0.0
 11
99.01037480753347
 21
-254.6722057533123
 31
0.0
  0
LINE
  5
266
330
1F
100
AcDbEntity
  8
A-1
  6
Continuous
 62
     6
370
     9
100
AcDbLine
 10
83.24802471396258
 20
-261.1722057533124
 30
0.0
 11
86.01042735903842
 21
-261.1722057533124
 31
0.0
  0
LINE
  5
267
330
1F
100
AcDbEntity
  8
A-1
  6
Continuous
 62
     6
370
     9
100
AcDbLine
 10
92.01035619063235
 20
-261.1722057533124
 30
0.0
 11
93.55310867022676
 21
-261.1722057533124
 31
0.0
  0
LINE
  5
268
330
1F
100
AcDbEntity
  8
A-1
  6
Continuous
 62
     6
370
     9
100
AcDbLine
 10
-110.9896302590916
 20
-261.1722057533124
 30
0.0
 11
-115.4896929438467
 21
-261.1722057533124
 31
0.0
  0
LINE
  5
269
330
1F
100
AcDbEntity
  8
A-1
  6
Continuous
 62
     6
370
     9
100
AcDbLine
 10
-109.9896302590916
 20
-266.3414682495629
 30
0.0
 11
-110.9896302590916
 21
-261.1722057533124
 31
0.0
  0
LINE
  5
26A
330
1F
100
AcDbEntity
  8
A-1
  6
Continuous
 62
     6
370
     9
100
AcDbLine
 10
-109.9896302590916
 20
-266.3414682495629
 30
0.0
 11
-103.1573648363535
 21
-268.1722057533125
 31
0.0
  0
LINE
  5
26B
330
1F
100
AcDbEntity
  8
A-C
  6
Continuous
 62
     2
370
     9
100
AcDbLine
 10
88.5102655805258
 20
-253.172267613268
 30
0.0
 11
89.51041887538734
 21
-253.172267613268
 31
0.0
  0
LINE
  5
26C
330
1F
100
AcDbEntity
  8
A-C
  6
Continuous
 62
     2
370
     9
100
AcDbLine
 10
88.5102655805258
 20
-250.2902247689449
 30
0.0
 11
88.5102655805258
 21
-253.172267613268
 31
0.0
  0
LINE
  5
26D
330
1F
100
AcDbEntity
  8
A-C
  6
Continuous
 62
     2
370
     9
100
AcDbLine
 10
86.51045445959049
 20
-266.1722785713173
 30
0.0
 11
91.51032909008039
 21
-266.1722785713173
 31
0.0
  0
LINE
  5
26E
330
1F
100
AcDbEntity
  8
A-C
  6
Continuous
 62
     2
370
     9
100
AcDbLine
 10
86.01042735903842
 20
-265.6723010176441
 30
0.0
 11
92.01035619063235
 21
-265.6723010176441
 31
0.0
  0
LINE
  5
26F
330
1F
100
AcDbEntity
  8
A-C
  6
Continuous
 62
     2
370
     9
100
AcDbLine
 10
86.01042735903842
 20
-265.6723010176441
 30
0.0
 11
86.51045445959049
 21
-266.1722785713173
 31
0.0
  0
LINE
  5
270
330
1F
100
AcDbEntity
  8
A-C
  6
Continuous
 62
     2
370
     9
100
AcDbLine
 10
92.01035619063235
 20
-265.6723010176441
 30
0.0
 11
91.51032909008039
 21
-266.1722785713173
 31
0.0
  0
LINE
  5
271
330
1F
100
AcDbEntity
  8
A-C
  6
Continuous
 62
     2
370
     9
100
AcDbLine
 10
91.51032909008039
 20
-254.1722227206145
 30
0.0
 11
91.51032909008039
 21
-266.1722785713173
 31
0.0
  0
LINE
  5
272
330
1F
100
AcDbEntity
  8
A-C
  6
Continuous
 62
     2
370
     9
100
AcDbLine
 10
86.51045445959049
 20
-254.1722227206145
 30
0.0
 11
86.51045445959049
 21
-266.1722785713173
 31
0.0
  0
LINE
  5
273
330
1F
100
AcDbEntity
  8
A-C
  6
Continuous
 62
     2
370
     9
100
AcDbLine
 10
86.01042735903842
 20
-254.1722227206145
 30
0.0
 11
86.01042735903842
 21
-265.6723010176441
 31
0.0
  0
LINE
  5
274
330
1F
100
AcDbEntity
  8
A-C
  6
Continuous
 62
     2
370
     9
100
AcDbLine
 10
93.01041039173639
 20
-254.1722227206145
 30
0.0
 11
94.26037904935878
 21
-254.1722227206145
 31
0.0
  0
LINE
  5
275
330
1F
100
AcDbEntity
  8
A-C
  6
Continuous
 62
     2
370
     9
100
AcDbLine
 10
92.01035619063235
 20
-254.1722227206145
 30
0.0
 11
92.01035619063235
 21
-265.6723010176441
 31
0.0
  0
LINE
  5
276
330
1F
100
AcDbEntity
  8
A-C
  6
JWW_CENTER1
 62
     2
370
     9
100
AcDbLine
 10
89.01039177483538
 20
-248.990263310643
 30
0.0
 11
89.01039177483538
 21
-268.7727960504665
 31
0.0
  0
LINE
  5
277
330
1F
100
AcDbEntity
  8
A-C
  6
Continuous
 62
     2
370
     9
100
AcDbLine
 10
-117.4895040647821
 20
-253.172267613268
 30
0.0
 11
-118.4896573596436
 21
-253.172267613268
 31
0.0
  0
LINE
  5
278
330
1F
100
AcDbEntity
  8
A-C
  6
Continuous
 62
     2
370
     9
100
AcDbLine
 10
-118.4896573596436
 20
-250.2902247689449
 30
0.0
 11
-118.4896573596436
 21
-253.172267613268
 31
0.0
  0
LINE
  5
279
330
1F
100
AcDbEntity
  8
A-C
  6
Continuous
 62
     2
370
     9
100
AcDbLine
 10
-117.4895040647821
 20
-250.2902247689449
 30
0.0
 11
-117.4895040647821
 21
-253.172267613268
 31
0.0
  0
LINE
  5
27A
330
1F
100
AcDbEntity
  8
A-C
  6
Continuous
 62
     2
370
     9
100
AcDbLine
 10
-115.4896929438467
 20
-266.1722785713173
 30
0.0
 11
-120.4895675743366
 21
-266.1722785713173
 31
0.0
  0
LINE
  5
27B
330
1F
100
AcDbEntity
  8
A-C
  6
Continuous
 62
     2
370
     9
100
AcDbLine
 10
-114.9896658432947
 20
-265.6723010176441
 30
0.0
 11
-120.9895946748886
 21
-265.6723010176441
 31
0.0
  0
LINE
  5
27C
330
1F
100
AcDbEntity
  8
A-C
  6
Continuous
 62
     2
370
     9
100
AcDbLine
 10
-114.9896658432947
 20
-265.6723010176441
 30
0.0
 11
-115.4896929438467
 21
-266.1722785713173
 31
0.0
  0
LINE
  5
27D
330
1F
100
AcDbEntity
  8
A-C
  6
Continuous
 62
     2
370
     9
100
AcDbLine
 10
-120.9895946748886
 20
-265.6723010176441
 30
0.0
 11
-120.4895675743366
 21
-266.1722785713173
 31
0.0
  0
LINE
  5
27E
330
1F
100
AcDbEntity
  8
A-C
  6
Continuous
 62
     2
370
     9
100
AcDbLine
 10
-120.4895675743366
 20
-254.1722227206145
 30
0.0
 11
-120.4895675743366
 21
-266.1722785713173
 31
0.0
  0
LINE
  5
27F
330
1F
100
AcDbEntity
  8
A-C
  6
Continuous
 62
     2
370
     9
100
AcDbLine
 10
-115.4896929438467
 20
-254.1722227206145
 30
0.0
 11
-115.4896929438467
 21
-266.1722785713173
 31
0.0
  0
LINE
  5
280
330
1F
100
AcDbEntity
  8
A-C
  6
Continuous
 62
     2
370
     9
100
AcDbLine
 10
-114.9896658432947
 20
-254.1722227206145
 30
0.0
 11
-114.9896658432947
 21
-265.6723010176441
 31
0.0
  0
LINE
  5
281
330
1F
100
AcDbEntity
  8
A-C
  6
Continuous
 62
     2
370
     9
100
AcDbLine
 10
-121.9896488759926
 20
-254.1722227206145
 30
0.0
 11
-123.2396175336151
 21
-254.1722227206145
 31
0.0
  0
LINE
  5
282
330
1F
100
AcDbEntity
  8
A-C
  6
Continuous
 62
     2
370
     9
100
AcDbLine
 10
-120.9895946748886
 20
-254.1722227206145
 30
0.0
 11
-120.9895946748886
 21
-265.6723010176441
 31
0.0
  0
LINE
  5
283
330
1F
100
AcDbEntity
  8
A-C
  6
JWW_CENTER1
 62
     2
370
     9
100
AcDbLine
 10
-117.9896302590917
 20
-248.990263310643
 30
0.0
 11
-117.9896302590917
 21
-268.7727960504665
 31
0.0
  0
LINE
  5
284
330
1F
100
AcDbEntity
  8
A-C
  6
Continuous
 62
     2
370
     9
100
AcDbLine
 10
89.51041887538734
 20
-250.2902743158237
 30
0.0
 11
89.51041887538734
 21
-253.172267613268
 31
0.0
  0
ELLIPSE
  5
285
330
1F
100
AcDbEntity
  8
A-C
  6
Continuous
 62
     2
370
     9
100
AcDbEllipse
 10
89.01039177483538
 20
-254.1722227206145
 30
0.0
 11
5.24997991990859
 21
0.0
 31
0.0
210
0.0
220
0.0
230
1.0
 40
0.7428
 41
1.666184365454919
 42
3.141592653589793
  0
ELLIPSE
  5
286
330
1F
100
AcDbEntity
  8
A-C
  6
Continuous
 62
     2
370
     9
100
AcDbEllipse
 10
-117.9896302590917
 20
-254.1722227206145
 30
0.0
 11
-5.24997991990859
 21
6.429371104503932E-16
 31
0.0
210
0.0
220
0.0
230
1.0
 40
0.7428
 41
4.807777019044712
 42
6.283185307179586
  0
ELLIPSE
  5
287
330
1F
100
AcDbEntity
  8
A-C
  6
Continuous
 62
     2
370
     9
100
AcDbEllipse
 10
-117.9896302590917
 20
-254.1722227206145
 30
0.0
 11
-5.24997991990859
 21
6.429371104503932E-16
 31
0.0
210
0.0
220
0.0
230
1.0
 40
0.7428
 41
3.141592653589793
 42
4.617000941724667
  0
ELLIPSE
  5
288
330
1F
100
AcDbEntity
  8
A-C
  6
Continuous
 62
     2
370
     9
100
AcDbEllipse
 10
89.01039177483538
 20
-254.1722227206145
 30
0.0
 11
5.24997991990859
 21
0.0
 31
0.0
210
0.0
220
0.0
230
1.0
 40
0.7428
 41
0.0
 42
1.475408021818765
  0
LINE
  5
289
330
1F
100
AcDbEntity
  8
A-C
  6
Continuous
 62
     2
370
     9
100
AcDbLine
 10
-100.1132154924486
 20
-261.755805927726
 30
0.0
 11
-88.86607401154244
 21
-261.755805927726
 31
0.0
  0
ARC
  5
28A
330
1F
100
AcDbEntity
  8
A-C
  6
Continuous
 62
     2
370
     9
100
AcDbCircle
 10
-100.1132154924486
 20
-264.5560468751989
 30
0.0
 40
2.800173594684674
100
AcDbArc
 50
47.92556762695312
 51
132.0746307373047
  0
ARC
  5
28B
330
1F
100
AcDbEntity
  8
A-C
  6
Continuous
 62
     2
370
     9
100
AcDbCircle
 10
-94.48969429887428
 20
-271.8453341330379
 30
0.0
 40
10.08940975730484
100
AcDbArc
 50
68.19786071777345
 51
111.8021392822266
  0
ARC
  5
28C
330
1F
100
AcDbEntity
  8
A-C
  6
Continuous
 62
     2
370
     9
100
AcDbCircle
 10
-88.86607401154244
 20
-264.5560468751989
 30
0.0
 40
2.800189852254271
100
AcDbArc
 50
47.92572021484376
 51
132.0742797851562
  0
LINE
  5
28D
330
1F
100
AcDbEntity
  8
A-9
  6
Continuous
 62
     6
370
     9
100
AcDbLine
 10
-170.9895770595297
 20
-275.8061447818499
 30
0.0
 11
-170.9895770595297
 21
-274.2060778788349
 31
0.0
  0
LINE
  5
28E
330
1F
100
AcDbEntity
  8
A-0
  6
Continuous
 62
     4
370
     9
100
AcDbLine
 10
-97.81310073928513
 20
-280.6135307106098
 30
0.0
 11
-91.16613921782711
 21
-280.6135307106098
 31
0.0
  0
LINE
  5
28F
330
1F
100
AcDbEntity
  8
A-0
  6
Continuous
 62
     4
370
     9
100
AcDbLine
 10
-91.16613921782711
 20
-279.6135260563846
 30
0.0
 11
-91.16613921782711
 21
-280.6135307106098
 31
0.0
  0
LINE
  5
290
330
1F
100
AcDbEntity
  8
A-0
  6
Continuous
 62
     4
370
     9
100
AcDbLine
 10
-97.81310073928513
 20
-280.6135307106098
 30
0.0
 11
-97.81310073928513
 21
-279.6135260563846
 31
0.0
  0
LINE
  5
291
330
1F
100
AcDbEntity
  8
A-0
  6
Continuous
 62
     4
370
     9
100
AcDbLine
 10
-91.16628785846343
 20
-280.6135307106098
 30
0.0
 11
-94.48969429887428
 21
-282.5322831378766
 31
0.0
  0
LINE
  5
292
330
1F
100
AcDbEntity
  8
A-0
  6
Continuous
 62
     4
370
     9
100
AcDbLine
 10
-97.81310073928513
 20
-280.6135307106098
 30
0.0
 11
-94.48969429887428
 21
-282.5322831378766
 31
0.0
  0
ARC
  5
293
330
1F
100
AcDbEntity
  8
A-0
  6
Continuous
 62
     4
370
     9
100
AcDbCircle
 10
-111.838871312447
 20
-271.5412944377066
 30
0.0
 40
1.00000000920535
100
AcDbArc
 50
29.99998474121094
 51
74.99946594238283
  0
ARC
  5
294
330
1F
100
AcDbEntity
  8
A-0
  6
Continuous
 62
     4
370
     9
100
AcDbCircle
 10
-109.1652721871113
 20
-271.2224602728185
 30
0.0
 40
1.00000000920535
100
AcDbArc
 50
255.0076904296875
 51
299.9980468749999
  0
ARC
  5
295
330
1F
100
AcDbEntity
  8
A-0
  6
Continuous
 62
     4
370
     9
100
AcDbCircle
 10
-109.8138903770961
 20
-271.0486993689702
 30
0.0
 40
1.00000000920535
100
AcDbArc
 50
209.9987640380859
 51
255.0076904296875
  0
LINE
  5
296
330
1F
100
AcDbEntity
  8
A-0
  6
Continuous
 62
     4
370
     9
100
AcDbLine
 10
-96.40458206959705
 20
-319.2060745796373
 30
0.0
 11
-95.654541418769
 21
-295.2060619719892
 31
0.0
  0
LINE
  5
297
330
1F
100
AcDbEntity
  8
A-0
  6
Continuous
 62
     4
370
     9
100
AcDbLine
 10
69.01034823720941
 20
-295.2060619719892
 30
0.0
 11
-97.9895867214657
 21
-295.2060619719892
 31
0.0
  0
LINE
  5
298
330
1F
100
AcDbEntity
  8
A-0
  6
Continuous
 62
     4
370
     9
100
AcDbLine
 10
-211.9896192421281
 20
-252.2060745796373
 30
0.0
 11
-210.9896192421281
 21
-253.2060745796373
 31
0.0
  0
LINE
  5
299
330
1F
100
AcDbEntity
  8
A-0
  6
Continuous
 62
     4
370
     9
100
AcDbLine
 10
-205.9896192421281
 20
-253.2060745796373
 30
0.0
 11
-210.9896192421281
 21
-253.2060745796373
 31
0.0
  0
ARC
  5
29A
330
1F
100
AcDbEntity
  8
A-0
  6
Continuous
 62
     4
370
     9
100
AcDbCircle
 10
-201.2228725038568
 20
-263.1196070243908
 30
0.0
 40
11.0
100
AcDbArc
 50
74.99970657938196
 51
115.6797513965868
  0
LINE
  5
29B
330
1F
100
AcDbEntity
  8
A-A
  6
Continuous
 62
     2
370
     9
100
AcDbLine
 10
-90.48967568197328
 20
-278.9372111611671
 30
0.0
 11
-98.48958904857831
 21
-278.9372111611671
 31
0.0
  0
LINE
  5
29C
330
1F
100
AcDbEntity
  8
A-A
  6
Continuous
 62
     2
370
     9
100
AcDbLine
 10
-98.48958904857831
 20
-278.9372111611671
 30
0.0
 11
-97.81310073928513
 21
-279.6135260563846
 31
0.0
  0
LINE
  5
29D
330
1F
100
AcDbEntity
  8
A-A
  6
Continuous
 62
     2
370
     9
100
AcDbLine
 10
-97.81310073928513
 20
-279.6135260563846
 30
0.0
 11
-91.16613921782711
 21
-279.6135260563846
 31
0.0
  0
LINE
  5
29E
330
1F
100
AcDbEntity
  8
A-A
  6
Continuous
 62
     2
370
     9
100
AcDbLine
 10
-91.16613921782711
 20
-279.6135260563846
 30
0.0
 11
-90.48967568197328
 21
-278.9372111611671
 31
0.0
  0
LINE
  5
29F
330
1F
100
AcDbEntity
  8
A-A
  6
JWW_CENTER1
 62
     2
370
     9
100
AcDbLine
 10
-94.48969429887428
 20
-237.9514384796546
 30
0.0
 11
-94.48969429887428
 21
-283.1135175727335
 31
0.0
  0
LINE
  5
2A0
330
1F
100
AcDbEntity
  8
A-0
  6
JWW_CENTER2
 62
     4
370
     9
100
AcDbLine
 10
-177.9895600922277
 20
-284.3236000706521
 30
0.0
 11
-177.9895600922277
 21
-255.8433604970593
 31
0.0
  0
LINE
  5
2A1
330
1F
100
AcDbEntity
  8
A-0
  6
Continuous
 62
     4
370
     9
100
AcDbLine
 10
69.01034823720941
 20
-284.2061098692692
 30
0.0
 11
-97.9895867214657
 21
-284.2061098692692
 31
0.0
  0
LINE
  5
2A2
330
1F
100
AcDbEntity
  8
A-0
  6
Continuous
 62
     4
370
     9
100
AcDbLine
 10
-97.9895867214657
 20
-284.2061098692692
 30
0.0
 11
-97.9895867214657
 21
-295.2060619719892
 31
0.0
  0
LINE
  5
2A3
330
1F
100
AcDbEntity
  8
A-0
  6
Continuous
 62
     4
370
     9
100
AcDbLine
 10
-86.33478691578655
 20
-274.0277005994305
 30
0.0
 11
-84.48963236527585
 21
-284.2061098692692
 31
0.0
  0
ARC
  5
2A4
330
1F
100
AcDbEntity
  8
A-0
  6
Continuous
 62
     4
370
     9
100
AcDbCircle
 10
-87.3187496809282
 20
-274.2060745796373
 30
0.0
 40
1.0
100
AcDbArc
 50
10.27506305870232
 51
90.00000000000001
  0
LINE
  5
2A5
330
1F
100
AcDbEntity
  8
A-0
  6
JWW_DASHED2
 62
     4
370
     9
100
AcDbLine
 10
-90.48961924212806
 20
-284.2061098692692
 30
0.0
 11
-91.48961924212803
 21
-279.2061098692692
 31
0.0
  0
LINE
  5
2A6
330
1F
100
AcDbEntity
  8
A-0
  6
JWW_DASHED2
 62
     4
370
     9
100
AcDbLine
 10
-98.48961924212803
 20
-274.2060745796373
 30
0.0
 11
-97.48961924212803
 21
-278.2061098692692
 31
0.0
  0
LINE
  5
2A7
330
1F
100
AcDbEntity
  8
A-0
  6
JWW_DASHED2
 62
     4
370
     9
100
AcDbLine
 10
-97.48961924212803
 20
-278.2061098692692
 30
0.0
 11
-91.48961924212803
 21
-279.2061098692692
 31
0.0
  0
LINE
  5
2A8
330
1F
100
AcDbEntity
  8
A-0
  6
JWW_DASHED2
 62
     4
370
     9
100
AcDbLine
 10
-98.48961924212803
 20
-274.2060745796373
 30
0.0
 11
-103.489619242128
 21
-274.2060745796373
 31
0.0
  0
LINE
  5
2A9
330
1F
100
AcDbEntity
  8
A-0
  6
JWW_DASHED2
 62
     4
370
     9
100
AcDbLine
 10
-104.0673930492229
 20
-273.2060745796373
 30
0.0
 11
-103.489619242128
 21
-274.2060745796373
 31
0.0
  0
LINE
  5
2AA
330
1F
100
AcDbEntity
  8
A-0
  6
Continuous
 62
     4
370
     9
100
AcDbLine
 10
-104.489619242128
 20
-272.4752934543588
 30
0.0
 11
-104.0673930492229
 21
-273.2060745796373
 31
0.0
  0
ARC
  5
2AB
330
1F
100
AcDbEntity
  8
A-0
  6
Continuous
 62
     4
370
     9
100
AcDbCircle
 10
-186.8276294594777
 20
-257.6593813768785
 30
0.0
 40
2.0
100
AcDbArc
 50
6.296677388535573
 51
74.99970657938194
  0
ARC
  5
2AC
330
1F
100
AcDbEntity
  8
A-0
  6
Continuous
 62
     4
370
     9
100
AcDbCircle
 10
-169.320739380864
 20
-262.3504345280446
 30
0.0
 40
2.0
100
AcDbArc
 50
74.99970657938198
 51
172.0784693011351
  0
LINE
  5
2AD
330
1F
100
AcDbEntity
  8
A-0
  6
Continuous
 62
     4
370
     9
100
AcDbLine
 10
-183.0879301570137
 20
-273.3157545494389
 30
0.0
 11
-184.8396948248127
 21
-257.4400280356705
 31
0.0
  0
ARC
  5
2AE
330
1F
100
AcDbEntity
  8
A-0
  6
Continuous
 62
     4
370
     9
100
AcDbCircle
 10
-182.0939628396812
 20
-273.2060778788349
 30
0.0
 40
1.0
100
AcDbArc
 50
186.2966773885357
 51
270.0
  0
LINE
  5
2AF
330
1F
100
AcDbEntity
  8
A-0
  6
Continuous
 62
     4
370
     9
100
AcDbLine
 10
-173.8601450535777
 20
-274.2060778788349
 30
0.0
 11
-182.0939628396812
 21
-274.2060778788349
 31
0.0
  0
LINE
  5
2B0
330
1F
100
AcDbEntity
  8
A-0
  6
Continuous
 62
     4
370
     9
100
AcDbLine
 10
-172.8696873094034
 20
-273.3438946303753
 30
0.0
 11
-171.3016548692126
 21
-262.0748010249637
 31
0.0
  0
ARC
  5
2B1
330
1F
100
AcDbEntity
  8
A-0
  6
Continuous
 62
     4
370
     9
100
AcDbCircle
 10
-173.8601450535777
 20
-273.2060778788349
 30
0.0
 40
1.0
100
AcDbArc
 50
270.0
 51
352.0784693011352
  0
LINE
  5
2B2
330
1F
100
AcDbEntity
  8
A-0
  6
Continuous
 62
     4
370
     9
100
AcDbLine
 10
-108.489619242128
 20
-276.5798627344584
 30
0.0
 11
-198.3758085945424
 21
-252.4944375153298
 31
0.0
  0
LINE
  5
2B3
330
1F
100
AcDbEntity
  8
A-0
  6
Continuous
 62
     4
370
     9
100
AcDbLine
 10
-184.7541858904485
 20
-258.2149702875636
 30
0.0
 11
-205.0024995187824
 21
-252.7893398628869
 31
0.0
  0
LINE
  5
2B4
330
1F
100
AcDbEntity
  8
A-0
  6
Continuous
 62
     4
370
     9
100
AcDbLine
 10
-107.6116169471378
 20
-278.885682761656
 30
0.0
 11
-171.2525883825114
 21
-261.8327865445328
 31
0.0
  0
LINE
  5
2B5
330
1F
100
AcDbEntity
  8
A-0
  6
JWW_CENTER1
 62
     4
370
     9
100
AcDbLine
 10
80.51038075787197
 20
-269.4144072124935
 30
0.0
 11
80.51038075787197
 21
-274.395593833986
 31
0.0
  0
ARC
  5
2B6
330
1F
100
AcDbEntity
  8
A-0
  6
Continuous
 62
     4
370
     9
100
AcDbCircle
 10
82.85963282819084
 20
-271.5412944377066
 30
0.0
 40
1.00000000920535
100
AcDbArc
 50
105.0005340576172
 51
150.0000152587891
  0
ARC
  5
2B7
330
1F
100
AcDbEntity
  8
A-0
  6
Continuous
 62
     4
370
     9
100
AcDbCircle
 10
78.67866901002007
 20
-272.6616484604655
 30
0.0
 40
1.00000000920535
100
AcDbArc
 50
60.00512695312498
 51
105.0036468505859
  0
ARC
  5
2B8
330
1F
100
AcDbEntity
  8
A-0
  6
Continuous
 62
     4
370
     9
100
AcDbCircle
 10
80.18603370285523
 20
-271.2224602728185
 30
0.0
 40
1.00000000920535
100
AcDbArc
 50
240.001953125
 51
284.9923095703125
  0
LINE
  5
2B9
330
1F
100
AcDbEntity
  8
A-0
  6
Continuous
 62
     4
370
     9
100
AcDbLine
 10
67.425343585341
 20
-319.2060745796373
 30
0.0
 11
66.67530293451294
 21
-295.2060619719892
 31
0.0
  0
LINE
  5
2BA
330
1F
100
AcDbEntity
  8
A-0
  6
Continuous
 62
     4
370
     9
100
AcDbLine
 10
183.010380757872
 20
-252.2060745796373
 30
0.0
 11
182.010380757872
 21
-253.2060745796373
 31
0.0
  0
LINE
  5
2BB
330
1F
100
AcDbEntity
  8
A-0
  6
Continuous
 62
     4
370
     9
100
AcDbLine
 10
177.010380757872
 20
-253.2060745796373
 30
0.0
 11
182.010380757872
 21
-253.2060745796373
 31
0.0
  0
ARC
  5
2BC
330
1F
100
AcDbEntity
  8
A-0
  6
Continuous
 62
     4
370
     9
100
AcDbCircle
 10
172.2436340196007
 20
-263.1196070243908
 30
0.0
 40
11.0
100
AcDbArc
 50
64.32024860341316
 51
105.000293420618
  0
LINE
  5
2BD
330
1F
100
AcDbEntity
  8
A-0
  6
Continuous
 62
     4
370
     9
100
AcDbLine
 10
69.01034823720964
 20
-284.2061098692692
 30
0.0
 11
69.01034823720964
 21
-295.2060619719892
 31
0.0
  0
LINE
  5
2BE
330
1F
100
AcDbEntity
  8
A-0
  6
Continuous
 62
     4
370
     9
100
AcDbLine
 10
79.51038075787197
 20
-276.5798627344584
 30
0.0
 11
169.3965701102863
 21
-252.4944375153298
 31
0.0
  0
LINE
  5
2BF
330
1F
100
AcDbEntity
  8
A-A
  6
Continuous
 62
     2
370
     9
100
AcDbLine
 10
-171.9893339793612
 20
-278.4062658859688
 30
0.0
 11
-171.9893339793612
 21
-275.8062438756075
 31
0.0
  0
LINE
  5
2C0
330
1F
100
AcDbEntity
  8
A-A
  6
Continuous
 62
     2
370
     9
100
AcDbLine
 10
-183.9894889238215
 20
-278.4062658859688
 30
0.0
 11
-183.9894889238215
 21
-275.8062438756075
 31
0.0
  0
LINE
  5
2C1
330
1F
100
AcDbEntity
  8
A-A
  6
Continuous
 62
     2
370
     9
100
AcDbLine
 10
-178.4686288630597
 20
-278.4062658859688
 30
0.0
 11
-177.5104913213955
 21
-278.4062658859688
 31
0.0
  0
LINE
  5
2C2
330
1F
100
AcDbEntity
  8
A-A
  6
Continuous
 62
     2
370
     9
100
AcDbLine
 10
-177.5104913213955
 20
-280.3948298654233
 30
0.0
 11
-177.5104913213955
 21
-278.4062658859688
 31
0.0
  0
LINE
  5
2C3
330
1F
100
AcDbEntity
  8
A-A
  6
Continuous
 62
     2
370
     9
100
AcDbLine
 10
-178.4686288630597
 20
-280.3948298654233
 30
0.0
 11
-178.4686288630597
 21
-278.4062658859688
 31
0.0
  0
ARC
  5
2C4
330
1F
100
AcDbEntity
  8
A-A
  6
Continuous
 62
     2
370
     9
100
AcDbCircle
 10
-177.9895600922278
 20
-270.4061791052881
 30
0.0
 40
10.00000009205351
100
AcDbArc
 50
272.7456207275391
 51
306.869873046875
  0
ARC
  5
2C5
330
1F
100
AcDbEntity
  8
A-A
  6
Continuous
 62
     2
370
     9
100
AcDbCircle
 10
-177.9895600922278
 20
-270.4061791052881
 30
0.0
 40
10.00000009205351
100
AcDbArc
 50
233.130126953125
 51
267.2543792724609
  0
LINE
  5
2C6
330
1F
100
AcDbEntity
  8
A-0
  6
Continuous
 62
     4
370
     9
100
AcDbLine
 10
-97.81310073928513
 20
-273.2060745796373
 30
0.0
 11
-104.0673930492229
 21
-273.2060745796373
 31
0.0
  0
LINE
  5
2C7
330
1F
100
AcDbEntity
  8
A-0
  6
Continuous
 62
     4
370
     9
100
AcDbLine
 10
-87.3187496809282
 20
-273.2060745796373
 30
0.0
 11
-91.16613921782711
 21
-273.2060745796373
 31
0.0
  0
LINE
  5
2C8
330
1F
100
AcDbEntity
  8
A-0
  6
Continuous
 62
     4
370
     9
100
AcDbLine
 10
-94.48963236527585
 20
-273.2060745796373
 30
0.0
 11
-94.48969429887428
 21
-273.2060745796373
 31
0.0
  0
LINE
  5
2C9
330
1F
100
AcDbEntity
  8
A-0
  6
Continuous
 62
     4
370
     9
100
AcDbLine
 10
69.51038075787197
 20
-274.2060745796373
 30
0.0
 11
68.51038075787197
 21
-278.2061098692692
 31
0.0
  0
LINE
  5
2CA
330
1F
100
AcDbEntity
  8
A-0
  6
Continuous
 62
     4
370
     9
100
AcDbLine
 10
61.51038075787197
 20
-284.2061098692692
 30
0.0
 11
62.51038075787197
 21
-279.2061098692692
 31
0.0
  0
LINE
  5
2CB
330
1F
100
AcDbEntity
  8
A-0
  6
Continuous
 62
     4
370
     9
100
AcDbLine
 10
62.51038075787197
 20
-279.2061098692692
 30
0.0
 11
-85.39603851460332
 21
-279.2061098692692
 31
0.0
  0
LINE
  5
2CC
330
1F
100
AcDbEntity
  8
A-0
  6
Continuous
 62
     4
370
     9
100
AcDbLine
 10
68.51038075787197
 20
-278.2061098692692
 30
0.0
 11
-85.57731974446882
 21
-278.2061098692692
 31
0.0
  0
LINE
  5
2CD
330
1F
100
AcDbEntity
  8
A-0
  6
Continuous
 62
     4
370
     9
100
AcDbLine
 10
68.51038075787197
 20
-278.2061098692692
 30
0.0
 11
62.51038075787197
 21
-279.2061098692692
 31
0.0
  0
LINE
  5
2CE
330
1F
100
AcDbEntity
  8
A-0
  6
Continuous
 62
     4
370
     9
100
AcDbLine
 10
75.51038075787197
 20
-272.4752934543588
 30
0.0
 11
74.51038075787197
 21
-274.2060745796373
 31
0.0
  0
LINE
  5
2CF
330
1F
100
AcDbEntity
  8
A-0
  6
Continuous
 62
     4
370
     9
100
AcDbLine
 10
69.51038075787197
 20
-274.2060745796373
 30
0.0
 11
74.51038075787197
 21
-274.2060745796373
 31
0.0
  0
LINE
  5
2D0
330
1F
100
AcDbEntity
  8
A-0
  6
Continuous
 62
     4
370
     9
100
AcDbLine
 10
-210.1068370235907
 20
-244.2060745796373
 30
0.0
 11
-209.9896192421281
 21
-244.2060745796373
 31
0.0
  0
LINE
  5
2D1
330
1F
100
AcDbEntity
  8
A-0
  6
Continuous
 62
     4
370
     9
100
AcDbLine
 10
-211.0991149003044
 20
-245.0820398450481
 30
0.0
 11
-211.9896192421281
 21
-252.2060745796373
 31
0.0
  0
ARC
  5
2D2
330
1F
100
AcDbEntity
  8
A-0
  6
Continuous
 62
     4
370
     9
100
AcDbCircle
 10
-210.1068370235907
 20
-245.2060745796373
 30
0.0
 40
1.0
100
AcDbArc
 50
90.0
 51
172.8749836510982
  0
LINE
  5
2D3
330
1F
100
AcDbEntity
  8
A-0
  6
Continuous
 62
     4
370
     9
100
AcDbLine
 10
-107.7348957756751
 20
-278.5619264418915
 30
0.0
 11
-108.489619242128
 21
-276.5798627344584
 31
0.0
  0
ARC
  5
2D4
330
1F
100
AcDbEntity
  8
A-0
  6
Continuous
 62
     4
370
     9
100
AcDbCircle
 10
-106.8003533998942
 20
-278.2060745796373
 30
0.0
 40
1.0
100
AcDbArc
 50
200.8456620781872
 51
270.0
  0
LINE
  5
2D5
330
1F
100
AcDbEntity
  8
A-0
  6
Continuous
 62
     4
370
     9
100
AcDbLine
 10
-104.4408684618531
 20
-279.2060745796373
 30
0.0
 11
-106.8003533998942
 21
-279.2060745796373
 31
0.0
  0
ARC
  5
2D6
330
1F
100
AcDbEntity
  8
A-0
  6
Continuous
 62
     4
370
     9
100
AcDbCircle
 10
-104.4408684618531
 20
-280.2060745796373
 30
0.0
 40
1.0
100
AcDbArc
 50
2.862405226111732
 51
89.99999999999996
  0
LINE
  5
2D7
330
1F
100
AcDbEntity
  8
A-0
  6
Continuous
 62
     4
370
     9
100
AcDbLine
 10
-101.5371223612808
 20
-318.2560121965812
 30
0.0
 11
-103.4421161229752
 21
-280.1561369626934
 31
0.0
  0
ARC
  5
2D8
330
1F
100
AcDbEntity
  8
A-0
  6
Continuous
 62
     4
370
     9
100
AcDbCircle
 10
-100.538370022403
 20
-318.2060745796373
 30
0.0
 40
1.0
100
AcDbArc
 50
182.8624052261118
 51
270.0
  0
ARC
  5
2D9
330
1F
100
AcDbEntity
  8
A-0
  6
Continuous
 62
     4
370
     9
100
AcDbCircle
 10
71.55913153814687
 20
-318.2060745796373
 30
0.0
 40
1.0
100
AcDbArc
 50
270.0
 51
357.1375947738882
  0
LINE
  5
2DA
330
1F
100
AcDbEntity
  8
A-0
  6
Continuous
 62
     4
370
     9
100
AcDbLine
 10
74.46287763871916
 20
-280.1561369626934
 30
0.0
 11
72.55788387702472
 21
-318.2560121965812
 31
0.0
  0
ARC
  5
2DB
330
1F
100
AcDbEntity
  8
A-0
  6
Continuous
 62
     4
370
     9
100
AcDbCircle
 10
75.46162997759701
 20
-280.2060745796373
 30
0.0
 40
1.0
100
AcDbArc
 50
90.0
 51
177.1375947738882
  0
LINE
  5
2DC
330
1F
100
AcDbEntity
  8
A-0
  6
Continuous
 62
     4
370
     9
100
AcDbLine
 10
77.82111491563816
 20
-279.2060745796373
 30
0.0
 11
75.46162997759701
 21
-279.2060745796373
 31
0.0
  0
LINE
  5
2DD
330
1F
100
AcDbEntity
  8
A-0
  6
Continuous
 62
     4
370
     9
100
AcDbLine
 10
78.75565729141907
 20
-278.5619264418915
 30
0.0
 11
79.51038075787197
 21
-276.5798627344584
 31
0.0
  0
ARC
  5
2DE
330
1F
100
AcDbEntity
  8
A-0
  6
Continuous
 62
     4
370
     9
100
AcDbCircle
 10
77.82111491563816
 20
-278.2060745796373
 30
0.0
 40
1.0
100
AcDbArc
 50
270.0
 51
339.1543379218127
  0
LINE
  5
2DF
330
1F
100
AcDbEntity
  8
A-0
  6
Continuous
 62
     4
370
     9
100
AcDbLine
 10
181.1275985393346
 20
-244.2060745796373
 30
0.0
 11
181.010380757872
 21
-244.2060745796373
 31
0.0
  0
LINE
  5
2E0
330
1F
100
AcDbEntity
  8
A-0
  6
Continuous
 62
     4
370
     9
100
AcDbLine
 10
182.1198764160483
 20
-245.0820398450481
 30
0.0
 11
183.010380757872
 21
-252.2060745796373
 31
0.0
  0
ARC
  5
2E1
330
1F
100
AcDbEntity
  8
A-0
  6
Continuous
 62
     4
370
     9
100
AcDbCircle
 10
181.1275985393346
 20
-245.2060745796373
 30
0.0
 40
1.0
100
AcDbArc
 50
7.125016348901812
 51
90.00000000000001
  0
LINE
  5
2E2
330
1F
100
AcDbEntity
  8
A-0
  6
Continuous
 62
     4
370
     9
100
AcDbLine
 10
78.44730518260965
 20
-271.6883308061937
 30
0.0
 11
75.51038075787197
 21
-272.4752934543588
 31
0.0
  0
LINE
  5
2E3
330
1F
100
AcDbEntity
  8
A-0
  6
Continuous
 62
     4
370
     9
100
AcDbLine
 10
79.67561156207321
 20
-272.0824895700779
 30
0.0
 11
79.16304240391865
 21
-271.7865891741531
 31
0.0
  0
LINE
  5
2E4
330
1F
100
AcDbEntity
  8
A-0
  6
Continuous
 62
     4
370
     9
100
AcDbLine
 10
-107.3713040781708
 20
-271.7031325125763
 30
0.0
 11
-104.489619242128
 21
-272.4752934543588
 31
0.0
  0
LINE
  5
2E5
330
1F
100
AcDbEntity
  8
A-0
  6
Continuous
 62
     4
370
     9
100
AcDbLine
 10
-209.9896192421281
 20
-244.2060745796373
 30
0.0
 11
-111.5678646600566
 21
-270.5786444593975
 31
0.0
  0
LINE
  5
2E6
330
1F
100
AcDbEntity
  8
A-0
  6
Continuous
 62
     4
370
     9
100
AcDbLine
 10
-110.6799286205086
 20
-271.5486818730853
 30
0.0
 11
-110.9827678279892
 21
-271.0241029151724
 31
0.0
  0
LINE
  5
2E7
330
1F
100
AcDbEntity
  8
A-0
  6
Continuous
 62
     4
370
     9
100
AcDbLine
 10
-110.069836043501
 20
-272.0153872192576
 30
0.0
 11
-109.4239539975516
 21
-272.1883925219256
 31
0.0
  0
LINE
  5
2E8
330
1F
100
AcDbEntity
  8
A-0
  6
Continuous
 62
     4
370
     9
100
AcDbLine
 10
-108.6695042118959
 20
-272.0909492546377
 30
0.0
 11
-108.1578355488403
 21
-271.7955687043807
 31
0.0
  0
ARC
  5
2E9
330
1F
100
AcDbEntity
  8
A-0
  6
Continuous
 62
     4
370
     9
100
AcDbCircle
 10
-107.6579074942762
 20
-272.6616484604655
 30
0.0
 40
1.00000000920535
100
AcDbArc
 50
73.3529429647167
 51
119.994873046875
  0
LINE
  5
2EA
330
1F
100
AcDbEntity
  8
A-0
  6
Continuous
 62
     4
370
     9
100
AcDbLine
 10
81.09333937673635
 20
-272.0146527988352
 30
0.0
 11
80.42821804779099
 21
-272.1928115161223
 31
0.0
  0
LINE
  5
2EB
330
1F
100
AcDbEntity
  8
A-0
  6
Continuous
 62
     4
370
     9
100
AcDbLine
 10
81.70069013625252
 20
-271.5486818730853
 30
0.0
 11
81.98906326355318
 21
-271.0491611014257
 31
0.0
  0
LINE
  5
2EC
330
1F
100
AcDbEntity
  8
A-0
  6
Continuous
 62
     4
370
     9
100
AcDbLine
 10
181.010380757872
 20
-244.2060745796373
 30
0.0
 11
82.58862617580047
 21
-270.5786444593975
 31
0.0
  0
LINE
  5
2ED
330
1F
100
AcDbEntity
  8
A-A
  6
Continuous
 62
     2
370
     9
100
AcDbLine
 10
-97.81310073928513
 20
-268.1722057533124
 30
0.0
 11
-97.81310073928513
 21
-279.6135260563846
 31
0.0
  0
LINE
  5
2EE
330
1F
100
AcDbEntity
  8
A-A
  6
Continuous
 62
     2
370
     9
100
AcDbLine
 10
-98.48958904857831
 20
-268.1722057533124
 30
0.0
 11
-98.48958904857831
 21
-278.9372111611671
 31
0.0
  0
LINE
  5
2EF
330
1F
100
AcDbEntity
  8
A-A
  6
Continuous
 62
     2
370
     9
100
AcDbLine
 10
-91.16613921782711
 20
-268.1722057533124
 30
0.0
 11
-91.16613921782711
 21
-279.6135260563846
 31
0.0
  0
LINE
  5
2F0
330
1F
100
AcDbEntity
  8
A-A
  6
Continuous
 62
     2
370
     9
100
AcDbLine
 10
-90.48967568197328
 20
-268.1722057533124
 30
0.0
 11
-90.48967568197328
 21
-278.9372111611671
 31
0.0
  0
LINE
  5
2F1
330
1F
100
AcDbEntity
  8
A-C
  6
Continuous
 62
     2
370
     9
100
AcDbLine
 10
-90.7423647637029
 20
-262.477555310776
 30
0.0
 11
-90.7423647637029
 21
-268.1722057533124
 31
0.0
  0
LINE
  5
2F2
330
1F
100
AcDbEntity
  8
A-C
  6
Continuous
 62
     2
370
     9
100
AcDbLine
 10
-86.98958507186695
 20
-262.477555310776
 30
0.0
 11
-86.98958507186695
 21
-268.1722057533124
 31
0.0
  0
LINE
  5
2F3
330
1F
100
AcDbEntity
  8
A-C
  6
Continuous
 62
     2
370
     9
100
AcDbLine
 10
-98.23687519340935
 20
-262.477555310776
 30
0.0
 11
-98.23687519340935
 21
-268.1722057533124
 31
0.0
  0
LINE
  5
2F4
330
1F
100
AcDbEntity
  8
A-C
  6
Continuous
 62
     2
370
     9
100
AcDbLine
 10
-101.9896796586848
 20
-262.477555310776
 30
0.0
 11
-101.9896796586848
 21
-268.1722057533124
 31
0.0
  0
LINE
  5
2F5
330
1F
100
AcDbEntity
  8
A-0
  6
Continuous
 62
     4
370
     9
100
AcDbLine
 10
71.55913153814687
 20
-319.2060745796373
 30
0.0
 11
-100.538370022403
 21
-319.2060745796373
 31
0.0
  0
LINE
  5
2F6
330
1F
100
AcDbEntity
  8
A-0
  6
Continuous
 62
     4
370
     9
100
AcDbLine
 10
65.94641654574039
 20
-319.2060745796373
 30
0.0
 11
65.19640292353141
 21
-295.2060619719892
 31
0.0
  0
LINE
  5
2F7
330
1F
100
AcDbEntity
  8
A-0
  6
Continuous
 62
     4
370
     9
100
AcDbLine
 10
-94.92565502999645
 20
-319.2060745796373
 30
0.0
 11
-94.17564140778747
 21
-295.2060619719892
 31
0.0
  0
LINE
  5
2F8
330
1F
100
AcDbEntity
  8
A-0
  6
JWW_CENTER1
 62
     3
370
     9
100
AcDbLine
 10
-14.48961924212806
 20
-63.17425082627003
 30
0.0
 11
-14.48961924212803
 21
-335.5573728718336
 31
0.0
  0
LINE
  5
2F9
330
1F
100
AcDbEntity
  8
A-4
  6
Continuous
 62
     7
370
     9
100
AcDbLine
 10
-122.9896039833391
 20
-43.92686404016492
 30
0.0
 11
94.0103654990828
 21
-43.92686404016492
 31
0.0
  0
LINE
  5
2FA
330
1F
100
AcDbEntity
  8
A-4
  6
Continuous
 62
     7
370
     9
100
AcDbLine
 10
-122.9896039833391
 20
-43.92686404016492
 30
0.0
 11
-113.075155369601
 21
-42.6216021179644
 31
0.0
  0
LINE
  5
2FB
330
1F
100
AcDbEntity
  8
A-4
  6
Continuous
 62
     7
370
     9
100
AcDbLine
 10
-122.9896039833391
 20
-43.92686404016492
 30
0.0
 11
-113.075155369601
 21
-45.23212596236543
 31
0.0
  0
LINE
  5
2FC
330
1F
100
AcDbEntity
  8
A-4
  6
Continuous
 62
     7
370
     9
100
AcDbLine
 10
94.0103654990828
 20
-43.92686404016492
 30
0.0
 11
84.09591688534469
 21
-42.6216021179644
 31
0.0
  0
LINE
  5
2FD
330
1F
100
AcDbEntity
  8
A-4
  6
Continuous
 62
     7
370
     9
100
AcDbLine
 10
94.0103654990828
 20
-43.92686404016492
 30
0.0
 11
84.09591688534469
 21
-45.23212596236543
 31
0.0
  0
LINE
  5
2FE
330
1F
100
AcDbEntity
  8
A-4
  6
Continuous
 62
     7
370
     9
100
AcDbLine
 10
-122.9896039833391
 20
-42.72686404016491
 30
0.0
 11
-122.9896039833391
 21
-247.1722273748397
 31
0.0
  0
LINE
  5
2FF
330
1F
100
AcDbEntity
  8
A-4
  6
Continuous
 62
     7
370
     9
100
AcDbLine
 10
94.0103654990828
 20
-42.72686404016491
 30
0.0
 11
94.0103654990828
 21
-247.1722273748397
 31
0.0
  0
LINE
  5
300
330
1F
100
AcDbEntity
  8
A-4
  6
Continuous
 62
     7
370
     9
100
AcDbLine
 10
-181.9896192421281
 20
-9.41023374771622
 30
0.0
 11
153.010380757872
 21
-9.41023374771622
 31
0.0
  0
LINE
  5
301
330
1F
100
AcDbEntity
  8
A-4
  6
Continuous
 62
     7
370
     9
100
AcDbLine
 10
-181.9896192421281
 20
-9.41023374771622
 30
0.0
 11
-172.07517062839
 21
-8.104971825515705
 31
0.0
  0
LINE
  5
302
330
1F
100
AcDbEntity
  8
A-4
  6
Continuous
 62
     7
370
     9
100
AcDbLine
 10
-181.9896192421281
 20
-9.41023374771622
 30
0.0
 11
-172.07517062839
 21
-10.71549566991673
 31
0.0
  0
LINE
  5
303
330
1F
100
AcDbEntity
  8
A-4
  6
Continuous
 62
     7
370
     9
100
AcDbLine
 10
153.010380757872
 20
-9.41023374771622
 30
0.0
 11
143.0959321441339
 21
-8.104971825515705
 31
0.0
  0
LINE
  5
304
330
1F
100
AcDbEntity
  8
A-4
  6
Continuous
 62
     7
370
     9
100
AcDbLine
 10
153.010380757872
 20
-9.41023374771622
 30
0.0
 11
143.0959321441339
 21
-10.71549566991673
 31
0.0
  0
LINE
  5
305
330
1F
100
AcDbEntity
  8
A-4
  6
Continuous
 62
     7
370
     9
100
AcDbLine
 10
-181.9896192421281
 20
-8.210233747716217
 30
0.0
 11
-181.9896192421281
 21
-242.6722057533123
 31
0.0
  0
LINE
  5
306
330
1F
100
AcDbEntity
  8
A-4
  6
Continuous
 62
     7
370
     9
100
AcDbLine
 10
153.010380757872
 20
-8.210233747716217
 30
0.0
 11
153.010380757872
 21
-242.6722057533123
 31
0.0
  0
LINE
  5
307
330
1F
100
AcDbEntity
  8
A-4
  6
Continuous
 62
     7
370
     9
100
AcDbLine
 10
-211.9896192421281
 20
24.67552792840775
 30
0.0
 11
183.010380757872
 21
24.67552792840775
 31
0.0
  0
LINE
  5
308
330
1F
100
AcDbEntity
  8
A-4
  6
Continuous
 62
     7
370
     9
100
AcDbLine
 10
-211.9896192421281
 20
24.67552792840775
 30
0.0
 11
-202.07517062839
 21
25.98078985060826
 31
0.0
  0
LINE
  5
309
330
1F
100
AcDbEntity
  8
A-4
  6
Continuous
 62
     7
370
     9
100
AcDbLine
 10
-211.9896192421281
 20
24.67552792840775
 30
0.0
 11
-202.07517062839
 21
23.37026600620723
 31
0.0
  0
LINE
  5
30A
330
1F
100
AcDbEntity
  8
A-4
  6
Continuous
 62
     7
370
     9
100
AcDbLine
 10
183.010380757872
 20
24.67552792840775
 30
0.0
 11
173.0959321441339
 21
25.98078985060826
 31
0.0
  0
LINE
  5
30B
330
1F
100
AcDbEntity
  8
A-4
  6
Continuous
 62
     7
370
     9
100
AcDbLine
 10
183.010380757872
 20
24.67552792840775
 30
0.0
 11
173.0959321441339
 21
23.37026600620723
 31
0.0
  0
LINE
  5
30C
330
1F
100
AcDbEntity
  8
A-4
  6
Continuous
 62
     7
370
     9
100
AcDbLine
 10
-211.9896192421281
 20
25.87552792840775
 30
0.0
 11
-211.9896192421281
 21
-244.2060745796373
 31
0.0
  0
LINE
  5
30D
330
1F
100
AcDbEntity
  8
A-4
  6
Continuous
 62
     7
370
     9
100
AcDbLine
 10
183.010380757872
 20
25.87552792840775
 30
0.0
 11
183.010380757872
 21
-244.2060745796373
 31
0.0
  0
LINE
  5
30E
330
1F
100
AcDbEntity
  8
A-4
  6
Continuous
 62
     7
370
     9
100
AcDbLine
 10
-94.92565502999645
 20
-365.0243571575267
 30
0.0
 11
65.94641654574039
 21
-365.0243571575267
 31
0.0
  0
LINE
  5
30F
330
1F
100
AcDbEntity
  8
A-4
  6
Continuous
 62
     7
370
     9
100
AcDbLine
 10
-94.92565502999645
 20
-365.0243571575267
 30
0.0
 11
-85.01120641625835
 21
-363.7190952353261
 31
0.0
  0
LINE
  5
310
330
1F
100
AcDbEntity
  8
A-4
  6
Continuous
 62
     7
370
     9
100
AcDbLine
 10
-94.92565502999645
 20
-365.0243571575267
 30
0.0
 11
-85.01120641625835
 21
-366.3296190797272
 31
0.0
  0
LINE
  5
311
330
1F
100
AcDbEntity
  8
A-4
  6
Continuous
 62
     7
370
     9
100
AcDbLine
 10
65.94641654574039
 20
-365.0243571575267
 30
0.0
 11
56.03196793200229
 21
-363.7190952353261
 31
0.0
  0
LINE
  5
312
330
1F
100
AcDbEntity
  8
A-4
  6
Continuous
 62
     7
370
     9
100
AcDbLine
 10
65.94641654574039
 20
-365.0243571575267
 30
0.0
 11
56.03196793200229
 21
-366.3296190797272
 31
0.0
  0
LINE
  5
313
330
1F
100
AcDbEntity
  8
A-4
  6
Continuous
 62
     7
370
     9
100
AcDbLine
 10
-94.92565502999645
 20
-366.2243571575266
 30
0.0
 11
-94.92565502999645
 21
-327.2060745796373
 31
0.0
  0
LINE
  5
314
330
1F
100
AcDbEntity
  8
A-4
  6
Continuous
 62
     7
370
     9
100
AcDbLine
 10
65.94641654574039
 20
-366.2243571575266
 30
0.0
 11
65.94641654574039
 21
-327.2060745796373
 31
0.0
  0
LINE
  5
315
330
1F
100
AcDbEntity
  8
A-4
  6
Continuous
 62
     7
370
     9
100
AcDbLine
 10
-264.489619242128
 20
-395.5124782336944
 30
0.0
 11
235.510380757872
 21
-395.5124782336944
 31
0.0
  0
LINE
  5
316
330
1F
100
AcDbEntity
  8
A-4
  6
Continuous
 62
     7
370
     9
100
AcDbLine
 10
-264.489619242128
 20
-395.5124782336944
 30
0.0
 11
-254.5751706283899
 21
-394.2072163114939
 31
0.0
  0
LINE
  5
317
330
1F
100
AcDbEntity
  8
A-4
  6
Continuous
 62
     7
370
     9
100
AcDbLine
 10
-264.489619242128
 20
-395.5124782336944
 30
0.0
 11
-254.5751706283899
 21
-396.817740155895
 31
0.0
  0
LINE
  5
318
330
1F
100
AcDbEntity
  8
A-4
  6
Continuous
 62
     7
370
     9
100
AcDbLine
 10
235.510380757872
 20
-395.5124782336944
 30
0.0
 11
225.5959321441339
 21
-394.2072163114939
 31
0.0
  0
LINE
  5
319
330
1F
100
AcDbEntity
  8
A-4
  6
Continuous
 62
     7
370
     9
100
AcDbLine
 10
235.510380757872
 20
-395.5124782336944
 30
0.0
 11
225.5959321441339
 21
-396.817740155895
 31
0.0
  0
TEXT
  5
31A
330
1F
100
AcDbEntity
  8
A-4
  6
Continuous
 62
     2
370
   211
100
AcDbText
 10
-49.98961924212801
 20
-390.8564782336945
 30
0.0
 40
12.192
  1
500×500
 41
1.109375
  7
ＭＳ ゴシック
100
AcDbText
  0
TEXT
  5
31B
330
1F
100
AcDbEntity
  8
A-4
  6
Continuous
 62
     2
370
   211
100
AcDbText
 10
-27.48961924212803
 20
-360.3683571575267
 30
0.0
 40
12.192
  1
Rc6
 41
1.083333333333333
  7
ＭＳ ゴシック
100
AcDbText
  0
TEXT
  5
31C
330
1F
100
AcDbEntity
  8
A-4
  6
Continuous
 62
     2
370
   211
100
AcDbText
 10
-36.48961924212807
 20
29.33152792840774
 30
0.0
 40
12.192
  1
φ395
 41
1.1
  7
ＭＳ ゴシック
100
AcDbText
  0
TEXT
  5
31D
330
1F
100
AcDbEntity
  8
A-4
  6
Continuous
 62
     2
370
   211
100
AcDbText
 10
-36.48961924212804
 20
-4.754233747716221
 30
0.0
 40
12.192
  1
φ335
 41
1.1
  7
ＭＳ ゴシック
100
AcDbText
  0
TEXT
  5
31E
330
1F
100
AcDbEntity
  8
A-4
  6
Continuous
 62
     2
370
   211
100
AcDbText
 10
-36.48961924212814
 20
-39.27086404016491
 30
0.0
 40
12.192
  1
φ217
 41
1.1
  7
ＭＳ ゴシック
100
AcDbText
  0
LINE
  5
31F
330
1F
100
AcDbEntity
  8
A-4
  6
Continuous
 62
     7
370
     9
100
AcDbLine
 10
222.1993295101778
 20
-249.6722057533123
 30
0.0
 11
222.1993295101778
 21
-65.99606944925975
 31
0.0
  0
LINE
  5
320
330
1F
100
AcDbEntity
  8
A-4
  6
Continuous
 62
     7
370
     9
100
AcDbLine
 10
222.1993295101778
 20
-249.6722057533123
 30
0.0
 11
220.8940675879773
 21
-239.7577571395742
 31
0.0
  0
LINE
  5
321
330
1F
100
AcDbEntity
  8
A-4
  6
Continuous
 62
     7
370
     9
100
AcDbLine
 10
222.1993295101778
 20
-249.6722057533123
 30
0.0
 11
223.5045914323784
 21
-239.7577571395742
 31
0.0
  0
LINE
  5
322
330
1F
100
AcDbEntity
  8
A-4
  6
Continuous
 62
     7
370
     9
100
AcDbLine
 10
222.1993295101778
 20
-65.99606944925975
 30
0.0
 11
220.8940675879773
 21
-75.91051806299785
 31
0.0
  0
LINE
  5
323
330
1F
100
AcDbEntity
  8
A-4
  6
Continuous
 62
     7
370
     9
100
AcDbLine
 10
222.1993295101778
 20
-65.99606944925975
 30
0.0
 11
223.5045914323784
 21
-75.91051806299785
 31
0.0
  0
LINE
  5
324
330
1F
100
AcDbEntity
  8
A-4
  6
Continuous
 62
     7
370
     9
100
AcDbLine
 10
223.3993295101778
 20
-249.6722057533123
 30
0.0
 11
160.510380757872
 21
-249.6722057533123
 31
0.0
  0
TEXT
  5
325
330
1F
100
AcDbEntity
  8
A-4
  6
Continuous
 62
     2
370
   211
100
AcDbText
 10
217.5433295101778
 20
-170.834137601286
 30
0.0
 40
12.192
  1
183
 50
90.0
 41
1.083333333333333
  7
ＭＳ ゴシック
100
AcDbText
  0
LINE
  5
326
330
1F
100
AcDbEntity
  8
A-4
  6
Continuous
 62
     7
370
     9
100
AcDbLine
 10
-249.4896725006042
 20
510.7207333042339
 30
0.0
 11
220.5103349225905
 21
510.7207333042339
 31
0.0
  0
LINE
  5
327
330
1F
100
AcDbEntity
  8
A-4
  6
Continuous
 62
     7
370
     9
100
AcDbLine
 10
-249.4896725006042
 20
510.7207333042339
 30
0.0
 11
-239.5752238868661
 21
512.0259952264345
 31
0.0
  0
LINE
  5
328
330
1F
100
AcDbEntity
  8
A-4
  6
Continuous
 62
     7
370
     9
100
AcDbLine
 10
-249.4896725006042
 20
510.7207333042339
 30
0.0
 11
-239.5752238868661
 21
509.4154713820334
 31
0.0
  0
LINE
  5
329
330
1F
100
AcDbEntity
  8
A-4
  6
Continuous
 62
     7
370
     9
100
AcDbLine
 10
220.5103349225905
 20
510.7207333042339
 30
0.0
 11
210.5958863088524
 21
512.0259952264345
 31
0.0
  0
LINE
  5
32A
330
1F
100
AcDbEntity
  8
A-4
  6
Continuous
 62
     7
370
     9
100
AcDbLine
 10
220.5103349225905
 20
510.7207333042339
 30
0.0
 11
210.5958863088524
 21
509.4154713820334
 31
0.0
  0
LINE
  5
32B
330
1F
100
AcDbEntity
  8
A-4
  6
Continuous
 62
     7
370
     9
100
AcDbLine
 10
-249.4896725006042
 20
511.9207333042339
 30
0.0
 11
-249.4896725006042
 21
478.4450046901495
 31
0.0
  0
LINE
  5
32C
330
1F
100
AcDbEntity
  8
A-4
  6
Continuous
 62
     7
370
     9
100
AcDbLine
 10
220.5103349225905
 20
511.9207333042339
 30
0.0
 11
220.5103349225905
 21
476.6599297418053
 31
0.0
  0
TEXT
  5
32D
330
1F
100
AcDbEntity
  8
A-4
  6
Continuous
 62
     2
370
   211
100
AcDbText
 10
-27.48966878900686
 20
515.3767333042339
 30
0.0
 40
12.192
  1
470
 41
1.083333333333333
  7
ＭＳ ゴシック
100
AcDbText
  0
LINE
  5
32E
330
1F
100
AcDbEntity
  8
A-4
  6
Continuous
 62
     7
370
     9
100
AcDbLine
 10
295.3759930161501
 20
227.5615970973759
 30
0.0
 11
295.3759930161501
 21
462.5615017152158
 31
0.0
  0
LINE
  5
32F
330
1F
100
AcDbEntity
  8
A-4
  6
Continuous
 62
     7
370
     9
100
AcDbLine
 10
295.3759930161501
 20
462.5615017152158
 30
0.0
 11
294.0707310939496
 21
452.6470531014777
 31
0.0
  0
LINE
  5
330
330
1F
100
AcDbEntity
  8
A-4
  6
Continuous
 62
     7
370
     9
100
AcDbLine
 10
295.3759930161501
 20
462.5615017152158
 30
0.0
 11
296.6812549383507
 21
452.6470531014777
 31
0.0
  0
LINE
  5
331
330
1F
100
AcDbEntity
  8
A-4
  6
Continuous
 62
     7
370
     9
100
AcDbLine
 10
296.5759930161501
 20
462.5615017152158
 30
0.0
 11
236.393639710009
 21
462.5615017152158
 31
0.0
  0
TEXT
  5
332
330
1F
100
AcDbEntity
  8
A-4
  6
Continuous
 62
     2
370
   211
100
AcDbText
 10
290.7199930161502
 20
230.3087734613705
 30
0.0
 40
12.192
  1
470
 50
90.0
 41
1.083333333333333
  7
ＭＳ ゴシック
100
AcDbText
  0
LINE
  5
333
330
1F
100
AcDbEntity
  8
A-0
  6
JWW_CENTER1
 62
     4
370
     9
100
AcDbLine
 10
-290.4523130938361
 20
227.5615970973759
 30
0.0
 11
263.0025772814161
 21
227.5615970973759
 31
0.0
  0
LINE
  5
334
330
1F
100
AcDbEntity
  8
A-4
  6
Continuous
 62
     7
370
     9
100
AcDbLine
 10
-264.489619242128
 20
-396.7124782336945
 30
0.0
 11
-264.489619242128
 21
-343.8510694020079
 31
0.0
  0
TEXT
  5
335
330
1F
100
AcDbEntity
  8
A-5
  6
Continuous
 62
     7
370
     9
100
AcDbText
 10
245.6223275421303
 20
-413.1056171507082
 30
0.0
 40
9.144
  1
固定金具：ＳＧＨＣ
 41
1.148148148148148
  7
ＭＳ ゴシック
100
AcDbText
  0
LINE
  5
336
330
1F
100
AcDbEntity
  8
A-5
  6
Continuous
 62
     7
370
     9
100
AcDbLine
 10
18.51043954926627
 20
-74.54023600575981
 30
0.0
 11
26.62738950703624
 21
-63.96221658008413
 31
0.0
  0
LINE
  5
337
330
1F
100
AcDbEntity
  8
A-5
  6
Continuous
 62
     7
370
     9
100
AcDbLine
 10
18.51043954926627
 20
-74.54023600575981
 30
0.0
 11
23.61297861176627
 21
-62.22182384359759
 31
0.0
  0
TEXT
  5
338
330
1F
100
AcDbEntity
  8
A-5
  6
Continuous
 62
     7
370
     9
100
AcDbText
 10
109.2717874483731
 20
83.62195157804464
 30
0.0
 40
9.144
  1
ストレーナー：ＦＣ１５０
 50
359.9999658379446
 41
1.152777777777781
  7
ＭＳ ゴシック
100
AcDbText
  0
TEXT
  5
339
330
1F
100
AcDbEntity
  8
A-5
  6
Continuous
 62
     7
370
     9
100
AcDbText
 10
152.6557861076399
 20
64.22116131243664
 30
0.0
 40
9.144
  1
樹脂系塗装
 41
1.133333333333333
  7
ＭＳ ゴシック
100
AcDbText
  0
LINE
  5
33A
330
1F
100
AcDbEntity
  8
A-5
  6
Continuous
 62
     7
370
     9
100
AcDbLine
 10
18.51043954926627
 20
-74.54023600575981
 30
0.0
 11
107.0788524263057
 21
78.86465068882919
 31
0.0
  0
LINE
  5
33B
330
1F
100
AcDbEntity
  8
A-5
  6
Continuous
 62
     7
370
     9
100
AcDbLine
 10
107.0788524263057
 20
78.86465068882919
 30
0.0
 11
280.5962151363024
 21
78.86465068882919
 31
0.0
  0
LINE
  5
33C
330
1F
100
AcDbEntity
  8
A-5
  6
Continuous
 62
     7
370
     9
100
AcDbLine
 10
143.2196520005213
 20
-249.6722057533123
 30
0.0
 11
260.2293912319395
 21
-47.00553028878531
 31
0.0
  0
LINE
  5
33D
330
1F
100
AcDbEntity
  8
A-5
  6
Continuous
 62
     7
370
     9
100
AcDbLine
 10
143.2196520005213
 20
-249.6722057533123
 30
0.0
 11
151.3366019582913
 21
-239.0941863276367
 31
0.0
  0
LINE
  5
33E
330
1F
100
AcDbEntity
  8
A-5
  6
Continuous
 62
     7
370
     9
100
AcDbLine
 10
143.2196520005213
 20
-249.6722057533123
 30
0.0
 11
148.3221910630213
 21
-237.3537935911502
 31
0.0
  0
TEXT
  5
33F
330
1F
100
AcDbEntity
  8
A-5
  6
Continuous
 62
     7
370
     9
100
AcDbText
 10
312.9874658281909
 20
-62.65534568654304
 30
0.0
 40
9.144
  1
樹脂系塗装
 41
1.133333333333333
  7
ＭＳ ゴシック
100
AcDbText
  0
TEXT
  5
340
330
1F
100
AcDbEntity
  8
A-5
  6
Continuous
 62
     7
370
     9
100
AcDbText
 10
260.2782543503338
 20
-41.16132177386998
 30
0.0
 40
9.144
  1
防水層押え：ＦＣ１５０
 50
359.9999658379445
 41
1.15151515151515
  7
ＭＳ ゴシック
100
AcDbText
  0
LINE
  5
341
330
1F
100
AcDbEntity
  8
A-5
  6
Continuous
 62
     7
370
     9
100
AcDbLine
 10
260.2293912319395
 20
-47.00553028878531
 30
0.0
 11
417.8348867817207
 21
-47.00553028878531
 31
0.0
  0
LINE
  5
342
330
1F
100
AcDbEntity
  8
A-5
  6
Continuous
 62
     7
370
     9
100
AcDbLine
 10
-209.9896192421279
 20
-244.2060745796373
 30
0.0
 11
-218.1065032159458
 21
-233.6280551539616
 31
0.0
  0
LINE
  5
343
330
1F
100
AcDbEntity
  8
A-5
  6
Continuous
 62
     7
370
     9
100
AcDbLine
 10
-209.9896192421279
 20
-244.2060745796373
 30
0.0
 11
-215.0921583046279
 21
-231.887662417475
 31
0.0
  0
LINE
  5
344
330
1F
100
AcDbEntity
  8
A-5
  6
Continuous
 62
     7
370
     9
100
AcDbLine
 10
-209.9896192421279
 20
-244.2060745796373
 30
0.0
 11
-272.5424289312136
 21
-135.8615339389313
 31
0.0
  0
TEXT
  5
345
330
1F
100
AcDbEntity
  8
A-5
  6
Continuous
 62
     7
370
     9
100
AcDbText
 10
-365.7779113615331
 20
-150.6150529418525
 30
0.0
 40
9.144
  1
樹脂系塗装
 50
359.9999583021695
 41
1.13333333333333
  7
ＭＳ ゴシック
100
AcDbText
  0
TEXT
  5
346
330
1F
100
AcDbEntity
  8
A-5
  6
Continuous
 62
     7
370
     9
100
AcDbText
 10
-385.9011780572691
 20
-130.8886488819026
 30
0.0
 40
9.144
  1
本体：ＦＣ１５０
 41
1.145833333333333
  7
ＭＳ ゴシック
100
AcDbText
  0
LINE
  5
347
330
1F
100
AcDbEntity
  8
A-5
  6
Continuous
 62
     7
370
     9
100
AcDbLine
 10
-389.2037343000302
 20
-135.8615339389313
 30
0.0
 11
-272.5424289312136
 21
-135.8615339389313
 31
0.0
  0
LINE
  5
348
330
1F
100
AcDbEntity
  8
A-5
  6
Continuous
 62
     7
370
     9
100
AcDbLine
 10
-178.4686288630596
 20
-280.3950066708606
 30
0.0
 11
-271.6216892317307
 21
-441.7408401099298
 31
0.0
  0
LINE
  5
349
330
1F
100
AcDbEntity
  8
A-5
  6
Continuous
 62
     7
370
     9
100
AcDbLine
 10
-178.4686288630596
 20
-280.3950066708606
 30
0.0
 11
-186.5854479165091
 21
-290.973051208077
 31
0.0
  0
LINE
  5
34A
330
1F
100
AcDbEntity
  8
A-5
  6
Continuous
 62
     7
370
     9
100
AcDbLine
 10
-178.4686288630596
 20
-280.3950066708606
 30
0.0
 11
-183.5710746279274
 21
-292.7134004376776
 31
0.0
  0
LINE
  5
34B
330
1F
100
AcDbEntity
  8
A-5
  6
Continuous
 62
     7
370
     9
100
AcDbLine
 10
-118.4896573596436
 20
-250.290265631059
 30
0.0
 11
-126.6065413334616
 21
-239.7122462053833
 31
0.0
  0
LINE
  5
34C
330
1F
100
AcDbEntity
  8
A-5
  6
Continuous
 62
     7
370
     9
100
AcDbLine
 10
-118.4896573596436
 20
-250.290265631059
 30
0.0
 11
-123.5921964221436
 21
-237.9718534688967
 31
0.0
  0
LINE
  5
34D
330
1F
100
AcDbEntity
  8
A-5
  6
Continuous
 62
     7
370
     9
100
AcDbLine
 10
-118.4896573596436
 20
-250.290265631059
 30
0.0
 11
-233.149827456613
 21
-51.6932158632227
 31
0.0
  0
LINE
  5
34E
330
1F
100
AcDbEntity
  8
A-9
  6
Continuous
 62
     6
370
     9
100
AcDbLine
 10
-209.9897090274353
 20
-277.6058360594312
 30
0.0
 11
-209.9897090274353
 21
-279.2062002437186
 31
0.0
  0
LINE
  5
34F
330
1F
100
AcDbEntity
  8
A-A
  6
Continuous
 62
     2
370
     9
100
AcDbLine
 10
-202.9897259947372
 20
-264.8060935853723
 30
0.0
 11
-196.9897971631435
 21
-264.8060935853723
 31
0.0
  0
LINE
  5
350
330
1F
100
AcDbEntity
  8
A-A
  6
Continuous
 62
     2
370
     9
100
AcDbLine
 10
-194.3398318989813
 20
-280.806168052976
 30
0.0
 11
-194.3398318989813
 21
-280.5062112488994
 31
0.0
  0
LINE
  5
351
330
1F
100
AcDbEntity
  8
A-A
  6
Continuous
 62
     2
370
     9
100
AcDbLine
 10
-205.6396912588993
 20
-280.806168052976
 30
0.0
 11
-194.3398318989813
 21
-280.806168052976
 31
0.0
  0
LINE
  5
352
330
1F
100
AcDbEntity
  8
A-A
  6
Continuous
 62
     2
370
     9
100
AcDbLine
 10
-205.6396912588993
 20
-280.806168052976
 30
0.0
 11
-205.6396912588993
 21
-280.5062112488994
 31
0.0
  0
LINE
  5
353
330
1F
100
AcDbEntity
  8
A-A
  6
Continuous
 62
     2
370
     9
100
AcDbLine
 10
-205.6396912588993
 20
-280.5062112488994
 30
0.0
 11
-194.3398318989813
 21
-280.5062112488994
 31
0.0
  0
LINE
  5
354
330
1F
100
AcDbEntity
  8
A-A
  6
Continuous
 62
     2
370
     9
100
AcDbLine
 10
-194.2397472038649
 20
-270.9967779002326
 30
0.0
 11
-194.2397472038649
 21
-275.5060888840156
 31
0.0
  0
LINE
  5
355
330
1F
100
AcDbEntity
  8
A-A
  6
Continuous
 62
     2
370
     9
100
AcDbLine
 10
-205.7397759540158
 20
-270.9967779002326
 30
0.0
 11
-205.7397759540158
 21
-275.5060888840156
 31
0.0
  0
LINE
  5
356
330
1F
100
AcDbEntity
  8
A-A
  6
Continuous
 62
     2
370
     9
100
AcDbLine
 10
-197.126348361035
 20
-270.9967779002326
 30
0.0
 11
-197.126348361035
 21
-275.5060888840156
 31
0.0
  0
LINE
  5
357
330
1F
100
AcDbEntity
  8
A-A
  6
Continuous
 62
     2
370
     9
100
AcDbLine
 10
-202.8529766093306
 20
-270.9967779002326
 30
0.0
 11
-202.8529766093306
 21
-275.5060888840156
 31
0.0
  0
LINE
  5
358
330
1F
100
AcDbEntity
  8
A-A
  6
Continuous
 62
     2
370
     9
100
AcDbLine
 10
-195.68304778245
 20
-270.5058674253744
 30
0.0
 11
-204.2963762816732
 21
-270.5058674253744
 31
0.0
  0
LINE
  5
359
330
1F
100
AcDbEntity
  8
A-A
  6
Continuous
 62
     2
370
     9
100
AcDbLine
 10
-197.8597412605961
 20
-270.5058674253744
 30
0.0
 11
-197.8597412605961
 21
-264.8060935853723
 31
0.0
  0
LINE
  5
35A
330
1F
100
AcDbEntity
  8
A-A
  6
Continuous
 62
     2
370
     9
100
AcDbLine
 10
-196.9897971631435
 20
-270.5058674253744
 30
0.0
 11
-196.9897971631435
 21
-264.8060935853723
 31
0.0
  0
LINE
  5
35B
330
1F
100
AcDbEntity
  8
A-A
  6
Continuous
 62
     2
370
     9
100
AcDbLine
 10
-202.1196828035272
 20
-270.5058674253744
 30
0.0
 11
-202.1196828035272
 21
-264.8060935853723
 31
0.0
  0
LINE
  5
35C
330
1F
100
AcDbEntity
  8
A-A
  6
Continuous
 62
     2
370
     9
100
AcDbLine
 10
-202.9897259947372
 20
-270.5058674253744
 30
0.0
 11
-202.9897259947372
 21
-264.8060935853723
 31
0.0
  0
LINE
  5
35D
330
1F
100
AcDbEntity
  8
A-9
  6
Continuous
 62
     6
370
     9
100
AcDbLine
 10
-193.2396930027609
 20
-279.2062002437186
 30
0.0
 11
-195.3398861000853
 21
-277.1059080526367
 31
0.0
  0
LINE
  5
35E
330
1F
100
AcDbEntity
  8
A-9
  6
Continuous
 62
     6
370
     9
100
AcDbLine
 10
-192.577053046084
 20
-277.606083793825
 30
0.0
 11
-194.6772461434086
 21
-275.5060888840156
 31
0.0
  0
LINE
  5
35F
330
1F
100
AcDbEntity
  8
A-9
  6
Continuous
 62
     6
370
     9
100
AcDbLine
 10
-194.6772461434086
 20
-275.5060888840156
 30
0.0
 11
-205.3021779207147
 21
-275.5060888840156
 31
0.0
  0
LINE
  5
360
330
1F
100
AcDbEntity
  8
A-9
  6
Continuous
 62
     6
370
     9
100
AcDbLine
 10
-206.7396319676047
 20
-279.2062002437186
 30
0.0
 11
-204.6394388702803
 21
-277.1059080526367
 31
0.0
  0
LINE
  5
361
330
1F
100
AcDbEntity
  8
A-A
  6
Continuous
 62
     2
370
     9
100
AcDbLine
 10
-196.9897971631435
 20
-275.5060888840156
 30
0.0
 11
-196.9897971631435
 21
-277.8560477972222
 31
0.0
  0
LINE
  5
362
330
1F
100
AcDbEntity
  8
A-A
  6
Continuous
 62
     2
370
     9
100
AcDbLine
 10
-196.9897971631435
 20
-277.8560477972222
 30
0.0
 11
-194.3398318989813
 21
-280.5062112488994
 31
0.0
  0
LINE
  5
363
330
1F
100
AcDbEntity
  8
A-A
  6
Continuous
 62
     2
370
     9
100
AcDbLine
 10
-202.9897259947372
 20
-275.5060888840156
 30
0.0
 11
-202.9897259947372
 21
-277.8560477972222
 31
0.0
  0
LINE
  5
364
330
1F
100
AcDbEntity
  8
A-A
  6
Continuous
 62
     2
370
     9
100
AcDbLine
 10
-202.9897259947372
 20
-277.8560477972222
 30
0.0
 11
-205.6396912588993
 21
-280.5062112488994
 31
0.0
  0
LINE
  5
365
330
1F
100
AcDbEntity
  8
A-9
  6
Continuous
 62
     6
370
     9
100
AcDbLine
 10
-203.4897530952894
 20
-275.5060888840156
 30
0.0
 11
-203.4897530952894
 21
-277.1059080526367
 31
0.0
  0
LINE
  5
366
330
1F
100
AcDbEntity
  8
A-9
  6
Continuous
 62
     6
370
     9
100
AcDbLine
 10
-196.4897700625915
 20
-275.5060888840156
 30
0.0
 11
-196.4897700625915
 21
-277.1059080526367
 31
0.0
  0
LINE
  5
367
330
1F
100
AcDbEntity
  8
A-9
  6
Continuous
 62
     6
370
     9
100
AcDbLine
 10
-195.3398861000853
 20
-277.1059080526367
 30
0.0
 11
-196.9897971631435
 21
-277.1059080526367
 31
0.0
  0
LINE
  5
368
330
1F
100
AcDbEntity
  8
A-9
  6
Continuous
 62
     6
370
     9
100
AcDbLine
 10
-202.9897259947372
 20
-277.1059080526367
 30
0.0
 11
-204.6394388702803
 21
-277.1059080526367
 31
0.0
  0
LINE
  5
369
330
1F
100
AcDbEntity
  8
A-A
  6
Continuous
 62
     2
370
     9
100
AcDbLine
 10
-196.9897971631435
 20
-277.8560477972222
 30
0.0
 11
-202.9897259947372
 21
-277.8560477972222
 31
0.0
  0
LINE
  5
36A
330
1F
100
AcDbEntity
  8
A-A
  6
Continuous
 62
     2
370
     9
100
AcDbLine
 10
-197.8597412605961
 20
-277.8560477972222
 30
0.0
 11
-197.8597412605961
 21
-275.5060888840156
 31
0.0
  0
LINE
  5
36B
330
1F
100
AcDbEntity
  8
A-A
  6
Continuous
 62
     2
370
     9
100
AcDbLine
 10
-202.1196828035272
 20
-277.8560477972222
 30
0.0
 11
-202.1196828035272
 21
-275.5060888840156
 31
0.0
  0
LINE
  5
36C
330
1F
100
AcDbEntity
  8
A-9
  6
Continuous
 62
     6
370
     9
100
AcDbLine
 10
-207.402371018039
 20
-277.606083793825
 30
0.0
 11
-205.3021779207147
 21
-275.5060888840156
 31
0.0
  0
LINE
  5
36D
330
1F
100
AcDbEntity
  8
A-9
  6
Continuous
 62
     6
370
     9
100
AcDbLine
 10
-207.402371018039
 20
-277.606083793825
 30
0.0
 11
-209.9898081211927
 21
-277.606083793825
 31
0.0
  0
LINE
  5
36E
330
1F
100
AcDbEntity
  8
A-9
  6
Continuous
 62
     6
370
     9
100
AcDbLine
 10
-188.589619336391
 20
-275.206132079939
 30
0.0
 11
-188.589619336391
 21
-277.606083793825
 31
0.0
  0
LINE
  5
36F
330
1F
100
AcDbEntity
  8
A-9
  6
Continuous
 62
     6
370
     9
100
AcDbLine
 10
-188.589619336391
 20
-277.606083793825
 30
0.0
 11
-192.577053046084
 21
-277.606083793825
 31
0.0
  0
ARC
  5
370
330
1F
100
AcDbEntity
  8
A-A
  6
Continuous
 62
     2
370
     9
100
AcDbCircle
 10
-195.68304778245
 20
-272.8739109493323
 30
0.0
 40
2.367928946800674
100
AcDbArc
 50
52.44277954101562
 51
127.5572204589844
  0
ARC
  5
371
330
1F
100
AcDbEntity
  8
A-A
  6
Continuous
 62
     2
370
     9
100
AcDbCircle
 10
-199.9897615789404
 20
-279.1037868453001
 30
0.0
 40
8.597918645755662
100
AcDbArc
 50
70.54800415039062
 51
109.4519958496094
  0
ARC
  5
372
330
1F
100
AcDbEntity
  8
A-A
  6
Continuous
 62
     2
370
     9
100
AcDbCircle
 10
-204.2963762816732
 20
-272.8739109493323
 30
0.0
 40
2.367928946800674
100
AcDbArc
 50
52.44277954101562
 51
127.5572204589844
  0
ARC
  5
373
330
1F
100
AcDbEntity
  8
A-9
  6
Continuous
 62
     6
370
     9
100
AcDbCircle
 10
-187.9897057282375
 20
-278.2060964957359
 30
0.0
 40
1.00000000920535
100
AcDbArc
 50
270.0
 51
0.0
  0
LINE
  5
374
330
1F
100
AcDbEntity
  8
A-8
  6
Continuous
 62
     2
370
     9
100
AcDbLine
 10
-196.4897700625915
 20
-278.3560748977742
 30
0.0
 11
-195.358317538988
 21
-277.2247214679284
 31
0.0
  0
LINE
  5
375
330
1F
100
AcDbEntity
  8
A-8
  6
Continuous
 62
     2
370
     9
100
AcDbLine
 10
-196.9897971631435
 20
-277.2247214679284
 30
0.0
 11
-195.358317538988
 21
-277.2247214679284
 31
0.0
  0
LINE
  5
376
330
1F
100
AcDbEntity
  8
A-8
  6
Continuous
 62
     2
370
     9
100
AcDbLine
 10
-196.4897700625915
 20
-278.3560748977742
 30
0.0
 11
-194.0397760011471
 21
-280.806168052976
 31
0.0
  0
LINE
  5
377
330
1F
100
AcDbEntity
  8
A-8
  6
Continuous
 62
     2
370
     9
100
AcDbLine
 10
-195.358317538988
 20
-277.2247214679284
 30
0.0
 11
-193.3770369507128
 21
-279.2062002437186
 31
0.0
  0
LINE
  5
378
330
1F
100
AcDbEntity
  8
A-8
  6
Continuous
 62
     2
370
     9
100
AcDbLine
 10
-204.6210074313776
 20
-277.2247214679284
 30
0.0
 11
-206.6022880196528
 21
-279.2062002437186
 31
0.0
  0
LINE
  5
379
330
1F
100
AcDbEntity
  8
A-8
  6
Continuous
 62
     2
370
     9
100
AcDbLine
 10
-203.4897530952894
 20
-278.3560748977742
 30
0.0
 11
-204.6210074313776
 21
-277.2247214679284
 31
0.0
  0
LINE
  5
37A
330
1F
100
AcDbEntity
  8
A-8
  6
Continuous
 62
     2
370
     9
100
AcDbLine
 10
-204.6210074313776
 20
-277.2247214679284
 30
0.0
 11
-202.9897259947372
 21
-277.2247214679284
 31
0.0
  0
LINE
  5
37B
330
1F
100
AcDbEntity
  8
A-8
  6
Continuous
 62
     2
370
     9
100
AcDbLine
 10
-203.4897530952894
 20
-278.3560748977742
 30
0.0
 11
-205.9397471567335
 21
-280.806168052976
 31
0.0
  0
ARC
  5
37C
330
1F
100
AcDbEntity
  8
A-9
  6
Continuous
 62
     6
370
     9
100
AcDbCircle
 10
-187.5895651352868
 20
-275.206132079939
 30
0.0
 40
1.00000000920535
100
AcDbArc
 50
90.0
 51
180.0
  0
LINE
  5
37D
330
1F
100
AcDbEntity
  8
A-8
  6
Continuous
 62
     2
370
     9
100
AcDbLine
 10
-190.4896430434825
 20
-279.2062002437186
 30
0.0
 11
-190.4896430434825
 21
-280.806168052976
 31
0.0
  0
LINE
  5
37E
330
1F
100
AcDbEntity
  8
A-9
  6
Continuous
 62
     6
370
     9
100
AcDbLine
 10
-187.5895651352868
 20
-274.2060778788349
 30
0.0
 11
-170.9895770595297
 21
-274.2060778788349
 31
0.0
  0
LINE
  5
37F
330
1F
100
AcDbEntity
  8
A-9
  6
Continuous
 62
     6
370
     9
100
AcDbLine
 10
-186.9896515271336
 20
-278.2060964957359
 30
0.0
 11
-186.9896515271336
 21
-275.8061447818499
 31
0.0
  0
LINE
  5
380
330
1F
100
AcDbEntity
  8
A-9
  6
Continuous
 62
     6
370
     9
100
AcDbLine
 10
-186.9896515271336
 20
-275.8061447818499
 30
0.0
 11
-170.9895770595297
 21
-275.8061447818499
 31
0.0
  0
LINE
  5
381
330
1F
100
AcDbEntity
  8
A-8
  6
Continuous
 62
     2
370
     9
100
AcDbLine
 10
-193.3770369507128
 20
-279.2062002437186
 30
0.0
 11
-182.7392579567499
 21
-279.2062002437186
 31
0.0
  0
LINE
  5
382
330
1F
100
AcDbEntity
  8
A-8
  6
Continuous
 62
     2
370
     9
100
AcDbLine
 10
-264.489619242128
 20
-279.2061506968398
 30
0.0
 11
-264.489619242128
 21
-280.806168052976
 31
0.0
  0
LINE
  5
383
330
1F
100
AcDbEntity
  8
A-8
  6
Continuous
 62
     2
370
     9
100
AcDbLine
 10
-206.6023871134103
 20
-279.2061506968398
 30
0.0
 11
-264.489619242128
 21
-279.2061506968398
 31
0.0
  0
LINE
  5
384
330
1F
100
AcDbEntity
  8
A-8
  6
Continuous
 62
     2
370
     9
100
AcDbLine
 10
-205.9397471567335
 20
-280.806168052976
 30
0.0
 11
-264.489619242128
 21
-280.806168052976
 31
0.0
  0
LINE
  5
385
330
1F
100
AcDbEntity
  8
A-8
  6
JWW_CENTER1
 62
     2
370
     9
100
AcDbLine
 10
-249.4896725006042
 20
-275.5654222018589
 30
0.0
 11
-249.4896725006042
 21
-285.2187869678334
 31
0.0
  0
LINE
  5
386
330
1F
100
AcDbEntity
  8
A-8
  6
JWW_CENTER1
 62
     2
370
     9
100
AcDbLine
 10
-199.9897615789403
 20
-258.4773716662572
 30
0.0
 11
-199.9897615789403
 21
-286.6730624911451
 31
0.0
  0
LINE
  5
387
330
1F
100
AcDbEntity
  8
A-5
  6
Continuous
 62
     7
370
     9
100
AcDbLine
 10
-199.9897615789403
 20
-280.806168052976
 30
0.0
 11
-208.1065806323898
 21
-291.3842125901924
 31
0.0
  0
LINE
  5
388
330
1F
100
AcDbEntity
  8
A-5
  6
Continuous
 62
     7
370
     9
100
AcDbLine
 10
-199.9897615789403
 20
-280.806168052976
 30
0.0
 11
-205.0922073438081
 21
-293.1245618197931
 31
0.0
  0
LINE
  5
389
330
1F
100
AcDbEntity
  8
A-5
  6
Continuous
 62
     7
370
     9
100
AcDbLine
 10
-209.9897090274353
 20
-277.606083793825
 30
0.0
 11
-245.7900936195041
 21
-215.59805821244
 31
0.0
  0
LINE
  5
38A
330
1F
100
AcDbEntity
  8
A-5
  6
Continuous
 62
     7
370
     9
100
AcDbLine
 10
-209.9897090274353
 20
-277.606083793825
 30
0.0
 11
-215.0922480899353
 21
-265.2876716316628
 31
0.0
  0
LINE
  5
38B
330
1F
100
AcDbEntity
  8
A-5
  6
Continuous
 62
     7
370
     9
100
AcDbLine
 10
-209.9897090274353
 20
-277.606083793825
 30
0.0
 11
-218.1065930012527
 21
-267.0280643681493
 31
0.0
  0
LINE
  5
38C
330
1F
100
AcDbEntity
  8
A-5
  6
Continuous
 62
     7
370
     9
100
AcDbLine
 10
-384.2786833984532
 20
-215.59805821244
 30
0.0
 11
-245.7900936195041
 21
-215.59805821244
 31
0.0
  0
TEXT
  5
38D
330
1F
100
AcDbEntity
  8
A-5
  6
Continuous
 62
     7
370
     9
100
AcDbText
 10
-382.9444270129306
 20
-211.1087089466386
 30
0.0
 40
9.144
  1
取付ピース：ＳＧＨＣ
 41
1.15
  7
ＭＳ ゴシック
100
AcDbText
  0
LINE
  5
38E
330
1F
100
AcDbEntity
  8
A-5
  6
Continuous
 62
     7
370
     9
100
AcDbLine
 10
-199.9897615789403
 20
-280.806168052976
 30
0.0
 11
-226.2323027008715
 21
-326.2595825958761
 31
0.0
  0
LINE
  5
38F
330
1F
100
AcDbEntity
  8
A-8
  6
Continuous
 62
     2
370
     9
100
AcDbLine
 10
-194.0397760011471
 20
-280.8062129548349
 30
0.0
 11
-103.4096123233682
 21
-280.8062129548349
 31
0.0
  0
LINE
  5
390
330
1F
100
AcDbEntity
  8
A-8
  6
Continuous
 62
     2
370
     9
100
AcDbLine
 10
-173.2398622277057
 20
-279.2062002437186
 30
0.0
 11
-106.8003533998942
 21
-279.2062002437186
 31
0.0
  0
LINE
  5
391
330
1F
100
AcDbEntity
  8
A-8
  6
Continuous
 62
     2
370
     9
100
AcDbLine
 10
235.510380757872
 20
-279.2061955986987
 30
0.0
 11
235.510380757872
 21
-280.8062129548349
 31
0.0
  0
LINE
  5
392
330
1F
100
AcDbEntity
  8
A-8
  6
JWW_CENTER1
 62
     2
370
     9
100
AcDbLine
 10
220.5103349225904
 20
-275.3462661810821
 30
0.0
 11
220.5103349225904
 21
-285.1686267932722
 31
0.0
  0
LINE
  5
393
330
1F
100
AcDbEntity
  8
A-8
  6
Continuous
 62
     2
370
     9
100
AcDbLine
 10
161.5103054654688
 20
-279.2061955986987
 30
0.0
 11
161.5103054654688
 21
-280.8062129548349
 31
0.0
  0
LINE
  5
394
330
1F
100
AcDbEntity
  8
A-5
  6
Continuous
 62
     7
370
     9
100
AcDbLine
 10
161.5103054654687
 20
-280.8062129548349
 30
0.0
 11
166.6127512303369
 21
-293.1246067216521
 31
0.0
  0
LINE
  5
395
330
1F
100
AcDbEntity
  8
A-5
  6
Continuous
 62
     7
370
     9
100
AcDbLine
 10
161.5103054654687
 20
-280.8062129548349
 30
0.0
 11
169.6271245189187
 21
-291.3842574920513
 31
0.0
  0
LINE
  5
396
330
1F
100
AcDbEntity
  8
A-8
  6
Continuous
 62
     2
370
     9
100
AcDbLine
 10
235.510380757872
 20
-280.8062129548349
 30
0.0
 11
74.43037383911206
 21
-280.8062129548349
 31
0.0
  0
LINE
  5
397
330
1F
100
AcDbEntity
  8
A-8
  6
Continuous
 62
     2
370
     9
100
AcDbLine
 10
77.82111491563816
 20
-279.2061955986987
 30
0.0
 11
235.510380757872
 21
-279.2061955986987
 31
0.0
  0
LINE
  5
398
330
1F
100
AcDbEntity
  8
A-0
  6
Continuous
 62
     4
370
     9
100
AcDbLine
 10
78.52766006545492
 20
-278.9137425464624
 30
0.0
 11
176.0232610345263
 21
-252.7893398628869
 31
0.0
  0
LINE
  5
399
330
1F
100
AcDbEntity
  8
A-4
  6
Continuous
 62
     7
370
     9
100
AcDbLine
 10
-264.489619242128
 20
-305.5141335661284
 30
0.0
 11
-264.489619242128
 21
-289.7515893084831
 31
0.0
  0
LINE
  5
39A
330
1F
100
AcDbEntity
  8
A-4
  6
Continuous
 62
     7
370
     9
100
AcDbLine
 10
235.510380757872
 20
-396.7124782336945
 30
0.0
 11
235.510380757872
 21
-289.7515893084831
 31
0.0
  0
LINE
  5
39B
330
1F
100
AcDbEntity
  8
A-5
  6
Continuous
 62
     7
370
     9
100
AcDbLine
 10
241.1766869293759
 20
-418.7924333054859
 30
0.0
 11
371.5447051296555
 21
-418.7924333054859
 31
0.0
  0
LINE
  5
39C
330
1F
100
AcDbEntity
  8
A-5
  6
Continuous
 62
     7
370
     9
100
AcDbLine
 10
161.5103054654687
 20
-280.8062129548349
 30
0.0
 11
241.1766869293759
 21
-418.7924333054859
 31
0.0
  0
LINE
  5
39D
330
1F
100
AcDbEntity
  8
A-4
  6
Continuous
 62
     7
370
     9
100
AcDbLine
 10
290.9623881060995
 20
-319.2060745796373
 30
0.0
 11
290.9623881060995
 21
-279.2061955986987
 31
0.0
  0
LINE
  5
39E
330
1F
100
AcDbEntity
  8
A-4
  6
Continuous
 62
     7
370
     9
100
AcDbLine
 10
290.9623881060995
 20
-319.2060745796373
 30
0.0
 11
289.6571261838989
 21
-309.2916259658992
 31
0.0
  0
LINE
  5
39F
330
1F
100
AcDbEntity
  8
A-4
  6
Continuous
 62
     7
370
     9
100
AcDbLine
 10
290.9623881060995
 20
-319.2060745796373
 30
0.0
 11
292.2676500283
 21
-309.2916259658992
 31
0.0
  0
LINE
  5
3A0
330
1F
100
AcDbEntity
  8
A-4
  6
Continuous
 62
     7
370
     9
100
AcDbLine
 10
290.9623881060995
 20
-279.2061955986987
 30
0.0
 11
289.6571261838989
 21
-289.1206442124368
 31
0.0
  0
LINE
  5
3A1
330
1F
100
AcDbEntity
  8
A-4
  6
Continuous
 62
     7
370
     9
100
AcDbLine
 10
290.9623881060995
 20
-279.2061955986987
 30
0.0
 11
292.2676500283
 21
-289.1206442124368
 31
0.0
  0
LINE
  5
3A2
330
1F
100
AcDbEntity
  8
A-4
  6
Continuous
 62
     7
370
     9
100
AcDbLine
 10
292.1623881060995
 20
-319.2060745796373
 30
0.0
 11
79.55913153814686
 21
-319.2060745796373
 31
0.0
  0
LINE
  5
3A3
330
1F
100
AcDbEntity
  8
A-4
  6
Continuous
 62
     7
370
     9
100
AcDbLine
 10
292.1623881060995
 20
-279.2061955986987
 30
0.0
 11
243.510380757872
 21
-279.2061955986987
 31
0.0
  0
TEXT
  5
3A4
330
1F
100
AcDbEntity
  8
A-4
  6
Continuous
 62
     2
370
   211
100
AcDbText
 10
286.3063881060995
 20
-307.706135089168
 30
0.0
 40
12.192
  1
40
 50
90.0
 41
1.0625
  7
ＭＳ ゴシック
100
AcDbText
  0
LINE
  5
3A5
330
1F
100
AcDbEntity
  8
A-4
  6
Continuous
 62
     7
370
     9
100
AcDbLine
 10
290.9623881060995
 20
-279.2061955986987
 30
0.0
 11
290.9623881060995
 21
-244.2060745796373
 31
0.0
  0
LINE
  5
3A6
330
1F
100
AcDbEntity
  8
A-4
  6
Continuous
 62
     7
370
     9
100
AcDbLine
 10
290.9623881060995
 20
-279.2061955986987
 30
0.0
 11
289.6571261838989
 21
-269.2917469849606
 31
0.0
  0
LINE
  5
3A7
330
1F
100
AcDbEntity
  8
A-4
  6
Continuous
 62
     7
370
     9
100
AcDbLine
 10
290.9623881060995
 20
-279.2061955986987
 30
0.0
 11
292.2676500283
 21
-269.2917469849606
 31
0.0
  0
LINE
  5
3A8
330
1F
100
AcDbEntity
  8
A-4
  6
Continuous
 62
     7
370
     9
100
AcDbLine
 10
290.9623881060995
 20
-244.2060745796373
 30
0.0
 11
289.6571261838989
 21
-254.1205231933754
 31
0.0
  0
LINE
  5
3A9
330
1F
100
AcDbEntity
  8
A-4
  6
Continuous
 62
     7
370
     9
100
AcDbLine
 10
290.9623881060995
 20
-244.2060745796373
 30
0.0
 11
292.2676500283
 21
-254.1205231933754
 31
0.0
  0
LINE
  5
3AA
330
1F
100
AcDbEntity
  8
A-4
  6
Continuous
 62
     7
370
     9
100
AcDbLine
 10
292.1623881060995
 20
-244.2060745796373
 30
0.0
 11
189.010380757872
 21
-244.2060745796373
 31
0.0
  0
TEXT
  5
3AB
330
1F
100
AcDbEntity
  8
A-4
  6
Continuous
 62
     2
370
   211
100
AcDbText
 10
286.3063881060995
 20
-270.206135089168
 30
0.0
 40
12.192
  1
35
 50
90.0
 41
1.0625
  7
ＭＳ ゴシック
100
AcDbText
  0
LINE
  5
3AC
330
1F
100
AcDbEntity
  8
A-A
  6
JWW_CENTER1
 62
     2
370
     9
100
AcDbLine
 10
-94.48969429887431
 20
225.5433685843813
 30
0.0
 11
-94.48969429887431
 21
235.7443879935229
 31
0.0
  0
LINE
  5
3AD
330
1F
100
AcDbEntity
  8
A-A
  6
JWW_CENTER1
 62
     2
370
     9
100
AcDbLine
 10
-117.9896302590917
 20
225.5433685843813
 30
0.0
 11
-117.9896302590917
 21
233.31448519142
 31
0.0
  0
LINE
  5
3AE
330
1F
100
AcDbEntity
  8
A-A
  6
JWW_CENTER1
 62
     2
370
     9
100
AcDbLine
 10
89.01039177483533
 20
225.5433685843813
 30
0.0
 11
89.01039177483533
 21
233.31448519142
 31
0.0
  0
LINE
  5
3AF
330
1F
100
AcDbEntity
  8
A-C
  6
Continuous
 62
     2
370
     9
100
AcDbLine
 10
-90.48967568197328
 20
-241.2901428870998
 30
0.0
 11
-98.48958904857831
 21
-241.2901428870998
 31
0.0
  0
LINE
  5
3B0
330
1F
100
AcDbEntity
  8
A-C
  6
Continuous
 62
     2
370
     9
100
AcDbLine
 10
-98.48958904857831
 20
-241.2901428870998
 30
0.0
 11
-97.81310073928513
 21
-240.6135307106098
 31
0.0
  0
LINE
  5
3B1
330
1F
100
AcDbEntity
  8
A-C
  6
Continuous
 62
     2
370
     9
100
AcDbLine
 10
-97.81310073928513
 20
-240.6135307106098
 30
0.0
 11
-91.16613921782711
 21
-240.6135307106098
 31
0.0
  0
LINE
  5
3B2
330
1F
100
AcDbEntity
  8
A-C
  6
Continuous
 62
     2
370
     9
100
AcDbLine
 10
-91.16613921782711
 20
-240.6135307106098
 30
0.0
 11
-90.48967568197328
 21
-241.2901428870998
 31
0.0
  0
LINE
  5
3B3
330
1F
100
AcDbEntity
  8
A-C
  6
Continuous
 62
     2
370
     9
100
AcDbLine
 10
-97.81310073928513
 20
-261.755805927726
 30
0.0
 11
-97.81310073928513
 21
-240.6135307106098
 31
0.0
  0
LINE
  5
3B4
330
1F
100
AcDbEntity
  8
A-C
  6
Continuous
 62
     2
370
     9
100
AcDbLine
 10
-98.48958904857831
 20
-261.755805927726
 30
0.0
 11
-98.48958904857831
 21
-241.2901428870998
 31
0.0
  0
LINE
  5
3B5
330
1F
100
AcDbEntity
  8
A-C
  6
Continuous
 62
     2
370
     9
100
AcDbLine
 10
-91.16613921782711
 20
-261.755805927726
 30
0.0
 11
-91.16613921782711
 21
-240.6135307106098
 31
0.0
  0
LINE
  5
3B6
330
1F
100
AcDbEntity
  8
A-C
  6
Continuous
 62
     2
370
     9
100
AcDbLine
 10
-90.48967568197328
 20
-261.755805927726
 30
0.0
 11
-90.48967568197328
 21
-241.2901428870998
 31
0.0
  0
LINE
  5
3B7
330
1F
100
AcDbEntity
  8
A-5
  6
Continuous
 62
     7
370
     9
100
AcDbLine
 10
-98.48958904857831
 20
-243.7134824009231
 30
0.0
 11
-106.6064730223963
 21
-233.1354629752475
 31
0.0
  0
LINE
  5
3B8
330
1F
100
AcDbEntity
  8
A-5
  6
Continuous
 62
     7
370
     9
100
AcDbLine
 10
-98.48958904857831
 20
-243.7134824009231
 30
0.0
 11
-103.5921281110783
 21
-231.395070238761
 31
0.0
  0
LINE
  5
3B9
330
1F
100
AcDbEntity
  8
A-5
  6
Continuous
 62
     7
370
     9
100
AcDbLine
 10
-98.48958904857831
 20
-243.7134824009231
 30
0.0
 11
-251.2817682606974
 21
20.93008121374059
 31
0.0
  0
LINE
  5
3BA
330
1F
100
AcDbEntity
  8
A-4
  6
Continuous
 62
     7
370
     9
100
AcDbLine
 10
223.3993295101778
 20
-65.99606944925975
 30
0.0
 11
36.05101756069723
 21
-65.99606944925974
 31
0.0
  0
TEXT
  5
3BB
330
1F
100
AcDbEntity
  8
F-5ﾚｲﾔ
  6
Continuous
 62
     2
370
     9
100
AcDbText
 10
-335.3383838383984
 20
-527.5629142635559
 30
0.0
 40
12.192
  1
鋳鉄製ルーフドレン　防水層張掛け幅100mm　たて引き用　鋼製下地断熱屋根工法用　ねじ込み式
 50
0.0000000003703648
 41
0.6994252873563219
  7
ＭＳ ゴシック
100
AcDbText
  0
TEXT
  5
3BC
330
1F
100
AcDbEntity
  8
F-5ﾚｲﾔ
  6
Continuous
 62
     2
370
     9
100
AcDbText
 10
-335.764967860437
 20
-548.6566249425216
 30
0.0
 40
12.192
  1
アスファルト・改質アスファルトシート・シート防水用　　ＷＨＰ－６－１５０　Ｄ＝３５
 50
0.0000000003703648
 41
0.6993902439024391
  7
ＭＳ ゴシック
100
AcDbText
  0
TEXT
  5
3BD
330
1F
100
AcDbEntity
  8
A-5
  6
Continuous
 62
     7
370
     9
100
AcDbText
 10
-390.2962962962963
 20
25.3467827016738
 30
0.0
 40
9.144
  1
ボルト：Ｃ３６０２Ｗ
 41
1.15
  7
ＭＳ ゴシック
100
AcDbText
  0
TEXT
  5
3BE
330
1F
100
AcDbEntity
  8
A-5
  6
Continuous
 62
     7
370
     9
100
AcDbText
 10
-384.5925925925926
 20
-46.31737648443728
 30
0.0
 40
9.144
  1
丸小ねじ：Ｃ２７００Ｗ
 41
1.151515151515152
  7
ＭＳ ゴシック
100
AcDbText
  0
LINE
  5
3BF
330
1F
100
AcDbEntity
  8
A-5
  6
Continuous
 62
     7
370
     9
100
AcDbLine
 10
-271.6216892317307
 20
-441.7408401099298
 30
0.0
 11
-443.8223868312757
 21
-441.7408401099298
 31
0.0
  0
LINE
  5
3C0
330
1F
100
AcDbEntity
  8
A-5
  6
Continuous
 62
     7
370
     9
100
AcDbLine
 10
-226.2323027008715
 20
-326.2595825958761
 30
0.0
 11
-405.2178189300411
 21
-326.2595825958761
 31
0.0
  0
LINE
  5
3C1
330
1F
100
AcDbEntity
  8
A-5
  6
Continuous
 62
     7
370
     9
100
AcDbLine
 10
-388.9284900548697
 20
20.93008121374059
 30
0.0
 11
-251.2817682606974
 21
20.93008121374059
 31
0.0
  0
LINE
  5
3C2
330
1F
100
AcDbEntity
  8
A-5
  6
Continuous
 62
     7
370
     9
100
AcDbLine
 10
-384.4488381344307
 20
-51.6932158632227
 30
0.0
 11
-233.149827456613
 21
-51.6932158632227
 31
0.0
  0
TEXT
  5
3C3
330
1F
100
AcDbEntity
  8
A-5
  6
Continuous
 62
     7
370
     9
100
AcDbText
 10
-354.1051322929837
 20
7.812204064384034
 30
0.0
 40
9.144
  1
Ｍ８×４０
 50
359.9999583021696
 41
1.133333333333333
  7
ＭＳ ゴシック
100
AcDbText
  0
TEXT
  5
3C4
330
1F
100
AcDbEntity
  8
A-5
  6
Continuous
 62
     7
370
     9
100
AcDbText
 10
-342.799335930722
 20
-66.92051071345126
 30
0.0
 40
9.144
  1
Ｍ６×１２
 50
359.9999583021696
 41
1.133333333333333
  7
ＭＳ ゴシック
100
AcDbText
  0
TEXT
  5
3C5
330
1F
100
AcDbEntity
  8
A-5
  6
Continuous
 62
     7
370
     9
100
AcDbText
 10
-402.2250608154563
 20
-322.8190059240741
 30
0.0
 40
9.144
  1
皿小ねじ,六角ナット：Ｍ６
 41
1.153333333333333
  7
ＭＳ ゴシック
100
AcDbText
  0
TEXT
  5
3C6
330
1F
100
AcDbEntity
  8
A-5
  6
Continuous
 62
     7
370
     9
100
AcDbText
 10
-402.2250608154563
 20
-338.7296555449938
 30
0.0
 40
9.144
  1
ＳＳ４００,電気亜鉛めっき
 41
1.153333333333333
  7
ＭＳ ゴシック
100
AcDbText
  0
TEXT
  5
3C7
330
1F
100
AcDbEntity
  8
A-5
  6
Continuous
 62
     7
370
     9
100
AcDbText
 10
-419.7220380315032
 20
-436.5083724362611
 30
0.0
 40
9.144
  1
丸小ねじ：Ｍ６×８
 41
1.148148148148148
  7
ＭＳ ゴシック
100
AcDbText
  0
TEXT
  5
3C8
330
1F
100
AcDbEntity
  8
A-5
  6
Continuous
 62
     7
370
     9
100
AcDbText
 10
-444.2220380315032
 20
-454.9064012432005
 30
0.0
 40
9.144
  1
ＳＳ４００,電気亜鉛めっき
 41
1.153333333333333
  7
ＭＳ ゴシック
100
AcDbText
  0
ENDSEC
  0
SECTION
  2
OBJECTS
  0
DICTIONARY
  5
C
330
0
100
AcDbDictionary
281
     1
  3
ACAD_DETAILVIEWSTYLE
350
40E
  3
ACAD_GROUP
350
D
  3
ACAD_LAYOUT
350
1A
  3
ACAD_MATERIAL
350
43
  3
ACAD_MLEADERSTYLE
350
6B
  3
ACAD_MLINESTYLE
350
17
  3
ACAD_PLOTSETTINGS
350
19
  3
ACAD_PLOTSTYLENAME
350
E
  3
ACAD_SCALELIST
350
47
  3
ACAD_SECTIONVIEWSTYLE
350
40F
  3
ACAD_TABLESTYLE
350
69
  3
ACAD_VISUALSTYLE
350
2A
  3
ACDB_RECOMPOSE_DATA
350
40B
  3
AcDbVariableDictionary
350
3CB
  0
DICTIONARY
  5
3C9
330
8
100
AcDbDictionary
280
     1
281
     1
  3
ACAD_XREC_ROUNDTRIP
360
3CA
  0
DICTIONARY
  5
40E
102
{ACAD_REACTORS
330
C
102
}
330
C
100
AcDbDictionary
281
     1
  0
DICTIONARY
  5
D
102
{ACAD_REACTORS
330
C
102
}
330
C
100
AcDbDictionary
281
     1
  0
DICTIONARY
  5
1A
102
{ACAD_REACTORS
330
C
102
}
330
C
100
AcDbDictionary
281
     1
  3
Layout1
350
1E
  3
Layout2
350
26
  3
Model
350
22
  0
DICTIONARY
  5
43
102
{ACAD_REACTORS
330
C
102
}
330
C
100
AcDbDictionary
281
     1
  3
ByBlock
350
45
  3
ByLayer
350
44
  3
Global
350
46
  0
DICTIONARY
  5
6B
102
{ACAD_REACTORS
330
C
102
}
330
C
100
AcDbDictionary
281
     1
  3
Standard
350
6C
  0
DICTIONARY
  5
17
102
{ACAD_REACTORS
330
C
102
}
330
C
100
AcDbDictionary
281
     1
  3
Standard
350
18
  0
DICTIONARY
  5
19
102
{ACAD_REACTORS
330
C
102
}
330
C
100
AcDbDictionary
281
     1
  0
ACDBDICTIONARYWDFLT
  5
E
102
{ACAD_REACTORS
330
C
102
}
330
C
100
AcDbDictionary
281
     1
  3
Normal
350
F
100
AcDbDictionaryWithDefault
340
F
  0
DICTIONARY
  5
47
102
{ACAD_REACTORS
330
C
102
}
330
C
100
AcDbDictionary
281
     1
  3
A0
350
48
  3
A1
350
49
  3
A2
350
4A
  3
A3
350
4B
  3
A4
350
4C
  3
A5
350
4D
  3
A6
350
4E
  3
A7
350
4F
  3
A8
350
50
  3
A9
350
51
  3
B0
350
52
  3
B1
350
53
  3
B2
350
54
  3
B3
350
55
  3
B4
350
56
  3
B5
350
57
  3
B6
350
58
  3
B7
350
59
  3
B8
350
5A
  3
B9
350
5B
  3
C0
350
5C
  3
C1
350
5D
  3
C2
350
5E
  3
C3
350
5F
  3
C4
350
60
  3
C5
350
61
  3
C6
350
62
  3
C7
350
63
  3
C8
350
64
  3
C9
350
65
  3
D0
350
66
  3
D1
350
67
  3
D2
350
68
  0
DICTIONARY
  5
40F
102
{ACAD_REACTORS
330
C
102
}
330
C
100
AcDbDictionary
281
     1
  0
DICTIONARY
  5
69
102
{ACAD_REACTORS
330
C
102
}
330
C
100
AcDbDictionary
281
     1
  3
Standard
350
6A
  0
DICTIONARY
  5
2A
102
{ACAD_REACTORS
330
C
102
}
330
C
100
AcDbDictionary
281
     1
  3
2dWireframe
350
2F
  3
Basic
350
32
  3
Brighten
350
36
  3
ColorChange
350
3A
  3
Conceptual
350
34
  3
Dim
350
35
  3
EdgeColorOff
350
3D
  3
Facepattern
350
39
  3
Flat
350
2B
  3
FlatWithEdges
350
2C
  3
Gouraud
350
2D
  3
GouraudWithEdges
350
2E
  3
Hidden
350
31
  3
JitterOff
350
3B
  3
Linepattern
350
38
  3
OverhangOff
350
3C
  3
Realistic
350
33
  3
Shaded
350
42
  3
Shaded with edges
350
41
  3
Shades of Gray
350
3E
  3
Sketchy
350
3F
  3
Thicken
350
37
  3
Wireframe
350
30
  3
X-Ray
350
40
  0
XRECORD
  5
40B
102
{ACAD_REACTORS
330
C
102
}
330
C
100
AcDbXrecord
280
     1
 90
        1
330
6A
  0
DICTIONARY
  5
3CB
102
{ACAD_REACTORS
330
C
102
}
330
C
100
AcDbDictionary
281
     1
  3
CANNOSCALE
350
3CC
  3
CENTEREXE
350
410
  3
CENTERLTYPEFILE
350
411
  3
CMLEADERSTYLE
350
40D
  3
CTABLESTYLE
350
40C
  3
MSLTSCALE
350
3CD
  3
XCLIPFRAME
350
3CE
  0
XRECORD
  5
3CA
102
{ACAD_REACTORS
330
3C9
102
}
330
3C9
100
AcDbXrecord
280
     1
102
VTR_0.000_0.000_1.000_1.000_VISUALSTYLE
340
2F
102
VTR_0.000_0.000_1.000_1.000_GRIDDISPLAY
 70
     3
102
VTR_0.000_0.000_1.000_1.000_GRIDMAJOR
 70
     5
102
VTR_0.000_0.000_1.000_1.000_DEFAULTLIGHTING
280
     1
102
VTR_0.000_0.000_1.000_1.000_DEFAULTLIGHTINGTYPE
 70
     1
102
VTR_0.000_0.000_1.000_1.000_BRIGHTNESS
141
0.0
102
VTR_0.000_0.000_1.000_1.000_CONTRAST
142
0.0
  0
LAYOUT
  5
1E
102
{ACAD_REACTORS
330
1A
102
}
330
1A
100
AcDbPlotSettings
  1

  2
none_device
  4

  6

 40
0.0
 41
0.0
 42
0.0
 43
0.0
 44
0.0
 45
0.0
 46
0.0
 47
0.0
 48
0.0
 49
0.0
140
0.0
141
0.0
142
1.0
143
1.0
 70
   688
 72
     1
 73
     0
 74
     5
  7

 75
    16
 76
     0
 77
     5
 78
   300
147
1.0
148
0.0
149
0.0
100
AcDbLayout
  1
Layout1
 70
     1
 71
     1
 10
0.0
 20
0.0
 11
420.0
 21
297.0
 12
0.0
 22
0.0
 32
0.0
 14
1.000000000000000E+20
 24
1.000000000000000E+20
 34
1.000000000000000E+20
 15
-1.000000000000000E+20
 25
-1.000000000000000E+20
 35
-1.000000000000000E+20
146
0.0
 13
0.0
 23
0.0
 33
0.0
 16
1.0
 26
0.0
 36
0.0
 17
0.0
 27
1.0
 37
0.0
 76
     0
330
1B
  0
LAYOUT
  5
26
102
{ACAD_REACTORS
330
1A
102
}
330
1A
100
AcDbPlotSettings
  1

  2
none_device
  4

  6

 40
0.0
 41
0.0
 42
0.0
 43
0.0
 44
0.0
 45
0.0
 46
0.0
 47
0.0
 48
0.0
 49
0.0
140
0.0
141
0.0
142
1.0
143
1.0
 70
   688
 72
     1
 73
     0
 74
     5
  7

 75
    16
 76
     0
 77
     5
 78
   300
147
1.0
148
0.0
149
0.0
100
AcDbLayout
  1
Layout2
 70
     1
 71
     2
 10
0.0
 20
0.0
 11
0.0
 21
0.0
 12
0.0
 22
0.0
 32
0.0
 14
0.0
 24
0.0
 34
0.0
 15
0.0
 25
0.0
 35
0.0
146
0.0
 13
0.0
 23
0.0
 33
0.0
 16
1.0
 26
0.0
 36
0.0
 17
0.0
 27
1.0
 37
0.0
 76
     0
330
23
  0
LAYOUT
  5
22
102
{ACAD_REACTORS
330
1A
102
}
330
1A
100
AcDbPlotSettings
  1

  2
none_device
  4
Letter_(8.50_x_11.00_Inches)
  6

 40
6.35
 41
6.35
 42
6.35000508
 43
6.35000508
 44
215.9
 45
279.4
 46
0.0
 47
0.0
 48
0.0
 49
0.0
140
0.0
141
0.0
142
1.0
143
1.0
 70
  1712
 72
     1
 73
     0
 74
     0
  7

 75
     0
 76
     0
 77
     5
 78
   300
147
1.0
148
0.0
149
0.0
100
AcDbLayout
  1
Model
 70
     1
 71
     0
 10
-840.0
 20
-594.0
 11
840.0
 21
594.0
 12
0.0
 22
0.0
 32
0.0
 14
-840.0
 24
-594.0
 34
0.0
 15
840.0
 25
594.0
 35
0.0
146
0.0
 13
0.0
 23
0.0
 33
0.0
 16
1.0
 26
0.0
 36
0.0
 17
0.0
 27
1.0
 37
0.0
 76
     0
330
1F
331
29
  0
MATERIAL
  5
45
102
{ACAD_REACTORS
330
43
102
}
102
{ACAD_XDICTIONARY
360
401
102
}
330
43
100
AcDbMaterial
  1
ByBlock
  0
MATERIAL
  5
44
102
{ACAD_REACTORS
330
43
102
}
102
{ACAD_XDICTIONARY
360
3FF
102
}
330
43
100
AcDbMaterial
  1
ByLayer
  0
MATERIAL
  5
46
102
{ACAD_REACTORS
330
43
102
}
102
{ACAD_XDICTIONARY
360
403
102
}
330
43
100
AcDbMaterial
  1
Global
  0
MLEADERSTYLE
  5
6C
102
{ACAD_REACTORS
330
6B
102
}
102
{ACAD_XDICTIONARY
360
409
102
}
330
6B
100
AcDbMLeaderStyle
170
     2
171
     1
172
     0
 90
        2
 40
0.0
 41
0.0
173
     1
 91
-1056964608
340
14
 92
       -2
290
     1
 42
2.0
291
     1
 43
8.0
  3
Standard
341
0
 44
4.0
300

342
11
174
     1
178
     6
175
     1
176
     0
 93
-1056964608
 45
4.0
292
     0
297
     0
 46
4.0
343
0
 94
-1056964608
 47
1.0
 49
1.0
140
1.0
293
     1
141
0.0
294
     1
177
     0
142
1.0
295
     0
296
     0
143
3.75
1001
ACAD_MLEADERVER
1070
     2
  0
MLINESTYLE
  5
18
102
{ACAD_REACTORS
330
17
102
}
330
17
100
AcDbMlineStyle
  2
Standard
 70
     0
  3

 62
   256
 51
90.0
 52
90.0
 71
     2
 49
0.5
 62
   256
  6
BYLAYER
 49
-0.5
 62
   256
  6
BYLAYER
  0
ACDBPLACEHOLDER
  5
F
102
{ACAD_REACTORS
330
E
102
}
330
E
  0
SCALE
  5
48
102
{ACAD_REACTORS
330
47
102
}
330
47
100
AcDbScale
 70
     0
300
1:1
140
1.0
141
1.0
290
     1
  0
SCALE
  5
49
102
{ACAD_REACTORS
330
47
102
}
330
47
100
AcDbScale
 70
     0
300
1:2
140
1.0
141
2.0
290
     0
  0
SCALE
  5
4A
102
{ACAD_REACTORS
330
47
102
}
330
47
100
AcDbScale
 70
     0
300
1:4
140
1.0
141
4.0
290
     0
  0
SCALE
  5
4B
102
{ACAD_REACTORS
330
47
102
}
330
47
100
AcDbScale
 70
     0
300
1:5
140
1.0
141
5.0
290
     0
  0
SCALE
  5
4C
102
{ACAD_REACTORS
330
47
102
}
330
47
100
AcDbScale
 70
     0
300
1:8
140
1.0
141
8.0
290
     0
  0
SCALE
  5
4D
102
{ACAD_REACTORS
330
47
102
}
330
47
100
AcDbScale
 70
     0
300
1:10
140
1.0
141
10.0
290
     0
  0
SCALE
  5
4E
102
{ACAD_REACTORS
330
47
102
}
330
47
100
AcDbScale
 70
     0
300
1:16
140
1.0
141
16.0
290
     0
  0
SCALE
  5
4F
102
{ACAD_REACTORS
330
47
102
}
330
47
100
AcDbScale
 70
     0
300
1:20
140
1.0
141
20.0
290
     0
  0
SCALE
  5
50
102
{ACAD_REACTORS
330
47
102
}
330
47
100
AcDbScale
 70
     0
300
1:30
140
1.0
141
30.0
290
     0
  0
SCALE
  5
51
102
{ACAD_REACTORS
330
47
102
}
330
47
100
AcDbScale
 70
     0
300
1:40
140
1.0
141
40.0
290
     0
  0
SCALE
  5
52
102
{ACAD_REACTORS
330
47
102
}
330
47
100
AcDbScale
 70
     0
300
1:50
140
1.0
141
50.0
290
     0
  0
SCALE
  5
53
102
{ACAD_REACTORS
330
47
102
}
330
47
100
AcDbScale
 70
     0
300
1:100
140
1.0
141
100.0
290
     0
  0
SCALE
  5
54
102
{ACAD_REACTORS
330
47
102
}
330
47
100
AcDbScale
 70
     0
300
2:1
140
2.0
141
1.0
290
     0
  0
SCALE
  5
55
102
{ACAD_REACTORS
330
47
102
}
330
47
100
AcDbScale
 70
     0
300
4:1
140
4.0
141
1.0
290
     0
  0
SCALE
  5
56
102
{ACAD_REACTORS
330
47
102
}
330
47
100
AcDbScale
 70
     0
300
8:1
140
8.0
141
1.0
290
     0
  0
SCALE
  5
57
102
{ACAD_REACTORS
330
47
102
}
330
47
100
AcDbScale
 70
     0
300
10:1
140
10.0
141
1.0
290
     0
  0
SCALE
  5
58
102
{ACAD_REACTORS
330
47
102
}
330
47
100
AcDbScale
 70
     0
300
100:1
140
100.0
141
1.0
290
     0
  0
SCALE
  5
59
102
{ACAD_REACTORS
330
47
102
}
330
47
100
AcDbScale
 70
     0
300
1/128" = 1'-0"
140
0.0078125
141
12.0
290
     0
  0
SCALE
  5
5A
102
{ACAD_REACTORS
330
47
102
}
330
47
100
AcDbScale
 70
     0
300
1/64" = 1'-0"
140
0.015625
141
12.0
290
     0
  0
SCALE
  5
5B
102
{ACAD_REACTORS
330
47
102
}
330
47
100
AcDbScale
 70
     0
300
1/32" = 1'-0"
140
0.03125
141
12.0
290
     0
  0
SCALE
  5
5C
102
{ACAD_REACTORS
330
47
102
}
330
47
100
AcDbScale
 70
     0
300
1/16" = 1'-0"
140
0.0625
141
12.0
290
     0
  0
SCALE
  5
5D
102
{ACAD_REACTORS
330
47
102
}
330
47
100
AcDbScale
 70
     0
300
3/32" = 1'-0"
140
0.09375
141
12.0
290
     0
  0
SCALE
  5
5E
102
{ACAD_REACTORS
330
47
102
}
330
47
100
AcDbScale
 70
     0
300
1/8" = 1'-0"
140
0.125
141
12.0
290
     0
  0
SCALE
  5
5F
102
{ACAD_REACTORS
330
47
102
}
330
47
100
AcDbScale
 70
     0
300
3/16" = 1'-0"
140
0.1875
141
12.0
290
     0
  0
SCALE
  5
60
102
{ACAD_REACTORS
330
47
102
}
330
47
100
AcDbScale
 70
     0
300
1/4" = 1'-0"
140
0.25
141
12.0
290
     0
  0
SCALE
  5
61
102
{ACAD_REACTORS
330
47
102
}
330
47
100
AcDbScale
 70
     0
300
3/8" = 1'-0"
140
0.375
141
12.0
290
     0
  0
SCALE
  5
62
102
{ACAD_REACTORS
330
47
102
}
330
47
100
AcDbScale
 70
     0
300
1/2" = 1'-0"
140
0.5
141
12.0
290
     0
  0
SCALE
  5
63
102
{ACAD_REACTORS
330
47
102
}
330
47
100
AcDbScale
 70
     0
300
3/4" = 1'-0"
140
0.75
141
12.0
290
     0
  0
SCALE
  5
64
102
{ACAD_REACTORS
330
47
102
}
330
47
100
AcDbScale
 70
     0
300
1" = 1'-0"
140
1.0
141
12.0
290
     0
  0
SCALE
  5
65
102
{ACAD_REACTORS
330
47
102
}
330
47
100
AcDbScale
 70
     0
300
1-1/2" = 1'-0"
140
1.5
141
12.0
290
     0
  0
SCALE
  5
66
102
{ACAD_REACTORS
330
47
102
}
330
47
100
AcDbScale
 70
     0
300
3" = 1'-0"
140
3.0
141
12.0
290
     0
  0
SCALE
  5
67
102
{ACAD_REACTORS
330
47
102
}
330
47
100
AcDbScale
 70
     0
300
6" = 1'-0"
140
6.0
141
12.0
290
     0
  0
SCALE
  5
68
102
{ACAD_REACTORS
330
47
102
}
330
47
100
AcDbScale
 70
     0
300
1'-0" = 1'-0"
140
12.0
141
12.0
290
     0
  0
TABLESTYLE
  5
6A
102
{ACAD_REACTORS
330
69
102
}
102
{ACAD_XDICTIONARY
360
405
102
}
330
69
100
AcDbTableStyle
  3
Standard
 70
     0
 71
     0
 40
0.06
 41
0.06
280
     0
281
     0
  7
Standard
140
4.5
170
     2
 62
     0
 63
   257
283
     0
274
    -2
284
     1
 64
     0
275
    -2
285
     1
 65
     0
276
    -2
286
     1
 66
     0
277
    -2
287
     1
 67
     0
278
    -2
288
     1
 68
     0
279
    -2
289
     1
 69
     0
  7
Standard
140
6.0
170
     5
 62
     0
 63
   257
283
     0
274
    -2
284
     1
 64
     0
275
    -2
285
     1
 65
     0
276
    -2
286
     1
 66
     0
277
    -2
287
     1
 67
     0
278
    -2
288
     1
 68
     0
279
    -2
289
     1
 69
     0
  7
Standard
140
4.5
170
     5
 62
     0
 63
   257
283
     0
274
    -2
284
     1
 64
     0
275
    -2
285
     1
 65
     0
276
    -2
286
     1
 66
     0
277
    -2
287
     1
 67
     0
278
    -2
288
     1
 68
     0
279
    -2
289
     1
 69
     0
  0
VISUALSTYLE
  5
2F
102
{ACAD_REACTORS
330
2A
102
}
102
{ACAD_XDICTIONARY
360
3D7
102
}
330
2A
100
AcDbVisualStyle
  2
2dWireframe
 70
     4
 71
     0
 72
     2
 73
     0
 90
        0
 40
0.6
 41
30.0
 62
     5
 63
     7
421
 16777215
 74
     1
 91
        4
 64
     7
 65
   257
 75
     1
175
     1
 42
1.0
 92
        0
 66
   257
 43
1.0
 76
     1
 77
     6
 78
     2
 67
     7
 79
     5
170
     0
171
     0
290
     0
174
     0
 93
        1
 44
0.0
173
     0
291
     0
 45
0.0
1001
ACAD
1000
AcDbSavedByObjectVersion
1070
     0
  0
VISUALSTYLE
  5
32
102
{ACAD_REACTORS
330
2A
102
}
102
{ACAD_XDICTIONARY
360
3DD
102
}
330
2A
100
AcDbVisualStyle
  2
Basic
 70
     7
 71
     1
 72
     0
 73
     1
 90
        0
 40
0.6
 41
30.0
 62
     5
 63
     7
421
 16777215
 74
     0
 91
        4
 64
     7
 65
   257
 75
     1
175
     1
 42
1.0
 92
        8
 66
     7
 43
1.0
 76
     1
 77
     6
 78
     2
 67
     7
 79
     5
170
     0
171
     0
290
     0
174
     0
 93
        1
 44
0.0
173
     0
291
     1
 45
0.0
1001
ACAD
1000
AcDbSavedByObjectVersion
1070
     0
  0
VISUALSTYLE
  5
36
102
{ACAD_REACTORS
330
2A
102
}
102
{ACAD_XDICTIONARY
360
3E5
102
}
330
2A
100
AcDbVisualStyle
  2
Brighten
 70
    12
 71
     2
 72
     2
 73
     0
 90
        0
 40
0.6
 41
30.0
 62
     5
 63
     7
421
 16777215
 74
     1
 91
        4
 64
     7
 65
   257
 75
     1
175
     1
 42
1.0
 92
        8
 66
     7
 43
1.0
 76
     1
 77
     6
 78
     2
 67
     7
 79
     5
170
     0
171
     0
290
     0
174
     0
 93
        1
 44
50.0
173
     0
291
     1
 45
0.0
1001
ACAD
1000
AcDbSavedByObjectVersion
1070
     0
  0
VISUALSTYLE
  5
3A
102
{ACAD_REACTORS
330
2A
102
}
102
{ACAD_XDICTIONARY
360
3ED
102
}
330
2A
100
AcDbVisualStyle
  2
ColorChange
 70
    16
 71
     2
 72
     2
 73
     3
 90
        0
 40
0.6
 41
30.0
 62
     5
 63
     8
421
  8421504
 74
     1
 91
        4
 64
     7
 65
   257
 75
     1
175
     1
 42
1.0
 92
        8
 66
     8
424
  8421504
 43
1.0
 76
     1
 77
     6
 78
     2
 67
     7
 79
     5
170
     0
171
     0
290
     0
174
     0
 93
        1
 44
0.0
173
     0
291
     1
 45
0.0
1001
ACAD
1000
AcDbSavedByObjectVersion
1070
     0
  0
VISUALSTYLE
  5
34
102
{ACAD_REACTORS
330
2A
102
}
102
{ACAD_XDICTIONARY
360
3E1
102
}
330
2A
100
AcDbVisualStyle
  2
Conceptual
 70
     9
 71
     3
 72
     2
 73
     0
 90
        0
 40
0.6
 41
30.0
 62
     5
 63
     7
421
 16777215
 74
     2
 91
        2
 64
     7
 65
   257
 75
     1
175
     1
 42
179.0
 92
        8
 66
     7
 43
1.0
 76
     1
 77
     6
 78
     2
 67
     7
 79
     3
170
     0
171
     0
290
     0
174
     0
 93
        1
 44
0.0
173
     0
291
     0
 45
0.0
1001
ACAD
1000
AcDbSavedByObjectVersion
1070
     0
  0
VISUALSTYLE
  5
35
102
{ACAD_REACTORS
330
2A
102
}
102
{ACAD_XDICTIONARY
360
3E3
102
}
330
2A
100
AcDbVisualStyle
  2
Dim
 70
    11
 71
     2
 72
     2
 73
     0
 90
        0
 40
0.6
 41
30.0
 62
     5
 63
     7
421
 16777215
 74
     1
 91
        4
 64
     7
 65
   257
 75
     1
175
     1
 42
1.0
 92
        8
 66
     7
 43
1.0
 76
     1
 77
     6
 78
     2
 67
     7
 79
     5
170
     0
171
     0
290
     0
174
     0
 93
        1
 44
-50.0
173
     0
291
     1
 45
0.0
1001
ACAD
1000
AcDbSavedByObjectVersion
1070
     0
  0
VISUALSTYLE
  5
3D
102
{ACAD_REACTORS
330
2A
102
}
102
{ACAD_XDICTIONARY
360
3F3
102
}
330
2A
100
AcDbVisualStyle
  2
EdgeColorOff
 70
    22
 71
     2
 72
     2
 73
     0
 90
        0
 40
0.6
 41
30.0
 62
     5
 63
     7
421
 16777215
 74
     1
 91
        4
 64
     7
 65
   257
 75
     1
175
     1
 42
1.0
 92
        8
 66
     7
 43
1.0
 76
     1
 77
     6
 78
     2
 67
     7
 79
     5
170
     0
171
     0
290
     0
174
     0
 93
        1
 44
0.0
173
     0
291
     1
 45
0.0
1001
ACAD
1000
AcDbSavedByObjectVersion
1070
     0
  0
VISUALSTYLE
  5
39
102
{ACAD_REACTORS
330
2A
102
}
102
{ACAD_XDICTIONARY
360
3EB
102
}
330
2A
100
AcDbVisualStyle
  2
Facepattern
 70
    15
 71
     2
 72
     2
 73
     0
 90
        0
 40
0.6
 41
30.0
 62
     5
 63
     7
421
 16777215
 74
     1
 91
        4
 64
     7
 65
   257
 75
     1
175
     1
 42
1.0
 92
        8
 66
     7
 43
1.0
 76
     1
 77
     6
 78
     2
 67
     7
 79
     5
170
     0
171
     0
290
     0
174
     0
 93
        1
 44
0.0
173
     0
291
     1
 45
0.0
1001
ACAD
1000
AcDbSavedByObjectVersion
1070
     0
  0
VISUALSTYLE
  5
2B
102
{ACAD_REACTORS
330
2A
102
}
102
{ACAD_XDICTIONARY
360
3CF
102
}
330
2A
100
AcDbVisualStyle
  2
Flat
 70
     0
 71
     2
 72
     1
 73
     1
 90
        2
 40
0.6
 41
30.0
 62
     5
 63
     7
421
 16777215
 74
     0
 91
        0
 64
     7
 65
   257
 75
     1
175
     1
 42
1.0
 92
        8
 66
     7
 43
1.0
 76
     1
 77
     6
 78
     2
 67
     7
 79
     5
170
     0
171
     0
290
     0
174
     0
 93
       13
 44
0.0
173
     0
291
     1
 45
0.0
1001
ACAD
1000
AcDbSavedByObjectVersion
1070
     0
  0
VISUALSTYLE
  5
2C
102
{ACAD_REACTORS
330
2A
102
}
102
{ACAD_XDICTIONARY
360
3D1
102
}
330
2A
100
AcDbVisualStyle
  2
FlatWithEdges
 70
     1
 71
     2
 72
     1
 73
     1
 90
        2
 40
0.6
 41
30.0
 62
     5
 63
     7
421
 16777215
 74
     1
 91
        0
 64
     7
 65
   257
 75
     1
175
     1
 42
1.0
 92
        0
 66
   257
 43
1.0
 76
     1
 77
     6
 78
     2
 67
     7
 79
     5
170
     0
171
     0
290
     0
174
     0
 93
       13
 44
0.0
173
     0
291
     1
 45
0.0
1001
ACAD
1000
AcDbSavedByObjectVersion
1070
     0
  0
VISUALSTYLE
  5
2D
102
{ACAD_REACTORS
330
2A
102
}
102
{ACAD_XDICTIONARY
360
3D3
102
}
330
2A
100
AcDbVisualStyle
  2
Gouraud
 70
     2
 71
     2
 72
     2
 73
     1
 90
        2
 40
0.6
 41
30.0
 62
     5
 63
     7
421
 16777215
 74
     0
 91
        0
 64
     7
 65
   257
 75
     1
175
     1
 42
1.0
 92
        0
 66
     7
 43
1.0
 76
     1
 77
     6
 78
     2
 67
     7
 79
     5
170
     0
171
     0
290
     0
174
     0
 93
       13
 44
0.0
173
     0
291
     1
 45
0.0
1001
ACAD
1000
AcDbSavedByObjectVersion
1070
     0
  0
VISUALSTYLE
  5
2E
102
{ACAD_REACTORS
330
2A
102
}
102
{ACAD_XDICTIONARY
360
3D5
102
}
330
2A
100
AcDbVisualStyle
  2
GouraudWithEdges
 70
     3
 71
     2
 72
     2
 73
     1
 90
        2
 40
0.6
 41
30.0
 62
     5
 63
     7
421
 16777215
 74
     1
 91
        0
 64
     7
 65
   257
 75
     1
175
     1
 42
1.0
 92
        0
 66
   257
 43
1.0
 76
     1
 77
     6
 78
     2
 67
     7
 79
     5
170
     0
171
     0
290
     0
174
     0
 93
       13
 44
0.0
173
     0
291
     1
 45
0.0
1001
ACAD
1000
AcDbSavedByObjectVersion
1070
     0
  0
VISUALSTYLE
  5
31
102
{ACAD_REACTORS
330
2A
102
}
102
{ACAD_XDICTIONARY
360
3DB
102
}
330
2A
100
AcDbVisualStyle
  2
Hidden
 70
     6
 71
     1
 72
     2
 73
     2
 90
        0
 40
0.6
 41
30.0
 62
     5
 63
     7
421
 16777215
 74
     2
 91
        2
 64
     7
 65
   257
 75
     2
175
     1
 42
40.0
 92
        0
 66
   257
 43
1.0
 76
     1
 77
     6
 78
     2
 67
     7
 79
     3
170
     0
171
     0
290
     0
174
     0
 93
        1
 44
0.0
173
     0
291
     0
 45
0.0
1001
ACAD
1000
AcDbSavedByObjectVersion
1070
     0
  0
VISUALSTYLE
  5
3B
102
{ACAD_REACTORS
330
2A
102
}
102
{ACAD_XDICTIONARY
360
3EF
102
}
330
2A
100
AcDbVisualStyle
  2
JitterOff
 70
    20
 71
     2
 72
     2
 73
     0
 90
        0
 40
0.6
 41
30.0
 62
     5
 63
     7
421
 16777215
 74
     1
 91
        4
 64
     7
 65
   257
 75
     1
175
     1
 42
1.0
 92
       10
 66
     7
 43
1.0
 76
     1
 77
     6
 78
     2
 67
     7
 79
     5
170
     0
171
     0
290
     0
174
     0
 93
        1
 44
0.0
173
     0
291
     1
 45
0.0
1001
ACAD
1000
AcDbSavedByObjectVersion
1070
     0
  0
VISUALSTYLE
  5
38
102
{ACAD_REACTORS
330
2A
102
}
102
{ACAD_XDICTIONARY
360
3E9
102
}
330
2A
100
AcDbVisualStyle
  2
Linepattern
 70
    14
 71
     2
 72
     2
 73
     0
 90
        0
 40
0.6
 41
30.0
 62
     5
 63
     7
421
 16777215
 74
     1
 91
        4
 64
     7
 65
   257
 75
     7
175
     7
 42
1.0
 92
        8
 66
     7
 43
1.0
 76
     1
 77
     6
 78
     2
 67
     7
 79
     5
170
     0
171
     0
290
     0
174
     0
 93
        1
 44
0.0
173
     0
291
     1
 45
0.0
1001
ACAD
1000
AcDbSavedByObjectVersion
1070
     0
  0
VISUALSTYLE
  5
3C
102
{ACAD_REACTORS
330
2A
102
}
102
{ACAD_XDICTIONARY
360
3F1
102
}
330
2A
100
AcDbVisualStyle
  2
OverhangOff
 70
    21
 71
     2
 72
     2
 73
     0
 90
        0
 40
0.6
 41
30.0
 62
     5
 63
     7
421
 16777215
 74
     1
 91
        4
 64
     7
 65
   257
 75
     1
175
     1
 42
1.0
 92
        9
 66
     7
 43
1.0
 76
     1
 77
     6
 78
     2
 67
     7
 79
     5
170
     0
171
     0
290
     0
174
     0
 93
        1
 44
0.0
173
     0
291
     1
 45
0.0
1001
ACAD
1000
AcDbSavedByObjectVersion
1070
     0
  0
VISUALSTYLE
  5
33
102
{ACAD_REACTORS
330
2A
102
}
102
{ACAD_XDICTIONARY
360
3DF
102
}
330
2A
100
AcDbVisualStyle
  2
Realistic
 70
     8
 71
     2
 72
     3
 73
     0
 90
        2
 40
0.6
 41
30.0
 62
     5
 63
     7
421
 16777215
 74
     0
 91
        0
 64
     7
 65
   257
 75
     1
175
     1
 42
1.0
 92
        8
 66
   257
 43
1.0
 76
     1
 77
     6
 78
     2
 67
     7
 79
     3
170
     0
171
     0
290
     0
174
     0
 93
       13
 44
0.0
173
     0
291
     0
 45
0.0
1001
ACAD
1000
AcDbSavedByObjectVersion
1070
     0
  0
VISUALSTYLE
  5
42
102
{ACAD_REACTORS
330
2A
102
}
102
{ACAD_XDICTIONARY
360
3FD
102
}
330
2A
100
AcDbVisualStyle
  2
Shaded
 70
    27
 71
     2
 72
     2
 73
     1
 90
        2
 40
0.6
 41
30.0
 62
     5
 63
     7
421
 16777215
 74
     0
 91
        4
 64
     7
 65
   257
 75
     1
175
     1
 42
1.0
 92
        8
 66
   257
 43
1.0
 76
     1
 77
     6
 78
     2
 67
     8
425
  7895160
 79
     3
170
     0
171
     0
290
     0
174
     0
 93
        5
 44
0.0
173
     0
291
     0
 45
0.0
1001
ACAD
1000
AcDbSavedByObjectVersion
1070
     0
  0
VISUALSTYLE
  5
41
102
{ACAD_REACTORS
330
2A
102
}
102
{ACAD_XDICTIONARY
360
3FB
102
}
330
2A
100
AcDbVisualStyle
  2
Shaded with edges
 70
    26
 71
     2
 72
     2
 73
     1
 90
        2
 40
0.6
 41
30.0
 62
     5
 63
     7
421
 16777215
 74
     1
 91
       10
 64
     7
 65
   257
 75
     2
175
     1
 42
1.0
 92
        8
 66
   257
 43
1.0
 76
     1
 77
     6
 78
     2
 67
     7
 79
     3
170
     0
171
     0
290
     0
174
     0
 93
        5
 44
0.0
173
     0
291
     0
 45
0.0
1001
ACAD
1000
AcDbSavedByObjectVersion
1070
     0
  0
VISUALSTYLE
  5
3E
102
{ACAD_REACTORS
330
2A
102
}
102
{ACAD_XDICTIONARY
360
3F5
102
}
330
2A
100
AcDbVisualStyle
  2
Shades of Gray
 70
    23
 71
     2
 72
     2
 73
     3
 90
        0
 40
0.6
 41
30.0
 62
     5
 63
     7
421
 16777215
 74
     2
 91
        2
 64
     7
 65
     7
 75
     1
175
     1
 42
40.0
 92
        8
 66
     7
 43
1.0
 76
     1
 77
     6
 78
     2
 67
     7
 79
     3
170
     0
171
     0
290
     0
174
     0
 93
        1
 44
0.0
173
     0
291
     0
 45
0.0
1001
ACAD
1000
AcDbSavedByObjectVersion
1070
     0
  0
VISUALSTYLE
  5
3F
102
{ACAD_REACTORS
330
2A
102
}
102
{ACAD_XDICTIONARY
360
3F7
102
}
330
2A
100
AcDbVisualStyle
  2
Sketchy
 70
    24
 71
     1
 72
     2
 73
     2
 90
        0
 40
0.6
 41
30.0
 62
     5
 63
     7
421
 16777215
 74
     2
 91
        2
 64
     7
 65
     7
 75
     1
175
     1
 42
40.0
 92
       11
 66
     7
 43
1.0
 76
     1
 77
     6
 78
     2
 67
     7
 79
     6
170
     0
171
     0
290
     0
174
     0
 93
        1
 44
0.0
173
     0
291
     0
 45
0.0
1001
ACAD
1000
AcDbSavedByObjectVersion
1070
     0
  0
VISUALSTYLE
  5
37
102
{ACAD_REACTORS
330
2A
102
}
102
{ACAD_XDICTIONARY
360
3E7
102
}
330
2A
100
AcDbVisualStyle
  2
Thicken
 70
    13
 71
     2
 72
     2
 73
     0
 90
        0
 40
0.6
 41
30.0
 62
     5
 63
     7
421
 16777215
 74
     1
 91
        4
 64
     7
 65
   257
 75
     1
175
     1
 42
1.0
 92
       12
 66
     7
 43
1.0
 76
     1
 77
     6
 78
     2
 67
     7
 79
     5
170
     0
171
     0
290
     0
174
     0
 93
        1
 44
0.0
173
     0
291
     1
 45
0.0
1001
ACAD
1000
AcDbSavedByObjectVersion
1070
     0
  0
VISUALSTYLE
  5
30
102
{ACAD_REACTORS
330
2A
102
}
102
{ACAD_XDICTIONARY
360
3D9
102
}
330
2A
100
AcDbVisualStyle
  2
Wireframe
 70
     5
 71
     0
 72
     2
 73
     0
 90
        0
 40
0.6
 41
30.0
 62
     5
 63
     7
421
 16777215
 74
     1
 91
        4
 64
     7
 65
   257
 75
     1
175
     1
 42
1.0
 92
        0
 66
   257
 43
1.0
 76
     1
 77
     6
 78
     2
 67
     7
 79
     3
170
     0
171
     0
290
     0
174
     0
 93
        1
 44
0.0
173
     0
291
     0
 45
0.0
1001
ACAD
1000
AcDbSavedByObjectVersion
1070
     0
  0
VISUALSTYLE
  5
40
102
{ACAD_REACTORS
330
2A
102
}
102
{ACAD_XDICTIONARY
360
3F9
102
}
330
2A
100
AcDbVisualStyle
  2
X-Ray
 70
    25
 71
     2
 72
     2
 73
     1
 90
        1
 40
0.5
 41
30.0
 62
     5
 63
     7
421
 16777215
 74
     1
 91
        0
 64
     7
 65
   257
 75
     1
175
     1
 42
1.0
 92
        8
 66
     7
 43
1.0
 76
     1
 77
     6
 78
     2
 67
     7
 79
     3
170
     0
171
     0
290
     0
174
     0
 93
       13
 44
0.0
173
     0
291
     0
 45
0.0
1001
ACAD
1000
AcDbSavedByObjectVersion
1070
     0
  0
DICTIONARYVAR
  5
3CC
102
{ACAD_REACTORS
330
3CB
102
}
330
3CB
100
DictionaryVariables
280
     0
  1
1:1
  0
DICTIONARYVAR
  5
410
102
{ACAD_REACTORS
330
3CB
102
}
330
3CB
100
DictionaryVariables
280
     0
  1
3.500000
  0
DICTIONARYVAR
  5
411
102
{ACAD_REACTORS
330
3CB
102
}
330
3CB
100
DictionaryVariables
280
     0
  1
acadiso.lin
  0
DICTIONARYVAR
  5
40D
102
{ACAD_REACTORS
330
3CB
102
}
330
3CB
100
DictionaryVariables
280
     0
  1
Standard
  0
DICTIONARYVAR
  5
40C
102
{ACAD_REACTORS
330
3CB
102
}
330
3CB
100
DictionaryVariables
280
     0
  1
Standard
  0
DICTIONARYVAR
  5
3CD
102
{ACAD_REACTORS
330
3CB
102
}
330
3CB
100
DictionaryVariables
280
     0
  1
1
  0
DICTIONARYVAR
  5
3CE
102
{ACAD_REACTORS
330
3CB
102
}
330
3CB
100
DictionaryVariables
280
     0
  1
2
  0
DICTIONARY
  5
401
330
45
100
AcDbDictionary
280
     1
281
     1
  3
ACAD_XREC_ROUNDTRIP
360
402
  0
DICTIONARY
  5
3FF
330
44
100
AcDbDictionary
280
     1
281
     1
  3
ACAD_XREC_ROUNDTRIP
360
400
  0
DICTIONARY
  5
403
330
46
100
AcDbDictionary
280
     1
281
     1
  3
ACAD_XREC_ROUNDTRIP
360
404
  0
DICTIONARY
  5
409
330
6C
100
AcDbDictionary
280
     1
281
     1
  3
ACAD_XREC_ROUNDTRIP
360
40A
  0
DICTIONARY
  5
405
330
6A
100
AcDbDictionary
280
     1
281
     1
  3
ACAD_ROUNDTRIP_2008_TABLESTYLE_CELLSTYLEMAP
360
407
  3
ACAD_XREC_ROUNDTRIP
360
406
  0
DICTIONARY
  5
3D7
330
2F
100
AcDbDictionary
280
     1
281
     1
  3
ACAD_XREC_ROUNDTRIP
360
3D8
  0
DICTIONARY
  5
3DD
330
32
100
AcDbDictionary
280
     1
281
     1
  3
ACAD_XREC_ROUNDTRIP
360
3DE
  0
DICTIONARY
  5
3E5
330
36
100
AcDbDictionary
280
     1
281
     1
  3
ACAD_XREC_ROUNDTRIP
360
3E6
  0
DICTIONARY
  5
3ED
330
3A
100
AcDbDictionary
280
     1
281
     1
  3
ACAD_XREC_ROUNDTRIP
360
3EE
  0
DICTIONARY
  5
3E1
330
34
100
AcDbDictionary
280
     1
281
     1
  3
ACAD_XREC_ROUNDTRIP
360
3E2
  0
DICTIONARY
  5
3E3
330
35
100
AcDbDictionary
280
     1
281
     1
  3
ACAD_XREC_ROUNDTRIP
360
3E4
  0
DICTIONARY
  5
3F3
330
3D
100
AcDbDictionary
280
     1
281
     1
  3
ACAD_XREC_ROUNDTRIP
360
3F4
  0
DICTIONARY
  5
3EB
330
39
100
AcDbDictionary
280
     1
281
     1
  3
ACAD_XREC_ROUNDTRIP
360
3EC
  0
DICTIONARY
  5
3CF
330
2B
100
AcDbDictionary
280
     1
281
     1
  3
ACAD_XREC_ROUNDTRIP
360
3D0
  0
DICTIONARY
  5
3D1
330
2C
100
AcDbDictionary
280
     1
281
     1
  3
ACAD_XREC_ROUNDTRIP
360
3D2
  0
DICTIONARY
  5
3D3
330
2D
100
AcDbDictionary
280
     1
281
     1
  3
ACAD_XREC_ROUNDTRIP
360
3D4
  0
DICTIONARY
  5
3D5
330
2E
100
AcDbDictionary
280
     1
281
     1
  3
ACAD_XREC_ROUNDTRIP
360
3D6
  0
DICTIONARY
  5
3DB
330
31
100
AcDbDictionary
280
     1
281
     1
  3
ACAD_XREC_ROUNDTRIP
360
3DC
  0
DICTIONARY
  5
3EF
330
3B
100
AcDbDictionary
280
     1
281
     1
  3
ACAD_XREC_ROUNDTRIP
360
3F0
  0
DICTIONARY
  5
3E9
330
38
100
AcDbDictionary
280
     1
281
     1
  3
ACAD_XREC_ROUNDTRIP
360
3EA
  0
DICTIONARY
  5
3F1
330
3C
100
AcDbDictionary
280
     1
281
     1
  3
ACAD_XREC_ROUNDTRIP
360
3F2
  0
DICTIONARY
  5
3DF
330
33
100
AcDbDictionary
280
     1
281
     1
  3
ACAD_XREC_ROUNDTRIP
360
3E0
  0
DICTIONARY
  5
3FD
330
42
100
AcDbDictionary
280
     1
281
     1
  3
ACAD_XREC_ROUNDTRIP
360
3FE
  0
DICTIONARY
  5
3FB
330
41
100
AcDbDictionary
280
     1
281
     1
  3
ACAD_XREC_ROUNDTRIP
360
3FC
  0
DICTIONARY
  5
3F5
330
3E
100
AcDbDictionary
280
     1
281
     1
  3
ACAD_XREC_ROUNDTRIP
360
3F6
  0
DICTIONARY
  5
3F7
330
3F
100
AcDbDictionary
280
     1
281
     1
  3
ACAD_XREC_ROUNDTRIP
360
3F8
  0
DICTIONARY
  5
3E7
330
37
100
AcDbDictionary
280
     1
281
     1
  3
ACAD_XREC_ROUNDTRIP
360
3E8
  0
DICTIONARY
  5
3D9
330
30
100
AcDbDictionary
280
     1
281
     1
  3
ACAD_XREC_ROUNDTRIP
360
3DA
  0
DICTIONARY
  5
3F9
330
40
100
AcDbDictionary
280
     1
281
     1
  3
ACAD_XREC_ROUNDTRIP
360
3FA
  0
XRECORD
  5
402
102
{ACAD_REACTORS
330
401
102
}
330
401
100
AcDbXrecord
280
     1
102
MATERIAL
148
0.0
149
0.0
149
0.0
 93
        0
 94
      127
282
     0
 72
     1
 77
     1
171
     1
175
     1
179
     1
273
     0
  0
XRECORD
  5
400
102
{ACAD_REACTORS
330
3FF
102
}
330
3FF
100
AcDbXrecord
280
     1
102
MATERIAL
148
0.0
149
0.0
149
0.0
 93
        0
 94
      127
282
     0
 72
     1
 77
     1
171
     1
175
     1
179
     1
273
     0
  0
XRECORD
  5
404
102
{ACAD_REACTORS
330
403
102
}
330
403
100
AcDbXrecord
280
     1
102
MATERIAL
148
0.0
149
0.0
149
0.0
 93
        0
 94
      127
282
     0
 72
     1
 77
     1
171
     1
175
     1
179
     1
273
     0
  0
XRECORD
  5
40A
102
{ACAD_REACTORS
330
409
102
}
330
409
100
AcDbXrecord
280
     1
102
ACAD_ROUNDTRIP_2010_MLEADER_STYLE
  0
CELLSTYLEMAP
  5
407
102
{ACAD_REACTORS
330
405
102
}
330
405
100
AcDbCellStyleMap
 90
        3
300
CELLSTYLE
  1
TABLEFORMAT_BEGIN
 90
        5
170
     1
 91
        0
 92
    32768
 62
   257
 93
        1
300
CONTENTFORMAT
  1
CONTENTFORMAT_BEGIN
 90
        0
 91
        0
 92
        4
 93
        0
300

 40
0.0
140
1.0
 94
        5
 62
     0
340
11
144
6.0
309
CONTENTFORMAT_END
171
     1
301
MARGIN
  1
CELLMARGIN_BEGIN
 40
1.5
 40
1.5
 40
1.5
 40
1.5
 40
1.5
 40
1.5
309
CELLMARGIN_END
 94
        6
 95
        1
302
GRIDFORMAT
  1
GRIDFORMAT_BEGIN
 90
        0
 91
        1
 62
     0
 92
       -2
340
14
 93
        0
 40
0.045
309
GRIDFORMAT_END
 95
        2
302
GRIDFORMAT
  1
GRIDFORMAT_BEGIN
 90
        0
 91
        1
 62
     0
 92
       -2
340
14
 93
        0
 40
0.045
309
GRIDFORMAT_END
 95
        4
302
GRIDFORMAT
  1
GRIDFORMAT_BEGIN
 90
        0
 91
        1
 62
     0
 92
       -2
340
14
 93
        0
 40
0.045
309
GRIDFORMAT_END
 95
        8
302
GRIDFORMAT
  1
GRIDFORMAT_BEGIN
 90
        0
 91
        1
 62
     0
 92
       -2
340
14
 93
        0
 40
0.045
309
GRIDFORMAT_END
 95
       16
302
GRIDFORMAT
  1
GRIDFORMAT_BEGIN
 90
        0
 91
        1
 62
     0
 92
       -2
340
14
 93
        0
 40
0.045
309
GRIDFORMAT_END
 95
       32
302
GRIDFORMAT
  1
GRIDFORMAT_BEGIN
 90
        0
 91
        1
 62
     0
 92
       -2
340
14
 93
        0
 40
0.045
309
GRIDFORMAT_END
309
TABLEFORMAT_END
  1
CELLSTYLE_BEGIN
 90
        1
 91
        1
300
_TITLE
309
CELLSTYLE_END
300
CELLSTYLE
  1
TABLEFORMAT_BEGIN
 90
        5
170
     1
 91
        0
 92
        0
 62
   257
 93
        1
300
CONTENTFORMAT
  1
CONTENTFORMAT_BEGIN
 90
        0
 91
        0
 92
        4
 93
        0
300

 40
0.0
140
1.0
 94
        5
 62
     0
340
11
144
4.5
309
CONTENTFORMAT_END
171
     1
301
MARGIN
  1
CELLMARGIN_BEGIN
 40
1.5
 40
1.5
 40
1.5
 40
1.5
 40
1.5
 40
1.5
309
CELLMARGIN_END
 94
        6
 95
        1
302
GRIDFORMAT
  1
GRIDFORMAT_BEGIN
 90
        0
 91
        1
 62
     0
 92
       -2
340
14
 93
        0
 40
0.045
309
GRIDFORMAT_END
 95
        2
302
GRIDFORMAT
  1
GRIDFORMAT_BEGIN
 90
        0
 91
        1
 62
     0
 92
       -2
340
14
 93
        0
 40
0.045
309
GRIDFORMAT_END
 95
        4
302
GRIDFORMAT
  1
GRIDFORMAT_BEGIN
 90
        0
 91
        1
 62
     0
 92
       -2
340
14
 93
        0
 40
0.045
309
GRIDFORMAT_END
 95
        8
302
GRIDFORMAT
  1
GRIDFORMAT_BEGIN
 90
        0
 91
        1
 62
     0
 92
       -2
340
14
 93
        0
 40
0.045
309
GRIDFORMAT_END
 95
       16
302
GRIDFORMAT
  1
GRIDFORMAT_BEGIN
 90
        0
 91
        1
 62
     0
 92
       -2
340
14
 93
        0
 40
0.045
309
GRIDFORMAT_END
 95
       32
302
GRIDFORMAT
  1
GRIDFORMAT_BEGIN
 90
        0
 91
        1
 62
     0
 92
       -2
340
14
 93
        0
 40
0.045
309
GRIDFORMAT_END
309
TABLEFORMAT_END
  1
CELLSTYLE_BEGIN
 90
        2
 91
        1
300
_HEADER
309
CELLSTYLE_END
300
CELLSTYLE
  1
TABLEFORMAT_BEGIN
 90
        5
170
     1
 91
        0
 92
        0
 62
   257
 93
        1
300
CONTENTFORMAT
  1
CONTENTFORMAT_BEGIN
 90
        0
 91
        0
 92
        4
 93
        0
300

 40
0.0
140
1.0
 94
        2
 62
     0
340
11
144
4.5
309
CONTENTFORMAT_END
171
     1
301
MARGIN
  1
CELLMARGIN_BEGIN
 40
1.5
 40
1.5
 40
1.5
 40
1.5
 40
1.5
 40
1.5
309
CELLMARGIN_END
 94
        6
 95
        1
302
GRIDFORMAT
  1
GRIDFORMAT_BEGIN
 90
        0
 91
        1
 62
     0
 92
       -2
340
14
 93
        0
 40
0.045
309
GRIDFORMAT_END
 95
        2
302
GRIDFORMAT
  1
GRIDFORMAT_BEGIN
 90
        0
 91
        1
 62
     0
 92
       -2
340
14
 93
        0
 40
0.045
309
GRIDFORMAT_END
 95
        4
302
GRIDFORMAT
  1
GRIDFORMAT_BEGIN
 90
        0
 91
        1
 62
     0
 92
       -2
340
14
 93
        0
 40
0.045
309
GRIDFORMAT_END
 95
        8
302
GRIDFORMAT
  1
GRIDFORMAT_BEGIN
 90
        0
 91
        1
 62
     0
 92
       -2
340
14
 93
        0
 40
0.045
309
GRIDFORMAT_END
 95
       16
302
GRIDFORMAT
  1
GRIDFORMAT_BEGIN
 90
        0
 91
        1
 62
     0
 92
       -2
340
14
 93
        0
 40
0.045
309
GRIDFORMAT_END
 95
       32
302
GRIDFORMAT
  1
GRIDFORMAT_BEGIN
 90
        0
 91
        1
 62
     0
 92
       -2
340
14
 93
        0
 40
0.045
309
GRIDFORMAT_END
309
TABLEFORMAT_END
  1
CELLSTYLE_BEGIN
 90
        3
 91
        2
300
_DATA
309
CELLSTYLE_END
  0
XRECORD
  5
406
102
{ACAD_REACTORS
330
405
102
}
330
405
100
AcDbXrecord
280
     1
102
ACAD_ROUNDTRIP_PRE2007_TABLESTYLE
 90
        4
 91
        0
  1

 92
        4
 93
        0
  2

 94
        4
 95
        0
  3

  0
XRECORD
  5
3D8
102
{ACAD_REACTORS
330
3D7
102
}
330
3D7
100
AcDbXrecord
280
     1
102
RTVSPropertyOp0
 70
     1
102
RTVSPropertyOp1
 70
     1
102
RTVSPropertyOp2
 70
     1
102
RTVSPropertyOp3
 70
     1
102
RTVSPropertyOp4
 70
     1
102
RTVSPropertyOp5
 70
     1
102
RTVSPropertyOp6
 70
     1
102
RTVSPropertyOp7
 70
     1
102
RTVSPropertyOp8
 70
     1
102
RTVSPropertyOp9
 70
     1
102
RTVSPropertyOp10
 70
     1
102
RTVSPropertyOp11
 70
     1
102
RTVSPropertyOp12
 70
     1
102
RTVSPropertyOp13
 70
     1
102
RTVSPropertyOp14
 70
     1
102
RTVSPropertyOp15
 70
     1
102
RTVSPropertyOp16
 70
     1
102
RTVSPropertyOp17
 70
     1
102
RTVSPropertyOp18
 70
     1
102
RTVSPropertyOp19
 70
     1
102
RTVSPropertyOp20
 70
     1
102
RTVSPropertyOp21
 70
     1
102
RTVSPropertyOp22
 70
     1
102
RTVSPropertyOp23
 70
     1
102
RTVSPropertyOp24
 70
     1
102
RTVSPropertyOp25
 70
     1
102
RTVSPropertyOp26
 70
     1
102
RTVSPropertyOp27
 70
     1
102
RTVSPropertyOp28
 70
     1
102
RTVSPropertyOp29
 70
     1
102
RTVSPropertyOp30
 70
     1
102
RTVSPropertyOp31
 70
     1
102
RTVSPropertyOp32
 70
     1
102
RTVSPropertyOp33
 70
     1
102
RTVSPropertyOp34
 70
     1
102
RTVSPropertyOp35
 70
     1
102
RTVSPropertyOp36
 70
     1
102
RTVSPropertyOp37
 70
     1
102
RTVSPropertyOp38
 70
     1
102
RTVSPropertyOp39
 70
     1
102
RTVSPropertyOp40
 70
     1
102
RTVSPropertyOp41
 70
     1
102
RTVSPropertyOp42
 70
     1
102
RTVSPropertyOp43
 70
     1
102
RTVSPropertyOp44
 70
     1
102
RTVSPropertyOp45
 70
     1
102
RTVSPropertyOp46
 70
     1
102
RTVSPropertyOp47
 70
     1
102
RTVSPropertyOp48
 70
     1
102
RTVSPropertyOp49
 70
     1
102
RTVSPropertyOp50
 70
     1
102
RTVSPropertyOp51
 70
     0
102
RTVSPropertyOp52
 70
     0
102
RTVSPropertyOp53
 70
     1
102
RTVSPropertyOp54
 70
     1
102
RTVSPropertyOp55
 70
     1
102
RTVSPropertyOp56
 70
     1
102
RTVSPropertyOp57
 70
     1
102
RTVSPost2010Prop28
280
     1
102
RTVSPost2010PropOp28
 70
     1
102
RTVSPost2010Prop29
280
     1
102
RTVSPost2010PropOp29
 70
     1
102
RTVSPost2010Prop30
280
     0
102
RTVSPost2010PropOp30
 70
     1
102
RTVSPost2010Prop31
280
     0
102
RTVSPost2010PropOp31
 70
     1
102
RTVSPost2010Prop32
280
     0
102
RTVSPost2010PropOp32
 70
     1
102
RTVSPost2010Prop33
280
     0
102
RTVSPost2010PropOp33
 70
     1
102
RTVSPost2010Prop34
280
     0
102
RTVSPost2010PropOp34
 70
     1
102
RTVSPost2010Prop35
280
     0
102
RTVSPost2010PropOp35
 70
     1
102
RTVSPost2010Prop36
280
     0
102
RTVSPost2010PropOp36
 70
     1
102
RTVSPost2010Prop37
 90
       50
102
RTVSPost2010PropOp37
 70
     1
102
RTVSPost2010Prop38
140
0.0
102
RTVSPost2010PropOp38
 70
     1
102
RTVSPost2010Prop39
140
1.0
102
RTVSPost2010PropOp39
 70
     1
102
RTVSPost2010Prop40
 90
        0
102
RTVSPost2010PropOp40
 70
     1
102
RTVSPost2010Prop41ColorIndex
 90
       18
102
RTVSPost2010Prop41ColorRGB
 90
        0
102
RTVSPost2010PropOp41
 70
     1
102
RTVSPost2010Prop42
 90
       50
102
RTVSPost2010PropOp42
 70
     1
102
RTVSPost2010Prop43
 90
        3
102
RTVSPost2010PropOp43
 70
     1
102
RTVSPost2010Prop44ColorIndex
 90
        5
102
RTVSPost2010Prop44ColorRGB
 90
      255
102
RTVSPost2010PropOp44
 70
     1
102
RTVSPost2010Prop45
280
     0
102
RTVSPost2010PropOp45
 70
     1
102
RTVSPost2010Prop46
 90
       50
102
RTVSPost2010PropOp46
 70
     1
102
RTVSPost2010Prop47
 90
       50
102
RTVSPost2010PropOp47
 70
     1
102
RTVSPost2010Prop48
 90
       50
102
RTVSPost2010PropOp48
 70
     1
102
RTVSPost2010Prop49
280
     0
102
RTVSPost2010PropOp49
 70
     1
102
RTVSPost2010Prop50
 90
       50
102
RTVSPost2010PropOp50
 70
     1
102
RTVSPost2010Prop51ColorIndex
 90
      256
102
RTVSPost2010Prop51ColorRGB
 90
-16777216
102
RTVSPost2010PropOp51
 70
     0
102
RTVSPost2010Prop52
140
1.0
102
RTVSPost2010PropOp52
 70
     0
102
RTVSPost2010Prop53
 90
        2
102
RTVSPost2010PropOp53
 70
     1
102
RTVSPost2010Prop54
  1
strokes_ogs.tif
102
RTVSPost2010PropOp54
 70
     1
102
RTVSPost2010Prop55
280
     0
102
RTVSPost2010PropOp55
 70
     1
102
RTVSPost2010Prop56
140
1.0
102
RTVSPost2010PropOp56
 70
     1
102
RTVSPost2010Prop57
140
1.0
102
RTVSPost2010PropOp57
 70
     1
  0
XRECORD
  5
3DE
102
{ACAD_REACTORS
330
3DD
102
}
330
3DD
100
AcDbXrecord
280
     1
102
RTVSPropertyOp0
 70
     1
102
RTVSPropertyOp1
 70
     1
102
RTVSPropertyOp2
 70
     1
102
RTVSPropertyOp3
 70
     1
102
RTVSPropertyOp4
 70
     1
102
RTVSPropertyOp5
 70
     1
102
RTVSPropertyOp6
 70
     1
102
RTVSPropertyOp7
 70
     1
102
RTVSPropertyOp8
 70
     1
102
RTVSPropertyOp9
 70
     1
102
RTVSPropertyOp10
 70
     1
102
RTVSPropertyOp11
 70
     1
102
RTVSPropertyOp12
 70
     1
102
RTVSPropertyOp13
 70
     1
102
RTVSPropertyOp14
 70
     1
102
RTVSPropertyOp15
 70
     1
102
RTVSPropertyOp16
 70
     1
102
RTVSPropertyOp17
 70
     1
102
RTVSPropertyOp18
 70
     1
102
RTVSPropertyOp19
 70
     1
102
RTVSPropertyOp20
 70
     1
102
RTVSPropertyOp21
 70
     1
102
RTVSPropertyOp22
 70
     1
102
RTVSPropertyOp23
 70
     1
102
RTVSPropertyOp24
 70
     1
102
RTVSPropertyOp25
 70
     1
102
RTVSPropertyOp26
 70
     1
102
RTVSPropertyOp27
 70
     1
102
RTVSPropertyOp28
 70
     1
102
RTVSPropertyOp29
 70
     1
102
RTVSPropertyOp30
 70
     1
102
RTVSPropertyOp31
 70
     1
102
RTVSPropertyOp32
 70
     1
102
RTVSPropertyOp33
 70
     1
102
RTVSPropertyOp34
 70
     1
102
RTVSPropertyOp35
 70
     1
102
RTVSPropertyOp36
 70
     1
102
RTVSPropertyOp37
 70
     1
102
RTVSPropertyOp38
 70
     1
102
RTVSPropertyOp39
 70
     1
102
RTVSPropertyOp40
 70
     1
102
RTVSPropertyOp41
 70
     1
102
RTVSPropertyOp42
 70
     1
102
RTVSPropertyOp43
 70
     1
102
RTVSPropertyOp44
 70
     1
102
RTVSPropertyOp45
 70
     1
102
RTVSPropertyOp46
 70
     1
102
RTVSPropertyOp47
 70
     1
102
RTVSPropertyOp48
 70
     1
102
RTVSPropertyOp49
 70
     1
102
RTVSPropertyOp50
 70
     1
102
RTVSPropertyOp51
 70
     0
102
RTVSPropertyOp52
 70
     0
102
RTVSPropertyOp53
 70
     1
102
RTVSPropertyOp54
 70
     1
102
RTVSPropertyOp55
 70
     1
102
RTVSPropertyOp56
 70
     1
102
RTVSPropertyOp57
 70
     1
102
RTVSPost2010Prop28
280
     0
102
RTVSPost2010PropOp28
 70
     1
102
RTVSPost2010Prop29
280
     1
102
RTVSPost2010PropOp29
 70
     1
102
RTVSPost2010Prop30
280
     1
102
RTVSPost2010PropOp30
 70
     1
102
RTVSPost2010Prop31
280
     0
102
RTVSPost2010PropOp31
 70
     1
102
RTVSPost2010Prop32
280
     0
102
RTVSPost2010PropOp32
 70
     1
102
RTVSPost2010Prop33
280
     0
102
RTVSPost2010PropOp33
 70
     1
102
RTVSPost2010Prop34
280
     0
102
RTVSPost2010PropOp34
 70
     1
102
RTVSPost2010Prop35
280
     0
102
RTVSPost2010PropOp35
 70
     1
102
RTVSPost2010Prop36
280
     0
102
RTVSPost2010PropOp36
 70
     1
102
RTVSPost2010Prop37
 90
       50
102
RTVSPost2010PropOp37
 70
     1
102
RTVSPost2010Prop38
140
0.0
102
RTVSPost2010PropOp38
 70
     1
102
RTVSPost2010Prop39
140
1.0
102
RTVSPost2010PropOp39
 70
     1
102
RTVSPost2010Prop40
 90
        0
102
RTVSPost2010PropOp40
 70
     1
102
RTVSPost2010Prop41ColorIndex
 90
       18
102
RTVSPost2010Prop41ColorRGB
 90
        0
102
RTVSPost2010PropOp41
 70
     1
102
RTVSPost2010Prop42
 90
       50
102
RTVSPost2010PropOp42
 70
     1
102
RTVSPost2010Prop43
 90
        3
102
RTVSPost2010PropOp43
 70
     1
102
RTVSPost2010Prop44ColorIndex
 90
        5
102
RTVSPost2010Prop44ColorRGB
 90
      255
102
RTVSPost2010PropOp44
 70
     1
102
RTVSPost2010Prop45
280
     0
102
RTVSPost2010PropOp45
 70
     1
102
RTVSPost2010Prop46
 90
       50
102
RTVSPost2010PropOp46
 70
     1
102
RTVSPost2010Prop47
 90
       50
102
RTVSPost2010PropOp47
 70
     1
102
RTVSPost2010Prop48
 90
       50
102
RTVSPost2010PropOp48
 70
     1
102
RTVSPost2010Prop49
280
     0
102
RTVSPost2010PropOp49
 70
     1
102
RTVSPost2010Prop50
 90
       50
102
RTVSPost2010PropOp50
 70
     1
102
RTVSPost2010Prop51ColorIndex
 90
      256
102
RTVSPost2010Prop51ColorRGB
 90
-16777216
102
RTVSPost2010PropOp51
 70
     0
102
RTVSPost2010Prop52
140
1.0
102
RTVSPost2010PropOp52
 70
     0
102
RTVSPost2010Prop53
 90
        2
102
RTVSPost2010PropOp53
 70
     1
102
RTVSPost2010Prop54
  1
strokes_ogs.tif
102
RTVSPost2010PropOp54
 70
     1
102
RTVSPost2010Prop55
280
     0
102
RTVSPost2010PropOp55
 70
     1
102
RTVSPost2010Prop56
140
1.0
102
RTVSPost2010PropOp56
 70
     1
102
RTVSPost2010Prop57
140
1.0
102
RTVSPost2010PropOp57
 70
     1
  0
XRECORD
  5
3E6
102
{ACAD_REACTORS
330
3E5
102
}
330
3E5
100
AcDbXrecord
280
     1
102
RTVSPropertyOp0
 70
     1
102
RTVSPropertyOp1
 70
     1
102
RTVSPropertyOp2
 70
     1
102
RTVSPropertyOp3
 70
     1
102
RTVSPropertyOp4
 70
     1
102
RTVSPropertyOp5
 70
     1
102
RTVSPropertyOp6
 70
     1
102
RTVSPropertyOp7
 70
     1
102
RTVSPropertyOp8
 70
     1
102
RTVSPropertyOp9
 70
     1
102
RTVSPropertyOp10
 70
     1
102
RTVSPropertyOp11
 70
     1
102
RTVSPropertyOp12
 70
     1
102
RTVSPropertyOp13
 70
     1
102
RTVSPropertyOp14
 70
     1
102
RTVSPropertyOp15
 70
     1
102
RTVSPropertyOp16
 70
     1
102
RTVSPropertyOp17
 70
     1
102
RTVSPropertyOp18
 70
     1
102
RTVSPropertyOp19
 70
     1
102
RTVSPropertyOp20
 70
     1
102
RTVSPropertyOp21
 70
     1
102
RTVSPropertyOp22
 70
     1
102
RTVSPropertyOp23
 70
     1
102
RTVSPropertyOp24
 70
     1
102
RTVSPropertyOp25
 70
     1
102
RTVSPropertyOp26
 70
     1
102
RTVSPropertyOp27
 70
     1
102
RTVSPropertyOp28
 70
     1
102
RTVSPropertyOp29
 70
     1
102
RTVSPropertyOp30
 70
     1
102
RTVSPropertyOp31
 70
     1
102
RTVSPropertyOp32
 70
     1
102
RTVSPropertyOp33
 70
     1
102
RTVSPropertyOp34
 70
     1
102
RTVSPropertyOp35
 70
     1
102
RTVSPropertyOp36
 70
     1
102
RTVSPropertyOp37
 70
     1
102
RTVSPropertyOp38
 70
     1
102
RTVSPropertyOp39
 70
     1
102
RTVSPropertyOp40
 70
     1
102
RTVSPropertyOp41
 70
     1
102
RTVSPropertyOp42
 70
     1
102
RTVSPropertyOp43
 70
     1
102
RTVSPropertyOp44
 70
     1
102
RTVSPropertyOp45
 70
     1
102
RTVSPropertyOp46
 70
     1
102
RTVSPropertyOp47
 70
     1
102
RTVSPropertyOp48
 70
     1
102
RTVSPropertyOp49
 70
     1
102
RTVSPropertyOp50
 70
     1
102
RTVSPropertyOp51
 70
     0
102
RTVSPropertyOp52
 70
     0
102
RTVSPropertyOp53
 70
     1
102
RTVSPropertyOp54
 70
     1
102
RTVSPropertyOp55
 70
     1
102
RTVSPropertyOp56
 70
     1
102
RTVSPropertyOp57
 70
     1
102
RTVSPost2010Prop28
280
     0
102
RTVSPost2010PropOp28
 70
     1
102
RTVSPost2010Prop29
280
     1
102
RTVSPost2010PropOp29
 70
     1
102
RTVSPost2010Prop30
280
     1
102
RTVSPost2010PropOp30
 70
     1
102
RTVSPost2010Prop31
280
     0
102
RTVSPost2010PropOp31
 70
     1
102
RTVSPost2010Prop32
280
     0
102
RTVSPost2010PropOp32
 70
     1
102
RTVSPost2010Prop33
280
     0
102
RTVSPost2010PropOp33
 70
     1
102
RTVSPost2010Prop34
280
     0
102
RTVSPost2010PropOp34
 70
     1
102
RTVSPost2010Prop35
280
     0
102
RTVSPost2010PropOp35
 70
     1
102
RTVSPost2010Prop36
280
     0
102
RTVSPost2010PropOp36
 70
     1
102
RTVSPost2010Prop37
 90
       50
102
RTVSPost2010PropOp37
 70
     1
102
RTVSPost2010Prop38
140
0.0
102
RTVSPost2010PropOp38
 70
     1
102
RTVSPost2010Prop39
140
1.0
102
RTVSPost2010PropOp39
 70
     1
102
RTVSPost2010Prop40
 90
        0
102
RTVSPost2010PropOp40
 70
     1
102
RTVSPost2010Prop41ColorIndex
 90
       18
102
RTVSPost2010Prop41ColorRGB
 90
        0
102
RTVSPost2010PropOp41
 70
     1
102
RTVSPost2010Prop42
 90
       50
102
RTVSPost2010PropOp42
 70
     1
102
RTVSPost2010Prop43
 90
        3
102
RTVSPost2010PropOp43
 70
     1
102
RTVSPost2010Prop44ColorIndex
 90
        5
102
RTVSPost2010Prop44ColorRGB
 90
      255
102
RTVSPost2010PropOp44
 70
     1
102
RTVSPost2010Prop45
280
     0
102
RTVSPost2010PropOp45
 70
     1
102
RTVSPost2010Prop46
 90
       50
102
RTVSPost2010PropOp46
 70
     1
102
RTVSPost2010Prop47
 90
       50
102
RTVSPost2010PropOp47
 70
     1
102
RTVSPost2010Prop48
 90
       50
102
RTVSPost2010PropOp48
 70
     1
102
RTVSPost2010Prop49
280
     0
102
RTVSPost2010PropOp49
 70
     1
102
RTVSPost2010Prop50
 90
       50
102
RTVSPost2010PropOp50
 70
     1
102
RTVSPost2010Prop51ColorIndex
 90
      256
102
RTVSPost2010Prop51ColorRGB
 90
-16777216
102
RTVSPost2010PropOp51
 70
     0
102
RTVSPost2010Prop52
140
1.0
102
RTVSPost2010PropOp52
 70
     0
102
RTVSPost2010Prop53
 90
        2
102
RTVSPost2010PropOp53
 70
     1
102
RTVSPost2010Prop54
  1
strokes_ogs.tif
102
RTVSPost2010PropOp54
 70
     1
102
RTVSPost2010Prop55
280
     0
102
RTVSPost2010PropOp55
 70
     1
102
RTVSPost2010Prop56
140
1.0
102
RTVSPost2010PropOp56
 70
     1
102
RTVSPost2010Prop57
140
1.0
102
RTVSPost2010PropOp57
 70
     1
  0
XRECORD
  5
3EE
102
{ACAD_REACTORS
330
3ED
102
}
330
3ED
100
AcDbXrecord
280
     1
102
RTVSPropertyOp0
 70
     1
102
RTVSPropertyOp1
 70
     1
102
RTVSPropertyOp2
 70
     1
102
RTVSPropertyOp3
 70
     1
102
RTVSPropertyOp4
 70
     1
102
RTVSPropertyOp5
 70
     1
102
RTVSPropertyOp6
 70
     1
102
RTVSPropertyOp7
 70
     1
102
RTVSPropertyOp8
 70
     1
102
RTVSPropertyOp9
 70
     1
102
RTVSPropertyOp10
 70
     1
102
RTVSPropertyOp11
 70
     1
102
RTVSPropertyOp12
 70
     1
102
RTVSPropertyOp13
 70
     1
102
RTVSPropertyOp14
 70
     1
102
RTVSPropertyOp15
 70
     1
102
RTVSPropertyOp16
 70
     1
102
RTVSPropertyOp17
 70
     1
102
RTVSPropertyOp18
 70
     1
102
RTVSPropertyOp19
 70
     1
102
RTVSPropertyOp20
 70
     1
102
RTVSPropertyOp21
 70
     1
102
RTVSPropertyOp22
 70
     1
102
RTVSPropertyOp23
 70
     1
102
RTVSPropertyOp24
 70
     1
102
RTVSPropertyOp25
 70
     1
102
RTVSPropertyOp26
 70
     1
102
RTVSPropertyOp27
 70
     1
102
RTVSPropertyOp28
 70
     1
102
RTVSPropertyOp29
 70
     1
102
RTVSPropertyOp30
 70
     1
102
RTVSPropertyOp31
 70
     1
102
RTVSPropertyOp32
 70
     1
102
RTVSPropertyOp33
 70
     1
102
RTVSPropertyOp34
 70
     1
102
RTVSPropertyOp35
 70
     1
102
RTVSPropertyOp36
 70
     1
102
RTVSPropertyOp37
 70
     1
102
RTVSPropertyOp38
 70
     1
102
RTVSPropertyOp39
 70
     1
102
RTVSPropertyOp40
 70
     1
102
RTVSPropertyOp41
 70
     1
102
RTVSPropertyOp42
 70
     1
102
RTVSPropertyOp43
 70
     1
102
RTVSPropertyOp44
 70
     1
102
RTVSPropertyOp45
 70
     1
102
RTVSPropertyOp46
 70
     1
102
RTVSPropertyOp47
 70
     1
102
RTVSPropertyOp48
 70
     1
102
RTVSPropertyOp49
 70
     1
102
RTVSPropertyOp50
 70
     1
102
RTVSPropertyOp51
 70
     0
102
RTVSPropertyOp52
 70
     0
102
RTVSPropertyOp53
 70
     1
102
RTVSPropertyOp54
 70
     1
102
RTVSPropertyOp55
 70
     1
102
RTVSPropertyOp56
 70
     1
102
RTVSPropertyOp57
 70
     1
102
RTVSPost2010Prop28
280
     0
102
RTVSPost2010PropOp28
 70
     1
102
RTVSPost2010Prop29
280
     1
102
RTVSPost2010PropOp29
 70
     1
102
RTVSPost2010Prop30
280
     1
102
RTVSPost2010PropOp30
 70
     1
102
RTVSPost2010Prop31
280
     0
102
RTVSPost2010PropOp31
 70
     1
102
RTVSPost2010Prop32
280
     0
102
RTVSPost2010PropOp32
 70
     1
102
RTVSPost2010Prop33
280
     0
102
RTVSPost2010PropOp33
 70
     1
102
RTVSPost2010Prop34
280
     0
102
RTVSPost2010PropOp34
 70
     1
102
RTVSPost2010Prop35
280
     0
102
RTVSPost2010PropOp35
 70
     1
102
RTVSPost2010Prop36
280
     0
102
RTVSPost2010PropOp36
 70
     1
102
RTVSPost2010Prop37
 90
       50
102
RTVSPost2010PropOp37
 70
     1
102
RTVSPost2010Prop38
140
0.0
102
RTVSPost2010PropOp38
 70
     1
102
RTVSPost2010Prop39
140
1.0
102
RTVSPost2010PropOp39
 70
     1
102
RTVSPost2010Prop40
 90
        0
102
RTVSPost2010PropOp40
 70
     1
102
RTVSPost2010Prop41ColorIndex
 90
       18
102
RTVSPost2010Prop41ColorRGB
 90
        0
102
RTVSPost2010PropOp41
 70
     1
102
RTVSPost2010Prop42
 90
       50
102
RTVSPost2010PropOp42
 70
     1
102
RTVSPost2010Prop43
 90
        3
102
RTVSPost2010PropOp43
 70
     1
102
RTVSPost2010Prop44ColorIndex
 90
        5
102
RTVSPost2010Prop44ColorRGB
 90
      255
102
RTVSPost2010PropOp44
 70
     1
102
RTVSPost2010Prop45
280
     0
102
RTVSPost2010PropOp45
 70
     1
102
RTVSPost2010Prop46
 90
       50
102
RTVSPost2010PropOp46
 70
     1
102
RTVSPost2010Prop47
 90
       50
102
RTVSPost2010PropOp47
 70
     1
102
RTVSPost2010Prop48
 90
       50
102
RTVSPost2010PropOp48
 70
     1
102
RTVSPost2010Prop49
280
     0
102
RTVSPost2010PropOp49
 70
     1
102
RTVSPost2010Prop50
 90
       50
102
RTVSPost2010PropOp50
 70
     1
102
RTVSPost2010Prop51ColorIndex
 90
      256
102
RTVSPost2010Prop51ColorRGB
 90
-16777216
102
RTVSPost2010PropOp51
 70
     0
102
RTVSPost2010Prop52
140
1.0
102
RTVSPost2010PropOp52
 70
     0
102
RTVSPost2010Prop53
 90
        2
102
RTVSPost2010PropOp53
 70
     1
102
RTVSPost2010Prop54
  1
strokes_ogs.tif
102
RTVSPost2010PropOp54
 70
     1
102
RTVSPost2010Prop55
280
     0
102
RTVSPost2010PropOp55
 70
     1
102
RTVSPost2010Prop56
140
1.0
102
RTVSPost2010PropOp56
 70
     1
102
RTVSPost2010Prop57
140
1.0
102
RTVSPost2010PropOp57
 70
     1
  0
XRECORD
  5
3E2
102
{ACAD_REACTORS
330
3E1
102
}
330
3E1
100
AcDbXrecord
280
     1
102
RTVSPropertyOp0
 70
     1
102
RTVSPropertyOp1
 70
     1
102
RTVSPropertyOp2
 70
     1
102
RTVSPropertyOp3
 70
     1
102
RTVSPropertyOp4
 70
     1
102
RTVSPropertyOp5
 70
     1
102
RTVSPropertyOp6
 70
     1
102
RTVSPropertyOp7
 70
     1
102
RTVSPropertyOp8
 70
     1
102
RTVSPropertyOp9
 70
     1
102
RTVSPropertyOp10
 70
     1
102
RTVSPropertyOp11
 70
     1
102
RTVSPropertyOp12
 70
     1
102
RTVSPropertyOp13
 70
     1
102
RTVSPropertyOp14
 70
     1
102
RTVSPropertyOp15
 70
     1
102
RTVSPropertyOp16
 70
     1
102
RTVSPropertyOp17
 70
     1
102
RTVSPropertyOp18
 70
     1
102
RTVSPropertyOp19
 70
     1
102
RTVSPropertyOp20
 70
     1
102
RTVSPropertyOp21
 70
     1
102
RTVSPropertyOp22
 70
     1
102
RTVSPropertyOp23
 70
     1
102
RTVSPropertyOp24
 70
     1
102
RTVSPropertyOp25
 70
     1
102
RTVSPropertyOp26
 70
     1
102
RTVSPropertyOp27
 70
     1
102
RTVSPropertyOp28
 70
     1
102
RTVSPropertyOp29
 70
     1
102
RTVSPropertyOp30
 70
     1
102
RTVSPropertyOp31
 70
     1
102
RTVSPropertyOp32
 70
     1
102
RTVSPropertyOp33
 70
     1
102
RTVSPropertyOp34
 70
     1
102
RTVSPropertyOp35
 70
     1
102
RTVSPropertyOp36
 70
     1
102
RTVSPropertyOp37
 70
     1
102
RTVSPropertyOp38
 70
     1
102
RTVSPropertyOp39
 70
     1
102
RTVSPropertyOp40
 70
     1
102
RTVSPropertyOp41
 70
     1
102
RTVSPropertyOp42
 70
     1
102
RTVSPropertyOp43
 70
     1
102
RTVSPropertyOp44
 70
     1
102
RTVSPropertyOp45
 70
     1
102
RTVSPropertyOp46
 70
     1
102
RTVSPropertyOp47
 70
     1
102
RTVSPropertyOp48
 70
     1
102
RTVSPropertyOp49
 70
     1
102
RTVSPropertyOp50
 70
     1
102
RTVSPropertyOp51
 70
     0
102
RTVSPropertyOp52
 70
     0
102
RTVSPropertyOp53
 70
     1
102
RTVSPropertyOp54
 70
     1
102
RTVSPropertyOp55
 70
     1
102
RTVSPropertyOp56
 70
     1
102
RTVSPropertyOp57
 70
     1
102
RTVSPost2010Prop28
280
     0
102
RTVSPost2010PropOp28
 70
     1
102
RTVSPost2010Prop29
280
     1
102
RTVSPost2010PropOp29
 70
     1
102
RTVSPost2010Prop30
280
     1
102
RTVSPost2010PropOp30
 70
     1
102
RTVSPost2010Prop31
280
     0
102
RTVSPost2010PropOp31
 70
     1
102
RTVSPost2010Prop32
280
     0
102
RTVSPost2010PropOp32
 70
     1
102
RTVSPost2010Prop33
280
     0
102
RTVSPost2010PropOp33
 70
     1
102
RTVSPost2010Prop34
280
     0
102
RTVSPost2010PropOp34
 70
     1
102
RTVSPost2010Prop35
280
     0
102
RTVSPost2010PropOp35
 70
     1
102
RTVSPost2010Prop36
280
     0
102
RTVSPost2010PropOp36
 70
     1
102
RTVSPost2010Prop37
 90
       50
102
RTVSPost2010PropOp37
 70
     1
102
RTVSPost2010Prop38
140
0.0
102
RTVSPost2010PropOp38
 70
     1
102
RTVSPost2010Prop39
140
1.0
102
RTVSPost2010PropOp39
 70
     1
102
RTVSPost2010Prop40
 90
        0
102
RTVSPost2010PropOp40
 70
     1
102
RTVSPost2010Prop41ColorIndex
 90
       18
102
RTVSPost2010Prop41ColorRGB
 90
        0
102
RTVSPost2010PropOp41
 70
     1
102
RTVSPost2010Prop42
 90
       50
102
RTVSPost2010PropOp42
 70
     1
102
RTVSPost2010Prop43
 90
        3
102
RTVSPost2010PropOp43
 70
     1
102
RTVSPost2010Prop44ColorIndex
 90
        5
102
RTVSPost2010Prop44ColorRGB
 90
      255
102
RTVSPost2010PropOp44
 70
     1
102
RTVSPost2010Prop45
280
     0
102
RTVSPost2010PropOp45
 70
     1
102
RTVSPost2010Prop46
 90
       50
102
RTVSPost2010PropOp46
 70
     1
102
RTVSPost2010Prop47
 90
       50
102
RTVSPost2010PropOp47
 70
     1
102
RTVSPost2010Prop48
 90
       50
102
RTVSPost2010PropOp48
 70
     1
102
RTVSPost2010Prop49
280
     0
102
RTVSPost2010PropOp49
 70
     1
102
RTVSPost2010Prop50
 90
       50
102
RTVSPost2010PropOp50
 70
     1
102
RTVSPost2010Prop51ColorIndex
 90
      256
102
RTVSPost2010Prop51ColorRGB
 90
-16777216
102
RTVSPost2010PropOp51
 70
     0
102
RTVSPost2010Prop52
140
1.0
102
RTVSPost2010PropOp52
 70
     0
102
RTVSPost2010Prop53
 90
        2
102
RTVSPost2010PropOp53
 70
     1
102
RTVSPost2010Prop54
  1
strokes_ogs.tif
102
RTVSPost2010PropOp54
 70
     1
102
RTVSPost2010Prop55
280
     0
102
RTVSPost2010PropOp55
 70
     1
102
RTVSPost2010Prop56
140
1.0
102
RTVSPost2010PropOp56
 70
     1
102
RTVSPost2010Prop57
140
1.0
102
RTVSPost2010PropOp57
 70
     1
  0
XRECORD
  5
3E4
102
{ACAD_REACTORS
330
3E3
102
}
330
3E3
100
AcDbXrecord
280
     1
102
RTVSPropertyOp0
 70
     1
102
RTVSPropertyOp1
 70
     1
102
RTVSPropertyOp2
 70
     1
102
RTVSPropertyOp3
 70
     1
102
RTVSPropertyOp4
 70
     1
102
RTVSPropertyOp5
 70
     1
102
RTVSPropertyOp6
 70
     1
102
RTVSPropertyOp7
 70
     1
102
RTVSPropertyOp8
 70
     1
102
RTVSPropertyOp9
 70
     1
102
RTVSPropertyOp10
 70
     1
102
RTVSPropertyOp11
 70
     1
102
RTVSPropertyOp12
 70
     1
102
RTVSPropertyOp13
 70
     1
102
RTVSPropertyOp14
 70
     1
102
RTVSPropertyOp15
 70
     1
102
RTVSPropertyOp16
 70
     1
102
RTVSPropertyOp17
 70
     1
102
RTVSPropertyOp18
 70
     1
102
RTVSPropertyOp19
 70
     1
102
RTVSPropertyOp20
 70
     1
102
RTVSPropertyOp21
 70
     1
102
RTVSPropertyOp22
 70
     1
102
RTVSPropertyOp23
 70
     1
102
RTVSPropertyOp24
 70
     1
102
RTVSPropertyOp25
 70
     1
102
RTVSPropertyOp26
 70
     1
102
RTVSPropertyOp27
 70
     1
102
RTVSPropertyOp28
 70
     1
102
RTVSPropertyOp29
 70
     1
102
RTVSPropertyOp30
 70
     1
102
RTVSPropertyOp31
 70
     1
102
RTVSPropertyOp32
 70
     1
102
RTVSPropertyOp33
 70
     1
102
RTVSPropertyOp34
 70
     1
102
RTVSPropertyOp35
 70
     1
102
RTVSPropertyOp36
 70
     1
102
RTVSPropertyOp37
 70
     1
102
RTVSPropertyOp38
 70
     1
102
RTVSPropertyOp39
 70
     1
102
RTVSPropertyOp40
 70
     1
102
RTVSPropertyOp41
 70
     1
102
RTVSPropertyOp42
 70
     1
102
RTVSPropertyOp43
 70
     1
102
RTVSPropertyOp44
 70
     1
102
RTVSPropertyOp45
 70
     1
102
RTVSPropertyOp46
 70
     1
102
RTVSPropertyOp47
 70
     1
102
RTVSPropertyOp48
 70
     1
102
RTVSPropertyOp49
 70
     1
102
RTVSPropertyOp50
 70
     1
102
RTVSPropertyOp51
 70
     0
102
RTVSPropertyOp52
 70
     0
102
RTVSPropertyOp53
 70
     1
102
RTVSPropertyOp54
 70
     1
102
RTVSPropertyOp55
 70
     1
102
RTVSPropertyOp56
 70
     1
102
RTVSPropertyOp57
 70
     1
102
RTVSPost2010Prop28
280
     0
102
RTVSPost2010PropOp28
 70
     1
102
RTVSPost2010Prop29
280
     1
102
RTVSPost2010PropOp29
 70
     1
102
RTVSPost2010Prop30
280
     1
102
RTVSPost2010PropOp30
 70
     1
102
RTVSPost2010Prop31
280
     0
102
RTVSPost2010PropOp31
 70
     1
102
RTVSPost2010Prop32
280
     0
102
RTVSPost2010PropOp32
 70
     1
102
RTVSPost2010Prop33
280
     0
102
RTVSPost2010PropOp33
 70
     1
102
RTVSPost2010Prop34
280
     0
102
RTVSPost2010PropOp34
 70
     1
102
RTVSPost2010Prop35
280
     0
102
RTVSPost2010PropOp35
 70
     1
102
RTVSPost2010Prop36
280
     0
102
RTVSPost2010PropOp36
 70
     1
102
RTVSPost2010Prop37
 90
       50
102
RTVSPost2010PropOp37
 70
     1
102
RTVSPost2010Prop38
140
0.0
102
RTVSPost2010PropOp38
 70
     1
102
RTVSPost2010Prop39
140
1.0
102
RTVSPost2010PropOp39
 70
     1
102
RTVSPost2010Prop40
 90
        0
102
RTVSPost2010PropOp40
 70
     1
102
RTVSPost2010Prop41ColorIndex
 90
       18
102
RTVSPost2010Prop41ColorRGB
 90
        0
102
RTVSPost2010PropOp41
 70
     1
102
RTVSPost2010Prop42
 90
       50
102
RTVSPost2010PropOp42
 70
     1
102
RTVSPost2010Prop43
 90
        3
102
RTVSPost2010PropOp43
 70
     1
102
RTVSPost2010Prop44ColorIndex
 90
        5
102
RTVSPost2010Prop44ColorRGB
 90
      255
102
RTVSPost2010PropOp44
 70
     1
102
RTVSPost2010Prop45
280
     0
102
RTVSPost2010PropOp45
 70
     1
102
RTVSPost2010Prop46
 90
       50
102
RTVSPost2010PropOp46
 70
     1
102
RTVSPost2010Prop47
 90
       50
102
RTVSPost2010PropOp47
 70
     1
102
RTVSPost2010Prop48
 90
       50
102
RTVSPost2010PropOp48
 70
     1
102
RTVSPost2010Prop49
280
     0
102
RTVSPost2010PropOp49
 70
     1
102
RTVSPost2010Prop50
 90
       50
102
RTVSPost2010PropOp50
 70
     1
102
RTVSPost2010Prop51ColorIndex
 90
      256
102
RTVSPost2010Prop51ColorRGB
 90
-16777216
102
RTVSPost2010PropOp51
 70
     0
102
RTVSPost2010Prop52
140
1.0
102
RTVSPost2010PropOp52
 70
     0
102
RTVSPost2010Prop53
 90
        2
102
RTVSPost2010PropOp53
 70
     1
102
RTVSPost2010Prop54
  1
strokes_ogs.tif
102
RTVSPost2010PropOp54
 70
     1
102
RTVSPost2010Prop55
280
     0
102
RTVSPost2010PropOp55
 70
     1
102
RTVSPost2010Prop56
140
1.0
102
RTVSPost2010PropOp56
 70
     1
102
RTVSPost2010Prop57
140
1.0
102
RTVSPost2010PropOp57
 70
     1
  0
XRECORD
  5
3F4
102
{ACAD_REACTORS
330
3F3
102
}
330
3F3
100
AcDbXrecord
280
     1
102
RTVSPropertyOp0
 70
     0
102
RTVSPropertyOp1
 70
     0
102
RTVSPropertyOp2
 70
     0
102
RTVSPropertyOp3
 70
     0
102
RTVSPropertyOp4
 70
     0
102
RTVSPropertyOp5
 70
     0
102
RTVSPropertyOp6
 70
     0
102
RTVSPropertyOp7
 70
     0
102
RTVSPropertyOp8
 70
     0
102
RTVSPropertyOp9
 70
     0
102
RTVSPropertyOp10
 70
     0
102
RTVSPropertyOp11
 70
     0
102
RTVSPropertyOp12
 70
     0
102
RTVSPropertyOp13
 70
     0
102
RTVSPropertyOp14
 70
     2
102
RTVSPropertyOp15
 70
     0
102
RTVSPropertyOp16
 70
     0
102
RTVSPropertyOp17
 70
     0
102
RTVSPropertyOp18
 70
     0
102
RTVSPropertyOp19
 70
     0
102
RTVSPropertyOp20
 70
     0
102
RTVSPropertyOp21
 70
     0
102
RTVSPropertyOp22
 70
     0
102
RTVSPropertyOp23
 70
     0
102
RTVSPropertyOp24
 70
     0
102
RTVSPropertyOp25
 70
     0
102
RTVSPropertyOp26
 70
     0
102
RTVSPropertyOp27
 70
     0
102
RTVSPropertyOp28
 70
     0
102
RTVSPropertyOp29
 70
     0
102
RTVSPropertyOp30
 70
     0
102
RTVSPropertyOp31
 70
     0
102
RTVSPropertyOp32
 70
     0
102
RTVSPropertyOp33
 70
     0
102
RTVSPropertyOp34
 70
     0
102
RTVSPropertyOp35
 70
     0
102
RTVSPropertyOp36
 70
     0
102
RTVSPropertyOp37
 70
     0
102
RTVSPropertyOp38
 70
     0
102
RTVSPropertyOp39
 70
     0
102
RTVSPropertyOp40
 70
     0
102
RTVSPropertyOp41
 70
     0
102
RTVSPropertyOp42
 70
     0
102
RTVSPropertyOp43
 70
     0
102
RTVSPropertyOp44
 70
     0
102
RTVSPropertyOp45
 70
     0
102
RTVSPropertyOp46
 70
     0
102
RTVSPropertyOp47
 70
     0
102
RTVSPropertyOp48
 70
     0
102
RTVSPropertyOp49
 70
     0
102
RTVSPropertyOp50
 70
     0
102
RTVSPropertyOp51
 70
     0
102
RTVSPropertyOp52
 70
     0
102
RTVSPropertyOp53
 70
     0
102
RTVSPropertyOp54
 70
     0
102
RTVSPropertyOp55
 70
     0
102
RTVSPropertyOp56
 70
     0
102
RTVSPropertyOp57
 70
     0
102
RTVSPost2010Prop28
280
     0
102
RTVSPost2010PropOp28
 70
     0
102
RTVSPost2010Prop29
280
     1
102
RTVSPost2010PropOp29
 70
     0
102
RTVSPost2010Prop30
280
     1
102
RTVSPost2010PropOp30
 70
     0
102
RTVSPost2010Prop31
280
     0
102
RTVSPost2010PropOp31
 70
     0
102
RTVSPost2010Prop32
280
     0
102
RTVSPost2010PropOp32
 70
     0
102
RTVSPost2010Prop33
280
     0
102
RTVSPost2010PropOp33
 70
     0
102
RTVSPost2010Prop34
280
     0
102
RTVSPost2010PropOp34
 70
     0
102
RTVSPost2010Prop35
280
     0
102
RTVSPost2010PropOp35
 70
     0
102
RTVSPost2010Prop36
280
     0
102
RTVSPost2010PropOp36
 70
     0
102
RTVSPost2010Prop37
 90
       50
102
RTVSPost2010PropOp37
 70
     0
102
RTVSPost2010Prop38
140
0.0
102
RTVSPost2010PropOp38
 70
     0
102
RTVSPost2010Prop39
140
1.0
102
RTVSPost2010PropOp39
 70
     0
102
RTVSPost2010Prop40
 90
        0
102
RTVSPost2010PropOp40
 70
     0
102
RTVSPost2010Prop41ColorIndex
 90
       18
102
RTVSPost2010Prop41ColorRGB
 90
        0
102
RTVSPost2010PropOp41
 70
     0
102
RTVSPost2010Prop42
 90
       50
102
RTVSPost2010PropOp42
 70
     0
102
RTVSPost2010Prop43
 90
        3
102
RTVSPost2010PropOp43
 70
     0
102
RTVSPost2010Prop44ColorIndex
 90
        5
102
RTVSPost2010Prop44ColorRGB
 90
      255
102
RTVSPost2010PropOp44
 70
     0
102
RTVSPost2010Prop45
280
     0
102
RTVSPost2010PropOp45
 70
     0
102
RTVSPost2010Prop46
 90
       50
102
RTVSPost2010PropOp46
 70
     0
102
RTVSPost2010Prop47
 90
       50
102
RTVSPost2010PropOp47
 70
     0
102
RTVSPost2010Prop48
 90
       50
102
RTVSPost2010PropOp48
 70
     0
102
RTVSPost2010Prop49
280
     0
102
RTVSPost2010PropOp49
 70
     0
102
RTVSPost2010Prop50
 90
       50
102
RTVSPost2010PropOp50
 70
     0
102
RTVSPost2010Prop51ColorIndex
 90
      256
102
RTVSPost2010Prop51ColorRGB
 90
-16777216
102
RTVSPost2010PropOp51
 70
     0
102
RTVSPost2010Prop52
140
1.0
102
RTVSPost2010PropOp52
 70
     0
102
RTVSPost2010Prop53
 90
        2
102
RTVSPost2010PropOp53
 70
     0
102
RTVSPost2010Prop54
  1
strokes_ogs.tif
102
RTVSPost2010PropOp54
 70
     0
102
RTVSPost2010Prop55
280
     0
102
RTVSPost2010PropOp55
 70
     0
102
RTVSPost2010Prop56
140
1.0
102
RTVSPost2010PropOp56
 70
     0
102
RTVSPost2010Prop57
140
1.0
102
RTVSPost2010PropOp57
 70
     0
  0
XRECORD
  5
3EC
102
{ACAD_REACTORS
330
3EB
102
}
330
3EB
100
AcDbXrecord
280
     1
102
RTVSPropertyOp0
 70
     1
102
RTVSPropertyOp1
 70
     1
102
RTVSPropertyOp2
 70
     1
102
RTVSPropertyOp3
 70
     1
102
RTVSPropertyOp4
 70
     1
102
RTVSPropertyOp5
 70
     1
102
RTVSPropertyOp6
 70
     1
102
RTVSPropertyOp7
 70
     1
102
RTVSPropertyOp8
 70
     1
102
RTVSPropertyOp9
 70
     1
102
RTVSPropertyOp10
 70
     1
102
RTVSPropertyOp11
 70
     1
102
RTVSPropertyOp12
 70
     1
102
RTVSPropertyOp13
 70
     1
102
RTVSPropertyOp14
 70
     1
102
RTVSPropertyOp15
 70
     1
102
RTVSPropertyOp16
 70
     1
102
RTVSPropertyOp17
 70
     1
102
RTVSPropertyOp18
 70
     1
102
RTVSPropertyOp19
 70
     1
102
RTVSPropertyOp20
 70
     1
102
RTVSPropertyOp21
 70
     1
102
RTVSPropertyOp22
 70
     1
102
RTVSPropertyOp23
 70
     1
102
RTVSPropertyOp24
 70
     1
102
RTVSPropertyOp25
 70
     1
102
RTVSPropertyOp26
 70
     1
102
RTVSPropertyOp27
 70
     1
102
RTVSPropertyOp28
 70
     1
102
RTVSPropertyOp29
 70
     1
102
RTVSPropertyOp30
 70
     1
102
RTVSPropertyOp31
 70
     1
102
RTVSPropertyOp32
 70
     1
102
RTVSPropertyOp33
 70
     1
102
RTVSPropertyOp34
 70
     1
102
RTVSPropertyOp35
 70
     1
102
RTVSPropertyOp36
 70
     1
102
RTVSPropertyOp37
 70
     1
102
RTVSPropertyOp38
 70
     1
102
RTVSPropertyOp39
 70
     1
102
RTVSPropertyOp40
 70
     1
102
RTVSPropertyOp41
 70
     1
102
RTVSPropertyOp42
 70
     1
102
RTVSPropertyOp43
 70
     1
102
RTVSPropertyOp44
 70
     1
102
RTVSPropertyOp45
 70
     1
102
RTVSPropertyOp46
 70
     1
102
RTVSPropertyOp47
 70
     1
102
RTVSPropertyOp48
 70
     1
102
RTVSPropertyOp49
 70
     1
102
RTVSPropertyOp50
 70
     1
102
RTVSPropertyOp51
 70
     0
102
RTVSPropertyOp52
 70
     0
102
RTVSPropertyOp53
 70
     1
102
RTVSPropertyOp54
 70
     1
102
RTVSPropertyOp55
 70
     1
102
RTVSPropertyOp56
 70
     1
102
RTVSPropertyOp57
 70
     1
102
RTVSPost2010Prop28
280
     0
102
RTVSPost2010PropOp28
 70
     1
102
RTVSPost2010Prop29
280
     1
102
RTVSPost2010PropOp29
 70
     1
102
RTVSPost2010Prop30
280
     1
102
RTVSPost2010PropOp30
 70
     1
102
RTVSPost2010Prop31
280
     0
102
RTVSPost2010PropOp31
 70
     1
102
RTVSPost2010Prop32
280
     0
102
RTVSPost2010PropOp32
 70
     1
102
RTVSPost2010Prop33
280
     0
102
RTVSPost2010PropOp33
 70
     1
102
RTVSPost2010Prop34
280
     0
102
RTVSPost2010PropOp34
 70
     1
102
RTVSPost2010Prop35
280
     0
102
RTVSPost2010PropOp35
 70
     1
102
RTVSPost2010Prop36
280
     0
102
RTVSPost2010PropOp36
 70
     1
102
RTVSPost2010Prop37
 90
       50
102
RTVSPost2010PropOp37
 70
     1
102
RTVSPost2010Prop38
140
0.0
102
RTVSPost2010PropOp38
 70
     1
102
RTVSPost2010Prop39
140
1.0
102
RTVSPost2010PropOp39
 70
     1
102
RTVSPost2010Prop40
 90
        0
102
RTVSPost2010PropOp40
 70
     1
102
RTVSPost2010Prop41ColorIndex
 90
       18
102
RTVSPost2010Prop41ColorRGB
 90
        0
102
RTVSPost2010PropOp41
 70
     1
102
RTVSPost2010Prop42
 90
       50
102
RTVSPost2010PropOp42
 70
     1
102
RTVSPost2010Prop43
 90
        3
102
RTVSPost2010PropOp43
 70
     1
102
RTVSPost2010Prop44ColorIndex
 90
        5
102
RTVSPost2010Prop44ColorRGB
 90
      255
102
RTVSPost2010PropOp44
 70
     1
102
RTVSPost2010Prop45
280
     0
102
RTVSPost2010PropOp45
 70
     1
102
RTVSPost2010Prop46
 90
       50
102
RTVSPost2010PropOp46
 70
     1
102
RTVSPost2010Prop47
 90
       50
102
RTVSPost2010PropOp47
 70
     1
102
RTVSPost2010Prop48
 90
       50
102
RTVSPost2010PropOp48
 70
     1
102
RTVSPost2010Prop49
280
     0
102
RTVSPost2010PropOp49
 70
     1
102
RTVSPost2010Prop50
 90
       50
102
RTVSPost2010PropOp50
 70
     1
102
RTVSPost2010Prop51ColorIndex
 90
      256
102
RTVSPost2010Prop51ColorRGB
 90
-16777216
102
RTVSPost2010PropOp51
 70
     0
102
RTVSPost2010Prop52
140
1.0
102
RTVSPost2010PropOp52
 70
     0
102
RTVSPost2010Prop53
 90
        2
102
RTVSPost2010PropOp53
 70
     1
102
RTVSPost2010Prop54
  1
strokes_ogs.tif
102
RTVSPost2010PropOp54
 70
     1
102
RTVSPost2010Prop55
280
     0
102
RTVSPost2010PropOp55
 70
     1
102
RTVSPost2010Prop56
140
1.0
102
RTVSPost2010PropOp56
 70
     1
102
RTVSPost2010Prop57
140
1.0
102
RTVSPost2010PropOp57
 70
     1
  0
XRECORD
  5
3D0
102
{ACAD_REACTORS
330
3CF
102
}
330
3CF
100
AcDbXrecord
280
     1
102
RTVSPropertyOp0
 70
     1
102
RTVSPropertyOp1
 70
     1
102
RTVSPropertyOp2
 70
     1
102
RTVSPropertyOp3
 70
     1
102
RTVSPropertyOp4
 70
     1
102
RTVSPropertyOp5
 70
     1
102
RTVSPropertyOp6
 70
     1
102
RTVSPropertyOp7
 70
     1
102
RTVSPropertyOp8
 70
     1
102
RTVSPropertyOp9
 70
     1
102
RTVSPropertyOp10
 70
     1
102
RTVSPropertyOp11
 70
     1
102
RTVSPropertyOp12
 70
     1
102
RTVSPropertyOp13
 70
     1
102
RTVSPropertyOp14
 70
     1
102
RTVSPropertyOp15
 70
     1
102
RTVSPropertyOp16
 70
     1
102
RTVSPropertyOp17
 70
     1
102
RTVSPropertyOp18
 70
     1
102
RTVSPropertyOp19
 70
     1
102
RTVSPropertyOp20
 70
     1
102
RTVSPropertyOp21
 70
     1
102
RTVSPropertyOp22
 70
     1
102
RTVSPropertyOp23
 70
     1
102
RTVSPropertyOp24
 70
     1
102
RTVSPropertyOp25
 70
     1
102
RTVSPropertyOp26
 70
     1
102
RTVSPropertyOp27
 70
     1
102
RTVSPropertyOp28
 70
     1
102
RTVSPropertyOp29
 70
     1
102
RTVSPropertyOp30
 70
     1
102
RTVSPropertyOp31
 70
     1
102
RTVSPropertyOp32
 70
     1
102
RTVSPropertyOp33
 70
     1
102
RTVSPropertyOp34
 70
     1
102
RTVSPropertyOp35
 70
     1
102
RTVSPropertyOp36
 70
     1
102
RTVSPropertyOp37
 70
     1
102
RTVSPropertyOp38
 70
     1
102
RTVSPropertyOp39
 70
     1
102
RTVSPropertyOp40
 70
     1
102
RTVSPropertyOp41
 70
     1
102
RTVSPropertyOp42
 70
     1
102
RTVSPropertyOp43
 70
     1
102
RTVSPropertyOp44
 70
     1
102
RTVSPropertyOp45
 70
     1
102
RTVSPropertyOp46
 70
     1
102
RTVSPropertyOp47
 70
     1
102
RTVSPropertyOp48
 70
     1
102
RTVSPropertyOp49
 70
     1
102
RTVSPropertyOp50
 70
     1
102
RTVSPropertyOp51
 70
     0
102
RTVSPropertyOp52
 70
     0
102
RTVSPropertyOp53
 70
     1
102
RTVSPropertyOp54
 70
     1
102
RTVSPropertyOp55
 70
     1
102
RTVSPropertyOp56
 70
     1
102
RTVSPropertyOp57
 70
     1
102
RTVSPost2010Prop28
280
     0
102
RTVSPost2010PropOp28
 70
     1
102
RTVSPost2010Prop29
280
     1
102
RTVSPost2010PropOp29
 70
     1
102
RTVSPost2010Prop30
280
     1
102
RTVSPost2010PropOp30
 70
     1
102
RTVSPost2010Prop31
280
     0
102
RTVSPost2010PropOp31
 70
     1
102
RTVSPost2010Prop32
280
     0
102
RTVSPost2010PropOp32
 70
     1
102
RTVSPost2010Prop33
280
     0
102
RTVSPost2010PropOp33
 70
     1
102
RTVSPost2010Prop34
280
     0
102
RTVSPost2010PropOp34
 70
     1
102
RTVSPost2010Prop35
280
     0
102
RTVSPost2010PropOp35
 70
     1
102
RTVSPost2010Prop36
280
     0
102
RTVSPost2010PropOp36
 70
     1
102
RTVSPost2010Prop37
 90
       50
102
RTVSPost2010PropOp37
 70
     1
102
RTVSPost2010Prop38
140
0.0
102
RTVSPost2010PropOp38
 70
     1
102
RTVSPost2010Prop39
140
1.0
102
RTVSPost2010PropOp39
 70
     1
102
RTVSPost2010Prop40
 90
        0
102
RTVSPost2010PropOp40
 70
     1
102
RTVSPost2010Prop41ColorIndex
 90
       18
102
RTVSPost2010Prop41ColorRGB
 90
        0
102
RTVSPost2010PropOp41
 70
     1
102
RTVSPost2010Prop42
 90
       50
102
RTVSPost2010PropOp42
 70
     1
102
RTVSPost2010Prop43
 90
        3
102
RTVSPost2010PropOp43
 70
     1
102
RTVSPost2010Prop44ColorIndex
 90
        5
102
RTVSPost2010Prop44ColorRGB
 90
      255
102
RTVSPost2010PropOp44
 70
     1
102
RTVSPost2010Prop45
280
     0
102
RTVSPost2010PropOp45
 70
     1
102
RTVSPost2010Prop46
 90
       50
102
RTVSPost2010PropOp46
 70
     1
102
RTVSPost2010Prop47
 90
       50
102
RTVSPost2010PropOp47
 70
     1
102
RTVSPost2010Prop48
 90
       50
102
RTVSPost2010PropOp48
 70
     1
102
RTVSPost2010Prop49
280
     0
102
RTVSPost2010PropOp49
 70
     1
102
RTVSPost2010Prop50
 90
       50
102
RTVSPost2010PropOp50
 70
     1
102
RTVSPost2010Prop51ColorIndex
 90
      256
102
RTVSPost2010Prop51ColorRGB
 90
-16777216
102
RTVSPost2010PropOp51
 70
     0
102
RTVSPost2010Prop52
140
1.0
102
RTVSPost2010PropOp52
 70
     0
102
RTVSPost2010Prop53
 90
        2
102
RTVSPost2010PropOp53
 70
     1
102
RTVSPost2010Prop54
  1
strokes_ogs.tif
102
RTVSPost2010PropOp54
 70
     1
102
RTVSPost2010Prop55
280
     0
102
RTVSPost2010PropOp55
 70
     1
102
RTVSPost2010Prop56
140
1.0
102
RTVSPost2010PropOp56
 70
     1
102
RTVSPost2010Prop57
140
1.0
102
RTVSPost2010PropOp57
 70
     1
  0
XRECORD
  5
3D2
102
{ACAD_REACTORS
330
3D1
102
}
330
3D1
100
AcDbXrecord
280
     1
102
RTVSPropertyOp0
 70
     1
102
RTVSPropertyOp1
 70
     1
102
RTVSPropertyOp2
 70
     1
102
RTVSPropertyOp3
 70
     1
102
RTVSPropertyOp4
 70
     1
102
RTVSPropertyOp5
 70
     1
102
RTVSPropertyOp6
 70
     1
102
RTVSPropertyOp7
 70
     1
102
RTVSPropertyOp8
 70
     1
102
RTVSPropertyOp9
 70
     1
102
RTVSPropertyOp10
 70
     1
102
RTVSPropertyOp11
 70
     1
102
RTVSPropertyOp12
 70
     1
102
RTVSPropertyOp13
 70
     1
102
RTVSPropertyOp14
 70
     1
102
RTVSPropertyOp15
 70
     1
102
RTVSPropertyOp16
 70
     1
102
RTVSPropertyOp17
 70
     1
102
RTVSPropertyOp18
 70
     1
102
RTVSPropertyOp19
 70
     1
102
RTVSPropertyOp20
 70
     1
102
RTVSPropertyOp21
 70
     1
102
RTVSPropertyOp22
 70
     1
102
RTVSPropertyOp23
 70
     1
102
RTVSPropertyOp24
 70
     1
102
RTVSPropertyOp25
 70
     1
102
RTVSPropertyOp26
 70
     1
102
RTVSPropertyOp27
 70
     1
102
RTVSPropertyOp28
 70
     1
102
RTVSPropertyOp29
 70
     1
102
RTVSPropertyOp30
 70
     1
102
RTVSPropertyOp31
 70
     1
102
RTVSPropertyOp32
 70
     1
102
RTVSPropertyOp33
 70
     1
102
RTVSPropertyOp34
 70
     1
102
RTVSPropertyOp35
 70
     1
102
RTVSPropertyOp36
 70
     1
102
RTVSPropertyOp37
 70
     1
102
RTVSPropertyOp38
 70
     1
102
RTVSPropertyOp39
 70
     1
102
RTVSPropertyOp40
 70
     1
102
RTVSPropertyOp41
 70
     1
102
RTVSPropertyOp42
 70
     1
102
RTVSPropertyOp43
 70
     1
102
RTVSPropertyOp44
 70
     1
102
RTVSPropertyOp45
 70
     1
102
RTVSPropertyOp46
 70
     1
102
RTVSPropertyOp47
 70
     1
102
RTVSPropertyOp48
 70
     1
102
RTVSPropertyOp49
 70
     1
102
RTVSPropertyOp50
 70
     1
102
RTVSPropertyOp51
 70
     0
102
RTVSPropertyOp52
 70
     0
102
RTVSPropertyOp53
 70
     1
102
RTVSPropertyOp54
 70
     1
102
RTVSPropertyOp55
 70
     1
102
RTVSPropertyOp56
 70
     1
102
RTVSPropertyOp57
 70
     1
102
RTVSPost2010Prop28
280
     0
102
RTVSPost2010PropOp28
 70
     1
102
RTVSPost2010Prop29
280
     1
102
RTVSPost2010PropOp29
 70
     1
102
RTVSPost2010Prop30
280
     1
102
RTVSPost2010PropOp30
 70
     1
102
RTVSPost2010Prop31
280
     0
102
RTVSPost2010PropOp31
 70
     1
102
RTVSPost2010Prop32
280
     0
102
RTVSPost2010PropOp32
 70
     1
102
RTVSPost2010Prop33
280
     0
102
RTVSPost2010PropOp33
 70
     1
102
RTVSPost2010Prop34
280
     0
102
RTVSPost2010PropOp34
 70
     1
102
RTVSPost2010Prop35
280
     0
102
RTVSPost2010PropOp35
 70
     1
102
RTVSPost2010Prop36
280
     0
102
RTVSPost2010PropOp36
 70
     1
102
RTVSPost2010Prop37
 90
       50
102
RTVSPost2010PropOp37
 70
     1
102
RTVSPost2010Prop38
140
0.0
102
RTVSPost2010PropOp38
 70
     1
102
RTVSPost2010Prop39
140
1.0
102
RTVSPost2010PropOp39
 70
     1
102
RTVSPost2010Prop40
 90
        0
102
RTVSPost2010PropOp40
 70
     1
102
RTVSPost2010Prop41ColorIndex
 90
       18
102
RTVSPost2010Prop41ColorRGB
 90
        0
102
RTVSPost2010PropOp41
 70
     1
102
RTVSPost2010Prop42
 90
       50
102
RTVSPost2010PropOp42
 70
     1
102
RTVSPost2010Prop43
 90
        3
102
RTVSPost2010PropOp43
 70
     1
102
RTVSPost2010Prop44ColorIndex
 90
        5
102
RTVSPost2010Prop44ColorRGB
 90
      255
102
RTVSPost2010PropOp44
 70
     1
102
RTVSPost2010Prop45
280
     0
102
RTVSPost2010PropOp45
 70
     1
102
RTVSPost2010Prop46
 90
       50
102
RTVSPost2010PropOp46
 70
     1
102
RTVSPost2010Prop47
 90
       50
102
RTVSPost2010PropOp47
 70
     1
102
RTVSPost2010Prop48
 90
       50
102
RTVSPost2010PropOp48
 70
     1
102
RTVSPost2010Prop49
280
     0
102
RTVSPost2010PropOp49
 70
     1
102
RTVSPost2010Prop50
 90
       50
102
RTVSPost2010PropOp50
 70
     1
102
RTVSPost2010Prop51ColorIndex
 90
      256
102
RTVSPost2010Prop51ColorRGB
 90
-16777216
102
RTVSPost2010PropOp51
 70
     0
102
RTVSPost2010Prop52
140
1.0
102
RTVSPost2010PropOp52
 70
     0
102
RTVSPost2010Prop53
 90
        2
102
RTVSPost2010PropOp53
 70
     1
102
RTVSPost2010Prop54
  1
strokes_ogs.tif
102
RTVSPost2010PropOp54
 70
     1
102
RTVSPost2010Prop55
280
     0
102
RTVSPost2010PropOp55
 70
     1
102
RTVSPost2010Prop56
140
1.0
102
RTVSPost2010PropOp56
 70
     1
102
RTVSPost2010Prop57
140
1.0
102
RTVSPost2010PropOp57
 70
     1
  0
XRECORD
  5
3D4
102
{ACAD_REACTORS
330
3D3
102
}
330
3D3
100
AcDbXrecord
280
     1
102
RTVSPropertyOp0
 70
     1
102
RTVSPropertyOp1
 70
     1
102
RTVSPropertyOp2
 70
     1
102
RTVSPropertyOp3
 70
     1
102
RTVSPropertyOp4
 70
     1
102
RTVSPropertyOp5
 70
     1
102
RTVSPropertyOp6
 70
     1
102
RTVSPropertyOp7
 70
     1
102
RTVSPropertyOp8
 70
     1
102
RTVSPropertyOp9
 70
     1
102
RTVSPropertyOp10
 70
     1
102
RTVSPropertyOp11
 70
     1
102
RTVSPropertyOp12
 70
     1
102
RTVSPropertyOp13
 70
     1
102
RTVSPropertyOp14
 70
     1
102
RTVSPropertyOp15
 70
     1
102
RTVSPropertyOp16
 70
     1
102
RTVSPropertyOp17
 70
     1
102
RTVSPropertyOp18
 70
     1
102
RTVSPropertyOp19
 70
     1
102
RTVSPropertyOp20
 70
     1
102
RTVSPropertyOp21
 70
     1
102
RTVSPropertyOp22
 70
     1
102
RTVSPropertyOp23
 70
     1
102
RTVSPropertyOp24
 70
     1
102
RTVSPropertyOp25
 70
     1
102
RTVSPropertyOp26
 70
     1
102
RTVSPropertyOp27
 70
     1
102
RTVSPropertyOp28
 70
     1
102
RTVSPropertyOp29
 70
     1
102
RTVSPropertyOp30
 70
     1
102
RTVSPropertyOp31
 70
     1
102
RTVSPropertyOp32
 70
     1
102
RTVSPropertyOp33
 70
     1
102
RTVSPropertyOp34
 70
     1
102
RTVSPropertyOp35
 70
     1
102
RTVSPropertyOp36
 70
     1
102
RTVSPropertyOp37
 70
     1
102
RTVSPropertyOp38
 70
     1
102
RTVSPropertyOp39
 70
     1
102
RTVSPropertyOp40
 70
     1
102
RTVSPropertyOp41
 70
     1
102
RTVSPropertyOp42
 70
     1
102
RTVSPropertyOp43
 70
     1
102
RTVSPropertyOp44
 70
     1
102
RTVSPropertyOp45
 70
     1
102
RTVSPropertyOp46
 70
     1
102
RTVSPropertyOp47
 70
     1
102
RTVSPropertyOp48
 70
     1
102
RTVSPropertyOp49
 70
     1
102
RTVSPropertyOp50
 70
     1
102
RTVSPropertyOp51
 70
     0
102
RTVSPropertyOp52
 70
     0
102
RTVSPropertyOp53
 70
     1
102
RTVSPropertyOp54
 70
     1
102
RTVSPropertyOp55
 70
     1
102
RTVSPropertyOp56
 70
     1
102
RTVSPropertyOp57
 70
     1
102
RTVSPost2010Prop28
280
     0
102
RTVSPost2010PropOp28
 70
     1
102
RTVSPost2010Prop29
280
     1
102
RTVSPost2010PropOp29
 70
     1
102
RTVSPost2010Prop30
280
     1
102
RTVSPost2010PropOp30
 70
     1
102
RTVSPost2010Prop31
280
     0
102
RTVSPost2010PropOp31
 70
     1
102
RTVSPost2010Prop32
280
     0
102
RTVSPost2010PropOp32
 70
     1
102
RTVSPost2010Prop33
280
     0
102
RTVSPost2010PropOp33
 70
     1
102
RTVSPost2010Prop34
280
     0
102
RTVSPost2010PropOp34
 70
     1
102
RTVSPost2010Prop35
280
     0
102
RTVSPost2010PropOp35
 70
     1
102
RTVSPost2010Prop36
280
     0
102
RTVSPost2010PropOp36
 70
     1
102
RTVSPost2010Prop37
 90
       50
102
RTVSPost2010PropOp37
 70
     1
102
RTVSPost2010Prop38
140
0.0
102
RTVSPost2010PropOp38
 70
     1
102
RTVSPost2010Prop39
140
1.0
102
RTVSPost2010PropOp39
 70
     1
102
RTVSPost2010Prop40
 90
        0
102
RTVSPost2010PropOp40
 70
     1
102
RTVSPost2010Prop41ColorIndex
 90
       18
102
RTVSPost2010Prop41ColorRGB
 90
        0
102
RTVSPost2010PropOp41
 70
     1
102
RTVSPost2010Prop42
 90
       50
102
RTVSPost2010PropOp42
 70
     1
102
RTVSPost2010Prop43
 90
        3
102
RTVSPost2010PropOp43
 70
     1
102
RTVSPost2010Prop44ColorIndex
 90
        5
102
RTVSPost2010Prop44ColorRGB
 90
      255
102
RTVSPost2010PropOp44
 70
     1
102
RTVSPost2010Prop45
280
     0
102
RTVSPost2010PropOp45
 70
     1
102
RTVSPost2010Prop46
 90
       50
102
RTVSPost2010PropOp46
 70
     1
102
RTVSPost2010Prop47
 90
       50
102
RTVSPost2010PropOp47
 70
     1
102
RTVSPost2010Prop48
 90
       50
102
RTVSPost2010PropOp48
 70
     1
102
RTVSPost2010Prop49
280
     0
102
RTVSPost2010PropOp49
 70
     1
102
RTVSPost2010Prop50
 90
       50
102
RTVSPost2010PropOp50
 70
     1
102
RTVSPost2010Prop51ColorIndex
 90
      256
102
RTVSPost2010Prop51ColorRGB
 90
-16777216
102
RTVSPost2010PropOp51
 70
     0
102
RTVSPost2010Prop52
140
1.0
102
RTVSPost2010PropOp52
 70
     0
102
RTVSPost2010Prop53
 90
        2
102
RTVSPost2010PropOp53
 70
     1
102
RTVSPost2010Prop54
  1
strokes_ogs.tif
102
RTVSPost2010PropOp54
 70
     1
102
RTVSPost2010Prop55
280
     0
102
RTVSPost2010PropOp55
 70
     1
102
RTVSPost2010Prop56
140
1.0
102
RTVSPost2010PropOp56
 70
     1
102
RTVSPost2010Prop57
140
1.0
102
RTVSPost2010PropOp57
 70
     1
  0
XRECORD
  5
3D6
102
{ACAD_REACTORS
330
3D5
102
}
330
3D5
100
AcDbXrecord
280
     1
102
RTVSPropertyOp0
 70
     1
102
RTVSPropertyOp1
 70
     1
102
RTVSPropertyOp2
 70
     1
102
RTVSPropertyOp3
 70
     1
102
RTVSPropertyOp4
 70
     1
102
RTVSPropertyOp5
 70
     1
102
RTVSPropertyOp6
 70
     1
102
RTVSPropertyOp7
 70
     1
102
RTVSPropertyOp8
 70
     1
102
RTVSPropertyOp9
 70
     1
102
RTVSPropertyOp10
 70
     1
102
RTVSPropertyOp11
 70
     1
102
RTVSPropertyOp12
 70
     1
102
RTVSPropertyOp13
 70
     1
102
RTVSPropertyOp14
 70
     1
102
RTVSPropertyOp15
 70
     1
102
RTVSPropertyOp16
 70
     1
102
RTVSPropertyOp17
 70
     1
102
RTVSPropertyOp18
 70
     1
102
RTVSPropertyOp19
 70
     1
102
RTVSPropertyOp20
 70
     1
102
RTVSPropertyOp21
 70
     1
102
RTVSPropertyOp22
 70
     1
102
RTVSPropertyOp23
 70
     1
102
RTVSPropertyOp24
 70
     1
102
RTVSPropertyOp25
 70
     1
102
RTVSPropertyOp26
 70
     1
102
RTVSPropertyOp27
 70
     1
102
RTVSPropertyOp28
 70
     1
102
RTVSPropertyOp29
 70
     1
102
RTVSPropertyOp30
 70
     1
102
RTVSPropertyOp31
 70
     1
102
RTVSPropertyOp32
 70
     1
102
RTVSPropertyOp33
 70
     1
102
RTVSPropertyOp34
 70
     1
102
RTVSPropertyOp35
 70
     1
102
RTVSPropertyOp36
 70
     1
102
RTVSPropertyOp37
 70
     1
102
RTVSPropertyOp38
 70
     1
102
RTVSPropertyOp39
 70
     1
102
RTVSPropertyOp40
 70
     1
102
RTVSPropertyOp41
 70
     1
102
RTVSPropertyOp42
 70
     1
102
RTVSPropertyOp43
 70
     1
102
RTVSPropertyOp44
 70
     1
102
RTVSPropertyOp45
 70
     1
102
RTVSPropertyOp46
 70
     1
102
RTVSPropertyOp47
 70
     1
102
RTVSPropertyOp48
 70
     1
102
RTVSPropertyOp49
 70
     1
102
RTVSPropertyOp50
 70
     1
102
RTVSPropertyOp51
 70
     0
102
RTVSPropertyOp52
 70
     0
102
RTVSPropertyOp53
 70
     1
102
RTVSPropertyOp54
 70
     1
102
RTVSPropertyOp55
 70
     1
102
RTVSPropertyOp56
 70
     1
102
RTVSPropertyOp57
 70
     1
102
RTVSPost2010Prop28
280
     0
102
RTVSPost2010PropOp28
 70
     1
102
RTVSPost2010Prop29
280
     1
102
RTVSPost2010PropOp29
 70
     1
102
RTVSPost2010Prop30
280
     1
102
RTVSPost2010PropOp30
 70
     1
102
RTVSPost2010Prop31
280
     0
102
RTVSPost2010PropOp31
 70
     1
102
RTVSPost2010Prop32
280
     0
102
RTVSPost2010PropOp32
 70
     1
102
RTVSPost2010Prop33
280
     0
102
RTVSPost2010PropOp33
 70
     1
102
RTVSPost2010Prop34
280
     0
102
RTVSPost2010PropOp34
 70
     1
102
RTVSPost2010Prop35
280
     0
102
RTVSPost2010PropOp35
 70
     1
102
RTVSPost2010Prop36
280
     0
102
RTVSPost2010PropOp36
 70
     1
102
RTVSPost2010Prop37
 90
       50
102
RTVSPost2010PropOp37
 70
     1
102
RTVSPost2010Prop38
140
0.0
102
RTVSPost2010PropOp38
 70
     1
102
RTVSPost2010Prop39
140
1.0
102
RTVSPost2010PropOp39
 70
     1
102
RTVSPost2010Prop40
 90
        0
102
RTVSPost2010PropOp40
 70
     1
102
RTVSPost2010Prop41ColorIndex
 90
       18
102
RTVSPost2010Prop41ColorRGB
 90
        0
102
RTVSPost2010PropOp41
 70
     1
102
RTVSPost2010Prop42
 90
       50
102
RTVSPost2010PropOp42
 70
     1
102
RTVSPost2010Prop43
 90
        3
102
RTVSPost2010PropOp43
 70
     1
102
RTVSPost2010Prop44ColorIndex
 90
        5
102
RTVSPost2010Prop44ColorRGB
 90
      255
102
RTVSPost2010PropOp44
 70
     1
102
RTVSPost2010Prop45
280
     0
102
RTVSPost2010PropOp45
 70
     1
102
RTVSPost2010Prop46
 90
       50
102
RTVSPost2010PropOp46
 70
     1
102
RTVSPost2010Prop47
 90
       50
102
RTVSPost2010PropOp47
 70
     1
102
RTVSPost2010Prop48
 90
       50
102
RTVSPost2010PropOp48
 70
     1
102
RTVSPost2010Prop49
280
     0
102
RTVSPost2010PropOp49
 70
     1
102
RTVSPost2010Prop50
 90
       50
102
RTVSPost2010PropOp50
 70
     1
102
RTVSPost2010Prop51ColorIndex
 90
      256
102
RTVSPost2010Prop51ColorRGB
 90
-16777216
102
RTVSPost2010PropOp51
 70
     0
102
RTVSPost2010Prop52
140
1.0
102
RTVSPost2010PropOp52
 70
     0
102
RTVSPost2010Prop53
 90
        2
102
RTVSPost2010PropOp53
 70
     1
102
RTVSPost2010Prop54
  1
strokes_ogs.tif
102
RTVSPost2010PropOp54
 70
     1
102
RTVSPost2010Prop55
280
     0
102
RTVSPost2010PropOp55
 70
     1
102
RTVSPost2010Prop56
140
1.0
102
RTVSPost2010PropOp56
 70
     1
102
RTVSPost2010Prop57
140
1.0
102
RTVSPost2010PropOp57
 70
     1
  0
XRECORD
  5
3DC
102
{ACAD_REACTORS
330
3DB
102
}
330
3DB
100
AcDbXrecord
280
     1
102
RTVSPropertyOp0
 70
     1
102
RTVSPropertyOp1
 70
     1
102
RTVSPropertyOp2
 70
     1
102
RTVSPropertyOp3
 70
     1
102
RTVSPropertyOp4
 70
     1
102
RTVSPropertyOp5
 70
     1
102
RTVSPropertyOp6
 70
     1
102
RTVSPropertyOp7
 70
     1
102
RTVSPropertyOp8
 70
     1
102
RTVSPropertyOp9
 70
     1
102
RTVSPropertyOp10
 70
     1
102
RTVSPropertyOp11
 70
     1
102
RTVSPropertyOp12
 70
     1
102
RTVSPropertyOp13
 70
     1
102
RTVSPropertyOp14
 70
     1
102
RTVSPropertyOp15
 70
     1
102
RTVSPropertyOp16
 70
     1
102
RTVSPropertyOp17
 70
     1
102
RTVSPropertyOp18
 70
     1
102
RTVSPropertyOp19
 70
     1
102
RTVSPropertyOp20
 70
     1
102
RTVSPropertyOp21
 70
     1
102
RTVSPropertyOp22
 70
     1
102
RTVSPropertyOp23
 70
     1
102
RTVSPropertyOp24
 70
     1
102
RTVSPropertyOp25
 70
     1
102
RTVSPropertyOp26
 70
     1
102
RTVSPropertyOp27
 70
     1
102
RTVSPropertyOp28
 70
     1
102
RTVSPropertyOp29
 70
     1
102
RTVSPropertyOp30
 70
     1
102
RTVSPropertyOp31
 70
     1
102
RTVSPropertyOp32
 70
     1
102
RTVSPropertyOp33
 70
     1
102
RTVSPropertyOp34
 70
     1
102
RTVSPropertyOp35
 70
     1
102
RTVSPropertyOp36
 70
     1
102
RTVSPropertyOp37
 70
     1
102
RTVSPropertyOp38
 70
     1
102
RTVSPropertyOp39
 70
     1
102
RTVSPropertyOp40
 70
     1
102
RTVSPropertyOp41
 70
     1
102
RTVSPropertyOp42
 70
     1
102
RTVSPropertyOp43
 70
     1
102
RTVSPropertyOp44
 70
     1
102
RTVSPropertyOp45
 70
     1
102
RTVSPropertyOp46
 70
     1
102
RTVSPropertyOp47
 70
     1
102
RTVSPropertyOp48
 70
     1
102
RTVSPropertyOp49
 70
     1
102
RTVSPropertyOp50
 70
     1
102
RTVSPropertyOp51
 70
     0
102
RTVSPropertyOp52
 70
     0
102
RTVSPropertyOp53
 70
     1
102
RTVSPropertyOp54
 70
     1
102
RTVSPropertyOp55
 70
     1
102
RTVSPropertyOp56
 70
     1
102
RTVSPropertyOp57
 70
     1
102
RTVSPost2010Prop28
280
     0
102
RTVSPost2010PropOp28
 70
     1
102
RTVSPost2010Prop29
280
     1
102
RTVSPost2010PropOp29
 70
     1
102
RTVSPost2010Prop30
280
     1
102
RTVSPost2010PropOp30
 70
     1
102
RTVSPost2010Prop31
280
     0
102
RTVSPost2010PropOp31
 70
     1
102
RTVSPost2010Prop32
280
     0
102
RTVSPost2010PropOp32
 70
     1
102
RTVSPost2010Prop33
280
     0
102
RTVSPost2010PropOp33
 70
     1
102
RTVSPost2010Prop34
280
     0
102
RTVSPost2010PropOp34
 70
     1
102
RTVSPost2010Prop35
280
     0
102
RTVSPost2010PropOp35
 70
     1
102
RTVSPost2010Prop36
280
     0
102
RTVSPost2010PropOp36
 70
     1
102
RTVSPost2010Prop37
 90
       50
102
RTVSPost2010PropOp37
 70
     1
102
RTVSPost2010Prop38
140
0.0
102
RTVSPost2010PropOp38
 70
     1
102
RTVSPost2010Prop39
140
1.0
102
RTVSPost2010PropOp39
 70
     1
102
RTVSPost2010Prop40
 90
        0
102
RTVSPost2010PropOp40
 70
     1
102
RTVSPost2010Prop41ColorIndex
 90
       18
102
RTVSPost2010Prop41ColorRGB
 90
        0
102
RTVSPost2010PropOp41
 70
     1
102
RTVSPost2010Prop42
 90
       50
102
RTVSPost2010PropOp42
 70
     1
102
RTVSPost2010Prop43
 90
        3
102
RTVSPost2010PropOp43
 70
     1
102
RTVSPost2010Prop44ColorIndex
 90
        5
102
RTVSPost2010Prop44ColorRGB
 90
      255
102
RTVSPost2010PropOp44
 70
     1
102
RTVSPost2010Prop45
280
     0
102
RTVSPost2010PropOp45
 70
     1
102
RTVSPost2010Prop46
 90
       50
102
RTVSPost2010PropOp46
 70
     1
102
RTVSPost2010Prop47
 90
       50
102
RTVSPost2010PropOp47
 70
     1
102
RTVSPost2010Prop48
 90
       50
102
RTVSPost2010PropOp48
 70
     1
102
RTVSPost2010Prop49
280
     0
102
RTVSPost2010PropOp49
 70
     1
102
RTVSPost2010Prop50
 90
       50
102
RTVSPost2010PropOp50
 70
     1
102
RTVSPost2010Prop51ColorIndex
 90
      256
102
RTVSPost2010Prop51ColorRGB
 90
-16777216
102
RTVSPost2010PropOp51
 70
     0
102
RTVSPost2010Prop52
140
1.0
102
RTVSPost2010PropOp52
 70
     0
102
RTVSPost2010Prop53
 90
        2
102
RTVSPost2010PropOp53
 70
     1
102
RTVSPost2010Prop54
  1
strokes_ogs.tif
102
RTVSPost2010PropOp54
 70
     1
102
RTVSPost2010Prop55
280
     0
102
RTVSPost2010PropOp55
 70
     1
102
RTVSPost2010Prop56
140
1.0
102
RTVSPost2010PropOp56
 70
     1
102
RTVSPost2010Prop57
140
1.0
102
RTVSPost2010PropOp57
 70
     1
  0
XRECORD
  5
3F0
102
{ACAD_REACTORS
330
3EF
102
}
330
3EF
100
AcDbXrecord
280
     1
102
RTVSPropertyOp0
 70
     0
102
RTVSPropertyOp1
 70
     0
102
RTVSPropertyOp2
 70
     0
102
RTVSPropertyOp3
 70
     0
102
RTVSPropertyOp4
 70
     0
102
RTVSPropertyOp5
 70
     0
102
RTVSPropertyOp6
 70
     0
102
RTVSPropertyOp7
 70
     0
102
RTVSPropertyOp8
 70
     0
102
RTVSPropertyOp9
 70
     0
102
RTVSPropertyOp10
 70
     0
102
RTVSPropertyOp11
 70
     0
102
RTVSPropertyOp12
 70
     0
102
RTVSPropertyOp13
 70
     0
102
RTVSPropertyOp14
 70
     2
102
RTVSPropertyOp15
 70
     0
102
RTVSPropertyOp16
 70
     0
102
RTVSPropertyOp17
 70
     0
102
RTVSPropertyOp18
 70
     0
102
RTVSPropertyOp19
 70
     0
102
RTVSPropertyOp20
 70
     0
102
RTVSPropertyOp21
 70
     0
102
RTVSPropertyOp22
 70
     0
102
RTVSPropertyOp23
 70
     0
102
RTVSPropertyOp24
 70
     0
102
RTVSPropertyOp25
 70
     0
102
RTVSPropertyOp26
 70
     0
102
RTVSPropertyOp27
 70
     0
102
RTVSPropertyOp28
 70
     0
102
RTVSPropertyOp29
 70
     0
102
RTVSPropertyOp30
 70
     0
102
RTVSPropertyOp31
 70
     0
102
RTVSPropertyOp32
 70
     0
102
RTVSPropertyOp33
 70
     0
102
RTVSPropertyOp34
 70
     0
102
RTVSPropertyOp35
 70
     0
102
RTVSPropertyOp36
 70
     0
102
RTVSPropertyOp37
 70
     0
102
RTVSPropertyOp38
 70
     0
102
RTVSPropertyOp39
 70
     0
102
RTVSPropertyOp40
 70
     0
102
RTVSPropertyOp41
 70
     0
102
RTVSPropertyOp42
 70
     0
102
RTVSPropertyOp43
 70
     0
102
RTVSPropertyOp44
 70
     0
102
RTVSPropertyOp45
 70
     0
102
RTVSPropertyOp46
 70
     0
102
RTVSPropertyOp47
 70
     0
102
RTVSPropertyOp48
 70
     0
102
RTVSPropertyOp49
 70
     0
102
RTVSPropertyOp50
 70
     0
102
RTVSPropertyOp51
 70
     0
102
RTVSPropertyOp52
 70
     0
102
RTVSPropertyOp53
 70
     0
102
RTVSPropertyOp54
 70
     0
102
RTVSPropertyOp55
 70
     0
102
RTVSPropertyOp56
 70
     0
102
RTVSPropertyOp57
 70
     0
102
RTVSPost2010Prop28
280
     0
102
RTVSPost2010PropOp28
 70
     0
102
RTVSPost2010Prop29
280
     1
102
RTVSPost2010PropOp29
 70
     0
102
RTVSPost2010Prop30
280
     1
102
RTVSPost2010PropOp30
 70
     0
102
RTVSPost2010Prop31
280
     0
102
RTVSPost2010PropOp31
 70
     0
102
RTVSPost2010Prop32
280
     0
102
RTVSPost2010PropOp32
 70
     0
102
RTVSPost2010Prop33
280
     0
102
RTVSPost2010PropOp33
 70
     0
102
RTVSPost2010Prop34
280
     0
102
RTVSPost2010PropOp34
 70
     0
102
RTVSPost2010Prop35
280
     0
102
RTVSPost2010PropOp35
 70
     0
102
RTVSPost2010Prop36
280
     0
102
RTVSPost2010PropOp36
 70
     0
102
RTVSPost2010Prop37
 90
       50
102
RTVSPost2010PropOp37
 70
     0
102
RTVSPost2010Prop38
140
0.0
102
RTVSPost2010PropOp38
 70
     0
102
RTVSPost2010Prop39
140
1.0
102
RTVSPost2010PropOp39
 70
     0
102
RTVSPost2010Prop40
 90
        0
102
RTVSPost2010PropOp40
 70
     0
102
RTVSPost2010Prop41ColorIndex
 90
       18
102
RTVSPost2010Prop41ColorRGB
 90
        0
102
RTVSPost2010PropOp41
 70
     0
102
RTVSPost2010Prop42
 90
       50
102
RTVSPost2010PropOp42
 70
     0
102
RTVSPost2010Prop43
 90
        3
102
RTVSPost2010PropOp43
 70
     0
102
RTVSPost2010Prop44ColorIndex
 90
        5
102
RTVSPost2010Prop44ColorRGB
 90
      255
102
RTVSPost2010PropOp44
 70
     0
102
RTVSPost2010Prop45
280
     0
102
RTVSPost2010PropOp45
 70
     0
102
RTVSPost2010Prop46
 90
       50
102
RTVSPost2010PropOp46
 70
     0
102
RTVSPost2010Prop47
 90
       50
102
RTVSPost2010PropOp47
 70
     0
102
RTVSPost2010Prop48
 90
       50
102
RTVSPost2010PropOp48
 70
     0
102
RTVSPost2010Prop49
280
     0
102
RTVSPost2010PropOp49
 70
     0
102
RTVSPost2010Prop50
 90
       50
102
RTVSPost2010PropOp50
 70
     0
102
RTVSPost2010Prop51ColorIndex
 90
      256
102
RTVSPost2010Prop51ColorRGB
 90
-16777216
102
RTVSPost2010PropOp51
 70
     0
102
RTVSPost2010Prop52
140
1.0
102
RTVSPost2010PropOp52
 70
     0
102
RTVSPost2010Prop53
 90
        2
102
RTVSPost2010PropOp53
 70
     0
102
RTVSPost2010Prop54
  1
strokes_ogs.tif
102
RTVSPost2010PropOp54
 70
     0
102
RTVSPost2010Prop55
280
     0
102
RTVSPost2010PropOp55
 70
     0
102
RTVSPost2010Prop56
140
1.0
102
RTVSPost2010PropOp56
 70
     0
102
RTVSPost2010Prop57
140
1.0
102
RTVSPost2010PropOp57
 70
     0
  0
XRECORD
  5
3EA
102
{ACAD_REACTORS
330
3E9
102
}
330
3E9
100
AcDbXrecord
280
     1
102
RTVSPropertyOp0
 70
     1
102
RTVSPropertyOp1
 70
     1
102
RTVSPropertyOp2
 70
     1
102
RTVSPropertyOp3
 70
     1
102
RTVSPropertyOp4
 70
     1
102
RTVSPropertyOp5
 70
     1
102
RTVSPropertyOp6
 70
     1
102
RTVSPropertyOp7
 70
     1
102
RTVSPropertyOp8
 70
     1
102
RTVSPropertyOp9
 70
     1
102
RTVSPropertyOp10
 70
     1
102
RTVSPropertyOp11
 70
     1
102
RTVSPropertyOp12
 70
     1
102
RTVSPropertyOp13
 70
     1
102
RTVSPropertyOp14
 70
     1
102
RTVSPropertyOp15
 70
     1
102
RTVSPropertyOp16
 70
     1
102
RTVSPropertyOp17
 70
     1
102
RTVSPropertyOp18
 70
     1
102
RTVSPropertyOp19
 70
     1
102
RTVSPropertyOp20
 70
     1
102
RTVSPropertyOp21
 70
     1
102
RTVSPropertyOp22
 70
     1
102
RTVSPropertyOp23
 70
     1
102
RTVSPropertyOp24
 70
     1
102
RTVSPropertyOp25
 70
     1
102
RTVSPropertyOp26
 70
     1
102
RTVSPropertyOp27
 70
     1
102
RTVSPropertyOp28
 70
     1
102
RTVSPropertyOp29
 70
     1
102
RTVSPropertyOp30
 70
     1
102
RTVSPropertyOp31
 70
     1
102
RTVSPropertyOp32
 70
     1
102
RTVSPropertyOp33
 70
     1
102
RTVSPropertyOp34
 70
     1
102
RTVSPropertyOp35
 70
     1
102
RTVSPropertyOp36
 70
     1
102
RTVSPropertyOp37
 70
     1
102
RTVSPropertyOp38
 70
     1
102
RTVSPropertyOp39
 70
     1
102
RTVSPropertyOp40
 70
     1
102
RTVSPropertyOp41
 70
     1
102
RTVSPropertyOp42
 70
     1
102
RTVSPropertyOp43
 70
     1
102
RTVSPropertyOp44
 70
     1
102
RTVSPropertyOp45
 70
     1
102
RTVSPropertyOp46
 70
     1
102
RTVSPropertyOp47
 70
     1
102
RTVSPropertyOp48
 70
     1
102
RTVSPropertyOp49
 70
     1
102
RTVSPropertyOp50
 70
     1
102
RTVSPropertyOp51
 70
     0
102
RTVSPropertyOp52
 70
     0
102
RTVSPropertyOp53
 70
     1
102
RTVSPropertyOp54
 70
     1
102
RTVSPropertyOp55
 70
     1
102
RTVSPropertyOp56
 70
     1
102
RTVSPropertyOp57
 70
     1
102
RTVSPost2010Prop28
280
     0
102
RTVSPost2010PropOp28
 70
     1
102
RTVSPost2010Prop29
280
     1
102
RTVSPost2010PropOp29
 70
     1
102
RTVSPost2010Prop30
280
     1
102
RTVSPost2010PropOp30
 70
     1
102
RTVSPost2010Prop31
280
     0
102
RTVSPost2010PropOp31
 70
     1
102
RTVSPost2010Prop32
280
     0
102
RTVSPost2010PropOp32
 70
     1
102
RTVSPost2010Prop33
280
     0
102
RTVSPost2010PropOp33
 70
     1
102
RTVSPost2010Prop34
280
     0
102
RTVSPost2010PropOp34
 70
     1
102
RTVSPost2010Prop35
280
     0
102
RTVSPost2010PropOp35
 70
     1
102
RTVSPost2010Prop36
280
     0
102
RTVSPost2010PropOp36
 70
     1
102
RTVSPost2010Prop37
 90
       50
102
RTVSPost2010PropOp37
 70
     1
102
RTVSPost2010Prop38
140
0.0
102
RTVSPost2010PropOp38
 70
     1
102
RTVSPost2010Prop39
140
1.0
102
RTVSPost2010PropOp39
 70
     1
102
RTVSPost2010Prop40
 90
        0
102
RTVSPost2010PropOp40
 70
     1
102
RTVSPost2010Prop41ColorIndex
 90
       18
102
RTVSPost2010Prop41ColorRGB
 90
        0
102
RTVSPost2010PropOp41
 70
     1
102
RTVSPost2010Prop42
 90
       50
102
RTVSPost2010PropOp42
 70
     1
102
RTVSPost2010Prop43
 90
        3
102
RTVSPost2010PropOp43
 70
     1
102
RTVSPost2010Prop44ColorIndex
 90
        5
102
RTVSPost2010Prop44ColorRGB
 90
      255
102
RTVSPost2010PropOp44
 70
     1
102
RTVSPost2010Prop45
280
     0
102
RTVSPost2010PropOp45
 70
     1
102
RTVSPost2010Prop46
 90
       50
102
RTVSPost2010PropOp46
 70
     1
102
RTVSPost2010Prop47
 90
       50
102
RTVSPost2010PropOp47
 70
     1
102
RTVSPost2010Prop48
 90
       50
102
RTVSPost2010PropOp48
 70
     1
102
RTVSPost2010Prop49
280
     0
102
RTVSPost2010PropOp49
 70
     1
102
RTVSPost2010Prop50
 90
       50
102
RTVSPost2010PropOp50
 70
     1
102
RTVSPost2010Prop51ColorIndex
 90
      256
102
RTVSPost2010Prop51ColorRGB
 90
-16777216
102
RTVSPost2010PropOp51
 70
     0
102
RTVSPost2010Prop52
140
1.0
102
RTVSPost2010PropOp52
 70
     0
102
RTVSPost2010Prop53
 90
        2
102
RTVSPost2010PropOp53
 70
     1
102
RTVSPost2010Prop54
  1
strokes_ogs.tif
102
RTVSPost2010PropOp54
 70
     1
102
RTVSPost2010Prop55
280
     0
102
RTVSPost2010PropOp55
 70
     1
102
RTVSPost2010Prop56
140
1.0
102
RTVSPost2010PropOp56
 70
     1
102
RTVSPost2010Prop57
140
1.0
102
RTVSPost2010PropOp57
 70
     1
  0
XRECORD
  5
3F2
102
{ACAD_REACTORS
330
3F1
102
}
330
3F1
100
AcDbXrecord
280
     1
102
RTVSPropertyOp0
 70
     0
102
RTVSPropertyOp1
 70
     0
102
RTVSPropertyOp2
 70
     0
102
RTVSPropertyOp3
 70
     0
102
RTVSPropertyOp4
 70
     0
102
RTVSPropertyOp5
 70
     0
102
RTVSPropertyOp6
 70
     0
102
RTVSPropertyOp7
 70
     0
102
RTVSPropertyOp8
 70
     0
102
RTVSPropertyOp9
 70
     0
102
RTVSPropertyOp10
 70
     0
102
RTVSPropertyOp11
 70
     0
102
RTVSPropertyOp12
 70
     0
102
RTVSPropertyOp13
 70
     0
102
RTVSPropertyOp14
 70
     2
102
RTVSPropertyOp15
 70
     0
102
RTVSPropertyOp16
 70
     0
102
RTVSPropertyOp17
 70
     0
102
RTVSPropertyOp18
 70
     0
102
RTVSPropertyOp19
 70
     0
102
RTVSPropertyOp20
 70
     0
102
RTVSPropertyOp21
 70
     0
102
RTVSPropertyOp22
 70
     0
102
RTVSPropertyOp23
 70
     0
102
RTVSPropertyOp24
 70
     0
102
RTVSPropertyOp25
 70
     0
102
RTVSPropertyOp26
 70
     0
102
RTVSPropertyOp27
 70
     0
102
RTVSPropertyOp28
 70
     0
102
RTVSPropertyOp29
 70
     0
102
RTVSPropertyOp30
 70
     0
102
RTVSPropertyOp31
 70
     0
102
RTVSPropertyOp32
 70
     0
102
RTVSPropertyOp33
 70
     0
102
RTVSPropertyOp34
 70
     0
102
RTVSPropertyOp35
 70
     0
102
RTVSPropertyOp36
 70
     0
102
RTVSPropertyOp37
 70
     0
102
RTVSPropertyOp38
 70
     0
102
RTVSPropertyOp39
 70
     0
102
RTVSPropertyOp40
 70
     0
102
RTVSPropertyOp41
 70
     0
102
RTVSPropertyOp42
 70
     0
102
RTVSPropertyOp43
 70
     0
102
RTVSPropertyOp44
 70
     0
102
RTVSPropertyOp45
 70
     0
102
RTVSPropertyOp46
 70
     0
102
RTVSPropertyOp47
 70
     0
102
RTVSPropertyOp48
 70
     0
102
RTVSPropertyOp49
 70
     0
102
RTVSPropertyOp50
 70
     0
102
RTVSPropertyOp51
 70
     0
102
RTVSPropertyOp52
 70
     0
102
RTVSPropertyOp53
 70
     0
102
RTVSPropertyOp54
 70
     0
102
RTVSPropertyOp55
 70
     0
102
RTVSPropertyOp56
 70
     0
102
RTVSPropertyOp57
 70
     0
102
RTVSPost2010Prop28
280
     0
102
RTVSPost2010PropOp28
 70
     0
102
RTVSPost2010Prop29
280
     1
102
RTVSPost2010PropOp29
 70
     0
102
RTVSPost2010Prop30
280
     1
102
RTVSPost2010PropOp30
 70
     0
102
RTVSPost2010Prop31
280
     0
102
RTVSPost2010PropOp31
 70
     0
102
RTVSPost2010Prop32
280
     0
102
RTVSPost2010PropOp32
 70
     0
102
RTVSPost2010Prop33
280
     0
102
RTVSPost2010PropOp33
 70
     0
102
RTVSPost2010Prop34
280
     0
102
RTVSPost2010PropOp34
 70
     0
102
RTVSPost2010Prop35
280
     0
102
RTVSPost2010PropOp35
 70
     0
102
RTVSPost2010Prop36
280
     0
102
RTVSPost2010PropOp36
 70
     0
102
RTVSPost2010Prop37
 90
       50
102
RTVSPost2010PropOp37
 70
     0
102
RTVSPost2010Prop38
140
0.0
102
RTVSPost2010PropOp38
 70
     0
102
RTVSPost2010Prop39
140
1.0
102
RTVSPost2010PropOp39
 70
     0
102
RTVSPost2010Prop40
 90
        0
102
RTVSPost2010PropOp40
 70
     0
102
RTVSPost2010Prop41ColorIndex
 90
       18
102
RTVSPost2010Prop41ColorRGB
 90
        0
102
RTVSPost2010PropOp41
 70
     0
102
RTVSPost2010Prop42
 90
       50
102
RTVSPost2010PropOp42
 70
     0
102
RTVSPost2010Prop43
 90
        3
102
RTVSPost2010PropOp43
 70
     0
102
RTVSPost2010Prop44ColorIndex
 90
        5
102
RTVSPost2010Prop44ColorRGB
 90
      255
102
RTVSPost2010PropOp44
 70
     0
102
RTVSPost2010Prop45
280
     0
102
RTVSPost2010PropOp45
 70
     0
102
RTVSPost2010Prop46
 90
       50
102
RTVSPost2010PropOp46
 70
     0
102
RTVSPost2010Prop47
 90
       50
102
RTVSPost2010PropOp47
 70
     0
102
RTVSPost2010Prop48
 90
       50
102
RTVSPost2010PropOp48
 70
     0
102
RTVSPost2010Prop49
280
     0
102
RTVSPost2010PropOp49
 70
     0
102
RTVSPost2010Prop50
 90
       50
102
RTVSPost2010PropOp50
 70
     0
102
RTVSPost2010Prop51ColorIndex
 90
      256
102
RTVSPost2010Prop51ColorRGB
 90
-16777216
102
RTVSPost2010PropOp51
 70
     0
102
RTVSPost2010Prop52
140
1.0
102
RTVSPost2010PropOp52
 70
     0
102
RTVSPost2010Prop53
 90
        2
102
RTVSPost2010PropOp53
 70
     0
102
RTVSPost2010Prop54
  1
strokes_ogs.tif
102
RTVSPost2010PropOp54
 70
     0
102
RTVSPost2010Prop55
280
     0
102
RTVSPost2010PropOp55
 70
     0
102
RTVSPost2010Prop56
140
1.0
102
RTVSPost2010PropOp56
 70
     0
102
RTVSPost2010Prop57
140
1.0
102
RTVSPost2010PropOp57
 70
     0
  0
XRECORD
  5
3E0
102
{ACAD_REACTORS
330
3DF
102
}
330
3DF
100
AcDbXrecord
280
     1
102
RTVSPropertyOp0
 70
     1
102
RTVSPropertyOp1
 70
     1
102
RTVSPropertyOp2
 70
     1
102
RTVSPropertyOp3
 70
     1
102
RTVSPropertyOp4
 70
     1
102
RTVSPropertyOp5
 70
     1
102
RTVSPropertyOp6
 70
     1
102
RTVSPropertyOp7
 70
     1
102
RTVSPropertyOp8
 70
     1
102
RTVSPropertyOp9
 70
     1
102
RTVSPropertyOp10
 70
     1
102
RTVSPropertyOp11
 70
     1
102
RTVSPropertyOp12
 70
     1
102
RTVSPropertyOp13
 70
     1
102
RTVSPropertyOp14
 70
     1
102
RTVSPropertyOp15
 70
     1
102
RTVSPropertyOp16
 70
     1
102
RTVSPropertyOp17
 70
     1
102
RTVSPropertyOp18
 70
     1
102
RTVSPropertyOp19
 70
     1
102
RTVSPropertyOp20
 70
     1
102
RTVSPropertyOp21
 70
     1
102
RTVSPropertyOp22
 70
     1
102
RTVSPropertyOp23
 70
     1
102
RTVSPropertyOp24
 70
     1
102
RTVSPropertyOp25
 70
     1
102
RTVSPropertyOp26
 70
     1
102
RTVSPropertyOp27
 70
     1
102
RTVSPropertyOp28
 70
     1
102
RTVSPropertyOp29
 70
     1
102
RTVSPropertyOp30
 70
     1
102
RTVSPropertyOp31
 70
     1
102
RTVSPropertyOp32
 70
     1
102
RTVSPropertyOp33
 70
     1
102
RTVSPropertyOp34
 70
     1
102
RTVSPropertyOp35
 70
     1
102
RTVSPropertyOp36
 70
     1
102
RTVSPropertyOp37
 70
     1
102
RTVSPropertyOp38
 70
     1
102
RTVSPropertyOp39
 70
     1
102
RTVSPropertyOp40
 70
     1
102
RTVSPropertyOp41
 70
     1
102
RTVSPropertyOp42
 70
     1
102
RTVSPropertyOp43
 70
     1
102
RTVSPropertyOp44
 70
     1
102
RTVSPropertyOp45
 70
     1
102
RTVSPropertyOp46
 70
     1
102
RTVSPropertyOp47
 70
     1
102
RTVSPropertyOp48
 70
     1
102
RTVSPropertyOp49
 70
     1
102
RTVSPropertyOp50
 70
     1
102
RTVSPropertyOp51
 70
     0
102
RTVSPropertyOp52
 70
     0
102
RTVSPropertyOp53
 70
     1
102
RTVSPropertyOp54
 70
     1
102
RTVSPropertyOp55
 70
     1
102
RTVSPropertyOp56
 70
     1
102
RTVSPropertyOp57
 70
     1
102
RTVSPost2010Prop28
280
     0
102
RTVSPost2010PropOp28
 70
     1
102
RTVSPost2010Prop29
280
     1
102
RTVSPost2010PropOp29
 70
     1
102
RTVSPost2010Prop30
280
     1
102
RTVSPost2010PropOp30
 70
     1
102
RTVSPost2010Prop31
280
     0
102
RTVSPost2010PropOp31
 70
     1
102
RTVSPost2010Prop32
280
     0
102
RTVSPost2010PropOp32
 70
     1
102
RTVSPost2010Prop33
280
     0
102
RTVSPost2010PropOp33
 70
     1
102
RTVSPost2010Prop34
280
     0
102
RTVSPost2010PropOp34
 70
     1
102
RTVSPost2010Prop35
280
     0
102
RTVSPost2010PropOp35
 70
     1
102
RTVSPost2010Prop36
280
     0
102
RTVSPost2010PropOp36
 70
     1
102
RTVSPost2010Prop37
 90
       50
102
RTVSPost2010PropOp37
 70
     1
102
RTVSPost2010Prop38
140
0.0
102
RTVSPost2010PropOp38
 70
     1
102
RTVSPost2010Prop39
140
1.0
102
RTVSPost2010PropOp39
 70
     1
102
RTVSPost2010Prop40
 90
        0
102
RTVSPost2010PropOp40
 70
     1
102
RTVSPost2010Prop41ColorIndex
 90
       18
102
RTVSPost2010Prop41ColorRGB
 90
        0
102
RTVSPost2010PropOp41
 70
     1
102
RTVSPost2010Prop42
 90
       50
102
RTVSPost2010PropOp42
 70
     1
102
RTVSPost2010Prop43
 90
        3
102
RTVSPost2010PropOp43
 70
     1
102
RTVSPost2010Prop44ColorIndex
 90
        5
102
RTVSPost2010Prop44ColorRGB
 90
      255
102
RTVSPost2010PropOp44
 70
     1
102
RTVSPost2010Prop45
280
     0
102
RTVSPost2010PropOp45
 70
     1
102
RTVSPost2010Prop46
 90
       50
102
RTVSPost2010PropOp46
 70
     1
102
RTVSPost2010Prop47
 90
       50
102
RTVSPost2010PropOp47
 70
     1
102
RTVSPost2010Prop48
 90
       50
102
RTVSPost2010PropOp48
 70
     1
102
RTVSPost2010Prop49
280
     0
102
RTVSPost2010PropOp49
 70
     1
102
RTVSPost2010Prop50
 90
       50
102
RTVSPost2010PropOp50
 70
     1
102
RTVSPost2010Prop51ColorIndex
 90
      256
102
RTVSPost2010Prop51ColorRGB
 90
-16777216
102
RTVSPost2010PropOp51
 70
     0
102
RTVSPost2010Prop52
140
1.0
102
RTVSPost2010PropOp52
 70
     0
102
RTVSPost2010Prop53
 90
        2
102
RTVSPost2010PropOp53
 70
     1
102
RTVSPost2010Prop54
  1
strokes_ogs.tif
102
RTVSPost2010PropOp54
 70
     1
102
RTVSPost2010Prop55
280
     0
102
RTVSPost2010PropOp55
 70
     1
102
RTVSPost2010Prop56
140
1.0
102
RTVSPost2010PropOp56
 70
     1
102
RTVSPost2010Prop57
140
1.0
102
RTVSPost2010PropOp57
 70
     1
  0
XRECORD
  5
3FE
102
{ACAD_REACTORS
330
3FD
102
}
330
3FD
100
AcDbXrecord
280
     1
102
RTVSPropertyOp0
 70
     1
102
RTVSPropertyOp1
 70
     1
102
RTVSPropertyOp2
 70
     1
102
RTVSPropertyOp3
 70
     1
102
RTVSPropertyOp4
 70
     1
102
RTVSPropertyOp5
 70
     1
102
RTVSPropertyOp6
 70
     1
102
RTVSPropertyOp7
 70
     1
102
RTVSPropertyOp8
 70
     1
102
RTVSPropertyOp9
 70
     1
102
RTVSPropertyOp10
 70
     1
102
RTVSPropertyOp11
 70
     1
102
RTVSPropertyOp12
 70
     1
102
RTVSPropertyOp13
 70
     1
102
RTVSPropertyOp14
 70
     1
102
RTVSPropertyOp15
 70
     1
102
RTVSPropertyOp16
 70
     1
102
RTVSPropertyOp17
 70
     1
102
RTVSPropertyOp18
 70
     1
102
RTVSPropertyOp19
 70
     1
102
RTVSPropertyOp20
 70
     1
102
RTVSPropertyOp21
 70
     1
102
RTVSPropertyOp22
 70
     1
102
RTVSPropertyOp23
 70
     1
102
RTVSPropertyOp24
 70
     1
102
RTVSPropertyOp25
 70
     1
102
RTVSPropertyOp26
 70
     1
102
RTVSPropertyOp27
 70
     1
102
RTVSPropertyOp28
 70
     1
102
RTVSPropertyOp29
 70
     1
102
RTVSPropertyOp30
 70
     1
102
RTVSPropertyOp31
 70
     1
102
RTVSPropertyOp32
 70
     1
102
RTVSPropertyOp33
 70
     1
102
RTVSPropertyOp34
 70
     1
102
RTVSPropertyOp35
 70
     1
102
RTVSPropertyOp36
 70
     1
102
RTVSPropertyOp37
 70
     1
102
RTVSPropertyOp38
 70
     1
102
RTVSPropertyOp39
 70
     1
102
RTVSPropertyOp40
 70
     1
102
RTVSPropertyOp41
 70
     1
102
RTVSPropertyOp42
 70
     1
102
RTVSPropertyOp43
 70
     1
102
RTVSPropertyOp44
 70
     1
102
RTVSPropertyOp45
 70
     1
102
RTVSPropertyOp46
 70
     1
102
RTVSPropertyOp47
 70
     1
102
RTVSPropertyOp48
 70
     1
102
RTVSPropertyOp49
 70
     1
102
RTVSPropertyOp50
 70
     1
102
RTVSPropertyOp51
 70
     0
102
RTVSPropertyOp52
 70
     0
102
RTVSPropertyOp53
 70
     1
102
RTVSPropertyOp54
 70
     1
102
RTVSPropertyOp55
 70
     1
102
RTVSPropertyOp56
 70
     1
102
RTVSPropertyOp57
 70
     1
102
RTVSPost2010Prop28
280
     0
102
RTVSPost2010PropOp28
 70
     1
102
RTVSPost2010Prop29
280
     1
102
RTVSPost2010PropOp29
 70
     1
102
RTVSPost2010Prop30
280
     1
102
RTVSPost2010PropOp30
 70
     1
102
RTVSPost2010Prop31
280
     0
102
RTVSPost2010PropOp31
 70
     1
102
RTVSPost2010Prop32
280
     0
102
RTVSPost2010PropOp32
 70
     1
102
RTVSPost2010Prop33
280
     0
102
RTVSPost2010PropOp33
 70
     1
102
RTVSPost2010Prop34
280
     0
102
RTVSPost2010PropOp34
 70
     1
102
RTVSPost2010Prop35
280
     0
102
RTVSPost2010PropOp35
 70
     1
102
RTVSPost2010Prop36
280
     0
102
RTVSPost2010PropOp36
 70
     1
102
RTVSPost2010Prop37
 90
       50
102
RTVSPost2010PropOp37
 70
     1
102
RTVSPost2010Prop38
140
0.0
102
RTVSPost2010PropOp38
 70
     1
102
RTVSPost2010Prop39
140
1.0
102
RTVSPost2010PropOp39
 70
     1
102
RTVSPost2010Prop40
 90
        0
102
RTVSPost2010PropOp40
 70
     1
102
RTVSPost2010Prop41ColorIndex
 90
       18
102
RTVSPost2010Prop41ColorRGB
 90
        0
102
RTVSPost2010PropOp41
 70
     1
102
RTVSPost2010Prop42
 90
       50
102
RTVSPost2010PropOp42
 70
     1
102
RTVSPost2010Prop43
 90
        3
102
RTVSPost2010PropOp43
 70
     1
102
RTVSPost2010Prop44ColorIndex
 90
        5
102
RTVSPost2010Prop44ColorRGB
 90
      255
102
RTVSPost2010PropOp44
 70
     1
102
RTVSPost2010Prop45
280
     0
102
RTVSPost2010PropOp45
 70
     1
102
RTVSPost2010Prop46
 90
       50
102
RTVSPost2010PropOp46
 70
     1
102
RTVSPost2010Prop47
 90
       50
102
RTVSPost2010PropOp47
 70
     1
102
RTVSPost2010Prop48
 90
       50
102
RTVSPost2010PropOp48
 70
     1
102
RTVSPost2010Prop49
280
     0
102
RTVSPost2010PropOp49
 70
     1
102
RTVSPost2010Prop50
 90
       50
102
RTVSPost2010PropOp50
 70
     1
102
RTVSPost2010Prop51ColorIndex
 90
      256
102
RTVSPost2010Prop51ColorRGB
 90
-16777216
102
RTVSPost2010PropOp51
 70
     0
102
RTVSPost2010Prop52
140
1.0
102
RTVSPost2010PropOp52
 70
     0
102
RTVSPost2010Prop53
 90
        2
102
RTVSPost2010PropOp53
 70
     1
102
RTVSPost2010Prop54
  1
strokes_ogs.tif
102
RTVSPost2010PropOp54
 70
     1
102
RTVSPost2010Prop55
280
     0
102
RTVSPost2010PropOp55
 70
     1
102
RTVSPost2010Prop56
140
1.0
102
RTVSPost2010PropOp56
 70
     1
102
RTVSPost2010Prop57
140
1.0
102
RTVSPost2010PropOp57
 70
     1
  0
XRECORD
  5
3FC
102
{ACAD_REACTORS
330
3FB
102
}
330
3FB
100
AcDbXrecord
280
     1
102
RTVSPropertyOp0
 70
     1
102
RTVSPropertyOp1
 70
     1
102
RTVSPropertyOp2
 70
     1
102
RTVSPropertyOp3
 70
     1
102
RTVSPropertyOp4
 70
     1
102
RTVSPropertyOp5
 70
     1
102
RTVSPropertyOp6
 70
     1
102
RTVSPropertyOp7
 70
     1
102
RTVSPropertyOp8
 70
     1
102
RTVSPropertyOp9
 70
     1
102
RTVSPropertyOp10
 70
     1
102
RTVSPropertyOp11
 70
     1
102
RTVSPropertyOp12
 70
     1
102
RTVSPropertyOp13
 70
     1
102
RTVSPropertyOp14
 70
     1
102
RTVSPropertyOp15
 70
     1
102
RTVSPropertyOp16
 70
     1
102
RTVSPropertyOp17
 70
     1
102
RTVSPropertyOp18
 70
     1
102
RTVSPropertyOp19
 70
     1
102
RTVSPropertyOp20
 70
     1
102
RTVSPropertyOp21
 70
     1
102
RTVSPropertyOp22
 70
     1
102
RTVSPropertyOp23
 70
     1
102
RTVSPropertyOp24
 70
     1
102
RTVSPropertyOp25
 70
     1
102
RTVSPropertyOp26
 70
     1
102
RTVSPropertyOp27
 70
     1
102
RTVSPropertyOp28
 70
     1
102
RTVSPropertyOp29
 70
     1
102
RTVSPropertyOp30
 70
     1
102
RTVSPropertyOp31
 70
     1
102
RTVSPropertyOp32
 70
     1
102
RTVSPropertyOp33
 70
     1
102
RTVSPropertyOp34
 70
     1
102
RTVSPropertyOp35
 70
     1
102
RTVSPropertyOp36
 70
     1
102
RTVSPropertyOp37
 70
     1
102
RTVSPropertyOp38
 70
     1
102
RTVSPropertyOp39
 70
     1
102
RTVSPropertyOp40
 70
     1
102
RTVSPropertyOp41
 70
     1
102
RTVSPropertyOp42
 70
     1
102
RTVSPropertyOp43
 70
     1
102
RTVSPropertyOp44
 70
     1
102
RTVSPropertyOp45
 70
     1
102
RTVSPropertyOp46
 70
     1
102
RTVSPropertyOp47
 70
     1
102
RTVSPropertyOp48
 70
     1
102
RTVSPropertyOp49
 70
     1
102
RTVSPropertyOp50
 70
     1
102
RTVSPropertyOp51
 70
     0
102
RTVSPropertyOp52
 70
     0
102
RTVSPropertyOp53
 70
     1
102
RTVSPropertyOp54
 70
     1
102
RTVSPropertyOp55
 70
     1
102
RTVSPropertyOp56
 70
     1
102
RTVSPropertyOp57
 70
     1
102
RTVSPost2010Prop28
280
     0
102
RTVSPost2010PropOp28
 70
     1
102
RTVSPost2010Prop29
280
     1
102
RTVSPost2010PropOp29
 70
     1
102
RTVSPost2010Prop30
280
     1
102
RTVSPost2010PropOp30
 70
     1
102
RTVSPost2010Prop31
280
     0
102
RTVSPost2010PropOp31
 70
     1
102
RTVSPost2010Prop32
280
     0
102
RTVSPost2010PropOp32
 70
     1
102
RTVSPost2010Prop33
280
     0
102
RTVSPost2010PropOp33
 70
     1
102
RTVSPost2010Prop34
280
     0
102
RTVSPost2010PropOp34
 70
     1
102
RTVSPost2010Prop35
280
     0
102
RTVSPost2010PropOp35
 70
     1
102
RTVSPost2010Prop36
280
     0
102
RTVSPost2010PropOp36
 70
     1
102
RTVSPost2010Prop37
 90
       50
102
RTVSPost2010PropOp37
 70
     1
102
RTVSPost2010Prop38
140
0.0
102
RTVSPost2010PropOp38
 70
     1
102
RTVSPost2010Prop39
140
1.0
102
RTVSPost2010PropOp39
 70
     1
102
RTVSPost2010Prop40
 90
        0
102
RTVSPost2010PropOp40
 70
     1
102
RTVSPost2010Prop41ColorIndex
 90
       18
102
RTVSPost2010Prop41ColorRGB
 90
        0
102
RTVSPost2010PropOp41
 70
     1
102
RTVSPost2010Prop42
 90
       50
102
RTVSPost2010PropOp42
 70
     1
102
RTVSPost2010Prop43
 90
        3
102
RTVSPost2010PropOp43
 70
     1
102
RTVSPost2010Prop44ColorIndex
 90
        5
102
RTVSPost2010Prop44ColorRGB
 90
      255
102
RTVSPost2010PropOp44
 70
     1
102
RTVSPost2010Prop45
280
     0
102
RTVSPost2010PropOp45
 70
     1
102
RTVSPost2010Prop46
 90
       50
102
RTVSPost2010PropOp46
 70
     1
102
RTVSPost2010Prop47
 90
       50
102
RTVSPost2010PropOp47
 70
     1
102
RTVSPost2010Prop48
 90
       50
102
RTVSPost2010PropOp48
 70
     1
102
RTVSPost2010Prop49
280
     0
102
RTVSPost2010PropOp49
 70
     1
102
RTVSPost2010Prop50
 90
       50
102
RTVSPost2010PropOp50
 70
     1
102
RTVSPost2010Prop51ColorIndex
 90
      256
102
RTVSPost2010Prop51ColorRGB
 90
-16777216
102
RTVSPost2010PropOp51
 70
     0
102
RTVSPost2010Prop52
140
1.0
102
RTVSPost2010PropOp52
 70
     0
102
RTVSPost2010Prop53
 90
        2
102
RTVSPost2010PropOp53
 70
     1
102
RTVSPost2010Prop54
  1
strokes_ogs.tif
102
RTVSPost2010PropOp54
 70
     1
102
RTVSPost2010Prop55
280
     0
102
RTVSPost2010PropOp55
 70
     1
102
RTVSPost2010Prop56
140
1.0
102
RTVSPost2010PropOp56
 70
     1
102
RTVSPost2010Prop57
140
1.0
102
RTVSPost2010PropOp57
 70
     1
  0
XRECORD
  5
3F6
102
{ACAD_REACTORS
330
3F5
102
}
330
3F5
100
AcDbXrecord
280
     1
102
RTVSPropertyOp0
 70
     1
102
RTVSPropertyOp1
 70
     1
102
RTVSPropertyOp2
 70
     1
102
RTVSPropertyOp3
 70
     1
102
RTVSPropertyOp4
 70
     1
102
RTVSPropertyOp5
 70
     1
102
RTVSPropertyOp6
 70
     1
102
RTVSPropertyOp7
 70
     1
102
RTVSPropertyOp8
 70
     1
102
RTVSPropertyOp9
 70
     1
102
RTVSPropertyOp10
 70
     1
102
RTVSPropertyOp11
 70
     1
102
RTVSPropertyOp12
 70
     1
102
RTVSPropertyOp13
 70
     1
102
RTVSPropertyOp14
 70
     1
102
RTVSPropertyOp15
 70
     1
102
RTVSPropertyOp16
 70
     1
102
RTVSPropertyOp17
 70
     1
102
RTVSPropertyOp18
 70
     1
102
RTVSPropertyOp19
 70
     1
102
RTVSPropertyOp20
 70
     1
102
RTVSPropertyOp21
 70
     1
102
RTVSPropertyOp22
 70
     1
102
RTVSPropertyOp23
 70
     1
102
RTVSPropertyOp24
 70
     1
102
RTVSPropertyOp25
 70
     1
102
RTVSPropertyOp26
 70
     1
102
RTVSPropertyOp27
 70
     1
102
RTVSPropertyOp28
 70
     1
102
RTVSPropertyOp29
 70
     1
102
RTVSPropertyOp30
 70
     1
102
RTVSPropertyOp31
 70
     1
102
RTVSPropertyOp32
 70
     1
102
RTVSPropertyOp33
 70
     1
102
RTVSPropertyOp34
 70
     1
102
RTVSPropertyOp35
 70
     1
102
RTVSPropertyOp36
 70
     1
102
RTVSPropertyOp37
 70
     1
102
RTVSPropertyOp38
 70
     1
102
RTVSPropertyOp39
 70
     1
102
RTVSPropertyOp40
 70
     1
102
RTVSPropertyOp41
 70
     1
102
RTVSPropertyOp42
 70
     1
102
RTVSPropertyOp43
 70
     1
102
RTVSPropertyOp44
 70
     1
102
RTVSPropertyOp45
 70
     1
102
RTVSPropertyOp46
 70
     1
102
RTVSPropertyOp47
 70
     1
102
RTVSPropertyOp48
 70
     1
102
RTVSPropertyOp49
 70
     1
102
RTVSPropertyOp50
 70
     1
102
RTVSPropertyOp51
 70
     0
102
RTVSPropertyOp52
 70
     0
102
RTVSPropertyOp53
 70
     1
102
RTVSPropertyOp54
 70
     1
102
RTVSPropertyOp55
 70
     1
102
RTVSPropertyOp56
 70
     1
102
RTVSPropertyOp57
 70
     1
102
RTVSPost2010Prop28
280
     0
102
RTVSPost2010PropOp28
 70
     1
102
RTVSPost2010Prop29
280
     1
102
RTVSPost2010PropOp29
 70
     1
102
RTVSPost2010Prop30
280
     1
102
RTVSPost2010PropOp30
 70
     1
102
RTVSPost2010Prop31
280
     0
102
RTVSPost2010PropOp31
 70
     1
102
RTVSPost2010Prop32
280
     0
102
RTVSPost2010PropOp32
 70
     1
102
RTVSPost2010Prop33
280
     0
102
RTVSPost2010PropOp33
 70
     1
102
RTVSPost2010Prop34
280
     0
102
RTVSPost2010PropOp34
 70
     1
102
RTVSPost2010Prop35
280
     0
102
RTVSPost2010PropOp35
 70
     1
102
RTVSPost2010Prop36
280
     0
102
RTVSPost2010PropOp36
 70
     1
102
RTVSPost2010Prop37
 90
       50
102
RTVSPost2010PropOp37
 70
     1
102
RTVSPost2010Prop38
140
0.0
102
RTVSPost2010PropOp38
 70
     1
102
RTVSPost2010Prop39
140
1.0
102
RTVSPost2010PropOp39
 70
     1
102
RTVSPost2010Prop40
 90
        0
102
RTVSPost2010PropOp40
 70
     1
102
RTVSPost2010Prop41ColorIndex
 90
       18
102
RTVSPost2010Prop41ColorRGB
 90
        0
102
RTVSPost2010PropOp41
 70
     1
102
RTVSPost2010Prop42
 90
       50
102
RTVSPost2010PropOp42
 70
     1
102
RTVSPost2010Prop43
 90
        3
102
RTVSPost2010PropOp43
 70
     1
102
RTVSPost2010Prop44ColorIndex
 90
        5
102
RTVSPost2010Prop44ColorRGB
 90
      255
102
RTVSPost2010PropOp44
 70
     1
102
RTVSPost2010Prop45
280
     0
102
RTVSPost2010PropOp45
 70
     1
102
RTVSPost2010Prop46
 90
       50
102
RTVSPost2010PropOp46
 70
     1
102
RTVSPost2010Prop47
 90
       50
102
RTVSPost2010PropOp47
 70
     1
102
RTVSPost2010Prop48
 90
       50
102
RTVSPost2010PropOp48
 70
     1
102
RTVSPost2010Prop49
280
     0
102
RTVSPost2010PropOp49
 70
     1
102
RTVSPost2010Prop50
 90
       50
102
RTVSPost2010PropOp50
 70
     1
102
RTVSPost2010Prop51ColorIndex
 90
      256
102
RTVSPost2010Prop51ColorRGB
 90
-16777216
102
RTVSPost2010PropOp51
 70
     0
102
RTVSPost2010Prop52
140
1.0
102
RTVSPost2010PropOp52
 70
     0
102
RTVSPost2010Prop53
 90
        2
102
RTVSPost2010PropOp53
 70
     1
102
RTVSPost2010Prop54
  1
strokes_ogs.tif
102
RTVSPost2010PropOp54
 70
     1
102
RTVSPost2010Prop55
280
     0
102
RTVSPost2010PropOp55
 70
     1
102
RTVSPost2010Prop56
140
1.0
102
RTVSPost2010PropOp56
 70
     1
102
RTVSPost2010Prop57
140
1.0
102
RTVSPost2010PropOp57
 70
     1
  0
XRECORD
  5
3F8
102
{ACAD_REACTORS
330
3F7
102
}
330
3F7
100
AcDbXrecord
280
     1
102
RTVSPropertyOp0
 70
     1
102
RTVSPropertyOp1
 70
     1
102
RTVSPropertyOp2
 70
     1
102
RTVSPropertyOp3
 70
     1
102
RTVSPropertyOp4
 70
     1
102
RTVSPropertyOp5
 70
     1
102
RTVSPropertyOp6
 70
     1
102
RTVSPropertyOp7
 70
     1
102
RTVSPropertyOp8
 70
     1
102
RTVSPropertyOp9
 70
     1
102
RTVSPropertyOp10
 70
     1
102
RTVSPropertyOp11
 70
     1
102
RTVSPropertyOp12
 70
     1
102
RTVSPropertyOp13
 70
     1
102
RTVSPropertyOp14
 70
     1
102
RTVSPropertyOp15
 70
     1
102
RTVSPropertyOp16
 70
     1
102
RTVSPropertyOp17
 70
     1
102
RTVSPropertyOp18
 70
     1
102
RTVSPropertyOp19
 70
     1
102
RTVSPropertyOp20
 70
     1
102
RTVSPropertyOp21
 70
     1
102
RTVSPropertyOp22
 70
     1
102
RTVSPropertyOp23
 70
     1
102
RTVSPropertyOp24
 70
     1
102
RTVSPropertyOp25
 70
     1
102
RTVSPropertyOp26
 70
     1
102
RTVSPropertyOp27
 70
     1
102
RTVSPropertyOp28
 70
     1
102
RTVSPropertyOp29
 70
     1
102
RTVSPropertyOp30
 70
     1
102
RTVSPropertyOp31
 70
     1
102
RTVSPropertyOp32
 70
     1
102
RTVSPropertyOp33
 70
     1
102
RTVSPropertyOp34
 70
     1
102
RTVSPropertyOp35
 70
     1
102
RTVSPropertyOp36
 70
     1
102
RTVSPropertyOp37
 70
     1
102
RTVSPropertyOp38
 70
     1
102
RTVSPropertyOp39
 70
     1
102
RTVSPropertyOp40
 70
     1
102
RTVSPropertyOp41
 70
     1
102
RTVSPropertyOp42
 70
     1
102
RTVSPropertyOp43
 70
     1
102
RTVSPropertyOp44
 70
     1
102
RTVSPropertyOp45
 70
     1
102
RTVSPropertyOp46
 70
     1
102
RTVSPropertyOp47
 70
     1
102
RTVSPropertyOp48
 70
     1
102
RTVSPropertyOp49
 70
     1
102
RTVSPropertyOp50
 70
     1
102
RTVSPropertyOp51
 70
     0
102
RTVSPropertyOp52
 70
     0
102
RTVSPropertyOp53
 70
     1
102
RTVSPropertyOp54
 70
     1
102
RTVSPropertyOp55
 70
     1
102
RTVSPropertyOp56
 70
     1
102
RTVSPropertyOp57
 70
     1
102
RTVSPost2010Prop28
280
     0
102
RTVSPost2010PropOp28
 70
     1
102
RTVSPost2010Prop29
280
     1
102
RTVSPost2010PropOp29
 70
     1
102
RTVSPost2010Prop30
280
     1
102
RTVSPost2010PropOp30
 70
     1
102
RTVSPost2010Prop31
280
     0
102
RTVSPost2010PropOp31
 70
     1
102
RTVSPost2010Prop32
280
     0
102
RTVSPost2010PropOp32
 70
     1
102
RTVSPost2010Prop33
280
     0
102
RTVSPost2010PropOp33
 70
     1
102
RTVSPost2010Prop34
280
     0
102
RTVSPost2010PropOp34
 70
     1
102
RTVSPost2010Prop35
280
     0
102
RTVSPost2010PropOp35
 70
     1
102
RTVSPost2010Prop36
280
     0
102
RTVSPost2010PropOp36
 70
     1
102
RTVSPost2010Prop37
 90
       50
102
RTVSPost2010PropOp37
 70
     1
102
RTVSPost2010Prop38
140
0.0
102
RTVSPost2010PropOp38
 70
     1
102
RTVSPost2010Prop39
140
1.0
102
RTVSPost2010PropOp39
 70
     1
102
RTVSPost2010Prop40
 90
        0
102
RTVSPost2010PropOp40
 70
     1
102
RTVSPost2010Prop41ColorIndex
 90
       18
102
RTVSPost2010Prop41ColorRGB
 90
        0
102
RTVSPost2010PropOp41
 70
     1
102
RTVSPost2010Prop42
 90
       50
102
RTVSPost2010PropOp42
 70
     1
102
RTVSPost2010Prop43
 90
        3
102
RTVSPost2010PropOp43
 70
     1
102
RTVSPost2010Prop44ColorIndex
 90
        5
102
RTVSPost2010Prop44ColorRGB
 90
      255
102
RTVSPost2010PropOp44
 70
     1
102
RTVSPost2010Prop45
280
     0
102
RTVSPost2010PropOp45
 70
     1
102
RTVSPost2010Prop46
 90
       50
102
RTVSPost2010PropOp46
 70
     1
102
RTVSPost2010Prop47
 90
       50
102
RTVSPost2010PropOp47
 70
     1
102
RTVSPost2010Prop48
 90
       50
102
RTVSPost2010PropOp48
 70
     1
102
RTVSPost2010Prop49
280
     0
102
RTVSPost2010PropOp49
 70
     1
102
RTVSPost2010Prop50
 90
       50
102
RTVSPost2010PropOp50
 70
     1
102
RTVSPost2010Prop51ColorIndex
 90
      256
102
RTVSPost2010Prop51ColorRGB
 90
-16777216
102
RTVSPost2010PropOp51
 70
     0
102
RTVSPost2010Prop52
140
1.0
102
RTVSPost2010PropOp52
 70
     0
102
RTVSPost2010Prop53
 90
        2
102
RTVSPost2010PropOp53
 70
     1
102
RTVSPost2010Prop54
  1
strokes_ogs.tif
102
RTVSPost2010PropOp54
 70
     1
102
RTVSPost2010Prop55
280
     0
102
RTVSPost2010PropOp55
 70
     1
102
RTVSPost2010Prop56
140
1.0
102
RTVSPost2010PropOp56
 70
     1
102
RTVSPost2010Prop57
140
1.0
102
RTVSPost2010PropOp57
 70
     1
  0
XRECORD
  5
3E8
102
{ACAD_REACTORS
330
3E7
102
}
330
3E7
100
AcDbXrecord
280
     1
102
RTVSPropertyOp0
 70
     1
102
RTVSPropertyOp1
 70
     1
102
RTVSPropertyOp2
 70
     1
102
RTVSPropertyOp3
 70
     1
102
RTVSPropertyOp4
 70
     1
102
RTVSPropertyOp5
 70
     1
102
RTVSPropertyOp6
 70
     1
102
RTVSPropertyOp7
 70
     1
102
RTVSPropertyOp8
 70
     1
102
RTVSPropertyOp9
 70
     1
102
RTVSPropertyOp10
 70
     1
102
RTVSPropertyOp11
 70
     1
102
RTVSPropertyOp12
 70
     1
102
RTVSPropertyOp13
 70
     1
102
RTVSPropertyOp14
 70
     1
102
RTVSPropertyOp15
 70
     1
102
RTVSPropertyOp16
 70
     1
102
RTVSPropertyOp17
 70
     1
102
RTVSPropertyOp18
 70
     1
102
RTVSPropertyOp19
 70
     1
102
RTVSPropertyOp20
 70
     1
102
RTVSPropertyOp21
 70
     1
102
RTVSPropertyOp22
 70
     1
102
RTVSPropertyOp23
 70
     1
102
RTVSPropertyOp24
 70
     1
102
RTVSPropertyOp25
 70
     1
102
RTVSPropertyOp26
 70
     1
102
RTVSPropertyOp27
 70
     1
102
RTVSPropertyOp28
 70
     1
102
RTVSPropertyOp29
 70
     1
102
RTVSPropertyOp30
 70
     1
102
RTVSPropertyOp31
 70
     1
102
RTVSPropertyOp32
 70
     1
102
RTVSPropertyOp33
 70
     1
102
RTVSPropertyOp34
 70
     1
102
RTVSPropertyOp35
 70
     1
102
RTVSPropertyOp36
 70
     1
102
RTVSPropertyOp37
 70
     1
102
RTVSPropertyOp38
 70
     1
102
RTVSPropertyOp39
 70
     1
102
RTVSPropertyOp40
 70
     1
102
RTVSPropertyOp41
 70
     1
102
RTVSPropertyOp42
 70
     1
102
RTVSPropertyOp43
 70
     1
102
RTVSPropertyOp44
 70
     1
102
RTVSPropertyOp45
 70
     1
102
RTVSPropertyOp46
 70
     1
102
RTVSPropertyOp47
 70
     1
102
RTVSPropertyOp48
 70
     1
102
RTVSPropertyOp49
 70
     1
102
RTVSPropertyOp50
 70
     1
102
RTVSPropertyOp51
 70
     0
102
RTVSPropertyOp52
 70
     0
102
RTVSPropertyOp53
 70
     1
102
RTVSPropertyOp54
 70
     1
102
RTVSPropertyOp55
 70
     1
102
RTVSPropertyOp56
 70
     1
102
RTVSPropertyOp57
 70
     1
102
RTVSPost2010Prop28
280
     0
102
RTVSPost2010PropOp28
 70
     1
102
RTVSPost2010Prop29
280
     1
102
RTVSPost2010PropOp29
 70
     1
102
RTVSPost2010Prop30
280
     1
102
RTVSPost2010PropOp30
 70
     1
102
RTVSPost2010Prop31
280
     0
102
RTVSPost2010PropOp31
 70
     1
102
RTVSPost2010Prop32
280
     0
102
RTVSPost2010PropOp32
 70
     1
102
RTVSPost2010Prop33
280
     0
102
RTVSPost2010PropOp33
 70
     1
102
RTVSPost2010Prop34
280
     0
102
RTVSPost2010PropOp34
 70
     1
102
RTVSPost2010Prop35
280
     0
102
RTVSPost2010PropOp35
 70
     1
102
RTVSPost2010Prop36
280
     0
102
RTVSPost2010PropOp36
 70
     1
102
RTVSPost2010Prop37
 90
       50
102
RTVSPost2010PropOp37
 70
     1
102
RTVSPost2010Prop38
140
0.0
102
RTVSPost2010PropOp38
 70
     1
102
RTVSPost2010Prop39
140
1.0
102
RTVSPost2010PropOp39
 70
     1
102
RTVSPost2010Prop40
 90
        0
102
RTVSPost2010PropOp40
 70
     1
102
RTVSPost2010Prop41ColorIndex
 90
       18
102
RTVSPost2010Prop41ColorRGB
 90
        0
102
RTVSPost2010PropOp41
 70
     1
102
RTVSPost2010Prop42
 90
       50
102
RTVSPost2010PropOp42
 70
     1
102
RTVSPost2010Prop43
 90
        3
102
RTVSPost2010PropOp43
 70
     1
102
RTVSPost2010Prop44ColorIndex
 90
        5
102
RTVSPost2010Prop44ColorRGB
 90
      255
102
RTVSPost2010PropOp44
 70
     1
102
RTVSPost2010Prop45
280
     0
102
RTVSPost2010PropOp45
 70
     1
102
RTVSPost2010Prop46
 90
       50
102
RTVSPost2010PropOp46
 70
     1
102
RTVSPost2010Prop47
 90
       50
102
RTVSPost2010PropOp47
 70
     1
102
RTVSPost2010Prop48
 90
       50
102
RTVSPost2010PropOp48
 70
     1
102
RTVSPost2010Prop49
280
     0
102
RTVSPost2010PropOp49
 70
     1
102
RTVSPost2010Prop50
 90
       50
102
RTVSPost2010PropOp50
 70
     1
102
RTVSPost2010Prop51ColorIndex
 90
      256
102
RTVSPost2010Prop51ColorRGB
 90
-16777216
102
RTVSPost2010PropOp51
 70
     0
102
RTVSPost2010Prop52
140
1.0
102
RTVSPost2010PropOp52
 70
     0
102
RTVSPost2010Prop53
 90
        2
102
RTVSPost2010PropOp53
 70
     1
102
RTVSPost2010Prop54
  1
strokes_ogs.tif
102
RTVSPost2010PropOp54
 70
     1
102
RTVSPost2010Prop55
280
     0
102
RTVSPost2010PropOp55
 70
     1
102
RTVSPost2010Prop56
140
1.0
102
RTVSPost2010PropOp56
 70
     1
102
RTVSPost2010Prop57
140
1.0
102
RTVSPost2010PropOp57
 70
     1
  0
XRECORD
  5
3DA
102
{ACAD_REACTORS
330
3D9
102
}
330
3D9
100
AcDbXrecord
280
     1
102
RTVSPropertyOp0
 70
     1
102
RTVSPropertyOp1
 70
     1
102
RTVSPropertyOp2
 70
     1
102
RTVSPropertyOp3
 70
     1
102
RTVSPropertyOp4
 70
     1
102
RTVSPropertyOp5
 70
     1
102
RTVSPropertyOp6
 70
     1
102
RTVSPropertyOp7
 70
     1
102
RTVSPropertyOp8
 70
     1
102
RTVSPropertyOp9
 70
     1
102
RTVSPropertyOp10
 70
     1
102
RTVSPropertyOp11
 70
     1
102
RTVSPropertyOp12
 70
     1
102
RTVSPropertyOp13
 70
     1
102
RTVSPropertyOp14
 70
     1
102
RTVSPropertyOp15
 70
     1
102
RTVSPropertyOp16
 70
     1
102
RTVSPropertyOp17
 70
     1
102
RTVSPropertyOp18
 70
     1
102
RTVSPropertyOp19
 70
     1
102
RTVSPropertyOp20
 70
     1
102
RTVSPropertyOp21
 70
     1
102
RTVSPropertyOp22
 70
     1
102
RTVSPropertyOp23
 70
     1
102
RTVSPropertyOp24
 70
     1
102
RTVSPropertyOp25
 70
     1
102
RTVSPropertyOp26
 70
     1
102
RTVSPropertyOp27
 70
     1
102
RTVSPropertyOp28
 70
     1
102
RTVSPropertyOp29
 70
     1
102
RTVSPropertyOp30
 70
     1
102
RTVSPropertyOp31
 70
     1
102
RTVSPropertyOp32
 70
     1
102
RTVSPropertyOp33
 70
     1
102
RTVSPropertyOp34
 70
     1
102
RTVSPropertyOp35
 70
     1
102
RTVSPropertyOp36
 70
     1
102
RTVSPropertyOp37
 70
     1
102
RTVSPropertyOp38
 70
     1
102
RTVSPropertyOp39
 70
     1
102
RTVSPropertyOp40
 70
     1
102
RTVSPropertyOp41
 70
     1
102
RTVSPropertyOp42
 70
     1
102
RTVSPropertyOp43
 70
     1
102
RTVSPropertyOp44
 70
     1
102
RTVSPropertyOp45
 70
     1
102
RTVSPropertyOp46
 70
     1
102
RTVSPropertyOp47
 70
     1
102
RTVSPropertyOp48
 70
     1
102
RTVSPropertyOp49
 70
     1
102
RTVSPropertyOp50
 70
     1
102
RTVSPropertyOp51
 70
     0
102
RTVSPropertyOp52
 70
     0
102
RTVSPropertyOp53
 70
     1
102
RTVSPropertyOp54
 70
     1
102
RTVSPropertyOp55
 70
     1
102
RTVSPropertyOp56
 70
     1
102
RTVSPropertyOp57
 70
     1
102
RTVSPost2010Prop28
280
     0
102
RTVSPost2010PropOp28
 70
     1
102
RTVSPost2010Prop29
280
     1
102
RTVSPost2010PropOp29
 70
     1
102
RTVSPost2010Prop30
280
     1
102
RTVSPost2010PropOp30
 70
     1
102
RTVSPost2010Prop31
280
     0
102
RTVSPost2010PropOp31
 70
     1
102
RTVSPost2010Prop32
280
     0
102
RTVSPost2010PropOp32
 70
     1
102
RTVSPost2010Prop33
280
     0
102
RTVSPost2010PropOp33
 70
     1
102
RTVSPost2010Prop34
280
     0
102
RTVSPost2010PropOp34
 70
     1
102
RTVSPost2010Prop35
280
     0
102
RTVSPost2010PropOp35
 70
     1
102
RTVSPost2010Prop36
280
     0
102
RTVSPost2010PropOp36
 70
     1
102
RTVSPost2010Prop37
 90
       50
102
RTVSPost2010PropOp37
 70
     1
102
RTVSPost2010Prop38
140
0.0
102
RTVSPost2010PropOp38
 70
     1
102
RTVSPost2010Prop39
140
1.0
102
RTVSPost2010PropOp39
 70
     1
102
RTVSPost2010Prop40
 90
        0
102
RTVSPost2010PropOp40
 70
     1
102
RTVSPost2010Prop41ColorIndex
 90
       18
102
RTVSPost2010Prop41ColorRGB
 90
        0
102
RTVSPost2010PropOp41
 70
     1
102
RTVSPost2010Prop42
 90
       50
102
RTVSPost2010PropOp42
 70
     1
102
RTVSPost2010Prop43
 90
        3
102
RTVSPost2010PropOp43
 70
     1
102
RTVSPost2010Prop44ColorIndex
 90
        5
102
RTVSPost2010Prop44ColorRGB
 90
      255
102
RTVSPost2010PropOp44
 70
     1
102
RTVSPost2010Prop45
280
     0
102
RTVSPost2010PropOp45
 70
     1
102
RTVSPost2010Prop46
 90
       50
102
RTVSPost2010PropOp46
 70
     1
102
RTVSPost2010Prop47
 90
       50
102
RTVSPost2010PropOp47
 70
     1
102
RTVSPost2010Prop48
 90
       50
102
RTVSPost2010PropOp48
 70
     1
102
RTVSPost2010Prop49
280
     0
102
RTVSPost2010PropOp49
 70
     1
102
RTVSPost2010Prop50
 90
       50
102
RTVSPost2010PropOp50
 70
     1
102
RTVSPost2010Prop51ColorIndex
 90
      256
102
RTVSPost2010Prop51ColorRGB
 90
-16777216
102
RTVSPost2010PropOp51
 70
     0
102
RTVSPost2010Prop52
140
1.0
102
RTVSPost2010PropOp52
 70
     0
102
RTVSPost2010Prop53
 90
        2
102
RTVSPost2010PropOp53
 70
     1
102
RTVSPost2010Prop54
  1
strokes_ogs.tif
102
RTVSPost2010PropOp54
 70
     1
102
RTVSPost2010Prop55
280
     0
102
RTVSPost2010PropOp55
 70
     1
102
RTVSPost2010Prop56
140
1.0
102
RTVSPost2010PropOp56
 70
     1
102
RTVSPost2010Prop57
140
1.0
102
RTVSPost2010PropOp57
 70
     1
  0
XRECORD
  5
3FA
102
{ACAD_REACTORS
330
3F9
102
}
330
3F9
100
AcDbXrecord
280
     1
102
RTVSPropertyOp0
 70
     1
102
RTVSPropertyOp1
 70
     1
102
RTVSPropertyOp2
 70
     1
102
RTVSPropertyOp3
 70
     1
102
RTVSPropertyOp4
 70
     1
102
RTVSPropertyOp5
 70
     1
102
RTVSPropertyOp6
 70
     1
102
RTVSPropertyOp7
 70
     1
102
RTVSPropertyOp8
 70
     1
102
RTVSPropertyOp9
 70
     1
102
RTVSPropertyOp10
 70
     1
102
RTVSPropertyOp11
 70
     1
102
RTVSPropertyOp12
 70
     1
102
RTVSPropertyOp13
 70
     1
102
RTVSPropertyOp14
 70
     1
102
RTVSPropertyOp15
 70
     1
102
RTVSPropertyOp16
 70
     1
102
RTVSPropertyOp17
 70
     1
102
RTVSPropertyOp18
 70
     1
102
RTVSPropertyOp19
 70
     1
102
RTVSPropertyOp20
 70
     1
102
RTVSPropertyOp21
 70
     1
102
RTVSPropertyOp22
 70
     1
102
RTVSPropertyOp23
 70
     1
102
RTVSPropertyOp24
 70
     1
102
RTVSPropertyOp25
 70
     1
102
RTVSPropertyOp26
 70
     1
102
RTVSPropertyOp27
 70
     1
102
RTVSPropertyOp28
 70
     1
102
RTVSPropertyOp29
 70
     1
102
RTVSPropertyOp30
 70
     1
102
RTVSPropertyOp31
 70
     1
102
RTVSPropertyOp32
 70
     1
102
RTVSPropertyOp33
 70
     1
102
RTVSPropertyOp34
 70
     1
102
RTVSPropertyOp35
 70
     1
102
RTVSPropertyOp36
 70
     1
102
RTVSPropertyOp37
 70
     1
102
RTVSPropertyOp38
 70
     1
102
RTVSPropertyOp39
 70
     1
102
RTVSPropertyOp40
 70
     1
102
RTVSPropertyOp41
 70
     1
102
RTVSPropertyOp42
 70
     1
102
RTVSPropertyOp43
 70
     1
102
RTVSPropertyOp44
 70
     1
102
RTVSPropertyOp45
 70
     1
102
RTVSPropertyOp46
 70
     1
102
RTVSPropertyOp47
 70
     1
102
RTVSPropertyOp48
 70
     1
102
RTVSPropertyOp49
 70
     1
102
RTVSPropertyOp50
 70
     1
102
RTVSPropertyOp51
 70
     0
102
RTVSPropertyOp52
 70
     0
102
RTVSPropertyOp53
 70
     1
102
RTVSPropertyOp54
 70
     1
102
RTVSPropertyOp55
 70
     1
102
RTVSPropertyOp56
 70
     1
102
RTVSPropertyOp57
 70
     1
102
RTVSPost2010Prop28
280
     0
102
RTVSPost2010PropOp28
 70
     1
102
RTVSPost2010Prop29
280
     1
102
RTVSPost2010PropOp29
 70
     1
102
RTVSPost2010Prop30
280
     1
102
RTVSPost2010PropOp30
 70
     1
102
RTVSPost2010Prop31
280
     0
102
RTVSPost2010PropOp31
 70
     1
102
RTVSPost2010Prop32
280
     0
102
RTVSPost2010PropOp32
 70
     1
102
RTVSPost2010Prop33
280
     0
102
RTVSPost2010PropOp33
 70
     1
102
RTVSPost2010Prop34
280
     0
102
RTVSPost2010PropOp34
 70
     1
102
RTVSPost2010Prop35
280
     0
102
RTVSPost2010PropOp35
 70
     1
102
RTVSPost2010Prop36
280
     0
102
RTVSPost2010PropOp36
 70
     1
102
RTVSPost2010Prop37
 90
       50
102
RTVSPost2010PropOp37
 70
     1
102
RTVSPost2010Prop38
140
0.0
102
RTVSPost2010PropOp38
 70
     1
102
RTVSPost2010Prop39
140
1.0
102
RTVSPost2010PropOp39
 70
     1
102
RTVSPost2010Prop40
 90
        0
102
RTVSPost2010PropOp40
 70
     1
102
RTVSPost2010Prop41ColorIndex
 90
       18
102
RTVSPost2010Prop41ColorRGB
 90
        0
102
RTVSPost2010PropOp41
 70
     1
102
RTVSPost2010Prop42
 90
       50
102
RTVSPost2010PropOp42
 70
     1
102
RTVSPost2010Prop43
 90
        3
102
RTVSPost2010PropOp43
 70
     1
102
RTVSPost2010Prop44ColorIndex
 90
        5
102
RTVSPost2010Prop44ColorRGB
 90
      255
102
RTVSPost2010PropOp44
 70
     1
102
RTVSPost2010Prop45
280
     0
102
RTVSPost2010PropOp45
 70
     1
102
RTVSPost2010Prop46
 90
       50
102
RTVSPost2010PropOp46
 70
     1
102
RTVSPost2010Prop47
 90
       50
102
RTVSPost2010PropOp47
 70
     1
102
RTVSPost2010Prop48
 90
       50
102
RTVSPost2010PropOp48
 70
     1
102
RTVSPost2010Prop49
280
     0
102
RTVSPost2010PropOp49
 70
     1
102
RTVSPost2010Prop50
 90
       50
102
RTVSPost2010PropOp50
 70
     1
102
RTVSPost2010Prop51ColorIndex
 90
      256
102
RTVSPost2010Prop51ColorRGB
 90
-16777216
102
RTVSPost2010PropOp51
 70
     0
102
RTVSPost2010Prop52
140
1.0
102
RTVSPost2010PropOp52
 70
     0
102
RTVSPost2010Prop53
 90
        2
102
RTVSPost2010PropOp53
 70
     1
102
RTVSPost2010Prop54
  1
strokes_ogs.tif
102
RTVSPost2010PropOp54
 70
     1
102
RTVSPost2010Prop55
280
     0
102
RTVSPost2010PropOp55
 70
     1
102
RTVSPost2010Prop56
140
1.0
102
RTVSPost2010PropOp56
 70
     1
102
RTVSPost2010Prop57
140
1.0
102
RTVSPost2010PropOp57
 70
     1
  0
ENDSEC
  0
EOF
