  0
SECTION
  2
HEADER
  9
$ACADVER
  1
AC1018
  9
$ACADMAINTVER
 70
     0
  9
$DWGCODEPAGE
  3
ANSI_932
  9
$INSBASE
 10
0.0
 20
0.0
 30
0.0
  9
$EXTMIN
 10
-840.0
 20
-594.0
 30
0.0
  9
$EXTMAX
 10
840.0
 20
594.0
 30
0.0
  9
$LIMMIN
 10
-840.0
 20
-594.0
  9
$LIMMAX
 10
840.0
 20
594.0
  9
$ORTHOMODE
 70
     0
  9
$REGENMODE
 70
     1
  9
$FILLMODE
 70
     1
  9
$QTEXTMODE
 70
     0
  9
$MIRRTEXT
 70
     1
  9
$LTSCALE
 40
4.0
  9
$ATTMODE
 70
     1
  9
$TEXTSIZE
 40
2.5
  9
$TRACEWID
 40
1.0
  9
$TEXTSTYLE
  7
Standard
  9
$CLAYER
  8
0
  9
$CELTYPE
  6
ByLayer
  9
$CECOLOR
 62
   256
  9
$CELTSCALE
 40
1.0
  9
$DISPSILH
 70
     0
  9
$DIMSCALE
 40
1.0
  9
$DIMASZ
 40
2.5
  9
$DIMEXO
 40
0.625
  9
$DIMDLI
 40
3.75
  9
$DIMRND
 40
0.0
  9
$DIMDLE
 40
0.0
  9
$DIMEXE
 40
1.25
  9
$DIMTP
 40
0.0
  9
$DIMTM
 40
0.0
  9
$DIMTXT
 40
2.5
  9
$DIMCEN
 40
2.5
  9
$DIMTSZ
 40
0.0
  9
$DIMTOL
 70
     0
  9
$DIMLIM
 70
     0
  9
$DIMTIH
 70
     0
  9
$DIMTOH
 70
     0
  9
$DIMSE1
 70
     0
  9
$DIMSE2
 70
     0
  9
$DIMTAD
 70
     1
  9
$DIMZIN
 70
     8
  9
$DIMBLK
  1

  9
$DIMASO
 70
     1
  9
$DIMSHO
 70
     1
  9
$DIMPOST
  1

  9
$DIMAPOST
  1

  9
$DIMALT
 70
     0
  9
$DIMALTD
 70
     3
  9
$DIMALTF
 40
0.03937007874016
  9
$DIMLFAC
 40
1.0
  9
$DIMTOFL
 70
     1
  9
$DIMTVP
 40
0.0
  9
$DIMTIX
 70
     0
  9
$DIMSOXD
 70
     0
  9
$DIMSAH
 70
     0
  9
$DIMBLK1
  1

  9
$DIMBLK2
  1

  9
$DIMSTYLE
  2
ISO-25
  9
$DIMCLRD
 70
     0
  9
$DIMCLRE
 70
     0
  9
$DIMCLRT
 70
     0
  9
$DIMTFAC
 40
1.0
  9
$DIMGAP
 40
0.625
  9
$DIMJUST
 70
     0
  9
$DIMSD1
 70
     0
  9
$DIMSD2
 70
     0
  9
$DIMTOLJ
 70
     0
  9
$DIMTZIN
 70
     8
  9
$DIMALTZ
 70
     0
  9
$DIMALTTZ
 70
     0
  9
$DIMUPT
 70
     0
  9
$DIMDEC
 70
     2
  9
$DIMTDEC
 70
     2
  9
$DIMALTU
 70
     2
  9
$DIMALTTD
 70
     3
  9
$DIMTXSTY
  7
Standard
  9
$DIMAUNIT
 70
     0
  9
$DIMADEC
 70
     0
  9
$DIMALTRND
 40
0.0
  9
$DIMAZIN
 70
     0
  9
$DIMDSEP
 70
    44
  9
$DIMATFIT
 70
     3
  9
$DIMFRAC
 70
     0
  9
$DIMLDRBLK
  1

  9
$DIMLUNIT
 70
     2
  9
$DIMLWD
 70
    -2
  9
$DIMLWE
 70
    -2
  9
$DIMTMOVE
 70
     0
  9
$LUNITS
 70
     2
  9
$LUPREC
 70
     4
  9
$SKETCHINC
 40
1.0
  9
$FILLETRAD
 40
10.0
  9
$AUNITS
 70
     0
  9
$AUPREC
 70
     0
  9
$MENU
  1
.
  9
$ELEVATION
 40
0.0
  9
$PELEVATION
 40
0.0
  9
$THICKNESS
 40
0.0
  9
$LIMCHECK
 70
     0
  9
$CHAMFERA
 40
0.0
  9
$CHAMFERB
 40
0.0
  9
$CHAMFERC
 40
0.0
  9
$CHAMFERD
 40
0.0
  9
$SKPOLY
 70
     0
  9
$TDCREATE
 40
2460095.727958727
  9
$TDUCREATE
 40
2460095.352958727
  9
$TDUPDATE
 40
2460095.727958889
  9
$TDUUPDATE
 40
2460095.352958889
  9
$TDINDWG
 40
0.0000000116
  9
$TDUSRTIMER
 40
0.0000000116
  9
$USRTIMER
 70
     1
  9
$ANGBASE
 50
0.0
  9
$ANGDIR
 70
     0
  9
$PDMODE
 70
     0
  9
$PDSIZE
 40
0.0
  9
$PLINEWID
 40
0.0
  9
$SPLFRAME
 70
     0
  9
$SPLINETYPE
 70
     6
  9
$SPLINESEGS
 70
     8
  9
$HANDSEED
  5
408
  9
$SURFTAB1
 70
     6
  9
$SURFTAB2
 70
     6
  9
$SURFTYPE
 70
     6
  9
$SURFU
 70
     6
  9
$SURFV
 70
     6
  9
$UCSBASE
  2

  9
$UCSNAME
  2

  9
$UCSORG
 10
0.0
 20
0.0
 30
0.0
  9
$UCSXDIR
 10
1.0
 20
0.0
 30
0.0
  9
$UCSYDIR
 10
0.0
 20
1.0
 30
0.0
  9
$UCSORTHOREF
  2

  9
$UCSORTHOVIEW
 70
     0
  9
$UCSORGTOP
 10
0.0
 20
0.0
 30
0.0
  9
$UCSORGBOTTOM
 10
0.0
 20
0.0
 30
0.0
  9
$UCSORGLEFT
 10
0.0
 20
0.0
 30
0.0
  9
$UCSORGRIGHT
 10
0.0
 20
0.0
 30
0.0
  9
$UCSORGFRONT
 10
0.0
 20
0.0
 30
0.0
  9
$UCSORGBACK
 10
0.0
 20
0.0
 30
0.0
  9
$PUCSBASE
  2

  9
$PUCSNAME
  2

  9
$PUCSORG
 10
0.0
 20
0.0
 30
0.0
  9
$PUCSXDIR
 10
1.0
 20
0.0
 30
0.0
  9
$PUCSYDIR
 10
0.0
 20
1.0
 30
0.0
  9
$PUCSORTHOREF
  2

  9
$PUCSORTHOVIEW
 70
     0
  9
$PUCSORGTOP
 10
0.0
 20
0.0
 30
0.0
  9
$PUCSORGBOTTOM
 10
0.0
 20
0.0
 30
0.0
  9
$PUCSORGLEFT
 10
0.0
 20
0.0
 30
0.0
  9
$PUCSORGRIGHT
 10
0.0
 20
0.0
 30
0.0
  9
$PUCSORGFRONT
 10
0.0
 20
0.0
 30
0.0
  9
$PUCSORGBACK
 10
0.0
 20
0.0
 30
0.0
  9
$USERI1
 70
     0
  9
$USERI2
 70
     0
  9
$USERI3
 70
     0
  9
$USERI4
 70
     0
  9
$USERI5
 70
     0
  9
$USERR1
 40
0.0
  9
$USERR2
 40
0.0
  9
$USERR3
 40
0.0
  9
$USERR4
 40
0.0
  9
$USERR5
 40
0.0
  9
$WORLDVIEW
 70
     1
  9
$SHADEDGE
 70
     3
  9
$SHADEDIF
 70
    70
  9
$TILEMODE
 70
     1
  9
$MAXACTVP
 70
    64
  9
$PINSBASE
 10
0.0
 20
0.0
 30
0.0
  9
$PLIMCHECK
 70
     0
  9
$PEXTMIN
 10
1.000000000000000E+20
 20
1.000000000000000E+20
 30
1.000000000000000E+20
  9
$PEXTMAX
 10
-1.000000000000000E+20
 20
-1.000000000000000E+20
 30
-1.000000000000000E+20
  9
$PLIMMIN
 10
0.0
 20
0.0
  9
$PLIMMAX
 10
420.0
 20
297.0
  9
$UNITMODE
 70
     0
  9
$VISRETAIN
 70
     1
  9
$PLINEGEN
 70
     0
  9
$PSLTSCALE
 70
     1
  9
$TREEDEPTH
 70
  3020
  9
$CMLSTYLE
  2
Standard
  9
$CMLJUST
 70
     0
  9
$CMLSCALE
 40
20.0
  9
$PROXYGRAPHICS
 70
     1
  9
$MEASUREMENT
 70
     1
  9
$CELWEIGHT
370
    -1
  9
$ENDCAPS
280
     0
  9
$JOINSTYLE
280
     0
  9
$LWDISPLAY
290
     0
  9
$INSUNITS
 70
     4
  9
$HYPERLINKBASE
  1

  9
$STYLESHEET
  1

  9
$XEDIT
290
     1
  9
$CEPSNTYPE
380
     0
  9
$PSTYLEMODE
290
     1
  9
$FINGERPRINTGUID
  2
{F2AC3F8D-DE4C-4137-9C46-7DA0658E68F1}
  9
$VERSIONGUID
  2
{FAEB1C32-E019-11D5-929B-00C0DF256EC4}
  9
$EXTNAMES
290
     1
  9
$PSVPSCALE
 40
0.0
  9
$OLESTARTUP
290
     0
  9
$SORTENTS
280
   127
  9
$INDEXCTL
280
     0
  9
$HIDETEXT
280
     1
  9
$XCLIPFRAME
290
     0
  9
$HALOGAP
280
     0
  9
$OBSCOLOR
 70
   257
  9
$OBSLTYPE
280
     0
  9
$INTERSECTIONDISPLAY
280
     0
  9
$INTERSECTIONCOLOR
 70
   257
  9
$DIMASSOC
280
     2
  9
$PROJECTNAME
  1

  0
ENDSEC
  0
SECTION
  2
CLASSES
  0
CLASS
  1
ACDBDICTIONARYWDFLT
  2
AcDbDictionaryWithDefault
  3
ObjectDBX Classes
 90
        0
 91
        4
280
     0
281
     0
  0
CLASS
  1
VISUALSTYLE
  2
AcDbVisualStyle
  3
ObjectDBX Classes
 90
     4095
 91
        4
280
     0
281
     0
  0
CLASS
  1
MATERIAL
  2
AcDbMaterial
  3
ObjectDBX Classes
 90
     1153
 91
        4
280
     0
281
     0
  0
CLASS
  1
SCALE
  2
AcDbScale
  3
ObjectDBX Classes
 90
     1153
 91
        4
280
     0
281
     0
  0
CLASS
  1
TABLESTYLE
  2
AcDbTableStyle
  3
ObjectDBX Classes
 90
     4095
 91
        4
280
     0
281
     0
  0
CLASS
  1
MLEADERSTYLE
  2
AcDbMLeaderStyle
  3
ACDB_MLEADERSTYLE_CLASS
 90
     4095
 91
        4
280
     0
281
     0
  0
CLASS
  1
SUN
  2
AcDbSun
  3
SCENEOE
 90
     1153
 91
        4
280
     0
281
     0
  0
CLASS
  1
DICTIONARYVAR
  2
AcDbDictionaryVar
  3
ObjectDBX Classes
 90
        0
 91
        4
280
     0
281
     0
  0
CLASS
  1
CELLSTYLEMAP
  2
AcDbCellStyleMap
  3
ObjectDBX Classes
 90
     1152
 91
        4
280
     0
281
     0
  0
ENDSEC
  0
SECTION
  2
TABLES
  0
TABLE
  2
VPORT
  5
8
102
{ACAD_XDICTIONARY
360
3BF
102
}
330
0
100
AcDbSymbolTable
 70
     1
  0
VPORT
  5
29
330
8
100
AcDbSymbolTableRecord
100
AcDbViewportTableRecord
  2
*Active
 70
     0
 10
0.0
 20
0.0
 11
1.0
 21
1.0
 12
0.0
 22
0.0
 13
0.0
 23
0.0
 14
10.0
 24
10.0
 15
10.0
 25
10.0
 16
0.0
 26
0.0
 36
1.0
 17
0.0
 27
0.0
 37
0.0
 40
1306.8
 41
1.414141414141414
 42
50.0
 43
0.0
 44
0.0
 50
0.0
 51
0.0
 71
     0
 72
 10000
 73
     1
 74
     3
 75
     0
 76
     0
 77
     0
 78
     0
281
     0
 65
     1
110
0.0
120
0.0
130
0.0
111
1.0
121
0.0
131
0.0
112
0.0
122
1.0
132
0.0
 79
     0
146
0.0
  0
ENDTAB
  0
TABLE
  2
LTYPE
  5
5
330
0
100
AcDbSymbolTable
 70
     5
  0
LTYPE
  5
14
330
5
100
AcDbSymbolTableRecord
100
AcDbLinetypeTableRecord
  2
ByBlock
 70
     0
  3

 72
    65
 73
     0
 40
0.0
  0
LTYPE
  5
15
330
5
100
AcDbSymbolTableRecord
100
AcDbLinetypeTableRecord
  2
ByLayer
 70
     0
  3

 72
    65
 73
     0
 40
0.0
  0
LTYPE
  5
16
330
5
100
AcDbSymbolTableRecord
100
AcDbLinetypeTableRecord
  2
Continuous
 70
     0
  3
Solid line
 72
    65
 73
     0
 40
0.0
  0
LTYPE
  5
6F
330
5
100
AcDbSymbolTableRecord
100
AcDbLinetypeTableRecord
  2
JWW_CENTER1
 70
     0
  3
-----  --  ----------  --  -----
 72
    65
 73
     4
 40
6.773333333333333
 49
4.233333333333333
 74
     0
 49
-0.8466666666666667
 74
     0
 49
0.8466666666666667
 74
     0
 49
-0.8466666666666667
 74
     0
  0
LTYPE
  5
70
330
5
100
AcDbSymbolTableRecord
100
AcDbLinetypeTableRecord
  2
JWW_PHANTOM2
 70
     0
  3
------------  -  -  ------------
 72
    65
 73
     6
 40
13.54666666666667
 49
10.16
 74
     0
 49
-0.8466666666666667
 74
     0
 49
0.4233333333333333
 74
     0
 49
-0.8466666666666667
 74
     0
 49
0.4233333333333333
 74
     0
 49
-0.8466666666666667
 74
     0
  0
LTYPE
  5
71
330
5
100
AcDbSymbolTableRecord
100
AcDbLinetypeTableRecord
  2
JWW_CENTER2
 70
     0
  3
-------------  --  -------------
 72
    65
 73
     4
 40
13.54666666666667
 49
11.00666666666667
 74
     0
 49
-0.8466666666666667
 74
     0
 49
0.8466666666666667
 74
     0
 49
-0.8466666666666667
 74
     0
  0
LTYPE
  5
72
330
5
100
AcDbSymbolTableRecord
100
AcDbLinetypeTableRecord
  2
JWW_DASHED2
 70
     0
  3
--    ----    ----    ----    --
 72
    65
 73
     2
 40
3.386666666666667
 49
1.693333333333333
 74
     0
 49
-1.693333333333333
 74
     0
  0
ENDTAB
  0
TABLE
  2
LAYER
  5
2
330
0
100
AcDbSymbolTable
 70
     9
  0
LAYER
  5
10
330
2
100
AcDbSymbolTableRecord
100
AcDbLayerTableRecord
  2
0
 70
     0
 62
     7
  6
Continuous
370
    -3
390
F
  0
LAYER
  5
73
330
2
100
AcDbSymbolTableRecord
100
AcDbLayerTableRecord
  2
_2-4_A_b
 70
     0
 62
     7
  6
Continuous
370
    -3
390
F
  0
LAYER
  5
74
330
2
100
AcDbSymbolTableRecord
100
AcDbLayerTableRecord
  2
_2-c_Shi
 70
     0
 62
     7
  6
Continuous
370
    -3
390
F
  0
LAYER
  5
75
330
2
100
AcDbSymbolTableRecord
100
AcDbLayerTableRecord
  2
2-Aﾚｲﾔ
 70
     0
 62
     7
  6
Continuous
370
    -3
390
F
  0
LAYER
  5
76
330
2
100
AcDbSymbolTableRecord
100
AcDbLayerTableRecord
  2
_2-6_B_b
 70
     0
 62
     7
  6
Continuous
370
    -3
390
F
  0
LAYER
  5
77
330
2
100
AcDbSymbolTableRecord
100
AcDbLayerTableRecord
  2
_2-b_Tat
 70
     0
 62
     7
  6
Continuous
370
    -3
390
F
  0
LAYER
  5
78
330
2
100
AcDbSymbolTableRecord
100
AcDbLayerTableRecord
  2
_2-9_Kut
 70
     0
 62
     7
  6
Continuous
370
    -3
390
F
  0
LAYER
  5
79
330
2
100
AcDbSymbolTableRecord
100
AcDbLayerTableRecord
  2
_2-3_Kyo
 70
     0
 62
     7
  6
Continuous
370
    -3
390
F
  0
LAYER
  5
7A
330
2
100
AcDbSymbolTableRecord
100
AcDbLayerTableRecord
  2
F-4ﾚｲﾔ
 70
     0
 62
     7
  6
Continuous
370
    -3
390
F
  0
ENDTAB
  0
TABLE
  2
STYLE
  5
3
330
0
100
AcDbSymbolTable
 70
     2
  0
STYLE
  5
11
330
3
100
AcDbSymbolTableRecord
100
AcDbTextStyleTableRecord
  2
Standard
 70
     0
 40
0.0
 41
1.0
 50
0.0
 71
     0
 42
2.5
  3
txt
  4

  0
STYLE
  5
6E
330
3
100
AcDbSymbolTableRecord
100
AcDbTextStyleTableRecord
  2
ＭＳ ゴシック
 70
     0
 40
1.0
 41
1.0
 50
0.0
 71
     0
 42
2.5
  3

  4

1001
ACAD
1000
MS Gothic
1071
    32817
  0
ENDTAB
  0
TABLE
  2
VIEW
  5
6
330
0
100
AcDbSymbolTable
 70
     0
  0
ENDTAB
  0
TABLE
  2
UCS
  5
7
330
0
100
AcDbSymbolTable
 70
     0
  0
ENDTAB
  0
TABLE
  2
APPID
  5
9
330
0
100
AcDbSymbolTable
 70
     2
  0
APPID
  5
12
330
9
100
AcDbSymbolTableRecord
100
AcDbRegAppTableRecord
  2
ACAD
 70
     0
  0
APPID
  5
3FE
330
9
100
AcDbSymbolTableRecord
100
AcDbRegAppTableRecord
  2
ACAD_MLEADERVER
 70
     0
  0
ENDTAB
  0
TABLE
  2
DIMSTYLE
  5
A
330
0
100
AcDbSymbolTable
 70
     1
100
AcDbDimStyleTable
  0
DIMSTYLE
105
27
330
A
100
AcDbSymbolTableRecord
100
AcDbDimStyleTableRecord
  2
ISO-25
 70
     0
 41
2.5
 42
0.625
 43
3.75
 44
1.25
 73
     0
 74
     0
 77
     1
 78
     8
140
2.5
141
2.5
143
0.03937007874016
147
0.625
171
     3
172
     1
178
     0
271
     2
272
     2
274
     3
278
    44
283
     0
284
     8
340
11
  0
ENDTAB
  0
TABLE
  2
BLOCK_RECORD
  5
1
330
0
100
AcDbSymbolTable
 70
     1
  0
BLOCK_RECORD
  5
1F
330
1
100
AcDbSymbolTableRecord
100
AcDbBlockTableRecord
  2
*Model_Space
340
22
  0
BLOCK_RECORD
  5
1B
330
1
100
AcDbSymbolTableRecord
100
AcDbBlockTableRecord
  2
*Paper_Space
340
1E
  0
BLOCK_RECORD
  5
23
330
1
100
AcDbSymbolTableRecord
100
AcDbBlockTableRecord
  2
*Paper_Space0
340
26
  0
ENDTAB
  0
ENDSEC
  0
SECTION
  2
BLOCKS
  0
BLOCK
  5
20
330
1F
100
AcDbEntity
  8
0
100
AcDbBlockBegin
  2
*Model_Space
 70
     0
 10
0.0
 20
0.0
 30
0.0
  3
*Model_Space
  1

  0
ENDBLK
  5
21
330
1F
100
AcDbEntity
  8
0
100
AcDbBlockEnd
  0
BLOCK
  5
1C
330
1B
100
AcDbEntity
 67
     1
  8
0
100
AcDbBlockBegin
  2
*Paper_Space
 70
     0
 10
0.0
 20
0.0
 30
0.0
  3
*Paper_Space
  1

  0
ENDBLK
  5
1D
330
1B
100
AcDbEntity
 67
     1
  8
0
100
AcDbBlockEnd
  0
BLOCK
  5
24
330
23
100
AcDbEntity
  8
0
100
AcDbBlockBegin
  2
*Paper_Space0
 70
     0
 10
0.0
 20
0.0
 30
0.0
  3
*Paper_Space0
  1

  0
ENDBLK
  5
25
330
23
100
AcDbEntity
  8
0
100
AcDbBlockEnd
  0
ENDSEC
  0
SECTION
  2
ENTITIES
  0
LINE
  5
7B
330
1F
100
AcDbEntity
  8
_2-4_A_b
  6
Continuous
 62
     7
370
     9
100
AcDbLine
 10
27.18728610892413
 20
-387.5155372950014
 30
0.0
 11
33.27490039901133
 21
-395.4490706979138
 31
0.0
  0
LINE
  5
7C
330
1F
100
AcDbEntity
  8
_2-4_A_b
  6
Continuous
 62
     7
370
     9
100
AcDbLine
 10
27.18728610892413
 20
-387.5155372950014
 30
0.0
 11
31.01412043257502
 21
-396.7543326201143
 31
0.0
  0
LINE
  5
7D
330
1F
100
AcDbEntity
  8
_2-4_A_b
  6
Continuous
 62
     7
370
     9
100
AcDbLine
 10
27.18728610892413
 20
-387.5155372950014
 30
0.0
 11
61.63807491992886
 21
-447.1860538764871
 31
0.0
  0
TEXT
  5
7E
330
1F
100
AcDbEntity
  8
_2-4_A_b
  6
Continuous
 62
     7
370
     9
100
AcDbText
 10
88.54699246316395
 20
-461.6724440579144
 30
0.0
 40
9.144
  1
樹脂系塗装
 41
1.133333333333334
  7
ＭＳ ゴシック
100
AcDbText
  0
TEXT
  5
7F
330
1F
100
AcDbEntity
  8
_2-4_A_b
  6
Continuous
 62
     7
370
     9
100
AcDbText
 10
69.41482906607811
 20
-441.4251534330749
 30
0.0
 40
9.144
  1
本体：ＦＣ１５０
 41
1.145833333333334
  7
ＭＳ ゴシック
100
AcDbText
  0
LINE
  5
80
330
1F
100
AcDbEntity
  8
_2-4_A_b
  6
Continuous
 62
     7
370
     9
100
AcDbLine
 10
179.9743234970327
 20
-447.1860538764871
 30
0.0
 11
61.63807491992886
 21
-447.1860538764871
 31
0.0
  0
LINE
  5
81
330
1F
100
AcDbEntity
  8
_2-4_A_b
  6
Continuous
 62
     7
370
     9
100
AcDbLine
 10
-47.81281522357449
 20
-395.5155745288034
 30
0.0
 11
-76.77405333010157
 21
-445.6779103794082
 31
0.0
  0
LINE
  5
82
330
1F
100
AcDbEntity
  8
_2-4_A_b
  6
Continuous
 62
     7
370
     9
100
AcDbLine
 10
-47.81281522357449
 20
-395.5155745288034
 30
0.0
 11
-51.63964954722539
 21
-404.7543698539163
 31
0.0
  0
LINE
  5
83
330
1F
100
AcDbEntity
  8
_2-4_A_b
  6
Continuous
 62
     7
370
     9
100
AcDbLine
 10
-47.81281522357449
 20
-395.5155745288034
 30
0.0
 11
-53.9004295136617
 21
-403.4491079317158
 31
0.0
  0
TEXT
  5
84
330
1F
100
AcDbEntity
  8
_2-4_A_b
  6
Continuous
 62
     7
370
     9
100
AcDbText
 10
-219.9068451519149
 20
-440.4788940528438
 30
0.0
 40
9.144
  1
取付ピース：ＳＧＨＣ
 41
1.15
  7
ＭＳ ゴシック
100
AcDbText
  0
LINE
  5
85
330
1F
100
AcDbEntity
  8
_2-4_A_b
  6
Continuous
 62
     7
370
     9
100
AcDbLine
 10
-221.631735111059
 20
-445.6779103794082
 30
0.0
 11
-76.77405333010157
 21
-445.6779103794082
 31
0.0
  0
LINE
  5
86
330
1F
100
AcDbEntity
  8
_2-4_A_b
  6
Continuous
 62
     7
370
     9
100
AcDbLine
 10
-11.89122902119607
 20
-370.145739363787
 30
0.0
 11
-5.803614731108865
 21
-362.2122059608746
 31
0.0
  0
LINE
  5
87
330
1F
100
AcDbEntity
  8
_2-4_A_b
  6
Continuous
 62
     7
370
     9
100
AcDbLine
 10
-11.89122902119607
 20
-370.145739363787
 30
0.0
 11
-3.957695618283722
 21
-364.0581250736998
 31
0.0
  0
LINE
  5
88
330
1F
100
AcDbEntity
  8
_2-4_A_b
  6
Continuous
 62
     7
370
     9
100
AcDbLine
 10
-44.37660142081877
 20
-343.667627968395
 30
0.0
 11
-36.44306801790642
 21
-337.5800136783078
 31
0.0
  0
LINE
  5
89
330
1F
100
AcDbEntity
  8
_2-4_A_b
  6
Continuous
 62
     7
370
     9
100
AcDbLine
 10
-44.37660142081877
 20
-343.667627968395
 30
0.0
 11
-38.28898713073156
 21
-335.7340945654826
 31
0.0
  0
LINE
  5
8A
330
1F
100
AcDbEntity
  8
_2-4_A_b
  6
Continuous
 62
     7
370
     9
100
AcDbLine
 10
-44.37660142081877
 20
-343.667627968395
 30
0.0
 11
166.2111653958904
 21
-133.0798611516857
 31
0.0
  0
TEXT
  5
8B
330
1F
100
AcDbEntity
  8
_2-4_A_b
  6
Continuous
 62
     7
370
     9
100
AcDbText
 10
219.4602696966703
 20
-147.0922728387634
 30
0.0
 40
9.144
  1
樹脂系塗装
 41
1.133333333333334
  7
ＭＳ ゴシック
100
AcDbText
  0
TEXT
  5
8C
330
1F
100
AcDbEntity
  8
_2-4_A_b
  6
Continuous
 62
     7
370
     9
100
AcDbText
 10
170.8834062925607
 20
-125.3788345469559
 30
0.0
 40
9.144
  1
ストレーナー：ＦＣ１５０
 41
1.152777777777778
  7
ＭＳ ゴシック
100
AcDbText
  0
LINE
  5
8D
330
1F
100
AcDbEntity
  8
_2-4_A_b
  6
Continuous
 62
     7
370
     9
100
AcDbLine
 10
341.9300668447144
 20
-133.0798611516857
 30
0.0
 11
166.2111653958904
 21
-133.0798611516857
 31
0.0
  0
LINE
  5
8E
330
1F
100
AcDbEntity
  8
_2-4_A_b
  6
Continuous
 62
     7
370
     9
100
AcDbLine
 10
-138.3027572660983
 20
-259.6735411131158
 30
0.0
 11
-132.2151429760111
 21
-251.7400077102034
 31
0.0
  0
LINE
  5
8F
330
1F
100
AcDbEntity
  8
_2-4_A_b
  6
Continuous
 62
     7
370
     9
100
AcDbLine
 10
-138.3027572660983
 20
-259.6735411131158
 30
0.0
 11
-130.369223863186
 21
-253.5859268230286
 31
0.0
  0
TEXT
  5
90
330
1F
100
AcDbEntity
  8
_2-4_A_b
  6
Continuous
 62
     7
370
     9
100
AcDbText
 10
148.1713168759022
 20
-207.5670204499929
 30
0.0
 40
9.144
  1
防水層押え：ＦＣ１５０
 41
1.151515151515152
  7
ＭＳ ゴシック
100
AcDbText
  0
TEXT
  5
91
330
1F
100
AcDbEntity
  8
_2-4_A_b
  6
Continuous
 62
     7
370
     9
100
AcDbText
 10
187.5444714652998
 20
-231.9878463051449
 30
0.0
 40
9.144
  1
樹脂系塗装
 41
1.133333333333334
  7
ＭＳ ゴシック
100
AcDbText
  0
LINE
  5
92
330
1F
100
AcDbEntity
  8
_2-4_A_b
  6
Continuous
 62
     7
370
     9
100
AcDbLine
 10
303.1490110006911
 20
-216.5766078127463
 30
0.0
 11
141.6779025298446
 21
-216.5766078127463
 31
0.0
  0
LINE
  5
93
330
1F
100
AcDbEntity
  8
_2-4_A_b
  6
Continuous
 62
     7
370
     9
100
AcDbLine
 10
-11.89122902119607
 20
-370.145739363787
 30
0.0
 11
141.6779025298446
 21
-216.5766078127463
 31
0.0
  0
LINE
  5
94
330
1F
100
AcDbEntity
  8
_2-4_A_b
  6
Continuous
 62
     7
370
     9
100
AcDbLine
 10
-203.0014679396625
 20
-231.0365847619719
 30
0.0
 11
-209.0890822297496
 21
-223.1030513590595
 31
0.0
  0
LINE
  5
95
330
1F
100
AcDbEntity
  8
_2-4_A_b
  6
Continuous
 62
     7
370
     9
100
AcDbLine
 10
-203.0014679396625
 20
-231.0365847619719
 30
0.0
 11
-206.8283022633133
 21
-221.797789436859
 31
0.0
  0
LINE
  5
96
330
1F
100
AcDbEntity
  8
_2-4_A_b
  6
Continuous
 62
     7
370
     9
100
AcDbLine
 10
-203.0014679396625
 20
-231.0365847619719
 30
0.0
 11
-244.3882740024373
 21
-159.3525338982462
 31
0.0
  0
LINE
  5
97
330
1F
100
AcDbEntity
  8
_2-4_A_b
  6
Continuous
 62
     7
370
     9
100
AcDbLine
 10
-138.3027572660983
 20
-259.6735411131158
 30
0.0
 11
177.2980428254953
 21
55.92725897847777
 31
0.0
  0
LINE
  5
98
330
1F
100
AcDbEntity
  8
_2-4_A_b
  6
Continuous
 62
     7
370
     9
100
AcDbLine
 10
329.780957701657
 20
55.92725897847777
 30
0.0
 11
177.2980428254953
 21
55.92725897847777
 31
0.0
  0
LINE
  5
99
330
1F
100
AcDbEntity
  8
_2-c_Shi
  6
Continuous
 62
     4
370
     9
100
AcDbLine
 10
-185.9582334864245
 20
-393.8960852493104
 30
0.0
 11
-188.9231187120519
 21
-393.9565324414104
 31
0.0
  0
LINE
  5
9A
330
1F
100
AcDbEntity
  8
_2-c_Shi
  6
Continuous
 62
     4
370
     9
100
AcDbLine
 10
-188.3202322911723
 20
-277.9202692516896
 30
0.0
 11
-191.2850184230421
 21
-277.9806173500321
 31
0.0
  0
LINE
  5
9B
330
1F
100
AcDbEntity
  8
_2-c_Shi
  6
Continuous
 62
     4
370
     9
100
AcDbLine
 10
-184.1408539731221
 20
-281.6352942219025
 30
0.0
 11
-184.4157400565409
 21
-280.742459466458
 31
0.0
  0
LINE
  5
9C
330
1F
100
AcDbEntity
  8
_2-c_Shi
  6
Continuous
 62
     4
370
     9
100
AcDbLine
 10
-191.9678735062574
 20
-392.6442338102947
 30
0.0
 11
-194.2735870567219
 21
-279.4155940529836
 31
0.0
  0
LINE
  5
9D
330
1F
100
AcDbEntity
  8
_2-c_Shi
  6
Continuous
 62
     4
370
     9
100
AcDbLine
 10
-182.9697639465023
 20
-392.4610837729194
 30
0.0
 11
-185.2754774969669
 21
-279.2324687890478
 31
0.0
  0
LINE
  5
9E
330
1F
100
AcDbEntity
  8
_2-c_Shi
  6
Continuous
 62
     4
370
     9
100
AcDbLine
 10
-181.5488585571216
 20
-388.5554271866369
 30
0.0
 11
-182.1720591982971
 21
-390.9173268976272
 31
0.0
  0
LINE
  5
9F
330
1F
100
AcDbEntity
  8
_2-c_Shi
  6
Continuous
 62
     4
370
     9
100
AcDbLine
 10
-181.5488585571216
 20
-388.5554271866369
 30
0.0
 11
-183.7108861591516
 21
-282.3903886543652
 31
0.0
  0
LINE
  5
A0
330
1F
100
AcDbEntity
  8
_2-c_Shi
  6
Continuous
 62
     4
370
     9
100
AcDbLine
 10
-77.86755551073662
 20
-382.9701066365947
 30
0.0
 11
-76.59459710136485
 21
-381.902098891257
 31
0.0
  0
LINE
  5
A1
330
1F
100
AcDbEntity
  8
_2-c_Shi
  6
Continuous
 62
     4
370
     9
100
AcDbLine
 10
-157.8125344382901
 20
-394.205356866596
 30
0.0
 11
-177.8125284290373
 21
-399.7313698027498
 31
0.0
  0
LINE
  5
A2
330
1F
100
AcDbEntity
  8
_2-c_Shi
  6
Continuous
 62
     4
370
     9
100
AcDbLine
 10
-81.66472920595112
 20
-382.1678435755426
 30
0.0
 11
-87.62353412816543
 21
-387.1678420732293
 31
0.0
  0
LINE
  5
A3
330
1F
100
AcDbEntity
  8
_2-c_Shi
  6
Continuous
 62
     4
370
     9
100
AcDbLine
 10
-157.8125344382901
 20
-394.205356866596
 30
0.0
 11
-85.40135661530809
 21
-393.1356893008194
 31
0.0
  0
LINE
  5
A4
330
1F
100
AcDbEntity
  8
_2-c_Shi
  6
Continuous
 62
     4
370
     9
100
AcDbLine
 10
-79.34603437324887
 20
-388.054508242267
 30
0.0
 11
-85.40135661530809
 21
-393.1356893008194
 31
0.0
  0
LINE
  5
A5
330
1F
100
AcDbEntity
  8
2-Aﾚｲﾔ
  6
Continuous
 62
     2
370
     9
100
AcDbLine
 10
-26.8124697504507
 20
-399.7158120828159
 30
0.0
 11
-26.8124697504507
 21
-397.1158396193334
 31
0.0
  0
LINE
  5
A6
330
1F
100
AcDbEntity
  8
2-Aﾚｲﾔ
  6
Continuous
 62
     2
370
     9
100
AcDbLine
 10
-38.8125256011536
 20
-399.7158120828159
 30
0.0
 11
-38.8125256011536
 21
-397.1158396193334
 31
0.0
  0
LINE
  5
A7
330
1F
100
AcDbEntity
  8
2-Aﾚｲﾔ
  6
Continuous
 62
     2
370
     9
100
AcDbLine
 10
-33.29161599351306
 20
-399.7158120828159
 30
0.0
 11
-32.33357754560649
 21
-399.7158120828159
 31
0.0
  0
LINE
  5
A8
330
1F
100
AcDbEntity
  8
2-Aﾚｲﾔ
  6
Continuous
 62
     2
370
     9
100
AcDbLine
 10
-32.33357754560649
 20
-401.7043760622705
 30
0.0
 11
-32.33357754560649
 21
-399.7158120828159
 31
0.0
  0
LINE
  5
A9
330
1F
100
AcDbEntity
  8
2-Aﾚｲﾔ
  6
Continuous
 62
     2
370
     9
100
AcDbLine
 10
-33.29161599351306
 20
-401.7043760622705
 30
0.0
 11
-33.29161599351306
 21
-399.7158120828159
 31
0.0
  0
LINE
  5
AA
330
1F
100
AcDbEntity
  8
_2-6_B_b
  6
Continuous
 62
     2
370
     9
100
AcDbLine
 10
12.18726584242444
 20
-404.9152119941146
 30
0.0
 11
12.18726584242444
 21
-406.5153779908871
 31
0.0
  0
LINE
  5
AB
330
1F
100
AcDbEntity
  8
_2-6_B_b
  6
Continuous
 62
     2
370
     9
100
AcDbLine
 10
-18.31280179112701
 20
-397.1157405255757
 30
0.0
 11
-47.81281522357455
 21
-397.1157405255757
 31
0.0
  0
LINE
  5
AC
330
1F
100
AcDbEntity
  8
_2-6_B_b
  6
Continuous
 62
     2
370
     9
100
AcDbLine
 10
-18.31280179112701
 20
-395.5155745288034
 30
0.0
 11
-47.81281522357455
 21
-395.5155745288034
 31
0.0
  0
LINE
  5
AD
330
1F
100
AcDbEntity
  8
_2-6_B_b
  6
Continuous
 62
     2
370
     9
100
AcDbLine
 10
-47.81281522357455
 20
-397.1157405255757
 30
0.0
 11
-47.81281522357455
 21
-395.5155745288034
 31
0.0
  0
LINE
  5
AE
330
1F
100
AcDbEntity
  8
_2-6_B_b
  6
Continuous
 62
     2
370
     9
100
AcDbLine
 10
-16.21260869380268
 20
-404.4153335341989
 30
0.0
 11
-16.21260869380268
 21
-397.6155694386127
 31
0.0
  0
LINE
  5
AF
330
1F
100
AcDbEntity
  8
_2-6_B_b
  6
Continuous
 62
     2
370
     9
100
AcDbLine
 10
-17.81277469057505
 20
-397.6155694386127
 30
0.0
 11
-17.81277469057505
 21
-404.4153335341989
 31
0.0
  0
LINE
  5
B0
330
1F
100
AcDbEntity
  8
2-Aﾚｲﾔ
  6
Continuous
 62
     2
370
     9
100
AcDbLine
 10
3.187174407518512
 20
-392.1153704262982
 30
0.0
 11
-2.812754424075194
 21
-392.1153704262982
 31
0.0
  0
LINE
  5
B1
330
1F
100
AcDbEntity
  8
2-Aﾚｲﾔ
  6
Continuous
 62
     2
370
     9
100
AcDbLine
 10
-5.462521500722289
 20
-408.1153458001444
 30
0.0
 11
-5.462521500722289
 21
-407.8153889960677
 31
0.0
  0
LINE
  5
B2
330
1F
100
AcDbEntity
  8
2-Aﾚｲﾔ
  6
Continuous
 62
     2
370
     9
100
AcDbLine
 10
5.837337859195657
 20
-408.1153458001444
 30
0.0
 11
-5.462521500722289
 21
-408.1153458001444
 31
0.0
  0
LINE
  5
B3
330
1F
100
AcDbEntity
  8
2-Aﾚｲﾔ
  6
Continuous
 62
     2
370
     9
100
AcDbLine
 10
5.837337859195657
 20
-408.1153458001444
 30
0.0
 11
5.837337859195657
 21
-407.8153889960677
 31
0.0
  0
LINE
  5
B4
330
1F
100
AcDbEntity
  8
2-Aﾚｲﾔ
  6
Continuous
 62
     2
370
     9
100
AcDbLine
 10
5.837337859195657
 20
-407.8153889960677
 30
0.0
 11
-5.462521500722289
 21
-407.8153889960677
 31
0.0
  0
LINE
  5
B5
330
1F
100
AcDbEntity
  8
2-Aﾚｲﾔ
  6
Continuous
 62
     2
370
     9
100
AcDbLine
 10
-5.562804383353807
 20
-398.305955647401
 30
0.0
 11
-5.562804383353807
 21
-402.8152666311841
 31
0.0
  0
LINE
  5
B6
330
1F
100
AcDbEntity
  8
2-Aﾚｲﾔ
  6
Continuous
 62
     2
370
     9
100
AcDbLine
 10
5.937224366797125
 20
-398.305955647401
 30
0.0
 11
5.937224366797125
 21
-402.8152666311841
 31
0.0
  0
LINE
  5
B7
330
1F
100
AcDbEntity
  8
2-Aﾚｲﾔ
  6
Continuous
 62
     2
370
     9
100
AcDbLine
 10
-2.67600503866862
 20
-398.305955647401
 30
0.0
 11
-2.67600503866862
 21
-402.8152666311841
 31
0.0
  0
LINE
  5
B8
330
1F
100
AcDbEntity
  8
2-Aﾚｲﾔ
  6
Continuous
 62
     2
370
     9
100
AcDbLine
 10
3.050623209626963
 20
-398.305955647401
 30
0.0
 11
3.050623209626963
 21
-402.8152666311841
 31
0.0
  0
LINE
  5
B9
330
1F
100
AcDbEntity
  8
2-Aﾚｲﾔ
  6
Continuous
 62
     2
370
     9
100
AcDbLine
 10
-4.119206523496189
 20
-397.8150947194216
 30
0.0
 11
4.494022881969556
 21
-397.8150947194216
 31
0.0
  0
LINE
  5
BA
330
1F
100
AcDbEntity
  8
2-Aﾚｲﾔ
  6
Continuous
 62
     2
370
     9
100
AcDbLine
 10
-1.942711232865179
 20
-397.8150947194216
 30
0.0
 11
-1.942711232865179
 21
-392.1153704262982
 31
0.0
  0
LINE
  5
BB
330
1F
100
AcDbEntity
  8
2-Aﾚｲﾔ
  6
Continuous
 62
     2
370
     9
100
AcDbLine
 10
-2.812754424075194
 20
-397.8150947194216
 30
0.0
 11
-2.812754424075194
 21
-392.1153704262982
 31
0.0
  0
LINE
  5
BC
330
1F
100
AcDbEntity
  8
2-Aﾚｲﾔ
  6
Continuous
 62
     2
370
     9
100
AcDbLine
 10
2.317329403823521
 20
-397.8150947194216
 30
0.0
 11
2.317329403823521
 21
-392.1153704262982
 31
0.0
  0
LINE
  5
BD
330
1F
100
AcDbEntity
  8
2-Aﾚｲﾔ
  6
Continuous
 62
     2
370
     9
100
AcDbLine
 10
3.187174407518512
 20
-397.8150947194216
 30
0.0
 11
3.187174407518512
 21
-392.1153704262982
 31
0.0
  0
LINE
  5
BE
330
1F
100
AcDbEntity
  8
_2-6_B_b
  6
JWW_CENTER1
 62
     2
370
     9
100
AcDbLine
 10
0.1874081792367974
 20
-390.7867213251881
 30
0.0
 11
0.1874081792367974
 21
-410.9149921850721
 31
0.0
  0
LINE
  5
BF
330
1F
100
AcDbEntity
  8
_2-6_B_b
  6
Continuous
 62
     2
370
     9
100
AcDbLine
 10
-3.31258333711213
 20
-405.6653021918214
 30
0.0
 11
-4.444035860715587
 21
-404.5339983088542
 31
0.0
  0
LINE
  5
C0
330
1F
100
AcDbEntity
  8
_2-6_B_b
  6
Continuous
 62
     2
370
     9
100
AcDbLine
 10
-4.444035860715587
 20
-404.5339983088542
 30
0.0
 11
-6.425316448990827
 21
-406.5153779908871
 31
0.0
  0
LINE
  5
C1
330
1F
100
AcDbEntity
  8
_2-6_B_b
  6
Continuous
 62
     2
370
     9
100
AcDbLine
 10
3.687399695585725
 20
-405.6653021918214
 30
0.0
 11
4.81865403167393
 21
-404.5339983088542
 31
0.0
  0
LINE
  5
C2
330
1F
100
AcDbEntity
  8
_2-6_B_b
  6
Continuous
 62
     2
370
     9
100
AcDbLine
 10
4.81865403167393
 20
-404.5339983088542
 30
0.0
 11
6.79993461994917
 21
-406.5153779908871
 31
0.0
  0
LINE
  5
C3
330
1F
100
AcDbEntity
  8
_2-6_B_b
  6
Continuous
 62
     2
370
     9
100
AcDbLine
 10
-6.562660396942704
 20
-406.5153779908871
 30
0.0
 11
-4.46246729961814
 21
-404.4152344404415
 31
0.0
  0
LINE
  5
C4
330
1F
100
AcDbEntity
  8
_2-6_B_b
  6
Continuous
 62
     2
370
     9
100
AcDbLine
 10
-7.225399447377015
 20
-404.9152615409934
 30
0.0
 11
-5.125206350052679
 21
-402.8152666311841
 31
0.0
  0
LINE
  5
C5
330
1F
100
AcDbEntity
  8
_2-6_B_b
  6
Continuous
 62
     2
370
     9
100
AcDbLine
 10
-5.125206350052679
 20
-402.8152666311841
 30
0.0
 11
5.499824521011021
 21
-402.8152666311841
 31
0.0
  0
LINE
  5
C6
330
1F
100
AcDbEntity
  8
_2-6_B_b
  6
Continuous
 62
     2
370
     9
100
AcDbLine
 10
7.600017618335357
 20
-404.9152615409934
 30
0.0
 11
5.499824521011021
 21
-402.8152666311841
 31
0.0
  0
LINE
  5
C7
330
1F
100
AcDbEntity
  8
_2-6_B_b
  6
Continuous
 62
     2
370
     9
100
AcDbLine
 10
7.600017618335357
 20
-404.9152615409934
 30
0.0
 11
12.18726584242444
 21
-404.9152615409934
 31
0.0
  0
LINE
  5
C8
330
1F
100
AcDbEntity
  8
_2-6_B_b
  6
Continuous
 62
     2
370
     9
100
AcDbLine
 10
6.937377661658672
 20
-406.5153779908871
 30
0.0
 11
4.83708547057671
 21
-404.4152344404415
 31
0.0
  0
LINE
  5
C9
330
1F
100
AcDbEntity
  8
2-Aﾚｲﾔ
  6
Continuous
 62
     2
370
     9
100
AcDbLine
 10
-2.812754424075194
 20
-402.8152666311841
 30
0.0
 11
-2.812754424075194
 21
-405.1652750912694
 31
0.0
  0
LINE
  5
CA
330
1F
100
AcDbEntity
  8
2-Aﾚｲﾔ
  6
Continuous
 62
     2
370
     9
100
AcDbLine
 10
-2.812754424075194
 20
-405.1652750912694
 30
0.0
 11
-5.462521500722289
 21
-407.8153889960677
 31
0.0
  0
LINE
  5
CB
330
1F
100
AcDbEntity
  8
2-Aﾚｲﾔ
  6
Continuous
 62
     2
370
     9
100
AcDbLine
 10
3.187174407518512
 20
-402.8152666311841
 30
0.0
 11
3.187174407518512
 21
-405.1652750912694
 31
0.0
  0
LINE
  5
CC
330
1F
100
AcDbEntity
  8
2-Aﾚｲﾔ
  6
Continuous
 62
     2
370
     9
100
AcDbLine
 10
3.187174407518512
 20
-405.1652750912694
 30
0.0
 11
5.837337859195657
 21
-407.8153889960677
 31
0.0
  0
LINE
  5
CD
330
1F
100
AcDbEntity
  8
_2-6_B_b
  6
Continuous
 62
     2
370
     9
100
AcDbLine
 10
3.687399695585725
 20
-402.8152666311841
 30
0.0
 11
3.687399695585725
 21
-404.4152344404415
 31
0.0
  0
LINE
  5
CE
330
1F
100
AcDbEntity
  8
_2-6_B_b
  6
Continuous
 62
     2
370
     9
100
AcDbLine
 10
-3.31258333711213
 20
-402.8152666311841
 30
0.0
 11
-3.31258333711213
 21
-404.4152344404415
 31
0.0
  0
LINE
  5
CF
330
1F
100
AcDbEntity
  8
_2-6_B_b
  6
Continuous
 62
     2
370
     9
100
AcDbLine
 10
4.81865403167393
 20
-404.5339983088542
 30
0.0
 11
3.187174407518512
 21
-404.5339983088542
 31
0.0
  0
LINE
  5
D0
330
1F
100
AcDbEntity
  8
_2-6_B_b
  6
Continuous
 62
     2
370
     9
100
AcDbLine
 10
-2.812754424075194
 20
-404.5339983088542
 30
0.0
 11
-4.444035860715587
 21
-404.5339983088542
 31
0.0
  0
LINE
  5
D1
330
1F
100
AcDbEntity
  8
_2-6_B_b
  6
Continuous
 62
     2
370
     9
100
AcDbLine
 10
-4.46246729961814
 20
-404.4152344404415
 30
0.0
 11
-2.812754424075194
 21
-404.4152344404415
 31
0.0
  0
LINE
  5
D2
330
1F
100
AcDbEntity
  8
_2-6_B_b
  6
Continuous
 62
     2
370
     9
100
AcDbLine
 10
3.187174407518512
 20
-404.4152344404415
 30
0.0
 11
4.83708547057671
 21
-404.4152344404415
 31
0.0
  0
LINE
  5
D3
330
1F
100
AcDbEntity
  8
2-Aﾚｲﾔ
  6
Continuous
 62
     2
370
     9
100
AcDbLine
 10
-2.812754424075194
 20
-405.1652750912694
 30
0.0
 11
3.187174407518512
 21
-405.1652750912694
 31
0.0
  0
LINE
  5
D4
330
1F
100
AcDbEntity
  8
2-Aﾚｲﾔ
  6
Continuous
 62
     2
370
     9
100
AcDbLine
 10
-1.942711232865179
 20
-405.1652750912694
 30
0.0
 11
-1.942711232865179
 21
-402.8152666311841
 31
0.0
  0
LINE
  5
D5
330
1F
100
AcDbEntity
  8
2-Aﾚｲﾔ
  6
Continuous
 62
     2
370
     9
100
AcDbLine
 10
2.317329403823521
 20
-405.1652750912694
 30
0.0
 11
2.317329403823521
 21
-402.8152666311841
 31
0.0
  0
LINE
  5
D6
330
1F
100
AcDbEntity
  8
_2-6_B_b
  6
Continuous
 62
     2
370
     9
100
AcDbLine
 10
-15.71258159325072
 20
-404.9152119941146
 30
0.0
 11
-7.225399447377015
 21
-404.9152119941146
 31
0.0
  0
LINE
  5
D7
330
1F
100
AcDbEntity
  8
2-Aﾚｲﾔ
  6
Continuous
 62
     2
370
     9
100
AcDbLine
 10
-201.0128544133293
 20
-225.5153778730586
 30
0.0
 11
-198.4128324029679
 21
-225.5153778730586
 31
0.0
  0
LINE
  5
D8
330
1F
100
AcDbEntity
  8
2-Aﾚｲﾔ
  6
Continuous
 62
     2
370
     9
100
AcDbLine
 10
-201.0128544133293
 20
-237.5156319112766
 30
0.0
 11
-198.4128324029679
 21
-237.5156319112766
 31
0.0
  0
LINE
  5
D9
330
1F
100
AcDbEntity
  8
2-Aﾚｲﾔ
  6
Continuous
 62
     2
370
     9
100
AcDbLine
 10
-201.0128544133293
 20
-231.9947718505147
 30
0.0
 11
-201.0128544133293
 21
-231.0365847619718
 31
0.0
  0
LINE
  5
DA
330
1F
100
AcDbEntity
  8
2-Aﾚｲﾔ
  6
Continuous
 62
     2
370
     9
100
AcDbLine
 10
-203.0014679396626
 20
-231.0365847619718
 30
0.0
 11
-201.0128544133293
 21
-231.0365847619718
 31
0.0
  0
LINE
  5
DB
330
1F
100
AcDbEntity
  8
2-Aﾚｲﾔ
  6
Continuous
 62
     2
370
     9
100
AcDbLine
 10
-203.0014679396626
 20
-231.9947718505147
 30
0.0
 11
-201.0128544133293
 21
-231.9947718505147
 31
0.0
  0
LINE
  5
DC
330
1F
100
AcDbEntity
  8
_2-6_B_b
  6
Continuous
 62
     2
370
     9
100
AcDbLine
 10
-206.2124029652644
 20
-186.5158404676984
 30
0.0
 11
-207.8125689620368
 21
-186.5158404676984
 31
0.0
  0
LINE
  5
DD
330
1F
100
AcDbEntity
  8
_2-6_B_b
  6
Continuous
 62
     2
370
     9
100
AcDbLine
 10
-198.4128324029679
 20
-217.0158585543712
 30
0.0
 11
-198.4128324029679
 21
-246.5157233461824
 31
0.0
  0
LINE
  5
DE
330
1F
100
AcDbEntity
  8
_2-6_B_b
  6
Continuous
 62
     2
370
     9
100
AcDbLine
 10
-196.8127654999531
 20
-217.0158585543712
 30
0.0
 11
-196.8127654999531
 21
-246.5157233461824
 31
0.0
  0
LINE
  5
DF
330
1F
100
AcDbEntity
  8
_2-6_B_b
  6
Continuous
 62
     2
370
     9
100
AcDbLine
 10
-198.4128324029679
 20
-246.5157233461824
 30
0.0
 11
-196.8127654999531
 21
-246.5157233461824
 31
0.0
  0
LINE
  5
E0
330
1F
100
AcDbEntity
  8
_2-6_B_b
  6
Continuous
 62
     2
370
     9
100
AcDbLine
 10
-205.7125740522275
 20
-214.915814097683
 30
0.0
 11
-198.9126613160049
 21
-214.915814097683
 31
0.0
  0
LINE
  5
E1
330
1F
100
AcDbEntity
  8
_2-6_B_b
  6
Continuous
 62
     2
370
     9
100
AcDbLine
 10
-198.9126613160049
 20
-216.5159305475767
 30
0.0
 11
-205.7125740522275
 21
-216.5159305475767
 31
0.0
  0
LINE
  5
E2
330
1F
100
AcDbEntity
  8
2-Aﾚｲﾔ
  6
Continuous
 62
     2
370
     9
100
AcDbLine
 10
-193.4123632099328
 20
-195.5157337150892
 30
0.0
 11
-193.4123632099328
 21
-201.5156625466831
 31
0.0
  0
LINE
  5
E3
330
1F
100
AcDbEntity
  8
2-Aﾚｲﾔ
  6
Continuous
 62
     2
370
     9
100
AcDbLine
 10
-209.4124376775366
 20
-204.1656278108451
 30
0.0
 11
-209.1124808734599
 21
-204.1656278108451
 31
0.0
  0
LINE
  5
E4
330
1F
100
AcDbEntity
  8
2-Aﾚｲﾔ
  6
Continuous
 62
     2
370
     9
100
AcDbLine
 10
-209.4124376775366
 20
-192.8657189040484
 30
0.0
 11
-209.4124376775366
 21
-204.1656278108451
 31
0.0
  0
LINE
  5
E5
330
1F
100
AcDbEntity
  8
2-Aﾚｲﾔ
  6
Continuous
 62
     2
370
     9
100
AcDbLine
 10
-209.4124376775366
 20
-192.8657189040484
 30
0.0
 11
-209.1124808734599
 21
-192.8657189040484
 31
0.0
  0
LINE
  5
E6
330
1F
100
AcDbEntity
  8
2-Aﾚｲﾔ
  6
Continuous
 62
     2
370
     9
100
AcDbLine
 10
-209.1124808734599
 20
-192.8657189040484
 30
0.0
 11
-209.1124808734599
 21
-204.1656278108451
 31
0.0
  0
LINE
  5
E7
330
1F
100
AcDbEntity
  8
2-Aﾚｲﾔ
  6
Continuous
 62
     2
370
     9
100
AcDbLine
 10
-199.6030475247932
 20
-204.2658115997191
 30
0.0
 11
-204.112408055455
 21
-204.2658115997191
 31
0.0
  0
LINE
  5
E8
330
1F
100
AcDbEntity
  8
2-Aﾚｲﾔ
  6
Continuous
 62
     2
370
     9
100
AcDbLine
 10
-199.6030475247932
 20
-192.7657828495683
 30
0.0
 11
-204.112408055455
 21
-192.7657828495683
 31
0.0
  0
LINE
  5
E9
330
1F
100
AcDbEntity
  8
2-Aﾚｲﾔ
  6
Continuous
 62
     2
370
     9
100
AcDbLine
 10
-199.6030475247932
 20
-201.3791608956703
 30
0.0
 11
-204.112408055455
 21
-201.3791608956703
 31
0.0
  0
LINE
  5
EA
330
1F
100
AcDbEntity
  8
2-Aﾚｲﾔ
  6
Continuous
 62
     2
370
     9
100
AcDbLine
 10
-199.6030475247932
 20
-195.6524831004959
 30
0.0
 11
-204.112408055455
 21
-195.6524831004959
 31
0.0
  0
LINE
  5
EB
330
1F
100
AcDbEntity
  8
2-Aﾚｲﾔ
  6
Continuous
 62
     2
370
     9
100
AcDbLine
 10
-199.1123352374501
 20
-202.822312833619
 30
0.0
 11
-199.1123352374501
 21
-194.2091329750321
 31
0.0
  0
LINE
  5
EC
330
1F
100
AcDbEntity
  8
2-Aﾚｲﾔ
  6
Continuous
 62
     2
370
     9
100
AcDbLine
 10
-199.1123352374501
 20
-200.645817542988
 30
0.0
 11
-193.4123632099328
 21
-200.645817542988
 31
0.0
  0
LINE
  5
ED
330
1F
100
AcDbEntity
  8
2-Aﾚｲﾔ
  6
Continuous
 62
     2
370
     9
100
AcDbLine
 10
-199.1123352374501
 20
-201.5156625466831
 30
0.0
 11
-193.4123632099328
 21
-201.5156625466831
 31
0.0
  0
LINE
  5
EE
330
1F
100
AcDbEntity
  8
2-Aﾚｲﾔ
  6
Continuous
 62
     2
370
     9
100
AcDbLine
 10
-199.1123352374501
 20
-196.3857769062994
 30
0.0
 11
-193.4123632099328
 21
-196.3857769062994
 31
0.0
  0
LINE
  5
EF
330
1F
100
AcDbEntity
  8
2-Aﾚｲﾔ
  6
Continuous
 62
     2
370
     9
100
AcDbLine
 10
-199.1123352374501
 20
-195.5157337150892
 30
0.0
 11
-193.4123632099328
 21
-195.5157337150892
 31
0.0
  0
LINE
  5
F0
330
1F
100
AcDbEntity
  8
_2-6_B_b
  6
JWW_CENTER1
 62
     2
370
     9
100
AcDbLine
 10
-192.0838132025803
 20
-198.5156981308862
 30
0.0
 11
-212.2121336093432
 21
-198.5156981308862
 31
0.0
  0
LINE
  5
F1
330
1F
100
AcDbEntity
  8
_2-6_B_b
  6
Continuous
 62
     2
370
     9
100
AcDbLine
 10
-206.9625427098499
 20
-202.0156896472351
 30
0.0
 11
-209.4124376775366
 21
-204.4656837086794
 31
0.0
  0
LINE
  5
F2
330
1F
100
AcDbEntity
  8
_2-6_B_b
  6
Continuous
 62
     2
370
     9
100
AcDbLine
 10
-206.9625427098499
 20
-202.0156896472351
 30
0.0
 11
-205.831189280004
 21
-203.1471421708385
 31
0.0
  0
LINE
  5
F3
330
1F
100
AcDbEntity
  8
_2-6_B_b
  6
Continuous
 62
     2
370
     9
100
AcDbLine
 10
-205.831189280004
 20
-203.1471421708385
 30
0.0
 11
-207.8125689620368
 21
-205.1284227591137
 31
0.0
  0
LINE
  5
F4
330
1F
100
AcDbEntity
  8
_2-6_B_b
  6
Continuous
 62
     2
370
     9
100
AcDbLine
 10
-206.9625427098499
 20
-195.0157066145372
 30
0.0
 11
-209.4124376775366
 21
-192.565712553093
 31
0.0
  0
LINE
  5
F5
330
1F
100
AcDbEntity
  8
_2-6_B_b
  6
Continuous
 62
     2
370
     9
100
AcDbLine
 10
-206.9625427098499
 20
-195.0157066145372
 30
0.0
 11
-205.831189280004
 21
-193.8843531846914
 31
0.0
  0
LINE
  5
F6
330
1F
100
AcDbEntity
  8
_2-6_B_b
  6
Continuous
 62
     2
370
     9
100
AcDbLine
 10
-206.2124029652644
 20
-205.9284066637424
 30
0.0
 11
-204.112408055455
 21
-203.8283126601755
 31
0.0
  0
LINE
  5
F7
330
1F
100
AcDbEntity
  8
_2-6_B_b
  6
Continuous
 62
     2
370
     9
100
AcDbLine
 10
-204.112408055455
 20
-203.8283126601755
 30
0.0
 11
-204.112408055455
 21
-193.2033313359906
 31
0.0
  0
LINE
  5
F8
330
1F
100
AcDbEntity
  8
_2-6_B_b
  6
Continuous
 62
     2
370
     9
100
AcDbLine
 10
-206.2124029652644
 20
-191.103187785545
 30
0.0
 11
-204.112408055455
 21
-193.2033313359906
 31
0.0
  0
LINE
  5
F9
330
1F
100
AcDbEntity
  8
_2-6_B_b
  6
Continuous
 62
     2
370
     9
100
AcDbLine
 10
-206.2124029652644
 20
-191.103187785545
 30
0.0
 11
-206.2124029652644
 21
-186.5158404676984
 31
0.0
  0
LINE
  5
FA
330
1F
100
AcDbEntity
  8
_2-6_B_b
  6
Continuous
 62
     2
370
     9
100
AcDbLine
 10
-207.8125689620368
 20
-191.7659268359793
 30
0.0
 11
-205.7123758647123
 21
-193.8659712926676
 31
0.0
  0
LINE
  5
FB
330
1F
100
AcDbEntity
  8
2-Aﾚｲﾔ
  6
Continuous
 62
     2
370
     9
100
AcDbLine
 10
-204.112408055455
 20
-201.5156625466831
 30
0.0
 11
-206.4625156092979
 21
-201.5156625466831
 31
0.0
  0
LINE
  5
FC
330
1F
100
AcDbEntity
  8
2-Aﾚｲﾔ
  6
Continuous
 62
     2
370
     9
100
AcDbLine
 10
-206.4625156092979
 20
-201.5156625466831
 30
0.0
 11
-209.1124808734599
 21
-204.1656278108451
 31
0.0
  0
LINE
  5
FD
330
1F
100
AcDbEntity
  8
2-Aﾚｲﾔ
  6
Continuous
 62
     2
370
     9
100
AcDbLine
 10
-204.112408055455
 20
-195.5157337150892
 30
0.0
 11
-206.4625156092979
 21
-195.5157337150892
 31
0.0
  0
LINE
  5
FE
330
1F
100
AcDbEntity
  8
2-Aﾚｲﾔ
  6
Continuous
 62
     2
370
     9
100
AcDbLine
 10
-206.4625156092979
 20
-195.5157337150892
 30
0.0
 11
-209.1124808734599
 21
-192.8657189040484
 31
0.0
  0
LINE
  5
FF
330
1F
100
AcDbEntity
  8
_2-6_B_b
  6
Continuous
 62
     2
370
     9
100
AcDbLine
 10
-204.112408055455
 20
-195.0157066145372
 30
0.0
 11
-205.7123758647123
 21
-195.0157066145372
 31
0.0
  0
LINE
  5
100
330
1F
100
AcDbEntity
  8
_2-6_B_b
  6
Continuous
 62
     2
370
     9
100
AcDbLine
 10
-204.112408055455
 20
-202.0156896472351
 30
0.0
 11
-205.7123758647123
 21
-202.0156896472351
 31
0.0
  0
LINE
  5
101
330
1F
100
AcDbEntity
  8
_2-6_B_b
  6
Continuous
 62
     2
370
     9
100
AcDbLine
 10
-205.831189280004
 20
-193.8843531846914
 30
0.0
 11
-205.831189280004
 21
-195.5157337150892
 31
0.0
  0
LINE
  5
102
330
1F
100
AcDbEntity
  8
_2-6_B_b
  6
Continuous
 62
     2
370
     9
100
AcDbLine
 10
-205.831189280004
 20
-201.5156625466831
 30
0.0
 11
-205.831189280004
 21
-203.1471421708385
 31
0.0
  0
LINE
  5
103
330
1F
100
AcDbEntity
  8
_2-6_B_b
  6
Continuous
 62
     2
370
     9
100
AcDbLine
 10
-205.7123758647123
 20
-203.1655736097411
 30
0.0
 11
-205.7123758647123
 21
-201.5156625466831
 31
0.0
  0
LINE
  5
104
330
1F
100
AcDbEntity
  8
_2-6_B_b
  6
Continuous
 62
     2
370
     9
100
AcDbLine
 10
-205.7123758647123
 20
-195.5157337150892
 30
0.0
 11
-205.7123758647123
 21
-193.8659712926676
 31
0.0
  0
LINE
  5
105
330
1F
100
AcDbEntity
  8
2-Aﾚｲﾔ
  6
Continuous
 62
     2
370
     9
100
AcDbLine
 10
-206.4625156092979
 20
-201.5156625466831
 30
0.0
 11
-206.4625156092979
 21
-195.5157337150892
 31
0.0
  0
LINE
  5
106
330
1F
100
AcDbEntity
  8
2-Aﾚｲﾔ
  6
Continuous
 62
     2
370
     9
100
AcDbLine
 10
-206.4625156092979
 20
-200.645817542988
 30
0.0
 11
-204.112408055455
 21
-200.645817542988
 31
0.0
  0
LINE
  5
107
330
1F
100
AcDbEntity
  8
2-Aﾚｲﾔ
  6
Continuous
 62
     2
370
     9
100
AcDbLine
 10
-206.4625156092979
 20
-196.3857769062994
 30
0.0
 11
-204.112408055455
 21
-196.3857769062994
 31
0.0
  0
LINE
  5
108
330
1F
100
AcDbEntity
  8
_2-6_B_b
  6
Continuous
 62
     2
370
     9
100
AcDbLine
 10
-206.2124029652644
 20
-214.4157869971311
 30
0.0
 11
-206.2124029652644
 21
-205.9284066637424
 31
0.0
  0
LINE
  5
109
330
1F
100
AcDbEntity
  8
_2-6_B_b
  6
Continuous
 62
     2
370
     9
100
AcDbLine
 10
-209.4128340525668
 20
-206.8660813444744
 30
0.0
 11
-205.7123758647123
 21
-203.1655736097411
 31
0.0
  0
LINE
  5
10A
330
1F
100
AcDbEntity
  8
_2-6_B_b
  6
Continuous
 62
     2
370
     9
100
AcDbLine
 10
-205.831189280004
 20
-193.8843531846914
 30
0.0
 11
-207.8125689620368
 21
-191.9030725964162
 31
0.0
  0
LINE
  5
10B
330
1F
100
AcDbEntity
  8
_2-c_Shi
  6
Continuous
 62
     4
370
     9
100
AcDbLine
 10
-182.1887069495639
 20
-283.0463893292867
 30
0.0
 11
-177.8125284290373
 21
-283.0463893292867
 31
0.0
  0
LINE
  5
10C
330
1F
100
AcDbEntity
  8
_2-b_Tat
  6
Continuous
 62
     3
370
     9
100
AcDbLine
 10
-35.89153891011694
 20
-352.1527160179575
 30
0.0
 11
-35.89153891011694
 21
-353.1528445393796
 31
0.0
  0
LINE
  5
10D
330
1F
100
AcDbEntity
  8
_2-b_Tat
  6
Continuous
 62
     3
370
     9
100
AcDbLine
 10
-143.891447003897
 20
-245.1525400705693
 30
0.0
 11
-142.8913928027931
 21
-245.1525400705693
 31
0.0
  0
LINE
  5
10E
330
1F
100
AcDbEntity
  8
_2-b_Tat
  6
Continuous
 62
     3
370
     9
100
AcDbLine
 10
-35.89153891011694
 20
-353.1528445393796
 30
0.0
 11
-46.61705085132695
 21
-362.1526386930129
 31
0.0
  0
LINE
  5
10F
330
1F
100
AcDbEntity
  8
_2-b_Tat
  6
Continuous
 62
     3
370
     9
100
AcDbLine
 10
-56.40909959650077
 20
-359.5643345194807
 30
0.0
 11
-55.8910374320763
 21
-362.1526386930129
 31
0.0
  0
LINE
  5
110
330
1F
100
AcDbEntity
  8
_2-b_Tat
  6
Continuous
 62
     3
370
     9
100
AcDbLine
 10
-92.92713112551866
 20
-295.1169008416012
 30
0.0
 11
-96.14450724536056
 21
-301.0923535150825
 31
0.0
  0
LINE
  5
111
330
1F
100
AcDbEntity
  8
_2-b_Tat
  6
Continuous
 62
     3
370
     9
100
AcDbLine
 10
-96.14450724536056
 20
-301.0923535150825
 30
0.0
 11
-91.83095597959988
 21
-305.4055331792524
 31
0.0
  0
LINE
  5
112
330
1F
100
AcDbEntity
  8
_2-b_Tat
  6
Continuous
 62
     3
370
     9
100
AcDbLine
 10
-85.85589968114874
 20
-302.1883552469255
 30
0.0
 11
-91.83095597959988
 21
-305.4055331792524
 31
0.0
  0
LINE
  5
113
330
1F
100
AcDbEntity
  8
_2-b_Tat
  6
Continuous
 62
     3
370
     9
100
AcDbLine
 10
-44.37654099332445
 20
-343.6675157472347
 30
0.0
 11
-47.59391711316636
 21
-349.6425720456858
 31
0.0
  0
LINE
  5
114
330
1F
100
AcDbEntity
  8
_2-b_Tat
  6
Continuous
 62
     3
370
     9
100
AcDbLine
 10
-47.59391711316636
 20
-349.6425720456858
 30
0.0
 11
-40.34600149910085
 21
-356.8904876597514
 31
0.0
  0
LINE
  5
115
330
1F
100
AcDbEntity
  8
_2-b_Tat
  6
Continuous
 62
     3
370
     9
100
AcDbLine
 10
-111.2345046437077
 20
-276.8095273234123
 30
0.0
 11
-115.8306713059754
 21
-279.2842948242418
 31
0.0
  0
LINE
  5
116
330
1F
100
AcDbEntity
  8
_2-b_Tat
  6
Continuous
 62
     3
370
     9
100
AcDbLine
 10
-139.0451676975958
 20
-270.3005538593301
 30
0.0
 11
-116.8913708866945
 21
-271.1527601741829
 31
0.0
  0
LINE
  5
117
330
1F
100
AcDbEntity
  8
_2-b_Tat
  6
Continuous
 62
     3
370
     9
100
AcDbLine
 10
-139.2372113997102
 20
-275.2969602083061
 30
0.0
 11
-119.0413090503045
 21
-276.0737561736702
 31
0.0
  0
LINE
  5
118
330
1F
100
AcDbEntity
  8
_2-b_Tat
  6
Continuous
 62
     3
370
     9
100
AcDbLine
 10
-119.0413090503045
 20
-276.0737561736702
 30
0.0
 11
-95.40189862634821
 21
-299.713265691384
 31
0.0
  0
LINE
  5
119
330
1F
100
AcDbEntity
  8
_2-b_Tat
  6
Continuous
 62
     3
370
     9
100
AcDbLine
 10
-126.2709914129825
 20
-275.79569909001
 30
0.0
 11
-142.0673291150819
 21
-292.4413693879936
 31
0.0
  0
LINE
  5
11A
330
1F
100
AcDbEntity
  8
_2-b_Tat
  6
Continuous
 62
     3
370
     9
100
AcDbLine
 10
-142.8913928027931
 20
-266.3037062426706
 30
0.0
 11
-142.8913928027931
 21
-245.1525400705693
 31
0.0
  0
LINE
  5
11B
330
1F
100
AcDbEntity
  8
_2-b_Tat
  6
Continuous
 62
     3
370
     9
100
AcDbLine
 10
-106.2692137345996
 20
-288.8458514893751
 30
0.0
 11
-142.0673291150819
 21
-326.569259485122
 31
0.0
  0
LINE
  5
11C
330
1F
100
AcDbEntity
  8
_2-b_Tat
  6
Continuous
 62
     3
370
     9
100
AcDbLine
 10
-112.8184192642432
 20
-282.2967450534888
 30
0.0
 11
-137.8262153860836
 21
-306.0281392578826
 31
0.0
  0
LINE
  5
11D
330
1F
100
AcDbEntity
  8
_2-b_Tat
  6
Continuous
 62
     3
370
     9
100
AcDbLine
 10
-79.58435486013497
 20
-315.5307351372791
 30
0.0
 11
-117.3079610433969
 21
-351.3290239318371
 31
0.0
  0
LINE
  5
11E
330
1F
100
AcDbEntity
  8
_2-b_Tat
  6
Continuous
 62
     3
370
     9
100
AcDbLine
 10
-73.03524842424878
 20
-322.0798167997258
 30
0.0
 11
-96.76661785520315
 21
-347.0877367887632
 31
0.0
  0
LINE
  5
11F
330
1F
100
AcDbEntity
  8
_2-b_Tat
  6
Continuous
 62
     3
370
     9
100
AcDbLine
 10
-56.41811712843702
 20
-338.6969480955376
 30
0.0
 11
-64.38079601564601
 21
-347.0877367887632
 31
0.0
  0
LINE
  5
120
330
1F
100
AcDbEntity
  8
_2-b_Tat
  6
Continuous
 62
     3
370
     9
100
AcDbLine
 10
-47.43873628885723
 20
-349.7974555887224
 30
0.0
 11
-49.05257722417042
 21
-351.3286275568069
 31
0.0
  0
LINE
  5
121
330
1F
100
AcDbEntity
  8
_2-b_Tat
  6
Continuous
 62
     3
370
     9
100
AcDbLine
 10
-147.8912674332828
 20
-264.1529753290001
 30
0.0
 11
-142.8913928027931
 21
-264.1529753290001
 31
0.0
  0
LINE
  5
122
330
1F
100
AcDbEntity
  8
_2-b_Tat
  6
Continuous
 62
     3
370
     9
100
AcDbLine
 10
-147.8912674332828
 20
-256.152541720168
 30
0.0
 11
-142.8913928027931
 21
-256.152541720168
 31
0.0
  0
LINE
  5
123
330
1F
100
AcDbEntity
  8
2-Aﾚｲﾔ
  6
Continuous
 62
     2
370
     9
100
AcDbLine
 10
-140.2912716986741
 20
-254.1524333179602
 30
0.0
 11
-142.8913928027931
 21
-254.1524333179602
 31
0.0
  0
LINE
  5
124
330
1F
100
AcDbEntity
  8
2-Aﾚｲﾔ
  6
Continuous
 62
     2
370
     9
100
AcDbLine
 10
-140.2912716986741
 20
-266.1527864499355
 30
0.0
 11
-142.8913928027931
 21
-266.1527864499355
 31
0.0
  0
LINE
  5
125
330
1F
100
AcDbEntity
  8
2-Aﾚｲﾔ
  6
Continuous
 62
     2
370
     9
100
AcDbLine
 10
-140.2912716986741
 20
-260.6316786547799
 30
0.0
 11
-140.2912716986741
 21
-259.6735411131157
 31
0.0
  0
LINE
  5
126
330
1F
100
AcDbEntity
  8
2-Aﾚｲﾔ
  6
Continuous
 62
     2
370
     9
100
AcDbLine
 10
-154.8914486534958
 20
-257.1525959212722
 30
0.0
 11
-154.8914486534958
 21
-263.152524752866
 31
0.0
  0
LINE
  5
127
330
1F
100
AcDbEntity
  8
2-Aﾚｲﾔ
  6
Continuous
 62
     2
370
     9
100
AcDbLine
 10
-138.3027572660984
 20
-259.6735411131157
 30
0.0
 11
-140.2912716986741
 21
-259.6735411131157
 31
0.0
  0
LINE
  5
128
330
1F
100
AcDbEntity
  8
2-Aﾚｲﾔ
  6
Continuous
 62
     2
370
     9
100
AcDbLine
 10
-138.3027572660984
 20
-260.6316786547799
 30
0.0
 11
-140.2912716986741
 21
-260.6316786547799
 31
0.0
  0
LINE
  5
129
330
1F
100
AcDbEntity
  8
_2-b_Tat
  6
Continuous
 62
     3
370
     9
100
AcDbLine
 10
-147.8912674332828
 20
-249.9196434645953
 30
0.0
 11
-147.8912674332828
 21
-257.1525959212722
 31
0.0
  0
LINE
  5
12A
330
1F
100
AcDbEntity
  8
_2-b_Tat
  6
Continuous
 62
     3
370
     9
100
AcDbLine
 10
-142.8913928027931
 20
-303.8522385297969
 30
0.0
 11
-142.8913928027931
 21
-294.5066814826636
 31
0.0
  0
LINE
  5
12B
330
1F
100
AcDbEntity
  8
_2-b_Tat
  6
Continuous
 62
     3
370
     9
100
AcDbLine
 10
-94.59051893960219
 20
-352.1527160179575
 30
0.0
 11
-85.24518485342338
 21
-352.1527160179575
 31
0.0
  0
LINE
  5
12C
330
1F
100
AcDbEntity
  8
_2-b_Tat
  6
Continuous
 62
     3
370
     9
100
AcDbLine
 10
-62.20469710004505
 20
-352.1527160179575
 30
0.0
 11
-51.11729475629505
 21
-352.1527160179575
 31
0.0
  0
LINE
  5
12D
330
1F
100
AcDbEntity
  8
_2-b_Tat
  6
Continuous
 62
     3
370
     9
100
AcDbLine
 10
-126.8913183351893
 20
-357.1527888359623
 30
0.0
 11
-40.65834502287026
 21
-357.1527888359623
 31
0.0
  0
LINE
  5
12E
330
1F
100
AcDbEntity
  8
_2-b_Tat
  6
Continuous
 62
     3
370
     9
100
AcDbLine
 10
-55.8910374320763
 20
-362.1526386930129
 30
0.0
 11
-46.61705085132695
 21
-362.1526386930129
 31
0.0
  0
LINE
  5
12F
330
1F
100
AcDbEntity
  8
_2-b_Tat
  6
Continuous
 62
     3
370
     9
100
AcDbLine
 10
-147.9661823139839
 20
-250.0088278463822
 30
0.0
 11
-143.891447003897
 21
-245.1525400705693
 31
0.0
  0
LINE
  5
130
330
1F
100
AcDbEntity
  8
_2-b_Tat
  6
Continuous
 62
     3
370
     9
100
AcDbLine
 10
-142.8913928027931
 20
-336.2380603693541
 30
0.0
 11
-142.8913928027931
 21
-328.6342990719588
 31
0.0
  0
LINE
  5
131
330
1F
100
AcDbEntity
  8
_2-b_Tat
  6
Continuous
 62
     3
370
     9
100
AcDbLine
 10
-129.1526378822754
 20
-347.0878358825207
 30
0.0
 11
-89.65208243878789
 21
-305.4629084648686
 31
0.0
  0
LINE
  5
132
330
1F
100
AcDbEntity
  8
_2-b_Tat
  6
Continuous
 62
     3
370
     9
100
AcDbLine
 10
-126.9765389666746
 20
-352.1527160179575
 30
0.0
 11
-119.3727776692792
 21
-352.1527160179575
 31
0.0
  0
LINE
  5
133
330
1F
100
AcDbEntity
  8
_2-b_Tat
  6
Continuous
 62
     3
370
     9
100
AcDbLine
 10
-147.8912674332828
 20
-336.1527406441112
 30
0.0
 11
-147.8912674332828
 21
-263.152524752866
 31
0.0
  0
LINE
  5
134
330
1F
100
AcDbEntity
  8
_2-9_Kut
  6
Continuous
 62
     6
370
     9
100
AcDbLine
 10
-12.39521987204972
 20
-374.5740659742195
 30
0.0
 11
-11.89122902119612
 21
-374.151232910792
 31
0.0
  0
LINE
  5
135
330
1F
100
AcDbEntity
  8
_2-9_Kut
  6
Continuous
 62
     6
370
     9
100
AcDbLine
 10
-86.67332408710473
 20
-378.2647138800774
 30
0.0
 11
-86.89133035369497
 21
-378.0817868036567
 31
0.0
  0
LINE
  5
136
330
1F
100
AcDbEntity
  8
_2-9_Kut
  6
Continuous
 62
     6
370
     9
100
AcDbLine
 10
-86.89133035369497
 20
-378.0817868036567
 30
0.0
 11
-81.79969490372201
 21
-373.8094337675936
 31
0.0
  0
LINE
  5
137
330
1F
100
AcDbEntity
  8
_2-9_Kut
  6
Continuous
 62
     6
370
     9
100
AcDbLine
 10
-84.58799505341136
 20
-378.9624330269237
 30
0.0
 11
-14.16652078809562
 21
-375.2718842148234
 31
0.0
  0
LINE
  5
138
330
1F
100
AcDbEntity
  8
_2-9_Kut
  6
JWW_PHANTOM2
 62
     6
370
     9
100
AcDbLine
 10
-85.79753345795717
 20
-379.02585303175
 30
0.0
 11
-88.27111183369612
 21
-379.1554428931742
 31
0.0
  0
LINE
  5
139
330
1F
100
AcDbEntity
  8
_2-9_Kut
  6
Continuous
 62
     6
370
     9
100
AcDbLine
 10
-56.89128982069548
 20
-362.1526386930129
 30
0.0
 11
-69.91627240564509
 21
-373.0819121731668
 31
0.0
  0
LINE
  5
13A
330
1F
100
AcDbEntity
  8
_2-c_Shi
  6
Continuous
 62
     4
370
     9
100
AcDbLine
 10
-178.8123844426262
 20
-274.7655699334923
 30
0.0
 11
-177.8125284290373
 21
-273.5738188584252
 31
0.0
  0
LINE
  5
13B
330
1F
100
AcDbEntity
  8
_2-c_Shi
  6
Continuous
 62
     4
370
     9
100
AcDbLine
 10
-178.8123844426262
 20
-274.7655699334923
 30
0.0
 11
-178.8123844426262
 21
-276.265502594512
 31
0.0
  0
LINE
  5
13C
330
1F
100
AcDbEntity
  8
_2-c_Shi
  6
Continuous
 62
     4
370
     9
100
AcDbLine
 10
-178.8123844426262
 20
-276.265502594512
 30
0.0
 11
-177.8125284290373
 21
-277.2656063424949
 31
0.0
  0
LINE
  5
13D
330
1F
100
AcDbEntity
  8
_2-c_Shi
  6
Continuous
 62
     4
370
     9
100
AcDbLine
 10
-177.8125284290373
 20
-277.2656063424949
 30
0.0
 11
-177.8125284290373
 21
-377.1678450778558
 31
0.0
  0
LINE
  5
13E
330
1F
100
AcDbEntity
  8
_2-9_Kut
  6
Continuous
 62
     6
370
     9
100
AcDbLine
 10
-166.8913063166836
 20
-227.1525553882727
 30
0.0
 11
-169.8912707324806
 21
-230.7277590665952
 31
0.0
  0
LINE
  5
13F
330
1F
100
AcDbEntity
  8
_2-9_Kut
  6
Continuous
 62
     6
370
     9
100
AcDbLine
 10
-174.1893633720649
 20
-207.5079116120675
 30
0.0
 11
-173.8912893493815
 21
-207.152660491283
 31
0.0
  0
LINE
  5
140
330
1F
100
AcDbEntity
  8
_2-9_Kut
  6
Continuous
 62
     6
370
     9
100
AcDbLine
 10
-174.1893633720649
 20
-293.9953576937518
 30
0.0
 11
-173.8912893493815
 21
-294.3507079082939
 31
0.0
  0
LINE
  5
141
330
1F
100
AcDbEntity
  8
_2-9_Kut
  6
Continuous
 62
     6
370
     9
100
AcDbLine
 10
-149.3912496411813
 20
-265.1527322488316
 30
0.0
 11
-173.8912893493815
 21
-294.3507079082939
 31
0.0
  0
LINE
  5
142
330
1F
100
AcDbEntity
  8
_2-9_Kut
  6
Continuous
 62
     6
370
     9
100
AcDbLine
 10
-165.1704441232262
 20
-249.1528559687428
 30
0.0
 11
-145.8912581248324
 21
-235.6526197226264
 31
0.0
  0
LINE
  5
143
330
1F
100
AcDbEntity
  8
_2-c_Shi
  6
Continuous
 62
     4
370
     9
100
AcDbLine
 10
-177.8125284290373
 20
-342.5744372812391
 30
0.0
 11
-132.555319328719
 21
-387.8316463815574
 31
0.0
  0
LINE
  5
144
330
1F
100
AcDbEntity
  8
2-Aﾚｲﾔ
  6
Continuous
 62
     2
370
     9
100
AcDbLine
 10
-144.5914453071668
 20
-364.340133390731
 30
0.0
 11
-160.148174303532
 21
-348.7837264490777
 31
0.0
  0
LINE
  5
145
330
1F
100
AcDbEntity
  8
2-Aﾚｲﾔ
  6
Continuous
 62
     2
370
     9
100
AcDbLine
 10
-161.2794286396203
 20
-349.9151789726811
 30
0.0
 11
-160.148174303532
 21
-348.7837264490777
 31
0.0
  0
LINE
  5
146
330
1F
100
AcDbEntity
  8
2-Aﾚｲﾔ
  6
Continuous
 62
     2
370
     9
100
AcDbLine
 10
-145.7229969245278
 20
-365.4714868205769
 30
0.0
 11
-144.5914453071668
 21
-364.340133390731
 31
0.0
  0
LINE
  5
147
330
1F
100
AcDbEntity
  8
2-Aﾚｲﾔ
  6
Continuous
 62
     2
370
     9
100
AcDbLine
 10
-158.87521589416
 20
-350.0566600850104
 30
0.0
 11
-157.1073832596282
 21
-348.2887531301603
 31
0.0
  0
LINE
  5
148
330
1F
100
AcDbEntity
  8
2-Aﾚｲﾔ
  6
Continuous
 62
     2
370
     9
100
AcDbLine
 10
-145.8645028102963
 20
-363.0673731688741
 30
0.0
 11
-144.0964719882494
 21
-361.2995653077816
 31
0.0
  0
LINE
  5
149
330
1F
100
AcDbEntity
  8
2-Aﾚｲﾔ
  6
Continuous
 62
     2
370
     9
100
AcDbLine
 10
-149.0373858330024
 20
-346.3105444483689
 30
0.0
 11
-154.0614393403322
 21
-351.334672276017
 31
0.0
  0
LINE
  5
14A
330
1F
100
AcDbEntity
  8
2-Aﾚｲﾔ
  6
Continuous
 62
     2
370
     9
100
AcDbLine
 10
-142.118461493973
 20
-353.2295431077163
 30
0.0
 11
-147.1425150013029
 21
-358.2536213884857
 31
0.0
  0
LINE
  5
14B
330
1F
100
AcDbEntity
  8
2-Aﾚｲﾔ
  6
Continuous
 62
     2
370
     9
100
AcDbLine
 10
-150.1399029794038
 20
-343.9427982056837
 30
0.0
 11
-139.7506161575303
 21
-354.3318620666027
 31
0.0
  0
LINE
  5
14C
330
1F
100
AcDbEntity
  8
2-Aﾚｲﾔ
  6
Continuous
 62
     2
370
     9
100
AcDbLine
 10
-152.507847409604
 20
-342.8404792467973
 30
0.0
 11
-157.5315045419038
 21
-347.8645327541272
 31
0.0
  0
LINE
  5
14D
330
1F
100
AcDbEntity
  8
2-Aﾚｲﾔ
  6
Continuous
 62
     2
370
     9
100
AcDbLine
 10
-143.6722516122163
 20
-361.7239838713298
 30
0.0
 11
-157.5315045419038
 21
-347.8645327541272
 31
0.0
  0
LINE
  5
14E
330
1F
100
AcDbEntity
  8
2-Aﾚｲﾔ
  6
Continuous
 62
     2
370
     9
100
AcDbLine
 10
-138.6481981048864
 20
-356.6997321764848
 30
0.0
 11
-143.6722516122163
 21
-361.7239838713298
 31
0.0
  0
LINE
  5
14F
330
1F
100
AcDbEntity
  8
2-Aﾚｲﾔ
  6
Continuous
 62
     2
370
     9
100
AcDbLine
 10
-153.8368928857442
 20
-355.094908773108
 30
0.0
 11
-152.0692584387274
 21
-353.327076138576
 31
0.0
  0
LINE
  5
150
330
1F
100
AcDbEntity
  8
2-Aﾚｲﾔ
  6
Continuous
 62
     2
370
     9
100
AcDbLine
 10
-154.5442241270721
 20
-354.3877757192952
 30
0.0
 11
-152.7763914925402
 21
-352.6200421785209
 31
0.0
  0
LINE
  5
151
330
1F
100
AcDbEntity
  8
_2-9_Kut
  6
Continuous
 62
     6
370
     9
100
AcDbLine
 10
-81.69693467715211
 20
-373.8041074781258
 30
0.0
 11
-11.89122902119612
 21
-370.145739363787
 31
0.0
  0
LINE
  5
152
330
1F
100
AcDbEntity
  8
_2-9_Kut
  6
Continuous
 62
     6
370
     9
100
AcDbLine
 10
-16.89130183920116
 20
-367.1525133235027
 30
0.0
 11
-21.0291598728416
 21
-370.6246347205433
 31
0.0
  0
LINE
  5
153
330
1F
100
AcDbEntity
  8
_2-c_Shi
  6
Continuous
 62
     4
370
     9
100
AcDbLine
 10
-215.3587567863008
 20
-393.0094934005908
 30
0.0
 11
-192.4986196716471
 21
-391.8288408263683
 31
0.0
  0
LINE
  5
154
330
1F
100
AcDbEntity
  8
_2-c_Shi
  6
Continuous
 62
     4
370
     9
100
AcDbLine
 10
-217.6601102114335
 20
-280.0029227539293
 30
0.0
 11
-194.8440698188855
 21
-280.2512021634483
 31
0.0
  0
LINE
  5
155
330
1F
100
AcDbEntity
  8
_2-6_B_b
  6
Continuous
 62
     2
370
     9
100
AcDbLine
 10
-17.81257650306003
 20
-406.5153284440083
 30
0.0
 11
-17.81257650306003
 21
-408.1156430814171
 31
0.0
  0
LINE
  5
156
330
1F
100
AcDbEntity
  8
_2-9_Kut
  6
Continuous
 62
     6
370
     9
100
AcDbLine
 10
-127.1616461057611
 20
-379.0831787704875
 30
0.0
 11
-86.89133035369497
 21
-379.0831787704875
 31
0.0
  0
LINE
  5
157
330
1F
100
AcDbEntity
  8
_2-9_Kut
  6
Continuous
 62
     6
370
     9
100
AcDbLine
 10
-170.1183936247646
 20
-348.1472472443917
 30
0.0
 11
-170.1183936247646
 21
-349.5615381254566
 31
0.0
  0
LINE
  5
158
330
1F
100
AcDbEntity
  8
_2-9_Kut
  6
Continuous
 62
     6
370
     9
100
AcDbLine
 10
-143.9554615712685
 20
-374.3102783916453
 30
0.0
 11
-145.369727678894
 21
-374.3102783916453
 31
0.0
  0
LINE
  5
159
330
1F
100
AcDbEntity
  8
_2-9_Kut
  6
Continuous
 62
     6
370
     9
100
AcDbLine
 10
-158.4510946118845
 20
-337.8942391125765
 30
0.0
 11
-153.006388103793
 21
-343.3390199409862
 31
0.0
  0
LINE
  5
15A
330
1F
100
AcDbEntity
  8
_2-9_Kut
  6
Continuous
 62
     6
370
     9
100
AcDbLine
 10
-158.4510946118845
 20
-337.8942391125765
 30
0.0
 11
-170.1183936247646
 21
-348.1472472443917
 31
0.0
  0
LINE
  5
15B
330
1F
100
AcDbEntity
  8
_2-9_Kut
  6
Continuous
 62
     6
370
     9
100
AcDbLine
 10
-139.1468378928328
 20
-357.1985206050676
 30
0.0
 11
-133.7022304784988
 21
-362.643028925644
 31
0.0
  0
LINE
  5
15C
330
1F
100
AcDbEntity
  8
_2-9_Kut
  6
Continuous
 62
     6
370
     9
100
AcDbLine
 10
-133.7022304784988
 20
-362.643028925644
 30
0.0
 11
-143.9554615712685
 21
-374.3102783916453
 31
0.0
  0
LINE
  5
15D
330
1F
100
AcDbEntity
  8
_2-9_Kut
  6
Continuous
 62
     6
370
     9
100
AcDbLine
 10
-155.3945476605316
 20
-340.9508603842475
 30
0.0
 11
-162.1121134842376
 21
-349.082494128064
 31
0.0
  0
LINE
  5
15E
330
1F
100
AcDbEntity
  8
_2-9_Kut
  6
Continuous
 62
     6
370
     9
100
AcDbLine
 10
-136.7588765236092
 20
-359.5865067477305
 30
0.0
 11
-144.8907084549407
 21
-366.3039734776789
 31
0.0
  0
LINE
  5
15F
330
1F
100
AcDbEntity
  8
_2-9_Kut
  6
Continuous
 62
     6
370
     9
100
AcDbLine
 10
-166.354713619599
 20
-344.8398939927026
 30
0.0
 11
-140.6479101320643
 21
-370.5466974802372
 31
0.0
  0
LINE
  5
160
330
1F
100
AcDbEntity
  8
_2-9_Kut
  6
Continuous
 62
     6
370
     9
100
AcDbLine
 10
-164.1077626673562
 20
-340.7228951950244
 30
0.0
 11
-170.1160153745836
 21
-348.1453396895591
 31
0.0
  0
LINE
  5
161
330
1F
100
AcDbEntity
  8
_2-9_Kut
  6
Continuous
 62
     6
370
     9
100
AcDbLine
 10
-136.5308617875074
 20
-368.2997465279945
 30
0.0
 11
-143.9532815086026
 21
-374.3080983289794
 31
0.0
  0
LINE
  5
162
330
1F
100
AcDbEntity
  8
_2-9_Kut
  6
Continuous
 62
     6
370
     9
100
AcDbLine
 10
-81.69693467715211
 20
-373.8041074781258
 30
0.0
 11
-125.3696345943893
 21
-373.8041074781258
 31
0.0
  0
LINE
  5
163
330
1F
100
AcDbEntity
  8
_2-c_Shi
  6
Continuous
 62
     4
370
     9
100
AcDbLine
 10
-195.0712918049272
 20
-280.9593757017153
 30
0.0
 11
-195.2732448827957
 21
-281.7248749787197
 31
0.0
  0
LINE
  5
164
330
1F
100
AcDbEntity
  8
_2-c_Shi
  6
Continuous
 62
     4
370
     9
100
AcDbLine
 10
-216.1510113778413
 20
-281.4976529926781
 30
0.0
 11
-195.2732448827957
 21
-281.7248749787197
 31
0.0
  0
LINE
  5
165
330
1F
100
AcDbEntity
  8
_2-c_Shi
  6
Continuous
 62
     4
370
     9
100
AcDbLine
 10
-193.0604812769047
 20
-390.3775879737406
 30
0.0
 11
-195.2732448827957
 21
-281.7248749787197
 31
0.0
  0
LINE
  5
166
330
1F
100
AcDbEntity
  8
_2-c_Shi
  6
Continuous
 62
     4
370
     9
100
AcDbLine
 10
-192.8276109466833
 20
-391.1342431328846
 30
0.0
 11
-193.0604812769047
 21
-390.3775879737406
 31
0.0
  0
LINE
  5
167
330
1F
100
AcDbEntity
  8
_2-c_Shi
  6
Continuous
 62
     4
370
     9
100
AcDbLine
 10
-213.9117897386868
 20
-391.4544646103784
 30
0.0
 11
-193.0604812769047
 21
-390.3775879737406
 31
0.0
  0
LINE
  5
168
330
1F
100
AcDbEntity
  8
_2-6_B_b
  6
Continuous
 62
     2
370
     9
100
AcDbLine
 10
-6.425316448990827
 20
-406.5153284440083
 30
0.0
 11
-177.8125284290373
 21
-406.5153284440083
 31
0.0
  0
LINE
  5
169
330
1F
100
AcDbEntity
  8
_2-6_B_b
  6
Continuous
 62
     2
370
     9
100
AcDbLine
 10
-177.8125284290373
 20
-406.5153284440083
 30
0.0
 11
-177.8125284290373
 21
-408.1156430814171
 31
0.0
  0
LINE
  5
16A
330
1F
100
AcDbEntity
  8
_2-c_Shi
  6
Continuous
 62
     4
370
     9
100
AcDbLine
 10
27.1872861089243
 20
-387.5155372950014
 30
0.0
 11
-18.27801988223024
 21
-387.5155372950014
 31
0.0
  0
LINE
  5
16B
330
1F
100
AcDbEntity
  8
_2-c_Shi
  6
Continuous
 62
     4
370
     9
100
AcDbLine
 10
-39.49111965279445
 20
-387.5155372950014
 30
0.0
 11
-69.06188602812637
 21
-387.5155372950014
 31
0.0
  0
LINE
  5
16C
330
1F
100
AcDbEntity
  8
_2-c_Shi
  6
Continuous
 62
     4
370
     9
100
AcDbLine
 10
-188.8127282661512
 20
-171.5154238261685
 30
0.0
 11
-188.8127282661512
 21
-225.2847371523819
 31
0.0
  0
LINE
  5
16D
330
1F
100
AcDbEntity
  8
_2-c_Shi
  6
Continuous
 62
     4
370
     9
100
AcDbLine
 10
-188.8127282661512
 20
-246.0495863107093
 30
0.0
 11
-188.8127282661512
 21
-271.9289615770018
 31
0.0
  0
LINE
  5
16E
330
1F
100
AcDbEntity
  8
_2-c_Shi
  6
Continuous
 62
     4
370
     9
100
AcDbLine
 10
-181.5488585571216
 20
-388.5554271866369
 30
0.0
 11
-87.62353412816543
 21
-387.1678420732293
 31
0.0
  0
LINE
  5
16F
330
1F
100
AcDbEntity
  8
_2-c_Shi
  6
Continuous
 62
     4
370
     9
100
AcDbLine
 10
-167.812481886785
 20
-387.1678420732293
 30
0.0
 11
-87.62353412816543
 21
-387.1678420732293
 31
0.0
  0
LINE
  5
170
330
1F
100
AcDbEntity
  8
_2-9_Kut
  6
Continuous
 62
     6
370
     9
100
AcDbLine
 10
-121.6191340589766
 20
-373.8041074781258
 30
0.0
 11
-121.6191340589766
 21
-357.1527888359623
 31
0.0
  0
LINE
  5
171
330
1F
100
AcDbEntity
  8
_2-9_Kut
  6
Continuous
 62
     6
370
     9
100
AcDbLine
 10
-107.8182473524808
 20
-368.65254507828
 30
0.0
 11
-107.8182473524808
 21
-368.936572560832
 31
0.0
  0
LINE
  5
172
330
1F
100
AcDbEntity
  8
_2-9_Kut
  6
Continuous
 62
     6
370
     9
100
AcDbLine
 10
-109.3182295603793
 20
-367.1525133235027
 30
0.0
 11
-121.6191340589766
 21
-367.1525133235027
 31
0.0
  0
LINE
  5
173
330
1F
100
AcDbEntity
  8
_2-9_Kut
  6
Continuous
 62
     6
370
     9
100
AcDbLine
 10
-93.77487822128211
 20
-357.1527888359623
 30
0.0
 11
-113.6190968251747
 21
-373.8041074781258
 31
0.0
  0
LINE
  5
174
330
1F
100
AcDbEntity
  8
_2-9_Kut
  6
Continuous
 62
     6
370
     9
100
AcDbLine
 10
-145.8912581248324
 20
-235.6526197226264
 30
0.0
 11
-145.8912581248324
 21
-247.5359431269459
 31
0.0
  0
LINE
  5
175
330
1F
100
AcDbEntity
  8
_2-9_Kut
  6
Continuous
 62
     6
370
     9
100
AcDbLine
 10
-145.8912581248324
 20
-240.6528907281465
 30
0.0
 11
-149.3912496411813
 21
-256.43495892916
 31
0.0
  0
LINE
  5
176
330
1F
100
AcDbEntity
  8
_2-9_Kut
  6
Continuous
 62
     6
370
     9
100
AcDbLine
 10
-174.891244456728
 20
-209.4362761338159
 30
0.0
 11
-174.891244456728
 21
-331.3534813257631
 31
0.0
  0
LINE
  5
177
330
1F
100
AcDbEntity
  8
_2-9_Kut
  6
Continuous
 62
     6
370
     9
100
AcDbLine
 10
-169.8912707324806
 20
-246.6954298754831
 30
0.0
 11
-169.8912707324806
 21
-230.7277590665952
 31
0.0
  0
LINE
  5
178
330
1F
100
AcDbEntity
  8
_2-9_Kut
  6
Continuous
 62
     6
370
     9
100
AcDbLine
 10
-169.8912707324806
 20
-329.2824713400345
 30
0.0
 11
-169.8912707324806
 21
-289.583604514268
 31
0.0
  0
LINE
  5
179
330
1F
100
AcDbEntity
  8
_2-9_Kut
  6
Continuous
 62
     6
370
     9
100
AcDbLine
 10
-149.3912496411813
 20
-256.43495892916
 30
0.0
 11
-149.3912496411813
 21
-258.0226391124823
 31
0.0
  0
LINE
  5
17A
330
1F
100
AcDbEntity
  8
_2-9_Kut
  6
Continuous
 62
     6
370
     9
100
AcDbLine
 10
-149.3912496411813
 20
-262.2826797491709
 30
0.0
 11
-149.3912496411813
 21
-265.1527322488316
 31
0.0
  0
LINE
  5
17B
330
1F
100
AcDbEntity
  8
_2-9_Kut
  6
Continuous
 62
     6
370
     9
100
AcDbLine
 10
-169.8912707324806
 20
-329.2824713400345
 30
0.0
 11
-159.9565269764477
 21
-339.2172150960674
 31
0.0
  0
LINE
  5
17C
330
1F
100
AcDbEntity
  8
_2-9_Kut
  6
Continuous
 62
     6
370
     9
100
AcDbLine
 10
-135.0252312354291
 20
-364.1484612902072
 30
0.0
 11
-125.3696345943893
 21
-373.8041074781258
 31
0.0
  0
LINE
  5
17D
330
1F
100
AcDbEntity
  8
_2-9_Kut
  6
Continuous
 62
     6
370
     9
100
AcDbLine
 10
-164.1077626673562
 20
-340.7228951950244
 30
0.0
 11
-162.9674907993316
 21
-341.8631422896096
 31
0.0
  0
LINE
  5
17E
330
1F
100
AcDbEntity
  8
_2-9_Kut
  6
Continuous
 62
     6
370
     9
100
AcDbLine
 10
-174.891244456728
 20
-331.3534813257631
 30
0.0
 11
-164.7403772154981
 21
-341.5043981138717
 31
0.0
  0
LINE
  5
17F
330
1F
100
AcDbEntity
  8
_2-9_Kut
  6
Continuous
 62
     6
370
     9
100
AcDbLine
 10
-136.5308617875074
 20
-368.2997465279945
 30
0.0
 11
-137.6712327492895
 21
-367.1594251130912
 31
0.0
  0
LINE
  5
180
330
1F
100
AcDbEntity
  8
_2-9_Kut
  6
Continuous
 62
     6
370
     9
100
AcDbLine
 10
-137.3124142532334
 20
-368.9323610761364
 30
0.0
 11
-127.1616461057611
 21
-379.0831787704875
 31
0.0
  0
LINE
  5
181
330
1F
100
AcDbEntity
  8
_2-9_Kut
  6
Continuous
 62
     6
370
     9
100
AcDbLine
 10
-170.1183936247646
 20
-349.5615381254566
 30
0.0
 11
-145.369727678894
 21
-374.3102783916453
 31
0.0
  0
LINE
  5
182
330
1F
100
AcDbEntity
  8
_2-c_Shi
  6
Continuous
 62
     4
370
     9
100
AcDbLine
 10
-16.17643947230005
 20
-385.7521143326802
 30
0.0
 11
-27.81212757652457
 21
-395.5155745288034
 31
0.0
  0
LINE
  5
183
330
1F
100
AcDbEntity
  8
_2-c_Shi
  6
Continuous
 62
     4
370
     9
100
AcDbLine
 10
-39.28520282462438
 20
-388.4969618696877
 30
0.0
 11
-37.8126695875647
 21
-395.5155745288034
 31
0.0
  0
LINE
  5
184
330
1F
100
AcDbEntity
  8
_2-c_Shi
  6
Continuous
 62
     4
370
     9
100
AcDbLine
 10
-186.3562931104668
 20
-224.9067935611203
 30
0.0
 11
-196.8127654999531
 21
-226.5155311679202
 31
0.0
  0
LINE
  5
185
330
1F
100
AcDbEntity
  8
_2-c_Shi
  6
Continuous
 62
     4
370
     9
100
AcDbLine
 10
-184.9821599746454
 20
-250.6145879862306
 30
0.0
 11
-196.8127654999531
 21
-236.515478616415
 31
0.0
  0
LINE
  5
186
330
1F
100
AcDbEntity
  8
_2-c_Shi
  6
Continuous
 62
     4
370
     9
100
AcDbLine
 10
-185.1556731440997
 20
-180.4372807394957
 30
0.0
 11
-188.8127282661512
 21
-176.5154966441734
 31
0.0
  0
LINE
  5
187
330
1F
100
AcDbEntity
  8
_2-c_Shi
  6
Continuous
 62
     4
370
     9
100
AcDbLine
 10
-183.8124572606311
 20
-183.8472455771187
 30
0.0
 11
-183.8124572606311
 21
-268.8876750643103
 31
0.0
  0
LINE
  5
188
330
1F
100
AcDbEntity
  8
_2-9_Kut
  6
Continuous
 62
     6
370
     9
100
AcDbLine
 10
-40.46144572663621
 20
-362.1526386930129
 30
0.0
 11
-56.89128982069548
 21
-362.1526386930129
 31
0.0
  0
LINE
  5
189
330
1F
100
AcDbEntity
  8
_2-9_Kut
  6
Continuous
 62
     6
370
     9
100
AcDbLine
 10
-31.39119591139121
 20
-355.1526061134362
 30
0.0
 11
-51.61543907545371
 21
-372.1227589204879
 31
0.0
  0
LINE
  5
18A
330
1F
100
AcDbEntity
  8
_2-c_Shi
  6
Continuous
 62
     4
370
     9
100
AcDbLine
 10
-79.91701260420024
 20
-382.0762561701353
 30
0.0
 11
-81.66472920595112
 21
-382.1678435755426
 31
0.0
  0
LINE
  5
18B
330
1F
100
AcDbEntity
  8
_2-c_Shi
  6
Continuous
 62
     4
370
     9
100
AcDbLine
 10
-77.86755551073662
 20
-382.9701066365947
 30
0.0
 11
-78.86612330547752
 21
-383.0224281405764
 31
0.0
  0
LINE
  5
18C
330
1F
100
AcDbEntity
  8
_2-9_Kut
  6
Continuous
 62
     6
370
     9
100
AcDbLine
 10
-27.46341664373773
 20
-355.1526061134362
 30
0.0
 11
-38.27474377897857
 21
-355.1526061134362
 31
0.0
  0
LINE
  5
18D
330
1F
100
AcDbEntity
  8
_2-9_Kut
  6
Continuous
 62
     6
370
     9
100
AcDbLine
 10
-35.78273396433684
 20
-366.3448991995435
 30
0.0
 11
-27.08051836459919
 21
-355.9740190431332
 31
0.0
  0
LINE
  5
18E
330
1F
100
AcDbEntity
  8
_2-9_Kut
  6
Continuous
 62
     6
370
     9
100
AcDbLine
 10
-13.39131032285223
 20
-367.1525133235027
 30
0.0
 11
-36.26750062622756
 21
-367.1525133235027
 31
0.0
  0
LINE
  5
18F
330
1F
100
AcDbEntity
  8
_2-9_Kut
  6
Continuous
 62
     6
370
     9
100
AcDbLine
 10
-11.89122902119612
 20
-368.65254507828
 30
0.0
 11
-11.89122902119612
 21
-374.151232910792
 31
0.0
  0
LINE
  5
190
330
1F
100
AcDbEntity
  8
_2-9_Kut
  6
Continuous
 62
     6
370
     9
100
AcDbLine
 10
-168.3912885245821
 20
-207.152660491283
 30
0.0
 11
-173.8912893493815
 21
-207.152660491283
 31
0.0
  0
LINE
  5
191
330
1F
100
AcDbEntity
  8
_2-9_Kut
  6
Continuous
 62
     6
370
     9
100
AcDbLine
 10
-166.8913063166836
 20
-208.6526426991815
 30
0.0
 11
-166.8913063166836
 21
-249.6954933850374
 31
0.0
  0
LINE
  5
192
330
1F
100
AcDbEntity
  8
_2-c_Shi
  6
Continuous
 62
     4
370
     9
100
AcDbLine
 10
25.08263379251042
 20
-376.5734807201247
 30
0.0
 11
-76.59459710136485
 21
-381.902098891257
 31
0.0
  0
LINE
  5
193
330
1F
100
AcDbEntity
  8
_2-c_Shi
  6
Continuous
 62
     4
370
     9
100
AcDbLine
 10
27.1872861089243
 20
-378.5707401768034
 30
0.0
 11
27.1872861089243
 21
-387.5155372950014
 31
0.0
  0
LINE
  5
194
330
1F
100
AcDbEntity
  8
_2-c_Shi
  6
Continuous
 62
     4
370
     9
100
AcDbLine
 10
-179.8124386437302
 20
-171.5154238261685
 30
0.0
 11
-188.8127282661512
 21
-171.5154238261685
 31
0.0
  0
LINE
  5
195
330
1F
100
AcDbEntity
  8
_2-c_Shi
  6
Continuous
 62
     4
370
     9
100
AcDbLine
 10
-177.8125284290373
 20
-273.5738188584252
 30
0.0
 11
-177.8125284290373
 21
-173.5153340408614
 31
0.0
  0
LINE
  5
196
330
1F
100
AcDbEntity
  8
_2-c_Shi
  6
Continuous
 62
     4
370
     9
100
AcDbLine
 10
-81.66472920595112
 20
-382.1678435755426
 30
0.0
 11
-138.2191221347338
 21
-382.1678435755426
 31
0.0
  0
LINE
  5
197
330
1F
100
AcDbEntity
  8
_2-c_Shi
  6
Continuous
 62
     4
370
     9
100
AcDbLine
 10
16.91800182743299
 20
-383.0094964052172
 30
0.0
 11
-79.34603437324887
 21
-388.054508242267
 31
0.0
  0
LINE
  5
198
330
1F
100
AcDbEntity
  8
_2-c_Shi
  6
Continuous
 62
     4
370
     9
100
AcDbLine
 10
22.07147178211147
 20
-386.9683911127387
 30
0.0
 11
22.18721329091926
 21
-387.5155372950014
 31
0.0
  0
LINE
  5
199
330
1F
100
AcDbEntity
  8
_2-6_B_b
  6
Continuous
 62
     2
370
     9
100
AcDbLine
 10
6.79993461994917
 20
-406.5153284440083
 30
0.0
 11
182.1872643106541
 21
-406.5153284440083
 31
0.0
  0
LINE
  5
19A
330
1F
100
AcDbEntity
  8
_2-6_B_b
  6
Continuous
 62
     2
370
     9
100
AcDbLine
 10
182.1872643106541
 20
-406.5153284440083
 30
0.0
 11
182.1872643106541
 21
-408.1156430814171
 31
0.0
  0
LINE
  5
19B
330
1F
100
AcDbEntity
  8
_2-c_Shi
  6
Continuous
 62
     4
370
     9
100
AcDbLine
 10
-186.7513799217829
 20
-271.8869953706832
 30
0.0
 11
-209.8141637706079
 21
-272.3567493283064
 31
0.0
  0
LINE
  5
19C
330
1F
100
AcDbEntity
  8
_2-c_Shi
  6
Continuous
 62
     4
370
     9
100
AcDbLine
 10
-207.2077006660064
 20
-400.330044738934
 30
0.0
 11
-177.8125284290373
 21
-399.7313698027498
 31
0.0
  0
LINE
  5
19D
330
1F
100
AcDbEntity
  8
_2-c_Shi
  6
Continuous
 62
     4
370
     9
100
AcDbLine
 10
-207.2484282003557
 20
-398.3305804461499
 30
0.0
 11
-215.2470781215521
 21
-398.4934410366686
 31
0.0
  0
LINE
  5
19E
330
1F
100
AcDbEntity
  8
_2-c_Shi
  6
Continuous
 62
     4
370
     9
100
AcDbLine
 10
-207.2484282003557
 20
-398.3305804461499
 30
0.0
 11
-207.2077006660064
 21
-400.330044738934
 31
0.0
  0
LINE
  5
19F
330
1F
100
AcDbEntity
  8
_2-c_Shi
  6
Continuous
 62
     4
370
     9
100
AcDbLine
 10
-209.8141637706079
 20
-272.3567493283064
 30
0.0
 11
-209.7734362362585
 21
-274.3562631679692
 31
0.0
  0
LINE
  5
1A0
330
1F
100
AcDbEntity
  8
_2-c_Shi
  6
Continuous
 62
     4
370
     9
100
AcDbLine
 10
-209.7734362362585
 20
-274.3562631679692
 30
0.0
 11
-217.7717888761823
 21
-274.5190742116091
 31
0.0
  0
LINE
  5
1A1
330
1F
100
AcDbEntity
  8
_2-6_B_b
  6
Continuous
 62
     2
370
     9
100
AcDbLine
 10
-209.4128340525668
 20
-16.51539607755984
 30
0.0
 11
-207.8125689620368
 21
-16.51539607755984
 31
0.0
  0
LINE
  5
1A2
330
1F
100
AcDbEntity
  8
_2-6_B_b
  6
Continuous
 62
     2
370
     9
100
AcDbLine
 10
-207.8125689620368
 20
-194.5154813264701
 30
0.0
 11
-207.8125689620368
 21
-16.51539607755984
 31
0.0
  0
LINE
  5
1A3
330
1F
100
AcDbEntity
  8
_2-c_Shi
  6
Continuous
 62
     4
370
     9
100
AcDbLine
 10
-177.8125284290373
 20
-328.4323212206507
 30
0.0
 11
-174.891244456728
 21
-331.3536051929601
 31
0.0
  0
LINE
  5
1A4
330
1F
100
AcDbEntity
  8
_2-b_Tat
  6
Continuous
 62
     3
370
     9
100
AcDbLine
 10
-90.4517690621438
 20
-304.6632218415127
 30
0.0
 11
-46.85160577542666
 21
-348.2634842219874
 31
0.0
  0
LINE
  5
1A5
330
1F
100
AcDbEntity
  8
_2-b_Tat
  6
Continuous
 62
     3
370
     9
100
AcDbLine
 10
-142.8913928027931
 20
-245.1525400705693
 30
0.0
 11
-35.89153891011694
 21
-352.1527160179575
 31
0.0
  0
LINE
  5
1A6
330
1F
100
AcDbEntity
  8
_2-b_Tat
  6
Continuous
 62
     3
370
     9
100
AcDbLine
 10
-62.96732265808083
 20
-332.1477177924544
 30
0.0
 11
-83.18007094626847
 21
-351.3286275568069
 31
0.0
  0
LINE
  5
1A7
330
1F
100
AcDbEntity
  8
_2-b_Tat
  6
JWW_CENTER1
 62
     3
370
     9
100
AcDbLine
 10
-156.4600037416126
 20
-260.1527585245842
 30
0.0
 11
-136.8296294664936
 21
-260.1527585245842
 31
0.0
  0
LINE
  5
1A8
330
1F
100
AcDbEntity
  8
2-Aﾚｲﾔ
  6
Continuous
 62
     2
370
     9
100
AcDbLine
 10
-142.8913928027931
 20
-257.1525959212722
 30
0.0
 11
-154.8914486534958
 21
-257.1525959212722
 31
0.0
  0
LINE
  5
1A9
330
1F
100
AcDbEntity
  8
2-Aﾚｲﾔ
  6
Continuous
 62
     2
370
     9
100
AcDbLine
 10
-142.8913928027931
 20
-258.0226391124823
 30
0.0
 11
-154.8914486534958
 21
-258.0226391124823
 31
0.0
  0
LINE
  5
1AA
330
1F
100
AcDbEntity
  8
2-Aﾚｲﾔ
  6
Continuous
 62
     2
370
     9
100
AcDbLine
 10
-142.8913928027931
 20
-262.2826797491709
 30
0.0
 11
-154.8914486534958
 21
-262.2826797491709
 31
0.0
  0
LINE
  5
1AB
330
1F
100
AcDbEntity
  8
2-Aﾚｲﾔ
  6
Continuous
 62
     2
370
     9
100
AcDbLine
 10
-142.8913928027931
 20
-263.152524752866
 30
0.0
 11
-154.8914486534958
 21
-263.152524752866
 31
0.0
  0
LINE
  5
1AC
330
1F
100
AcDbEntity
  8
_2-c_Shi
  6
Continuous
 62
     4
370
     9
100
AcDbLine
 10
-217.6601102114335
 20
-280.0029227539293
 30
0.0
 11
-216.1510113778413
 21
-281.4976529926781
 31
0.0
  0
LINE
  5
1AD
330
1F
100
AcDbEntity
  8
_2-c_Shi
  6
Continuous
 62
     4
370
     9
100
AcDbLine
 10
-216.1510113778413
 20
-281.4976529926781
 30
0.0
 11
-213.9117897386868
 21
-391.4544646103784
 31
0.0
  0
LINE
  5
1AE
330
1F
100
AcDbEntity
  8
_2-c_Shi
  6
Continuous
 62
     4
370
     9
100
AcDbLine
 10
-213.9117897386868
 20
-391.4544646103784
 30
0.0
 11
-215.3587567863008
 21
-393.0094934005908
 31
0.0
  0
LINE
  5
1AF
330
1F
100
AcDbEntity
  8
_2-c_Shi
  6
Continuous
 62
     4
370
     9
100
AcDbLine
 10
-217.7717888761823
 20
-274.5190742116091
 30
0.0
 11
-215.2470781215521
 21
-398.4934410366686
 31
0.0
  0
LINE
  5
1B0
330
1F
100
AcDbEntity
  8
_2-c_Shi
  6
JWW_CENTER2
 62
     4
370
     9
100
AcDbLine
 10
-32.81239858204464
 20
-403.9816497043207
 30
0.0
 11
-32.81239858204464
 21
-385.6157613223037
 31
0.0
  0
LINE
  5
1B1
330
1F
100
AcDbEntity
  8
_2-c_Shi
  6
JWW_CENTER1
 62
     4
370
     9
100
AcDbLine
 10
-183.8124572606311
 20
-231.51540579841
 30
0.0
 11
-204.7302576337233
 21
-231.51540579841
 31
0.0
  0
LINE
  5
1B2
330
1F
100
AcDbEntity
  8
_2-6_B_b
  6
Continuous
 62
     2
370
     9
100
AcDbLine
 10
-3.31258333711213
 20
-405.6653021918214
 30
0.0
 11
-5.762577398556516
 21
-408.115321026705
 31
0.0
  0
LINE
  5
1B3
330
1F
100
AcDbEntity
  8
_2-6_B_b
  6
Continuous
 62
     2
370
     9
100
AcDbLine
 10
-5.762577398556516
 20
-408.115321026705
 30
0.0
 11
-177.8125284290373
 21
-408.115321026705
 31
0.0
  0
LINE
  5
1B4
330
1F
100
AcDbEntity
  8
_2-6_B_b
  6
Continuous
 62
     2
370
     9
100
AcDbLine
 10
3.687399695585725
 20
-405.6653021918214
 30
0.0
 11
6.137393757029884
 21
-408.115321026705
 31
0.0
  0
LINE
  5
1B5
330
1F
100
AcDbEntity
  8
_2-6_B_b
  6
Continuous
 62
     2
370
     9
100
AcDbLine
 10
6.137393757029884
 20
-408.115321026705
 30
0.0
 11
182.1872643106541
 21
-408.115321026705
 31
0.0
  0
LINE
  5
1B6
330
1F
100
AcDbEntity
  8
_2-6_B_b
  6
Continuous
 62
     2
370
     9
100
AcDbLine
 10
-209.4128340525668
 20
-16.51539607755984
 30
0.0
 11
-209.4128340525668
 21
-272.3485740933092
 31
0.0
  0
LINE
  5
1B7
330
1F
100
AcDbEntity
  8
_2-6_B_b
  6
Continuous
 62
     2
370
     9
100
AcDbLine
 10
-207.8125689620368
 20
-205.1284227591137
 30
0.0
 11
-207.8125689620368
 21
-272.3159722470783
 31
0.0
  0
LINE
  5
1B8
330
1F
100
AcDbEntity
  8
_2-c_Shi
  6
JWW_CENTER1
 62
     4
370
     9
100
AcDbLine
 10
-170.7322794527312
 20
-335.5740331000716
 30
0.0
 11
-231.7739350042439
 21
-336.8171395149844
 31
0.0
  0
LINE
  5
1B9
330
1F
100
AcDbEntity
  8
_2-c_Shi
  6
JWW_CENTER1
 62
     4
370
     9
100
AcDbLine
 10
-177.8125284290373
 20
-335.7182392907332
 30
0.0
 11
-231.4979588894922
 21
-335.7182392907332
 31
0.0
  0
ARC
  5
1BA
330
1F
100
AcDbEntity
  8
_2-c_Shi
  6
Continuous
 62
     4
370
     9
100
AcDbCircle
 10
-179.8124386437302
 20
-173.5153340408614
 30
0.0
 40
2.000000018410701
100
AcDbArc
 50
0.0
 51
90.0
  0
ARC
  5
1BB
330
1F
100
AcDbEntity
  8
_2-c_Shi
  6
Continuous
 62
     4
370
     9
100
AcDbCircle
 10
-189.0045737807506
 20
-389.9573065745698
 30
0.0
 40
4.000000036821402
100
AcDbArc
 50
197.1109161376953
 51
271.1668395996094
  0
ARC
  5
1BC
330
1F
100
AcDbEntity
  8
_2-c_Shi
  6
Continuous
 62
     4
370
     9
100
AcDbCircle
 10
-186.0395894613657
 20
-389.8969089293485
 30
0.0
 40
4.000000036821402
100
AcDbArc
 50
271.1668395996094
 51
345.2201385498047
  0
ARC
  5
1BD
330
1F
100
AcDbEntity
  8
_2-c_Shi
  6
Continuous
 62
     4
370
     9
100
AcDbCircle
 10
-191.2035633543434
 20
-281.9797441231152
 30
0.0
 40
4.000000036821402
100
AcDbArc
 50
91.16612243652344
 51
165.2208251953125
  0
ARC
  5
1BE
330
1F
100
AcDbEntity
  8
_2-c_Shi
  6
Continuous
 62
     4
370
     9
100
AcDbCircle
 10
-188.2387772224736
 20
-281.9193464778938
 30
0.0
 40
4.000000036821402
100
AcDbArc
 50
17.11138916015625
 51
91.16612243652342
  0
ARC
  5
1BF
330
1F
100
AcDbEntity
  8
_2-c_Shi
  6
Continuous
 62
     4
370
     9
100
AcDbCircle
 10
-182.2294344839133
 20
-281.0468259427452
 30
0.0
 40
2.000000018410701
100
AcDbArc
 50
197.1102447509766
 51
271.1668548583984
  0
ARC
  5
1C0
330
1F
100
AcDbEntity
  8
_2-c_Shi
  6
Continuous
 62
     4
370
     9
100
AcDbCircle
 10
-180.0034914082693
 20
-390.5381446343965
 30
0.0
 40
2.000000018410701
100
AcDbArc
 50
90.63732910156251
 51
165.2208251953125
  0
ARC
  5
1C1
330
1F
100
AcDbEntity
  8
_2-c_Shi
  6
Continuous
 62
     4
370
     9
100
AcDbCircle
 10
-167.812481886785
 20
-377.1678450778558
 30
0.0
 40
10.00000009205351
100
AcDbArc
 50
180.0
 51
270.0
  0
ARC
  5
1C2
330
1F
100
AcDbEntity
  8
_2-c_Shi
  6
Continuous
 62
     4
370
     9
100
AcDbCircle
 10
-186.8124216764281
 20
-268.8876750643103
 30
0.0
 40
3.000000027616052
100
AcDbArc
 50
271.1663970947266
 51
0.0000000000000254
  0
ARC
  5
1C3
330
1F
100
AcDbEntity
  8
2-Aﾚｲﾔ
  6
Continuous
 62
     2
370
     9
100
AcDbCircle
 10
-32.81259676955966
 20
-391.7157253021352
 30
0.0
 40
10.00000009205351
100
AcDbArc
 50
272.7456207275391
 51
306.869873046875
  0
ARC
  5
1C4
330
1F
100
AcDbEntity
  8
2-Aﾚｲﾔ
  6
Continuous
 62
     2
370
     9
100
AcDbCircle
 10
-32.81259676955966
 20
-391.7157253021352
 30
0.0
 40
10.00000009205351
100
AcDbArc
 50
233.130126953125
 51
267.2543792724609
  0
ARC
  5
1C5
330
1F
100
AcDbEntity
  8
_2-6_B_b
  6
Continuous
 62
     2
370
     9
100
AcDbCircle
 10
-18.31280179112701
 20
-397.6155694386127
 30
0.0
 40
0.5000000046026752
100
AcDbArc
 50
0.0
 51
90.0
  0
ARC
  5
1C6
330
1F
100
AcDbEntity
  8
_2-6_B_b
  6
Continuous
 62
     2
370
     9
100
AcDbCircle
 10
-18.31280179112701
 20
-397.6155694386127
 30
0.0
 40
2.099999941914238
100
AcDbArc
 50
0.0
 51
90.0
  0
ARC
  5
1C7
330
1F
100
AcDbEntity
  8
_2-6_B_b
  6
Continuous
 62
     2
370
     9
100
AcDbCircle
 10
-15.71258159325072
 20
-404.4153335341989
 30
0.0
 40
2.099999941914238
100
AcDbArc
 50
180.0
 51
270.0
  0
ARC
  5
1C8
330
1F
100
AcDbEntity
  8
_2-6_B_b
  6
Continuous
 62
     2
370
     9
100
AcDbCircle
 10
-15.71258159325072
 20
-404.4153335341989
 30
0.0
 40
0.5000000046026752
100
AcDbArc
 50
180.0
 51
270.0
  0
ARC
  5
1C9
330
1F
100
AcDbEntity
  8
2-Aﾚｲﾔ
  6
Continuous
 62
     2
370
     9
100
AcDbCircle
 10
-4.119206523496189
 20
-400.1830886965005
 30
0.0
 40
2.367928946800674
100
AcDbArc
 50
52.44277954101562
 51
127.5572204589844
  0
ARC
  5
1CA
330
1F
100
AcDbEntity
  8
2-Aﾚｲﾔ
  6
Continuous
 62
     2
370
     9
100
AcDbCircle
 10
0.1874081792367974
 20
-406.4131132331048
 30
0.0
 40
8.597918645755664
100
AcDbArc
 50
70.54800415039062
 51
109.4519958496094
  0
ARC
  5
1CB
330
1F
100
AcDbEntity
  8
2-Aﾚｲﾔ
  6
Continuous
 62
     2
370
     9
100
AcDbCircle
 10
4.494022881969556
 20
-400.1830886965005
 30
0.0
 40
2.367928946800674
100
AcDbArc
 50
52.44277954101562
 51
127.5572204589844
  0
ARC
  5
1CC
330
1F
100
AcDbEntity
  8
2-Aﾚｲﾔ
  6
Continuous
 62
     2
370
     9
100
AcDbCircle
 10
-193.012916273285
 20
-231.5157030796826
 30
0.0
 40
10.00000009205351
100
AcDbArc
 50
143.130126953125
 51
177.254379272461
  0
ARC
  5
1CD
330
1F
100
AcDbEntity
  8
2-Aﾚｲﾔ
  6
Continuous
 62
     2
370
     9
100
AcDbCircle
 10
-193.012916273285
 20
-231.5157030796826
 30
0.0
 40
10.00000009205351
100
AcDbArc
 50
182.745620727539
 51
216.869873046875
  0
ARC
  5
1CE
330
1F
100
AcDbEntity
  8
_2-6_B_b
  6
Continuous
 62
     2
370
     9
100
AcDbCircle
 10
-198.9126613160049
 20
-217.0158585543712
 30
0.0
 40
0.5000000046026752
100
AcDbArc
 50
0.0
 51
90.0
  0
ARC
  5
1CF
330
1F
100
AcDbEntity
  8
_2-6_B_b
  6
Continuous
 62
     2
370
     9
100
AcDbCircle
 10
-198.9126613160049
 20
-217.0158585543712
 30
0.0
 40
2.099999941914238
100
AcDbArc
 50
0.0
 51
90.0
  0
ARC
  5
1D0
330
1F
100
AcDbEntity
  8
_2-6_B_b
  6
Continuous
 62
     2
370
     9
100
AcDbCircle
 10
-205.7125740522275
 20
-214.4157869971311
 30
0.0
 40
2.099999941914238
100
AcDbArc
 50
180.0
 51
270.0
  0
ARC
  5
1D1
330
1F
100
AcDbEntity
  8
_2-6_B_b
  6
Continuous
 62
     2
370
     9
100
AcDbCircle
 10
-205.7125740522275
 20
-214.4157869971311
 30
0.0
 40
0.5000000046026752
100
AcDbArc
 50
180.0
 51
270.0
  0
ARC
  5
1D2
330
1F
100
AcDbEntity
  8
2-Aﾚｲﾔ
  6
Continuous
 62
     2
370
     9
100
AcDbCircle
 10
-201.4802796676503
 20
-202.822312833619
 30
0.0
 40
2.367928946800674
100
AcDbArc
 50
322.4427795410156
 51
37.55722045898439
  0
ARC
  5
1D3
330
1F
100
AcDbEntity
  8
2-Aﾚｲﾔ
  6
Continuous
 62
     2
370
     9
100
AcDbCircle
 10
-207.7103042042544
 20
-198.5156981308862
 30
0.0
 40
8.597918645755664
100
AcDbArc
 50
340.5480041503906
 51
19.45199584960935
  0
ARC
  5
1D4
330
1F
100
AcDbEntity
  8
2-Aﾚｲﾔ
  6
Continuous
 62
     2
370
     9
100
AcDbCircle
 10
-201.4802796676503
 20
-194.2091329750321
 30
0.0
 40
2.367928946800674
100
AcDbArc
 50
322.4427795410156
 51
37.55722045898439
  0
ARC
  5
1D5
330
1F
100
AcDbEntity
  8
_2-b_Tat
  6
Continuous
 62
     3
370
     9
100
AcDbCircle
 10
-59.35079688286356
 20
-360.1528523455169
 30
0.0
 40
2.999999834073556
100
AcDbArc
 50
11.31007385253906
 51
90.0
  0
ARC
  5
1D6
330
1F
100
AcDbEntity
  8
_2-b_Tat
  6
Continuous
 62
     3
370
     9
100
AcDbCircle
 10
-138.8912750921345
 20
-266.3037062426706
 30
0.0
 40
4.000000036821402
100
AcDbArc
 50
179.9996490478516
 51
267.7972259521485
  0
ARC
  5
1D7
330
1F
100
AcDbEntity
  8
_2-b_Tat
  6
Continuous
 62
     3
370
     9
100
AcDbCircle
 10
-138.8912750921345
 20
-266.3037062426706
 30
0.0
 40
8.999999308678174
100
AcDbArc
 50
179.9996490478516
 51
267.7972259521485
  0
ARC
  5
1D8
330
1F
100
AcDbEntity
  8
_2-b_Tat
  6
Continuous
 62
     3
370
     9
100
AcDbCircle
 10
-119.3727776692792
 20
-349.1526525084029
 30
0.0
 40
2.999999834073556
100
AcDbArc
 50
270.0001678466797
 51
313.4999847412109
  0
ARC
  5
1D9
330
1F
100
AcDbEntity
  8
_2-b_Tat
  6
Continuous
 62
     3
370
     9
100
AcDbCircle
 10
-94.59051893960219
 20
-349.1526525084029
 30
0.0
 40
2.999999834073556
100
AcDbArc
 50
136.500015258789
 51
269.9998321533203
  0
ARC
  5
1DA
330
1F
100
AcDbEntity
  8
_2-b_Tat
  6
Continuous
 62
     3
370
     9
100
AcDbCircle
 10
-85.24518485342338
 20
-349.1526525084029
 30
0.0
 40
2.999999834073556
100
AcDbArc
 50
270.0003356933594
 51
313.4999847412109
  0
ARC
  5
1DB
330
1F
100
AcDbEntity
  8
_2-b_Tat
  6
Continuous
 62
     3
370
     9
100
AcDbCircle
 10
-62.20469710004505
 20
-349.1526525084029
 30
0.0
 40
2.999999834073556
100
AcDbArc
 50
136.500015258789
 51
270.0
  0
ARC
  5
1DC
330
1F
100
AcDbEntity
  8
_2-b_Tat
  6
Continuous
 62
     3
370
     9
100
AcDbCircle
 10
-51.11729475629505
 20
-349.1526525084029
 30
0.0
 40
2.999999834073556
100
AcDbArc
 50
270.0003356933594
 51
313.5004577636719
  0
ARC
  5
1DD
330
1F
100
AcDbEntity
  8
_2-b_Tat
  6
Continuous
 62
     3
370
     9
100
AcDbCircle
 10
-139.891230199481
 20
-328.6342990719588
 30
0.0
 40
2.999999834073556
100
AcDbArc
 50
136.500015258789
 51
179.9998321533203
  0
ARC
  5
1DE
330
1F
100
AcDbEntity
  8
_2-b_Tat
  6
Continuous
 62
     3
370
     9
100
AcDbCircle
 10
-139.891230199481
 20
-303.8522385297969
 30
0.0
 40
2.999999834073556
100
AcDbArc
 50
180.0001678466797
 51
313.4999847412109
  0
ARC
  5
1DF
330
1F
100
AcDbEntity
  8
_2-b_Tat
  6
Continuous
 62
     3
370
     9
100
AcDbCircle
 10
-139.891230199481
 20
-294.5066814826636
 30
0.0
 40
2.999999834073556
100
AcDbArc
 50
136.500015258789
 51
179.9996643066406
  0
ARC
  5
1E0
330
1F
100
AcDbEntity
  8
2-Aﾚｲﾔ
  6
Continuous
 62
     2
370
     9
100
AcDbCircle
 10
-148.2914080262336
 20
-260.1527585245842
 30
0.0
 40
10.00000009205351
100
AcDbArc
 50
2.745620727539063
 51
36.869873046875
  0
ARC
  5
1E1
330
1F
100
AcDbEntity
  8
2-Aﾚｲﾔ
  6
Continuous
 62
     2
370
     9
100
AcDbCircle
 10
-148.2914080262336
 20
-260.1527585245842
 30
0.0
 40
10.00000009205351
100
AcDbArc
 50
323.130126953125
 51
357.2543792724609
  0
ARC
  5
1E2
330
1F
100
AcDbEntity
  8
_2-b_Tat
  6
Continuous
 62
     3
370
     9
100
AcDbCircle
 10
-150.8914300365948
 20
-268.6121944183462
 30
0.0
 40
2.999999834073556
100
AcDbArc
 50
0.0
 51
70.9893798828125
  0
ARC
  5
1E3
330
1F
100
AcDbEntity
  8
_2-b_Tat
  6
Continuous
 62
     3
370
     9
100
AcDbCircle
 10
-126.9765389666746
 20
-349.1527268287211
 30
0.0
 40
2.999999834073556
100
AcDbArc
 50
136.500732421875
 51
270.0
  0
ARC
  5
1E4
330
1F
100
AcDbEntity
  8
_2-9_Kut
  6
Continuous
 62
     6
370
     9
100
AcDbCircle
 10
-27.46341664373773
 20
-355.6526332139883
 30
0.0
 40
0.5000000046026752
100
AcDbArc
 50
319.9972534179688
 51
90.0
  0
ARC
  5
1E5
330
1F
100
AcDbEntity
  8
_2-9_Kut
  6
Continuous
 62
     6
370
     9
100
AcDbCircle
 10
-146.3912852253844
 20
-236.6131355144716
 30
0.0
 40
0.5000000046026752
100
AcDbArc
 50
0.0
 51
125.0048370361328
  0
ARC
  5
1E6
330
1F
100
AcDbEntity
  8
_2-9_Kut
  6
Continuous
 62
     6
370
     9
100
AcDbCircle
 10
-14.32358439379806
 20
-372.2759578696463
 30
0.0
 40
3.000000027616052
100
AcDbArc
 50
272.9991607666016
 51
310.0000305175782
  0
ARC
  5
1E7
330
1F
100
AcDbEntity
  8
_2-9_Kut
  6
Continuous
 62
     6
370
     9
100
AcDbCircle
 10
-84.7449595653564
 20
-375.9665810020647
 30
0.0
 40
3.000000027616052
100
AcDbArc
 50
229.9999694824219
 51
273.0001373291016
  0
ARC
  5
1E8
330
1F
100
AcDbEntity
  8
_2-c_Shi
  6
Continuous
 62
     4
370
     9
100
AcDbCircle
 10
-178.8125826301413
 20
-273.2098970338558
 30
0.0
 40
1.00000000920535
100
AcDbArc
 50
320.0046997070312
 51
0.0000000000000254
  0
ARC
  5
1E9
330
1F
100
AcDbEntity
  8
_2-c_Shi
  6
Continuous
 62
     4
370
     9
100
AcDbCircle
 10
-178.8125826301413
 20
-277.6797687021376
 30
0.0
 40
1.00000000920535
100
AcDbArc
 50
0.0
 51
44.99397277832031
  0
ARC
  5
1EA
330
1F
100
AcDbEntity
  8
_2-c_Shi
  6
Continuous
 62
     4
370
     9
100
AcDbCircle
 10
-177.8123302415221
 20
-275.8513897817481
 30
0.0
 40
1.00000000920535
100
AcDbArc
 50
180.0
 51
224.9939727783203
  0
ARC
  5
1EB
330
1F
100
AcDbEntity
  8
_2-c_Shi
  6
Continuous
 62
     4
370
     9
100
AcDbCircle
 10
-177.8123302415221
 20
-275.1294917580618
 30
0.0
 40
1.00000000920535
100
AcDbArc
 50
140.0046997070312
 51
180.0
  0
ARC
  5
1EC
330
1F
100
AcDbEntity
  8
_2-9_Kut
  6
Continuous
 62
     6
370
     9
100
AcDbCircle
 10
-171.891280040931
 20
-209.4362761338159
 30
0.0
 40
3.000000027616052
100
AcDbArc
 50
139.9999694824219
 51
180.0
  0
ARC
  5
1ED
330
1F
100
AcDbEntity
  8
_2-9_Kut
  6
Continuous
 62
     6
370
     9
100
AcDbCircle
 10
-171.891280040931
 20
-292.0669931720036
 30
0.0
 40
3.000000027616052
100
AcDbArc
 50
180.0
 51
220.0000305175781
  0
ARC
  5
1EE
330
1F
100
AcDbEntity
  8
_2-9_Kut
  6
Continuous
 62
     6
370
     9
100
AcDbCircle
 10
-166.8913063166836
 20
-246.6954298754831
 30
0.0
 40
3.000000027616052
100
AcDbArc
 50
180.0
 51
305.0008544921875
  0
ARC
  5
1EF
330
1F
100
AcDbEntity
  8
_2-9_Kut
  6
Continuous
 62
     6
370
     9
100
AcDbCircle
 10
-33.48465063320288
 20
-368.273288494731
 30
0.0
 40
3.000000027616052
100
AcDbArc
 50
139.9996032714844
 51
273.0001373291015
  0
ARC
  5
1F0
330
1F
100
AcDbEntity
  8
2-Aﾚｲﾔ
  6
Continuous
 62
     2
370
     9
100
AcDbCircle
 10
-152.8350549970045
 20
-346.6379254498451
 30
0.0
 40
3.811437777110509
100
AcDbArc
 50
4.925643920898437
 51
85.07435607910156
  0
ARC
  5
1F1
330
1F
100
AcDbEntity
  8
2-Aﾚｲﾔ
  6
Continuous
 62
     2
370
     9
100
AcDbCircle
 10
-154.7183318590717
 20
-358.9106130009827
 30
0.0
 40
13.8216220752613
100
AcDbArc
 50
24.26925659179688
 51
65.73074340820312
  0
ARC
  5
1F2
330
1F
100
AcDbEntity
  8
2-Aﾚｲﾔ
  6
Continuous
 62
     2
370
     9
100
AcDbCircle
 10
-142.445768175131
 20
-357.0270388576428
 30
0.0
 40
3.811437777110509
100
AcDbArc
 50
4.925643920898437
 51
85.07435607910156
  0
ARC
  5
1F3
330
1F
100
AcDbEntity
  8
_2-b_Tat
  6
Continuous
 62
     3
370
     9
100
AcDbCircle
 10
-139.891230199481
 20
-336.2380603693541
 30
0.0
 40
2.999999834073556
100
AcDbArc
 50
180.0
 51
235.5162658691407
  0
ARC
  5
1F4
330
1F
100
AcDbEntity
  8
_2-9_Kut
  6
Continuous
 62
     6
370
     9
100
AcDbCircle
 10
-109.3182295603793
 20
-368.65254507828
 30
0.0
 40
1.500000013808026
100
AcDbArc
 50
0.0
 51
90.0
  0
ARC
  5
1F5
330
1F
100
AcDbEntity
  8
_2-c_Shi
  6
Continuous
 62
     4
370
     9
100
AcDbCircle
 10
-12.96253163397211
 20
-389.5823357960346
 30
0.0
 40
5.000000046026753
100
AcDbArc
 50
93.00032043457033
 51
130.0001678466797
  0
ARC
  5
1F6
330
1F
100
AcDbEntity
  8
_2-c_Shi
  6
Continuous
 62
     4
370
     9
100
AcDbCircle
 10
-42.22125176680726
 20
-389.1130029868809
 30
0.0
 40
3.000000027616052
100
AcDbArc
 50
11.84942626953125
 51
93.00010681152345
  0
ARC
  5
1F7
330
1F
100
AcDbEntity
  8
_2-c_Shi
  6
Continuous
 62
     4
370
     9
100
AcDbCircle
 10
-186.8124216764281
 20
-221.941710147978
 30
0.0
 40
3.000000027616052
100
AcDbArc
 50
278.7463073730468
 51
0.0
  0
ARC
  5
1F8
330
1F
100
AcDbEntity
  8
_2-c_Shi
  6
Continuous
 62
     4
370
     9
100
AcDbCircle
 10
-188.8125300786361
 20
-253.8285453714372
 30
0.0
 40
5.000000046026753
100
AcDbArc
 50
0.0
 51
39.99958801269531
  0
ARC
  5
1F9
330
1F
100
AcDbEntity
  8
_2-c_Shi
  6
Continuous
 62
     4
370
     9
100
AcDbCircle
 10
-188.8125300786361
 20
-183.8472455771187
 30
0.0
 40
5.000000046026753
100
AcDbArc
 50
0.0
 51
42.99946594238282
  0
ARC
  5
1FA
330
1F
100
AcDbEntity
  8
_2-9_Kut
  6
Continuous
 62
     6
370
     9
100
AcDbCircle
 10
-40.46144572663621
 20
-360.1526541580018
 30
0.0
 40
2.000000018410701
100
AcDbArc
 50
270.0
 51
310.0003967285156
  0
ARC
  5
1FB
330
1F
100
AcDbEntity
  8
_2-b_Tat
  6
Continuous
 62
     3
370
     9
100
AcDbCircle
 10
-126.8913183351893
 20
-336.1527406441112
 30
0.0
 40
21.00000174165232
100
AcDbArc
 50
180.0
 51
200.8713073730469
  0
ARC
  5
1FC
330
1F
100
AcDbEntity
  8
_2-b_Tat
  6
Continuous
 62
     3
370
     9
100
AcDbCircle
 10
-126.8913183351893
 20
-336.1527406441112
 30
0.0
 40
21.00000174165232
100
AcDbArc
 50
228.8648986816406
 51
270.0
  0
ARC
  5
1FD
330
1F
100
AcDbEntity
  8
_2-c_Shi
  6
Continuous
 62
     4
370
     9
100
AcDbCircle
 10
-79.89085185220944
 20
-382.5755896143846
 30
0.0
 40
0.5000000046026752
100
AcDbArc
 50
3.010406494140625
 51
92.99920654296875
  0
ARC
  5
1FE
330
1F
100
AcDbEntity
  8
_2-c_Shi
  6
Continuous
 62
     4
370
     9
100
AcDbCircle
 10
-78.89228405746854
 20
-382.5230699228877
 30
0.0
 40
0.5000000046026752
100
AcDbArc
 50
183.0106964111328
 51
272.9990539550781
  0
ARC
  5
1FF
330
1F
100
AcDbEntity
  8
_2-9_Kut
  6
Continuous
 62
     6
370
     9
100
AcDbCircle
 10
-13.39131032285223
 20
-368.65254507828
 30
0.0
 40
1.500000013808026
100
AcDbArc
 50
0.0
 51
90.0
  0
ARC
  5
200
330
1F
100
AcDbEntity
  8
_2-9_Kut
  6
Continuous
 62
     6
370
     9
100
AcDbCircle
 10
-168.3912885245821
 20
-208.6526426991815
 30
0.0
 40
1.500000013808026
100
AcDbArc
 50
0.0
 51
90.0
  0
ARC
  5
201
330
1F
100
AcDbEntity
  8
_2-c_Shi
  6
Continuous
 62
     4
370
     9
100
AcDbCircle
 10
25.18727680047385
 20
-378.5707401768034
 30
0.0
 40
2.000000018410701
100
AcDbArc
 50
0.0
 51
92.99920654296875
  0
ARC
  5
202
330
1F
100
AcDbEntity
  8
_2-c_Shi
  6
Continuous
 62
     4
370
     9
100
AcDbCircle
 10
17.17960934734123
 20
-388.0026326601944
 30
0.0
 40
5.000000046026753
100
AcDbArc
 50
11.93827819824219
 51
92.99974060058594
  0
LINE
  5
203
330
1F
100
AcDbEntity
  8
_2-9_Kut
  6
Continuous
 62
     6
370
     9
100
AcDbLine
 10
-11.89122902119612
 20
327.8464631336308
 30
0.0
 11
-11.89122902119612
 21
194.9148628417071
 31
0.0
  0
LINE
  5
204
330
1F
100
AcDbEntity
  8
_2-b_Tat
  6
Continuous
 62
     3
370
     9
100
AcDbLine
 10
-46.37674848929015
 20
189.3465865000567
 30
0.0
 11
-83.85569218518327
 21
189.3465865000567
 31
0.0
  0
LINE
  5
205
330
1F
100
AcDbEntity
  8
_2-b_Tat
  6
Continuous
 62
     3
370
     9
100
AcDbLine
 10
-85.85599877490637
 20
238.3464677289418
 30
0.0
 11
-85.85599877490637
 21
244.3465947480508
 31
0.0
  0
LINE
  5
206
330
1F
100
AcDbEntity
  8
_2-b_Tat
  6
Continuous
 62
     3
370
     9
100
AcDbLine
 10
-46.37674848929015
 20
236.346755701764
 30
0.0
 11
-83.85569218518327
 21
236.346755701764
 31
0.0
  0
LINE
  5
207
330
1F
100
AcDbEntity
  8
_2-b_Tat
  6
Continuous
 62
     3
370
     9
100
AcDbLine
 10
-44.37664008708208
 20
244.3465947480508
 30
0.0
 11
-44.37664008708208
 21
238.3464677289418
 31
0.0
  0
LINE
  5
208
330
1F
100
AcDbEntity
  8
_2-b_Tat
  6
Continuous
 62
     3
370
     9
100
AcDbLine
 10
-46.37674848929015
 20
246.3467031502589
 30
0.0
 11
-83.85569218518327
 21
246.3467031502589
 31
0.0
  0
LINE
  5
209
330
1F
100
AcDbEntity
  8
_2-b_Tat
  6
Continuous
 62
     3
370
     9
100
AcDbLine
 10
-92.92713112551866
 20
238.3464677289418
 30
0.0
 11
-92.92713112551866
 21
244.3465947480508
 31
0.0
  0
LINE
  5
20A
330
1F
100
AcDbEntity
  8
_2-b_Tat
  6
Continuous
 62
     3
370
     9
100
AcDbLine
 10
-92.92713112551866
 20
219.3464288455412
 30
0.0
 11
-92.92713112551866
 21
225.3467540521652
 31
0.0
  0
LINE
  5
20B
330
1F
100
AcDbEntity
  8
_2-b_Tat
  6
Continuous
 62
     3
370
     9
100
AcDbLine
 10
-85.85599877490637
 20
219.3464288455412
 30
0.0
 11
-85.85599877490637
 21
225.3467540521652
 31
0.0
  0
LINE
  5
20C
330
1F
100
AcDbEntity
  8
_2-b_Tat
  6
Continuous
 62
     3
370
     9
100
AcDbLine
 10
-46.37674848929015
 20
217.3465186308483
 30
0.0
 11
-83.85569218518327
 21
217.3465186308483
 31
0.0
  0
LINE
  5
20D
330
1F
100
AcDbEntity
  8
_2-b_Tat
  6
Continuous
 62
     3
370
     9
100
AcDbLine
 10
-44.37664008708208
 20
225.3467540521652
 30
0.0
 11
-44.37664008708208
 21
219.3464288455412
 31
0.0
  0
LINE
  5
20E
330
1F
100
AcDbEntity
  8
_2-b_Tat
  6
Continuous
 62
     3
370
     9
100
AcDbLine
 10
-46.37674848929015
 20
227.3464660793431
 30
0.0
 11
-83.85569218518327
 21
227.3464660793431
 31
0.0
  0
LINE
  5
20F
330
1F
100
AcDbEntity
  8
_2-b_Tat
  6
Continuous
 62
     3
370
     9
100
AcDbLine
 10
-44.37664008708208
 20
200.3465881496556
 30
0.0
 11
-44.37664008708208
 21
206.3465169812494
 31
0.0
  0
LINE
  5
210
330
1F
100
AcDbEntity
  8
_2-b_Tat
  6
Continuous
 62
     3
370
     9
100
AcDbLine
 10
-83.85569218518327
 20
198.3466779349627
 30
0.0
 11
-46.37674848929015
 21
198.3466779349627
 31
0.0
  0
LINE
  5
211
330
1F
100
AcDbEntity
  8
_2-b_Tat
  6
Continuous
 62
     3
370
     9
100
AcDbLine
 10
-85.85599877490637
 20
206.3465169812494
 30
0.0
 11
-85.85599877490637
 21
200.3465881496556
 31
0.0
  0
LINE
  5
212
330
1F
100
AcDbEntity
  8
_2-b_Tat
  6
Continuous
 62
     3
370
     9
100
AcDbLine
 10
-83.85569218518327
 20
208.3464271959423
 30
0.0
 11
-46.37674848929015
 21
208.3464271959423
 31
0.0
  0
LINE
  5
213
330
1F
100
AcDbEntity
  8
_2-b_Tat
  6
Continuous
 62
     3
370
     9
100
AcDbLine
 10
-92.92713112551866
 20
200.3465881496556
 30
0.0
 11
-92.92713112551866
 21
206.3465169812494
 31
0.0
  0
LINE
  5
214
330
1F
100
AcDbEntity
  8
_2-b_Tat
  6
Continuous
 62
     3
370
     9
100
AcDbLine
 10
-103.0533240211208
 20
257.6379413532707
 30
0.0
 11
-92.57326731733957
 21
256.5636659277685
 31
0.0
  0
LINE
  5
215
330
1F
100
AcDbEntity
  8
_2-b_Tat
  6
Continuous
 62
     3
370
     9
100
AcDbLine
 10
-134.5562204809874
 20
268.2812054757218
 30
0.0
 11
-87.27026488253188
 21
261.5915840916425
 31
0.0
  0
LINE
  5
216
330
1F
100
AcDbEntity
  8
_2-b_Tat
  6
Continuous
 62
     3
370
     9
100
AcDbLine
 10
-118.1427268569225
 20
267.1684816722937
 30
0.0
 11
-74.89543644080874
 21
261.5915840916425
 31
0.0
  0
LINE
  5
217
330
1F
100
AcDbEntity
  8
_2-b_Tat
  6
Continuous
 62
     3
370
     9
100
AcDbLine
 10
-70.65382724302282
 20
261.5915840916425
 30
0.0
 11
-101.172128127962
 21
266.0178049597274
 31
0.0
  0
LINE
  5
218
330
1F
100
AcDbEntity
  8
_2-b_Tat
  6
Continuous
 62
     3
370
     9
100
AcDbLine
 10
-84.9086624528141
 20
264.9150896258108
 30
0.0
 11
-58.27761148869428
 21
261.5915840916425
 31
0.0
  0
LINE
  5
219
330
1F
100
AcDbEntity
  8
_2-b_Tat
  6
Continuous
 62
     3
370
     9
100
AcDbLine
 10
-67.93806372385353
 20
263.764313819487
 30
0.0
 11
-54.03838054108934
 21
261.5915840916425
 31
0.0
  0
LINE
  5
21A
330
1F
100
AcDbEntity
  8
_2-b_Tat
  6
Continuous
 62
     3
370
     9
100
AcDbLine
 10
-118.1425286694073
 20
267.1684816722937
 30
0.0
 11
-101.172128127962
 21
266.0178049597274
 31
0.0
  0
LINE
  5
21B
330
1F
100
AcDbEntity
  8
_2-b_Tat
  6
Continuous
 62
     3
370
     9
100
AcDbLine
 10
-84.9086624528141
 20
264.9150896258108
 30
0.0
 11
-35.89153891011694
 21
261.5915840916425
 31
0.0
  0
LINE
  5
21C
330
1F
100
AcDbEntity
  8
_2-b_Tat
  6
Continuous
 62
     3
370
     9
100
AcDbLine
 10
-51.67459804870583
 20
262.6616975793279
 30
0.0
 11
-41.65195812973417
 21
261.5915840916425
 31
0.0
  0
LINE
  5
21D
330
1F
100
AcDbEntity
  8
_2-b_Tat
  6
Continuous
 62
     3
370
     9
100
AcDbLine
 10
-53.20232650871577
 20
257.6379413532707
 30
0.0
 11
-42.72246799244982
 21
256.5636659277685
 31
0.0
  0
LINE
  5
21E
330
1F
100
AcDbEntity
  8
_2-b_Tat
  6
Continuous
 62
     3
370
     9
100
AcDbLine
 10
-69.81906142949725
 20
257.6379413532707
 30
0.0
 11
-59.33950019450396
 21
256.5636659277685
 31
0.0
  0
LINE
  5
21F
330
1F
100
AcDbEntity
  8
_2-b_Tat
  6
Continuous
 62
     3
370
     9
100
AcDbLine
 10
-86.43609363155139
 20
257.6379413532707
 30
0.0
 11
-75.95613602152804
 21
256.5636659277685
 31
0.0
  0
LINE
  5
220
330
1F
100
AcDbEntity
  8
_2-b_Tat
  6
Continuous
 62
     3
370
     9
100
AcDbLine
 10
-119.6701580356598
 20
257.6379413532707
 30
0.0
 11
-109.190497706909
 21
256.5636659277685
 31
0.0
  0
LINE
  5
221
330
1F
100
AcDbEntity
  8
_2-b_Tat
  6
Continuous
 62
     3
370
     9
100
AcDbLine
 10
-136.287190237714
 20
257.6379413532707
 30
0.0
 11
-125.8072326276904
 21
256.5636659277685
 31
0.0
  0
LINE
  5
222
330
1F
100
AcDbEntity
  8
_2-b_Tat
  6
Continuous
 62
     3
370
     9
100
AcDbLine
 10
-91.5124686428631
 20
261.5915840916425
 30
0.0
 11
-140.9358765914785
 21
268.7141461024186
 31
0.0
  0
LINE
  5
223
330
1F
100
AcDbEntity
  8
_2-b_Tat
  6
Continuous
 62
     3
370
     9
100
AcDbLine
 10
-109.2346935227723
 20
189.3465865000567
 30
0.0
 11
-94.92704134021147
 21
189.3465865000567
 31
0.0
  0
LINE
  5
224
330
1F
100
AcDbEntity
  8
_2-b_Tat
  6
Continuous
 62
     3
370
     9
100
AcDbLine
 10
-118.3903621570175
 20
265.9942206454326
 30
0.0
 11
-118.1425286694073
 21
267.1684816722937
 31
0.0
  0
LINE
  5
225
330
1F
100
AcDbEntity
  8
_2-b_Tat
  6
Continuous
 62
     3
370
     9
100
AcDbLine
 10
-85.16590984739065
 20
263.6962364080562
 30
0.0
 11
-84.9086624528141
 21
264.9150896258108
 31
0.0
  0
LINE
  5
226
330
1F
100
AcDbEntity
  8
_2-b_Tat
  6
Continuous
 62
     3
370
     9
100
AcDbLine
 10
-136.1517290711554
 20
256.9482488007852
 30
0.0
 11
-137.1617917417711
 21
261.2068030311107
 31
0.0
  0
LINE
  5
227
330
1F
100
AcDbEntity
  8
_2-b_Tat
  6
Continuous
 62
     3
370
     9
100
AcDbLine
 10
-126.2186699090008
 20
256.5636659277685
 30
0.0
 11
-135.6650796278714
 21
256.5636659277685
 31
0.0
  0
LINE
  5
228
330
1F
100
AcDbEntity
  8
_2-b_Tat
  6
Continuous
 62
     3
370
     9
100
AcDbLine
 10
-124.8983446835242
 20
261.1880743109354
 30
0.0
 11
-125.7281558091727
 21
256.9669775209605
 31
0.0
  0
LINE
  5
229
330
1F
100
AcDbEntity
  8
_2-b_Tat
  6
Continuous
 62
     3
370
     9
100
AcDbLine
 10
-120.951043945635
 20
261.5915840916425
 30
0.0
 11
-124.4078305836961
 21
261.5915840916425
 31
0.0
  0
LINE
  5
22A
330
1F
100
AcDbEntity
  8
_2-b_Tat
  6
Continuous
 62
     3
370
     9
100
AcDbLine
 10
-119.5298412749817
 20
256.9562753951461
 30
0.0
 11
-120.462709908473
 21
261.1988755305073
 31
0.0
  0
LINE
  5
22B
330
1F
100
AcDbEntity
  8
_2-b_Tat
  6
Continuous
 62
     3
370
     9
100
AcDbLine
 10
-109.5958902690093
 20
256.5636659277685
 30
0.0
 11
-119.041408144062
 21
256.5636659277685
 31
0.0
  0
LINE
  5
22C
330
1F
100
AcDbEntity
  8
_2-b_Tat
  6
Continuous
 62
     3
370
     9
100
AcDbLine
 10
-108.2129377887666
 20
261.1947135926907
 30
0.0
 11
-109.1067634817867
 21
256.9602391454477
 31
0.0
  0
LINE
  5
22D
330
1F
100
AcDbEntity
  8
_2-b_Tat
  6
Continuous
 62
     3
370
     9
100
AcDbLine
 10
-104.292986927959
 20
261.5915840916425
 30
0.0
 11
-107.7236128140292
 21
261.5915840916425
 31
0.0
  0
LINE
  5
22E
330
1F
100
AcDbEntity
  8
_2-b_Tat
  6
Continuous
 62
     3
370
     9
100
AcDbLine
 10
-102.9102326352316
 20
256.9605364267202
 30
0.0
 11
-103.8038601407364
 21
261.1947135926907
 31
0.0
  0
LINE
  5
22F
330
1F
100
AcDbEntity
  8
_2-b_Tat
  6
Continuous
 62
     3
370
     9
100
AcDbLine
 10
-92.97885806695496
 20
256.5636659277685
 30
0.0
 11
-102.4209076604939
 21
256.5636659277685
 31
0.0
  0
LINE
  5
230
330
1F
100
AcDbEntity
  8
_2-b_Tat
  6
Continuous
 62
     3
370
     9
100
AcDbLine
 10
-91.59620286798514
 20
261.1947135926907
 30
0.0
 11
-92.4894339984599
 21
256.9605364267202
 31
0.0
  0
LINE
  5
231
330
1F
100
AcDbEntity
  8
_2-b_Tat
  6
Continuous
 62
     3
370
     9
100
AcDbLine
 10
-87.67575653838963
 20
261.5915840916425
 30
0.0
 11
-91.10697698700511
 21
261.5915840916425
 31
0.0
  0
LINE
  5
232
330
1F
100
AcDbEntity
  8
_2-b_Tat
  6
Continuous
 62
     3
370
     9
100
AcDbLine
 10
-86.29320043317722
 20
256.9605364267202
 30
0.0
 11
-87.1865306574096
 21
261.1947135926907
 31
0.0
  0
LINE
  5
233
330
1F
100
AcDbEntity
  8
_2-b_Tat
  6
Continuous
 62
     3
370
     9
100
AcDbLine
 10
-76.36182586490082
 20
256.5636659277685
 30
0.0
 11
-85.80387545843979
 21
256.5636659277685
 31
0.0
  0
LINE
  5
234
330
1F
100
AcDbEntity
  8
_2-b_Tat
  6
Continuous
 62
     3
370
     9
100
AcDbLine
 10
-74.97926975968863
 20
261.1947135926907
 30
0.0
 11
-75.8725008901634
 21
256.9605364267202
 31
0.0
  0
LINE
  5
235
330
1F
100
AcDbEntity
  8
_2-b_Tat
  6
Continuous
 62
     3
370
     9
100
AcDbLine
 10
-71.05902161760815
 20
261.5915840916425
 30
0.0
 11
-74.48994478495098
 21
261.5915840916425
 31
0.0
  0
LINE
  5
236
330
1F
100
AcDbEntity
  8
_2-b_Tat
  6
Continuous
 62
     3
370
     9
100
AcDbLine
 10
-69.67606913736569
 20
256.9602391454477
 30
0.0
 11
-70.57019211165817
 21
261.1947135926907
 31
0.0
  0
LINE
  5
237
330
1F
100
AcDbEntity
  8
_2-b_Tat
  6
Continuous
 62
     3
370
     9
100
AcDbLine
 10
-59.74479366284669
 20
256.5636659277685
 30
0.0
 11
-69.18704144390068
 21
256.5636659277685
 31
0.0
  0
LINE
  5
238
330
1F
100
AcDbEntity
  8
_2-b_Tat
  6
Continuous
 62
     3
370
     9
100
AcDbLine
 10
-58.36144480757395
 20
261.1949117802057
 30
0.0
 11
-59.25566687562429
 21
256.9602391454477
 31
0.0
  0
LINE
  5
239
330
1F
100
AcDbEntity
  8
_2-b_Tat
  6
Continuous
 62
     3
370
     9
100
AcDbLine
 10
-54.44367400943207
 20
261.5915840916425
 30
0.0
 11
-57.87211983283652
 21
261.5915840916425
 31
0.0
  0
LINE
  5
23A
330
1F
100
AcDbEntity
  8
_2-b_Tat
  6
Continuous
 62
     3
370
     9
100
AcDbLine
 10
-53.05913602906895
 20
256.9602391454477
 30
0.0
 11
-53.9546463159673
 21
261.1949117802057
 31
0.0
  0
LINE
  5
23B
330
1F
100
AcDbEntity
  8
_2-b_Tat
  6
Continuous
 62
     3
370
     9
100
AcDbLine
 10
-43.1274641795199
 20
256.5636659277685
 30
0.0
 11
-52.5703065231192
 21
256.5636659277685
 31
0.0
  0
LINE
  5
23C
330
1F
100
AcDbEntity
  8
_2-b_Tat
  6
Continuous
 62
     3
370
     9
100
AcDbLine
 10
-41.73628691740151
 20
261.195506342751
 30
0.0
 11
-42.63804011102485
 21
256.9595454891449
 31
0.0
  0
LINE
  5
23D
330
1F
100
AcDbEntity
  8
_2-b_Tat
  6
Continuous
 62
     3
370
     9
100
AcDbLine
 10
-41.24755650520916
 20
261.5915840916425
 30
0.0
 11
-35.89153891011694
 21
261.5915840916425
 31
0.0
  0
LINE
  5
23E
330
1F
100
AcDbEntity
  8
_2-b_Tat
  6
Continuous
 62
     3
370
     9
100
AcDbLine
 10
-129.2824507046542
 20
200.3830546524306
 30
0.0
 11
-124.7899361127743
 21
199.7709525120998
 31
0.0
  0
LINE
  5
23F
330
1F
100
AcDbEntity
  8
_2-b_Tat
  6
Continuous
 62
     3
370
     9
100
AcDbLine
 10
-94.92704134021147
 20
208.3464271959423
 30
0.0
 11
-128.7426870073281
 21
208.3464271959423
 31
0.0
  0
LINE
  5
240
330
1F
100
AcDbEntity
  8
_2-b_Tat
  6
Continuous
 62
     3
370
     9
100
AcDbLine
 10
-94.92704134021147
 20
198.3466779349627
 30
0.0
 11
-120.084865410969
 21
198.3466779349627
 31
0.0
  0
LINE
  5
241
330
1F
100
AcDbEntity
  8
_2-b_Tat
  6
Continuous
 62
     3
370
     9
100
AcDbLine
 10
-133.8204493312452
 20
217.3465186308483
 30
0.0
 11
-94.92704134021147
 21
217.3465186308483
 31
0.0
  0
LINE
  5
242
330
1F
100
AcDbEntity
  8
_2-b_Tat
  6
Continuous
 62
     3
370
     9
100
AcDbLine
 10
-135.8204586396958
 20
225.3467540521652
 30
0.0
 11
-135.8204586396958
 21
219.3464288455412
 31
0.0
  0
LINE
  5
243
330
1F
100
AcDbEntity
  8
_2-b_Tat
  6
Continuous
 62
     3
370
     9
100
AcDbLine
 10
-133.8204493312452
 20
227.3464660793431
 30
0.0
 11
-94.92704134021147
 21
227.3464660793431
 31
0.0
  0
LINE
  5
244
330
1F
100
AcDbEntity
  8
_2-b_Tat
  6
Continuous
 62
     3
370
     9
100
AcDbLine
 10
-133.8204493312452
 20
236.346755701764
 30
0.0
 11
-94.92704134021147
 21
236.346755701764
 31
0.0
  0
LINE
  5
245
330
1F
100
AcDbEntity
  8
_2-b_Tat
  6
Continuous
 62
     3
370
     9
100
AcDbLine
 10
-135.8204586396958
 20
244.3465947480508
 30
0.0
 11
-135.8204586396958
 21
238.3464677289418
 31
0.0
  0
LINE
  5
246
330
1F
100
AcDbEntity
  8
_2-b_Tat
  6
Continuous
 62
     3
370
     9
100
AcDbLine
 10
-133.8204493312452
 20
246.3467031502589
 30
0.0
 11
-94.92704134021147
 21
246.3467031502589
 31
0.0
  0
LINE
  5
247
330
1F
100
AcDbEntity
  8
_2-b_Tat
  6
Continuous
 62
     3
370
     9
100
AcDbLine
 10
-95.40189862634821
 20
238.3464677289418
 30
0.0
 11
-95.40189862634821
 21
244.3465947480508
 31
0.0
  0
LINE
  5
248
330
1F
100
AcDbEntity
  8
_2-b_Tat
  6
Continuous
 62
     3
370
     9
100
AcDbLine
 10
-95.40189862634821
 20
219.3464288455412
 30
0.0
 11
-95.40189862634821
 21
225.3467540521652
 31
0.0
  0
LINE
  5
249
330
1F
100
AcDbEntity
  8
_2-b_Tat
  6
Continuous
 62
     3
370
     9
100
AcDbLine
 10
-95.40189862634821
 20
200.3465881496556
 30
0.0
 11
-95.40189862634821
 21
206.3465169812494
 31
0.0
  0
LINE
  5
24A
330
1F
100
AcDbEntity
  8
_2-b_Tat
  6
Continuous
 62
     3
370
     9
100
AcDbLine
 10
-46.85140758791164
 20
244.3465947480508
 30
0.0
 11
-46.85140758791164
 21
238.3464677289418
 31
0.0
  0
LINE
  5
24B
330
1F
100
AcDbEntity
  8
_2-b_Tat
  6
Continuous
 62
     3
370
     9
100
AcDbLine
 10
-46.85140758791164
 20
225.3467540521652
 30
0.0
 11
-46.85140758791164
 21
219.3464288455412
 31
0.0
  0
LINE
  5
24C
330
1F
100
AcDbEntity
  8
_2-b_Tat
  6
Continuous
 62
     3
370
     9
100
AcDbLine
 10
-46.85140758791164
 20
200.3465881496556
 30
0.0
 11
-46.85140758791164
 21
206.3465169812494
 31
0.0
  0
LINE
  5
24D
330
1F
100
AcDbEntity
  8
2-Aﾚｲﾔ
  6
Continuous
 62
     2
370
     9
100
AcDbLine
 10
-138.3022617973107
 20
184.8255329060051
 30
0.0
 11
-140.2907762298864
 21
184.8255329060051
 31
0.0
  0
LINE
  5
24E
330
1F
100
AcDbEntity
  8
_2-9_Kut
  6
Continuous
 62
     6
370
     9
100
AcDbLine
 10
-26.9634886369434
 20
235.8464313199394
 30
0.0
 11
-31.39119591139121
 21
235.8464313199394
 31
0.0
  0
LINE
  5
24F
330
1F
100
AcDbEntity
  8
_2-9_Kut
  6
Continuous
 62
     6
370
     9
100
AcDbLine
 10
-26.9634886369434
 20
222.8465194556476
 30
0.0
 11
-31.39119591139121
 21
222.8465194556476
 31
0.0
  0
LINE
  5
250
330
1F
100
AcDbEntity
  8
_2-9_Kut
  6
Continuous
 62
     6
370
     9
100
AcDbLine
 10
-26.9634886369434
 20
190.8464696141977
 30
0.0
 11
-31.39119591139121
 21
190.8464696141977
 31
0.0
  0
LINE
  5
251
330
1F
100
AcDbEntity
  8
_2-9_Kut
  6
Continuous
 62
     6
370
     9
100
AcDbLine
 10
-26.9634886369434
 20
222.8465194556476
 30
0.0
 11
-26.9634886369434
 21
190.8464696141977
 31
0.0
  0
LINE
  5
252
330
1F
100
AcDbEntity
  8
_2-9_Kut
  6
Continuous
 62
     6
370
     9
100
AcDbLine
 10
-31.39119591139121
 20
222.8465194556476
 30
0.0
 11
-31.39119591139121
 21
190.8464696141977
 31
0.0
  0
LINE
  5
253
330
1F
100
AcDbEntity
  8
_2-b_Tat
  6
Continuous
 62
     3
370
     9
100
AcDbLine
 10
-38.89110695088362
 20
272.8465539793943
 30
0.0
 11
-145.8912581248324
 21
272.8465539793943
 31
0.0
  0
LINE
  5
254
330
1F
100
AcDbEntity
  8
_2-b_Tat
  6
Continuous
 62
     3
370
     9
100
AcDbLine
 10
-137.64824299754
 20
261.5915840916425
 30
0.0
 11
-142.8913928027931
 21
261.5915840916425
 31
0.0
  0
LINE
  5
255
330
1F
100
AcDbEntity
  8
_2-b_Tat
  6
Continuous
 62
     3
370
     9
100
AcDbLine
 10
-141.4950626652824
 20
261.5915840916425
 30
0.0
 11
-142.8913928027931
 21
261.7925462319357
 31
0.0
  0
LINE
  5
256
330
1F
100
AcDbEntity
  8
_2-b_Tat
  6
Continuous
 62
     3
370
     9
100
AcDbLine
 10
-142.8913928027931
 20
262.3889915585751
 30
0.0
 11
-137.2528589049512
 21
261.5915840916425
 31
0.0
  0
LINE
  5
257
330
1F
100
AcDbEntity
  8
_2-b_Tat
  6
Continuous
 62
     3
370
     9
100
AcDbLine
 10
-124.7460375781837
 20
261.5915840916425
 30
0.0
 11
-142.8913928027931
 21
264.2062719781199
 31
0.0
  0
LINE
  5
258
330
1F
100
AcDbEntity
  8
_2-b_Tat
  6
Continuous
 62
     3
370
     9
100
AcDbLine
 10
-142.8913928027931
 20
264.7589178639262
 30
0.0
 11
-120.5037347240948
 21
261.5915840916425
 31
0.0
  0
LINE
  5
259
330
1F
100
AcDbEntity
  8
_2-b_Tat
  6
Continuous
 62
     3
370
     9
100
AcDbLine
 10
-108.129302657402
 20
261.5915840916425
 30
0.0
 11
-142.8913928027931
 21
266.6012690041289
 31
0.0
  0
LINE
  5
25A
330
1F
100
AcDbEntity
  8
_2-b_Tat
  6
Continuous
 62
     3
370
     9
100
AcDbLine
 10
-142.8913928027931
 20
267.1098181678295
 30
0.0
 11
-103.887098897071
 21
261.5915840916425
 31
0.0
  0
LINE
  5
25B
330
1F
100
AcDbEntity
  8
_2-b_Tat
  6
Continuous
 62
     3
370
     9
100
AcDbLine
 10
-142.8913928027931
 20
268.8467335500084
 30
0.0
 11
-134.5562204809874
 21
268.2812054757218
 31
0.0
  0
LINE
  5
25C
330
1F
100
AcDbEntity
  8
_2-9_Kut
  6
Continuous
 62
     6
370
     9
100
AcDbLine
 10
-121.6191340589766
 20
281.8463481330276
 30
0.0
 11
-121.6191340589766
 21
274.3463379997777
 31
0.0
  0
LINE
  5
25D
330
1F
100
AcDbEntity
  8
_2-9_Kut
  6
Continuous
 62
     6
370
     9
100
AcDbLine
 10
-113.6190968251747
 20
281.8463481330276
 30
0.0
 11
-113.6190968251747
 21
274.3463379997777
 31
0.0
  0
LINE
  5
25E
330
1F
100
AcDbEntity
  8
_2-9_Kut
  6
Continuous
 62
     6
370
     9
100
AcDbLine
 10
-91.39117788363279
 20
280.8465912131962
 30
0.0
 11
-91.39117788363279
 21
275.8464193014337
 31
0.0
  0
LINE
  5
25F
330
1F
100
AcDbEntity
  8
_2-9_Kut
  6
Continuous
 62
     6
370
     9
100
AcDbLine
 10
-113.6190968251747
 20
274.3463379997777
 30
0.0
 11
-91.39117788363279
 21
275.8464193014337
 31
0.0
  0
LINE
  5
260
330
1F
100
AcDbEntity
  8
_2-9_Kut
  6
Continuous
 62
     6
370
     9
100
AcDbLine
 10
-91.39117788363279
 20
280.8465912131962
 30
0.0
 11
-113.6190968251747
 21
281.8463481330276
 31
0.0
  0
LINE
  5
261
330
1F
100
AcDbEntity
  8
_2-9_Kut
  6
Continuous
 62
     6
370
     9
100
AcDbLine
 10
-121.6191340589766
 20
275.8464193014337
 30
0.0
 11
-145.8912581248324
 21
275.8464193014337
 31
0.0
  0
LINE
  5
262
330
1F
100
AcDbEntity
  8
_2-9_Kut
  6
Continuous
 62
     6
370
     9
100
AcDbLine
 10
-36.48461504899984
 20
281.8463481330276
 30
0.0
 11
-113.6190968251747
 21
281.8463481330276
 31
0.0
  0
LINE
  5
263
330
1F
100
AcDbEntity
  8
_2-9_Kut
  6
Continuous
 62
     6
370
     9
100
AcDbLine
 10
-121.6191340589766
 20
281.8463481330276
 30
0.0
 11
-166.8913063166836
 21
281.8463481330276
 31
0.0
  0
LINE
  5
264
330
1F
100
AcDbEntity
  8
_2-9_Kut
  6
Continuous
 62
     6
370
     9
100
AcDbLine
 10
-145.8912581248324
 20
274.3463379997777
 30
0.0
 11
-121.6191340589766
 21
274.3463379997777
 31
0.0
  0
LINE
  5
265
330
1F
100
AcDbEntity
  8
_2-c_Shi
  6
Continuous
 62
     4
370
     9
100
AcDbLine
 10
-217.7717888761823
 20
246.3465049627437
 30
0.0
 11
-209.7718507361379
 21
246.3465049627437
 31
0.0
  0
LINE
  5
266
330
1F
100
AcDbEntity
  8
_2-9_Kut
  6
Continuous
 62
     6
370
     9
100
AcDbLine
 10
-11.89122902119612
 20
317.846515685136
 30
0.0
 11
-16.89130183920116
 21
317.846515685136
 31
0.0
  0
LINE
  5
267
330
1F
100
AcDbEntity
  8
_2-9_Kut
  6
Continuous
 62
     6
370
     9
100
AcDbLine
 10
-107.8182473524808
 20
337.8465096758833
 30
0.0
 11
-107.8182473524808
 21
331.3465537437374
 31
0.0
  0
LINE
  5
268
330
1F
100
AcDbEntity
  8
_2-9_Kut
  6
Continuous
 62
     6
370
     9
100
AcDbLine
 10
-99.81830921243642
 20
337.8465096758833
 30
0.0
 11
-99.81830921243642
 21
331.3465537437374
 31
0.0
  0
LINE
  5
269
330
1F
100
AcDbEntity
  8
_2-9_Kut
  6
Continuous
 62
     6
370
     9
100
AcDbLine
 10
-91.89130407794238
 20
336.8465545685368
 30
0.0
 11
-91.89130407794238
 21
332.8465359516359
 31
0.0
  0
LINE
  5
26A
330
1F
100
AcDbEntity
  8
_2-9_Kut
  6
Continuous
 62
     6
370
     9
100
AcDbLine
 10
-99.81830921243642
 20
331.3465537437374
 30
0.0
 11
-91.89130407794238
 21
332.8465359516359
 31
0.0
  0
LINE
  5
26B
330
1F
100
AcDbEntity
  8
_2-9_Kut
  6
Continuous
 62
     6
370
     9
100
AcDbLine
 10
-91.89130407794238
 20
336.8465545685368
 30
0.0
 11
-99.81830921243642
 21
337.8465096758833
 31
0.0
  0
LINE
  5
26C
330
1F
100
AcDbEntity
  8
_2-9_Kut
  6
Continuous
 62
     6
370
     9
100
AcDbLine
 10
-127.5081769758821
 20
336.8465545685368
 30
0.0
 11
-127.5081769758821
 21
332.8465359516359
 31
0.0
  0
LINE
  5
26D
330
1F
100
AcDbEntity
  8
_2-9_Kut
  6
Continuous
 62
     6
370
     9
100
AcDbLine
 10
-127.5081769758821
 20
336.8465545685368
 30
0.0
 11
-125.0993068238174
 21
337.8465096758833
 31
0.0
  0
LINE
  5
26E
330
1F
100
AcDbEntity
  8
_2-9_Kut
  6
Continuous
 62
     6
370
     9
100
AcDbLine
 10
-107.8182473524808
 20
332.8465359516359
 30
0.0
 11
-166.8913063166836
 21
332.8465359516359
 31
0.0
  0
LINE
  5
26F
330
1F
100
AcDbEntity
  8
_2-9_Kut
  6
Continuous
 62
     6
370
     9
100
AcDbLine
 10
-107.8182473524808
 20
331.3465537437374
 30
0.0
 11
-166.8913063166836
 21
331.3465537437374
 31
0.0
  0
LINE
  5
270
330
1F
100
AcDbEntity
  8
_2-9_Kut
  6
Continuous
 62
     6
370
     9
100
AcDbLine
 10
-11.89122902119612
 20
316.3465334772375
 30
0.0
 11
-21.0291598728416
 21
316.3465334772375
 31
0.0
  0
LINE
  5
271
330
1F
100
AcDbEntity
  8
_2-c_Shi
  6
Continuous
 62
     4
370
     9
100
AcDbLine
 10
-196.8127654999531
 20
340.3464469911281
 30
0.0
 11
-196.8127654999531
 21
338.3464376826776
 31
0.0
  0
LINE
  5
272
330
1F
100
AcDbEntity
  8
_2-c_Shi
  6
Continuous
 62
     4
370
     9
100
AcDbLine
 10
-196.8127654999531
 20
332.3465088510839
 30
0.0
 11
-196.8127654999531
 21
330.3464995426332
 31
0.0
  0
LINE
  5
273
330
1F
100
AcDbEntity
  8
_2-6_B_b
  6
Continuous
 62
     2
370
     9
100
AcDbLine
 10
-17.81257650306003
 20
375.3464612483752
 30
0.0
 11
-177.8125284290373
 21
375.3464612483752
 31
0.0
  0
LINE
  5
274
330
1F
100
AcDbEntity
  8
_2-6_B_b
  6
Continuous
 62
     2
370
     9
100
AcDbLine
 10
-17.81257650306003
 20
375.3464612483752
 30
0.0
 11
-17.81257650306003
 21
370.3464875241278
 31
0.0
  0
LINE
  5
275
330
1F
100
AcDbEntity
  8
_2-6_B_b
  6
Continuous
 62
     2
370
     9
100
AcDbLine
 10
-177.8125284290373
 20
375.3464612483752
 30
0.0
 11
-177.8125284290373
 21
465.346483753616
 31
0.0
  0
LINE
  5
276
330
1F
100
AcDbEntity
  8
_2-6_B_b
  6
Continuous
 62
     2
370
     9
100
AcDbLine
 10
182.1872643106541
 20
465.346483753616
 30
0.0
 11
-177.8125284290373
 21
465.346483753616
 31
0.0
  0
LINE
  5
277
330
1F
100
AcDbEntity
  8
_2-6_B_b
  6
Continuous
 62
     2
370
     9
100
AcDbLine
 10
-207.8125689620368
 20
465.346483753616
 30
0.0
 11
-209.4125367712941
 21
465.346483753616
 31
0.0
  0
LINE
  5
278
330
1F
100
AcDbEntity
  8
_2-6_B_b
  6
Continuous
 62
     2
370
     9
100
AcDbLine
 10
-206.2124029652644
 20
357.3464765660784
 30
0.0
 11
-206.2124029652644
 21
313.3464699676832
 31
0.0
  0
LINE
  5
279
330
1F
100
AcDbEntity
  8
_2-6_B_b
  6
Continuous
 62
     2
370
     9
100
AcDbLine
 10
-196.8127654999531
 20
330.3464995426332
 30
0.0
 11
-196.8127654999531
 21
313.3464699676832
 31
0.0
  0
LINE
  5
27A
330
1F
100
AcDbEntity
  8
_2-6_B_b
  6
Continuous
 62
     2
370
     9
100
AcDbLine
 10
-196.8127654999531
 20
340.3464469911281
 30
0.0
 11
-196.8127654999531
 21
357.3464765660784
 31
0.0
  0
LINE
  5
27B
330
1F
100
AcDbEntity
  8
_2-6_B_b
  6
Continuous
 62
     2
370
     9
100
AcDbLine
 10
-196.8127654999531
 20
357.3464765660784
 30
0.0
 11
-207.8125689620368
 21
357.3464765660784
 31
0.0
  0
LINE
  5
27C
330
1F
100
AcDbEntity
  8
_2-6_B_b
  6
Continuous
 62
     2
370
     9
100
AcDbLine
 10
-196.8127654999531
 20
313.3464699676832
 30
0.0
 11
-207.8125689620368
 21
313.3464699676832
 31
0.0
  0
LINE
  5
27D
330
1F
100
AcDbEntity
  8
2-Aﾚｲﾔ
  6
Continuous
 62
     2
370
     9
100
AcDbLine
 10
-193.4123632099328
 20
332.3465088510839
 30
0.0
 11
-193.4123632099328
 21
338.3464376826776
 31
0.0
  0
LINE
  5
27E
330
1F
100
AcDbEntity
  8
2-Aﾚｲﾔ
  6
Continuous
 62
     2
370
     9
100
AcDbLine
 10
-199.6030475247932
 20
341.0965867357136
 30
0.0
 11
-204.112408055455
 21
341.0965867357136
 31
0.0
  0
LINE
  5
27F
330
1F
100
AcDbEntity
  8
2-Aﾚｲﾔ
  6
Continuous
 62
     2
370
     9
100
AcDbLine
 10
-199.6030475247932
 20
329.5965579855629
 30
0.0
 11
-204.112408055455
 21
329.5965579855629
 31
0.0
  0
LINE
  5
280
330
1F
100
AcDbEntity
  8
2-Aﾚｲﾔ
  6
Continuous
 62
     2
370
     9
100
AcDbLine
 10
-199.6030475247932
 20
338.2099855785437
 30
0.0
 11
-204.112408055455
 21
338.2099855785437
 31
0.0
  0
LINE
  5
281
330
1F
100
AcDbEntity
  8
2-Aﾚｲﾔ
  6
Continuous
 62
     2
370
     9
100
AcDbLine
 10
-199.6030475247932
 20
332.4832582364905
 30
0.0
 11
-204.112408055455
 21
332.4832582364905
 31
0.0
  0
LINE
  5
282
330
1F
100
AcDbEntity
  8
2-Aﾚｲﾔ
  6
Continuous
 62
     2
370
     9
100
AcDbLine
 10
-199.1123352374501
 20
339.6530879696136
 30
0.0
 11
-199.1123352374501
 21
331.0399576579055
 31
0.0
  0
LINE
  5
283
330
1F
100
AcDbEntity
  8
2-Aﾚｲﾔ
  6
Continuous
 62
     2
370
     9
100
AcDbLine
 10
-199.1123352374501
 20
337.4765926789826
 30
0.0
 11
-193.4123632099328
 21
337.4765926789826
 31
0.0
  0
LINE
  5
284
330
1F
100
AcDbEntity
  8
2-Aﾚｲﾔ
  6
Continuous
 62
     2
370
     9
100
AcDbLine
 10
-199.1123352374501
 20
338.3464376826776
 30
0.0
 11
-193.4123632099328
 21
338.3464376826776
 31
0.0
  0
LINE
  5
285
330
1F
100
AcDbEntity
  8
2-Aﾚｲﾔ
  6
Continuous
 62
     2
370
     9
100
AcDbLine
 10
-199.1123352374501
 20
333.2165520422939
 30
0.0
 11
-193.4123632099328
 21
333.2165520422939
 31
0.0
  0
LINE
  5
286
330
1F
100
AcDbEntity
  8
2-Aﾚｲﾔ
  6
Continuous
 62
     2
370
     9
100
AcDbLine
 10
-199.1123352374501
 20
332.3465088510839
 30
0.0
 11
-193.4123632099328
 21
332.3465088510839
 31
0.0
  0
LINE
  5
287
330
1F
100
AcDbEntity
  8
_2-6_B_b
  6
Continuous
 62
     2
370
     9
100
AcDbLine
 10
-206.2124029652644
 20
342.7591817997371
 30
0.0
 11
-204.112408055455
 21
340.6590877961701
 31
0.0
  0
LINE
  5
288
330
1F
100
AcDbEntity
  8
_2-6_B_b
  6
Continuous
 62
     2
370
     9
100
AcDbLine
 10
-204.112408055455
 20
340.6590877961701
 30
0.0
 11
-204.112408055455
 21
330.0341560188641
 31
0.0
  0
LINE
  5
289
330
1F
100
AcDbEntity
  8
_2-6_B_b
  6
Continuous
 62
     2
370
     9
100
AcDbLine
 10
-206.2124029652644
 20
327.9339629215395
 30
0.0
 11
-204.112408055455
 21
330.0341560188641
 31
0.0
  0
LINE
  5
28A
330
1F
100
AcDbEntity
  8
_2-6_B_b
  6
JWW_DASHED2
 62
     2
370
     9
100
AcDbLine
 10
-198.4127333092104
 20
357.3464765660784
 30
0.0
 11
-198.4127333092104
 21
338.3464376826776
 31
0.0
  0
LINE
  5
28B
330
1F
100
AcDbEntity
  8
_2-6_B_b
  6
JWW_DASHED2
 62
     2
370
     9
100
AcDbLine
 10
-198.4127333092104
 20
332.3465088510839
 30
0.0
 11
-198.4127333092104
 21
313.3464699676832
 31
0.0
  0
LINE
  5
28C
330
1F
100
AcDbEntity
  8
_2-6_B_b
  6
JWW_CENTER1
 62
     2
370
     9
100
AcDbLine
 10
167.1872440441543
 20
453.8228706891705
 30
0.0
 11
167.1872440441543
 21
446.5602891989889
 31
0.0
  0
LINE
  5
28D
330
1F
100
AcDbEntity
  8
_2-6_B_b
  6
JWW_CENTER1
 62
     2
370
     9
100
AcDbLine
 10
163.3248666564779
 20
450.3463643933588
 30
0.0
 11
170.8815584190413
 21
450.3463643933588
 31
0.0
  0
LINE
  5
28E
330
1F
100
AcDbEntity
  8
_2-6_B_b
  6
JWW_CENTER1
 62
     2
370
     9
100
AcDbLine
 10
2.187318393929615
 20
453.8228706891705
 30
0.0
 11
2.187318393929615
 21
446.5602891989889
 31
0.0
  0
LINE
  5
28F
330
1F
100
AcDbEntity
  8
_2-6_B_b
  6
JWW_CENTER1
 62
     2
370
     9
100
AcDbLine
 10
-1.674959899989346
 20
450.3463643933588
 30
0.0
 11
5.881731862573986
 21
450.3463643933588
 31
0.0
  0
LINE
  5
290
330
1F
100
AcDbEntity
  8
_2-6_B_b
  6
JWW_CENTER1
 62
     2
370
     9
100
AcDbLine
 10
-162.8125081625375
 20
453.8228706891705
 30
0.0
 11
-162.8125081625375
 21
446.5602891989889
 31
0.0
  0
LINE
  5
291
330
1F
100
AcDbEntity
  8
_2-6_B_b
  6
JWW_CENTER1
 62
     2
370
     9
100
AcDbLine
 10
-166.674885550214
 20
450.3463643933588
 30
0.0
 11
-159.1181937876507
 21
450.3463643933588
 31
0.0
  0
LINE
  5
292
330
1F
100
AcDbEntity
  8
_2-6_B_b
  6
JWW_CENTER1
 62
     2
370
     9
100
AcDbLine
 10
-212.5803660123656
 20
450.3463643933588
 30
0.0
 11
-205.0236742498022
 21
450.3463643933588
 31
0.0
  0
LINE
  5
293
330
1F
100
AcDbEntity
  8
_2-c_Shi
  6
Continuous
 62
     4
370
     9
100
AcDbLine
 10
-196.8127654999531
 20
330.3464995426332
 30
0.0
 11
-188.8127282661512
 21
329.1156559802162
 31
0.0
  0
LINE
  5
294
330
1F
100
AcDbEntity
  8
_2-c_Shi
  6
Continuous
 62
     4
370
     9
100
AcDbLine
 10
-196.8127654999531
 20
340.3464469911281
 30
0.0
 11
-188.8127282661512
 21
341.5772905535453
 31
0.0
  0
LINE
  5
295
330
1F
100
AcDbEntity
  8
_2-c_Shi
  6
Continuous
 62
     4
370
     9
100
AcDbLine
 10
-209.7718507361379
 20
248.3465142711942
 30
0.0
 11
-209.4125367712941
 21
248.3465142711942
 31
0.0
  0
LINE
  5
296
330
1F
100
AcDbEntity
  8
_2-c_Shi
  6
Continuous
 62
     4
370
     9
100
AcDbLine
 10
-129.7292644574066
 20
368.8464062224717
 30
0.0
 11
-128.1143334907605
 21
337.8465096758833
 31
0.0
  0
LINE
  5
297
330
1F
100
AcDbEntity
  8
_2-9_Kut
  6
Continuous
 62
     6
370
     9
100
AcDbLine
 10
-21.89127556344857
 20
336.8465545685368
 30
0.0
 11
-91.89130407794238
 21
336.8465545685368
 31
0.0
  0
LINE
  5
298
330
1F
100
AcDbEntity
  8
_2-9_Kut
  6
Continuous
 62
     6
370
     9
100
AcDbLine
 10
-21.89127556344857
 20
337.8465096758833
 30
0.0
 11
-174.891244456728
 21
337.8465096758833
 31
0.0
  0
LINE
  5
299
330
1F
100
AcDbEntity
  8
_2-c_Shi
  6
Continuous
 62
     4
370
     9
100
AcDbLine
 10
17.18733866042948
 20
370.3464875241278
 30
0.0
 11
-188.8127282661512
 21
370.3464875241278
 31
0.0
  0
LINE
  5
29A
330
1F
100
AcDbEntity
  8
_2-c_Shi
  6
Continuous
 62
     4
370
     9
100
AcDbLine
 10
17.18723956667185
 20
367.8465502088828
 30
0.0
 11
-129.67714114094
 21
367.8465502088828
 31
0.0
  0
LINE
  5
29B
330
1F
100
AcDbEntity
  8
_2-9_Kut
  6
Continuous
 62
     6
370
     9
100
AcDbLine
 10
-127.5081769758821
 20
332.8465359516359
 30
0.0
 11
-125.0993068238174
 21
331.3465537437374
 31
0.0
  0
LINE
  5
29C
330
1F
100
AcDbEntity
  8
_2-9_Kut
  6
Continuous
 62
     6
370
     9
100
AcDbLine
 10
-125.0993068238174
 20
331.3465537437374
 30
0.0
 11
-125.0993068238174
 21
281.8463481330276
 31
0.0
  0
LINE
  5
29D
330
1F
100
AcDbEntity
  8
_2-9_Kut
  6
Continuous
 62
     6
370
     9
100
AcDbLine
 10
-16.89130183920116
 20
327.8465622273885
 30
0.0
 11
-16.89130183920116
 21
317.846515685136
 31
0.0
  0
LINE
  5
29E
330
1F
100
AcDbEntity
  8
_2-9_Kut
  6
Continuous
 62
     6
370
     9
100
AcDbLine
 10
-21.89137465720597
 20
332.8465359516359
 30
0.0
 11
-91.89130407794238
 21
332.8465359516359
 31
0.0
  0
LINE
  5
29F
330
1F
100
AcDbEntity
  8
_2-9_Kut
  6
Continuous
 62
     6
370
     9
100
AcDbLine
 10
-21.0291598728416
 20
326.34658001949
 30
0.0
 11
-21.0291598728416
 21
316.3465334772375
 31
0.0
  0
LINE
  5
2A0
330
1F
100
AcDbEntity
  8
_2-9_Kut
  6
Continuous
 62
     6
370
     9
100
AcDbLine
 10
-26.02913359708901
 20
331.3465537437374
 30
0.0
 11
-99.81830921243642
 21
331.3465537437374
 31
0.0
  0
LINE
  5
2A1
330
1F
100
AcDbEntity
  8
_2-9_Kut
  6
Continuous
 62
     6
370
     9
100
AcDbLine
 10
-65.59429817049323
 20
281.8464472267852
 30
0.0
 11
-22.41756250974896
 21
329.8043575951263
 31
0.0
  0
LINE
  5
2A2
330
1F
100
AcDbEntity
  8
_2-9_Kut
  6
Continuous
 62
     6
370
     9
100
AcDbLine
 10
-35.89153891011694
 20
188.0333960251231
 30
0.0
 11
-26.9634886369434
 21
190.8464696141977
 31
0.0
  0
LINE
  5
2A3
330
1F
100
AcDbEntity
  8
_2-9_Kut
  6
Continuous
 62
     6
370
     9
100
AcDbLine
 10
-35.89153891011694
 20
190.1788749696438
 30
0.0
 11
-31.39119591139121
 21
190.8464696141977
 31
0.0
  0
LINE
  5
2A4
330
1F
100
AcDbEntity
  8
_2-9_Kut
  6
Continuous
 62
     6
370
     9
100
AcDbLine
 10
-35.89153891011694
 20
223.5141141002015
 30
0.0
 11
-31.39119591139121
 21
222.8465194556476
 31
0.0
  0
LINE
  5
2A5
330
1F
100
AcDbEntity
  8
_2-9_Kut
  6
Continuous
 62
     6
370
     9
100
AcDbLine
 10
-26.9634886369434
 20
222.8465194556476
 30
0.0
 11
-35.89153891011694
 21
225.6595930447223
 31
0.0
  0
LINE
  5
2A6
330
1F
100
AcDbEntity
  8
_2-9_Kut
  6
Continuous
 62
     6
370
     9
100
AcDbLine
 10
-35.89153891011694
 20
233.0333577308648
 30
0.0
 11
-26.9634886369434
 21
235.8464313199394
 31
0.0
  0
LINE
  5
2A7
330
1F
100
AcDbEntity
  8
_2-9_Kut
  6
Continuous
 62
     6
370
     9
100
AcDbLine
 10
-35.89153891011694
 20
235.1788366753855
 30
0.0
 11
-31.39119591139121
 21
235.8464313199394
 31
0.0
  0
LINE
  5
2A8
330
1F
100
AcDbEntity
  8
_2-9_Kut
  6
Continuous
 62
     6
370
     9
100
AcDbLine
 10
-69.91627240564509
 20
274.3465361872928
 30
0.0
 11
-56.89128982069548
 21
275.273360101574
 31
0.0
  0
LINE
  5
2A9
330
1F
100
AcDbEntity
  8
_2-9_Kut
  6
Continuous
 62
     6
370
     9
100
AcDbLine
 10
-41.73341319843286
 20
275.273360101574
 30
0.0
 11
-56.89128982069548
 21
275.273360101574
 31
0.0
  0
LINE
  5
2AA
330
1F
100
AcDbEntity
  8
_2-9_Kut
  6
Continuous
 62
     6
370
     9
100
AcDbLine
 10
-41.12299565198015
 20
275.177932813062
 30
0.0
 11
-32.78078767338917
 21
275.7509920129217
 31
0.0
  0
LINE
  5
2AB
330
1F
100
AcDbEntity
  8
_2-9_Kut
  6
Continuous
 62
     6
370
     9
100
AcDbLine
 10
-73.69689744335011
 20
272.8465539793943
 30
0.0
 11
-72.34644771558106
 21
274.3465361872928
 31
0.0
  0
LINE
  5
2AC
330
1F
100
AcDbEntity
  8
_2-9_Kut
  6
Continuous
 62
     6
370
     9
100
AcDbLine
 10
-113.6190968251747
 20
274.3463379997777
 30
0.0
 11
-69.91627240564509
 21
274.3463379997777
 31
0.0
  0
LINE
  5
2AD
330
1F
100
AcDbEntity
  8
_2-9_Kut
  6
Continuous
 62
     6
370
     9
100
AcDbLine
 10
-69.91627240564509
 20
272.8465539793943
 30
0.0
 11
-69.91627240564509
 21
274.3465361872928
 31
0.0
  0
LINE
  5
2AE
330
1F
100
AcDbEntity
  8
_2-9_Kut
  6
Continuous
 62
     6
370
     9
100
AcDbLine
 10
-56.89128982069548
 20
272.8465539793943
 30
0.0
 11
-56.89128982069548
 21
275.273360101574
 31
0.0
  0
LINE
  5
2AF
330
1F
100
AcDbEntity
  8
_2-9_Kut
  6
Continuous
 62
     6
370
     9
100
AcDbLine
 10
-39.73340388998241
 20
273.2733507931235
 30
0.0
 11
-39.73340388998241
 21
272.8465539793943
 31
0.0
  0
LINE
  5
2B0
330
1F
100
AcDbEntity
  8
_2-9_Kut
  6
Continuous
 62
     6
370
     9
100
AcDbLine
 10
-31.39119591139121
 20
273.8464099929833
 30
0.0
 11
-31.39119591139121
 21
235.8464313199394
 31
0.0
  0
LINE
  5
2B1
330
1F
100
AcDbEntity
  8
_2-9_Kut
  6
Continuous
 62
     6
370
     9
100
AcDbLine
 10
-33.39120521984165
 20
275.8464193014337
 30
0.0
 11
-91.39117788363279
 21
275.8464193014337
 31
0.0
  0
LINE
  5
2B2
330
1F
100
AcDbEntity
  8
_2-9_Kut
  6
Continuous
 62
     6
370
     9
100
AcDbLine
 10
-26.9634886369434
 20
278.8466809985032
 30
0.0
 11
-26.9634886369434
 21
235.8464313199394
 31
0.0
  0
LINE
  5
2B3
330
1F
100
AcDbEntity
  8
_2-9_Kut
  6
Continuous
 62
     6
370
     9
100
AcDbLine
 10
-28.96349794539384
 20
280.8465912131962
 30
0.0
 11
-91.39117788363279
 21
280.8465912131962
 31
0.0
  0
LINE
  5
2B4
330
1F
100
AcDbEntity
  8
_2-9_Kut
  6
Continuous
 62
     6
370
     9
100
AcDbLine
 10
-36.48461504899984
 20
281.8463481330276
 30
0.0
 11
-28.70426867566636
 21
280.8298443681718
 31
0.0
  0
LINE
  5
2B5
330
1F
100
AcDbEntity
  8
_2-c_Shi
  6
JWW_CENTER1
 62
     4
370
     9
100
AcDbLine
 10
-186.5109784659883
 20
335.3464732668807
 30
0.0
 11
-211.5218464943123
 21
335.3464732668807
 31
0.0
  0
LINE
  5
2B6
330
1F
100
AcDbEntity
  8
_2-c_Shi
  6
Continuous
 62
     4
370
     9
100
AcDbLine
 10
-179.5423090606734
 20
369.0822493654194
 30
0.0
 11
-188.8127282661512
 21
370.3464875241278
 31
0.0
  0
LINE
  5
2B7
330
1F
100
AcDbEntity
  8
_2-c_Shi
  6
Continuous
 62
     4
370
     9
100
AcDbLine
 10
17.18733866042948
 20
368.8464062224717
 30
0.0
 11
-178.8365633194662
 21
368.8464062224717
 31
0.0
  0
LINE
  5
2B8
330
1F
100
AcDbEntity
  8
_2-c_Shi
  6
Continuous
 62
     4
370
     9
100
AcDbLine
 10
-207.8125689620368
 20
248.3465142711942
 30
0.0
 11
-188.8127282661512
 21
248.3465142711942
 31
0.0
  0
LINE
  5
2B9
330
1F
100
AcDbEntity
  8
_2-9_Kut
  6
Continuous
 62
     6
370
     9
100
AcDbLine
 10
-168.6432839500089
 20
337.0655517727023
 30
0.0
 11
-174.891244456728
 21
337.8465096758833
 31
0.0
  0
LINE
  5
2BA
330
1F
100
AcDbEntity
  8
_2-9_Kut
  6
Continuous
 62
     6
370
     9
100
AcDbLine
 10
-107.8182473524808
 20
336.8465545685368
 30
0.0
 11
-167.95170861613
 21
336.8465545685368
 31
0.0
  0
LINE
  5
2BB
330
1F
100
AcDbEntity
  8
_2-9_Kut
  6
Continuous
 62
     6
370
     9
100
AcDbLine
 10
-147.7961374260435
 20
280.9373610951038
 30
0.0
 11
-166.8913063166836
 21
281.8464472267852
 31
0.0
  0
LINE
  5
2BC
330
1F
100
AcDbEntity
  8
_2-9_Kut
  6
Continuous
 62
     6
370
     9
100
AcDbLine
 10
-121.6191340589766
 20
280.8465912131962
 30
0.0
 11
-147.2883810124032
 21
280.8465912131962
 31
0.0
  0
LINE
  5
2BD
330
1F
100
AcDbEntity
  8
_2-c_Shi
  6
Continuous
 62
     4
370
     9
100
AcDbLine
 10
-177.8125284290373
 20
260.3466692156546
 30
0.0
 11
-174.891244456728
 21
260.1501662944507
 31
0.0
  0
LINE
  5
2BE
330
1F
100
AcDbEntity
  8
_2-c_Shi
  6
Continuous
 62
     4
370
     9
100
AcDbLine
 10
-174.891244456728
 20
260.3466692156546
 30
0.0
 11
-177.8125284290373
 21
260.3466692156546
 31
0.0
  0
LINE
  5
2BF
330
1F
100
AcDbEntity
  8
_2-c_Shi
  6
Continuous
 62
     4
370
     9
100
AcDbLine
 10
-174.891244456728
 20
230.9774595431613
 30
0.0
 11
-177.8125284290373
 21
230.846457595692
 31
0.0
  0
LINE
  5
2C0
330
1F
100
AcDbEntity
  8
_2-c_Shi
  6
Continuous
 62
     4
370
     9
100
AcDbLine
 10
-177.8125284290373
 20
232.8465659979
 30
0.0
 11
-174.891244456728
 21
232.8465659979
 31
0.0
  0
LINE
  5
2C1
330
1F
100
AcDbEntity
  8
_2-c_Shi
  6
Continuous
 62
     4
370
     9
100
AcDbLine
 10
-12.06771500337669
 20
329.716560525945
 30
0.0
 11
23.54687873813958
 21
365.2148181961082
 31
0.0
  0
LINE
  5
2C2
330
1F
100
AcDbEntity
  8
_2-b_Tat
  6
Continuous
 62
     3
370
     9
100
AcDbLine
 10
-142.8913928027931
 20
196.6189782722349
 30
0.0
 11
-125.5412649824504
 21
194.2548984985787
 31
0.0
  0
LINE
  5
2C3
330
1F
100
AcDbEntity
  8
2-Aﾚｲﾔ
  6
Continuous
 62
     2
370
     9
100
AcDbLine
 10
-140.2907762298864
 20
190.3466407011608
 30
0.0
 11
-142.8913928027931
 21
190.3466407011608
 31
0.0
  0
ARC
  5
2C4
330
1F
100
AcDbEntity
  8
_2-b_Tat
  6
Continuous
 62
     3
370
     9
100
AcDbCircle
 10
-94.92704134021147
 20
187.3466762853638
 30
0.0
 40
2.000000018410701
100
AcDbArc
 50
0.0
 51
90.0
  0
ARC
  5
2C5
330
1F
100
AcDbEntity
  8
_2-b_Tat
  6
Continuous
 62
     3
370
     9
100
AcDbCircle
 10
-83.85569218518327
 20
187.3466762853638
 30
0.0
 40
2.000000018410701
100
AcDbArc
 50
90.0
 51
180.0
  0
ARC
  5
2C6
330
1F
100
AcDbEntity
  8
_2-b_Tat
  6
Continuous
 62
     3
370
     9
100
AcDbCircle
 10
-46.37674848929015
 20
187.3466762853638
 30
0.0
 40
2.000000018410701
100
AcDbArc
 50
0.0
 51
90.0
  0
ARC
  5
2C7
330
1F
100
AcDbEntity
  8
_2-b_Tat
  6
Continuous
 62
     3
370
     9
100
AcDbCircle
 10
-83.85569218518327
 20
244.3465947480508
 30
0.0
 40
2.000000018410701
100
AcDbArc
 50
90.0
 51
180.0
  0
ARC
  5
2C8
330
1F
100
AcDbEntity
  8
_2-b_Tat
  6
Continuous
 62
     3
370
     9
100
AcDbCircle
 10
-83.85569218518327
 20
238.3464677289418
 30
0.0
 40
2.000000018410701
100
AcDbArc
 50
180.0
 51
270.0
  0
ARC
  5
2C9
330
1F
100
AcDbEntity
  8
_2-b_Tat
  6
Continuous
 62
     3
370
     9
100
AcDbCircle
 10
-46.37674848929015
 20
238.3464677289418
 30
0.0
 40
2.000000018410701
100
AcDbArc
 50
270.0
 51
0.0
  0
ARC
  5
2CA
330
1F
100
AcDbEntity
  8
_2-b_Tat
  6
Continuous
 62
     3
370
     9
100
AcDbCircle
 10
-46.37674848929015
 20
244.3465947480508
 30
0.0
 40
2.000000018410701
100
AcDbArc
 50
0.0
 51
90.0
  0
ARC
  5
2CB
330
1F
100
AcDbEntity
  8
_2-b_Tat
  6
Continuous
 62
     3
370
     9
100
AcDbCircle
 10
-94.92704134021147
 20
244.3465947480508
 30
0.0
 40
2.000000018410701
100
AcDbArc
 50
0.0
 51
90.0
  0
ARC
  5
2CC
330
1F
100
AcDbEntity
  8
_2-b_Tat
  6
Continuous
 62
     3
370
     9
100
AcDbCircle
 10
-94.92704134021147
 20
238.3464677289418
 30
0.0
 40
2.000000018410701
100
AcDbArc
 50
270.0
 51
0.0
  0
ARC
  5
2CD
330
1F
100
AcDbEntity
  8
_2-b_Tat
  6
Continuous
 62
     3
370
     9
100
AcDbCircle
 10
-94.92704134021147
 20
225.3467540521652
 30
0.0
 40
2.000000018410701
100
AcDbArc
 50
0.0
 51
90.0
  0
ARC
  5
2CE
330
1F
100
AcDbEntity
  8
_2-b_Tat
  6
Continuous
 62
     3
370
     9
100
AcDbCircle
 10
-94.92704134021147
 20
219.3464288455412
 30
0.0
 40
2.000000018410701
100
AcDbArc
 50
270.0
 51
0.0
  0
ARC
  5
2CF
330
1F
100
AcDbEntity
  8
_2-b_Tat
  6
Continuous
 62
     3
370
     9
100
AcDbCircle
 10
-83.85569218518327
 20
225.3467540521652
 30
0.0
 40
2.000000018410701
100
AcDbArc
 50
90.0
 51
180.0
  0
ARC
  5
2D0
330
1F
100
AcDbEntity
  8
_2-b_Tat
  6
Continuous
 62
     3
370
     9
100
AcDbCircle
 10
-83.85569218518327
 20
219.3464288455412
 30
0.0
 40
2.000000018410701
100
AcDbArc
 50
180.0
 51
270.0
  0
ARC
  5
2D1
330
1F
100
AcDbEntity
  8
_2-b_Tat
  6
Continuous
 62
     3
370
     9
100
AcDbCircle
 10
-46.37674848929015
 20
219.3464288455412
 30
0.0
 40
2.000000018410701
100
AcDbArc
 50
270.0
 51
0.0
  0
ARC
  5
2D2
330
1F
100
AcDbEntity
  8
_2-b_Tat
  6
Continuous
 62
     3
370
     9
100
AcDbCircle
 10
-46.37674848929015
 20
225.3467540521652
 30
0.0
 40
2.000000018410701
100
AcDbArc
 50
0.0
 51
90.0
  0
ARC
  5
2D3
330
1F
100
AcDbEntity
  8
_2-b_Tat
  6
Continuous
 62
     3
370
     9
100
AcDbCircle
 10
-46.37674848929015
 20
206.3465169812494
 30
0.0
 40
2.000000018410701
100
AcDbArc
 50
0.0
 51
90.0
  0
ARC
  5
2D4
330
1F
100
AcDbEntity
  8
_2-b_Tat
  6
Continuous
 62
     3
370
     9
100
AcDbCircle
 10
-46.37674848929015
 20
200.3465881496556
 30
0.0
 40
2.000000018410701
100
AcDbArc
 50
270.0
 51
0.0
  0
ARC
  5
2D5
330
1F
100
AcDbEntity
  8
_2-b_Tat
  6
Continuous
 62
     3
370
     9
100
AcDbCircle
 10
-83.85569218518327
 20
200.3465881496556
 30
0.0
 40
2.000000018410701
100
AcDbArc
 50
180.0
 51
270.0
  0
ARC
  5
2D6
330
1F
100
AcDbEntity
  8
_2-b_Tat
  6
Continuous
 62
     3
370
     9
100
AcDbCircle
 10
-83.85569218518327
 20
206.3465169812494
 30
0.0
 40
2.000000018410701
100
AcDbArc
 50
90.0
 51
180.0
  0
ARC
  5
2D7
330
1F
100
AcDbEntity
  8
_2-b_Tat
  6
Continuous
 62
     3
370
     9
100
AcDbCircle
 10
-94.92704134021147
 20
206.3465169812494
 30
0.0
 40
2.000000018410701
100
AcDbArc
 50
0.0
 51
90.0
  0
ARC
  5
2D8
330
1F
100
AcDbEntity
  8
_2-b_Tat
  6
Continuous
 62
     3
370
     9
100
AcDbCircle
 10
-94.92704134021147
 20
200.3465881496556
 30
0.0
 40
2.000000018410701
100
AcDbArc
 50
270.0
 51
0.0
  0
ARC
  5
2D9
330
1F
100
AcDbEntity
  8
_2-b_Tat
  6
Continuous
 62
     3
370
     9
100
AcDbCircle
 10
-109.2346935227723
 20
187.3466762853638
 30
0.0
 40
2.000000018410701
100
AcDbArc
 50
90.0
 51
180.0
  0
ARC
  5
2DA
330
1F
100
AcDbEntity
  8
_2-b_Tat
  6
Continuous
 62
     3
370
     9
100
AcDbCircle
 10
-137.64824299754
 20
261.0914578973329
 30
0.0
 40
0.5000000046026752
100
AcDbArc
 50
13.34358215332031
 51
90.00000000000001
  0
ARC
  5
2DB
330
1F
100
AcDbEntity
  8
_2-b_Tat
  6
Continuous
 62
     3
370
     9
100
AcDbCircle
 10
-135.6650796278714
 20
257.0635939345629
 30
0.0
 40
0.5000000046026752
100
AcDbArc
 50
193.3435821533203
 51
270.0
  0
ARC
  5
2DC
330
1F
100
AcDbEntity
  8
_2-b_Tat
  6
Continuous
 62
     3
370
     9
100
AcDbCircle
 10
-126.2186699090008
 20
257.0635939345629
 30
0.0
 40
0.5000000046026752
100
AcDbArc
 50
270.0
 51
348.8787994384766
  0
ARC
  5
2DD
330
1F
100
AcDbEntity
  8
_2-b_Tat
  6
Continuous
 62
     3
370
     9
100
AcDbCircle
 10
-124.4078305836961
 20
261.0914578973329
 30
0.0
 40
0.5000000046026752
100
AcDbArc
 50
90.0
 51
168.8788146972656
  0
ARC
  5
2DE
330
1F
100
AcDbEntity
  8
_2-b_Tat
  6
Continuous
 62
     3
370
     9
100
AcDbCircle
 10
-120.951043945635
 20
261.0914578973329
 30
0.0
 40
0.5000000046026752
100
AcDbArc
 50
12.40010070800781
 51
90.0
  0
ARC
  5
2DF
330
1F
100
AcDbEntity
  8
_2-b_Tat
  6
Continuous
 62
     3
370
     9
100
AcDbCircle
 10
-119.041408144062
 20
257.0635939345629
 30
0.0
 40
0.5000000046026752
100
AcDbArc
 50
192.4001007080078
 51
270.0
  0
ARC
  5
2E0
330
1F
100
AcDbEntity
  8
_2-b_Tat
  6
Continuous
 62
     3
370
     9
100
AcDbCircle
 10
-109.5958902690093
 20
257.0635939345629
 30
0.0
 40
0.5000000046026752
100
AcDbArc
 50
270.0
 51
348.0821075439453
  0
ARC
  5
2E1
330
1F
100
AcDbEntity
  8
_2-b_Tat
  6
Continuous
 62
     3
370
     9
100
AcDbCircle
 10
-107.7236128140292
 20
261.0914578973329
 30
0.0
 40
0.5000000046026752
100
AcDbArc
 50
90.0
 51
168.0821075439453
  0
ARC
  5
2E2
330
1F
100
AcDbEntity
  8
_2-b_Tat
  6
Continuous
 62
     3
370
     9
100
AcDbCircle
 10
-104.292986927959
 20
261.0914578973329
 30
0.0
 40
0.5000000046026752
100
AcDbArc
 50
11.91511535644531
 51
90.0
  0
ARC
  5
2E3
330
1F
100
AcDbEntity
  8
_2-b_Tat
  6
Continuous
 62
     3
370
     9
100
AcDbCircle
 10
-102.4209076604939
 20
257.0635939345629
 30
0.0
 40
0.5000000046026752
100
AcDbArc
 50
191.9151153564454
 51
270.0
  0
ARC
  5
2E4
330
1F
100
AcDbEntity
  8
_2-b_Tat
  6
Continuous
 62
     3
370
     9
100
AcDbCircle
 10
-92.97885806695496
 20
257.0635939345629
 30
0.0
 40
0.5000000046026752
100
AcDbArc
 50
270.0
 51
348.0848846435546
  0
ARC
  5
2E5
330
1F
100
AcDbEntity
  8
_2-b_Tat
  6
Continuous
 62
     3
370
     9
100
AcDbCircle
 10
-91.10697698700511
 20
261.0914578973329
 30
0.0
 40
0.5000000046026752
100
AcDbArc
 50
90.0
 51
168.0848846435547
  0
ARC
  5
2E6
330
1F
100
AcDbEntity
  8
_2-b_Tat
  6
Continuous
 62
     3
370
     9
100
AcDbCircle
 10
-87.67575653838963
 20
261.0914578973329
 30
0.0
 40
0.5000000046026752
100
AcDbArc
 50
11.91511535644531
 51
90.0
  0
ARC
  5
2E7
330
1F
100
AcDbEntity
  8
_2-b_Tat
  6
Continuous
 62
     3
370
     9
100
AcDbCircle
 10
-85.80387545843979
 20
257.0635939345629
 30
0.0
 40
0.5000000046026752
100
AcDbArc
 50
191.9151153564454
 51
270.0
  0
ARC
  5
2E8
330
1F
100
AcDbEntity
  8
_2-b_Tat
  6
Continuous
 62
     3
370
     9
100
AcDbCircle
 10
-76.36182586490082
 20
257.0635939345629
 30
0.0
 40
0.5000000046026752
100
AcDbArc
 50
270.0
 51
348.0848846435546
  0
ARC
  5
2E9
330
1F
100
AcDbEntity
  8
_2-b_Tat
  6
Continuous
 62
     3
370
     9
100
AcDbCircle
 10
-74.48994478495098
 20
261.0914578973329
 30
0.0
 40
0.5000000046026752
100
AcDbArc
 50
90.0
 51
168.0848846435547
  0
ARC
  5
2EA
330
1F
100
AcDbEntity
  8
_2-b_Tat
  6
Continuous
 62
     3
370
     9
100
AcDbCircle
 10
-71.05902161760815
 20
261.0914578973329
 30
0.0
 40
0.5000000046026752
100
AcDbArc
 50
11.91789245605469
 51
90.0
  0
ARC
  5
2EB
330
1F
100
AcDbEntity
  8
_2-b_Tat
  6
Continuous
 62
     3
370
     9
100
AcDbCircle
 10
-69.18704144390068
 20
257.0635939345629
 30
0.0
 40
0.5000000046026752
100
AcDbArc
 50
191.9178924560547
 51
270.0
  0
ARC
  5
2EC
330
1F
100
AcDbEntity
  8
_2-b_Tat
  6
Continuous
 62
     3
370
     9
100
AcDbCircle
 10
-59.74479366284669
 20
257.0635939345629
 30
0.0
 40
0.5000000046026752
100
AcDbArc
 50
270.0
 51
348.0765380859375
  0
ARC
  5
2ED
330
1F
100
AcDbEntity
  8
_2-b_Tat
  6
Continuous
 62
     3
370
     9
100
AcDbCircle
 10
-57.87211983283652
 20
261.0914578973329
 30
0.0
 40
0.5000000046026752
100
AcDbArc
 50
90.0
 51
168.0765533447266
  0
ARC
  5
2EE
330
1F
100
AcDbEntity
  8
_2-b_Tat
  6
Continuous
 62
     3
370
     9
100
AcDbCircle
 10
-54.44367400943207
 20
261.0914578973329
 30
0.0
 40
0.5000000046026752
100
AcDbArc
 50
11.93852233886719
 51
90.0
  0
ARC
  5
2EF
330
1F
100
AcDbEntity
  8
_2-b_Tat
  6
Continuous
 62
     3
370
     9
100
AcDbCircle
 10
-52.5703065231192
 20
257.0635939345629
 30
0.0
 40
0.5000000046026752
100
AcDbArc
 50
191.9385223388672
 51
270.0
  0
ARC
  5
2F0
330
1F
100
AcDbEntity
  8
_2-b_Tat
  6
Continuous
 62
     3
370
     9
100
AcDbCircle
 10
-43.1274641795199
 20
257.0635939345629
 30
0.0
 40
0.5000000046026752
100
AcDbArc
 50
270.0
 51
347.9841461181641
  0
ARC
  5
2F1
330
1F
100
AcDbEntity
  8
_2-b_Tat
  6
Continuous
 62
     3
370
     9
100
AcDbCircle
 10
-41.24755650520916
 20
261.0914578973329
 30
0.0
 40
0.5000000046026752
100
AcDbArc
 50
90.0
 51
167.9841461181641
  0
ARC
  5
2F2
330
1F
100
AcDbEntity
  8
_2-b_Tat
  6
Continuous
 62
     3
370
     9
100
AcDbCircle
 10
-38.89110695088362
 20
269.8463913760823
 30
0.0
 40
2.999999834073556
100
AcDbArc
 50
0.0
 51
90.0
  0
ARC
  5
2F3
330
1F
100
AcDbEntity
  8
_2-b_Tat
  6
Continuous
 62
     3
370
     9
100
AcDbCircle
 10
-128.7426870073281
 20
204.346507672799
 30
0.0
 40
4.000000036821402
100
AcDbArc
 50
90.0
 51
262.2408294677735
  0
ARC
  5
2F4
330
1F
100
AcDbEntity
  8
_2-b_Tat
  6
Continuous
 62
     3
370
     9
100
AcDbCircle
 10
-126.8915165227043
 20
184.3465136820518
 30
0.0
 40
15.56700068367034
100
AcDbArc
 50
64.07133483886719
 51
82.24078369140626
  0
ARC
  5
2F5
330
1F
100
AcDbEntity
  8
_2-b_Tat
  6
Continuous
 62
     3
370
     9
100
AcDbCircle
 10
-133.8204493312452
 20
219.3464288455412
 30
0.0
 40
2.000000018410701
100
AcDbArc
 50
180.0
 51
270.0
  0
ARC
  5
2F6
330
1F
100
AcDbEntity
  8
_2-b_Tat
  6
Continuous
 62
     3
370
     9
100
AcDbCircle
 10
-133.8204493312452
 20
225.3467540521652
 30
0.0
 40
2.000000018410701
100
AcDbArc
 50
90.0
 51
180.0
  0
ARC
  5
2F7
330
1F
100
AcDbEntity
  8
_2-b_Tat
  6
Continuous
 62
     3
370
     9
100
AcDbCircle
 10
-133.8204493312452
 20
238.3464677289418
 30
0.0
 40
2.000000018410701
100
AcDbArc
 50
180.0
 51
270.0
  0
ARC
  5
2F8
330
1F
100
AcDbEntity
  8
_2-b_Tat
  6
Continuous
 62
     3
370
     9
100
AcDbCircle
 10
-133.8204493312452
 20
244.3465947480508
 30
0.0
 40
2.000000018410701
100
AcDbArc
 50
90.0
 51
180.0
  0
ARC
  5
2F9
330
1F
100
AcDbEntity
  8
_2-b_Tat
  6
Continuous
 62
     3
370
     9
100
AcDbCircle
 10
-97.40210612231368
 20
187.3466762853638
 30
0.0
 40
2.000000018410701
100
AcDbArc
 50
0.0
 51
90.0
  0
ARC
  5
2FA
330
1F
100
AcDbEntity
  8
_2-b_Tat
  6
Continuous
 62
     3
370
     9
100
AcDbCircle
 10
-97.40210612231368
 20
244.3465947480508
 30
0.0
 40
2.000000018410701
100
AcDbArc
 50
0.0
 51
90.0
  0
ARC
  5
2FB
330
1F
100
AcDbEntity
  8
_2-b_Tat
  6
Continuous
 62
     3
370
     9
100
AcDbCircle
 10
-97.40210612231368
 20
238.3464677289418
 30
0.0
 40
2.000000018410701
100
AcDbArc
 50
270.0
 51
0.0
  0
ARC
  5
2FC
330
1F
100
AcDbEntity
  8
_2-b_Tat
  6
Continuous
 62
     3
370
     9
100
AcDbCircle
 10
-97.40210612231368
 20
225.3467540521652
 30
0.0
 40
2.000000018410701
100
AcDbArc
 50
0.0
 51
90.0
  0
ARC
  5
2FD
330
1F
100
AcDbEntity
  8
_2-b_Tat
  6
Continuous
 62
     3
370
     9
100
AcDbCircle
 10
-97.40210612231368
 20
219.3464288455412
 30
0.0
 40
2.000000018410701
100
AcDbArc
 50
270.0
 51
0.0
  0
ARC
  5
2FE
330
1F
100
AcDbEntity
  8
_2-b_Tat
  6
Continuous
 62
     3
370
     9
100
AcDbCircle
 10
-97.40210612231368
 20
206.3465169812494
 30
0.0
 40
2.000000018410701
100
AcDbArc
 50
0.0
 51
90.0
  0
ARC
  5
2FF
330
1F
100
AcDbEntity
  8
_2-b_Tat
  6
Continuous
 62
     3
370
     9
100
AcDbCircle
 10
-97.40210612231368
 20
200.3465881496556
 30
0.0
 40
2.000000018410701
100
AcDbArc
 50
270.0
 51
0.0
  0
ARC
  5
300
330
1F
100
AcDbEntity
  8
_2-b_Tat
  6
Continuous
 62
     3
370
     9
100
AcDbCircle
 10
-48.85141689636208
 20
187.3466762853638
 30
0.0
 40
2.000000018410701
100
AcDbArc
 50
0.0
 51
90.0
  0
ARC
  5
301
330
1F
100
AcDbEntity
  8
_2-b_Tat
  6
Continuous
 62
     3
370
     9
100
AcDbCircle
 10
-48.85141689636208
 20
238.3464677289418
 30
0.0
 40
2.000000018410701
100
AcDbArc
 50
270.0
 51
0.0
  0
ARC
  5
302
330
1F
100
AcDbEntity
  8
_2-b_Tat
  6
Continuous
 62
     3
370
     9
100
AcDbCircle
 10
-48.85141689636208
 20
244.3465947480508
 30
0.0
 40
2.000000018410701
100
AcDbArc
 50
0.0
 51
90.0
  0
ARC
  5
303
330
1F
100
AcDbEntity
  8
_2-b_Tat
  6
Continuous
 62
     3
370
     9
100
AcDbCircle
 10
-48.85141689636208
 20
219.3464288455412
 30
0.0
 40
2.000000018410701
100
AcDbArc
 50
270.0
 51
0.0
  0
ARC
  5
304
330
1F
100
AcDbEntity
  8
_2-b_Tat
  6
Continuous
 62
     3
370
     9
100
AcDbCircle
 10
-48.85141689636208
 20
225.3467540521652
 30
0.0
 40
2.000000018410701
100
AcDbArc
 50
0.0
 51
90.0
  0
ARC
  5
305
330
1F
100
AcDbEntity
  8
_2-b_Tat
  6
Continuous
 62
     3
370
     9
100
AcDbCircle
 10
-48.85141689636208
 20
206.3465169812494
 30
0.0
 40
2.000000018410701
100
AcDbArc
 50
0.0
 51
90.0
  0
ARC
  5
306
330
1F
100
AcDbEntity
  8
_2-b_Tat
  6
Continuous
 62
     3
370
     9
100
AcDbCircle
 10
-48.85141689636208
 20
200.3465881496556
 30
0.0
 40
2.000000018410701
100
AcDbArc
 50
270.0
 51
0.0
  0
ARC
  5
307
330
1F
100
AcDbEntity
  8
2-Aﾚｲﾔ
  6
Continuous
 62
     2
370
     9
100
AcDbCircle
 10
-148.2909125574458
 20
184.3465136820518
 30
0.0
 40
10.00000009205351
100
AcDbArc
 50
2.745071411132812
 51
36.87086486816406
  0
ARC
  5
308
330
1F
100
AcDbEntity
  8
2-Aﾚｲﾔ
  6
Continuous
 62
     2
370
     9
100
AcDbCircle
 10
-201.4802796676503
 20
339.6530879696136
 30
0.0
 40
2.367928946800674
100
AcDbArc
 50
322.4427795410156
 51
37.55722045898439
  0
ARC
  5
309
330
1F
100
AcDbEntity
  8
2-Aﾚｲﾔ
  6
Continuous
 62
     2
370
     9
100
AcDbCircle
 10
-207.7103042042544
 20
335.3464732668807
 30
0.0
 40
8.597918645755664
100
AcDbArc
 50
340.5480041503906
 51
19.45199584960935
  0
ARC
  5
30A
330
1F
100
AcDbEntity
  8
2-Aﾚｲﾔ
  6
Continuous
 62
     2
370
     9
100
AcDbCircle
 10
-201.4802796676503
 20
331.0399576579055
 30
0.0
 40
2.367928946800674
100
AcDbArc
 50
322.4427795410156
 51
37.55722045898439
  0
CIRCLE
  5
30B
330
1F
100
AcDbEntity
  8
_2-6_B_b
  6
Continuous
 62
     2
370
     9
100
AcDbCircle
 10
167.1872440441543
 20
450.3463643933588
 30
0.0
 40
2.099999941914238
  0
CIRCLE
  5
30C
330
1F
100
AcDbEntity
  8
_2-6_B_b
  6
Continuous
 62
     2
370
     9
100
AcDbCircle
 10
2.187318393929615
 20
450.3463643933588
 30
0.0
 40
2.099999941914238
  0
CIRCLE
  5
30D
330
1F
100
AcDbEntity
  8
_2-6_B_b
  6
Continuous
 62
     2
370
     9
100
AcDbCircle
 10
-162.8125081625375
 20
450.3463643933588
 30
0.0
 40
2.099999941914238
  0
ARC
  5
30E
330
1F
100
AcDbEntity
  8
_2-9_Kut
  6
Continuous
 62
     6
370
     9
100
AcDbCircle
 10
-21.89127556344857
 20
326.8465080262843
 30
0.0
 40
10.00000009205351
100
AcDbArc
 50
0.0
 51
90.0
  0
ARC
  5
30F
330
1F
100
AcDbEntity
  8
_2-9_Kut
  6
Continuous
 62
     6
370
     9
100
AcDbCircle
 10
-21.89127556344857
 20
327.8464631336308
 30
0.0
 40
10.00000009205351
100
AcDbArc
 50
0.0
 51
90.0
  0
ARC
  5
310
330
1F
100
AcDbEntity
  8
_2-c_Shi
  6
Continuous
 62
     4
370
     9
100
AcDbCircle
 10
17.18733866042948
 20
358.8463596802192
 30
0.0
 40
10.00000009205351
100
AcDbArc
 50
0.0
 51
90.0
  0
ARC
  5
311
330
1F
100
AcDbEntity
  8
_2-c_Shi
  6
Continuous
 62
     4
370
     9
100
AcDbCircle
 10
17.18733866042948
 20
360.3464409818753
 30
0.0
 40
10.00000009205351
100
AcDbArc
 50
0.0
 51
90.0
  0
ARC
  5
312
330
1F
100
AcDbEntity
  8
_2-c_Shi
  6
Continuous
 62
     4
370
     9
100
AcDbCircle
 10
17.18723956667185
 20
358.8465578677345
 30
0.0
 40
9.000000082848155
100
AcDbArc
 50
0.0
 51
90.0
  0
ARC
  5
313
330
1F
100
AcDbEntity
  8
_2-9_Kut
  6
Continuous
 62
     6
370
     9
100
AcDbCircle
 10
-21.89137465720597
 20
327.8465622273885
 30
0.0
 40
5.000000046026753
100
AcDbArc
 50
0.0
 51
90.0
  0
ARC
  5
314
330
1F
100
AcDbEntity
  8
_2-9_Kut
  6
Continuous
 62
     6
370
     9
100
AcDbCircle
 10
-26.02913359708901
 20
326.34658001949
 30
0.0
 40
5.000000046026753
100
AcDbArc
 50
0.0
 51
90.0
  0
ARC
  5
315
330
1F
100
AcDbEntity
  8
_2-9_Kut
  6
Continuous
 62
     6
370
     9
100
AcDbCircle
 10
-41.73341319843286
 20
273.2733507931235
 30
0.0
 40
2.000000018410701
100
AcDbArc
 50
0.0
 51
90.0
  0
ARC
  5
316
330
1F
100
AcDbEntity
  8
_2-9_Kut
  6
Continuous
 62
     6
370
     9
100
AcDbCircle
 10
-33.39120521984165
 20
273.8464099929833
 30
0.0
 40
2.000000018410701
100
AcDbArc
 50
0.0
 51
90.0
  0
ARC
  5
317
330
1F
100
AcDbEntity
  8
_2-9_Kut
  6
Continuous
 62
     6
370
     9
100
AcDbCircle
 10
-28.96349794539384
 20
278.8466809985032
 30
0.0
 40
2.000000018410701
100
AcDbArc
 50
0.0
 51
90.0
  0
ARC
  5
318
330
1F
100
AcDbEntity
  8
_2-c_Shi
  6
Continuous
 62
     4
370
     9
100
AcDbCircle
 10
-179.8125377374877
 20
367.1006714958715
 30
0.0
 40
2.000000018410701
100
AcDbArc
 50
0.0
 51
82.23445129394531
  0
ARC
  5
319
330
1F
100
AcDbEntity
  8
_2-9_Kut
  6
Continuous
 62
     6
370
     9
100
AcDbCircle
 10
-168.891315625134
 20
335.0810010904284
 30
0.0
 40
2.000000018410701
100
AcDbArc
 50
0.0
 51
82.87463378906251
  0
ARC
  5
31A
330
1F
100
AcDbEntity
  8
_2-9_Kut
  6
Continuous
 62
     6
370
     9
100
AcDbCircle
 10
-147.8912674332828
 20
278.9396309430768
 30
0.0
 40
2.000000018410701
100
AcDbArc
 50
0.0
 51
87.273681640625
  0
LINE
  5
31B
330
1F
100
AcDbEntity
  8
_2-9_Kut
  6
Continuous
 62
     6
370
     9
100
AcDbLine
 10
-166.8913063166836
 20
335.0810010904284
 30
0.0
 11
-166.8913063166836
 21
184.3465136820518
 31
0.0
  0
LINE
  5
31C
330
1F
100
AcDbEntity
  8
_2-9_Kut
  6
Continuous
 62
     6
370
     9
100
AcDbLine
 10
-174.891244456728
 20
337.8465096758833
 30
0.0
 11
-174.891244456728
 21
184.3465136820518
 31
0.0
  0
LINE
  5
31D
330
1F
100
AcDbEntity
  8
_2-c_Shi
  6
Continuous
 62
     4
370
     9
100
AcDbLine
 10
-177.8125284290373
 20
367.1006714958715
 30
0.0
 11
-177.8125284290373
 21
184.3465136820518
 31
0.0
  0
LINE
  5
31E
330
1F
100
AcDbEntity
  8
_2-c_Shi
  6
Continuous
 62
     4
370
     9
100
AcDbLine
 10
-188.8127282661512
 20
370.3464875241278
 30
0.0
 11
-188.8127282661512
 21
184.3465136820518
 31
0.0
  0
LINE
  5
31F
330
1F
100
AcDbEntity
  8
_2-6_B_b
  6
Continuous
 62
     2
370
     9
100
AcDbLine
 10
-207.8125689620368
 20
465.346483753616
 30
0.0
 11
-207.8125689620368
 21
184.3465136820518
 31
0.0
  0
LINE
  5
320
330
1F
100
AcDbEntity
  8
_2-6_B_b
  6
Continuous
 62
     2
370
     9
100
AcDbLine
 10
-209.4125367712941
 20
465.346483753616
 30
0.0
 11
-209.4125367712941
 21
184.3465136820518
 31
0.0
  0
LINE
  5
321
330
1F
100
AcDbEntity
  8
_2-c_Shi
  6
Continuous
 62
     4
370
     9
100
AcDbLine
 10
-217.7717888761823
 20
246.3465049627437
 30
0.0
 11
-217.7717888761823
 21
184.3465136820518
 31
0.0
  0
LINE
  5
322
330
1F
100
AcDbEntity
  8
_2-9_Kut
  6
Continuous
 62
     6
370
     9
100
AcDbLine
 10
-11.89122902119612
 20
194.9148628417071
 30
0.0
 11
-11.89122902119612
 21
184.3465136820518
 31
0.0
  0
LINE
  5
323
330
1F
100
AcDbEntity
  8
_2-c_Shi
  6
Continuous
 62
     4
370
     9
100
AcDbLine
 10
26.18723190782015
 20
358.8465578677345
 30
0.0
 11
26.18723190782015
 21
184.3465136820518
 31
0.0
  0
LINE
  5
324
330
1F
100
AcDbEntity
  8
_2-c_Shi
  6
Continuous
 62
     4
370
     9
100
AcDbLine
 10
27.1872861089243
 20
360.3464409818753
 30
0.0
 11
27.1872861089243
 21
184.3465136820518
 31
0.0
  0
LINE
  5
325
330
1F
100
AcDbEntity
  8
_2-6_B_b
  6
Continuous
 62
     2
370
     9
100
AcDbLine
 10
182.1872643106541
 20
465.346483753616
 30
0.0
 11
182.1872643106541
 21
184.3465136820518
 31
0.0
  0
LINE
  5
326
330
1F
100
AcDbEntity
  8
_2-9_Kut
  6
Continuous
 62
     6
370
     9
100
AcDbLine
 10
-145.8912581248324
 20
278.9396309430768
 30
0.0
 11
-145.8912581248324
 21
184.3465136820518
 31
0.0
  0
LINE
  5
327
330
1F
100
AcDbEntity
  8
_2-b_Tat
  6
Continuous
 62
     3
370
     9
100
AcDbLine
 10
-143.891447003897
 20
184.3465136820518
 30
0.0
 11
-143.891447003897
 21
272.8465539793943
 31
0.0
  0
LINE
  5
328
330
1F
100
AcDbEntity
  8
_2-b_Tat
  6
Continuous
 62
     3
370
     9
100
AcDbLine
 10
-142.8913928027931
 20
272.8465539793943
 30
0.0
 11
-142.8913928027931
 21
184.3465136820518
 31
0.0
  0
ARC
  5
329
330
1F
100
AcDbEntity
  8
_2-b_Tat
  6
Continuous
 62
     3
370
     9
100
AcDbCircle
 10
-126.8915165227043
 20
184.3465136820518
 30
0.0
 40
10.00000009205351
100
AcDbArc
 50
0.0
 51
82.24078369140628
  0
LINE
  5
32A
330
1F
100
AcDbEntity
  8
_2-b_Tat
  6
Continuous
 62
     3
370
     9
100
AcDbLine
 10
-95.40189862634821
 20
187.3466762853638
 30
0.0
 11
-95.40189862634821
 21
184.3465136820518
 31
0.0
  0
LINE
  5
32B
330
1F
100
AcDbEntity
  8
_2-b_Tat
  6
Continuous
 62
     3
370
     9
100
AcDbLine
 10
-92.92713112551866
 20
187.3466762853638
 30
0.0
 11
-92.92713112551866
 21
184.3465136820518
 31
0.0
  0
LINE
  5
32C
330
1F
100
AcDbEntity
  8
_2-b_Tat
  6
Continuous
 62
     3
370
     9
100
AcDbLine
 10
-85.85599877490637
 20
184.3465136820518
 30
0.0
 11
-85.85599877490637
 21
187.3466762853638
 31
0.0
  0
LINE
  5
32D
330
1F
100
AcDbEntity
  8
_2-b_Tat
  6
Continuous
 62
     3
370
     9
100
AcDbLine
 10
-46.85140758791164
 20
187.3466762853638
 30
0.0
 11
-46.85140758791164
 21
184.3465136820518
 31
0.0
  0
LINE
  5
32E
330
1F
100
AcDbEntity
  8
_2-b_Tat
  6
Continuous
 62
     3
370
     9
100
AcDbLine
 10
-44.37664008708208
 20
187.3466762853638
 30
0.0
 11
-44.37664008708208
 21
184.3465136820518
 31
0.0
  0
LINE
  5
32F
330
1F
100
AcDbEntity
  8
_2-b_Tat
  6
Continuous
 62
     3
370
     9
100
AcDbLine
 10
-35.89153891011694
 20
269.8463913760823
 30
0.0
 11
-35.89153891011694
 21
184.3465136820518
 31
0.0
  0
LINE
  5
330
330
1F
100
AcDbEntity
  8
_2-b_Tat
  6
Continuous
 62
     3
370
     9
100
AcDbLine
 10
-111.2345046437077
 20
187.3466762853638
 30
0.0
 11
-111.2345046437077
 21
184.3465136820518
 31
0.0
  0
LINE
  5
331
330
1F
100
AcDbEntity
  8
2-Aﾚｲﾔ
  6
Continuous
 62
     2
370
     9
100
AcDbLine
 10
-140.2907762298864
 20
184.8255329060051
 30
0.0
 11
-140.2907762298864
 21
184.3465136820518
 31
0.0
  0
LINE
  5
332
330
1F
100
AcDbEntity
  8
_2-c_Shi
  6
Continuous
 62
     4
370
     9
100
AcDbLine
 10
-209.7718507361379
 20
248.3465142711942
 30
0.0
 11
-209.7718507361379
 21
184.3465136820518
 31
0.0
  0
LINE
  5
333
330
1F
100
AcDbEntity
  8
_2-c_Shi
  6
JWW_CENTER1
 62
     4
370
     9
100
AcDbLine
 10
-231.3033387496816
 20
184.3465136820518
 30
0.0
 11
199.3048190820479
 21
184.3465136820518
 31
0.0
  0
LINE
  5
334
330
1F
100
AcDbEntity
  8
_2-4_A_b
  6
Continuous
 62
     7
370
     9
100
AcDbLine
 10
-209.4128340525667
 20
-198.5156981308862
 30
0.0
 11
-215.5004483426539
 21
-190.5821647279739
 31
0.0
  0
LINE
  5
335
330
1F
100
AcDbEntity
  8
_2-4_A_b
  6
Continuous
 62
     7
370
     9
100
AcDbLine
 10
-209.4128340525667
 20
-198.5156981308862
 30
0.0
 11
-213.2396683762176
 21
-189.2769028057733
 31
0.0
  0
LINE
  5
336
330
1F
100
AcDbEntity
  8
_2-4_A_b
  6
Continuous
 62
     7
370
     9
100
AcDbLine
 10
-393.4440990505923
 20
-7.225179974557264
 30
0.0
 11
-266.2101194578244
 21
-7.225179974557264
 31
0.0
  0
TEXT
  5
337
330
1F
100
AcDbEntity
  8
_2-4_A_b
  6
Continuous
 62
     7
370
     9
100
AcDbText
 10
-392.1324970453497
 20
-1.538363819779612
 30
0.0
 40
9.144
  1
固定金具：ＳＧＨＣ
 41
1.148148148148148
  7
ＭＳ ゴシック
100
AcDbText
  0
LINE
  5
338
330
1F
100
AcDbEntity
  8
_2-4_A_b
  6
Continuous
 62
     7
370
     9
100
AcDbLine
 10
-209.4128340525668
 20
-105.6009640284538
 30
0.0
 11
-213.2396683762177
 21
-96.36216870334097
 31
0.0
  0
LINE
  5
339
330
1F
100
AcDbEntity
  8
_2-4_A_b
  6
Continuous
 62
     7
370
     9
100
AcDbLine
 10
-209.4128340525668
 20
-105.6009640284538
 30
0.0
 11
-266.2101194578244
 21
-7.225179974557264
 31
0.0
  0
LINE
  5
33A
330
1F
100
AcDbEntity
  8
_2-4_A_b
  6
Continuous
 62
     7
370
     9
100
AcDbLine
 10
-209.4128340525668
 20
-105.6009640284538
 30
0.0
 11
-215.500448342654
 21
-97.66743062554148
 31
0.0
  0
LINE
  5
33B
330
1F
100
AcDbEntity
  8
_2-3_Kyo
  6
Continuous
 62
     7
370
     9
100
AcDbLine
 10
-177.8127266165523
 20
6.479607641107179
 30
0.0
 11
-207.8126680557943
 21
6.479607641107179
 31
0.0
  0
LINE
  5
33C
330
1F
100
AcDbEntity
  8
_2-3_Kyo
  6
Continuous
 62
     7
370
     9
100
AcDbLine
 10
-174.891442644243
 20
-201.4888576852682
 30
0.0
 11
-174.891442644243
 21
7.679633044929062
 31
0.0
  0
LINE
  5
33D
330
1F
100
AcDbEntity
  8
_2-3_Kyo
  6
Continuous
 62
     7
370
     9
100
AcDbLine
 10
-145.8914563123475
 20
-228.2957009752658
 30
0.0
 11
-145.8914563123475
 21
7.679633044929062
 31
0.0
  0
LINE
  5
33E
330
1F
100
AcDbEntity
  8
_2-3_Kyo
  6
Continuous
 62
     7
370
     9
100
AcDbLine
 10
-174.891442644243
 20
6.479607641107179
 30
0.0
 11
-162.9940479263527
 21
8.04588357280062
 31
0.0
  0
LINE
  5
33F
330
1F
100
AcDbEntity
  8
_2-3_Kyo
  6
Continuous
 62
     7
370
     9
100
AcDbLine
 10
-174.891442644243
 20
6.479607641107179
 30
0.0
 11
-162.9940479263527
 21
4.913331709413853
 31
0.0
  0
LINE
  5
340
330
1F
100
AcDbEntity
  8
_2-3_Kyo
  6
Continuous
 62
     7
370
     9
100
AcDbLine
 10
-133.9940615944572
 20
4.913331709413853
 30
0.0
 11
-157.7888510302378
 21
8.04588357280062
 31
0.0
  0
LINE
  5
341
330
1F
100
AcDbEntity
  8
_2-3_Kyo
  6
Continuous
 62
     7
370
     9
100
AcDbLine
 10
-133.9940615944572
 20
8.04588357280062
 30
0.0
 11
-157.7888510302378
 21
4.913331709413853
 31
0.0
  0
LINE
  5
342
330
1F
100
AcDbEntity
  8
_2-3_Kyo
  6
Continuous
 62
     7
370
     9
100
AcDbLine
 10
-11.89122902119612
 20
6.479607641107179
 30
0.0
 11
-23.78862373908652
 21
8.04588357280062
 31
0.0
  0
LINE
  5
343
330
1F
100
AcDbEntity
  8
_2-3_Kyo
  6
Continuous
 62
     7
370
     9
100
AcDbLine
 10
-217.7717888761823
 20
33.42993869202422
 30
0.0
 11
-205.874394158292
 21
34.99621462371766
 31
0.0
  0
LINE
  5
344
330
1F
100
AcDbEntity
  8
_2-3_Kyo
  6
Continuous
 62
     7
370
     9
100
AcDbLine
 10
-165.915331898662
 20
31.86366276033078
 30
0.0
 11
-189.7101213344427
 21
34.99621462371766
 31
0.0
  0
LINE
  5
345
330
1F
100
AcDbEntity
  8
_2-3_Kyo
  6
Continuous
 62
     7
370
     9
100
AcDbLine
 10
-165.915331898662
 20
34.99621462371766
 30
0.0
 11
-189.7101213344427
 21
31.86366276033078
 31
0.0
  0
LINE
  5
346
330
1F
100
AcDbEntity
  8
_2-3_Kyo
  6
Continuous
 62
     7
370
     9
100
AcDbLine
 10
39.08468082681446
 20
31.86366276033078
 30
0.0
 11
15.2898913910339
 21
34.99621462371766
 31
0.0
  0
LINE
  5
347
330
1F
100
AcDbEntity
  8
_2-3_Kyo
  6
Continuous
 62
     7
370
     9
100
AcDbLine
 10
39.08468082681446
 20
34.99621462371766
 30
0.0
 11
15.2898913910339
 21
31.86366276033078
 31
0.0
  0
LINE
  5
348
330
1F
100
AcDbEntity
  8
_2-3_Kyo
  6
Continuous
 62
     7
370
     9
100
AcDbLine
 10
182.1872643106541
 20
33.42993869202422
 30
0.0
 11
170.290067780279
 21
34.99621462371766
 31
0.0
  0
LINE
  5
349
330
1F
100
AcDbEntity
  8
_2-3_Kyo
  6
Continuous
 62
     7
370
     9
100
AcDbLine
 10
182.1872643106541
 20
33.42993869202422
 30
0.0
 11
170.290067780279
 21
31.86366276033078
 31
0.0
  0
LINE
  5
34A
330
1F
100
AcDbEntity
  8
_2-3_Kyo
  6
Continuous
 62
     7
370
     9
100
AcDbLine
 10
-207.8126680557943
 20
-12.54361918155809
 30
0.0
 11
-207.8126680557943
 21
7.679633044929062
 31
0.0
  0
LINE
  5
34B
330
1F
100
AcDbEntity
  8
_2-3_Kyo
  6
Continuous
 62
     7
370
     9
100
AcDbLine
 10
-177.8127266165523
 20
-165.5154454476959
 30
0.0
 11
-177.8127266165523
 21
34.62996409584599
 31
0.0
  0
LINE
  5
34C
330
1F
100
AcDbEntity
  8
_2-3_Kyo
  6
Continuous
 62
     7
370
     9
100
AcDbLine
 10
54.54459522206224
 20
-375.1525505573047
 30
0.0
 11
54.54459522206224
 21
-207.2051801827797
 31
0.0
  0
LINE
  5
34D
330
1F
100
AcDbEntity
  8
_2-3_Kyo
  6
Continuous
 62
     7
370
     9
100
AcDbLine
 10
-10.21694089378303
 20
-375.1525505573047
 30
0.0
 11
55.7446206258839
 21
-375.1525505573047
 31
0.0
  0
LINE
  5
34E
330
1F
100
AcDbEntity
  8
_2-3_Kyo
  6
Continuous
 62
     7
370
     9
100
AcDbLine
 10
-11.71682400792389
 20
-367.1525133235027
 30
0.0
 11
55.7446206258839
 21
-367.1525133235027
 31
0.0
  0
LINE
  5
34F
330
1F
100
AcDbEntity
  8
_2-3_Kyo
  6
Continuous
 62
     7
370
     9
100
AcDbLine
 10
-160.3914494782952
 20
-207.2051801827797
 30
0.0
 11
55.7446206258839
 21
-207.2051801827797
 31
0.0
  0
LINE
  5
350
330
1F
100
AcDbEntity
  8
_2-3_Kyo
  6
Continuous
 62
     7
370
     9
100
AcDbLine
 10
54.54459522206224
 20
-367.1525133235027
 30
0.0
 11
52.97831929036869
 21
-355.2552176993699
 31
0.0
  0
LINE
  5
351
330
1F
100
AcDbEntity
  8
_2-3_Kyo
  6
Continuous
 62
     7
370
     9
100
AcDbLine
 10
54.54459522206224
 20
-367.1525133235027
 30
0.0
 11
56.11087115375557
 21
-355.2552176993699
 31
0.0
  0
LINE
  5
352
330
1F
100
AcDbEntity
  8
_2-3_Kyo
  6
Continuous
 62
     7
370
     9
100
AcDbLine
 10
54.54459522206224
 20
-207.2051801827797
 30
0.0
 11
52.97831929036869
 21
-219.1024758069124
 31
0.0
  0
LINE
  5
353
330
1F
100
AcDbEntity
  8
_2-3_Kyo
  6
Continuous
 62
     7
370
     9
100
AcDbLine
 10
54.54459522206224
 20
-207.2051801827797
 30
0.0
 11
56.11087115375557
 21
-219.1024758069124
 31
0.0
  0
LINE
  5
354
330
1F
100
AcDbEntity
  8
_2-3_Kyo
  6
Continuous
 62
     7
370
     9
100
AcDbLine
 10
-171.8127977849585
 20
-171.5153742792897
 30
0.0
 11
96.30785752524156
 21
-171.5153742792897
 31
0.0
  0
LINE
  5
355
330
1F
100
AcDbEntity
  8
_2-3_Kyo
  6
Continuous
 62
     7
370
     9
100
AcDbLine
 10
95.1080303089347
 20
-376.5155604188421
 30
0.0
 11
93.54155618972635
 21
-364.6182647947092
 31
0.0
  0
LINE
  5
356
330
1F
100
AcDbEntity
  8
_2-3_Kyo
  6
Continuous
 62
     7
370
     9
100
AcDbLine
 10
95.1080303089347
 20
-376.5155604188421
 30
0.0
 11
96.67430624062825
 21
-364.6182647947092
 31
0.0
  0
LINE
  5
357
330
1F
100
AcDbEntity
  8
_2-3_Kyo
  6
Continuous
 62
     7
370
     9
100
AcDbLine
 10
96.67430624062825
 20
-159.6181777489144
 30
0.0
 11
93.54155618972635
 21
-183.4125708096649
 31
0.0
  0
LINE
  5
358
330
1F
100
AcDbEntity
  8
_2-3_Kyo
  6
Continuous
 62
     7
370
     9
100
AcDbLine
 10
93.54155618972635
 20
-159.6181777489144
 30
0.0
 11
96.67430624062825
 21
-183.4125708096649
 31
0.0
  0
LINE
  5
359
330
1F
100
AcDbEntity
  8
_2-3_Kyo
  6
Continuous
 62
     7
370
     9
100
AcDbLine
 10
95.1080303089347
 20
-16.51549517131735
 30
0.0
 11
93.54155618972635
 21
-28.41288988920763
 31
0.0
  0
LINE
  5
35A
330
1F
100
AcDbEntity
  8
_2-3_Kyo
  6
Continuous
 62
     7
370
     9
100
AcDbLine
 10
95.1080303089347
 20
-16.51549517131735
 30
0.0
 11
96.67430624062825
 21
-28.41288988920763
 31
0.0
  0
LINE
  5
35B
330
1F
100
AcDbEntity
  8
_2-3_Kyo
  6
Continuous
 62
     7
370
     9
100
AcDbLine
 10
-201.9623707980874
 20
-16.51549517131735
 30
0.0
 11
96.30785752524156
 21
-16.51549517131735
 31
0.0
  0
LINE
  5
35C
330
1F
100
AcDbEntity
  8
_2-3_Kyo
  6
Continuous
 62
     7
370
     9
100
AcDbLine
 10
-217.7717888761823
 20
-271.6074518806599
 30
0.0
 11
-217.7717888761823
 21
34.62996409584599
 31
0.0
  0
LINE
  5
35D
330
1F
100
AcDbEntity
  8
_2-3_Kyo
  6
Continuous
 62
     7
370
     9
100
AcDbLine
 10
-217.7717888761823
 20
33.42993869202422
 30
0.0
 11
-205.874394158292
 21
31.86366276033078
 31
0.0
  0
LINE
  5
35E
330
1F
100
AcDbEntity
  8
_2-3_Kyo
  6
Continuous
 62
     7
370
     9
100
AcDbLine
 10
-217.7717888761823
 20
33.42993869202422
 30
0.0
 11
182.1872643106541
 21
33.42993869202422
 31
0.0
  0
LINE
  5
35F
330
1F
100
AcDbEntity
  8
_2-3_Kyo
  6
Continuous
 62
     7
370
     9
100
AcDbLine
 10
-11.89122902119612
 20
-360.8967987302561
 30
0.0
 11
-11.89122902119612
 21
7.679633044929062
 31
0.0
  0
LINE
  5
360
330
1F
100
AcDbEntity
  8
_2-3_Kyo
  6
Continuous
 62
     7
370
     9
100
AcDbLine
 10
95.1080303089347
 20
-406.5153284440083
 30
0.0
 11
95.1080303089347
 21
-16.51549517131735
 31
0.0
  0
LINE
  5
361
330
1F
100
AcDbEntity
  8
_2-3_Kyo
  6
Continuous
 62
     7
370
     9
100
AcDbLine
 10
28.13620793113699
 20
-376.5155604188421
 30
0.0
 11
96.30785752524156
 21
-376.5155604188421
 31
0.0
  0
LINE
  5
362
330
1F
100
AcDbEntity
  8
_2-3_Kyo
  6
Continuous
 62
     7
370
     9
100
AcDbLine
 10
-11.89122902119612
 20
6.479607641107179
 30
0.0
 11
-23.78862373908652
 21
4.913331709413853
 31
0.0
  0
LINE
  5
363
330
1F
100
AcDbEntity
  8
_2-3_Kyo
  6
Continuous
 62
     7
370
     9
100
AcDbLine
 10
-174.891442644243
 20
6.479607641107179
 30
0.0
 11
-11.89122902119612
 21
6.479607641107179
 31
0.0
  0
LINE
  5
364
330
1F
100
AcDbEntity
  8
_2-3_Kyo
  6
Continuous
 62
     7
370
     9
100
AcDbLine
 10
27.1872861089243
 20
-371.8780716596797
 30
0.0
 11
27.1872861089243
 21
34.62996409584599
 31
0.0
  0
LINE
  5
365
330
1F
100
AcDbEntity
  8
_2-3_Kyo
  6
Continuous
 62
     7
370
     9
100
AcDbLine
 10
-229.8052393231764
 20
-335.7182392907332
 30
0.0
 11
-227.2078928442687
 21
-324.0027063913701
 31
0.0
  0
LINE
  5
366
330
1F
100
AcDbEntity
  8
_2-3_Kyo
  6
Continuous
 62
     7
370
     9
100
AcDbLine
 10
-229.8052393231764
 20
-335.7182392907332
 30
0.0
 11
-230.3285534567505
 21
-323.7296535424658
 31
0.0
  0
LINE
  5
367
330
1F
100
AcDbEntity
  8
_2-3_Kyo
  6
Continuous
 62
     7
370
     9
100
AcDbLine
 10
-229.7944381036045
 20
-336.7768083556652
 30
0.0
 11
-230.0736843123551
 21
-348.7735445654905
 31
0.0
  0
LINE
  5
368
330
1F
100
AcDbEntity
  8
_2-3_Kyo
  6
Continuous
 62
     7
370
     9
100
AcDbLine
 10
-229.7944381036045
 20
-336.7768083556652
 30
0.0
 11
-226.9591675128407
 21
-348.4370221648812
 31
0.0
  0
LINE
  5
369
330
1F
100
AcDbEntity
  8
_2-3_Kyo
  6
Continuous
 62
     7
370
     9
100
AcDbLine
 10
-253.802774586886
 20
-392.2668352346997
 30
0.0
 11
-256.0419962260405
 21
-282.3100236169993
 31
0.0
  0
LINE
  5
36A
330
1F
100
AcDbEntity
  8
_2-3_Kyo
  6
Continuous
 62
     7
370
     9
100
AcDbLine
 10
-253.802774586886
 20
-392.2668352346997
 30
0.0
 11
-255.6110374744946
 21
-380.4038508241155
 31
0.0
  0
LINE
  5
36B
330
1F
100
AcDbEntity
  8
_2-3_Kyo
  6
Continuous
 62
     7
370
     9
100
AcDbLine
 10
-253.802774586886
 20
-392.2668352346997
 30
0.0
 11
-252.4789810798955
 21
-380.3400839911378
 31
0.0
  0
LINE
  5
36C
330
1F
100
AcDbEntity
  8
_2-3_Kyo
  6
Continuous
 62
     7
370
     9
100
AcDbLine
 10
-256.0419962260405
 20
-282.3100236169993
 30
0.0
 11
-257.365789733031
 21
-294.2367996340005
 31
0.0
  0
LINE
  5
36D
330
1F
100
AcDbEntity
  8
_2-3_Kyo
  6
Continuous
 62
     7
370
     9
100
AcDbLine
 10
-256.0419962260405
 20
-282.3100236169993
 30
0.0
 11
-254.2337333384319
 21
-294.1729832541442
 31
0.0
  0
LINE
  5
36E
330
1F
100
AcDbEntity
  8
_2-3_Kyo
  6
Continuous
 62
     7
370
     9
100
AcDbLine
 10
-216.8778640894047
 20
-281.5124675094305
 30
0.0
 11
-257.2417243485897
 21
-282.3344502282332
 31
0.0
  0
LINE
  5
36F
330
1F
100
AcDbEntity
  8
_2-3_Kyo
  6
Continuous
 62
     7
370
     9
100
AcDbLine
 10
-214.6163463548034
 20
-391.4688084317824
 30
0.0
 11
-255.0025027094352
 21
-392.2912618459335
 31
0.0
  0
ARC
  5
370
330
1F
100
AcDbEntity
  8
_2-3_Kyo
  6
Continuous
 62
     7
370
     9
100
AcDbCircle
 10
-177.8134202728551
 20
-335.7182392907332
 30
0.0
 40
51.99177569680232
100
AcDbArc
 50
162.373291015625
 51
201.3423156738281
  0
TEXT
  5
371
330
1F
100
AcDbEntity
  8
_2-3_Kyo
  6
Continuous
 62
     2
370
     9
100
AcDbText
 10
-168.891499025174
 20
10.73551785580011
 30
0.0
 40
12.192
  1
29
 41
1.0625
  7
ＭＳ ゴシック
100
AcDbText
  0
TEXT
  5
372
330
1F
100
AcDbEntity
  8
_2-3_Kyo
  6
Continuous
 62
     2
370
     9
100
AcDbText
 10
91.68732475666803
 20
37.68584890671715
 30
0.0
 40
12.192
  1
155
 41
1.083333333333333
  7
ＭＳ ゴシック
100
AcDbText
  0
TEXT
  5
373
330
1F
100
AcDbEntity
  8
_2-3_Kyo
  6
Continuous
 62
     2
370
     9
100
AcDbText
 10
50.28848681985417
 20
-375.1525319404037
 30
0.0
 40
12.192
  1
8
 50
90.0
  7
ＭＳ ゴシック
100
AcDbText
  0
TEXT
  5
374
330
1F
100
AcDbEntity
  8
_2-3_Kyo
  6
Continuous
 62
     2
370
     9
100
AcDbText
 10
90.85192190672686
 20
-107.0154347253036
 30
0.0
 40
12.192
  1
155
 50
90.0
 41
1.083333333333333
  7
ＭＳ ゴシック
100
AcDbText
  0
TEXT
  5
375
330
1F
100
AcDbEntity
  8
_2-3_Kyo
  6
Continuous
 62
     2
370
     9
100
AcDbText
 10
-206.2922577463674
 20
37.68594800047467
 30
0.0
 40
12.192
  1
40
 41
1.0625
  7
ＭＳ ゴシック
100
AcDbText
  0
TEXT
  5
376
330
1F
100
AcDbEntity
  8
_2-3_Kyo
  6
Continuous
 62
     2
370
     9
100
AcDbText
 10
-91.89129311989308
 20
10.73561694955774
 30
0.0
 40
12.192
  1
134
 41
1.083333333333333
  7
ＭＳ ゴシック
100
AcDbText
  0
TEXT
  5
377
330
1F
100
AcDbEntity
  8
_2-3_Kyo
  6
Continuous
 62
     2
370
     9
100
AcDbText
 10
-88.31272025381412
 20
37.68594800047467
 30
0.0
 40
12.192
  1
205
 41
1.083333333333333
  7
ＭＳ ゴシック
100
AcDbText
  0
TEXT
  5
378
330
1F
100
AcDbEntity
  8
_2-3_Kyo
  6
Continuous
 62
     2
370
     9
100
AcDbText
 10
50.2885859136118
 20
-300.1788467531413
 30
0.0
 40
12.192
  1
160
 50
90.0
 41
1.083333333333333
  7
ＭＳ ゴシック
100
AcDbText
  0
TEXT
  5
379
330
1F
100
AcDbEntity
  8
_2-3_Kyo
  6
Continuous
 62
     2
370
     9
100
AcDbText
 10
-233.8343061656352
 20
-358.2897377055777
 30
0.0
 40
12.192
  1
1ﾟ10'
 50
90.58325989703995
 41
1.1
  7
ＭＳ ゴシック
100
AcDbText
  0
TEXT
  5
37A
330
1F
100
AcDbEntity
  8
_2-3_Kyo
  6
Continuous
 62
     2
370
     9
100
AcDbText
 10
90.85202100048426
 20
-400.0154444314251
 30
0.0
 40
12.192
  1
30
 50
90.0
 41
1.0625
  7
ＭＳ ゴシック
100
AcDbText
  0
TEXT
  5
37B
330
1F
100
AcDbEntity
  8
_2-3_Kyo
  6
Continuous
 62
     2
370
     9
100
AcDbText
 10
-201.3126973361734
 20
10.73561694955774
 30
0.0
 40
12.192
  1
30
 41
1.0625
  7
ＭＳ ゴシック
100
AcDbText
  0
LWPOLYLINE
  5
37C
330
1F
100
AcDbEntity
  8
_2-3_Kyo
  6
Continuous
 62
     7
370
     9
100
AcDbPolyline
 90
        4
 70
     1
 43
0.8
 10
54.94459522206224
 20
-375.1525505573047
 42
0.4142135623731
 10
54.54459522206224
 20
-374.7525505573047
 42
0.4142135623731
 10
54.14459522206224
 20
-375.1525505573047
 42
0.4142135623731
 10
54.54459522206224
 20
-375.5525505573046
 42
0.4142135623731
  0
LINE
  5
37D
330
1F
100
AcDbEntity
  8
_2-3_Kyo
  6
Continuous
 62
     7
370
     9
100
AcDbLine
 10
-30.89116881083925
 20
272.8465539793943
 30
0.0
 11
64.20356105085824
 21
272.8465539793943
 31
0.0
  0
LINE
  5
37E
330
1F
100
AcDbEntity
  8
_2-3_Kyo
  6
Continuous
 62
     7
370
     9
100
AcDbLine
 10
63.00353564703659
 20
272.8465539793943
 30
0.0
 11
61.43725971534303
 21
260.9492583552615
 31
0.0
  0
LINE
  5
37F
330
1F
100
AcDbEntity
  8
_2-3_Kyo
  6
Continuous
 62
     7
370
     9
100
AcDbLine
 10
63.00353564703659
 20
272.8465539793943
 30
0.0
 11
64.56981157872991
 21
260.9492583552615
 31
0.0
  0
LINE
  5
380
330
1F
100
AcDbEntity
  8
_2-3_Kyo
  6
Continuous
 62
     7
370
     9
100
AcDbLine
 10
-13.89123832964657
 20
337.8465096758833
 30
0.0
 11
91.36278174267176
 21
337.8465096758833
 31
0.0
  0
LINE
  5
381
330
1F
100
AcDbEntity
  8
_2-3_Kyo
  6
Continuous
 62
     7
370
     9
100
AcDbLine
 10
90.1628554326075
 20
337.8465096758833
 30
0.0
 11
88.59648040715655
 21
325.9492140517505
 31
0.0
  0
LINE
  5
382
330
1F
100
AcDbEntity
  8
_2-3_Kyo
  6
Continuous
 62
     7
370
     9
100
AcDbLine
 10
90.1628554326075
 20
337.8465096758833
 30
0.0
 11
91.72923045805845
 21
325.9492140517505
 31
0.0
  0
LINE
  5
383
330
1F
100
AcDbEntity
  8
_2-3_Kyo
  6
Continuous
 62
     7
370
     9
100
AcDbLine
 10
25.18737589423125
 20
370.3464875241278
 30
0.0
 11
119.0814857895618
 21
370.3464875241278
 31
0.0
  0
LINE
  5
384
330
1F
100
AcDbEntity
  8
_2-3_Kyo
  6
Continuous
 62
     7
370
     9
100
AcDbLine
 10
117.8814603857401
 20
370.3464875241278
 30
0.0
 11
116.3151844540468
 21
358.4491918999948
 31
0.0
  0
LINE
  5
385
330
1F
100
AcDbEntity
  8
_2-3_Kyo
  6
Continuous
 62
     7
370
     9
100
AcDbLine
 10
117.8814603857401
 20
370.3464875241278
 30
0.0
 11
119.4477363174335
 21
358.4491918999948
 31
0.0
  0
LINE
  5
386
330
1F
100
AcDbEntity
  8
_2-3_Kyo
  6
Continuous
 62
     7
370
     9
100
AcDbLine
 10
190.1872024506985
 20
465.346483753616
 30
0.0
 11
224.9621747845696
 21
465.346483753616
 31
0.0
  0
LINE
  5
387
330
1F
100
AcDbEntity
  8
_2-3_Kyo
  6
Continuous
 62
     7
370
     9
100
AcDbLine
 10
223.762149380748
 20
465.346483753616
 30
0.0
 11
222.1958734490544
 21
453.4491881294833
 31
0.0
  0
LINE
  5
388
330
1F
100
AcDbEntity
  8
_2-3_Kyo
  6
Continuous
 62
     7
370
     9
100
AcDbLine
 10
223.762149380748
 20
465.346483753616
 30
0.0
 11
225.3284253124413
 21
453.4491881294833
 31
0.0
  0
LINE
  5
389
330
1F
100
AcDbEntity
  8
_2-3_Kyo
  6
Continuous
 62
     7
370
     9
100
AcDbLine
 10
63.00353564703659
 20
184.3465136820518
 30
0.0
 11
63.00353564703659
 21
272.8465539793943
 31
0.0
  0
LINE
  5
38A
330
1F
100
AcDbEntity
  8
_2-3_Kyo
  6
Continuous
 62
     7
370
     9
100
AcDbLine
 10
90.1628554326075
 20
184.3465136820518
 30
0.0
 11
90.1628554326075
 21
337.8465096758833
 31
0.0
  0
LINE
  5
38B
330
1F
100
AcDbEntity
  8
_2-3_Kyo
  6
Continuous
 62
     7
370
     9
100
AcDbLine
 10
117.8814603857401
 20
184.3465136820518
 30
0.0
 11
117.8814603857401
 21
370.3464875241278
 31
0.0
  0
LINE
  5
38C
330
1F
100
AcDbEntity
  8
_2-3_Kyo
  6
Continuous
 62
     7
370
     9
100
AcDbLine
 10
223.762149380748
 20
184.3465136820518
 30
0.0
 11
223.762149380748
 21
465.346483753616
 31
0.0
  0
TEXT
  5
38D
330
1F
100
AcDbEntity
  8
_2-3_Kyo
  6
Continuous
 62
     2
370
     9
100
AcDbText
 10
58.74752633858614
 20
186.9705828366654
 30
0.0
 40
12.192
  1
177
 50
90.0
 41
1.083333333333333
  7
ＭＳ ゴシック
100
AcDbText
  0
TEXT
  5
38E
330
1F
100
AcDbEntity
  8
_2-3_Kyo
  6
Continuous
 62
     2
370
     9
100
AcDbText
 10
85.90684612415706
 20
187.7098531694562
 30
0.0
 40
12.192
  1
307
 50
90.0
 41
1.083333333333333
  7
ＭＳ ゴシック
100
AcDbText
  0
TEXT
  5
38F
330
1F
100
AcDbEntity
  8
_2-3_Kyo
  6
Continuous
 62
     2
370
     9
100
AcDbText
 10
113.6254510772897
 20
185.8616773374793
 30
0.0
 40
12.192
  1
372
 50
90.0
 41
1.083333333333333
  7
ＭＳ ゴシック
100
AcDbText
  0
TEXT
  5
390
330
1F
100
AcDbEntity
  8
_2-3_Kyo
  6
Continuous
 62
     2
370
     9
100
AcDbText
 10
219.5061400722975
 20
185.4920421710839
 30
0.0
 40
12.192
  1
562
 50
90.0
 41
1.083333333333333
  7
ＭＳ ゴシック
100
AcDbText
  0
TEXT
  5
391
330
1F
100
AcDbEntity
  8
_2-3_Kyo
  6
Continuous
 62
     2
370
     9
100
AcDbText
 10
-258.9128264098348
 20
-350.3723857194887
 30
0.0
 40
12.192
  1
Rc4
 50
91.16672938999999
 41
1.083333333333333
  7
ＭＳ ゴシック
100
AcDbText
  0
TEXT
  5
392
330
1F
100
AcDbEntity
  8
_2-3_Kyo
  6
Continuous
 62
     2
370
     9
100
AcDbText
 10
90.85202100048426
 20
-313.080736875917
 30
0.0
 40
12.192
  1
205
 50
90.0
 41
1.083333333333333
  7
ＭＳ ゴシック
100
AcDbText
  0
LINE
  5
393
330
1F
100
AcDbEntity
  8
_2-3_Kyo
  6
Continuous
 62
     7
370
     9
100
AcDbLine
 10
182.1872643106541
 20
-27.95891968851191
 30
0.0
 11
182.1872643106541
 21
34.62996409584599
 31
0.0
  0
LINE
  5
394
330
1F
100
AcDbEntity
  8
_2-3_Kyo
  6
Continuous
 62
     7
370
     9
100
AcDbLine
 10
182.1872643106541
 20
-104.4645582477493
 30
0.0
 11
182.1872643106541
 21
-64.27488735903603
 31
0.0
  0
LINE
  5
395
330
1F
100
AcDbEntity
  8
_2-3_Kyo
  6
Continuous
 62
     7
370
     9
100
AcDbLine
 10
182.1872643106541
 20
-402.8219059129393
 30
0.0
 11
182.1872643106541
 21
-236.654680568457
 31
0.0
  0
LINE
  5
396
330
1F
100
AcDbEntity
  8
_2-3_Kyo
  6
Continuous
 62
     7
370
     9
100
AcDbLine
 10
182.1872643106541
 20
-183.391261318355
 30
0.0
 11
182.1872643106541
 21
-141.2647388205471
 31
0.0
  0
LINE
  5
397
330
1F
100
AcDbEntity
  8
_2-3_Kyo
  6
Continuous
 62
     7
370
     9
100
AcDbLine
 10
-207.8126680557943
 20
6.479607641107179
 30
0.0
 11
-197.8982194420562
 21
7.784869563307695
 31
0.0
  0
LINE
  5
398
330
1F
100
AcDbEntity
  8
_2-3_Kyo
  6
Continuous
 62
     7
370
     9
100
AcDbLine
 10
-207.8126680557943
 20
6.479607641107179
 30
0.0
 11
-197.8982194420562
 21
5.174345718906664
 31
0.0
  0
LINE
  5
399
330
1F
100
AcDbEntity
  8
_2-3_Kyo
  6
Continuous
 62
     7
370
     9
100
AcDbLine
 10
-177.8127266165523
 20
6.479607641107179
 30
0.0
 11
-187.7271752302904
 21
5.174345718906664
 31
0.0
  0
LINE
  5
39A
330
1F
100
AcDbEntity
  8
_2-3_Kyo
  6
Continuous
 62
     7
370
     9
100
AcDbLine
 10
-177.8127266165523
 20
6.479607641107179
 30
0.0
 11
-187.7271752302904
 21
7.784869563307695
 31
0.0
  0
LINE
  5
39B
330
1F
100
AcDbEntity
  8
_2-3_Kyo
  6
Continuous
 62
     7
370
     9
100
AcDbLine
 10
95.1080303089347
 20
-406.5153284440083
 30
0.0
 11
93.80276838673419
 21
-396.6008798302702
 31
0.0
  0
LINE
  5
39C
330
1F
100
AcDbEntity
  8
_2-3_Kyo
  6
Continuous
 62
     7
370
     9
100
AcDbLine
 10
95.1080303089347
 20
-406.5153284440083
 30
0.0
 11
96.41329223113522
 21
-396.6008798302702
 31
0.0
  0
LINE
  5
39D
330
1F
100
AcDbEntity
  8
_2-3_Kyo
  6
Continuous
 62
     7
370
     9
100
AcDbLine
 10
95.1080303089347
 20
-376.5155604188421
 30
0.0
 11
93.80276838673419
 21
-386.4300090325802
 31
0.0
  0
LINE
  5
39E
330
1F
100
AcDbEntity
  8
_2-3_Kyo
  6
Continuous
 62
     7
370
     9
100
AcDbLine
 10
95.1080303089347
 20
-376.5155604188421
 30
0.0
 11
96.41329223113522
 21
-386.4300090325802
 31
0.0
  0
LINE
  5
39F
330
1F
100
AcDbEntity
  8
_2-4_A_b
  6
Continuous
 62
     7
370
     9
100
AcDbLine
 10
-115.140585799009
 20
-320.3935153444866
 30
0.0
 11
-109.0529715089218
 21
-312.4599819415743
 31
0.0
  0
LINE
  5
3A0
330
1F
100
AcDbEntity
  8
_2-4_A_b
  6
Continuous
 62
     7
370
     9
100
AcDbLine
 10
-115.140585799009
 20
-320.3935153444866
 30
0.0
 11
155.9221212252089
 21
-49.33068608334563
 31
0.0
  0
LINE
  5
3A1
330
1F
100
AcDbEntity
  8
_2-4_A_b
  6
Continuous
 62
     7
370
     9
100
AcDbLine
 10
-115.140585799009
 20
-320.3935153444866
 30
0.0
 11
-107.2070523960967
 21
-314.3059010543993
 31
0.0
  0
LINE
  5
3A2
330
1F
100
AcDbEntity
  8
2-Aﾚｲﾔ
  6
Continuous
 62
     2
370
     9
100
AcDbLine
 10
-119.9134366309725
 20
-317.0348315263911
 30
0.0
 11
-118.4993687108621
 21
-317.0348562998304
 31
0.0
  0
LINE
  5
3A3
330
1F
100
AcDbEntity
  8
2-Aﾚｲﾔ
  6
Continuous
 62
     2
370
     9
100
AcDbLine
 10
-112.8426015616327
 20
-322.6917720896961
 30
0.0
 11
-112.8426015616327
 21
-324.1057161426095
 31
0.0
  0
LINE
  5
3A4
330
1F
100
AcDbEntity
  8
2-Aﾚｲﾔ
  6
Continuous
 62
     2
370
     9
100
AcDbLine
 10
-116.2012853797281
 20
-319.3328900840856
 30
0.0
 11
-118.4993687108621
 21
-317.0348562998304
 31
0.0
  0
LINE
  5
3A5
330
1F
100
AcDbEntity
  8
2-Aﾚｲﾔ
  6
Continuous
 62
     2
370
     9
100
AcDbLine
 10
-112.8426015616327
 20
-322.6917720896961
 30
0.0
 11
-115.1405857990091
 21
-320.3935153444865
 31
0.0
  0
LINE
  5
3A6
330
1F
100
AcDbEntity
  8
2-Aﾚｲﾔ
  6
Continuous
 62
     2
370
     9
100
AcDbLine
 10
-116.9082202460259
 20
-320.0400479113377
 30
0.0
 11
-119.9134366309725
 21
-317.0348315263911
 31
0.0
  0
LINE
  5
3A7
330
1F
100
AcDbEntity
  8
2-Aﾚｲﾔ
  6
Continuous
 62
     2
370
     9
100
AcDbLine
 10
-112.8426015616327
 20
-324.1057161426095
 30
0.0
 11
-115.8477188528218
 21
-321.1007474920569
 31
0.0
  0
LINE
  5
3A8
330
1F
100
AcDbEntity
  8
2-Aﾚｲﾔ
  6
Continuous
 62
     2
370
     9
100
AcDbLine
 10
-117.6153532998386
 20
-320.7470323245141
 30
0.0
 11
-116.2012853797281
 21
-319.3328900840856
 31
0.0
  0
LINE
  5
3A9
330
1F
100
AcDbEntity
  8
2-Aﾚｲﾔ
  6
Continuous
 62
     2
370
     9
100
AcDbLine
 10
-116.5547528128771
 20
-321.8077319052332
 30
0.0
 11
-117.6153532998386
 21
-320.7470323245141
 31
0.0
  0
LINE
  5
3AA
330
1F
100
AcDbEntity
  8
2-Aﾚｲﾔ
  6
Continuous
 62
     2
370
     9
100
AcDbLine
 10
-116.5547528128771
 20
-321.8077319052332
 30
0.0
 11
-115.1405857990091
 21
-320.3935153444865
 31
0.0
  0
LINE
  5
3AB
330
1F
100
AcDbEntity
  8
2-Aﾚｲﾔ
  6
Continuous
 62
     2
370
     9
100
AcDbLine
 10
-142.1166778063373
 20
-351.9658499646745
 30
0.0
 11
-112.8426015616327
 21
-322.6917720896961
 31
0.0
  0
LINE
  5
3AC
330
1F
100
AcDbEntity
  8
2-Aﾚｲﾔ
  6
Continuous
 62
     2
370
     9
100
AcDbLine
 10
-141.4095447525246
 20
-352.6729830184872
 30
0.0
 11
-112.8426015616327
 21
-324.1057161426095
 31
0.0
  0
LINE
  5
3AD
330
1F
100
AcDbEntity
  8
2-Aﾚｲﾔ
  6
Continuous
 62
     2
370
     9
100
AcDbLine
 10
-147.7737422368393
 20
-346.3089589482483
 30
0.0
 11
-118.4993687108621
 21
-317.0348562998304
 31
0.0
  0
LINE
  5
3AE
330
1F
100
AcDbEntity
  8
2-Aﾚｲﾔ
  6
Continuous
 62
     2
370
     9
100
AcDbLine
 10
-148.480875290652
 20
-345.6017763475567
 30
0.0
 11
-119.9134366309725
 21
-317.0348315263911
 31
0.0
  0
LINE
  5
3AF
330
1F
100
AcDbEntity
  8
_2-b_Tat
  6
Continuous
 62
     3
370
     9
100
AcDbLine
 10
-117.1251364812831
 20
-318.4090142090913
 30
0.0
 11
-96.20118887467407
 21
-298.9135790680279
 31
0.0
  0
LINE
  5
3B0
330
1F
100
AcDbEntity
  8
_2-c_Shi
  6
JWW_CENTER2
 62
     4
370
     9
100
AcDbLine
 10
-162.8280658824714
 20
-367.0922395454784
 30
0.0
 11
-114.7662095830191
 21
-319.030431162631
 31
0.0
  0
TEXT
  5
3B1
330
1F
100
AcDbEntity
  8
F-4ﾚｲﾔ
  6
Continuous
 62
     2
370
     0
100
AcDbText
 10
-345.7533333333333
 20
-529.124
 30
0.0
 40
12.192
  1
鋳鉄製ルーフドレン　防水層張掛け幅100mm　よこ引き用　鋼製下地断熱屋根工法用
 41
0.7743333333333333
  7
ＭＳ ゴシック
100
AcDbText
  0
LINE
  5
3B2
330
1F
100
AcDbEntity
  8
_2-4_A_b
  6
Continuous
 62
     7
370
     9
100
AcDbLine
 10
-244.3882740024373
 20
-159.3525338982462
 30
0.0
 11
-417.1706995884773
 21
-159.3525338982462
 31
0.0
  0
TEXT
  5
3B3
330
1F
100
AcDbEntity
  8
_2-4_A_b
  6
Continuous
 62
     7
370
     9
100
AcDbText
 10
-392.7794867954573
 20
-154.1200662245776
 30
0.0
 40
9.144
  1
丸小ねじ：Ｍ６×８
 41
1.148148148148148
  7
ＭＳ ゴシック
100
AcDbText
  0
TEXT
  5
3B4
330
1F
100
AcDbEntity
  8
_2-4_A_b
  6
Continuous
 62
     7
370
     9
100
AcDbText
 10
-417.2794867954573
 20
-172.5180950315171
 30
0.0
 40
9.144
  1
ＳＳ４００,電気亜鉛めっき
 41
1.153333333333333
  7
ＭＳ ゴシック
100
AcDbText
  0
TEXT
  5
3B5
330
1F
100
AcDbEntity
  8
_2-4_A_b
  6
Continuous
 62
     7
370
     9
100
AcDbText
 10
158.2365843622442
 20
-44.59968644425607
 30
0.0
 40
9.144
  1
ボルトＭ１０×７０，ばね座金，平座金
 50
359.9999999964666
 41
1.157407407407407
  7
ＭＳ ゴシック
100
AcDbText
  0
LINE
  5
3B6
330
1F
100
AcDbEntity
  8
_2-4_A_b
  6
Continuous
 62
     7
370
     9
100
AcDbLine
 10
155.9221212252089
 20
-49.33068608334563
 30
0.0
 11
407.5664855967077
 21
-49.33068608334563
 31
0.0
  0
TEXT
  5
3B7
330
1F
100
AcDbEntity
  8
_2-4_A_b
  6
Continuous
 62
     7
370
     9
100
AcDbText
 10
240.7443034109583
 20
-62.31304798313079
 30
0.0
 40
9.144
  1
ＳＵＳ３０４
 41
1.138888888888889
  7
ＭＳ ゴシック
100
AcDbText
  0
LINE
  5
3B8
330
1F
100
AcDbEntity
  8
_2-4_A_b
  6
Continuous
 62
     7
370
     9
100
AcDbLine
 10
-209.4128340525667
 20
-198.5156981308862
 30
0.0
 11
-269.0646909264339
 21
-95.93391008618183
 31
0.0
  0
LINE
  5
3B9
330
1F
100
AcDbEntity
  8
_2-4_A_b
  6
Continuous
 62
     7
370
     9
100
AcDbLine
 10
-269.0646909264339
 20
-95.93391008618183
 30
0.0
 11
-447.9936231941692
 21
-95.93391008618183
 31
0.0
  0
TEXT
  5
3BA
330
1F
100
AcDbEntity
  8
_2-4_A_b
  6
Continuous
 62
     7
370
     9
100
AcDbText
 10
-445.0291570603015
 20
-89.53732768301225
 30
0.0
 40
9.144
  1
皿小ねじ,六角ナット：Ｍ６
 41
1.153333333333333
  7
ＭＳ ゴシック
100
AcDbText
  0
TEXT
  5
3BB
330
1F
100
AcDbEntity
  8
_2-4_A_b
  6
Continuous
 62
     7
370
     9
100
AcDbText
 10
-445.0291570603015
 20
-107.6719148520236
 30
0.0
 40
9.144
  1
ＳＳ４００,電気亜鉛めっき
 41
1.153333333333333
  7
ＭＳ ゴシック
100
AcDbText
  0
TEXT
  5
3BC
330
1F
100
AcDbEntity
  8
F-4ﾚｲﾔ
  6
Continuous
 62
     2
370
     0
100
AcDbText
 10
-345.9133333333333
 20
-549.2273333333334
 30
0.0
 40
12.192
  1
ねじ込み式　アスファルト防水用（キャント付入隅用）　　ＷＨＸＡ－６－１００－３０
 41
0.774375
  7
ＭＳ ゴシック
100
AcDbText
  0
TEXT
  5
3BD
330
1F
100
AcDbEntity
  8
_2-4_A_b
  6
Continuous
 62
     7
370
     9
100
AcDbText
 10
215.5355172973858
 20
41.18757216471089
 30
0.0
 40
9.144
  1
Ｍ６×１２
 41
1.133333333333333
  7
ＭＳ ゴシック
100
AcDbText
  0
TEXT
  5
3BE
330
1F
100
AcDbEntity
  8
_2-4_A_b
  6
Continuous
 62
     7
370
     9
100
AcDbText
 10
180.6596063648531
 20
61.04419441449149
 30
0.0
 40
9.144
  1
丸小ねじ：ＳＵＳ３０４
 41
1.151515151515151
  7
ＭＳ ゴシック
100
AcDbText
  0
ENDSEC
  0
SECTION
  2
OBJECTS
  0
DICTIONARY
  5
C
330
0
100
AcDbDictionary
281
     1
  3
ACAD_DETAILVIEWSTYLE
350
404
  3
ACAD_GROUP
350
D
  3
ACAD_LAYOUT
350
1A
  3
ACAD_MATERIAL
350
43
  3
ACAD_MLEADERSTYLE
350
6B
  3
ACAD_MLINESTYLE
350
17
  3
ACAD_PLOTSETTINGS
350
19
  3
ACAD_PLOTSTYLENAME
350
E
  3
ACAD_SCALELIST
350
47
  3
ACAD_SECTIONVIEWSTYLE
350
405
  3
ACAD_TABLESTYLE
350
69
  3
ACAD_VISUALSTYLE
350
2A
  3
ACDB_RECOMPOSE_DATA
350
401
  3
AcDbVariableDictionary
350
3C1
  0
DICTIONARY
  5
3BF
330
8
100
AcDbDictionary
280
     1
281
     1
  3
ACAD_XREC_ROUNDTRIP
360
3C0
  0
DICTIONARY
  5
404
102
{ACAD_REACTORS
330
C
102
}
330
C
100
AcDbDictionary
281
     1
  0
DICTIONARY
  5
D
102
{ACAD_REACTORS
330
C
102
}
330
C
100
AcDbDictionary
281
     1
  0
DICTIONARY
  5
1A
102
{ACAD_REACTORS
330
C
102
}
330
C
100
AcDbDictionary
281
     1
  3
Layout1
350
1E
  3
Layout2
350
26
  3
Model
350
22
  0
DICTIONARY
  5
43
102
{ACAD_REACTORS
330
C
102
}
330
C
100
AcDbDictionary
281
     1
  3
ByBlock
350
45
  3
ByLayer
350
44
  3
Global
350
46
  0
DICTIONARY
  5
6B
102
{ACAD_REACTORS
330
C
102
}
330
C
100
AcDbDictionary
281
     1
  3
Standard
350
6C
  0
DICTIONARY
  5
17
102
{ACAD_REACTORS
330
C
102
}
330
C
100
AcDbDictionary
281
     1
  3
Standard
350
18
  0
DICTIONARY
  5
19
102
{ACAD_REACTORS
330
C
102
}
330
C
100
AcDbDictionary
281
     1
  0
ACDBDICTIONARYWDFLT
  5
E
102
{ACAD_REACTORS
330
C
102
}
330
C
100
AcDbDictionary
281
     1
  3
Normal
350
F
100
AcDbDictionaryWithDefault
340
F
  0
DICTIONARY
  5
47
102
{ACAD_REACTORS
330
C
102
}
330
C
100
AcDbDictionary
281
     1
  3
A0
350
48
  3
A1
350
49
  3
A2
350
4A
  3
A3
350
4B
  3
A4
350
4C
  3
A5
350
4D
  3
A6
350
4E
  3
A7
350
4F
  3
A8
350
50
  3
A9
350
51
  3
B0
350
52
  3
B1
350
53
  3
B2
350
54
  3
B3
350
55
  3
B4
350
56
  3
B5
350
57
  3
B6
350
58
  3
B7
350
59
  3
B8
350
5A
  3
B9
350
5B
  3
C0
350
5C
  3
C1
350
5D
  3
C2
350
5E
  3
C3
350
5F
  3
C4
350
60
  3
C5
350
61
  3
C6
350
62
  3
C7
350
63
  3
C8
350
64
  3
C9
350
65
  3
D0
350
66
  3
D1
350
67
  3
D2
350
68
  0
DICTIONARY
  5
405
102
{ACAD_REACTORS
330
C
102
}
330
C
100
AcDbDictionary
281
     1
  0
DICTIONARY
  5
69
102
{ACAD_REACTORS
330
C
102
}
330
C
100
AcDbDictionary
281
     1
  3
Standard
350
6A
  0
DICTIONARY
  5
2A
102
{ACAD_REACTORS
330
C
102
}
330
C
100
AcDbDictionary
281
     1
  3
2dWireframe
350
2F
  3
Basic
350
32
  3
Brighten
350
36
  3
ColorChange
350
3A
  3
Conceptual
350
34
  3
Dim
350
35
  3
EdgeColorOff
350
3D
  3
Facepattern
350
39
  3
Flat
350
2B
  3
FlatWithEdges
350
2C
  3
Gouraud
350
2D
  3
GouraudWithEdges
350
2E
  3
Hidden
350
31
  3
JitterOff
350
3B
  3
Linepattern
350
38
  3
OverhangOff
350
3C
  3
Realistic
350
33
  3
Shaded
350
42
  3
Shaded with edges
350
41
  3
Shades of Gray
350
3E
  3
Sketchy
350
3F
  3
Thicken
350
37
  3
Wireframe
350
30
  3
X-Ray
350
40
  0
XRECORD
  5
401
102
{ACAD_REACTORS
330
C
102
}
330
C
100
AcDbXrecord
280
     1
 90
        1
330
6A
  0
DICTIONARY
  5
3C1
102
{ACAD_REACTORS
330
C
102
}
330
C
100
AcDbDictionary
281
     1
  3
CANNOSCALE
350
3C2
  3
CENTEREXE
350
406
  3
CENTERLTYPEFILE
350
407
  3
CMLEADERSTYLE
350
403
  3
CTABLESTYLE
350
402
  3
MSLTSCALE
350
3C3
  3
XCLIPFRAME
350
3C4
  0
XRECORD
  5
3C0
102
{ACAD_REACTORS
330
3BF
102
}
330
3BF
100
AcDbXrecord
280
     1
102
VTR_0.000_0.000_1.000_1.000_VISUALSTYLE
340
2F
102
VTR_0.000_0.000_1.000_1.000_GRIDDISPLAY
 70
     3
102
VTR_0.000_0.000_1.000_1.000_GRIDMAJOR
 70
     5
102
VTR_0.000_0.000_1.000_1.000_DEFAULTLIGHTING
280
     1
102
VTR_0.000_0.000_1.000_1.000_DEFAULTLIGHTINGTYPE
 70
     1
102
VTR_0.000_0.000_1.000_1.000_BRIGHTNESS
141
0.0
102
VTR_0.000_0.000_1.000_1.000_CONTRAST
142
0.0
  0
LAYOUT
  5
1E
102
{ACAD_REACTORS
330
1A
102
}
330
1A
100
AcDbPlotSettings
  1

  2
none_device
  4

  6

 40
0.0
 41
0.0
 42
0.0
 43
0.0
 44
0.0
 45
0.0
 46
0.0
 47
0.0
 48
0.0
 49
0.0
140
0.0
141
0.0
142
1.0
143
1.0
 70
   688
 72
     1
 73
     0
 74
     5
  7

 75
    16
 76
     0
 77
     5
 78
   300
147
1.0
148
0.0
149
0.0
100
AcDbLayout
  1
Layout1
 70
     1
 71
     1
 10
0.0
 20
0.0
 11
420.0
 21
297.0
 12
0.0
 22
0.0
 32
0.0
 14
1.000000000000000E+20
 24
1.000000000000000E+20
 34
1.000000000000000E+20
 15
-1.000000000000000E+20
 25
-1.000000000000000E+20
 35
-1.000000000000000E+20
146
0.0
 13
0.0
 23
0.0
 33
0.0
 16
1.0
 26
0.0
 36
0.0
 17
0.0
 27
1.0
 37
0.0
 76
     0
330
1B
  0
LAYOUT
  5
26
102
{ACAD_REACTORS
330
1A
102
}
330
1A
100
AcDbPlotSettings
  1

  2
none_device
  4

  6

 40
0.0
 41
0.0
 42
0.0
 43
0.0
 44
0.0
 45
0.0
 46
0.0
 47
0.0
 48
0.0
 49
0.0
140
0.0
141
0.0
142
1.0
143
1.0
 70
   688
 72
     1
 73
     0
 74
     5
  7

 75
    16
 76
     0
 77
     5
 78
   300
147
1.0
148
0.0
149
0.0
100
AcDbLayout
  1
Layout2
 70
     1
 71
     2
 10
0.0
 20
0.0
 11
0.0
 21
0.0
 12
0.0
 22
0.0
 32
0.0
 14
0.0
 24
0.0
 34
0.0
 15
0.0
 25
0.0
 35
0.0
146
0.0
 13
0.0
 23
0.0
 33
0.0
 16
1.0
 26
0.0
 36
0.0
 17
0.0
 27
1.0
 37
0.0
 76
     0
330
23
  0
LAYOUT
  5
22
102
{ACAD_REACTORS
330
1A
102
}
330
1A
100
AcDbPlotSettings
  1

  2
none_device
  4
Letter_(8.50_x_11.00_Inches)
  6

 40
6.35
 41
6.35
 42
6.35000508
 43
6.35000508
 44
215.9
 45
279.4
 46
0.0
 47
0.0
 48
0.0
 49
0.0
140
0.0
141
0.0
142
1.0
143
1.0
 70
  1712
 72
     1
 73
     0
 74
     0
  7

 75
     0
 76
     0
 77
     5
 78
   300
147
1.0
148
0.0
149
0.0
100
AcDbLayout
  1
Model
 70
     1
 71
     0
 10
-840.0
 20
-594.0
 11
840.0
 21
594.0
 12
0.0
 22
0.0
 32
0.0
 14
-840.0
 24
-594.0
 34
0.0
 15
840.0
 25
594.0
 35
0.0
146
0.0
 13
0.0
 23
0.0
 33
0.0
 16
1.0
 26
0.0
 36
0.0
 17
0.0
 27
1.0
 37
0.0
 76
     0
330
1F
331
29
  0
MATERIAL
  5
45
102
{ACAD_REACTORS
330
43
102
}
102
{ACAD_XDICTIONARY
360
3F7
102
}
330
43
100
AcDbMaterial
  1
ByBlock
  0
MATERIAL
  5
44
102
{ACAD_REACTORS
330
43
102
}
102
{ACAD_XDICTIONARY
360
3F5
102
}
330
43
100
AcDbMaterial
  1
ByLayer
  0
MATERIAL
  5
46
102
{ACAD_REACTORS
330
43
102
}
102
{ACAD_XDICTIONARY
360
3F9
102
}
330
43
100
AcDbMaterial
  1
Global
  0
MLEADERSTYLE
  5
6C
102
{ACAD_REACTORS
330
6B
102
}
102
{ACAD_XDICTIONARY
360
3FF
102
}
330
6B
100
AcDbMLeaderStyle
170
     2
171
     1
172
     0
 90
        2
 40
0.0
 41
0.0
173
     1
 91
-1056964608
340
14
 92
       -2
290
     1
 42
2.0
291
     1
 43
8.0
  3
Standard
341
0
 44
4.0
300

342
11
174
     1
178
     6
175
     1
176
     0
 93
-1056964608
 45
4.0
292
     0
297
     0
 46
4.0
343
0
 94
-1056964608
 47
1.0
 49
1.0
140
1.0
293
     1
141
0.0
294
     1
177
     0
142
1.0
295
     0
296
     0
143
3.75
1001
ACAD_MLEADERVER
1070
     2
  0
MLINESTYLE
  5
18
102
{ACAD_REACTORS
330
17
102
}
330
17
100
AcDbMlineStyle
  2
Standard
 70
     0
  3

 62
   256
 51
90.0
 52
90.0
 71
     2
 49
0.5
 62
   256
  6
BYLAYER
 49
-0.5
 62
   256
  6
BYLAYER
  0
ACDBPLACEHOLDER
  5
F
102
{ACAD_REACTORS
330
E
102
}
330
E
  0
SCALE
  5
48
102
{ACAD_REACTORS
330
47
102
}
330
47
100
AcDbScale
 70
     0
300
1:1
140
1.0
141
1.0
290
     1
  0
SCALE
  5
49
102
{ACAD_REACTORS
330
47
102
}
330
47
100
AcDbScale
 70
     0
300
1:2
140
1.0
141
2.0
290
     0
  0
SCALE
  5
4A
102
{ACAD_REACTORS
330
47
102
}
330
47
100
AcDbScale
 70
     0
300
1:4
140
1.0
141
4.0
290
     0
  0
SCALE
  5
4B
102
{ACAD_REACTORS
330
47
102
}
330
47
100
AcDbScale
 70
     0
300
1:5
140
1.0
141
5.0
290
     0
  0
SCALE
  5
4C
102
{ACAD_REACTORS
330
47
102
}
330
47
100
AcDbScale
 70
     0
300
1:8
140
1.0
141
8.0
290
     0
  0
SCALE
  5
4D
102
{ACAD_REACTORS
330
47
102
}
330
47
100
AcDbScale
 70
     0
300
1:10
140
1.0
141
10.0
290
     0
  0
SCALE
  5
4E
102
{ACAD_REACTORS
330
47
102
}
330
47
100
AcDbScale
 70
     0
300
1:16
140
1.0
141
16.0
290
     0
  0
SCALE
  5
4F
102
{ACAD_REACTORS
330
47
102
}
330
47
100
AcDbScale
 70
     0
300
1:20
140
1.0
141
20.0
290
     0
  0
SCALE
  5
50
102
{ACAD_REACTORS
330
47
102
}
330
47
100
AcDbScale
 70
     0
300
1:30
140
1.0
141
30.0
290
     0
  0
SCALE
  5
51
102
{ACAD_REACTORS
330
47
102
}
330
47
100
AcDbScale
 70
     0
300
1:40
140
1.0
141
40.0
290
     0
  0
SCALE
  5
52
102
{ACAD_REACTORS
330
47
102
}
330
47
100
AcDbScale
 70
     0
300
1:50
140
1.0
141
50.0
290
     0
  0
SCALE
  5
53
102
{ACAD_REACTORS
330
47
102
}
330
47
100
AcDbScale
 70
     0
300
1:100
140
1.0
141
100.0
290
     0
  0
SCALE
  5
54
102
{ACAD_REACTORS
330
47
102
}
330
47
100
AcDbScale
 70
     0
300
2:1
140
2.0
141
1.0
290
     0
  0
SCALE
  5
55
102
{ACAD_REACTORS
330
47
102
}
330
47
100
AcDbScale
 70
     0
300
4:1
140
4.0
141
1.0
290
     0
  0
SCALE
  5
56
102
{ACAD_REACTORS
330
47
102
}
330
47
100
AcDbScale
 70
     0
300
8:1
140
8.0
141
1.0
290
     0
  0
SCALE
  5
57
102
{ACAD_REACTORS
330
47
102
}
330
47
100
AcDbScale
 70
     0
300
10:1
140
10.0
141
1.0
290
     0
  0
SCALE
  5
58
102
{ACAD_REACTORS
330
47
102
}
330
47
100
AcDbScale
 70
     0
300
100:1
140
100.0
141
1.0
290
     0
  0
SCALE
  5
59
102
{ACAD_REACTORS
330
47
102
}
330
47
100
AcDbScale
 70
     0
300
1/128" = 1'-0"
140
0.0078125
141
12.0
290
     0
  0
SCALE
  5
5A
102
{ACAD_REACTORS
330
47
102
}
330
47
100
AcDbScale
 70
     0
300
1/64" = 1'-0"
140
0.015625
141
12.0
290
     0
  0
SCALE
  5
5B
102
{ACAD_REACTORS
330
47
102
}
330
47
100
AcDbScale
 70
     0
300
1/32" = 1'-0"
140
0.03125
141
12.0
290
     0
  0
SCALE
  5
5C
102
{ACAD_REACTORS
330
47
102
}
330
47
100
AcDbScale
 70
     0
300
1/16" = 1'-0"
140
0.0625
141
12.0
290
     0
  0
SCALE
  5
5D
102
{ACAD_REACTORS
330
47
102
}
330
47
100
AcDbScale
 70
     0
300
3/32" = 1'-0"
140
0.09375
141
12.0
290
     0
  0
SCALE
  5
5E
102
{ACAD_REACTORS
330
47
102
}
330
47
100
AcDbScale
 70
     0
300
1/8" = 1'-0"
140
0.125
141
12.0
290
     0
  0
SCALE
  5
5F
102
{ACAD_REACTORS
330
47
102
}
330
47
100
AcDbScale
 70
     0
300
3/16" = 1'-0"
140
0.1875
141
12.0
290
     0
  0
SCALE
  5
60
102
{ACAD_REACTORS
330
47
102
}
330
47
100
AcDbScale
 70
     0
300
1/4" = 1'-0"
140
0.25
141
12.0
290
     0
  0
SCALE
  5
61
102
{ACAD_REACTORS
330
47
102
}
330
47
100
AcDbScale
 70
     0
300
3/8" = 1'-0"
140
0.375
141
12.0
290
     0
  0
SCALE
  5
62
102
{ACAD_REACTORS
330
47
102
}
330
47
100
AcDbScale
 70
     0
300
1/2" = 1'-0"
140
0.5
141
12.0
290
     0
  0
SCALE
  5
63
102
{ACAD_REACTORS
330
47
102
}
330
47
100
AcDbScale
 70
     0
300
3/4" = 1'-0"
140
0.75
141
12.0
290
     0
  0
SCALE
  5
64
102
{ACAD_REACTORS
330
47
102
}
330
47
100
AcDbScale
 70
     0
300
1" = 1'-0"
140
1.0
141
12.0
290
     0
  0
SCALE
  5
65
102
{ACAD_REACTORS
330
47
102
}
330
47
100
AcDbScale
 70
     0
300
1-1/2" = 1'-0"
140
1.5
141
12.0
290
     0
  0
SCALE
  5
66
102
{ACAD_REACTORS
330
47
102
}
330
47
100
AcDbScale
 70
     0
300
3" = 1'-0"
140
3.0
141
12.0
290
     0
  0
SCALE
  5
67
102
{ACAD_REACTORS
330
47
102
}
330
47
100
AcDbScale
 70
     0
300
6" = 1'-0"
140
6.0
141
12.0
290
     0
  0
SCALE
  5
68
102
{ACAD_REACTORS
330
47
102
}
330
47
100
AcDbScale
 70
     0
300
1'-0" = 1'-0"
140
12.0
141
12.0
290
     0
  0
TABLESTYLE
  5
6A
102
{ACAD_REACTORS
330
69
102
}
102
{ACAD_XDICTIONARY
360
3FB
102
}
330
69
100
AcDbTableStyle
  3
Standard
 70
     0
 71
     0
 40
0.06
 41
0.06
280
     0
281
     0
  7
Standard
140
4.5
170
     2
 62
     0
 63
   257
283
     0
274
    -2
284
     1
 64
     0
275
    -2
285
     1
 65
     0
276
    -2
286
     1
 66
     0
277
    -2
287
     1
 67
     0
278
    -2
288
     1
 68
     0
279
    -2
289
     1
 69
     0
  7
Standard
140
6.0
170
     5
 62
     0
 63
   257
283
     0
274
    -2
284
     1
 64
     0
275
    -2
285
     1
 65
     0
276
    -2
286
     1
 66
     0
277
    -2
287
     1
 67
     0
278
    -2
288
     1
 68
     0
279
    -2
289
     1
 69
     0
  7
Standard
140
4.5
170
     5
 62
     0
 63
   257
283
     0
274
    -2
284
     1
 64
     0
275
    -2
285
     1
 65
     0
276
    -2
286
     1
 66
     0
277
    -2
287
     1
 67
     0
278
    -2
288
     1
 68
     0
279
    -2
289
     1
 69
     0
  0
VISUALSTYLE
  5
2F
102
{ACAD_REACTORS
330
2A
102
}
102
{ACAD_XDICTIONARY
360
3CD
102
}
330
2A
100
AcDbVisualStyle
  2
2dWireframe
 70
     4
 71
     0
 72
     2
 73
     0
 90
        0
 40
0.6
 41
30.0
 62
     5
 63
     7
421
 16777215
 74
     1
 91
        4
 64
     7
 65
   257
 75
     1
175
     1
 42
1.0
 92
        0
 66
   257
 43
1.0
 76
     1
 77
     6
 78
     2
 67
     7
 79
     5
170
     0
171
     0
290
     0
174
     0
 93
        1
 44
0.0
173
     0
291
     0
 45
0.0
1001
ACAD
1000
AcDbSavedByObjectVersion
1070
     0
  0
VISUALSTYLE
  5
32
102
{ACAD_REACTORS
330
2A
102
}
102
{ACAD_XDICTIONARY
360
3D3
102
}
330
2A
100
AcDbVisualStyle
  2
Basic
 70
     7
 71
     1
 72
     0
 73
     1
 90
        0
 40
0.6
 41
30.0
 62
     5
 63
     7
421
 16777215
 74
     0
 91
        4
 64
     7
 65
   257
 75
     1
175
     1
 42
1.0
 92
        8
 66
     7
 43
1.0
 76
     1
 77
     6
 78
     2
 67
     7
 79
     5
170
     0
171
     0
290
     0
174
     0
 93
        1
 44
0.0
173
     0
291
     1
 45
0.0
1001
ACAD
1000
AcDbSavedByObjectVersion
1070
     0
  0
VISUALSTYLE
  5
36
102
{ACAD_REACTORS
330
2A
102
}
102
{ACAD_XDICTIONARY
360
3DB
102
}
330
2A
100
AcDbVisualStyle
  2
Brighten
 70
    12
 71
     2
 72
     2
 73
     0
 90
        0
 40
0.6
 41
30.0
 62
     5
 63
     7
421
 16777215
 74
     1
 91
        4
 64
     7
 65
   257
 75
     1
175
     1
 42
1.0
 92
        8
 66
     7
 43
1.0
 76
     1
 77
     6
 78
     2
 67
     7
 79
     5
170
     0
171
     0
290
     0
174
     0
 93
        1
 44
50.0
173
     0
291
     1
 45
0.0
1001
ACAD
1000
AcDbSavedByObjectVersion
1070
     0
  0
VISUALSTYLE
  5
3A
102
{ACAD_REACTORS
330
2A
102
}
102
{ACAD_XDICTIONARY
360
3E3
102
}
330
2A
100
AcDbVisualStyle
  2
ColorChange
 70
    16
 71
     2
 72
     2
 73
     3
 90
        0
 40
0.6
 41
30.0
 62
     5
 63
     8
421
  8421504
 74
     1
 91
        4
 64
     7
 65
   257
 75
     1
175
     1
 42
1.0
 92
        8
 66
     8
424
  8421504
 43
1.0
 76
     1
 77
     6
 78
     2
 67
     7
 79
     5
170
     0
171
     0
290
     0
174
     0
 93
        1
 44
0.0
173
     0
291
     1
 45
0.0
1001
ACAD
1000
AcDbSavedByObjectVersion
1070
     0
  0
VISUALSTYLE
  5
34
102
{ACAD_REACTORS
330
2A
102
}
102
{ACAD_XDICTIONARY
360
3D7
102
}
330
2A
100
AcDbVisualStyle
  2
Conceptual
 70
     9
 71
     3
 72
     2
 73
     0
 90
        0
 40
0.6
 41
30.0
 62
     5
 63
     7
421
 16777215
 74
     2
 91
        2
 64
     7
 65
   257
 75
     1
175
     1
 42
179.0
 92
        8
 66
     7
 43
1.0
 76
     1
 77
     6
 78
     2
 67
     7
 79
     3
170
     0
171
     0
290
     0
174
     0
 93
        1
 44
0.0
173
     0
291
     0
 45
0.0
1001
ACAD
1000
AcDbSavedByObjectVersion
1070
     0
  0
VISUALSTYLE
  5
35
102
{ACAD_REACTORS
330
2A
102
}
102
{ACAD_XDICTIONARY
360
3D9
102
}
330
2A
100
AcDbVisualStyle
  2
Dim
 70
    11
 71
     2
 72
     2
 73
     0
 90
        0
 40
0.6
 41
30.0
 62
     5
 63
     7
421
 16777215
 74
     1
 91
        4
 64
     7
 65
   257
 75
     1
175
     1
 42
1.0
 92
        8
 66
     7
 43
1.0
 76
     1
 77
     6
 78
     2
 67
     7
 79
     5
170
     0
171
     0
290
     0
174
     0
 93
        1
 44
-50.0
173
     0
291
     1
 45
0.0
1001
ACAD
1000
AcDbSavedByObjectVersion
1070
     0
  0
VISUALSTYLE
  5
3D
102
{ACAD_REACTORS
330
2A
102
}
102
{ACAD_XDICTIONARY
360
3E9
102
}
330
2A
100
AcDbVisualStyle
  2
EdgeColorOff
 70
    22
 71
     2
 72
     2
 73
     0
 90
        0
 40
0.6
 41
30.0
 62
     5
 63
     7
421
 16777215
 74
     1
 91
        4
 64
     7
 65
   257
 75
     1
175
     1
 42
1.0
 92
        8
 66
     7
 43
1.0
 76
     1
 77
     6
 78
     2
 67
     7
 79
     5
170
     0
171
     0
290
     0
174
     0
 93
        1
 44
0.0
173
     0
291
     1
 45
0.0
1001
ACAD
1000
AcDbSavedByObjectVersion
1070
     0
  0
VISUALSTYLE
  5
39
102
{ACAD_REACTORS
330
2A
102
}
102
{ACAD_XDICTIONARY
360
3E1
102
}
330
2A
100
AcDbVisualStyle
  2
Facepattern
 70
    15
 71
     2
 72
     2
 73
     0
 90
        0
 40
0.6
 41
30.0
 62
     5
 63
     7
421
 16777215
 74
     1
 91
        4
 64
     7
 65
   257
 75
     1
175
     1
 42
1.0
 92
        8
 66
     7
 43
1.0
 76
     1
 77
     6
 78
     2
 67
     7
 79
     5
170
     0
171
     0
290
     0
174
     0
 93
        1
 44
0.0
173
     0
291
     1
 45
0.0
1001
ACAD
1000
AcDbSavedByObjectVersion
1070
     0
  0
VISUALSTYLE
  5
2B
102
{ACAD_REACTORS
330
2A
102
}
102
{ACAD_XDICTIONARY
360
3C5
102
}
330
2A
100
AcDbVisualStyle
  2
Flat
 70
     0
 71
     2
 72
     1
 73
     1
 90
        2
 40
0.6
 41
30.0
 62
     5
 63
     7
421
 16777215
 74
     0
 91
        0
 64
     7
 65
   257
 75
     1
175
     1
 42
1.0
 92
        8
 66
     7
 43
1.0
 76
     1
 77
     6
 78
     2
 67
     7
 79
     5
170
     0
171
     0
290
     0
174
     0
 93
       13
 44
0.0
173
     0
291
     1
 45
0.0
1001
ACAD
1000
AcDbSavedByObjectVersion
1070
     0
  0
VISUALSTYLE
  5
2C
102
{ACAD_REACTORS
330
2A
102
}
102
{ACAD_XDICTIONARY
360
3C7
102
}
330
2A
100
AcDbVisualStyle
  2
FlatWithEdges
 70
     1
 71
     2
 72
     1
 73
     1
 90
        2
 40
0.6
 41
30.0
 62
     5
 63
     7
421
 16777215
 74
     1
 91
        0
 64
     7
 65
   257
 75
     1
175
     1
 42
1.0
 92
        0
 66
   257
 43
1.0
 76
     1
 77
     6
 78
     2
 67
     7
 79
     5
170
     0
171
     0
290
     0
174
     0
 93
       13
 44
0.0
173
     0
291
     1
 45
0.0
1001
ACAD
1000
AcDbSavedByObjectVersion
1070
     0
  0
VISUALSTYLE
  5
2D
102
{ACAD_REACTORS
330
2A
102
}
102
{ACAD_XDICTIONARY
360
3C9
102
}
330
2A
100
AcDbVisualStyle
  2
Gouraud
 70
     2
 71
     2
 72
     2
 73
     1
 90
        2
 40
0.6
 41
30.0
 62
     5
 63
     7
421
 16777215
 74
     0
 91
        0
 64
     7
 65
   257
 75
     1
175
     1
 42
1.0
 92
        0
 66
     7
 43
1.0
 76
     1
 77
     6
 78
     2
 67
     7
 79
     5
170
     0
171
     0
290
     0
174
     0
 93
       13
 44
0.0
173
     0
291
     1
 45
0.0
1001
ACAD
1000
AcDbSavedByObjectVersion
1070
     0
  0
VISUALSTYLE
  5
2E
102
{ACAD_REACTORS
330
2A
102
}
102
{ACAD_XDICTIONARY
360
3CB
102
}
330
2A
100
AcDbVisualStyle
  2
GouraudWithEdges
 70
     3
 71
     2
 72
     2
 73
     1
 90
        2
 40
0.6
 41
30.0
 62
     5
 63
     7
421
 16777215
 74
     1
 91
        0
 64
     7
 65
   257
 75
     1
175
     1
 42
1.0
 92
        0
 66
   257
 43
1.0
 76
     1
 77
     6
 78
     2
 67
     7
 79
     5
170
     0
171
     0
290
     0
174
     0
 93
       13
 44
0.0
173
     0
291
     1
 45
0.0
1001
ACAD
1000
AcDbSavedByObjectVersion
1070
     0
  0
VISUALSTYLE
  5
31
102
{ACAD_REACTORS
330
2A
102
}
102
{ACAD_XDICTIONARY
360
3D1
102
}
330
2A
100
AcDbVisualStyle
  2
Hidden
 70
     6
 71
     1
 72
     2
 73
     2
 90
        0
 40
0.6
 41
30.0
 62
     5
 63
     7
421
 16777215
 74
     2
 91
        2
 64
     7
 65
   257
 75
     2
175
     1
 42
40.0
 92
        0
 66
   257
 43
1.0
 76
     1
 77
     6
 78
     2
 67
     7
 79
     3
170
     0
171
     0
290
     0
174
     0
 93
        1
 44
0.0
173
     0
291
     0
 45
0.0
1001
ACAD
1000
AcDbSavedByObjectVersion
1070
     0
  0
VISUALSTYLE
  5
3B
102
{ACAD_REACTORS
330
2A
102
}
102
{ACAD_XDICTIONARY
360
3E5
102
}
330
2A
100
AcDbVisualStyle
  2
JitterOff
 70
    20
 71
     2
 72
     2
 73
     0
 90
        0
 40
0.6
 41
30.0
 62
     5
 63
     7
421
 16777215
 74
     1
 91
        4
 64
     7
 65
   257
 75
     1
175
     1
 42
1.0
 92
       10
 66
     7
 43
1.0
 76
     1
 77
     6
 78
     2
 67
     7
 79
     5
170
     0
171
     0
290
     0
174
     0
 93
        1
 44
0.0
173
     0
291
     1
 45
0.0
1001
ACAD
1000
AcDbSavedByObjectVersion
1070
     0
  0
VISUALSTYLE
  5
38
102
{ACAD_REACTORS
330
2A
102
}
102
{ACAD_XDICTIONARY
360
3DF
102
}
330
2A
100
AcDbVisualStyle
  2
Linepattern
 70
    14
 71
     2
 72
     2
 73
     0
 90
        0
 40
0.6
 41
30.0
 62
     5
 63
     7
421
 16777215
 74
     1
 91
        4
 64
     7
 65
   257
 75
     7
175
     7
 42
1.0
 92
        8
 66
     7
 43
1.0
 76
     1
 77
     6
 78
     2
 67
     7
 79
     5
170
     0
171
     0
290
     0
174
     0
 93
        1
 44
0.0
173
     0
291
     1
 45
0.0
1001
ACAD
1000
AcDbSavedByObjectVersion
1070
     0
  0
VISUALSTYLE
  5
3C
102
{ACAD_REACTORS
330
2A
102
}
102
{ACAD_XDICTIONARY
360
3E7
102
}
330
2A
100
AcDbVisualStyle
  2
OverhangOff
 70
    21
 71
     2
 72
     2
 73
     0
 90
        0
 40
0.6
 41
30.0
 62
     5
 63
     7
421
 16777215
 74
     1
 91
        4
 64
     7
 65
   257
 75
     1
175
     1
 42
1.0
 92
        9
 66
     7
 43
1.0
 76
     1
 77
     6
 78
     2
 67
     7
 79
     5
170
     0
171
     0
290
     0
174
     0
 93
        1
 44
0.0
173
     0
291
     1
 45
0.0
1001
ACAD
1000
AcDbSavedByObjectVersion
1070
     0
  0
VISUALSTYLE
  5
33
102
{ACAD_REACTORS
330
2A
102
}
102
{ACAD_XDICTIONARY
360
3D5
102
}
330
2A
100
AcDbVisualStyle
  2
Realistic
 70
     8
 71
     2
 72
     3
 73
     0
 90
        2
 40
0.6
 41
30.0
 62
     5
 63
     7
421
 16777215
 74
     0
 91
        0
 64
     7
 65
   257
 75
     1
175
     1
 42
1.0
 92
        8
 66
   257
 43
1.0
 76
     1
 77
     6
 78
     2
 67
     7
 79
     3
170
     0
171
     0
290
     0
174
     0
 93
       13
 44
0.0
173
     0
291
     0
 45
0.0
1001
ACAD
1000
AcDbSavedByObjectVersion
1070
     0
  0
VISUALSTYLE
  5
42
102
{ACAD_REACTORS
330
2A
102
}
102
{ACAD_XDICTIONARY
360
3F3
102
}
330
2A
100
AcDbVisualStyle
  2
Shaded
 70
    27
 71
     2
 72
     2
 73
     1
 90
        2
 40
0.6
 41
30.0
 62
     5
 63
     7
421
 16777215
 74
     0
 91
        4
 64
     7
 65
   257
 75
     1
175
     1
 42
1.0
 92
        8
 66
   257
 43
1.0
 76
     1
 77
     6
 78
     2
 67
     8
425
  7895160
 79
     3
170
     0
171
     0
290
     0
174
     0
 93
        5
 44
0.0
173
     0
291
     0
 45
0.0
1001
ACAD
1000
AcDbSavedByObjectVersion
1070
     0
  0
VISUALSTYLE
  5
41
102
{ACAD_REACTORS
330
2A
102
}
102
{ACAD_XDICTIONARY
360
3F1
102
}
330
2A
100
AcDbVisualStyle
  2
Shaded with edges
 70
    26
 71
     2
 72
     2
 73
     1
 90
        2
 40
0.6
 41
30.0
 62
     5
 63
     7
421
 16777215
 74
     1
 91
       10
 64
     7
 65
   257
 75
     2
175
     1
 42
1.0
 92
        8
 66
   257
 43
1.0
 76
     1
 77
     6
 78
     2
 67
     7
 79
     3
170
     0
171
     0
290
     0
174
     0
 93
        5
 44
0.0
173
     0
291
     0
 45
0.0
1001
ACAD
1000
AcDbSavedByObjectVersion
1070
     0
  0
VISUALSTYLE
  5
3E
102
{ACAD_REACTORS
330
2A
102
}
102
{ACAD_XDICTIONARY
360
3EB
102
}
330
2A
100
AcDbVisualStyle
  2
Shades of Gray
 70
    23
 71
     2
 72
     2
 73
     3
 90
        0
 40
0.6
 41
30.0
 62
     5
 63
     7
421
 16777215
 74
     2
 91
        2
 64
     7
 65
     7
 75
     1
175
     1
 42
40.0
 92
        8
 66
     7
 43
1.0
 76
     1
 77
     6
 78
     2
 67
     7
 79
     3
170
     0
171
     0
290
     0
174
     0
 93
        1
 44
0.0
173
     0
291
     0
 45
0.0
1001
ACAD
1000
AcDbSavedByObjectVersion
1070
     0
  0
VISUALSTYLE
  5
3F
102
{ACAD_REACTORS
330
2A
102
}
102
{ACAD_XDICTIONARY
360
3ED
102
}
330
2A
100
AcDbVisualStyle
  2
Sketchy
 70
    24
 71
     1
 72
     2
 73
     2
 90
        0
 40
0.6
 41
30.0
 62
     5
 63
     7
421
 16777215
 74
     2
 91
        2
 64
     7
 65
     7
 75
     1
175
     1
 42
40.0
 92
       11
 66
     7
 43
1.0
 76
     1
 77
     6
 78
     2
 67
     7
 79
     6
170
     0
171
     0
290
     0
174
     0
 93
        1
 44
0.0
173
     0
291
     0
 45
0.0
1001
ACAD
1000
AcDbSavedByObjectVersion
1070
     0
  0
VISUALSTYLE
  5
37
102
{ACAD_REACTORS
330
2A
102
}
102
{ACAD_XDICTIONARY
360
3DD
102
}
330
2A
100
AcDbVisualStyle
  2
Thicken
 70
    13
 71
     2
 72
     2
 73
     0
 90
        0
 40
0.6
 41
30.0
 62
     5
 63
     7
421
 16777215
 74
     1
 91
        4
 64
     7
 65
   257
 75
     1
175
     1
 42
1.0
 92
       12
 66
     7
 43
1.0
 76
     1
 77
     6
 78
     2
 67
     7
 79
     5
170
     0
171
     0
290
     0
174
     0
 93
        1
 44
0.0
173
     0
291
     1
 45
0.0
1001
ACAD
1000
AcDbSavedByObjectVersion
1070
     0
  0
VISUALSTYLE
  5
30
102
{ACAD_REACTORS
330
2A
102
}
102
{ACAD_XDICTIONARY
360
3CF
102
}
330
2A
100
AcDbVisualStyle
  2
Wireframe
 70
     5
 71
     0
 72
     2
 73
     0
 90
        0
 40
0.6
 41
30.0
 62
     5
 63
     7
421
 16777215
 74
     1
 91
        4
 64
     7
 65
   257
 75
     1
175
     1
 42
1.0
 92
        0
 66
   257
 43
1.0
 76
     1
 77
     6
 78
     2
 67
     7
 79
     3
170
     0
171
     0
290
     0
174
     0
 93
        1
 44
0.0
173
     0
291
     0
 45
0.0
1001
ACAD
1000
AcDbSavedByObjectVersion
1070
     0
  0
VISUALSTYLE
  5
40
102
{ACAD_REACTORS
330
2A
102
}
102
{ACAD_XDICTIONARY
360
3EF
102
}
330
2A
100
AcDbVisualStyle
  2
X-Ray
 70
    25
 71
     2
 72
     2
 73
     1
 90
        1
 40
0.5
 41
30.0
 62
     5
 63
     7
421
 16777215
 74
     1
 91
        0
 64
     7
 65
   257
 75
     1
175
     1
 42
1.0
 92
        8
 66
     7
 43
1.0
 76
     1
 77
     6
 78
     2
 67
     7
 79
     3
170
     0
171
     0
290
     0
174
     0
 93
       13
 44
0.0
173
     0
291
     0
 45
0.0
1001
ACAD
1000
AcDbSavedByObjectVersion
1070
     0
  0
DICTIONARYVAR
  5
3C2
102
{ACAD_REACTORS
330
3C1
102
}
330
3C1
100
DictionaryVariables
280
     0
  1
1:1
  0
DICTIONARYVAR
  5
406
102
{ACAD_REACTORS
330
3C1
102
}
330
3C1
100
DictionaryVariables
280
     0
  1
3.500000
  0
DICTIONARYVAR
  5
407
102
{ACAD_REACTORS
330
3C1
102
}
330
3C1
100
DictionaryVariables
280
     0
  1
acadiso.lin
  0
DICTIONARYVAR
  5
403
102
{ACAD_REACTORS
330
3C1
102
}
330
3C1
100
DictionaryVariables
280
     0
  1
Standard
  0
DICTIONARYVAR
  5
402
102
{ACAD_REACTORS
330
3C1
102
}
330
3C1
100
DictionaryVariables
280
     0
  1
Standard
  0
DICTIONARYVAR
  5
3C3
102
{ACAD_REACTORS
330
3C1
102
}
330
3C1
100
DictionaryVariables
280
     0
  1
1
  0
DICTIONARYVAR
  5
3C4
102
{ACAD_REACTORS
330
3C1
102
}
330
3C1
100
DictionaryVariables
280
     0
  1
2
  0
DICTIONARY
  5
3F7
330
45
100
AcDbDictionary
280
     1
281
     1
  3
ACAD_XREC_ROUNDTRIP
360
3F8
  0
DICTIONARY
  5
3F5
330
44
100
AcDbDictionary
280
     1
281
     1
  3
ACAD_XREC_ROUNDTRIP
360
3F6
  0
DICTIONARY
  5
3F9
330
46
100
AcDbDictionary
280
     1
281
     1
  3
ACAD_XREC_ROUNDTRIP
360
3FA
  0
DICTIONARY
  5
3FF
330
6C
100
AcDbDictionary
280
     1
281
     1
  3
ACAD_XREC_ROUNDTRIP
360
400
  0
DICTIONARY
  5
3FB
330
6A
100
AcDbDictionary
280
     1
281
     1
  3
ACAD_ROUNDTRIP_2008_TABLESTYLE_CELLSTYLEMAP
360
3FD
  3
ACAD_XREC_ROUNDTRIP
360
3FC
  0
DICTIONARY
  5
3CD
330
2F
100
AcDbDictionary
280
     1
281
     1
  3
ACAD_XREC_ROUNDTRIP
360
3CE
  0
DICTIONARY
  5
3D3
330
32
100
AcDbDictionary
280
     1
281
     1
  3
ACAD_XREC_ROUNDTRIP
360
3D4
  0
DICTIONARY
  5
3DB
330
36
100
AcDbDictionary
280
     1
281
     1
  3
ACAD_XREC_ROUNDTRIP
360
3DC
  0
DICTIONARY
  5
3E3
330
3A
100
AcDbDictionary
280
     1
281
     1
  3
ACAD_XREC_ROUNDTRIP
360
3E4
  0
DICTIONARY
  5
3D7
330
34
100
AcDbDictionary
280
     1
281
     1
  3
ACAD_XREC_ROUNDTRIP
360
3D8
  0
DICTIONARY
  5
3D9
330
35
100
AcDbDictionary
280
     1
281
     1
  3
ACAD_XREC_ROUNDTRIP
360
3DA
  0
DICTIONARY
  5
3E9
330
3D
100
AcDbDictionary
280
     1
281
     1
  3
ACAD_XREC_ROUNDTRIP
360
3EA
  0
DICTIONARY
  5
3E1
330
39
100
AcDbDictionary
280
     1
281
     1
  3
ACAD_XREC_ROUNDTRIP
360
3E2
  0
DICTIONARY
  5
3C5
330
2B
100
AcDbDictionary
280
     1
281
     1
  3
ACAD_XREC_ROUNDTRIP
360
3C6
  0
DICTIONARY
  5
3C7
330
2C
100
AcDbDictionary
280
     1
281
     1
  3
ACAD_XREC_ROUNDTRIP
360
3C8
  0
DICTIONARY
  5
3C9
330
2D
100
AcDbDictionary
280
     1
281
     1
  3
ACAD_XREC_ROUNDTRIP
360
3CA
  0
DICTIONARY
  5
3CB
330
2E
100
AcDbDictionary
280
     1
281
     1
  3
ACAD_XREC_ROUNDTRIP
360
3CC
  0
DICTIONARY
  5
3D1
330
31
100
AcDbDictionary
280
     1
281
     1
  3
ACAD_XREC_ROUNDTRIP
360
3D2
  0
DICTIONARY
  5
3E5
330
3B
100
AcDbDictionary
280
     1
281
     1
  3
ACAD_XREC_ROUNDTRIP
360
3E6
  0
DICTIONARY
  5
3DF
330
38
100
AcDbDictionary
280
     1
281
     1
  3
ACAD_XREC_ROUNDTRIP
360
3E0
  0
DICTIONARY
  5
3E7
330
3C
100
AcDbDictionary
280
     1
281
     1
  3
ACAD_XREC_ROUNDTRIP
360
3E8
  0
DICTIONARY
  5
3D5
330
33
100
AcDbDictionary
280
     1
281
     1
  3
ACAD_XREC_ROUNDTRIP
360
3D6
  0
DICTIONARY
  5
3F3
330
42
100
AcDbDictionary
280
     1
281
     1
  3
ACAD_XREC_ROUNDTRIP
360
3F4
  0
DICTIONARY
  5
3F1
330
41
100
AcDbDictionary
280
     1
281
     1
  3
ACAD_XREC_ROUNDTRIP
360
3F2
  0
DICTIONARY
  5
3EB
330
3E
100
AcDbDictionary
280
     1
281
     1
  3
ACAD_XREC_ROUNDTRIP
360
3EC
  0
DICTIONARY
  5
3ED
330
3F
100
AcDbDictionary
280
     1
281
     1
  3
ACAD_XREC_ROUNDTRIP
360
3EE
  0
DICTIONARY
  5
3DD
330
37
100
AcDbDictionary
280
     1
281
     1
  3
ACAD_XREC_ROUNDTRIP
360
3DE
  0
DICTIONARY
  5
3CF
330
30
100
AcDbDictionary
280
     1
281
     1
  3
ACAD_XREC_ROUNDTRIP
360
3D0
  0
DICTIONARY
  5
3EF
330
40
100
AcDbDictionary
280
     1
281
     1
  3
ACAD_XREC_ROUNDTRIP
360
3F0
  0
XRECORD
  5
3F8
102
{ACAD_REACTORS
330
3F7
102
}
330
3F7
100
AcDbXrecord
280
     1
102
MATERIAL
148
0.0
149
0.0
149
0.0
 93
        0
 94
      127
282
     0
 72
     1
 77
     1
171
     1
175
     1
179
     1
273
     0
  0
XRECORD
  5
3F6
102
{ACAD_REACTORS
330
3F5
102
}
330
3F5
100
AcDbXrecord
280
     1
102
MATERIAL
148
0.0
149
0.0
149
0.0
 93
        0
 94
      127
282
     0
 72
     1
 77
     1
171
     1
175
     1
179
     1
273
     0
  0
XRECORD
  5
3FA
102
{ACAD_REACTORS
330
3F9
102
}
330
3F9
100
AcDbXrecord
280
     1
102
MATERIAL
148
0.0
149
0.0
149
0.0
 93
        0
 94
      127
282
     0
 72
     1
 77
     1
171
     1
175
     1
179
     1
273
     0
  0
XRECORD
  5
400
102
{ACAD_REACTORS
330
3FF
102
}
330
3FF
100
AcDbXrecord
280
     1
102
ACAD_ROUNDTRIP_2010_MLEADER_STYLE
  0
CELLSTYLEMAP
  5
3FD
102
{ACAD_REACTORS
330
3FB
102
}
330
3FB
100
AcDbCellStyleMap
 90
        3
300
CELLSTYLE
  1
TABLEFORMAT_BEGIN
 90
        5
170
     1
 91
        0
 92
    32768
 62
   257
 93
        1
300
CONTENTFORMAT
  1
CONTENTFORMAT_BEGIN
 90
        0
 91
        0
 92
        4
 93
        0
300

 40
0.0
140
1.0
 94
        5
 62
     0
340
11
144
6.0
309
CONTENTFORMAT_END
171
     1
301
MARGIN
  1
CELLMARGIN_BEGIN
 40
1.5
 40
1.5
 40
1.5
 40
1.5
 40
1.5
 40
1.5
309
CELLMARGIN_END
 94
        6
 95
        1
302
GRIDFORMAT
  1
GRIDFORMAT_BEGIN
 90
        0
 91
        1
 62
     0
 92
       -2
340
14
 93
        0
 40
0.045
309
GRIDFORMAT_END
 95
        2
302
GRIDFORMAT
  1
GRIDFORMAT_BEGIN
 90
        0
 91
        1
 62
     0
 92
       -2
340
14
 93
        0
 40
0.045
309
GRIDFORMAT_END
 95
        4
302
GRIDFORMAT
  1
GRIDFORMAT_BEGIN
 90
        0
 91
        1
 62
     0
 92
       -2
340
14
 93
        0
 40
0.045
309
GRIDFORMAT_END
 95
        8
302
GRIDFORMAT
  1
GRIDFORMAT_BEGIN
 90
        0
 91
        1
 62
     0
 92
       -2
340
14
 93
        0
 40
0.045
309
GRIDFORMAT_END
 95
       16
302
GRIDFORMAT
  1
GRIDFORMAT_BEGIN
 90
        0
 91
        1
 62
     0
 92
       -2
340
14
 93
        0
 40
0.045
309
GRIDFORMAT_END
 95
       32
302
GRIDFORMAT
  1
GRIDFORMAT_BEGIN
 90
        0
 91
        1
 62
     0
 92
       -2
340
14
 93
        0
 40
0.045
309
GRIDFORMAT_END
309
TABLEFORMAT_END
  1
CELLSTYLE_BEGIN
 90
        1
 91
        1
300
_TITLE
309
CELLSTYLE_END
300
CELLSTYLE
  1
TABLEFORMAT_BEGIN
 90
        5
170
     1
 91
        0
 92
        0
 62
   257
 93
        1
300
CONTENTFORMAT
  1
CONTENTFORMAT_BEGIN
 90
        0
 91
        0
 92
        4
 93
        0
300

 40
0.0
140
1.0
 94
        5
 62
     0
340
11
144
4.5
309
CONTENTFORMAT_END
171
     1
301
MARGIN
  1
CELLMARGIN_BEGIN
 40
1.5
 40
1.5
 40
1.5
 40
1.5
 40
1.5
 40
1.5
309
CELLMARGIN_END
 94
        6
 95
        1
302
GRIDFORMAT
  1
GRIDFORMAT_BEGIN
 90
        0
 91
        1
 62
     0
 92
       -2
340
14
 93
        0
 40
0.045
309
GRIDFORMAT_END
 95
        2
302
GRIDFORMAT
  1
GRIDFORMAT_BEGIN
 90
        0
 91
        1
 62
     0
 92
       -2
340
14
 93
        0
 40
0.045
309
GRIDFORMAT_END
 95
        4
302
GRIDFORMAT
  1
GRIDFORMAT_BEGIN
 90
        0
 91
        1
 62
     0
 92
       -2
340
14
 93
        0
 40
0.045
309
GRIDFORMAT_END
 95
        8
302
GRIDFORMAT
  1
GRIDFORMAT_BEGIN
 90
        0
 91
        1
 62
     0
 92
       -2
340
14
 93
        0
 40
0.045
309
GRIDFORMAT_END
 95
       16
302
GRIDFORMAT
  1
GRIDFORMAT_BEGIN
 90
        0
 91
        1
 62
     0
 92
       -2
340
14
 93
        0
 40
0.045
309
GRIDFORMAT_END
 95
       32
302
GRIDFORMAT
  1
GRIDFORMAT_BEGIN
 90
        0
 91
        1
 62
     0
 92
       -2
340
14
 93
        0
 40
0.045
309
GRIDFORMAT_END
309
TABLEFORMAT_END
  1
CELLSTYLE_BEGIN
 90
        2
 91
        1
300
_HEADER
309
CELLSTYLE_END
300
CELLSTYLE
  1
TABLEFORMAT_BEGIN
 90
        5
170
     1
 91
        0
 92
        0
 62
   257
 93
        1
300
CONTENTFORMAT
  1
CONTENTFORMAT_BEGIN
 90
        0
 91
        0
 92
        4
 93
        0
300

 40
0.0
140
1.0
 94
        2
 62
     0
340
11
144
4.5
309
CONTENTFORMAT_END
171
     1
301
MARGIN
  1
CELLMARGIN_BEGIN
 40
1.5
 40
1.5
 40
1.5
 40
1.5
 40
1.5
 40
1.5
309
CELLMARGIN_END
 94
        6
 95
        1
302
GRIDFORMAT
  1
GRIDFORMAT_BEGIN
 90
        0
 91
        1
 62
     0
 92
       -2
340
14
 93
        0
 40
0.045
309
GRIDFORMAT_END
 95
        2
302
GRIDFORMAT
  1
GRIDFORMAT_BEGIN
 90
        0
 91
        1
 62
     0
 92
       -2
340
14
 93
        0
 40
0.045
309
GRIDFORMAT_END
 95
        4
302
GRIDFORMAT
  1
GRIDFORMAT_BEGIN
 90
        0
 91
        1
 62
     0
 92
       -2
340
14
 93
        0
 40
0.045
309
GRIDFORMAT_END
 95
        8
302
GRIDFORMAT
  1
GRIDFORMAT_BEGIN
 90
        0
 91
        1
 62
     0
 92
       -2
340
14
 93
        0
 40
0.045
309
GRIDFORMAT_END
 95
       16
302
GRIDFORMAT
  1
GRIDFORMAT_BEGIN
 90
        0
 91
        1
 62
     0
 92
       -2
340
14
 93
        0
 40
0.045
309
GRIDFORMAT_END
 95
       32
302
GRIDFORMAT
  1
GRIDFORMAT_BEGIN
 90
        0
 91
        1
 62
     0
 92
       -2
340
14
 93
        0
 40
0.045
309
GRIDFORMAT_END
309
TABLEFORMAT_END
  1
CELLSTYLE_BEGIN
 90
        3
 91
        2
300
_DATA
309
CELLSTYLE_END
  0
XRECORD
  5
3FC
102
{ACAD_REACTORS
330
3FB
102
}
330
3FB
100
AcDbXrecord
280
     1
102
ACAD_ROUNDTRIP_PRE2007_TABLESTYLE
 90
        4
 91
        0
  1

 92
        4
 93
        0
  2

 94
        4
 95
        0
  3

  0
XRECORD
  5
3CE
102
{ACAD_REACTORS
330
3CD
102
}
330
3CD
100
AcDbXrecord
280
     1
102
RTVSPropertyOp0
 70
     1
102
RTVSPropertyOp1
 70
     1
102
RTVSPropertyOp2
 70
     1
102
RTVSPropertyOp3
 70
     1
102
RTVSPropertyOp4
 70
     1
102
RTVSPropertyOp5
 70
     1
102
RTVSPropertyOp6
 70
     1
102
RTVSPropertyOp7
 70
     1
102
RTVSPropertyOp8
 70
     1
102
RTVSPropertyOp9
 70
     1
102
RTVSPropertyOp10
 70
     1
102
RTVSPropertyOp11
 70
     1
102
RTVSPropertyOp12
 70
     1
102
RTVSPropertyOp13
 70
     1
102
RTVSPropertyOp14
 70
     1
102
RTVSPropertyOp15
 70
     1
102
RTVSPropertyOp16
 70
     1
102
RTVSPropertyOp17
 70
     1
102
RTVSPropertyOp18
 70
     1
102
RTVSPropertyOp19
 70
     1
102
RTVSPropertyOp20
 70
     1
102
RTVSPropertyOp21
 70
     1
102
RTVSPropertyOp22
 70
     1
102
RTVSPropertyOp23
 70
     1
102
RTVSPropertyOp24
 70
     1
102
RTVSPropertyOp25
 70
     1
102
RTVSPropertyOp26
 70
     1
102
RTVSPropertyOp27
 70
     1
102
RTVSPropertyOp28
 70
     1
102
RTVSPropertyOp29
 70
     1
102
RTVSPropertyOp30
 70
     1
102
RTVSPropertyOp31
 70
     1
102
RTVSPropertyOp32
 70
     1
102
RTVSPropertyOp33
 70
     1
102
RTVSPropertyOp34
 70
     1
102
RTVSPropertyOp35
 70
     1
102
RTVSPropertyOp36
 70
     1
102
RTVSPropertyOp37
 70
     1
102
RTVSPropertyOp38
 70
     1
102
RTVSPropertyOp39
 70
     1
102
RTVSPropertyOp40
 70
     1
102
RTVSPropertyOp41
 70
     1
102
RTVSPropertyOp42
 70
     1
102
RTVSPropertyOp43
 70
     1
102
RTVSPropertyOp44
 70
     1
102
RTVSPropertyOp45
 70
     1
102
RTVSPropertyOp46
 70
     1
102
RTVSPropertyOp47
 70
     1
102
RTVSPropertyOp48
 70
     1
102
RTVSPropertyOp49
 70
     1
102
RTVSPropertyOp50
 70
     1
102
RTVSPropertyOp51
 70
     0
102
RTVSPropertyOp52
 70
     0
102
RTVSPropertyOp53
 70
     1
102
RTVSPropertyOp54
 70
     1
102
RTVSPropertyOp55
 70
     1
102
RTVSPropertyOp56
 70
     1
102
RTVSPropertyOp57
 70
     1
102
RTVSPost2010Prop28
280
     1
102
RTVSPost2010PropOp28
 70
     1
102
RTVSPost2010Prop29
280
     1
102
RTVSPost2010PropOp29
 70
     1
102
RTVSPost2010Prop30
280
     0
102
RTVSPost2010PropOp30
 70
     1
102
RTVSPost2010Prop31
280
     0
102
RTVSPost2010PropOp31
 70
     1
102
RTVSPost2010Prop32
280
     0
102
RTVSPost2010PropOp32
 70
     1
102
RTVSPost2010Prop33
280
     0
102
RTVSPost2010PropOp33
 70
     1
102
RTVSPost2010Prop34
280
     0
102
RTVSPost2010PropOp34
 70
     1
102
RTVSPost2010Prop35
280
     0
102
RTVSPost2010PropOp35
 70
     1
102
RTVSPost2010Prop36
280
     0
102
RTVSPost2010PropOp36
 70
     1
102
RTVSPost2010Prop37
 90
       50
102
RTVSPost2010PropOp37
 70
     1
102
RTVSPost2010Prop38
140
0.0
102
RTVSPost2010PropOp38
 70
     1
102
RTVSPost2010Prop39
140
1.0
102
RTVSPost2010PropOp39
 70
     1
102
RTVSPost2010Prop40
 90
        0
102
RTVSPost2010PropOp40
 70
     1
102
RTVSPost2010Prop41ColorIndex
 90
       18
102
RTVSPost2010Prop41ColorRGB
 90
        0
102
RTVSPost2010PropOp41
 70
     1
102
RTVSPost2010Prop42
 90
       50
102
RTVSPost2010PropOp42
 70
     1
102
RTVSPost2010Prop43
 90
        3
102
RTVSPost2010PropOp43
 70
     1
102
RTVSPost2010Prop44ColorIndex
 90
        5
102
RTVSPost2010Prop44ColorRGB
 90
      255
102
RTVSPost2010PropOp44
 70
     1
102
RTVSPost2010Prop45
280
     0
102
RTVSPost2010PropOp45
 70
     1
102
RTVSPost2010Prop46
 90
       50
102
RTVSPost2010PropOp46
 70
     1
102
RTVSPost2010Prop47
 90
       50
102
RTVSPost2010PropOp47
 70
     1
102
RTVSPost2010Prop48
 90
       50
102
RTVSPost2010PropOp48
 70
     1
102
RTVSPost2010Prop49
280
     0
102
RTVSPost2010PropOp49
 70
     1
102
RTVSPost2010Prop50
 90
       50
102
RTVSPost2010PropOp50
 70
     1
102
RTVSPost2010Prop51ColorIndex
 90
      256
102
RTVSPost2010Prop51ColorRGB
 90
-16777216
102
RTVSPost2010PropOp51
 70
     0
102
RTVSPost2010Prop52
140
1.0
102
RTVSPost2010PropOp52
 70
     0
102
RTVSPost2010Prop53
 90
        2
102
RTVSPost2010PropOp53
 70
     1
102
RTVSPost2010Prop54
  1
strokes_ogs.tif
102
RTVSPost2010PropOp54
 70
     1
102
RTVSPost2010Prop55
280
     0
102
RTVSPost2010PropOp55
 70
     1
102
RTVSPost2010Prop56
140
1.0
102
RTVSPost2010PropOp56
 70
     1
102
RTVSPost2010Prop57
140
1.0
102
RTVSPost2010PropOp57
 70
     1
  0
XRECORD
  5
3D4
102
{ACAD_REACTORS
330
3D3
102
}
330
3D3
100
AcDbXrecord
280
     1
102
RTVSPropertyOp0
 70
     1
102
RTVSPropertyOp1
 70
     1
102
RTVSPropertyOp2
 70
     1
102
RTVSPropertyOp3
 70
     1
102
RTVSPropertyOp4
 70
     1
102
RTVSPropertyOp5
 70
     1
102
RTVSPropertyOp6
 70
     1
102
RTVSPropertyOp7
 70
     1
102
RTVSPropertyOp8
 70
     1
102
RTVSPropertyOp9
 70
     1
102
RTVSPropertyOp10
 70
     1
102
RTVSPropertyOp11
 70
     1
102
RTVSPropertyOp12
 70
     1
102
RTVSPropertyOp13
 70
     1
102
RTVSPropertyOp14
 70
     1
102
RTVSPropertyOp15
 70
     1
102
RTVSPropertyOp16
 70
     1
102
RTVSPropertyOp17
 70
     1
102
RTVSPropertyOp18
 70
     1
102
RTVSPropertyOp19
 70
     1
102
RTVSPropertyOp20
 70
     1
102
RTVSPropertyOp21
 70
     1
102
RTVSPropertyOp22
 70
     1
102
RTVSPropertyOp23
 70
     1
102
RTVSPropertyOp24
 70
     1
102
RTVSPropertyOp25
 70
     1
102
RTVSPropertyOp26
 70
     1
102
RTVSPropertyOp27
 70
     1
102
RTVSPropertyOp28
 70
     1
102
RTVSPropertyOp29
 70
     1
102
RTVSPropertyOp30
 70
     1
102
RTVSPropertyOp31
 70
     1
102
RTVSPropertyOp32
 70
     1
102
RTVSPropertyOp33
 70
     1
102
RTVSPropertyOp34
 70
     1
102
RTVSPropertyOp35
 70
     1
102
RTVSPropertyOp36
 70
     1
102
RTVSPropertyOp37
 70
     1
102
RTVSPropertyOp38
 70
     1
102
RTVSPropertyOp39
 70
     1
102
RTVSPropertyOp40
 70
     1
102
RTVSPropertyOp41
 70
     1
102
RTVSPropertyOp42
 70
     1
102
RTVSPropertyOp43
 70
     1
102
RTVSPropertyOp44
 70
     1
102
RTVSPropertyOp45
 70
     1
102
RTVSPropertyOp46
 70
     1
102
RTVSPropertyOp47
 70
     1
102
RTVSPropertyOp48
 70
     1
102
RTVSPropertyOp49
 70
     1
102
RTVSPropertyOp50
 70
     1
102
RTVSPropertyOp51
 70
     0
102
RTVSPropertyOp52
 70
     0
102
RTVSPropertyOp53
 70
     1
102
RTVSPropertyOp54
 70
     1
102
RTVSPropertyOp55
 70
     1
102
RTVSPropertyOp56
 70
     1
102
RTVSPropertyOp57
 70
     1
102
RTVSPost2010Prop28
280
     0
102
RTVSPost2010PropOp28
 70
     1
102
RTVSPost2010Prop29
280
     1
102
RTVSPost2010PropOp29
 70
     1
102
RTVSPost2010Prop30
280
     1
102
RTVSPost2010PropOp30
 70
     1
102
RTVSPost2010Prop31
280
     0
102
RTVSPost2010PropOp31
 70
     1
102
RTVSPost2010Prop32
280
     0
102
RTVSPost2010PropOp32
 70
     1
102
RTVSPost2010Prop33
280
     0
102
RTVSPost2010PropOp33
 70
     1
102
RTVSPost2010Prop34
280
     0
102
RTVSPost2010PropOp34
 70
     1
102
RTVSPost2010Prop35
280
     0
102
RTVSPost2010PropOp35
 70
     1
102
RTVSPost2010Prop36
280
     0
102
RTVSPost2010PropOp36
 70
     1
102
RTVSPost2010Prop37
 90
       50
102
RTVSPost2010PropOp37
 70
     1
102
RTVSPost2010Prop38
140
0.0
102
RTVSPost2010PropOp38
 70
     1
102
RTVSPost2010Prop39
140
1.0
102
RTVSPost2010PropOp39
 70
     1
102
RTVSPost2010Prop40
 90
        0
102
RTVSPost2010PropOp40
 70
     1
102
RTVSPost2010Prop41ColorIndex
 90
       18
102
RTVSPost2010Prop41ColorRGB
 90
        0
102
RTVSPost2010PropOp41
 70
     1
102
RTVSPost2010Prop42
 90
       50
102
RTVSPost2010PropOp42
 70
     1
102
RTVSPost2010Prop43
 90
        3
102
RTVSPost2010PropOp43
 70
     1
102
RTVSPost2010Prop44ColorIndex
 90
        5
102
RTVSPost2010Prop44ColorRGB
 90
      255
102
RTVSPost2010PropOp44
 70
     1
102
RTVSPost2010Prop45
280
     0
102
RTVSPost2010PropOp45
 70
     1
102
RTVSPost2010Prop46
 90
       50
102
RTVSPost2010PropOp46
 70
     1
102
RTVSPost2010Prop47
 90
       50
102
RTVSPost2010PropOp47
 70
     1
102
RTVSPost2010Prop48
 90
       50
102
RTVSPost2010PropOp48
 70
     1
102
RTVSPost2010Prop49
280
     0
102
RTVSPost2010PropOp49
 70
     1
102
RTVSPost2010Prop50
 90
       50
102
RTVSPost2010PropOp50
 70
     1
102
RTVSPost2010Prop51ColorIndex
 90
      256
102
RTVSPost2010Prop51ColorRGB
 90
-16777216
102
RTVSPost2010PropOp51
 70
     0
102
RTVSPost2010Prop52
140
1.0
102
RTVSPost2010PropOp52
 70
     0
102
RTVSPost2010Prop53
 90
        2
102
RTVSPost2010PropOp53
 70
     1
102
RTVSPost2010Prop54
  1
strokes_ogs.tif
102
RTVSPost2010PropOp54
 70
     1
102
RTVSPost2010Prop55
280
     0
102
RTVSPost2010PropOp55
 70
     1
102
RTVSPost2010Prop56
140
1.0
102
RTVSPost2010PropOp56
 70
     1
102
RTVSPost2010Prop57
140
1.0
102
RTVSPost2010PropOp57
 70
     1
  0
XRECORD
  5
3DC
102
{ACAD_REACTORS
330
3DB
102
}
330
3DB
100
AcDbXrecord
280
     1
102
RTVSPropertyOp0
 70
     1
102
RTVSPropertyOp1
 70
     1
102
RTVSPropertyOp2
 70
     1
102
RTVSPropertyOp3
 70
     1
102
RTVSPropertyOp4
 70
     1
102
RTVSPropertyOp5
 70
     1
102
RTVSPropertyOp6
 70
     1
102
RTVSPropertyOp7
 70
     1
102
RTVSPropertyOp8
 70
     1
102
RTVSPropertyOp9
 70
     1
102
RTVSPropertyOp10
 70
     1
102
RTVSPropertyOp11
 70
     1
102
RTVSPropertyOp12
 70
     1
102
RTVSPropertyOp13
 70
     1
102
RTVSPropertyOp14
 70
     1
102
RTVSPropertyOp15
 70
     1
102
RTVSPropertyOp16
 70
     1
102
RTVSPropertyOp17
 70
     1
102
RTVSPropertyOp18
 70
     1
102
RTVSPropertyOp19
 70
     1
102
RTVSPropertyOp20
 70
     1
102
RTVSPropertyOp21
 70
     1
102
RTVSPropertyOp22
 70
     1
102
RTVSPropertyOp23
 70
     1
102
RTVSPropertyOp24
 70
     1
102
RTVSPropertyOp25
 70
     1
102
RTVSPropertyOp26
 70
     1
102
RTVSPropertyOp27
 70
     1
102
RTVSPropertyOp28
 70
     1
102
RTVSPropertyOp29
 70
     1
102
RTVSPropertyOp30
 70
     1
102
RTVSPropertyOp31
 70
     1
102
RTVSPropertyOp32
 70
     1
102
RTVSPropertyOp33
 70
     1
102
RTVSPropertyOp34
 70
     1
102
RTVSPropertyOp35
 70
     1
102
RTVSPropertyOp36
 70
     1
102
RTVSPropertyOp37
 70
     1
102
RTVSPropertyOp38
 70
     1
102
RTVSPropertyOp39
 70
     1
102
RTVSPropertyOp40
 70
     1
102
RTVSPropertyOp41
 70
     1
102
RTVSPropertyOp42
 70
     1
102
RTVSPropertyOp43
 70
     1
102
RTVSPropertyOp44
 70
     1
102
RTVSPropertyOp45
 70
     1
102
RTVSPropertyOp46
 70
     1
102
RTVSPropertyOp47
 70
     1
102
RTVSPropertyOp48
 70
     1
102
RTVSPropertyOp49
 70
     1
102
RTVSPropertyOp50
 70
     1
102
RTVSPropertyOp51
 70
     0
102
RTVSPropertyOp52
 70
     0
102
RTVSPropertyOp53
 70
     1
102
RTVSPropertyOp54
 70
     1
102
RTVSPropertyOp55
 70
     1
102
RTVSPropertyOp56
 70
     1
102
RTVSPropertyOp57
 70
     1
102
RTVSPost2010Prop28
280
     0
102
RTVSPost2010PropOp28
 70
     1
102
RTVSPost2010Prop29
280
     1
102
RTVSPost2010PropOp29
 70
     1
102
RTVSPost2010Prop30
280
     1
102
RTVSPost2010PropOp30
 70
     1
102
RTVSPost2010Prop31
280
     0
102
RTVSPost2010PropOp31
 70
     1
102
RTVSPost2010Prop32
280
     0
102
RTVSPost2010PropOp32
 70
     1
102
RTVSPost2010Prop33
280
     0
102
RTVSPost2010PropOp33
 70
     1
102
RTVSPost2010Prop34
280
     0
102
RTVSPost2010PropOp34
 70
     1
102
RTVSPost2010Prop35
280
     0
102
RTVSPost2010PropOp35
 70
     1
102
RTVSPost2010Prop36
280
     0
102
RTVSPost2010PropOp36
 70
     1
102
RTVSPost2010Prop37
 90
       50
102
RTVSPost2010PropOp37
 70
     1
102
RTVSPost2010Prop38
140
0.0
102
RTVSPost2010PropOp38
 70
     1
102
RTVSPost2010Prop39
140
1.0
102
RTVSPost2010PropOp39
 70
     1
102
RTVSPost2010Prop40
 90
        0
102
RTVSPost2010PropOp40
 70
     1
102
RTVSPost2010Prop41ColorIndex
 90
       18
102
RTVSPost2010Prop41ColorRGB
 90
        0
102
RTVSPost2010PropOp41
 70
     1
102
RTVSPost2010Prop42
 90
       50
102
RTVSPost2010PropOp42
 70
     1
102
RTVSPost2010Prop43
 90
        3
102
RTVSPost2010PropOp43
 70
     1
102
RTVSPost2010Prop44ColorIndex
 90
        5
102
RTVSPost2010Prop44ColorRGB
 90
      255
102
RTVSPost2010PropOp44
 70
     1
102
RTVSPost2010Prop45
280
     0
102
RTVSPost2010PropOp45
 70
     1
102
RTVSPost2010Prop46
 90
       50
102
RTVSPost2010PropOp46
 70
     1
102
RTVSPost2010Prop47
 90
       50
102
RTVSPost2010PropOp47
 70
     1
102
RTVSPost2010Prop48
 90
       50
102
RTVSPost2010PropOp48
 70
     1
102
RTVSPost2010Prop49
280
     0
102
RTVSPost2010PropOp49
 70
     1
102
RTVSPost2010Prop50
 90
       50
102
RTVSPost2010PropOp50
 70
     1
102
RTVSPost2010Prop51ColorIndex
 90
      256
102
RTVSPost2010Prop51ColorRGB
 90
-16777216
102
RTVSPost2010PropOp51
 70
     0
102
RTVSPost2010Prop52
140
1.0
102
RTVSPost2010PropOp52
 70
     0
102
RTVSPost2010Prop53
 90
        2
102
RTVSPost2010PropOp53
 70
     1
102
RTVSPost2010Prop54
  1
strokes_ogs.tif
102
RTVSPost2010PropOp54
 70
     1
102
RTVSPost2010Prop55
280
     0
102
RTVSPost2010PropOp55
 70
     1
102
RTVSPost2010Prop56
140
1.0
102
RTVSPost2010PropOp56
 70
     1
102
RTVSPost2010Prop57
140
1.0
102
RTVSPost2010PropOp57
 70
     1
  0
XRECORD
  5
3E4
102
{ACAD_REACTORS
330
3E3
102
}
330
3E3
100
AcDbXrecord
280
     1
102
RTVSPropertyOp0
 70
     1
102
RTVSPropertyOp1
 70
     1
102
RTVSPropertyOp2
 70
     1
102
RTVSPropertyOp3
 70
     1
102
RTVSPropertyOp4
 70
     1
102
RTVSPropertyOp5
 70
     1
102
RTVSPropertyOp6
 70
     1
102
RTVSPropertyOp7
 70
     1
102
RTVSPropertyOp8
 70
     1
102
RTVSPropertyOp9
 70
     1
102
RTVSPropertyOp10
 70
     1
102
RTVSPropertyOp11
 70
     1
102
RTVSPropertyOp12
 70
     1
102
RTVSPropertyOp13
 70
     1
102
RTVSPropertyOp14
 70
     1
102
RTVSPropertyOp15
 70
     1
102
RTVSPropertyOp16
 70
     1
102
RTVSPropertyOp17
 70
     1
102
RTVSPropertyOp18
 70
     1
102
RTVSPropertyOp19
 70
     1
102
RTVSPropertyOp20
 70
     1
102
RTVSPropertyOp21
 70
     1
102
RTVSPropertyOp22
 70
     1
102
RTVSPropertyOp23
 70
     1
102
RTVSPropertyOp24
 70
     1
102
RTVSPropertyOp25
 70
     1
102
RTVSPropertyOp26
 70
     1
102
RTVSPropertyOp27
 70
     1
102
RTVSPropertyOp28
 70
     1
102
RTVSPropertyOp29
 70
     1
102
RTVSPropertyOp30
 70
     1
102
RTVSPropertyOp31
 70
     1
102
RTVSPropertyOp32
 70
     1
102
RTVSPropertyOp33
 70
     1
102
RTVSPropertyOp34
 70
     1
102
RTVSPropertyOp35
 70
     1
102
RTVSPropertyOp36
 70
     1
102
RTVSPropertyOp37
 70
     1
102
RTVSPropertyOp38
 70
     1
102
RTVSPropertyOp39
 70
     1
102
RTVSPropertyOp40
 70
     1
102
RTVSPropertyOp41
 70
     1
102
RTVSPropertyOp42
 70
     1
102
RTVSPropertyOp43
 70
     1
102
RTVSPropertyOp44
 70
     1
102
RTVSPropertyOp45
 70
     1
102
RTVSPropertyOp46
 70
     1
102
RTVSPropertyOp47
 70
     1
102
RTVSPropertyOp48
 70
     1
102
RTVSPropertyOp49
 70
     1
102
RTVSPropertyOp50
 70
     1
102
RTVSPropertyOp51
 70
     0
102
RTVSPropertyOp52
 70
     0
102
RTVSPropertyOp53
 70
     1
102
RTVSPropertyOp54
 70
     1
102
RTVSPropertyOp55
 70
     1
102
RTVSPropertyOp56
 70
     1
102
RTVSPropertyOp57
 70
     1
102
RTVSPost2010Prop28
280
     0
102
RTVSPost2010PropOp28
 70
     1
102
RTVSPost2010Prop29
280
     1
102
RTVSPost2010PropOp29
 70
     1
102
RTVSPost2010Prop30
280
     1
102
RTVSPost2010PropOp30
 70
     1
102
RTVSPost2010Prop31
280
     0
102
RTVSPost2010PropOp31
 70
     1
102
RTVSPost2010Prop32
280
     0
102
RTVSPost2010PropOp32
 70
     1
102
RTVSPost2010Prop33
280
     0
102
RTVSPost2010PropOp33
 70
     1
102
RTVSPost2010Prop34
280
     0
102
RTVSPost2010PropOp34
 70
     1
102
RTVSPost2010Prop35
280
     0
102
RTVSPost2010PropOp35
 70
     1
102
RTVSPost2010Prop36
280
     0
102
RTVSPost2010PropOp36
 70
     1
102
RTVSPost2010Prop37
 90
       50
102
RTVSPost2010PropOp37
 70
     1
102
RTVSPost2010Prop38
140
0.0
102
RTVSPost2010PropOp38
 70
     1
102
RTVSPost2010Prop39
140
1.0
102
RTVSPost2010PropOp39
 70
     1
102
RTVSPost2010Prop40
 90
        0
102
RTVSPost2010PropOp40
 70
     1
102
RTVSPost2010Prop41ColorIndex
 90
       18
102
RTVSPost2010Prop41ColorRGB
 90
        0
102
RTVSPost2010PropOp41
 70
     1
102
RTVSPost2010Prop42
 90
       50
102
RTVSPost2010PropOp42
 70
     1
102
RTVSPost2010Prop43
 90
        3
102
RTVSPost2010PropOp43
 70
     1
102
RTVSPost2010Prop44ColorIndex
 90
        5
102
RTVSPost2010Prop44ColorRGB
 90
      255
102
RTVSPost2010PropOp44
 70
     1
102
RTVSPost2010Prop45
280
     0
102
RTVSPost2010PropOp45
 70
     1
102
RTVSPost2010Prop46
 90
       50
102
RTVSPost2010PropOp46
 70
     1
102
RTVSPost2010Prop47
 90
       50
102
RTVSPost2010PropOp47
 70
     1
102
RTVSPost2010Prop48
 90
       50
102
RTVSPost2010PropOp48
 70
     1
102
RTVSPost2010Prop49
280
     0
102
RTVSPost2010PropOp49
 70
     1
102
RTVSPost2010Prop50
 90
       50
102
RTVSPost2010PropOp50
 70
     1
102
RTVSPost2010Prop51ColorIndex
 90
      256
102
RTVSPost2010Prop51ColorRGB
 90
-16777216
102
RTVSPost2010PropOp51
 70
     0
102
RTVSPost2010Prop52
140
1.0
102
RTVSPost2010PropOp52
 70
     0
102
RTVSPost2010Prop53
 90
        2
102
RTVSPost2010PropOp53
 70
     1
102
RTVSPost2010Prop54
  1
strokes_ogs.tif
102
RTVSPost2010PropOp54
 70
     1
102
RTVSPost2010Prop55
280
     0
102
RTVSPost2010PropOp55
 70
     1
102
RTVSPost2010Prop56
140
1.0
102
RTVSPost2010PropOp56
 70
     1
102
RTVSPost2010Prop57
140
1.0
102
RTVSPost2010PropOp57
 70
     1
  0
XRECORD
  5
3D8
102
{ACAD_REACTORS
330
3D7
102
}
330
3D7
100
AcDbXrecord
280
     1
102
RTVSPropertyOp0
 70
     1
102
RTVSPropertyOp1
 70
     1
102
RTVSPropertyOp2
 70
     1
102
RTVSPropertyOp3
 70
     1
102
RTVSPropertyOp4
 70
     1
102
RTVSPropertyOp5
 70
     1
102
RTVSPropertyOp6
 70
     1
102
RTVSPropertyOp7
 70
     1
102
RTVSPropertyOp8
 70
     1
102
RTVSPropertyOp9
 70
     1
102
RTVSPropertyOp10
 70
     1
102
RTVSPropertyOp11
 70
     1
102
RTVSPropertyOp12
 70
     1
102
RTVSPropertyOp13
 70
     1
102
RTVSPropertyOp14
 70
     1
102
RTVSPropertyOp15
 70
     1
102
RTVSPropertyOp16
 70
     1
102
RTVSPropertyOp17
 70
     1
102
RTVSPropertyOp18
 70
     1
102
RTVSPropertyOp19
 70
     1
102
RTVSPropertyOp20
 70
     1
102
RTVSPropertyOp21
 70
     1
102
RTVSPropertyOp22
 70
     1
102
RTVSPropertyOp23
 70
     1
102
RTVSPropertyOp24
 70
     1
102
RTVSPropertyOp25
 70
     1
102
RTVSPropertyOp26
 70
     1
102
RTVSPropertyOp27
 70
     1
102
RTVSPropertyOp28
 70
     1
102
RTVSPropertyOp29
 70
     1
102
RTVSPropertyOp30
 70
     1
102
RTVSPropertyOp31
 70
     1
102
RTVSPropertyOp32
 70
     1
102
RTVSPropertyOp33
 70
     1
102
RTVSPropertyOp34
 70
     1
102
RTVSPropertyOp35
 70
     1
102
RTVSPropertyOp36
 70
     1
102
RTVSPropertyOp37
 70
     1
102
RTVSPropertyOp38
 70
     1
102
RTVSPropertyOp39
 70
     1
102
RTVSPropertyOp40
 70
     1
102
RTVSPropertyOp41
 70
     1
102
RTVSPropertyOp42
 70
     1
102
RTVSPropertyOp43
 70
     1
102
RTVSPropertyOp44
 70
     1
102
RTVSPropertyOp45
 70
     1
102
RTVSPropertyOp46
 70
     1
102
RTVSPropertyOp47
 70
     1
102
RTVSPropertyOp48
 70
     1
102
RTVSPropertyOp49
 70
     1
102
RTVSPropertyOp50
 70
     1
102
RTVSPropertyOp51
 70
     0
102
RTVSPropertyOp52
 70
     0
102
RTVSPropertyOp53
 70
     1
102
RTVSPropertyOp54
 70
     1
102
RTVSPropertyOp55
 70
     1
102
RTVSPropertyOp56
 70
     1
102
RTVSPropertyOp57
 70
     1
102
RTVSPost2010Prop28
280
     0
102
RTVSPost2010PropOp28
 70
     1
102
RTVSPost2010Prop29
280
     1
102
RTVSPost2010PropOp29
 70
     1
102
RTVSPost2010Prop30
280
     1
102
RTVSPost2010PropOp30
 70
     1
102
RTVSPost2010Prop31
280
     0
102
RTVSPost2010PropOp31
 70
     1
102
RTVSPost2010Prop32
280
     0
102
RTVSPost2010PropOp32
 70
     1
102
RTVSPost2010Prop33
280
     0
102
RTVSPost2010PropOp33
 70
     1
102
RTVSPost2010Prop34
280
     0
102
RTVSPost2010PropOp34
 70
     1
102
RTVSPost2010Prop35
280
     0
102
RTVSPost2010PropOp35
 70
     1
102
RTVSPost2010Prop36
280
     0
102
RTVSPost2010PropOp36
 70
     1
102
RTVSPost2010Prop37
 90
       50
102
RTVSPost2010PropOp37
 70
     1
102
RTVSPost2010Prop38
140
0.0
102
RTVSPost2010PropOp38
 70
     1
102
RTVSPost2010Prop39
140
1.0
102
RTVSPost2010PropOp39
 70
     1
102
RTVSPost2010Prop40
 90
        0
102
RTVSPost2010PropOp40
 70
     1
102
RTVSPost2010Prop41ColorIndex
 90
       18
102
RTVSPost2010Prop41ColorRGB
 90
        0
102
RTVSPost2010PropOp41
 70
     1
102
RTVSPost2010Prop42
 90
       50
102
RTVSPost2010PropOp42
 70
     1
102
RTVSPost2010Prop43
 90
        3
102
RTVSPost2010PropOp43
 70
     1
102
RTVSPost2010Prop44ColorIndex
 90
        5
102
RTVSPost2010Prop44ColorRGB
 90
      255
102
RTVSPost2010PropOp44
 70
     1
102
RTVSPost2010Prop45
280
     0
102
RTVSPost2010PropOp45
 70
     1
102
RTVSPost2010Prop46
 90
       50
102
RTVSPost2010PropOp46
 70
     1
102
RTVSPost2010Prop47
 90
       50
102
RTVSPost2010PropOp47
 70
     1
102
RTVSPost2010Prop48
 90
       50
102
RTVSPost2010PropOp48
 70
     1
102
RTVSPost2010Prop49
280
     0
102
RTVSPost2010PropOp49
 70
     1
102
RTVSPost2010Prop50
 90
       50
102
RTVSPost2010PropOp50
 70
     1
102
RTVSPost2010Prop51ColorIndex
 90
      256
102
RTVSPost2010Prop51ColorRGB
 90
-16777216
102
RTVSPost2010PropOp51
 70
     0
102
RTVSPost2010Prop52
140
1.0
102
RTVSPost2010PropOp52
 70
     0
102
RTVSPost2010Prop53
 90
        2
102
RTVSPost2010PropOp53
 70
     1
102
RTVSPost2010Prop54
  1
strokes_ogs.tif
102
RTVSPost2010PropOp54
 70
     1
102
RTVSPost2010Prop55
280
     0
102
RTVSPost2010PropOp55
 70
     1
102
RTVSPost2010Prop56
140
1.0
102
RTVSPost2010PropOp56
 70
     1
102
RTVSPost2010Prop57
140
1.0
102
RTVSPost2010PropOp57
 70
     1
  0
XRECORD
  5
3DA
102
{ACAD_REACTORS
330
3D9
102
}
330
3D9
100
AcDbXrecord
280
     1
102
RTVSPropertyOp0
 70
     1
102
RTVSPropertyOp1
 70
     1
102
RTVSPropertyOp2
 70
     1
102
RTVSPropertyOp3
 70
     1
102
RTVSPropertyOp4
 70
     1
102
RTVSPropertyOp5
 70
     1
102
RTVSPropertyOp6
 70
     1
102
RTVSPropertyOp7
 70
     1
102
RTVSPropertyOp8
 70
     1
102
RTVSPropertyOp9
 70
     1
102
RTVSPropertyOp10
 70
     1
102
RTVSPropertyOp11
 70
     1
102
RTVSPropertyOp12
 70
     1
102
RTVSPropertyOp13
 70
     1
102
RTVSPropertyOp14
 70
     1
102
RTVSPropertyOp15
 70
     1
102
RTVSPropertyOp16
 70
     1
102
RTVSPropertyOp17
 70
     1
102
RTVSPropertyOp18
 70
     1
102
RTVSPropertyOp19
 70
     1
102
RTVSPropertyOp20
 70
     1
102
RTVSPropertyOp21
 70
     1
102
RTVSPropertyOp22
 70
     1
102
RTVSPropertyOp23
 70
     1
102
RTVSPropertyOp24
 70
     1
102
RTVSPropertyOp25
 70
     1
102
RTVSPropertyOp26
 70
     1
102
RTVSPropertyOp27
 70
     1
102
RTVSPropertyOp28
 70
     1
102
RTVSPropertyOp29
 70
     1
102
RTVSPropertyOp30
 70
     1
102
RTVSPropertyOp31
 70
     1
102
RTVSPropertyOp32
 70
     1
102
RTVSPropertyOp33
 70
     1
102
RTVSPropertyOp34
 70
     1
102
RTVSPropertyOp35
 70
     1
102
RTVSPropertyOp36
 70
     1
102
RTVSPropertyOp37
 70
     1
102
RTVSPropertyOp38
 70
     1
102
RTVSPropertyOp39
 70
     1
102
RTVSPropertyOp40
 70
     1
102
RTVSPropertyOp41
 70
     1
102
RTVSPropertyOp42
 70
     1
102
RTVSPropertyOp43
 70
     1
102
RTVSPropertyOp44
 70
     1
102
RTVSPropertyOp45
 70
     1
102
RTVSPropertyOp46
 70
     1
102
RTVSPropertyOp47
 70
     1
102
RTVSPropertyOp48
 70
     1
102
RTVSPropertyOp49
 70
     1
102
RTVSPropertyOp50
 70
     1
102
RTVSPropertyOp51
 70
     0
102
RTVSPropertyOp52
 70
     0
102
RTVSPropertyOp53
 70
     1
102
RTVSPropertyOp54
 70
     1
102
RTVSPropertyOp55
 70
     1
102
RTVSPropertyOp56
 70
     1
102
RTVSPropertyOp57
 70
     1
102
RTVSPost2010Prop28
280
     0
102
RTVSPost2010PropOp28
 70
     1
102
RTVSPost2010Prop29
280
     1
102
RTVSPost2010PropOp29
 70
     1
102
RTVSPost2010Prop30
280
     1
102
RTVSPost2010PropOp30
 70
     1
102
RTVSPost2010Prop31
280
     0
102
RTVSPost2010PropOp31
 70
     1
102
RTVSPost2010Prop32
280
     0
102
RTVSPost2010PropOp32
 70
     1
102
RTVSPost2010Prop33
280
     0
102
RTVSPost2010PropOp33
 70
     1
102
RTVSPost2010Prop34
280
     0
102
RTVSPost2010PropOp34
 70
     1
102
RTVSPost2010Prop35
280
     0
102
RTVSPost2010PropOp35
 70
     1
102
RTVSPost2010Prop36
280
     0
102
RTVSPost2010PropOp36
 70
     1
102
RTVSPost2010Prop37
 90
       50
102
RTVSPost2010PropOp37
 70
     1
102
RTVSPost2010Prop38
140
0.0
102
RTVSPost2010PropOp38
 70
     1
102
RTVSPost2010Prop39
140
1.0
102
RTVSPost2010PropOp39
 70
     1
102
RTVSPost2010Prop40
 90
        0
102
RTVSPost2010PropOp40
 70
     1
102
RTVSPost2010Prop41ColorIndex
 90
       18
102
RTVSPost2010Prop41ColorRGB
 90
        0
102
RTVSPost2010PropOp41
 70
     1
102
RTVSPost2010Prop42
 90
       50
102
RTVSPost2010PropOp42
 70
     1
102
RTVSPost2010Prop43
 90
        3
102
RTVSPost2010PropOp43
 70
     1
102
RTVSPost2010Prop44ColorIndex
 90
        5
102
RTVSPost2010Prop44ColorRGB
 90
      255
102
RTVSPost2010PropOp44
 70
     1
102
RTVSPost2010Prop45
280
     0
102
RTVSPost2010PropOp45
 70
     1
102
RTVSPost2010Prop46
 90
       50
102
RTVSPost2010PropOp46
 70
     1
102
RTVSPost2010Prop47
 90
       50
102
RTVSPost2010PropOp47
 70
     1
102
RTVSPost2010Prop48
 90
       50
102
RTVSPost2010PropOp48
 70
     1
102
RTVSPost2010Prop49
280
     0
102
RTVSPost2010PropOp49
 70
     1
102
RTVSPost2010Prop50
 90
       50
102
RTVSPost2010PropOp50
 70
     1
102
RTVSPost2010Prop51ColorIndex
 90
      256
102
RTVSPost2010Prop51ColorRGB
 90
-16777216
102
RTVSPost2010PropOp51
 70
     0
102
RTVSPost2010Prop52
140
1.0
102
RTVSPost2010PropOp52
 70
     0
102
RTVSPost2010Prop53
 90
        2
102
RTVSPost2010PropOp53
 70
     1
102
RTVSPost2010Prop54
  1
strokes_ogs.tif
102
RTVSPost2010PropOp54
 70
     1
102
RTVSPost2010Prop55
280
     0
102
RTVSPost2010PropOp55
 70
     1
102
RTVSPost2010Prop56
140
1.0
102
RTVSPost2010PropOp56
 70
     1
102
RTVSPost2010Prop57
140
1.0
102
RTVSPost2010PropOp57
 70
     1
  0
XRECORD
  5
3EA
102
{ACAD_REACTORS
330
3E9
102
}
330
3E9
100
AcDbXrecord
280
     1
102
RTVSPropertyOp0
 70
     0
102
RTVSPropertyOp1
 70
     0
102
RTVSPropertyOp2
 70
     0
102
RTVSPropertyOp3
 70
     0
102
RTVSPropertyOp4
 70
     0
102
RTVSPropertyOp5
 70
     0
102
RTVSPropertyOp6
 70
     0
102
RTVSPropertyOp7
 70
     0
102
RTVSPropertyOp8
 70
     0
102
RTVSPropertyOp9
 70
     0
102
RTVSPropertyOp10
 70
     0
102
RTVSPropertyOp11
 70
     0
102
RTVSPropertyOp12
 70
     0
102
RTVSPropertyOp13
 70
     0
102
RTVSPropertyOp14
 70
     2
102
RTVSPropertyOp15
 70
     0
102
RTVSPropertyOp16
 70
     0
102
RTVSPropertyOp17
 70
     0
102
RTVSPropertyOp18
 70
     0
102
RTVSPropertyOp19
 70
     0
102
RTVSPropertyOp20
 70
     0
102
RTVSPropertyOp21
 70
     0
102
RTVSPropertyOp22
 70
     0
102
RTVSPropertyOp23
 70
     0
102
RTVSPropertyOp24
 70
     0
102
RTVSPropertyOp25
 70
     0
102
RTVSPropertyOp26
 70
     0
102
RTVSPropertyOp27
 70
     0
102
RTVSPropertyOp28
 70
     0
102
RTVSPropertyOp29
 70
     0
102
RTVSPropertyOp30
 70
     0
102
RTVSPropertyOp31
 70
     0
102
RTVSPropertyOp32
 70
     0
102
RTVSPropertyOp33
 70
     0
102
RTVSPropertyOp34
 70
     0
102
RTVSPropertyOp35
 70
     0
102
RTVSPropertyOp36
 70
     0
102
RTVSPropertyOp37
 70
     0
102
RTVSPropertyOp38
 70
     0
102
RTVSPropertyOp39
 70
     0
102
RTVSPropertyOp40
 70
     0
102
RTVSPropertyOp41
 70
     0
102
RTVSPropertyOp42
 70
     0
102
RTVSPropertyOp43
 70
     0
102
RTVSPropertyOp44
 70
     0
102
RTVSPropertyOp45
 70
     0
102
RTVSPropertyOp46
 70
     0
102
RTVSPropertyOp47
 70
     0
102
RTVSPropertyOp48
 70
     0
102
RTVSPropertyOp49
 70
     0
102
RTVSPropertyOp50
 70
     0
102
RTVSPropertyOp51
 70
     0
102
RTVSPropertyOp52
 70
     0
102
RTVSPropertyOp53
 70
     0
102
RTVSPropertyOp54
 70
     0
102
RTVSPropertyOp55
 70
     0
102
RTVSPropertyOp56
 70
     0
102
RTVSPropertyOp57
 70
     0
102
RTVSPost2010Prop28
280
     0
102
RTVSPost2010PropOp28
 70
     0
102
RTVSPost2010Prop29
280
     1
102
RTVSPost2010PropOp29
 70
     0
102
RTVSPost2010Prop30
280
     1
102
RTVSPost2010PropOp30
 70
     0
102
RTVSPost2010Prop31
280
     0
102
RTVSPost2010PropOp31
 70
     0
102
RTVSPost2010Prop32
280
     0
102
RTVSPost2010PropOp32
 70
     0
102
RTVSPost2010Prop33
280
     0
102
RTVSPost2010PropOp33
 70
     0
102
RTVSPost2010Prop34
280
     0
102
RTVSPost2010PropOp34
 70
     0
102
RTVSPost2010Prop35
280
     0
102
RTVSPost2010PropOp35
 70
     0
102
RTVSPost2010Prop36
280
     0
102
RTVSPost2010PropOp36
 70
     0
102
RTVSPost2010Prop37
 90
       50
102
RTVSPost2010PropOp37
 70
     0
102
RTVSPost2010Prop38
140
0.0
102
RTVSPost2010PropOp38
 70
     0
102
RTVSPost2010Prop39
140
1.0
102
RTVSPost2010PropOp39
 70
     0
102
RTVSPost2010Prop40
 90
        0
102
RTVSPost2010PropOp40
 70
     0
102
RTVSPost2010Prop41ColorIndex
 90
       18
102
RTVSPost2010Prop41ColorRGB
 90
        0
102
RTVSPost2010PropOp41
 70
     0
102
RTVSPost2010Prop42
 90
       50
102
RTVSPost2010PropOp42
 70
     0
102
RTVSPost2010Prop43
 90
        3
102
RTVSPost2010PropOp43
 70
     0
102
RTVSPost2010Prop44ColorIndex
 90
        5
102
RTVSPost2010Prop44ColorRGB
 90
      255
102
RTVSPost2010PropOp44
 70
     0
102
RTVSPost2010Prop45
280
     0
102
RTVSPost2010PropOp45
 70
     0
102
RTVSPost2010Prop46
 90
       50
102
RTVSPost2010PropOp46
 70
     0
102
RTVSPost2010Prop47
 90
       50
102
RTVSPost2010PropOp47
 70
     0
102
RTVSPost2010Prop48
 90
       50
102
RTVSPost2010PropOp48
 70
     0
102
RTVSPost2010Prop49
280
     0
102
RTVSPost2010PropOp49
 70
     0
102
RTVSPost2010Prop50
 90
       50
102
RTVSPost2010PropOp50
 70
     0
102
RTVSPost2010Prop51ColorIndex
 90
      256
102
RTVSPost2010Prop51ColorRGB
 90
-16777216
102
RTVSPost2010PropOp51
 70
     0
102
RTVSPost2010Prop52
140
1.0
102
RTVSPost2010PropOp52
 70
     0
102
RTVSPost2010Prop53
 90
        2
102
RTVSPost2010PropOp53
 70
     0
102
RTVSPost2010Prop54
  1
strokes_ogs.tif
102
RTVSPost2010PropOp54
 70
     0
102
RTVSPost2010Prop55
280
     0
102
RTVSPost2010PropOp55
 70
     0
102
RTVSPost2010Prop56
140
1.0
102
RTVSPost2010PropOp56
 70
     0
102
RTVSPost2010Prop57
140
1.0
102
RTVSPost2010PropOp57
 70
     0
  0
XRECORD
  5
3E2
102
{ACAD_REACTORS
330
3E1
102
}
330
3E1
100
AcDbXrecord
280
     1
102
RTVSPropertyOp0
 70
     1
102
RTVSPropertyOp1
 70
     1
102
RTVSPropertyOp2
 70
     1
102
RTVSPropertyOp3
 70
     1
102
RTVSPropertyOp4
 70
     1
102
RTVSPropertyOp5
 70
     1
102
RTVSPropertyOp6
 70
     1
102
RTVSPropertyOp7
 70
     1
102
RTVSPropertyOp8
 70
     1
102
RTVSPropertyOp9
 70
     1
102
RTVSPropertyOp10
 70
     1
102
RTVSPropertyOp11
 70
     1
102
RTVSPropertyOp12
 70
     1
102
RTVSPropertyOp13
 70
     1
102
RTVSPropertyOp14
 70
     1
102
RTVSPropertyOp15
 70
     1
102
RTVSPropertyOp16
 70
     1
102
RTVSPropertyOp17
 70
     1
102
RTVSPropertyOp18
 70
     1
102
RTVSPropertyOp19
 70
     1
102
RTVSPropertyOp20
 70
     1
102
RTVSPropertyOp21
 70
     1
102
RTVSPropertyOp22
 70
     1
102
RTVSPropertyOp23
 70
     1
102
RTVSPropertyOp24
 70
     1
102
RTVSPropertyOp25
 70
     1
102
RTVSPropertyOp26
 70
     1
102
RTVSPropertyOp27
 70
     1
102
RTVSPropertyOp28
 70
     1
102
RTVSPropertyOp29
 70
     1
102
RTVSPropertyOp30
 70
     1
102
RTVSPropertyOp31
 70
     1
102
RTVSPropertyOp32
 70
     1
102
RTVSPropertyOp33
 70
     1
102
RTVSPropertyOp34
 70
     1
102
RTVSPropertyOp35
 70
     1
102
RTVSPropertyOp36
 70
     1
102
RTVSPropertyOp37
 70
     1
102
RTVSPropertyOp38
 70
     1
102
RTVSPropertyOp39
 70
     1
102
RTVSPropertyOp40
 70
     1
102
RTVSPropertyOp41
 70
     1
102
RTVSPropertyOp42
 70
     1
102
RTVSPropertyOp43
 70
     1
102
RTVSPropertyOp44
 70
     1
102
RTVSPropertyOp45
 70
     1
102
RTVSPropertyOp46
 70
     1
102
RTVSPropertyOp47
 70
     1
102
RTVSPropertyOp48
 70
     1
102
RTVSPropertyOp49
 70
     1
102
RTVSPropertyOp50
 70
     1
102
RTVSPropertyOp51
 70
     0
102
RTVSPropertyOp52
 70
     0
102
RTVSPropertyOp53
 70
     1
102
RTVSPropertyOp54
 70
     1
102
RTVSPropertyOp55
 70
     1
102
RTVSPropertyOp56
 70
     1
102
RTVSPropertyOp57
 70
     1
102
RTVSPost2010Prop28
280
     0
102
RTVSPost2010PropOp28
 70
     1
102
RTVSPost2010Prop29
280
     1
102
RTVSPost2010PropOp29
 70
     1
102
RTVSPost2010Prop30
280
     1
102
RTVSPost2010PropOp30
 70
     1
102
RTVSPost2010Prop31
280
     0
102
RTVSPost2010PropOp31
 70
     1
102
RTVSPost2010Prop32
280
     0
102
RTVSPost2010PropOp32
 70
     1
102
RTVSPost2010Prop33
280
     0
102
RTVSPost2010PropOp33
 70
     1
102
RTVSPost2010Prop34
280
     0
102
RTVSPost2010PropOp34
 70
     1
102
RTVSPost2010Prop35
280
     0
102
RTVSPost2010PropOp35
 70
     1
102
RTVSPost2010Prop36
280
     0
102
RTVSPost2010PropOp36
 70
     1
102
RTVSPost2010Prop37
 90
       50
102
RTVSPost2010PropOp37
 70
     1
102
RTVSPost2010Prop38
140
0.0
102
RTVSPost2010PropOp38
 70
     1
102
RTVSPost2010Prop39
140
1.0
102
RTVSPost2010PropOp39
 70
     1
102
RTVSPost2010Prop40
 90
        0
102
RTVSPost2010PropOp40
 70
     1
102
RTVSPost2010Prop41ColorIndex
 90
       18
102
RTVSPost2010Prop41ColorRGB
 90
        0
102
RTVSPost2010PropOp41
 70
     1
102
RTVSPost2010Prop42
 90
       50
102
RTVSPost2010PropOp42
 70
     1
102
RTVSPost2010Prop43
 90
        3
102
RTVSPost2010PropOp43
 70
     1
102
RTVSPost2010Prop44ColorIndex
 90
        5
102
RTVSPost2010Prop44ColorRGB
 90
      255
102
RTVSPost2010PropOp44
 70
     1
102
RTVSPost2010Prop45
280
     0
102
RTVSPost2010PropOp45
 70
     1
102
RTVSPost2010Prop46
 90
       50
102
RTVSPost2010PropOp46
 70
     1
102
RTVSPost2010Prop47
 90
       50
102
RTVSPost2010PropOp47
 70
     1
102
RTVSPost2010Prop48
 90
       50
102
RTVSPost2010PropOp48
 70
     1
102
RTVSPost2010Prop49
280
     0
102
RTVSPost2010PropOp49
 70
     1
102
RTVSPost2010Prop50
 90
       50
102
RTVSPost2010PropOp50
 70
     1
102
RTVSPost2010Prop51ColorIndex
 90
      256
102
RTVSPost2010Prop51ColorRGB
 90
-16777216
102
RTVSPost2010PropOp51
 70
     0
102
RTVSPost2010Prop52
140
1.0
102
RTVSPost2010PropOp52
 70
     0
102
RTVSPost2010Prop53
 90
        2
102
RTVSPost2010PropOp53
 70
     1
102
RTVSPost2010Prop54
  1
strokes_ogs.tif
102
RTVSPost2010PropOp54
 70
     1
102
RTVSPost2010Prop55
280
     0
102
RTVSPost2010PropOp55
 70
     1
102
RTVSPost2010Prop56
140
1.0
102
RTVSPost2010PropOp56
 70
     1
102
RTVSPost2010Prop57
140
1.0
102
RTVSPost2010PropOp57
 70
     1
  0
XRECORD
  5
3C6
102
{ACAD_REACTORS
330
3C5
102
}
330
3C5
100
AcDbXrecord
280
     1
102
RTVSPropertyOp0
 70
     1
102
RTVSPropertyOp1
 70
     1
102
RTVSPropertyOp2
 70
     1
102
RTVSPropertyOp3
 70
     1
102
RTVSPropertyOp4
 70
     1
102
RTVSPropertyOp5
 70
     1
102
RTVSPropertyOp6
 70
     1
102
RTVSPropertyOp7
 70
     1
102
RTVSPropertyOp8
 70
     1
102
RTVSPropertyOp9
 70
     1
102
RTVSPropertyOp10
 70
     1
102
RTVSPropertyOp11
 70
     1
102
RTVSPropertyOp12
 70
     1
102
RTVSPropertyOp13
 70
     1
102
RTVSPropertyOp14
 70
     1
102
RTVSPropertyOp15
 70
     1
102
RTVSPropertyOp16
 70
     1
102
RTVSPropertyOp17
 70
     1
102
RTVSPropertyOp18
 70
     1
102
RTVSPropertyOp19
 70
     1
102
RTVSPropertyOp20
 70
     1
102
RTVSPropertyOp21
 70
     1
102
RTVSPropertyOp22
 70
     1
102
RTVSPropertyOp23
 70
     1
102
RTVSPropertyOp24
 70
     1
102
RTVSPropertyOp25
 70
     1
102
RTVSPropertyOp26
 70
     1
102
RTVSPropertyOp27
 70
     1
102
RTVSPropertyOp28
 70
     1
102
RTVSPropertyOp29
 70
     1
102
RTVSPropertyOp30
 70
     1
102
RTVSPropertyOp31
 70
     1
102
RTVSPropertyOp32
 70
     1
102
RTVSPropertyOp33
 70
     1
102
RTVSPropertyOp34
 70
     1
102
RTVSPropertyOp35
 70
     1
102
RTVSPropertyOp36
 70
     1
102
RTVSPropertyOp37
 70
     1
102
RTVSPropertyOp38
 70
     1
102
RTVSPropertyOp39
 70
     1
102
RTVSPropertyOp40
 70
     1
102
RTVSPropertyOp41
 70
     1
102
RTVSPropertyOp42
 70
     1
102
RTVSPropertyOp43
 70
     1
102
RTVSPropertyOp44
 70
     1
102
RTVSPropertyOp45
 70
     1
102
RTVSPropertyOp46
 70
     1
102
RTVSPropertyOp47
 70
     1
102
RTVSPropertyOp48
 70
     1
102
RTVSPropertyOp49
 70
     1
102
RTVSPropertyOp50
 70
     1
102
RTVSPropertyOp51
 70
     0
102
RTVSPropertyOp52
 70
     0
102
RTVSPropertyOp53
 70
     1
102
RTVSPropertyOp54
 70
     1
102
RTVSPropertyOp55
 70
     1
102
RTVSPropertyOp56
 70
     1
102
RTVSPropertyOp57
 70
     1
102
RTVSPost2010Prop28
280
     0
102
RTVSPost2010PropOp28
 70
     1
102
RTVSPost2010Prop29
280
     1
102
RTVSPost2010PropOp29
 70
     1
102
RTVSPost2010Prop30
280
     1
102
RTVSPost2010PropOp30
 70
     1
102
RTVSPost2010Prop31
280
     0
102
RTVSPost2010PropOp31
 70
     1
102
RTVSPost2010Prop32
280
     0
102
RTVSPost2010PropOp32
 70
     1
102
RTVSPost2010Prop33
280
     0
102
RTVSPost2010PropOp33
 70
     1
102
RTVSPost2010Prop34
280
     0
102
RTVSPost2010PropOp34
 70
     1
102
RTVSPost2010Prop35
280
     0
102
RTVSPost2010PropOp35
 70
     1
102
RTVSPost2010Prop36
280
     0
102
RTVSPost2010PropOp36
 70
     1
102
RTVSPost2010Prop37
 90
       50
102
RTVSPost2010PropOp37
 70
     1
102
RTVSPost2010Prop38
140
0.0
102
RTVSPost2010PropOp38
 70
     1
102
RTVSPost2010Prop39
140
1.0
102
RTVSPost2010PropOp39
 70
     1
102
RTVSPost2010Prop40
 90
        0
102
RTVSPost2010PropOp40
 70
     1
102
RTVSPost2010Prop41ColorIndex
 90
       18
102
RTVSPost2010Prop41ColorRGB
 90
        0
102
RTVSPost2010PropOp41
 70
     1
102
RTVSPost2010Prop42
 90
       50
102
RTVSPost2010PropOp42
 70
     1
102
RTVSPost2010Prop43
 90
        3
102
RTVSPost2010PropOp43
 70
     1
102
RTVSPost2010Prop44ColorIndex
 90
        5
102
RTVSPost2010Prop44ColorRGB
 90
      255
102
RTVSPost2010PropOp44
 70
     1
102
RTVSPost2010Prop45
280
     0
102
RTVSPost2010PropOp45
 70
     1
102
RTVSPost2010Prop46
 90
       50
102
RTVSPost2010PropOp46
 70
     1
102
RTVSPost2010Prop47
 90
       50
102
RTVSPost2010PropOp47
 70
     1
102
RTVSPost2010Prop48
 90
       50
102
RTVSPost2010PropOp48
 70
     1
102
RTVSPost2010Prop49
280
     0
102
RTVSPost2010PropOp49
 70
     1
102
RTVSPost2010Prop50
 90
       50
102
RTVSPost2010PropOp50
 70
     1
102
RTVSPost2010Prop51ColorIndex
 90
      256
102
RTVSPost2010Prop51ColorRGB
 90
-16777216
102
RTVSPost2010PropOp51
 70
     0
102
RTVSPost2010Prop52
140
1.0
102
RTVSPost2010PropOp52
 70
     0
102
RTVSPost2010Prop53
 90
        2
102
RTVSPost2010PropOp53
 70
     1
102
RTVSPost2010Prop54
  1
strokes_ogs.tif
102
RTVSPost2010PropOp54
 70
     1
102
RTVSPost2010Prop55
280
     0
102
RTVSPost2010PropOp55
 70
     1
102
RTVSPost2010Prop56
140
1.0
102
RTVSPost2010PropOp56
 70
     1
102
RTVSPost2010Prop57
140
1.0
102
RTVSPost2010PropOp57
 70
     1
  0
XRECORD
  5
3C8
102
{ACAD_REACTORS
330
3C7
102
}
330
3C7
100
AcDbXrecord
280
     1
102
RTVSPropertyOp0
 70
     1
102
RTVSPropertyOp1
 70
     1
102
RTVSPropertyOp2
 70
     1
102
RTVSPropertyOp3
 70
     1
102
RTVSPropertyOp4
 70
     1
102
RTVSPropertyOp5
 70
     1
102
RTVSPropertyOp6
 70
     1
102
RTVSPropertyOp7
 70
     1
102
RTVSPropertyOp8
 70
     1
102
RTVSPropertyOp9
 70
     1
102
RTVSPropertyOp10
 70
     1
102
RTVSPropertyOp11
 70
     1
102
RTVSPropertyOp12
 70
     1
102
RTVSPropertyOp13
 70
     1
102
RTVSPropertyOp14
 70
     1
102
RTVSPropertyOp15
 70
     1
102
RTVSPropertyOp16
 70
     1
102
RTVSPropertyOp17
 70
     1
102
RTVSPropertyOp18
 70
     1
102
RTVSPropertyOp19
 70
     1
102
RTVSPropertyOp20
 70
     1
102
RTVSPropertyOp21
 70
     1
102
RTVSPropertyOp22
 70
     1
102
RTVSPropertyOp23
 70
     1
102
RTVSPropertyOp24
 70
     1
102
RTVSPropertyOp25
 70
     1
102
RTVSPropertyOp26
 70
     1
102
RTVSPropertyOp27
 70
     1
102
RTVSPropertyOp28
 70
     1
102
RTVSPropertyOp29
 70
     1
102
RTVSPropertyOp30
 70
     1
102
RTVSPropertyOp31
 70
     1
102
RTVSPropertyOp32
 70
     1
102
RTVSPropertyOp33
 70
     1
102
RTVSPropertyOp34
 70
     1
102
RTVSPropertyOp35
 70
     1
102
RTVSPropertyOp36
 70
     1
102
RTVSPropertyOp37
 70
     1
102
RTVSPropertyOp38
 70
     1
102
RTVSPropertyOp39
 70
     1
102
RTVSPropertyOp40
 70
     1
102
RTVSPropertyOp41
 70
     1
102
RTVSPropertyOp42
 70
     1
102
RTVSPropertyOp43
 70
     1
102
RTVSPropertyOp44
 70
     1
102
RTVSPropertyOp45
 70
     1
102
RTVSPropertyOp46
 70
     1
102
RTVSPropertyOp47
 70
     1
102
RTVSPropertyOp48
 70
     1
102
RTVSPropertyOp49
 70
     1
102
RTVSPropertyOp50
 70
     1
102
RTVSPropertyOp51
 70
     0
102
RTVSPropertyOp52
 70
     0
102
RTVSPropertyOp53
 70
     1
102
RTVSPropertyOp54
 70
     1
102
RTVSPropertyOp55
 70
     1
102
RTVSPropertyOp56
 70
     1
102
RTVSPropertyOp57
 70
     1
102
RTVSPost2010Prop28
280
     0
102
RTVSPost2010PropOp28
 70
     1
102
RTVSPost2010Prop29
280
     1
102
RTVSPost2010PropOp29
 70
     1
102
RTVSPost2010Prop30
280
     1
102
RTVSPost2010PropOp30
 70
     1
102
RTVSPost2010Prop31
280
     0
102
RTVSPost2010PropOp31
 70
     1
102
RTVSPost2010Prop32
280
     0
102
RTVSPost2010PropOp32
 70
     1
102
RTVSPost2010Prop33
280
     0
102
RTVSPost2010PropOp33
 70
     1
102
RTVSPost2010Prop34
280
     0
102
RTVSPost2010PropOp34
 70
     1
102
RTVSPost2010Prop35
280
     0
102
RTVSPost2010PropOp35
 70
     1
102
RTVSPost2010Prop36
280
     0
102
RTVSPost2010PropOp36
 70
     1
102
RTVSPost2010Prop37
 90
       50
102
RTVSPost2010PropOp37
 70
     1
102
RTVSPost2010Prop38
140
0.0
102
RTVSPost2010PropOp38
 70
     1
102
RTVSPost2010Prop39
140
1.0
102
RTVSPost2010PropOp39
 70
     1
102
RTVSPost2010Prop40
 90
        0
102
RTVSPost2010PropOp40
 70
     1
102
RTVSPost2010Prop41ColorIndex
 90
       18
102
RTVSPost2010Prop41ColorRGB
 90
        0
102
RTVSPost2010PropOp41
 70
     1
102
RTVSPost2010Prop42
 90
       50
102
RTVSPost2010PropOp42
 70
     1
102
RTVSPost2010Prop43
 90
        3
102
RTVSPost2010PropOp43
 70
     1
102
RTVSPost2010Prop44ColorIndex
 90
        5
102
RTVSPost2010Prop44ColorRGB
 90
      255
102
RTVSPost2010PropOp44
 70
     1
102
RTVSPost2010Prop45
280
     0
102
RTVSPost2010PropOp45
 70
     1
102
RTVSPost2010Prop46
 90
       50
102
RTVSPost2010PropOp46
 70
     1
102
RTVSPost2010Prop47
 90
       50
102
RTVSPost2010PropOp47
 70
     1
102
RTVSPost2010Prop48
 90
       50
102
RTVSPost2010PropOp48
 70
     1
102
RTVSPost2010Prop49
280
     0
102
RTVSPost2010PropOp49
 70
     1
102
RTVSPost2010Prop50
 90
       50
102
RTVSPost2010PropOp50
 70
     1
102
RTVSPost2010Prop51ColorIndex
 90
      256
102
RTVSPost2010Prop51ColorRGB
 90
-16777216
102
RTVSPost2010PropOp51
 70
     0
102
RTVSPost2010Prop52
140
1.0
102
RTVSPost2010PropOp52
 70
     0
102
RTVSPost2010Prop53
 90
        2
102
RTVSPost2010PropOp53
 70
     1
102
RTVSPost2010Prop54
  1
strokes_ogs.tif
102
RTVSPost2010PropOp54
 70
     1
102
RTVSPost2010Prop55
280
     0
102
RTVSPost2010PropOp55
 70
     1
102
RTVSPost2010Prop56
140
1.0
102
RTVSPost2010PropOp56
 70
     1
102
RTVSPost2010Prop57
140
1.0
102
RTVSPost2010PropOp57
 70
     1
  0
XRECORD
  5
3CA
102
{ACAD_REACTORS
330
3C9
102
}
330
3C9
100
AcDbXrecord
280
     1
102
RTVSPropertyOp0
 70
     1
102
RTVSPropertyOp1
 70
     1
102
RTVSPropertyOp2
 70
     1
102
RTVSPropertyOp3
 70
     1
102
RTVSPropertyOp4
 70
     1
102
RTVSPropertyOp5
 70
     1
102
RTVSPropertyOp6
 70
     1
102
RTVSPropertyOp7
 70
     1
102
RTVSPropertyOp8
 70
     1
102
RTVSPropertyOp9
 70
     1
102
RTVSPropertyOp10
 70
     1
102
RTVSPropertyOp11
 70
     1
102
RTVSPropertyOp12
 70
     1
102
RTVSPropertyOp13
 70
     1
102
RTVSPropertyOp14
 70
     1
102
RTVSPropertyOp15
 70
     1
102
RTVSPropertyOp16
 70
     1
102
RTVSPropertyOp17
 70
     1
102
RTVSPropertyOp18
 70
     1
102
RTVSPropertyOp19
 70
     1
102
RTVSPropertyOp20
 70
     1
102
RTVSPropertyOp21
 70
     1
102
RTVSPropertyOp22
 70
     1
102
RTVSPropertyOp23
 70
     1
102
RTVSPropertyOp24
 70
     1
102
RTVSPropertyOp25
 70
     1
102
RTVSPropertyOp26
 70
     1
102
RTVSPropertyOp27
 70
     1
102
RTVSPropertyOp28
 70
     1
102
RTVSPropertyOp29
 70
     1
102
RTVSPropertyOp30
 70
     1
102
RTVSPropertyOp31
 70
     1
102
RTVSPropertyOp32
 70
     1
102
RTVSPropertyOp33
 70
     1
102
RTVSPropertyOp34
 70
     1
102
RTVSPropertyOp35
 70
     1
102
RTVSPropertyOp36
 70
     1
102
RTVSPropertyOp37
 70
     1
102
RTVSPropertyOp38
 70
     1
102
RTVSPropertyOp39
 70
     1
102
RTVSPropertyOp40
 70
     1
102
RTVSPropertyOp41
 70
     1
102
RTVSPropertyOp42
 70
     1
102
RTVSPropertyOp43
 70
     1
102
RTVSPropertyOp44
 70
     1
102
RTVSPropertyOp45
 70
     1
102
RTVSPropertyOp46
 70
     1
102
RTVSPropertyOp47
 70
     1
102
RTVSPropertyOp48
 70
     1
102
RTVSPropertyOp49
 70
     1
102
RTVSPropertyOp50
 70
     1
102
RTVSPropertyOp51
 70
     0
102
RTVSPropertyOp52
 70
     0
102
RTVSPropertyOp53
 70
     1
102
RTVSPropertyOp54
 70
     1
102
RTVSPropertyOp55
 70
     1
102
RTVSPropertyOp56
 70
     1
102
RTVSPropertyOp57
 70
     1
102
RTVSPost2010Prop28
280
     0
102
RTVSPost2010PropOp28
 70
     1
102
RTVSPost2010Prop29
280
     1
102
RTVSPost2010PropOp29
 70
     1
102
RTVSPost2010Prop30
280
     1
102
RTVSPost2010PropOp30
 70
     1
102
RTVSPost2010Prop31
280
     0
102
RTVSPost2010PropOp31
 70
     1
102
RTVSPost2010Prop32
280
     0
102
RTVSPost2010PropOp32
 70
     1
102
RTVSPost2010Prop33
280
     0
102
RTVSPost2010PropOp33
 70
     1
102
RTVSPost2010Prop34
280
     0
102
RTVSPost2010PropOp34
 70
     1
102
RTVSPost2010Prop35
280
     0
102
RTVSPost2010PropOp35
 70
     1
102
RTVSPost2010Prop36
280
     0
102
RTVSPost2010PropOp36
 70
     1
102
RTVSPost2010Prop37
 90
       50
102
RTVSPost2010PropOp37
 70
     1
102
RTVSPost2010Prop38
140
0.0
102
RTVSPost2010PropOp38
 70
     1
102
RTVSPost2010Prop39
140
1.0
102
RTVSPost2010PropOp39
 70
     1
102
RTVSPost2010Prop40
 90
        0
102
RTVSPost2010PropOp40
 70
     1
102
RTVSPost2010Prop41ColorIndex
 90
       18
102
RTVSPost2010Prop41ColorRGB
 90
        0
102
RTVSPost2010PropOp41
 70
     1
102
RTVSPost2010Prop42
 90
       50
102
RTVSPost2010PropOp42
 70
     1
102
RTVSPost2010Prop43
 90
        3
102
RTVSPost2010PropOp43
 70
     1
102
RTVSPost2010Prop44ColorIndex
 90
        5
102
RTVSPost2010Prop44ColorRGB
 90
      255
102
RTVSPost2010PropOp44
 70
     1
102
RTVSPost2010Prop45
280
     0
102
RTVSPost2010PropOp45
 70
     1
102
RTVSPost2010Prop46
 90
       50
102
RTVSPost2010PropOp46
 70
     1
102
RTVSPost2010Prop47
 90
       50
102
RTVSPost2010PropOp47
 70
     1
102
RTVSPost2010Prop48
 90
       50
102
RTVSPost2010PropOp48
 70
     1
102
RTVSPost2010Prop49
280
     0
102
RTVSPost2010PropOp49
 70
     1
102
RTVSPost2010Prop50
 90
       50
102
RTVSPost2010PropOp50
 70
     1
102
RTVSPost2010Prop51ColorIndex
 90
      256
102
RTVSPost2010Prop51ColorRGB
 90
-16777216
102
RTVSPost2010PropOp51
 70
     0
102
RTVSPost2010Prop52
140
1.0
102
RTVSPost2010PropOp52
 70
     0
102
RTVSPost2010Prop53
 90
        2
102
RTVSPost2010PropOp53
 70
     1
102
RTVSPost2010Prop54
  1
strokes_ogs.tif
102
RTVSPost2010PropOp54
 70
     1
102
RTVSPost2010Prop55
280
     0
102
RTVSPost2010PropOp55
 70
     1
102
RTVSPost2010Prop56
140
1.0
102
RTVSPost2010PropOp56
 70
     1
102
RTVSPost2010Prop57
140
1.0
102
RTVSPost2010PropOp57
 70
     1
  0
XRECORD
  5
3CC
102
{ACAD_REACTORS
330
3CB
102
}
330
3CB
100
AcDbXrecord
280
     1
102
RTVSPropertyOp0
 70
     1
102
RTVSPropertyOp1
 70
     1
102
RTVSPropertyOp2
 70
     1
102
RTVSPropertyOp3
 70
     1
102
RTVSPropertyOp4
 70
     1
102
RTVSPropertyOp5
 70
     1
102
RTVSPropertyOp6
 70
     1
102
RTVSPropertyOp7
 70
     1
102
RTVSPropertyOp8
 70
     1
102
RTVSPropertyOp9
 70
     1
102
RTVSPropertyOp10
 70
     1
102
RTVSPropertyOp11
 70
     1
102
RTVSPropertyOp12
 70
     1
102
RTVSPropertyOp13
 70
     1
102
RTVSPropertyOp14
 70
     1
102
RTVSPropertyOp15
 70
     1
102
RTVSPropertyOp16
 70
     1
102
RTVSPropertyOp17
 70
     1
102
RTVSPropertyOp18
 70
     1
102
RTVSPropertyOp19
 70
     1
102
RTVSPropertyOp20
 70
     1
102
RTVSPropertyOp21
 70
     1
102
RTVSPropertyOp22
 70
     1
102
RTVSPropertyOp23
 70
     1
102
RTVSPropertyOp24
 70
     1
102
RTVSPropertyOp25
 70
     1
102
RTVSPropertyOp26
 70
     1
102
RTVSPropertyOp27
 70
     1
102
RTVSPropertyOp28
 70
     1
102
RTVSPropertyOp29
 70
     1
102
RTVSPropertyOp30
 70
     1
102
RTVSPropertyOp31
 70
     1
102
RTVSPropertyOp32
 70
     1
102
RTVSPropertyOp33
 70
     1
102
RTVSPropertyOp34
 70
     1
102
RTVSPropertyOp35
 70
     1
102
RTVSPropertyOp36
 70
     1
102
RTVSPropertyOp37
 70
     1
102
RTVSPropertyOp38
 70
     1
102
RTVSPropertyOp39
 70
     1
102
RTVSPropertyOp40
 70
     1
102
RTVSPropertyOp41
 70
     1
102
RTVSPropertyOp42
 70
     1
102
RTVSPropertyOp43
 70
     1
102
RTVSPropertyOp44
 70
     1
102
RTVSPropertyOp45
 70
     1
102
RTVSPropertyOp46
 70
     1
102
RTVSPropertyOp47
 70
     1
102
RTVSPropertyOp48
 70
     1
102
RTVSPropertyOp49
 70
     1
102
RTVSPropertyOp50
 70
     1
102
RTVSPropertyOp51
 70
     0
102
RTVSPropertyOp52
 70
     0
102
RTVSPropertyOp53
 70
     1
102
RTVSPropertyOp54
 70
     1
102
RTVSPropertyOp55
 70
     1
102
RTVSPropertyOp56
 70
     1
102
RTVSPropertyOp57
 70
     1
102
RTVSPost2010Prop28
280
     0
102
RTVSPost2010PropOp28
 70
     1
102
RTVSPost2010Prop29
280
     1
102
RTVSPost2010PropOp29
 70
     1
102
RTVSPost2010Prop30
280
     1
102
RTVSPost2010PropOp30
 70
     1
102
RTVSPost2010Prop31
280
     0
102
RTVSPost2010PropOp31
 70
     1
102
RTVSPost2010Prop32
280
     0
102
RTVSPost2010PropOp32
 70
     1
102
RTVSPost2010Prop33
280
     0
102
RTVSPost2010PropOp33
 70
     1
102
RTVSPost2010Prop34
280
     0
102
RTVSPost2010PropOp34
 70
     1
102
RTVSPost2010Prop35
280
     0
102
RTVSPost2010PropOp35
 70
     1
102
RTVSPost2010Prop36
280
     0
102
RTVSPost2010PropOp36
 70
     1
102
RTVSPost2010Prop37
 90
       50
102
RTVSPost2010PropOp37
 70
     1
102
RTVSPost2010Prop38
140
0.0
102
RTVSPost2010PropOp38
 70
     1
102
RTVSPost2010Prop39
140
1.0
102
RTVSPost2010PropOp39
 70
     1
102
RTVSPost2010Prop40
 90
        0
102
RTVSPost2010PropOp40
 70
     1
102
RTVSPost2010Prop41ColorIndex
 90
       18
102
RTVSPost2010Prop41ColorRGB
 90
        0
102
RTVSPost2010PropOp41
 70
     1
102
RTVSPost2010Prop42
 90
       50
102
RTVSPost2010PropOp42
 70
     1
102
RTVSPost2010Prop43
 90
        3
102
RTVSPost2010PropOp43
 70
     1
102
RTVSPost2010Prop44ColorIndex
 90
        5
102
RTVSPost2010Prop44ColorRGB
 90
      255
102
RTVSPost2010PropOp44
 70
     1
102
RTVSPost2010Prop45
280
     0
102
RTVSPost2010PropOp45
 70
     1
102
RTVSPost2010Prop46
 90
       50
102
RTVSPost2010PropOp46
 70
     1
102
RTVSPost2010Prop47
 90
       50
102
RTVSPost2010PropOp47
 70
     1
102
RTVSPost2010Prop48
 90
       50
102
RTVSPost2010PropOp48
 70
     1
102
RTVSPost2010Prop49
280
     0
102
RTVSPost2010PropOp49
 70
     1
102
RTVSPost2010Prop50
 90
       50
102
RTVSPost2010PropOp50
 70
     1
102
RTVSPost2010Prop51ColorIndex
 90
      256
102
RTVSPost2010Prop51ColorRGB
 90
-16777216
102
RTVSPost2010PropOp51
 70
     0
102
RTVSPost2010Prop52
140
1.0
102
RTVSPost2010PropOp52
 70
     0
102
RTVSPost2010Prop53
 90
        2
102
RTVSPost2010PropOp53
 70
     1
102
RTVSPost2010Prop54
  1
strokes_ogs.tif
102
RTVSPost2010PropOp54
 70
     1
102
RTVSPost2010Prop55
280
     0
102
RTVSPost2010PropOp55
 70
     1
102
RTVSPost2010Prop56
140
1.0
102
RTVSPost2010PropOp56
 70
     1
102
RTVSPost2010Prop57
140
1.0
102
RTVSPost2010PropOp57
 70
     1
  0
XRECORD
  5
3D2
102
{ACAD_REACTORS
330
3D1
102
}
330
3D1
100
AcDbXrecord
280
     1
102
RTVSPropertyOp0
 70
     1
102
RTVSPropertyOp1
 70
     1
102
RTVSPropertyOp2
 70
     1
102
RTVSPropertyOp3
 70
     1
102
RTVSPropertyOp4
 70
     1
102
RTVSPropertyOp5
 70
     1
102
RTVSPropertyOp6
 70
     1
102
RTVSPropertyOp7
 70
     1
102
RTVSPropertyOp8
 70
     1
102
RTVSPropertyOp9
 70
     1
102
RTVSPropertyOp10
 70
     1
102
RTVSPropertyOp11
 70
     1
102
RTVSPropertyOp12
 70
     1
102
RTVSPropertyOp13
 70
     1
102
RTVSPropertyOp14
 70
     1
102
RTVSPropertyOp15
 70
     1
102
RTVSPropertyOp16
 70
     1
102
RTVSPropertyOp17
 70
     1
102
RTVSPropertyOp18
 70
     1
102
RTVSPropertyOp19
 70
     1
102
RTVSPropertyOp20
 70
     1
102
RTVSPropertyOp21
 70
     1
102
RTVSPropertyOp22
 70
     1
102
RTVSPropertyOp23
 70
     1
102
RTVSPropertyOp24
 70
     1
102
RTVSPropertyOp25
 70
     1
102
RTVSPropertyOp26
 70
     1
102
RTVSPropertyOp27
 70
     1
102
RTVSPropertyOp28
 70
     1
102
RTVSPropertyOp29
 70
     1
102
RTVSPropertyOp30
 70
     1
102
RTVSPropertyOp31
 70
     1
102
RTVSPropertyOp32
 70
     1
102
RTVSPropertyOp33
 70
     1
102
RTVSPropertyOp34
 70
     1
102
RTVSPropertyOp35
 70
     1
102
RTVSPropertyOp36
 70
     1
102
RTVSPropertyOp37
 70
     1
102
RTVSPropertyOp38
 70
     1
102
RTVSPropertyOp39
 70
     1
102
RTVSPropertyOp40
 70
     1
102
RTVSPropertyOp41
 70
     1
102
RTVSPropertyOp42
 70
     1
102
RTVSPropertyOp43
 70
     1
102
RTVSPropertyOp44
 70
     1
102
RTVSPropertyOp45
 70
     1
102
RTVSPropertyOp46
 70
     1
102
RTVSPropertyOp47
 70
     1
102
RTVSPropertyOp48
 70
     1
102
RTVSPropertyOp49
 70
     1
102
RTVSPropertyOp50
 70
     1
102
RTVSPropertyOp51
 70
     0
102
RTVSPropertyOp52
 70
     0
102
RTVSPropertyOp53
 70
     1
102
RTVSPropertyOp54
 70
     1
102
RTVSPropertyOp55
 70
     1
102
RTVSPropertyOp56
 70
     1
102
RTVSPropertyOp57
 70
     1
102
RTVSPost2010Prop28
280
     0
102
RTVSPost2010PropOp28
 70
     1
102
RTVSPost2010Prop29
280
     1
102
RTVSPost2010PropOp29
 70
     1
102
RTVSPost2010Prop30
280
     1
102
RTVSPost2010PropOp30
 70
     1
102
RTVSPost2010Prop31
280
     0
102
RTVSPost2010PropOp31
 70
     1
102
RTVSPost2010Prop32
280
     0
102
RTVSPost2010PropOp32
 70
     1
102
RTVSPost2010Prop33
280
     0
102
RTVSPost2010PropOp33
 70
     1
102
RTVSPost2010Prop34
280
     0
102
RTVSPost2010PropOp34
 70
     1
102
RTVSPost2010Prop35
280
     0
102
RTVSPost2010PropOp35
 70
     1
102
RTVSPost2010Prop36
280
     0
102
RTVSPost2010PropOp36
 70
     1
102
RTVSPost2010Prop37
 90
       50
102
RTVSPost2010PropOp37
 70
     1
102
RTVSPost2010Prop38
140
0.0
102
RTVSPost2010PropOp38
 70
     1
102
RTVSPost2010Prop39
140
1.0
102
RTVSPost2010PropOp39
 70
     1
102
RTVSPost2010Prop40
 90
        0
102
RTVSPost2010PropOp40
 70
     1
102
RTVSPost2010Prop41ColorIndex
 90
       18
102
RTVSPost2010Prop41ColorRGB
 90
        0
102
RTVSPost2010PropOp41
 70
     1
102
RTVSPost2010Prop42
 90
       50
102
RTVSPost2010PropOp42
 70
     1
102
RTVSPost2010Prop43
 90
        3
102
RTVSPost2010PropOp43
 70
     1
102
RTVSPost2010Prop44ColorIndex
 90
        5
102
RTVSPost2010Prop44ColorRGB
 90
      255
102
RTVSPost2010PropOp44
 70
     1
102
RTVSPost2010Prop45
280
     0
102
RTVSPost2010PropOp45
 70
     1
102
RTVSPost2010Prop46
 90
       50
102
RTVSPost2010PropOp46
 70
     1
102
RTVSPost2010Prop47
 90
       50
102
RTVSPost2010PropOp47
 70
     1
102
RTVSPost2010Prop48
 90
       50
102
RTVSPost2010PropOp48
 70
     1
102
RTVSPost2010Prop49
280
     0
102
RTVSPost2010PropOp49
 70
     1
102
RTVSPost2010Prop50
 90
       50
102
RTVSPost2010PropOp50
 70
     1
102
RTVSPost2010Prop51ColorIndex
 90
      256
102
RTVSPost2010Prop51ColorRGB
 90
-16777216
102
RTVSPost2010PropOp51
 70
     0
102
RTVSPost2010Prop52
140
1.0
102
RTVSPost2010PropOp52
 70
     0
102
RTVSPost2010Prop53
 90
        2
102
RTVSPost2010PropOp53
 70
     1
102
RTVSPost2010Prop54
  1
strokes_ogs.tif
102
RTVSPost2010PropOp54
 70
     1
102
RTVSPost2010Prop55
280
     0
102
RTVSPost2010PropOp55
 70
     1
102
RTVSPost2010Prop56
140
1.0
102
RTVSPost2010PropOp56
 70
     1
102
RTVSPost2010Prop57
140
1.0
102
RTVSPost2010PropOp57
 70
     1
  0
XRECORD
  5
3E6
102
{ACAD_REACTORS
330
3E5
102
}
330
3E5
100
AcDbXrecord
280
     1
102
RTVSPropertyOp0
 70
     0
102
RTVSPropertyOp1
 70
     0
102
RTVSPropertyOp2
 70
     0
102
RTVSPropertyOp3
 70
     0
102
RTVSPropertyOp4
 70
     0
102
RTVSPropertyOp5
 70
     0
102
RTVSPropertyOp6
 70
     0
102
RTVSPropertyOp7
 70
     0
102
RTVSPropertyOp8
 70
     0
102
RTVSPropertyOp9
 70
     0
102
RTVSPropertyOp10
 70
     0
102
RTVSPropertyOp11
 70
     0
102
RTVSPropertyOp12
 70
     0
102
RTVSPropertyOp13
 70
     0
102
RTVSPropertyOp14
 70
     2
102
RTVSPropertyOp15
 70
     0
102
RTVSPropertyOp16
 70
     0
102
RTVSPropertyOp17
 70
     0
102
RTVSPropertyOp18
 70
     0
102
RTVSPropertyOp19
 70
     0
102
RTVSPropertyOp20
 70
     0
102
RTVSPropertyOp21
 70
     0
102
RTVSPropertyOp22
 70
     0
102
RTVSPropertyOp23
 70
     0
102
RTVSPropertyOp24
 70
     0
102
RTVSPropertyOp25
 70
     0
102
RTVSPropertyOp26
 70
     0
102
RTVSPropertyOp27
 70
     0
102
RTVSPropertyOp28
 70
     0
102
RTVSPropertyOp29
 70
     0
102
RTVSPropertyOp30
 70
     0
102
RTVSPropertyOp31
 70
     0
102
RTVSPropertyOp32
 70
     0
102
RTVSPropertyOp33
 70
     0
102
RTVSPropertyOp34
 70
     0
102
RTVSPropertyOp35
 70
     0
102
RTVSPropertyOp36
 70
     0
102
RTVSPropertyOp37
 70
     0
102
RTVSPropertyOp38
 70
     0
102
RTVSPropertyOp39
 70
     0
102
RTVSPropertyOp40
 70
     0
102
RTVSPropertyOp41
 70
     0
102
RTVSPropertyOp42
 70
     0
102
RTVSPropertyOp43
 70
     0
102
RTVSPropertyOp44
 70
     0
102
RTVSPropertyOp45
 70
     0
102
RTVSPropertyOp46
 70
     0
102
RTVSPropertyOp47
 70
     0
102
RTVSPropertyOp48
 70
     0
102
RTVSPropertyOp49
 70
     0
102
RTVSPropertyOp50
 70
     0
102
RTVSPropertyOp51
 70
     0
102
RTVSPropertyOp52
 70
     0
102
RTVSPropertyOp53
 70
     0
102
RTVSPropertyOp54
 70
     0
102
RTVSPropertyOp55
 70
     0
102
RTVSPropertyOp56
 70
     0
102
RTVSPropertyOp57
 70
     0
102
RTVSPost2010Prop28
280
     0
102
RTVSPost2010PropOp28
 70
     0
102
RTVSPost2010Prop29
280
     1
102
RTVSPost2010PropOp29
 70
     0
102
RTVSPost2010Prop30
280
     1
102
RTVSPost2010PropOp30
 70
     0
102
RTVSPost2010Prop31
280
     0
102
RTVSPost2010PropOp31
 70
     0
102
RTVSPost2010Prop32
280
     0
102
RTVSPost2010PropOp32
 70
     0
102
RTVSPost2010Prop33
280
     0
102
RTVSPost2010PropOp33
 70
     0
102
RTVSPost2010Prop34
280
     0
102
RTVSPost2010PropOp34
 70
     0
102
RTVSPost2010Prop35
280
     0
102
RTVSPost2010PropOp35
 70
     0
102
RTVSPost2010Prop36
280
     0
102
RTVSPost2010PropOp36
 70
     0
102
RTVSPost2010Prop37
 90
       50
102
RTVSPost2010PropOp37
 70
     0
102
RTVSPost2010Prop38
140
0.0
102
RTVSPost2010PropOp38
 70
     0
102
RTVSPost2010Prop39
140
1.0
102
RTVSPost2010PropOp39
 70
     0
102
RTVSPost2010Prop40
 90
        0
102
RTVSPost2010PropOp40
 70
     0
102
RTVSPost2010Prop41ColorIndex
 90
       18
102
RTVSPost2010Prop41ColorRGB
 90
        0
102
RTVSPost2010PropOp41
 70
     0
102
RTVSPost2010Prop42
 90
       50
102
RTVSPost2010PropOp42
 70
     0
102
RTVSPost2010Prop43
 90
        3
102
RTVSPost2010PropOp43
 70
     0
102
RTVSPost2010Prop44ColorIndex
 90
        5
102
RTVSPost2010Prop44ColorRGB
 90
      255
102
RTVSPost2010PropOp44
 70
     0
102
RTVSPost2010Prop45
280
     0
102
RTVSPost2010PropOp45
 70
     0
102
RTVSPost2010Prop46
 90
       50
102
RTVSPost2010PropOp46
 70
     0
102
RTVSPost2010Prop47
 90
       50
102
RTVSPost2010PropOp47
 70
     0
102
RTVSPost2010Prop48
 90
       50
102
RTVSPost2010PropOp48
 70
     0
102
RTVSPost2010Prop49
280
     0
102
RTVSPost2010PropOp49
 70
     0
102
RTVSPost2010Prop50
 90
       50
102
RTVSPost2010PropOp50
 70
     0
102
RTVSPost2010Prop51ColorIndex
 90
      256
102
RTVSPost2010Prop51ColorRGB
 90
-16777216
102
RTVSPost2010PropOp51
 70
     0
102
RTVSPost2010Prop52
140
1.0
102
RTVSPost2010PropOp52
 70
     0
102
RTVSPost2010Prop53
 90
        2
102
RTVSPost2010PropOp53
 70
     0
102
RTVSPost2010Prop54
  1
strokes_ogs.tif
102
RTVSPost2010PropOp54
 70
     0
102
RTVSPost2010Prop55
280
     0
102
RTVSPost2010PropOp55
 70
     0
102
RTVSPost2010Prop56
140
1.0
102
RTVSPost2010PropOp56
 70
     0
102
RTVSPost2010Prop57
140
1.0
102
RTVSPost2010PropOp57
 70
     0
  0
XRECORD
  5
3E0
102
{ACAD_REACTORS
330
3DF
102
}
330
3DF
100
AcDbXrecord
280
     1
102
RTVSPropertyOp0
 70
     1
102
RTVSPropertyOp1
 70
     1
102
RTVSPropertyOp2
 70
     1
102
RTVSPropertyOp3
 70
     1
102
RTVSPropertyOp4
 70
     1
102
RTVSPropertyOp5
 70
     1
102
RTVSPropertyOp6
 70
     1
102
RTVSPropertyOp7
 70
     1
102
RTVSPropertyOp8
 70
     1
102
RTVSPropertyOp9
 70
     1
102
RTVSPropertyOp10
 70
     1
102
RTVSPropertyOp11
 70
     1
102
RTVSPropertyOp12
 70
     1
102
RTVSPropertyOp13
 70
     1
102
RTVSPropertyOp14
 70
     1
102
RTVSPropertyOp15
 70
     1
102
RTVSPropertyOp16
 70
     1
102
RTVSPropertyOp17
 70
     1
102
RTVSPropertyOp18
 70
     1
102
RTVSPropertyOp19
 70
     1
102
RTVSPropertyOp20
 70
     1
102
RTVSPropertyOp21
 70
     1
102
RTVSPropertyOp22
 70
     1
102
RTVSPropertyOp23
 70
     1
102
RTVSPropertyOp24
 70
     1
102
RTVSPropertyOp25
 70
     1
102
RTVSPropertyOp26
 70
     1
102
RTVSPropertyOp27
 70
     1
102
RTVSPropertyOp28
 70
     1
102
RTVSPropertyOp29
 70
     1
102
RTVSPropertyOp30
 70
     1
102
RTVSPropertyOp31
 70
     1
102
RTVSPropertyOp32
 70
     1
102
RTVSPropertyOp33
 70
     1
102
RTVSPropertyOp34
 70
     1
102
RTVSPropertyOp35
 70
     1
102
RTVSPropertyOp36
 70
     1
102
RTVSPropertyOp37
 70
     1
102
RTVSPropertyOp38
 70
     1
102
RTVSPropertyOp39
 70
     1
102
RTVSPropertyOp40
 70
     1
102
RTVSPropertyOp41
 70
     1
102
RTVSPropertyOp42
 70
     1
102
RTVSPropertyOp43
 70
     1
102
RTVSPropertyOp44
 70
     1
102
RTVSPropertyOp45
 70
     1
102
RTVSPropertyOp46
 70
     1
102
RTVSPropertyOp47
 70
     1
102
RTVSPropertyOp48
 70
     1
102
RTVSPropertyOp49
 70
     1
102
RTVSPropertyOp50
 70
     1
102
RTVSPropertyOp51
 70
     0
102
RTVSPropertyOp52
 70
     0
102
RTVSPropertyOp53
 70
     1
102
RTVSPropertyOp54
 70
     1
102
RTVSPropertyOp55
 70
     1
102
RTVSPropertyOp56
 70
     1
102
RTVSPropertyOp57
 70
     1
102
RTVSPost2010Prop28
280
     0
102
RTVSPost2010PropOp28
 70
     1
102
RTVSPost2010Prop29
280
     1
102
RTVSPost2010PropOp29
 70
     1
102
RTVSPost2010Prop30
280
     1
102
RTVSPost2010PropOp30
 70
     1
102
RTVSPost2010Prop31
280
     0
102
RTVSPost2010PropOp31
 70
     1
102
RTVSPost2010Prop32
280
     0
102
RTVSPost2010PropOp32
 70
     1
102
RTVSPost2010Prop33
280
     0
102
RTVSPost2010PropOp33
 70
     1
102
RTVSPost2010Prop34
280
     0
102
RTVSPost2010PropOp34
 70
     1
102
RTVSPost2010Prop35
280
     0
102
RTVSPost2010PropOp35
 70
     1
102
RTVSPost2010Prop36
280
     0
102
RTVSPost2010PropOp36
 70
     1
102
RTVSPost2010Prop37
 90
       50
102
RTVSPost2010PropOp37
 70
     1
102
RTVSPost2010Prop38
140
0.0
102
RTVSPost2010PropOp38
 70
     1
102
RTVSPost2010Prop39
140
1.0
102
RTVSPost2010PropOp39
 70
     1
102
RTVSPost2010Prop40
 90
        0
102
RTVSPost2010PropOp40
 70
     1
102
RTVSPost2010Prop41ColorIndex
 90
       18
102
RTVSPost2010Prop41ColorRGB
 90
        0
102
RTVSPost2010PropOp41
 70
     1
102
RTVSPost2010Prop42
 90
       50
102
RTVSPost2010PropOp42
 70
     1
102
RTVSPost2010Prop43
 90
        3
102
RTVSPost2010PropOp43
 70
     1
102
RTVSPost2010Prop44ColorIndex
 90
        5
102
RTVSPost2010Prop44ColorRGB
 90
      255
102
RTVSPost2010PropOp44
 70
     1
102
RTVSPost2010Prop45
280
     0
102
RTVSPost2010PropOp45
 70
     1
102
RTVSPost2010Prop46
 90
       50
102
RTVSPost2010PropOp46
 70
     1
102
RTVSPost2010Prop47
 90
       50
102
RTVSPost2010PropOp47
 70
     1
102
RTVSPost2010Prop48
 90
       50
102
RTVSPost2010PropOp48
 70
     1
102
RTVSPost2010Prop49
280
     0
102
RTVSPost2010PropOp49
 70
     1
102
RTVSPost2010Prop50
 90
       50
102
RTVSPost2010PropOp50
 70
     1
102
RTVSPost2010Prop51ColorIndex
 90
      256
102
RTVSPost2010Prop51ColorRGB
 90
-16777216
102
RTVSPost2010PropOp51
 70
     0
102
RTVSPost2010Prop52
140
1.0
102
RTVSPost2010PropOp52
 70
     0
102
RTVSPost2010Prop53
 90
        2
102
RTVSPost2010PropOp53
 70
     1
102
RTVSPost2010Prop54
  1
strokes_ogs.tif
102
RTVSPost2010PropOp54
 70
     1
102
RTVSPost2010Prop55
280
     0
102
RTVSPost2010PropOp55
 70
     1
102
RTVSPost2010Prop56
140
1.0
102
RTVSPost2010PropOp56
 70
     1
102
RTVSPost2010Prop57
140
1.0
102
RTVSPost2010PropOp57
 70
     1
  0
XRECORD
  5
3E8
102
{ACAD_REACTORS
330
3E7
102
}
330
3E7
100
AcDbXrecord
280
     1
102
RTVSPropertyOp0
 70
     0
102
RTVSPropertyOp1
 70
     0
102
RTVSPropertyOp2
 70
     0
102
RTVSPropertyOp3
 70
     0
102
RTVSPropertyOp4
 70
     0
102
RTVSPropertyOp5
 70
     0
102
RTVSPropertyOp6
 70
     0
102
RTVSPropertyOp7
 70
     0
102
RTVSPropertyOp8
 70
     0
102
RTVSPropertyOp9
 70
     0
102
RTVSPropertyOp10
 70
     0
102
RTVSPropertyOp11
 70
     0
102
RTVSPropertyOp12
 70
     0
102
RTVSPropertyOp13
 70
     0
102
RTVSPropertyOp14
 70
     2
102
RTVSPropertyOp15
 70
     0
102
RTVSPropertyOp16
 70
     0
102
RTVSPropertyOp17
 70
     0
102
RTVSPropertyOp18
 70
     0
102
RTVSPropertyOp19
 70
     0
102
RTVSPropertyOp20
 70
     0
102
RTVSPropertyOp21
 70
     0
102
RTVSPropertyOp22
 70
     0
102
RTVSPropertyOp23
 70
     0
102
RTVSPropertyOp24
 70
     0
102
RTVSPropertyOp25
 70
     0
102
RTVSPropertyOp26
 70
     0
102
RTVSPropertyOp27
 70
     0
102
RTVSPropertyOp28
 70
     0
102
RTVSPropertyOp29
 70
     0
102
RTVSPropertyOp30
 70
     0
102
RTVSPropertyOp31
 70
     0
102
RTVSPropertyOp32
 70
     0
102
RTVSPropertyOp33
 70
     0
102
RTVSPropertyOp34
 70
     0
102
RTVSPropertyOp35
 70
     0
102
RTVSPropertyOp36
 70
     0
102
RTVSPropertyOp37
 70
     0
102
RTVSPropertyOp38
 70
     0
102
RTVSPropertyOp39
 70
     0
102
RTVSPropertyOp40
 70
     0
102
RTVSPropertyOp41
 70
     0
102
RTVSPropertyOp42
 70
     0
102
RTVSPropertyOp43
 70
     0
102
RTVSPropertyOp44
 70
     0
102
RTVSPropertyOp45
 70
     0
102
RTVSPropertyOp46
 70
     0
102
RTVSPropertyOp47
 70
     0
102
RTVSPropertyOp48
 70
     0
102
RTVSPropertyOp49
 70
     0
102
RTVSPropertyOp50
 70
     0
102
RTVSPropertyOp51
 70
     0
102
RTVSPropertyOp52
 70
     0
102
RTVSPropertyOp53
 70
     0
102
RTVSPropertyOp54
 70
     0
102
RTVSPropertyOp55
 70
     0
102
RTVSPropertyOp56
 70
     0
102
RTVSPropertyOp57
 70
     0
102
RTVSPost2010Prop28
280
     0
102
RTVSPost2010PropOp28
 70
     0
102
RTVSPost2010Prop29
280
     1
102
RTVSPost2010PropOp29
 70
     0
102
RTVSPost2010Prop30
280
     1
102
RTVSPost2010PropOp30
 70
     0
102
RTVSPost2010Prop31
280
     0
102
RTVSPost2010PropOp31
 70
     0
102
RTVSPost2010Prop32
280
     0
102
RTVSPost2010PropOp32
 70
     0
102
RTVSPost2010Prop33
280
     0
102
RTVSPost2010PropOp33
 70
     0
102
RTVSPost2010Prop34
280
     0
102
RTVSPost2010PropOp34
 70
     0
102
RTVSPost2010Prop35
280
     0
102
RTVSPost2010PropOp35
 70
     0
102
RTVSPost2010Prop36
280
     0
102
RTVSPost2010PropOp36
 70
     0
102
RTVSPost2010Prop37
 90
       50
102
RTVSPost2010PropOp37
 70
     0
102
RTVSPost2010Prop38
140
0.0
102
RTVSPost2010PropOp38
 70
     0
102
RTVSPost2010Prop39
140
1.0
102
RTVSPost2010PropOp39
 70
     0
102
RTVSPost2010Prop40
 90
        0
102
RTVSPost2010PropOp40
 70
     0
102
RTVSPost2010Prop41ColorIndex
 90
       18
102
RTVSPost2010Prop41ColorRGB
 90
        0
102
RTVSPost2010PropOp41
 70
     0
102
RTVSPost2010Prop42
 90
       50
102
RTVSPost2010PropOp42
 70
     0
102
RTVSPost2010Prop43
 90
        3
102
RTVSPost2010PropOp43
 70
     0
102
RTVSPost2010Prop44ColorIndex
 90
        5
102
RTVSPost2010Prop44ColorRGB
 90
      255
102
RTVSPost2010PropOp44
 70
     0
102
RTVSPost2010Prop45
280
     0
102
RTVSPost2010PropOp45
 70
     0
102
RTVSPost2010Prop46
 90
       50
102
RTVSPost2010PropOp46
 70
     0
102
RTVSPost2010Prop47
 90
       50
102
RTVSPost2010PropOp47
 70
     0
102
RTVSPost2010Prop48
 90
       50
102
RTVSPost2010PropOp48
 70
     0
102
RTVSPost2010Prop49
280
     0
102
RTVSPost2010PropOp49
 70
     0
102
RTVSPost2010Prop50
 90
       50
102
RTVSPost2010PropOp50
 70
     0
102
RTVSPost2010Prop51ColorIndex
 90
      256
102
RTVSPost2010Prop51ColorRGB
 90
-16777216
102
RTVSPost2010PropOp51
 70
     0
102
RTVSPost2010Prop52
140
1.0
102
RTVSPost2010PropOp52
 70
     0
102
RTVSPost2010Prop53
 90
        2
102
RTVSPost2010PropOp53
 70
     0
102
RTVSPost2010Prop54
  1
strokes_ogs.tif
102
RTVSPost2010PropOp54
 70
     0
102
RTVSPost2010Prop55
280
     0
102
RTVSPost2010PropOp55
 70
     0
102
RTVSPost2010Prop56
140
1.0
102
RTVSPost2010PropOp56
 70
     0
102
RTVSPost2010Prop57
140
1.0
102
RTVSPost2010PropOp57
 70
     0
  0
XRECORD
  5
3D6
102
{ACAD_REACTORS
330
3D5
102
}
330
3D5
100
AcDbXrecord
280
     1
102
RTVSPropertyOp0
 70
     1
102
RTVSPropertyOp1
 70
     1
102
RTVSPropertyOp2
 70
     1
102
RTVSPropertyOp3
 70
     1
102
RTVSPropertyOp4
 70
     1
102
RTVSPropertyOp5
 70
     1
102
RTVSPropertyOp6
 70
     1
102
RTVSPropertyOp7
 70
     1
102
RTVSPropertyOp8
 70
     1
102
RTVSPropertyOp9
 70
     1
102
RTVSPropertyOp10
 70
     1
102
RTVSPropertyOp11
 70
     1
102
RTVSPropertyOp12
 70
     1
102
RTVSPropertyOp13
 70
     1
102
RTVSPropertyOp14
 70
     1
102
RTVSPropertyOp15
 70
     1
102
RTVSPropertyOp16
 70
     1
102
RTVSPropertyOp17
 70
     1
102
RTVSPropertyOp18
 70
     1
102
RTVSPropertyOp19
 70
     1
102
RTVSPropertyOp20
 70
     1
102
RTVSPropertyOp21
 70
     1
102
RTVSPropertyOp22
 70
     1
102
RTVSPropertyOp23
 70
     1
102
RTVSPropertyOp24
 70
     1
102
RTVSPropertyOp25
 70
     1
102
RTVSPropertyOp26
 70
     1
102
RTVSPropertyOp27
 70
     1
102
RTVSPropertyOp28
 70
     1
102
RTVSPropertyOp29
 70
     1
102
RTVSPropertyOp30
 70
     1
102
RTVSPropertyOp31
 70
     1
102
RTVSPropertyOp32
 70
     1
102
RTVSPropertyOp33
 70
     1
102
RTVSPropertyOp34
 70
     1
102
RTVSPropertyOp35
 70
     1
102
RTVSPropertyOp36
 70
     1
102
RTVSPropertyOp37
 70
     1
102
RTVSPropertyOp38
 70
     1
102
RTVSPropertyOp39
 70
     1
102
RTVSPropertyOp40
 70
     1
102
RTVSPropertyOp41
 70
     1
102
RTVSPropertyOp42
 70
     1
102
RTVSPropertyOp43
 70
     1
102
RTVSPropertyOp44
 70
     1
102
RTVSPropertyOp45
 70
     1
102
RTVSPropertyOp46
 70
     1
102
RTVSPropertyOp47
 70
     1
102
RTVSPropertyOp48
 70
     1
102
RTVSPropertyOp49
 70
     1
102
RTVSPropertyOp50
 70
     1
102
RTVSPropertyOp51
 70
     0
102
RTVSPropertyOp52
 70
     0
102
RTVSPropertyOp53
 70
     1
102
RTVSPropertyOp54
 70
     1
102
RTVSPropertyOp55
 70
     1
102
RTVSPropertyOp56
 70
     1
102
RTVSPropertyOp57
 70
     1
102
RTVSPost2010Prop28
280
     0
102
RTVSPost2010PropOp28
 70
     1
102
RTVSPost2010Prop29
280
     1
102
RTVSPost2010PropOp29
 70
     1
102
RTVSPost2010Prop30
280
     1
102
RTVSPost2010PropOp30
 70
     1
102
RTVSPost2010Prop31
280
     0
102
RTVSPost2010PropOp31
 70
     1
102
RTVSPost2010Prop32
280
     0
102
RTVSPost2010PropOp32
 70
     1
102
RTVSPost2010Prop33
280
     0
102
RTVSPost2010PropOp33
 70
     1
102
RTVSPost2010Prop34
280
     0
102
RTVSPost2010PropOp34
 70
     1
102
RTVSPost2010Prop35
280
     0
102
RTVSPost2010PropOp35
 70
     1
102
RTVSPost2010Prop36
280
     0
102
RTVSPost2010PropOp36
 70
     1
102
RTVSPost2010Prop37
 90
       50
102
RTVSPost2010PropOp37
 70
     1
102
RTVSPost2010Prop38
140
0.0
102
RTVSPost2010PropOp38
 70
     1
102
RTVSPost2010Prop39
140
1.0
102
RTVSPost2010PropOp39
 70
     1
102
RTVSPost2010Prop40
 90
        0
102
RTVSPost2010PropOp40
 70
     1
102
RTVSPost2010Prop41ColorIndex
 90
       18
102
RTVSPost2010Prop41ColorRGB
 90
        0
102
RTVSPost2010PropOp41
 70
     1
102
RTVSPost2010Prop42
 90
       50
102
RTVSPost2010PropOp42
 70
     1
102
RTVSPost2010Prop43
 90
        3
102
RTVSPost2010PropOp43
 70
     1
102
RTVSPost2010Prop44ColorIndex
 90
        5
102
RTVSPost2010Prop44ColorRGB
 90
      255
102
RTVSPost2010PropOp44
 70
     1
102
RTVSPost2010Prop45
280
     0
102
RTVSPost2010PropOp45
 70
     1
102
RTVSPost2010Prop46
 90
       50
102
RTVSPost2010PropOp46
 70
     1
102
RTVSPost2010Prop47
 90
       50
102
RTVSPost2010PropOp47
 70
     1
102
RTVSPost2010Prop48
 90
       50
102
RTVSPost2010PropOp48
 70
     1
102
RTVSPost2010Prop49
280
     0
102
RTVSPost2010PropOp49
 70
     1
102
RTVSPost2010Prop50
 90
       50
102
RTVSPost2010PropOp50
 70
     1
102
RTVSPost2010Prop51ColorIndex
 90
      256
102
RTVSPost2010Prop51ColorRGB
 90
-16777216
102
RTVSPost2010PropOp51
 70
     0
102
RTVSPost2010Prop52
140
1.0
102
RTVSPost2010PropOp52
 70
     0
102
RTVSPost2010Prop53
 90
        2
102
RTVSPost2010PropOp53
 70
     1
102
RTVSPost2010Prop54
  1
strokes_ogs.tif
102
RTVSPost2010PropOp54
 70
     1
102
RTVSPost2010Prop55
280
     0
102
RTVSPost2010PropOp55
 70
     1
102
RTVSPost2010Prop56
140
1.0
102
RTVSPost2010PropOp56
 70
     1
102
RTVSPost2010Prop57
140
1.0
102
RTVSPost2010PropOp57
 70
     1
  0
XRECORD
  5
3F4
102
{ACAD_REACTORS
330
3F3
102
}
330
3F3
100
AcDbXrecord
280
     1
102
RTVSPropertyOp0
 70
     1
102
RTVSPropertyOp1
 70
     1
102
RTVSPropertyOp2
 70
     1
102
RTVSPropertyOp3
 70
     1
102
RTVSPropertyOp4
 70
     1
102
RTVSPropertyOp5
 70
     1
102
RTVSPropertyOp6
 70
     1
102
RTVSPropertyOp7
 70
     1
102
RTVSPropertyOp8
 70
     1
102
RTVSPropertyOp9
 70
     1
102
RTVSPropertyOp10
 70
     1
102
RTVSPropertyOp11
 70
     1
102
RTVSPropertyOp12
 70
     1
102
RTVSPropertyOp13
 70
     1
102
RTVSPropertyOp14
 70
     1
102
RTVSPropertyOp15
 70
     1
102
RTVSPropertyOp16
 70
     1
102
RTVSPropertyOp17
 70
     1
102
RTVSPropertyOp18
 70
     1
102
RTVSPropertyOp19
 70
     1
102
RTVSPropertyOp20
 70
     1
102
RTVSPropertyOp21
 70
     1
102
RTVSPropertyOp22
 70
     1
102
RTVSPropertyOp23
 70
     1
102
RTVSPropertyOp24
 70
     1
102
RTVSPropertyOp25
 70
     1
102
RTVSPropertyOp26
 70
     1
102
RTVSPropertyOp27
 70
     1
102
RTVSPropertyOp28
 70
     1
102
RTVSPropertyOp29
 70
     1
102
RTVSPropertyOp30
 70
     1
102
RTVSPropertyOp31
 70
     1
102
RTVSPropertyOp32
 70
     1
102
RTVSPropertyOp33
 70
     1
102
RTVSPropertyOp34
 70
     1
102
RTVSPropertyOp35
 70
     1
102
RTVSPropertyOp36
 70
     1
102
RTVSPropertyOp37
 70
     1
102
RTVSPropertyOp38
 70
     1
102
RTVSPropertyOp39
 70
     1
102
RTVSPropertyOp40
 70
     1
102
RTVSPropertyOp41
 70
     1
102
RTVSPropertyOp42
 70
     1
102
RTVSPropertyOp43
 70
     1
102
RTVSPropertyOp44
 70
     1
102
RTVSPropertyOp45
 70
     1
102
RTVSPropertyOp46
 70
     1
102
RTVSPropertyOp47
 70
     1
102
RTVSPropertyOp48
 70
     1
102
RTVSPropertyOp49
 70
     1
102
RTVSPropertyOp50
 70
     1
102
RTVSPropertyOp51
 70
     0
102
RTVSPropertyOp52
 70
     0
102
RTVSPropertyOp53
 70
     1
102
RTVSPropertyOp54
 70
     1
102
RTVSPropertyOp55
 70
     1
102
RTVSPropertyOp56
 70
     1
102
RTVSPropertyOp57
 70
     1
102
RTVSPost2010Prop28
280
     0
102
RTVSPost2010PropOp28
 70
     1
102
RTVSPost2010Prop29
280
     1
102
RTVSPost2010PropOp29
 70
     1
102
RTVSPost2010Prop30
280
     1
102
RTVSPost2010PropOp30
 70
     1
102
RTVSPost2010Prop31
280
     0
102
RTVSPost2010PropOp31
 70
     1
102
RTVSPost2010Prop32
280
     0
102
RTVSPost2010PropOp32
 70
     1
102
RTVSPost2010Prop33
280
     0
102
RTVSPost2010PropOp33
 70
     1
102
RTVSPost2010Prop34
280
     0
102
RTVSPost2010PropOp34
 70
     1
102
RTVSPost2010Prop35
280
     0
102
RTVSPost2010PropOp35
 70
     1
102
RTVSPost2010Prop36
280
     0
102
RTVSPost2010PropOp36
 70
     1
102
RTVSPost2010Prop37
 90
       50
102
RTVSPost2010PropOp37
 70
     1
102
RTVSPost2010Prop38
140
0.0
102
RTVSPost2010PropOp38
 70
     1
102
RTVSPost2010Prop39
140
1.0
102
RTVSPost2010PropOp39
 70
     1
102
RTVSPost2010Prop40
 90
        0
102
RTVSPost2010PropOp40
 70
     1
102
RTVSPost2010Prop41ColorIndex
 90
       18
102
RTVSPost2010Prop41ColorRGB
 90
        0
102
RTVSPost2010PropOp41
 70
     1
102
RTVSPost2010Prop42
 90
       50
102
RTVSPost2010PropOp42
 70
     1
102
RTVSPost2010Prop43
 90
        3
102
RTVSPost2010PropOp43
 70
     1
102
RTVSPost2010Prop44ColorIndex
 90
        5
102
RTVSPost2010Prop44ColorRGB
 90
      255
102
RTVSPost2010PropOp44
 70
     1
102
RTVSPost2010Prop45
280
     0
102
RTVSPost2010PropOp45
 70
     1
102
RTVSPost2010Prop46
 90
       50
102
RTVSPost2010PropOp46
 70
     1
102
RTVSPost2010Prop47
 90
       50
102
RTVSPost2010PropOp47
 70
     1
102
RTVSPost2010Prop48
 90
       50
102
RTVSPost2010PropOp48
 70
     1
102
RTVSPost2010Prop49
280
     0
102
RTVSPost2010PropOp49
 70
     1
102
RTVSPost2010Prop50
 90
       50
102
RTVSPost2010PropOp50
 70
     1
102
RTVSPost2010Prop51ColorIndex
 90
      256
102
RTVSPost2010Prop51ColorRGB
 90
-16777216
102
RTVSPost2010PropOp51
 70
     0
102
RTVSPost2010Prop52
140
1.0
102
RTVSPost2010PropOp52
 70
     0
102
RTVSPost2010Prop53
 90
        2
102
RTVSPost2010PropOp53
 70
     1
102
RTVSPost2010Prop54
  1
strokes_ogs.tif
102
RTVSPost2010PropOp54
 70
     1
102
RTVSPost2010Prop55
280
     0
102
RTVSPost2010PropOp55
 70
     1
102
RTVSPost2010Prop56
140
1.0
102
RTVSPost2010PropOp56
 70
     1
102
RTVSPost2010Prop57
140
1.0
102
RTVSPost2010PropOp57
 70
     1
  0
XRECORD
  5
3F2
102
{ACAD_REACTORS
330
3F1
102
}
330
3F1
100
AcDbXrecord
280
     1
102
RTVSPropertyOp0
 70
     1
102
RTVSPropertyOp1
 70
     1
102
RTVSPropertyOp2
 70
     1
102
RTVSPropertyOp3
 70
     1
102
RTVSPropertyOp4
 70
     1
102
RTVSPropertyOp5
 70
     1
102
RTVSPropertyOp6
 70
     1
102
RTVSPropertyOp7
 70
     1
102
RTVSPropertyOp8
 70
     1
102
RTVSPropertyOp9
 70
     1
102
RTVSPropertyOp10
 70
     1
102
RTVSPropertyOp11
 70
     1
102
RTVSPropertyOp12
 70
     1
102
RTVSPropertyOp13
 70
     1
102
RTVSPropertyOp14
 70
     1
102
RTVSPropertyOp15
 70
     1
102
RTVSPropertyOp16
 70
     1
102
RTVSPropertyOp17
 70
     1
102
RTVSPropertyOp18
 70
     1
102
RTVSPropertyOp19
 70
     1
102
RTVSPropertyOp20
 70
     1
102
RTVSPropertyOp21
 70
     1
102
RTVSPropertyOp22
 70
     1
102
RTVSPropertyOp23
 70
     1
102
RTVSPropertyOp24
 70
     1
102
RTVSPropertyOp25
 70
     1
102
RTVSPropertyOp26
 70
     1
102
RTVSPropertyOp27
 70
     1
102
RTVSPropertyOp28
 70
     1
102
RTVSPropertyOp29
 70
     1
102
RTVSPropertyOp30
 70
     1
102
RTVSPropertyOp31
 70
     1
102
RTVSPropertyOp32
 70
     1
102
RTVSPropertyOp33
 70
     1
102
RTVSPropertyOp34
 70
     1
102
RTVSPropertyOp35
 70
     1
102
RTVSPropertyOp36
 70
     1
102
RTVSPropertyOp37
 70
     1
102
RTVSPropertyOp38
 70
     1
102
RTVSPropertyOp39
 70
     1
102
RTVSPropertyOp40
 70
     1
102
RTVSPropertyOp41
 70
     1
102
RTVSPropertyOp42
 70
     1
102
RTVSPropertyOp43
 70
     1
102
RTVSPropertyOp44
 70
     1
102
RTVSPropertyOp45
 70
     1
102
RTVSPropertyOp46
 70
     1
102
RTVSPropertyOp47
 70
     1
102
RTVSPropertyOp48
 70
     1
102
RTVSPropertyOp49
 70
     1
102
RTVSPropertyOp50
 70
     1
102
RTVSPropertyOp51
 70
     0
102
RTVSPropertyOp52
 70
     0
102
RTVSPropertyOp53
 70
     1
102
RTVSPropertyOp54
 70
     1
102
RTVSPropertyOp55
 70
     1
102
RTVSPropertyOp56
 70
     1
102
RTVSPropertyOp57
 70
     1
102
RTVSPost2010Prop28
280
     0
102
RTVSPost2010PropOp28
 70
     1
102
RTVSPost2010Prop29
280
     1
102
RTVSPost2010PropOp29
 70
     1
102
RTVSPost2010Prop30
280
     1
102
RTVSPost2010PropOp30
 70
     1
102
RTVSPost2010Prop31
280
     0
102
RTVSPost2010PropOp31
 70
     1
102
RTVSPost2010Prop32
280
     0
102
RTVSPost2010PropOp32
 70
     1
102
RTVSPost2010Prop33
280
     0
102
RTVSPost2010PropOp33
 70
     1
102
RTVSPost2010Prop34
280
     0
102
RTVSPost2010PropOp34
 70
     1
102
RTVSPost2010Prop35
280
     0
102
RTVSPost2010PropOp35
 70
     1
102
RTVSPost2010Prop36
280
     0
102
RTVSPost2010PropOp36
 70
     1
102
RTVSPost2010Prop37
 90
       50
102
RTVSPost2010PropOp37
 70
     1
102
RTVSPost2010Prop38
140
0.0
102
RTVSPost2010PropOp38
 70
     1
102
RTVSPost2010Prop39
140
1.0
102
RTVSPost2010PropOp39
 70
     1
102
RTVSPost2010Prop40
 90
        0
102
RTVSPost2010PropOp40
 70
     1
102
RTVSPost2010Prop41ColorIndex
 90
       18
102
RTVSPost2010Prop41ColorRGB
 90
        0
102
RTVSPost2010PropOp41
 70
     1
102
RTVSPost2010Prop42
 90
       50
102
RTVSPost2010PropOp42
 70
     1
102
RTVSPost2010Prop43
 90
        3
102
RTVSPost2010PropOp43
 70
     1
102
RTVSPost2010Prop44ColorIndex
 90
        5
102
RTVSPost2010Prop44ColorRGB
 90
      255
102
RTVSPost2010PropOp44
 70
     1
102
RTVSPost2010Prop45
280
     0
102
RTVSPost2010PropOp45
 70
     1
102
RTVSPost2010Prop46
 90
       50
102
RTVSPost2010PropOp46
 70
     1
102
RTVSPost2010Prop47
 90
       50
102
RTVSPost2010PropOp47
 70
     1
102
RTVSPost2010Prop48
 90
       50
102
RTVSPost2010PropOp48
 70
     1
102
RTVSPost2010Prop49
280
     0
102
RTVSPost2010PropOp49
 70
     1
102
RTVSPost2010Prop50
 90
       50
102
RTVSPost2010PropOp50
 70
     1
102
RTVSPost2010Prop51ColorIndex
 90
      256
102
RTVSPost2010Prop51ColorRGB
 90
-16777216
102
RTVSPost2010PropOp51
 70
     0
102
RTVSPost2010Prop52
140
1.0
102
RTVSPost2010PropOp52
 70
     0
102
RTVSPost2010Prop53
 90
        2
102
RTVSPost2010PropOp53
 70
     1
102
RTVSPost2010Prop54
  1
strokes_ogs.tif
102
RTVSPost2010PropOp54
 70
     1
102
RTVSPost2010Prop55
280
     0
102
RTVSPost2010PropOp55
 70
     1
102
RTVSPost2010Prop56
140
1.0
102
RTVSPost2010PropOp56
 70
     1
102
RTVSPost2010Prop57
140
1.0
102
RTVSPost2010PropOp57
 70
     1
  0
XRECORD
  5
3EC
102
{ACAD_REACTORS
330
3EB
102
}
330
3EB
100
AcDbXrecord
280
     1
102
RTVSPropertyOp0
 70
     1
102
RTVSPropertyOp1
 70
     1
102
RTVSPropertyOp2
 70
     1
102
RTVSPropertyOp3
 70
     1
102
RTVSPropertyOp4
 70
     1
102
RTVSPropertyOp5
 70
     1
102
RTVSPropertyOp6
 70
     1
102
RTVSPropertyOp7
 70
     1
102
RTVSPropertyOp8
 70
     1
102
RTVSPropertyOp9
 70
     1
102
RTVSPropertyOp10
 70
     1
102
RTVSPropertyOp11
 70
     1
102
RTVSPropertyOp12
 70
     1
102
RTVSPropertyOp13
 70
     1
102
RTVSPropertyOp14
 70
     1
102
RTVSPropertyOp15
 70
     1
102
RTVSPropertyOp16
 70
     1
102
RTVSPropertyOp17
 70
     1
102
RTVSPropertyOp18
 70
     1
102
RTVSPropertyOp19
 70
     1
102
RTVSPropertyOp20
 70
     1
102
RTVSPropertyOp21
 70
     1
102
RTVSPropertyOp22
 70
     1
102
RTVSPropertyOp23
 70
     1
102
RTVSPropertyOp24
 70
     1
102
RTVSPropertyOp25
 70
     1
102
RTVSPropertyOp26
 70
     1
102
RTVSPropertyOp27
 70
     1
102
RTVSPropertyOp28
 70
     1
102
RTVSPropertyOp29
 70
     1
102
RTVSPropertyOp30
 70
     1
102
RTVSPropertyOp31
 70
     1
102
RTVSPropertyOp32
 70
     1
102
RTVSPropertyOp33
 70
     1
102
RTVSPropertyOp34
 70
     1
102
RTVSPropertyOp35
 70
     1
102
RTVSPropertyOp36
 70
     1
102
RTVSPropertyOp37
 70
     1
102
RTVSPropertyOp38
 70
     1
102
RTVSPropertyOp39
 70
     1
102
RTVSPropertyOp40
 70
     1
102
RTVSPropertyOp41
 70
     1
102
RTVSPropertyOp42
 70
     1
102
RTVSPropertyOp43
 70
     1
102
RTVSPropertyOp44
 70
     1
102
RTVSPropertyOp45
 70
     1
102
RTVSPropertyOp46
 70
     1
102
RTVSPropertyOp47
 70
     1
102
RTVSPropertyOp48
 70
     1
102
RTVSPropertyOp49
 70
     1
102
RTVSPropertyOp50
 70
     1
102
RTVSPropertyOp51
 70
     0
102
RTVSPropertyOp52
 70
     0
102
RTVSPropertyOp53
 70
     1
102
RTVSPropertyOp54
 70
     1
102
RTVSPropertyOp55
 70
     1
102
RTVSPropertyOp56
 70
     1
102
RTVSPropertyOp57
 70
     1
102
RTVSPost2010Prop28
280
     0
102
RTVSPost2010PropOp28
 70
     1
102
RTVSPost2010Prop29
280
     1
102
RTVSPost2010PropOp29
 70
     1
102
RTVSPost2010Prop30
280
     1
102
RTVSPost2010PropOp30
 70
     1
102
RTVSPost2010Prop31
280
     0
102
RTVSPost2010PropOp31
 70
     1
102
RTVSPost2010Prop32
280
     0
102
RTVSPost2010PropOp32
 70
     1
102
RTVSPost2010Prop33
280
     0
102
RTVSPost2010PropOp33
 70
     1
102
RTVSPost2010Prop34
280
     0
102
RTVSPost2010PropOp34
 70
     1
102
RTVSPost2010Prop35
280
     0
102
RTVSPost2010PropOp35
 70
     1
102
RTVSPost2010Prop36
280
     0
102
RTVSPost2010PropOp36
 70
     1
102
RTVSPost2010Prop37
 90
       50
102
RTVSPost2010PropOp37
 70
     1
102
RTVSPost2010Prop38
140
0.0
102
RTVSPost2010PropOp38
 70
     1
102
RTVSPost2010Prop39
140
1.0
102
RTVSPost2010PropOp39
 70
     1
102
RTVSPost2010Prop40
 90
        0
102
RTVSPost2010PropOp40
 70
     1
102
RTVSPost2010Prop41ColorIndex
 90
       18
102
RTVSPost2010Prop41ColorRGB
 90
        0
102
RTVSPost2010PropOp41
 70
     1
102
RTVSPost2010Prop42
 90
       50
102
RTVSPost2010PropOp42
 70
     1
102
RTVSPost2010Prop43
 90
        3
102
RTVSPost2010PropOp43
 70
     1
102
RTVSPost2010Prop44ColorIndex
 90
        5
102
RTVSPost2010Prop44ColorRGB
 90
      255
102
RTVSPost2010PropOp44
 70
     1
102
RTVSPost2010Prop45
280
     0
102
RTVSPost2010PropOp45
 70
     1
102
RTVSPost2010Prop46
 90
       50
102
RTVSPost2010PropOp46
 70
     1
102
RTVSPost2010Prop47
 90
       50
102
RTVSPost2010PropOp47
 70
     1
102
RTVSPost2010Prop48
 90
       50
102
RTVSPost2010PropOp48
 70
     1
102
RTVSPost2010Prop49
280
     0
102
RTVSPost2010PropOp49
 70
     1
102
RTVSPost2010Prop50
 90
       50
102
RTVSPost2010PropOp50
 70
     1
102
RTVSPost2010Prop51ColorIndex
 90
      256
102
RTVSPost2010Prop51ColorRGB
 90
-16777216
102
RTVSPost2010PropOp51
 70
     0
102
RTVSPost2010Prop52
140
1.0
102
RTVSPost2010PropOp52
 70
     0
102
RTVSPost2010Prop53
 90
        2
102
RTVSPost2010PropOp53
 70
     1
102
RTVSPost2010Prop54
  1
strokes_ogs.tif
102
RTVSPost2010PropOp54
 70
     1
102
RTVSPost2010Prop55
280
     0
102
RTVSPost2010PropOp55
 70
     1
102
RTVSPost2010Prop56
140
1.0
102
RTVSPost2010PropOp56
 70
     1
102
RTVSPost2010Prop57
140
1.0
102
RTVSPost2010PropOp57
 70
     1
  0
XRECORD
  5
3EE
102
{ACAD_REACTORS
330
3ED
102
}
330
3ED
100
AcDbXrecord
280
     1
102
RTVSPropertyOp0
 70
     1
102
RTVSPropertyOp1
 70
     1
102
RTVSPropertyOp2
 70
     1
102
RTVSPropertyOp3
 70
     1
102
RTVSPropertyOp4
 70
     1
102
RTVSPropertyOp5
 70
     1
102
RTVSPropertyOp6
 70
     1
102
RTVSPropertyOp7
 70
     1
102
RTVSPropertyOp8
 70
     1
102
RTVSPropertyOp9
 70
     1
102
RTVSPropertyOp10
 70
     1
102
RTVSPropertyOp11
 70
     1
102
RTVSPropertyOp12
 70
     1
102
RTVSPropertyOp13
 70
     1
102
RTVSPropertyOp14
 70
     1
102
RTVSPropertyOp15
 70
     1
102
RTVSPropertyOp16
 70
     1
102
RTVSPropertyOp17
 70
     1
102
RTVSPropertyOp18
 70
     1
102
RTVSPropertyOp19
 70
     1
102
RTVSPropertyOp20
 70
     1
102
RTVSPropertyOp21
 70
     1
102
RTVSPropertyOp22
 70
     1
102
RTVSPropertyOp23
 70
     1
102
RTVSPropertyOp24
 70
     1
102
RTVSPropertyOp25
 70
     1
102
RTVSPropertyOp26
 70
     1
102
RTVSPropertyOp27
 70
     1
102
RTVSPropertyOp28
 70
     1
102
RTVSPropertyOp29
 70
     1
102
RTVSPropertyOp30
 70
     1
102
RTVSPropertyOp31
 70
     1
102
RTVSPropertyOp32
 70
     1
102
RTVSPropertyOp33
 70
     1
102
RTVSPropertyOp34
 70
     1
102
RTVSPropertyOp35
 70
     1
102
RTVSPropertyOp36
 70
     1
102
RTVSPropertyOp37
 70
     1
102
RTVSPropertyOp38
 70
     1
102
RTVSPropertyOp39
 70
     1
102
RTVSPropertyOp40
 70
     1
102
RTVSPropertyOp41
 70
     1
102
RTVSPropertyOp42
 70
     1
102
RTVSPropertyOp43
 70
     1
102
RTVSPropertyOp44
 70
     1
102
RTVSPropertyOp45
 70
     1
102
RTVSPropertyOp46
 70
     1
102
RTVSPropertyOp47
 70
     1
102
RTVSPropertyOp48
 70
     1
102
RTVSPropertyOp49
 70
     1
102
RTVSPropertyOp50
 70
     1
102
RTVSPropertyOp51
 70
     0
102
RTVSPropertyOp52
 70
     0
102
RTVSPropertyOp53
 70
     1
102
RTVSPropertyOp54
 70
     1
102
RTVSPropertyOp55
 70
     1
102
RTVSPropertyOp56
 70
     1
102
RTVSPropertyOp57
 70
     1
102
RTVSPost2010Prop28
280
     0
102
RTVSPost2010PropOp28
 70
     1
102
RTVSPost2010Prop29
280
     1
102
RTVSPost2010PropOp29
 70
     1
102
RTVSPost2010Prop30
280
     1
102
RTVSPost2010PropOp30
 70
     1
102
RTVSPost2010Prop31
280
     0
102
RTVSPost2010PropOp31
 70
     1
102
RTVSPost2010Prop32
280
     0
102
RTVSPost2010PropOp32
 70
     1
102
RTVSPost2010Prop33
280
     0
102
RTVSPost2010PropOp33
 70
     1
102
RTVSPost2010Prop34
280
     0
102
RTVSPost2010PropOp34
 70
     1
102
RTVSPost2010Prop35
280
     0
102
RTVSPost2010PropOp35
 70
     1
102
RTVSPost2010Prop36
280
     0
102
RTVSPost2010PropOp36
 70
     1
102
RTVSPost2010Prop37
 90
       50
102
RTVSPost2010PropOp37
 70
     1
102
RTVSPost2010Prop38
140
0.0
102
RTVSPost2010PropOp38
 70
     1
102
RTVSPost2010Prop39
140
1.0
102
RTVSPost2010PropOp39
 70
     1
102
RTVSPost2010Prop40
 90
        0
102
RTVSPost2010PropOp40
 70
     1
102
RTVSPost2010Prop41ColorIndex
 90
       18
102
RTVSPost2010Prop41ColorRGB
 90
        0
102
RTVSPost2010PropOp41
 70
     1
102
RTVSPost2010Prop42
 90
       50
102
RTVSPost2010PropOp42
 70
     1
102
RTVSPost2010Prop43
 90
        3
102
RTVSPost2010PropOp43
 70
     1
102
RTVSPost2010Prop44ColorIndex
 90
        5
102
RTVSPost2010Prop44ColorRGB
 90
      255
102
RTVSPost2010PropOp44
 70
     1
102
RTVSPost2010Prop45
280
     0
102
RTVSPost2010PropOp45
 70
     1
102
RTVSPost2010Prop46
 90
       50
102
RTVSPost2010PropOp46
 70
     1
102
RTVSPost2010Prop47
 90
       50
102
RTVSPost2010PropOp47
 70
     1
102
RTVSPost2010Prop48
 90
       50
102
RTVSPost2010PropOp48
 70
     1
102
RTVSPost2010Prop49
280
     0
102
RTVSPost2010PropOp49
 70
     1
102
RTVSPost2010Prop50
 90
       50
102
RTVSPost2010PropOp50
 70
     1
102
RTVSPost2010Prop51ColorIndex
 90
      256
102
RTVSPost2010Prop51ColorRGB
 90
-16777216
102
RTVSPost2010PropOp51
 70
     0
102
RTVSPost2010Prop52
140
1.0
102
RTVSPost2010PropOp52
 70
     0
102
RTVSPost2010Prop53
 90
        2
102
RTVSPost2010PropOp53
 70
     1
102
RTVSPost2010Prop54
  1
strokes_ogs.tif
102
RTVSPost2010PropOp54
 70
     1
102
RTVSPost2010Prop55
280
     0
102
RTVSPost2010PropOp55
 70
     1
102
RTVSPost2010Prop56
140
1.0
102
RTVSPost2010PropOp56
 70
     1
102
RTVSPost2010Prop57
140
1.0
102
RTVSPost2010PropOp57
 70
     1
  0
XRECORD
  5
3DE
102
{ACAD_REACTORS
330
3DD
102
}
330
3DD
100
AcDbXrecord
280
     1
102
RTVSPropertyOp0
 70
     1
102
RTVSPropertyOp1
 70
     1
102
RTVSPropertyOp2
 70
     1
102
RTVSPropertyOp3
 70
     1
102
RTVSPropertyOp4
 70
     1
102
RTVSPropertyOp5
 70
     1
102
RTVSPropertyOp6
 70
     1
102
RTVSPropertyOp7
 70
     1
102
RTVSPropertyOp8
 70
     1
102
RTVSPropertyOp9
 70
     1
102
RTVSPropertyOp10
 70
     1
102
RTVSPropertyOp11
 70
     1
102
RTVSPropertyOp12
 70
     1
102
RTVSPropertyOp13
 70
     1
102
RTVSPropertyOp14
 70
     1
102
RTVSPropertyOp15
 70
     1
102
RTVSPropertyOp16
 70
     1
102
RTVSPropertyOp17
 70
     1
102
RTVSPropertyOp18
 70
     1
102
RTVSPropertyOp19
 70
     1
102
RTVSPropertyOp20
 70
     1
102
RTVSPropertyOp21
 70
     1
102
RTVSPropertyOp22
 70
     1
102
RTVSPropertyOp23
 70
     1
102
RTVSPropertyOp24
 70
     1
102
RTVSPropertyOp25
 70
     1
102
RTVSPropertyOp26
 70
     1
102
RTVSPropertyOp27
 70
     1
102
RTVSPropertyOp28
 70
     1
102
RTVSPropertyOp29
 70
     1
102
RTVSPropertyOp30
 70
     1
102
RTVSPropertyOp31
 70
     1
102
RTVSPropertyOp32
 70
     1
102
RTVSPropertyOp33
 70
     1
102
RTVSPropertyOp34
 70
     1
102
RTVSPropertyOp35
 70
     1
102
RTVSPropertyOp36
 70
     1
102
RTVSPropertyOp37
 70
     1
102
RTVSPropertyOp38
 70
     1
102
RTVSPropertyOp39
 70
     1
102
RTVSPropertyOp40
 70
     1
102
RTVSPropertyOp41
 70
     1
102
RTVSPropertyOp42
 70
     1
102
RTVSPropertyOp43
 70
     1
102
RTVSPropertyOp44
 70
     1
102
RTVSPropertyOp45
 70
     1
102
RTVSPropertyOp46
 70
     1
102
RTVSPropertyOp47
 70
     1
102
RTVSPropertyOp48
 70
     1
102
RTVSPropertyOp49
 70
     1
102
RTVSPropertyOp50
 70
     1
102
RTVSPropertyOp51
 70
     0
102
RTVSPropertyOp52
 70
     0
102
RTVSPropertyOp53
 70
     1
102
RTVSPropertyOp54
 70
     1
102
RTVSPropertyOp55
 70
     1
102
RTVSPropertyOp56
 70
     1
102
RTVSPropertyOp57
 70
     1
102
RTVSPost2010Prop28
280
     0
102
RTVSPost2010PropOp28
 70
     1
102
RTVSPost2010Prop29
280
     1
102
RTVSPost2010PropOp29
 70
     1
102
RTVSPost2010Prop30
280
     1
102
RTVSPost2010PropOp30
 70
     1
102
RTVSPost2010Prop31
280
     0
102
RTVSPost2010PropOp31
 70
     1
102
RTVSPost2010Prop32
280
     0
102
RTVSPost2010PropOp32
 70
     1
102
RTVSPost2010Prop33
280
     0
102
RTVSPost2010PropOp33
 70
     1
102
RTVSPost2010Prop34
280
     0
102
RTVSPost2010PropOp34
 70
     1
102
RTVSPost2010Prop35
280
     0
102
RTVSPost2010PropOp35
 70
     1
102
RTVSPost2010Prop36
280
     0
102
RTVSPost2010PropOp36
 70
     1
102
RTVSPost2010Prop37
 90
       50
102
RTVSPost2010PropOp37
 70
     1
102
RTVSPost2010Prop38
140
0.0
102
RTVSPost2010PropOp38
 70
     1
102
RTVSPost2010Prop39
140
1.0
102
RTVSPost2010PropOp39
 70
     1
102
RTVSPost2010Prop40
 90
        0
102
RTVSPost2010PropOp40
 70
     1
102
RTVSPost2010Prop41ColorIndex
 90
       18
102
RTVSPost2010Prop41ColorRGB
 90
        0
102
RTVSPost2010PropOp41
 70
     1
102
RTVSPost2010Prop42
 90
       50
102
RTVSPost2010PropOp42
 70
     1
102
RTVSPost2010Prop43
 90
        3
102
RTVSPost2010PropOp43
 70
     1
102
RTVSPost2010Prop44ColorIndex
 90
        5
102
RTVSPost2010Prop44ColorRGB
 90
      255
102
RTVSPost2010PropOp44
 70
     1
102
RTVSPost2010Prop45
280
     0
102
RTVSPost2010PropOp45
 70
     1
102
RTVSPost2010Prop46
 90
       50
102
RTVSPost2010PropOp46
 70
     1
102
RTVSPost2010Prop47
 90
       50
102
RTVSPost2010PropOp47
 70
     1
102
RTVSPost2010Prop48
 90
       50
102
RTVSPost2010PropOp48
 70
     1
102
RTVSPost2010Prop49
280
     0
102
RTVSPost2010PropOp49
 70
     1
102
RTVSPost2010Prop50
 90
       50
102
RTVSPost2010PropOp50
 70
     1
102
RTVSPost2010Prop51ColorIndex
 90
      256
102
RTVSPost2010Prop51ColorRGB
 90
-16777216
102
RTVSPost2010PropOp51
 70
     0
102
RTVSPost2010Prop52
140
1.0
102
RTVSPost2010PropOp52
 70
     0
102
RTVSPost2010Prop53
 90
        2
102
RTVSPost2010PropOp53
 70
     1
102
RTVSPost2010Prop54
  1
strokes_ogs.tif
102
RTVSPost2010PropOp54
 70
     1
102
RTVSPost2010Prop55
280
     0
102
RTVSPost2010PropOp55
 70
     1
102
RTVSPost2010Prop56
140
1.0
102
RTVSPost2010PropOp56
 70
     1
102
RTVSPost2010Prop57
140
1.0
102
RTVSPost2010PropOp57
 70
     1
  0
XRECORD
  5
3D0
102
{ACAD_REACTORS
330
3CF
102
}
330
3CF
100
AcDbXrecord
280
     1
102
RTVSPropertyOp0
 70
     1
102
RTVSPropertyOp1
 70
     1
102
RTVSPropertyOp2
 70
     1
102
RTVSPropertyOp3
 70
     1
102
RTVSPropertyOp4
 70
     1
102
RTVSPropertyOp5
 70
     1
102
RTVSPropertyOp6
 70
     1
102
RTVSPropertyOp7
 70
     1
102
RTVSPropertyOp8
 70
     1
102
RTVSPropertyOp9
 70
     1
102
RTVSPropertyOp10
 70
     1
102
RTVSPropertyOp11
 70
     1
102
RTVSPropertyOp12
 70
     1
102
RTVSPropertyOp13
 70
     1
102
RTVSPropertyOp14
 70
     1
102
RTVSPropertyOp15
 70
     1
102
RTVSPropertyOp16
 70
     1
102
RTVSPropertyOp17
 70
     1
102
RTVSPropertyOp18
 70
     1
102
RTVSPropertyOp19
 70
     1
102
RTVSPropertyOp20
 70
     1
102
RTVSPropertyOp21
 70
     1
102
RTVSPropertyOp22
 70
     1
102
RTVSPropertyOp23
 70
     1
102
RTVSPropertyOp24
 70
     1
102
RTVSPropertyOp25
 70
     1
102
RTVSPropertyOp26
 70
     1
102
RTVSPropertyOp27
 70
     1
102
RTVSPropertyOp28
 70
     1
102
RTVSPropertyOp29
 70
     1
102
RTVSPropertyOp30
 70
     1
102
RTVSPropertyOp31
 70
     1
102
RTVSPropertyOp32
 70
     1
102
RTVSPropertyOp33
 70
     1
102
RTVSPropertyOp34
 70
     1
102
RTVSPropertyOp35
 70
     1
102
RTVSPropertyOp36
 70
     1
102
RTVSPropertyOp37
 70
     1
102
RTVSPropertyOp38
 70
     1
102
RTVSPropertyOp39
 70
     1
102
RTVSPropertyOp40
 70
     1
102
RTVSPropertyOp41
 70
     1
102
RTVSPropertyOp42
 70
     1
102
RTVSPropertyOp43
 70
     1
102
RTVSPropertyOp44
 70
     1
102
RTVSPropertyOp45
 70
     1
102
RTVSPropertyOp46
 70
     1
102
RTVSPropertyOp47
 70
     1
102
RTVSPropertyOp48
 70
     1
102
RTVSPropertyOp49
 70
     1
102
RTVSPropertyOp50
 70
     1
102
RTVSPropertyOp51
 70
     0
102
RTVSPropertyOp52
 70
     0
102
RTVSPropertyOp53
 70
     1
102
RTVSPropertyOp54
 70
     1
102
RTVSPropertyOp55
 70
     1
102
RTVSPropertyOp56
 70
     1
102
RTVSPropertyOp57
 70
     1
102
RTVSPost2010Prop28
280
     0
102
RTVSPost2010PropOp28
 70
     1
102
RTVSPost2010Prop29
280
     1
102
RTVSPost2010PropOp29
 70
     1
102
RTVSPost2010Prop30
280
     1
102
RTVSPost2010PropOp30
 70
     1
102
RTVSPost2010Prop31
280
     0
102
RTVSPost2010PropOp31
 70
     1
102
RTVSPost2010Prop32
280
     0
102
RTVSPost2010PropOp32
 70
     1
102
RTVSPost2010Prop33
280
     0
102
RTVSPost2010PropOp33
 70
     1
102
RTVSPost2010Prop34
280
     0
102
RTVSPost2010PropOp34
 70
     1
102
RTVSPost2010Prop35
280
     0
102
RTVSPost2010PropOp35
 70
     1
102
RTVSPost2010Prop36
280
     0
102
RTVSPost2010PropOp36
 70
     1
102
RTVSPost2010Prop37
 90
       50
102
RTVSPost2010PropOp37
 70
     1
102
RTVSPost2010Prop38
140
0.0
102
RTVSPost2010PropOp38
 70
     1
102
RTVSPost2010Prop39
140
1.0
102
RTVSPost2010PropOp39
 70
     1
102
RTVSPost2010Prop40
 90
        0
102
RTVSPost2010PropOp40
 70
     1
102
RTVSPost2010Prop41ColorIndex
 90
       18
102
RTVSPost2010Prop41ColorRGB
 90
        0
102
RTVSPost2010PropOp41
 70
     1
102
RTVSPost2010Prop42
 90
       50
102
RTVSPost2010PropOp42
 70
     1
102
RTVSPost2010Prop43
 90
        3
102
RTVSPost2010PropOp43
 70
     1
102
RTVSPost2010Prop44ColorIndex
 90
        5
102
RTVSPost2010Prop44ColorRGB
 90
      255
102
RTVSPost2010PropOp44
 70
     1
102
RTVSPost2010Prop45
280
     0
102
RTVSPost2010PropOp45
 70
     1
102
RTVSPost2010Prop46
 90
       50
102
RTVSPost2010PropOp46
 70
     1
102
RTVSPost2010Prop47
 90
       50
102
RTVSPost2010PropOp47
 70
     1
102
RTVSPost2010Prop48
 90
       50
102
RTVSPost2010PropOp48
 70
     1
102
RTVSPost2010Prop49
280
     0
102
RTVSPost2010PropOp49
 70
     1
102
RTVSPost2010Prop50
 90
       50
102
RTVSPost2010PropOp50
 70
     1
102
RTVSPost2010Prop51ColorIndex
 90
      256
102
RTVSPost2010Prop51ColorRGB
 90
-16777216
102
RTVSPost2010PropOp51
 70
     0
102
RTVSPost2010Prop52
140
1.0
102
RTVSPost2010PropOp52
 70
     0
102
RTVSPost2010Prop53
 90
        2
102
RTVSPost2010PropOp53
 70
     1
102
RTVSPost2010Prop54
  1
strokes_ogs.tif
102
RTVSPost2010PropOp54
 70
     1
102
RTVSPost2010Prop55
280
     0
102
RTVSPost2010PropOp55
 70
     1
102
RTVSPost2010Prop56
140
1.0
102
RTVSPost2010PropOp56
 70
     1
102
RTVSPost2010Prop57
140
1.0
102
RTVSPost2010PropOp57
 70
     1
  0
XRECORD
  5
3F0
102
{ACAD_REACTORS
330
3EF
102
}
330
3EF
100
AcDbXrecord
280
     1
102
RTVSPropertyOp0
 70
     1
102
RTVSPropertyOp1
 70
     1
102
RTVSPropertyOp2
 70
     1
102
RTVSPropertyOp3
 70
     1
102
RTVSPropertyOp4
 70
     1
102
RTVSPropertyOp5
 70
     1
102
RTVSPropertyOp6
 70
     1
102
RTVSPropertyOp7
 70
     1
102
RTVSPropertyOp8
 70
     1
102
RTVSPropertyOp9
 70
     1
102
RTVSPropertyOp10
 70
     1
102
RTVSPropertyOp11
 70
     1
102
RTVSPropertyOp12
 70
     1
102
RTVSPropertyOp13
 70
     1
102
RTVSPropertyOp14
 70
     1
102
RTVSPropertyOp15
 70
     1
102
RTVSPropertyOp16
 70
     1
102
RTVSPropertyOp17
 70
     1
102
RTVSPropertyOp18
 70
     1
102
RTVSPropertyOp19
 70
     1
102
RTVSPropertyOp20
 70
     1
102
RTVSPropertyOp21
 70
     1
102
RTVSPropertyOp22
 70
     1
102
RTVSPropertyOp23
 70
     1
102
RTVSPropertyOp24
 70
     1
102
RTVSPropertyOp25
 70
     1
102
RTVSPropertyOp26
 70
     1
102
RTVSPropertyOp27
 70
     1
102
RTVSPropertyOp28
 70
     1
102
RTVSPropertyOp29
 70
     1
102
RTVSPropertyOp30
 70
     1
102
RTVSPropertyOp31
 70
     1
102
RTVSPropertyOp32
 70
     1
102
RTVSPropertyOp33
 70
     1
102
RTVSPropertyOp34
 70
     1
102
RTVSPropertyOp35
 70
     1
102
RTVSPropertyOp36
 70
     1
102
RTVSPropertyOp37
 70
     1
102
RTVSPropertyOp38
 70
     1
102
RTVSPropertyOp39
 70
     1
102
RTVSPropertyOp40
 70
     1
102
RTVSPropertyOp41
 70
     1
102
RTVSPropertyOp42
 70
     1
102
RTVSPropertyOp43
 70
     1
102
RTVSPropertyOp44
 70
     1
102
RTVSPropertyOp45
 70
     1
102
RTVSPropertyOp46
 70
     1
102
RTVSPropertyOp47
 70
     1
102
RTVSPropertyOp48
 70
     1
102
RTVSPropertyOp49
 70
     1
102
RTVSPropertyOp50
 70
     1
102
RTVSPropertyOp51
 70
     0
102
RTVSPropertyOp52
 70
     0
102
RTVSPropertyOp53
 70
     1
102
RTVSPropertyOp54
 70
     1
102
RTVSPropertyOp55
 70
     1
102
RTVSPropertyOp56
 70
     1
102
RTVSPropertyOp57
 70
     1
102
RTVSPost2010Prop28
280
     0
102
RTVSPost2010PropOp28
 70
     1
102
RTVSPost2010Prop29
280
     1
102
RTVSPost2010PropOp29
 70
     1
102
RTVSPost2010Prop30
280
     1
102
RTVSPost2010PropOp30
 70
     1
102
RTVSPost2010Prop31
280
     0
102
RTVSPost2010PropOp31
 70
     1
102
RTVSPost2010Prop32
280
     0
102
RTVSPost2010PropOp32
 70
     1
102
RTVSPost2010Prop33
280
     0
102
RTVSPost2010PropOp33
 70
     1
102
RTVSPost2010Prop34
280
     0
102
RTVSPost2010PropOp34
 70
     1
102
RTVSPost2010Prop35
280
     0
102
RTVSPost2010PropOp35
 70
     1
102
RTVSPost2010Prop36
280
     0
102
RTVSPost2010PropOp36
 70
     1
102
RTVSPost2010Prop37
 90
       50
102
RTVSPost2010PropOp37
 70
     1
102
RTVSPost2010Prop38
140
0.0
102
RTVSPost2010PropOp38
 70
     1
102
RTVSPost2010Prop39
140
1.0
102
RTVSPost2010PropOp39
 70
     1
102
RTVSPost2010Prop40
 90
        0
102
RTVSPost2010PropOp40
 70
     1
102
RTVSPost2010Prop41ColorIndex
 90
       18
102
RTVSPost2010Prop41ColorRGB
 90
        0
102
RTVSPost2010PropOp41
 70
     1
102
RTVSPost2010Prop42
 90
       50
102
RTVSPost2010PropOp42
 70
     1
102
RTVSPost2010Prop43
 90
        3
102
RTVSPost2010PropOp43
 70
     1
102
RTVSPost2010Prop44ColorIndex
 90
        5
102
RTVSPost2010Prop44ColorRGB
 90
      255
102
RTVSPost2010PropOp44
 70
     1
102
RTVSPost2010Prop45
280
     0
102
RTVSPost2010PropOp45
 70
     1
102
RTVSPost2010Prop46
 90
       50
102
RTVSPost2010PropOp46
 70
     1
102
RTVSPost2010Prop47
 90
       50
102
RTVSPost2010PropOp47
 70
     1
102
RTVSPost2010Prop48
 90
       50
102
RTVSPost2010PropOp48
 70
     1
102
RTVSPost2010Prop49
280
     0
102
RTVSPost2010PropOp49
 70
     1
102
RTVSPost2010Prop50
 90
       50
102
RTVSPost2010PropOp50
 70
     1
102
RTVSPost2010Prop51ColorIndex
 90
      256
102
RTVSPost2010Prop51ColorRGB
 90
-16777216
102
RTVSPost2010PropOp51
 70
     0
102
RTVSPost2010Prop52
140
1.0
102
RTVSPost2010PropOp52
 70
     0
102
RTVSPost2010Prop53
 90
        2
102
RTVSPost2010PropOp53
 70
     1
102
RTVSPost2010Prop54
  1
strokes_ogs.tif
102
RTVSPost2010PropOp54
 70
     1
102
RTVSPost2010Prop55
280
     0
102
RTVSPost2010PropOp55
 70
     1
102
RTVSPost2010Prop56
140
1.0
102
RTVSPost2010PropOp56
 70
     1
102
RTVSPost2010Prop57
140
1.0
102
RTVSPost2010PropOp57
 70
     1
  0
ENDSEC
  0
EOF
