  0
SECTION
  2
HEADER
  9
$ACADVER
  1
AC1018
  9
$ACADMAINTVER
 70
     0
  9
$DWGCODEPAGE
  3
ANSI_932
  9
$INSBASE
 10
0.0
 20
0.0
 30
0.0
  9
$EXTMIN
 10
-840.0
 20
-594.0
 30
0.0
  9
$EXTMAX
 10
840.0
 20
594.0
 30
0.0
  9
$LIMMIN
 10
-840.0
 20
-594.0
  9
$LIMMAX
 10
840.0
 20
594.0
  9
$ORTHOMODE
 70
     0
  9
$REGENMODE
 70
     1
  9
$FILLMODE
 70
     1
  9
$QTEXTMODE
 70
     0
  9
$MIRRTEXT
 70
     1
  9
$LTSCALE
 40
4.0
  9
$ATTMODE
 70
     1
  9
$TEXTSIZE
 40
2.5
  9
$TRACEWID
 40
1.0
  9
$TEXTSTYLE
  7
Standard
  9
$CLAYER
  8
0
  9
$CELTYPE
  6
ByLayer
  9
$CECOLOR
 62
   256
  9
$CELTSCALE
 40
1.0
  9
$DISPSILH
 70
     0
  9
$DIMSCALE
 40
1.0
  9
$DIMASZ
 40
2.5
  9
$DIMEXO
 40
0.625
  9
$DIMDLI
 40
3.75
  9
$DIMRND
 40
0.0
  9
$DIMDLE
 40
0.0
  9
$DIMEXE
 40
1.25
  9
$DIMTP
 40
0.0
  9
$DIMTM
 40
0.0
  9
$DIMTXT
 40
2.5
  9
$DIMCEN
 40
2.5
  9
$DIMTSZ
 40
0.0
  9
$DIMTOL
 70
     0
  9
$DIMLIM
 70
     0
  9
$DIMTIH
 70
     0
  9
$DIMTOH
 70
     0
  9
$DIMSE1
 70
     0
  9
$DIMSE2
 70
     0
  9
$DIMTAD
 70
     1
  9
$DIMZIN
 70
     8
  9
$DIMBLK
  1

  9
$DIMASO
 70
     1
  9
$DIMSHO
 70
     1
  9
$DIMPOST
  1

  9
$DIMAPOST
  1

  9
$DIMALT
 70
     0
  9
$DIMALTD
 70
     3
  9
$DIMALTF
 40
0.03937007874016
  9
$DIMLFAC
 40
1.0
  9
$DIMTOFL
 70
     1
  9
$DIMTVP
 40
0.0
  9
$DIMTIX
 70
     0
  9
$DIMSOXD
 70
     0
  9
$DIMSAH
 70
     0
  9
$DIMBLK1
  1

  9
$DIMBLK2
  1

  9
$DIMSTYLE
  2
ISO-25
  9
$DIMCLRD
 70
     0
  9
$DIMCLRE
 70
     0
  9
$DIMCLRT
 70
     0
  9
$DIMTFAC
 40
1.0
  9
$DIMGAP
 40
0.625
  9
$DIMJUST
 70
     0
  9
$DIMSD1
 70
     0
  9
$DIMSD2
 70
     0
  9
$DIMTOLJ
 70
     0
  9
$DIMTZIN
 70
     8
  9
$DIMALTZ
 70
     0
  9
$DIMALTTZ
 70
     0
  9
$DIMUPT
 70
     0
  9
$DIMDEC
 70
     2
  9
$DIMTDEC
 70
     2
  9
$DIMALTU
 70
     2
  9
$DIMALTTD
 70
     3
  9
$DIMTXSTY
  7
Standard
  9
$DIMAUNIT
 70
     0
  9
$DIMADEC
 70
     0
  9
$DIMALTRND
 40
0.0
  9
$DIMAZIN
 70
     0
  9
$DIMDSEP
 70
    44
  9
$DIMATFIT
 70
     3
  9
$DIMFRAC
 70
     0
  9
$DIMLDRBLK
  1

  9
$DIMLUNIT
 70
     2
  9
$DIMLWD
 70
    -2
  9
$DIMLWE
 70
    -2
  9
$DIMTMOVE
 70
     0
  9
$LUNITS
 70
     2
  9
$LUPREC
 70
     4
  9
$SKETCHINC
 40
1.0
  9
$FILLETRAD
 40
10.0
  9
$AUNITS
 70
     0
  9
$AUPREC
 70
     0
  9
$MENU
  1
.
  9
$ELEVATION
 40
0.0
  9
$PELEVATION
 40
0.0
  9
$THICKNESS
 40
0.0
  9
$LIMCHECK
 70
     0
  9
$CHAMFERA
 40
0.0
  9
$CHAMFERB
 40
0.0
  9
$CHAMFERC
 40
0.0
  9
$CHAMFERD
 40
0.0
  9
$SKPOLY
 70
     0
  9
$TDCREATE
 40
2460095.72811493
  9
$TDUCREATE
 40
2460095.35311493
  9
$TDUPDATE
 40
2460095.728115069
  9
$TDUUPDATE
 40
2460095.353115069
  9
$TDINDWG
 40
0.0000000116
  9
$TDUSRTIMER
 40
0.0000000116
  9
$USRTIMER
 70
     1
  9
$ANGBASE
 50
0.0
  9
$ANGDIR
 70
     0
  9
$PDMODE
 70
     0
  9
$PDSIZE
 40
0.0
  9
$PLINEWID
 40
0.0
  9
$SPLFRAME
 70
     0
  9
$SPLINETYPE
 70
     6
  9
$SPLINESEGS
 70
     8
  9
$HANDSEED
  5
43F
  9
$SURFTAB1
 70
     6
  9
$SURFTAB2
 70
     6
  9
$SURFTYPE
 70
     6
  9
$SURFU
 70
     6
  9
$SURFV
 70
     6
  9
$UCSBASE
  2

  9
$UCSNAME
  2

  9
$UCSORG
 10
0.0
 20
0.0
 30
0.0
  9
$UCSXDIR
 10
1.0
 20
0.0
 30
0.0
  9
$UCSYDIR
 10
0.0
 20
1.0
 30
0.0
  9
$UCSORTHOREF
  2

  9
$UCSORTHOVIEW
 70
     0
  9
$UCSORGTOP
 10
0.0
 20
0.0
 30
0.0
  9
$UCSORGBOTTOM
 10
0.0
 20
0.0
 30
0.0
  9
$UCSORGLEFT
 10
0.0
 20
0.0
 30
0.0
  9
$UCSORGRIGHT
 10
0.0
 20
0.0
 30
0.0
  9
$UCSORGFRONT
 10
0.0
 20
0.0
 30
0.0
  9
$UCSORGBACK
 10
0.0
 20
0.0
 30
0.0
  9
$PUCSBASE
  2

  9
$PUCSNAME
  2

  9
$PUCSORG
 10
0.0
 20
0.0
 30
0.0
  9
$PUCSXDIR
 10
1.0
 20
0.0
 30
0.0
  9
$PUCSYDIR
 10
0.0
 20
1.0
 30
0.0
  9
$PUCSORTHOREF
  2

  9
$PUCSORTHOVIEW
 70
     0
  9
$PUCSORGTOP
 10
0.0
 20
0.0
 30
0.0
  9
$PUCSORGBOTTOM
 10
0.0
 20
0.0
 30
0.0
  9
$PUCSORGLEFT
 10
0.0
 20
0.0
 30
0.0
  9
$PUCSORGRIGHT
 10
0.0
 20
0.0
 30
0.0
  9
$PUCSORGFRONT
 10
0.0
 20
0.0
 30
0.0
  9
$PUCSORGBACK
 10
0.0
 20
0.0
 30
0.0
  9
$USERI1
 70
     0
  9
$USERI2
 70
     0
  9
$USERI3
 70
     0
  9
$USERI4
 70
     0
  9
$USERI5
 70
     0
  9
$USERR1
 40
0.0
  9
$USERR2
 40
0.0
  9
$USERR3
 40
0.0
  9
$USERR4
 40
0.0
  9
$USERR5
 40
0.0
  9
$WORLDVIEW
 70
     1
  9
$SHADEDGE
 70
     3
  9
$SHADEDIF
 70
    70
  9
$TILEMODE
 70
     1
  9
$MAXACTVP
 70
    64
  9
$PINSBASE
 10
0.0
 20
0.0
 30
0.0
  9
$PLIMCHECK
 70
     0
  9
$PEXTMIN
 10
1.000000000000000E+20
 20
1.000000000000000E+20
 30
1.000000000000000E+20
  9
$PEXTMAX
 10
-1.000000000000000E+20
 20
-1.000000000000000E+20
 30
-1.000000000000000E+20
  9
$PLIMMIN
 10
0.0
 20
0.0
  9
$PLIMMAX
 10
420.0
 20
297.0
  9
$UNITMODE
 70
     0
  9
$VISRETAIN
 70
     1
  9
$PLINEGEN
 70
     0
  9
$PSLTSCALE
 70
     1
  9
$TREEDEPTH
 70
  3020
  9
$CMLSTYLE
  2
Standard
  9
$CMLJUST
 70
     0
  9
$CMLSCALE
 40
20.0
  9
$PROXYGRAPHICS
 70
     1
  9
$MEASUREMENT
 70
     1
  9
$CELWEIGHT
370
    -1
  9
$ENDCAPS
280
     0
  9
$JOINSTYLE
280
     0
  9
$LWDISPLAY
290
     0
  9
$INSUNITS
 70
     4
  9
$HYPERLINKBASE
  1

  9
$STYLESHEET
  1

  9
$XEDIT
290
     1
  9
$CEPSNTYPE
380
     0
  9
$PSTYLEMODE
290
     1
  9
$FINGERPRINTGUID
  2
{A52C5238-4198-4E2F-BA0F-08078AAB586C}
  9
$VERSIONGUID
  2
{FAEB1C32-E019-11D5-929B-00C0DF256EC4}
  9
$EXTNAMES
290
     1
  9
$PSVPSCALE
 40
0.0
  9
$OLESTARTUP
290
     0
  9
$SORTENTS
280
   127
  9
$INDEXCTL
280
     0
  9
$HIDETEXT
280
     1
  9
$XCLIPFRAME
290
     0
  9
$HALOGAP
280
     0
  9
$OBSCOLOR
 70
   257
  9
$OBSLTYPE
280
     0
  9
$INTERSECTIONDISPLAY
280
     0
  9
$INTERSECTIONCOLOR
 70
   257
  9
$DIMASSOC
280
     2
  9
$PROJECTNAME
  1

  0
ENDSEC
  0
SECTION
  2
CLASSES
  0
CLASS
  1
ACDBDICTIONARYWDFLT
  2
AcDbDictionaryWithDefault
  3
ObjectDBX Classes
 90
        0
 91
        4
280
     0
281
     0
  0
CLASS
  1
VISUALSTYLE
  2
AcDbVisualStyle
  3
ObjectDBX Classes
 90
     4095
 91
        4
280
     0
281
     0
  0
CLASS
  1
MATERIAL
  2
AcDbMaterial
  3
ObjectDBX Classes
 90
     1153
 91
        4
280
     0
281
     0
  0
CLASS
  1
SCALE
  2
AcDbScale
  3
ObjectDBX Classes
 90
     1153
 91
        4
280
     0
281
     0
  0
CLASS
  1
TABLESTYLE
  2
AcDbTableStyle
  3
ObjectDBX Classes
 90
     4095
 91
        4
280
     0
281
     0
  0
CLASS
  1
MLEADERSTYLE
  2
AcDbMLeaderStyle
  3
ACDB_MLEADERSTYLE_CLASS
 90
     4095
 91
        4
280
     0
281
     0
  0
CLASS
  1
SUN
  2
AcDbSun
  3
SCENEOE
 90
     1153
 91
        4
280
     0
281
     0
  0
CLASS
  1
DICTIONARYVAR
  2
AcDbDictionaryVar
  3
ObjectDBX Classes
 90
        0
 91
        4
280
     0
281
     0
  0
CLASS
  1
CELLSTYLEMAP
  2
AcDbCellStyleMap
  3
ObjectDBX Classes
 90
     1152
 91
        4
280
     0
281
     0
  0
ENDSEC
  0
SECTION
  2
TABLES
  0
TABLE
  2
VPORT
  5
8
102
{ACAD_XDICTIONARY
360
3F6
102
}
330
0
100
AcDbSymbolTable
 70
     1
  0
VPORT
  5
29
330
8
100
AcDbSymbolTableRecord
100
AcDbViewportTableRecord
  2
*Active
 70
     0
 10
0.0
 20
0.0
 11
1.0
 21
1.0
 12
0.0
 22
0.0
 13
0.0
 23
0.0
 14
10.0
 24
10.0
 15
10.0
 25
10.0
 16
0.0
 26
0.0
 36
1.0
 17
0.0
 27
0.0
 37
0.0
 40
1306.8
 41
1.414141414141414
 42
50.0
 43
0.0
 44
0.0
 50
0.0
 51
0.0
 71
     0
 72
 10000
 73
     1
 74
     3
 75
     0
 76
     0
 77
     0
 78
     0
281
     0
 65
     1
110
0.0
120
0.0
130
0.0
111
1.0
121
0.0
131
0.0
112
0.0
122
1.0
132
0.0
 79
     0
146
0.0
  0
ENDTAB
  0
TABLE
  2
LTYPE
  5
5
330
0
100
AcDbSymbolTable
 70
     5
  0
LTYPE
  5
14
330
5
100
AcDbSymbolTableRecord
100
AcDbLinetypeTableRecord
  2
ByBlock
 70
     0
  3

 72
    65
 73
     0
 40
0.0
  0
LTYPE
  5
15
330
5
100
AcDbSymbolTableRecord
100
AcDbLinetypeTableRecord
  2
ByLayer
 70
     0
  3

 72
    65
 73
     0
 40
0.0
  0
LTYPE
  5
16
330
5
100
AcDbSymbolTableRecord
100
AcDbLinetypeTableRecord
  2
Continuous
 70
     0
  3
Solid line
 72
    65
 73
     0
 40
0.0
  0
LTYPE
  5
6F
330
5
100
AcDbSymbolTableRecord
100
AcDbLinetypeTableRecord
  2
JWW_CENTER1
 70
     0
  3
-----  --  ----------  --  -----
 72
    65
 73
     4
 40
6.773333333333333
 49
4.233333333333333
 74
     0
 49
-0.8466666666666667
 74
     0
 49
0.8466666666666667
 74
     0
 49
-0.8466666666666667
 74
     0
  0
LTYPE
  5
70
330
5
100
AcDbSymbolTableRecord
100
AcDbLinetypeTableRecord
  2
JWW_HOJO
 70
     0
  3
  -   -   -   -   -   -   -   - 
 72
    65
 73
     2
 40
1.693333333333333
 49
-1.27
 74
     0
 49
0.4233333333333333
 74
     0
  0
LTYPE
  5
71
330
5
100
AcDbSymbolTableRecord
100
AcDbLinetypeTableRecord
  2
JWW_DASHED2
 70
     0
  3
--    ----    ----    ----    --
 72
    65
 73
     2
 40
3.386666666666667
 49
1.693333333333333
 74
     0
 49
-1.693333333333333
 74
     0
  0
LTYPE
  5
72
330
5
100
AcDbSymbolTableRecord
100
AcDbLinetypeTableRecord
  2
JWW_DASHED1
 70
     0
  3
-  --  --  --  --  --  --  --  -
 72
    65
 73
     2
 40
1.693333333333333
 49
0.8466666666666667
 74
     0
 49
-0.8466666666666667
 74
     0
  0
ENDTAB
  0
TABLE
  2
LAYER
  5
2
330
0
100
AcDbSymbolTable
 70
    10
  0
LAYER
  5
10
330
2
100
AcDbSymbolTableRecord
100
AcDbLayerTableRecord
  2
0
 70
     0
 62
     7
  6
Continuous
370
    -3
390
F
  0
LAYER
  5
73
330
2
100
AcDbSymbolTableRecord
100
AcDbLayerTableRecord
  2
0-A
 70
     0
 62
     7
  6
Continuous
370
    -3
390
F
  0
LAYER
  5
74
330
2
100
AcDbSymbolTableRecord
100
AcDbLayerTableRecord
  2
通り芯
 70
     0
 62
     7
  6
Continuous
370
    -3
390
F
  0
LAYER
  5
75
330
2
100
AcDbSymbolTableRecord
100
AcDbLayerTableRecord
  2
0-8
 70
     0
 62
     7
  6
Continuous
370
    -3
390
F
  0
LAYER
  5
76
330
2
100
AcDbSymbolTableRecord
100
AcDbLayerTableRecord
  2
仕上
 70
     0
 62
     7
  6
Continuous
370
    -3
390
F
  0
LAYER
  5
77
330
2
100
AcDbSymbolTableRecord
100
AcDbLayerTableRecord
  2
躯体
 70
     0
 62
     7
  6
Continuous
370
    -3
390
F
  0
LAYER
  5
78
330
2
100
AcDbSymbolTableRecord
100
AcDbLayerTableRecord
  2
その他
 70
     0
 62
     7
  6
Continuous
370
    -3
390
F
  0
LAYER
  5
79
330
2
100
AcDbSymbolTableRecord
100
AcDbLayerTableRecord
  2
0-F
 70
     0
 62
     7
  6
Continuous
370
    -3
390
F
  0
LAYER
  5
7A
330
2
100
AcDbSymbolTableRecord
100
AcDbLayerTableRecord
  2
寸法
 70
     0
 62
     7
  6
Continuous
370
    -3
390
F
  0
LAYER
  5
7B
330
2
100
AcDbSymbolTableRecord
100
AcDbLayerTableRecord
  2
F-4ﾚｲﾔ
 70
     0
 62
     7
  6
Continuous
370
    -3
390
F
  0
ENDTAB
  0
TABLE
  2
STYLE
  5
3
330
0
100
AcDbSymbolTable
 70
     2
  0
STYLE
  5
11
330
3
100
AcDbSymbolTableRecord
100
AcDbTextStyleTableRecord
  2
Standard
 70
     0
 40
0.0
 41
1.0
 50
0.0
 71
     0
 42
2.5
  3
txt
  4

  0
STYLE
  5
6E
330
3
100
AcDbSymbolTableRecord
100
AcDbTextStyleTableRecord
  2
ＭＳ ゴシック
 70
     0
 40
1.0
 41
1.0
 50
0.0
 71
     0
 42
2.5
  3

  4

1001
ACAD
1000
MS Gothic
1071
    32817
  0
ENDTAB
  0
TABLE
  2
VIEW
  5
6
330
0
100
AcDbSymbolTable
 70
     0
  0
ENDTAB
  0
TABLE
  2
UCS
  5
7
330
0
100
AcDbSymbolTable
 70
     0
  0
ENDTAB
  0
TABLE
  2
APPID
  5
9
330
0
100
AcDbSymbolTable
 70
     2
  0
APPID
  5
12
330
9
100
AcDbSymbolTableRecord
100
AcDbRegAppTableRecord
  2
ACAD
 70
     0
  0
APPID
  5
435
330
9
100
AcDbSymbolTableRecord
100
AcDbRegAppTableRecord
  2
ACAD_MLEADERVER
 70
     0
  0
ENDTAB
  0
TABLE
  2
DIMSTYLE
  5
A
330
0
100
AcDbSymbolTable
 70
     1
100
AcDbDimStyleTable
  0
DIMSTYLE
105
27
330
A
100
AcDbSymbolTableRecord
100
AcDbDimStyleTableRecord
  2
ISO-25
 70
     0
 41
2.5
 42
0.625
 43
3.75
 44
1.25
 73
     0
 74
     0
 77
     1
 78
     8
140
2.5
141
2.5
143
0.03937007874016
147
0.625
171
     3
172
     1
178
     0
271
     2
272
     2
274
     3
278
    44
283
     0
284
     8
340
11
  0
ENDTAB
  0
TABLE
  2
BLOCK_RECORD
  5
1
330
0
100
AcDbSymbolTable
 70
     1
  0
BLOCK_RECORD
  5
1F
330
1
100
AcDbSymbolTableRecord
100
AcDbBlockTableRecord
  2
*Model_Space
340
22
  0
BLOCK_RECORD
  5
1B
330
1
100
AcDbSymbolTableRecord
100
AcDbBlockTableRecord
  2
*Paper_Space
340
1E
  0
BLOCK_RECORD
  5
23
330
1
100
AcDbSymbolTableRecord
100
AcDbBlockTableRecord
  2
*Paper_Space0
340
26
  0
ENDTAB
  0
ENDSEC
  0
SECTION
  2
BLOCKS
  0
BLOCK
  5
20
330
1F
100
AcDbEntity
  8
0
100
AcDbBlockBegin
  2
*Model_Space
 70
     0
 10
0.0
 20
0.0
 30
0.0
  3
*Model_Space
  1

  0
ENDBLK
  5
21
330
1F
100
AcDbEntity
  8
0
100
AcDbBlockEnd
  0
BLOCK
  5
1C
330
1B
100
AcDbEntity
 67
     1
  8
0
100
AcDbBlockBegin
  2
*Paper_Space
 70
     0
 10
0.0
 20
0.0
 30
0.0
  3
*Paper_Space
  1

  0
ENDBLK
  5
1D
330
1B
100
AcDbEntity
 67
     1
  8
0
100
AcDbBlockEnd
  0
BLOCK
  5
24
330
23
100
AcDbEntity
  8
0
100
AcDbBlockBegin
  2
*Paper_Space0
 70
     0
 10
0.0
 20
0.0
 30
0.0
  3
*Paper_Space0
  1

  0
ENDBLK
  5
25
330
23
100
AcDbEntity
  8
0
100
AcDbBlockEnd
  0
ENDSEC
  0
SECTION
  2
ENTITIES
  0
LINE
  5
7C
330
1F
100
AcDbEntity
  8
0-A
  6
Continuous
 62
     2
370
     9
100
AcDbLine
 10
-104.1751356770089
 20
-277.188931955207
 30
0.0
 11
-105.2357361639705
 21
-276.1282323744879
 31
0.0
  0
LINE
  5
7D
330
1F
100
AcDbEntity
  8
通り芯
  6
Continuous
 62
     4
370
     9
100
AcDbLine
 10
-166.5166042948597
 20
-180.778377655959
 30
0.0
 11
-165.2074793165559
 21
-183.0463676486737
 31
0.0
  0
ARC
  5
7E
330
1F
100
AcDbEntity
  8
通り芯
  6
Continuous
 62
     4
370
     9
100
AcDbCircle
 10
80.48326126283678
 20
437.6449280229214
 30
0.0
 40
10.0
100
AcDbArc
 50
0.0000000000000127
 51
90.0
  0
LINE
  5
7F
330
1F
100
AcDbEntity
  8
通り芯
  6
Continuous
 62
     4
370
     9
100
AcDbLine
 10
-167.2468606000975
 20
446.380689864213
 30
0.0
 11
-176.5172798055755
 21
447.6449280229214
 31
0.0
  0
ARC
  5
80
330
1F
100
AcDbEntity
  8
通り芯
  6
Continuous
 62
     4
370
     9
100
AcDbCircle
 10
-167.517089276912
 20
444.3991119946651
 30
0.0
 40
2.000000018410701
100
AcDbArc
 50
359.9999999999999
 51
82.23445129394527
  0
LINE
  5
81
330
1F
100
AcDbEntity
  8
通り芯
  6
Continuous
 62
     4
370
     9
100
AcDbLine
 10
80.48326126283678
 20
447.6449280229214
 30
0.0
 11
-176.5172798055755
 21
447.6449280229214
 31
0.0
  0
LINE
  5
82
330
1F
100
AcDbEntity
  8
通り芯
  6
Continuous
 62
     4
370
     9
100
AcDbLine
 10
-115.8709287039514
 20
416.1449280229214
 30
0.0
 11
-117.4337844418583
 21
446.1448467212653
 31
0.0
  0
LINE
  5
83
330
1F
100
AcDbEntity
  8
通り芯
  6
Continuous
 62
     4
370
     9
100
AcDbLine
 10
79.48326126283678
 20
445.1449907076764
 30
0.0
 11
-117.3817422272427
 21
445.1449907076764
 31
0.0
  0
ARC
  5
84
330
1F
100
AcDbEntity
  8
通り芯
  6
Continuous
 62
     4
370
     9
100
AcDbCircle
 10
79.48326126283678
 20
435.1449907076764
 30
0.0
 40
10.0
100
AcDbArc
 50
0.0
 51
90.0
  0
LINE
  5
85
330
1F
100
AcDbEntity
  8
通り芯
  6
Continuous
 62
     4
370
     9
100
AcDbLine
 10
79.48326126283678
 20
446.1448467212653
 30
0.0
 11
-166.541164405769
 21
446.1448467212653
 31
0.0
  0
ARC
  5
86
330
1F
100
AcDbEntity
  8
通り芯
  6
Continuous
 62
     4
370
     9
100
AcDbCircle
 10
79.48326126283678
 20
436.1448467212653
 30
0.0
 40
10.0
100
AcDbArc
 50
0.0000000000000127
 51
90.0
  0
LINE
  5
87
330
1F
100
AcDbEntity
  8
通り芯
  6
Continuous
 62
     4
370
     9
100
AcDbLine
 10
-184.5172402280914
 20
381.1449280229214
 30
0.0
 11
-176.5172798055755
 21
377.8116652528251
 31
0.0
  0
LINE
  5
88
330
1F
100
AcDbEntity
  8
通り芯
  6
Continuous
 62
     4
370
     9
100
AcDbLine
 10
-184.5172402280914
 20
393.1449280229214
 30
0.0
 11
-176.5172798055755
 21
396.4781907930177
 31
0.0
  0
LINE
  5
89
330
1F
100
AcDbEntity
  8
0-8
  6
JWW_CENTER1
 62
     2
370
     9
100
AcDbLine
 10
206.4828398492527
 20
505.6214245389689
 30
0.0
 11
206.4828398492527
 21
498.358644861272
 31
0.0
  0
LINE
  5
8A
330
1F
100
AcDbEntity
  8
0-8
  6
JWW_CENTER1
 62
     2
370
     9
100
AcDbLine
 10
202.6203633678188
 20
502.1448191493993
 30
0.0
 11
210.1770551303821
 21
502.1448191493993
 31
0.0
  0
CIRCLE
  5
8B
330
1F
100
AcDbEntity
  8
0-8
  6
Continuous
 62
     2
370
     9
100
AcDbCircle
 10
206.4828398492527
 20
502.1448191493993
 30
0.0
 40
2.099999941914238
  0
LINE
  5
8C
330
1F
100
AcDbEntity
  8
0-8
  6
Continuous
 62
     2
370
     9
100
AcDbLine
 10
221.4828601157528
 20
517.1448394158991
 30
0.0
 11
-138.517064002702
 21
517.1448394158991
 31
0.0
  0
LINE
  5
8D
330
1F
100
AcDbEntity
  8
0-8
  6
JWW_CENTER1
 62
     2
370
     9
100
AcDbLine
 10
-123.5170437362019
 20
505.6214245389689
 30
0.0
 11
-123.5170437362019
 21
498.358644861272
 31
0.0
  0
LINE
  5
8E
330
1F
100
AcDbEntity
  8
0-8
  6
JWW_CENTER1
 62
     2
370
     9
100
AcDbLine
 10
-127.3793220301206
 20
502.1448191493993
 30
0.0
 11
-119.8228284550726
 21
502.1448191493993
 31
0.0
  0
CIRCLE
  5
8F
330
1F
100
AcDbEntity
  8
0-8
  6
Continuous
 62
     2
370
     9
100
AcDbCircle
 10
-123.5170437362019
 20
502.1448191493993
 30
0.0
 40
2.099999941914238
  0
LINE
  5
90
330
1F
100
AcDbEntity
  8
0-8
  6
JWW_CENTER1
 62
     2
370
     9
100
AcDbLine
 10
41.48289805652553
 20
505.6214245389689
 30
0.0
 11
41.48289805652553
 21
498.358644861272
 31
0.0
  0
LINE
  5
91
330
1F
100
AcDbEntity
  8
0-8
  6
JWW_CENTER1
 62
     2
370
     9
100
AcDbLine
 10
37.62042157509154
 20
502.1448191493993
 30
0.0
 11
45.17711333765442
 21
502.1448191493993
 31
0.0
  0
CIRCLE
  5
92
330
1F
100
AcDbEntity
  8
0-8
  6
Continuous
 62
     2
370
     9
100
AcDbCircle
 10
41.48289805652553
 20
502.1448191493993
 30
0.0
 40
2.099999941914238
  0
LINE
  5
93
330
1F
100
AcDbEntity
  8
0-8
  6
Continuous
 62
     2
370
     9
100
AcDbLine
 10
-138.517064002702
 20
447.6449280229214
 30
0.0
 11
-138.517064002702
 21
517.1448394158991
 31
0.0
  0
LINE
  5
94
330
1F
100
AcDbEntity
  8
通り芯
  6
Continuous
 62
     4
370
     9
100
AcDbLine
 10
-211.4552813208045
 20
325.5574119918066
 30
0.0
 11
-215.4544519101971
 21
325.5574119918066
 31
0.0
  0
LINE
  5
95
330
1F
100
AcDbEntity
  8
通り芯
  6
Continuous
 62
     4
370
     9
100
AcDbLine
 10
-215.4544519101971
 20
325.5574119918066
 30
0.0
 11
-215.4544519101971
 21
236.1449280229214
 31
0.0
  0
LINE
  5
96
330
1F
100
AcDbEntity
  8
通り芯
  6
Continuous
 62
     4
370
     9
100
AcDbLine
 10
-211.4552813208045
 20
328.7504119918066
 30
0.0
 11
-211.4552813208045
 21
236.1449280229214
 31
0.0
  0
LINE
  5
97
330
1F
100
AcDbEntity
  8
通り芯
  6
Continuous
 62
     4
370
     9
100
AcDbLine
 10
-165.5170455625437
 20
444.3991119946651
 30
0.0
 11
-165.5170455625437
 21
236.1449280229214
 31
0.0
  0
LINE
  5
98
330
1F
100
AcDbEntity
  8
通り芯
  6
Continuous
 62
     4
370
     9
100
AcDbLine
 10
89.48326126283678
 20
436.1448467212653
 30
0.0
 11
89.48326126283678
 21
236.1449280229214
 31
0.0
  0
LINE
  5
99
330
1F
100
AcDbEntity
  8
通り芯
  6
Continuous
 62
     4
370
     9
100
AcDbLine
 10
90.48326126283678
 20
437.6449280229214
 30
0.0
 11
90.48326126283678
 21
236.1449280229214
 31
0.0
  0
LINE
  5
9A
330
1F
100
AcDbEntity
  8
0-8
  6
Continuous
 62
     2
370
     9
100
AcDbLine
 10
221.4828601157528
 20
517.1448394158991
 30
0.0
 11
221.4828601157528
 21
236.1449280229214
 31
0.0
  0
LINE
  5
9B
330
1F
100
AcDbEntity
  8
0-8
  6
Continuous
 62
     2
370
     9
100
AcDbLine
 10
-184.516942946819
 20
393.1449280229214
 30
0.0
 11
-184.516942946819
 21
409.1449313221187
 31
0.0
  0
LINE
  5
9C
330
1F
100
AcDbEntity
  8
0-8
  6
Continuous
 62
     2
370
     9
100
AcDbLine
 10
-184.516942946819
 20
381.1449280229214
 30
0.0
 11
-184.516942946819
 21
365.1449247237237
 31
0.0
  0
LINE
  5
9D
330
1F
100
AcDbEntity
  8
仕上
  6
Continuous
 62
     3
370
     9
100
AcDbLine
 10
-120.3532554526777
 20
277.1448158502018
 30
0.0
 11
-120.3532554526777
 21
271.144895030945
 31
0.0
  0
LINE
  5
9E
330
1F
100
AcDbEntity
  8
仕上
  6
Continuous
 62
     3
370
     9
100
AcDbLine
 10
-57.08111123815061
 20
279.1450204004549
 30
0.0
 11
-118.3533478302114
 21
279.1450204004549
 31
0.0
  0
LINE
  5
9F
330
1F
100
AcDbEntity
  8
仕上
  6
Continuous
 62
     3
370
     9
100
AcDbLine
 10
-55.08120361568436
 20
271.144895030945
 30
0.0
 11
-55.08120361568436
 21
277.1448158502018
 31
0.0
  0
LINE
  5
A0
330
1F
100
AcDbEntity
  8
仕上
  6
Continuous
 62
     3
370
     9
100
AcDbLine
 10
-57.08130919000897
 20
269.1449874084787
 30
0.0
 11
-118.3533478302114
 21
269.1449874084787
 31
0.0
  0
LINE
  5
A1
330
1F
100
AcDbEntity
  8
仕上
  6
Continuous
 62
     3
370
     9
100
AcDbLine
 10
-57.08130919000897
 20
260.1449082277356
 30
0.0
 11
-110.2578096650936
 21
260.1449082277356
 31
0.0
  0
LINE
  5
A2
330
1F
100
AcDbEntity
  8
仕上
  6
Continuous
 62
     3
370
     9
100
AcDbLine
 10
-55.08120361568436
 20
252.1448818341543
 30
0.0
 11
-55.08120361568436
 21
258.1450006052693
 31
0.0
  0
LINE
  5
A3
330
1F
100
AcDbEntity
  8
仕上
  6
Continuous
 62
     3
370
     9
100
AcDbLine
 10
-57.08130919000897
 20
250.1449742116881
 30
0.0
 11
-103.2138412582098
 21
250.1449742116881
 31
0.0
  0
LINE
  5
A4
330
1F
100
AcDbEntity
  8
仕上
  6
Continuous
 62
     3
370
     9
100
AcDbLine
 10
-57.08111123815061
 20
241.144796055016
 30
0.0
 11
-95.39731623709523
 21
241.144796055016
 31
0.0
  0
LINE
  5
A5
330
1F
100
AcDbEntity
  8
仕上
  6
Continuous
 62
     3
370
     9
100
AcDbLine
 10
-120.3532554526777
 20
296.1451259747793
 30
0.0
 11
-120.3532554526777
 21
290.1450072036645
 31
0.0
  0
LINE
  5
A6
330
1F
100
AcDbEntity
  8
仕上
  6
Continuous
 62
     3
370
     9
100
AcDbLine
 10
-57.08111123815061
 20
298.1448356453874
 30
0.0
 11
-118.3533478302114
 21
298.1448356453874
 31
0.0
  0
LINE
  5
A7
330
1F
100
AcDbEntity
  8
仕上
  6
Continuous
 62
     3
370
     9
100
AcDbLine
 10
-55.08120361568436
 20
290.1450072036645
 30
0.0
 11
-55.08120361568436
 21
296.1451259747793
 31
0.0
  0
LINE
  5
A8
330
1F
100
AcDbEntity
  8
仕上
  6
Continuous
 62
     3
370
     9
100
AcDbLine
 10
-57.08111123815061
 20
288.1450995811983
 30
0.0
 11
-118.3533478302114
 21
288.1450995811983
 31
0.0
  0
LINE
  5
A9
330
1F
100
AcDbEntity
  8
仕上
  6
Continuous
 62
     3
370
     9
100
AcDbLine
 10
-120.3532554526777
 20
315.1449412197118
 30
0.0
 11
-120.3532554526777
 21
309.1448224485968
 31
0.0
  0
LINE
  5
AA
330
1F
100
AcDbEntity
  8
仕上
  6
Continuous
 62
     3
370
     9
100
AcDbLine
 10
-57.08130919000897
 20
317.1448488421781
 30
0.0
 11
-118.3533478302114
 21
317.1448488421781
 31
0.0
  0
LINE
  5
AB
330
1F
100
AcDbEntity
  8
仕上
  6
Continuous
 62
     3
370
     9
100
AcDbLine
 10
-55.08120361568436
 20
309.1448224485968
 30
0.0
 11
-55.08120361568436
 21
315.1449412197118
 31
0.0
  0
LINE
  5
AC
330
1F
100
AcDbEntity
  8
仕上
  6
Continuous
 62
     3
370
     9
100
AcDbLine
 10
-57.08111123815061
 20
307.1451127779889
 30
0.0
 11
-118.3533478302114
 21
307.1449148261308
 31
0.0
  0
LINE
  5
AD
330
1F
100
AcDbEntity
  8
仕上
  6
Continuous
 62
     3
370
     9
100
AcDbLine
 10
18.67610410707729
 20
277.1448158502018
 30
0.0
 11
18.67610410707729
 21
271.144895030945
 31
0.0
  0
LINE
  5
AE
330
1F
100
AcDbEntity
  8
仕上
  6
Continuous
 62
     3
370
     9
100
AcDbLine
 10
-44.59589164355603
 20
279.1450204004549
 30
0.0
 11
16.67619648461104
 21
279.1450204004549
 31
0.0
  0
LINE
  5
AF
330
1F
100
AcDbEntity
  8
仕上
  6
Continuous
 62
     3
370
     9
100
AcDbLine
 10
-46.59599721788018
 20
271.144895030945
 30
0.0
 11
-46.59599721788018
 21
277.1448158502018
 31
0.0
  0
LINE
  5
B0
330
1F
100
AcDbEntity
  8
仕上
  6
Continuous
 62
     3
370
     9
100
AcDbLine
 10
-44.59589164355603
 20
269.1449874084787
 30
0.0
 11
16.67619648461104
 21
269.1449874084787
 31
0.0
  0
LINE
  5
B1
330
1F
100
AcDbEntity
  8
仕上
  6
Continuous
 62
     3
370
     9
100
AcDbLine
 10
-46.59599721788018
 20
252.1448818341543
 30
0.0
 11
-46.59579926602228
 21
258.1450006052693
 31
0.0
  0
LINE
  5
B2
330
1F
100
AcDbEntity
  8
仕上
  6
Continuous
 62
     3
370
     9
100
AcDbLine
 10
18.67610410707729
 20
296.1451259747793
 30
0.0
 11
18.67610410707729
 21
290.1450072036645
 31
0.0
  0
LINE
  5
B3
330
1F
100
AcDbEntity
  8
仕上
  6
Continuous
 62
     3
370
     9
100
AcDbLine
 10
-44.59589164355603
 20
298.1448356453874
 30
0.0
 11
16.67619648461104
 21
298.1450335972456
 31
0.0
  0
LINE
  5
B4
330
1F
100
AcDbEntity
  8
仕上
  6
Continuous
 62
     3
370
     9
100
AcDbLine
 10
-46.59599721788018
 20
290.1450072036645
 30
0.0
 11
-46.59599721788018
 21
296.1449280229214
 31
0.0
  0
LINE
  5
B5
330
1F
100
AcDbEntity
  8
仕上
  6
Continuous
 62
     3
370
     9
100
AcDbLine
 10
-44.59589164355603
 20
288.1450995811983
 30
0.0
 11
16.67619648461104
 21
288.1450995811983
 31
0.0
  0
LINE
  5
B6
330
1F
100
AcDbEntity
  8
仕上
  6
Continuous
 62
     3
370
     9
100
AcDbLine
 10
18.67610410707729
 20
315.1449412197118
 30
0.0
 11
18.67610410707729
 21
309.1448224485968
 31
0.0
  0
LINE
  5
B7
330
1F
100
AcDbEntity
  8
仕上
  6
Continuous
 62
     3
370
     9
100
AcDbLine
 10
-44.59589164355603
 20
317.1448488421781
 30
0.0
 11
16.67619648461104
 21
317.1450467940362
 31
0.0
  0
LINE
  5
B8
330
1F
100
AcDbEntity
  8
仕上
  6
Continuous
 62
     3
370
     9
100
AcDbLine
 10
-46.59599721788018
 20
309.1448224485968
 30
0.0
 11
-46.59599721788018
 21
315.1449412197118
 31
0.0
  0
LINE
  5
B9
330
1F
100
AcDbEntity
  8
仕上
  6
Continuous
 62
     3
370
     9
100
AcDbLine
 10
-44.59589164355603
 20
307.1449148261308
 30
0.0
 11
16.67619648461104
 21
307.1449148261308
 31
0.0
  0
LINE
  5
BA
330
1F
100
AcDbEntity
  8
仕上
  6
Continuous
 62
     3
370
     9
100
AcDbLine
 10
-44.59589164355603
 20
241.144796055016
 30
0.0
 11
16.67619648461104
 21
241.144796055016
 31
0.0
  0
LINE
  5
BB
330
1F
100
AcDbEntity
  8
仕上
  6
Continuous
 62
     3
370
     9
100
AcDbLine
 10
18.67610410707729
 20
252.1448818341543
 30
0.0
 11
18.67635154690024
 21
258.144802653411
 31
0.0
  0
LINE
  5
BC
330
1F
100
AcDbEntity
  8
仕上
  6
Continuous
 62
     3
370
     9
100
AcDbLine
 10
-44.59589164355603
 20
250.144677283901
 30
0.0
 11
16.67619648461104
 21
250.144677283901
 31
0.0
  0
LINE
  5
BD
330
1F
100
AcDbEntity
  8
仕上
  6
Continuous
 62
     3
370
     9
100
AcDbLine
 10
-44.59589164355603
 20
260.1449082277356
 30
0.0
 11
16.67619648461104
 21
260.1449082277356
 31
0.0
  0
LINE
  5
BE
330
1F
100
AcDbEntity
  8
仕上
  6
Continuous
 62
     3
370
     9
100
AcDbLine
 10
0.7802663748139764
 20
327.9320373979214
 30
0.0
 11
1.822383931823964
 21
333.9650161774823
 31
0.0
  0
LINE
  5
BF
330
1F
100
AcDbEntity
  8
仕上
  6
Continuous
 62
     3
370
     9
100
AcDbLine
 10
6.772269119746483
 20
333.9650161774823
 30
0.0
 11
7.851502650151446
 21
327.9320373979214
 31
0.0
  0
LINE
  5
C0
330
1F
100
AcDbEntity
  8
仕上
  6
Continuous
 62
     3
370
     9
100
AcDbLine
 10
-17.60451244697688
 20
327.9320373979214
 30
0.0
 11
-16.56249386589562
 21
333.9650161774823
 31
0.0
  0
LINE
  5
C1
330
1F
100
AcDbEntity
  8
仕上
  6
Continuous
 62
     3
370
     9
100
AcDbLine
 10
-11.61236123815061
 20
333.9650161774823
 30
0.0
 11
-10.53337514756814
 21
327.9320373979214
 31
0.0
  0
LINE
  5
C2
330
1F
100
AcDbEntity
  8
仕上
  6
Continuous
 62
     3
370
     9
100
AcDbLine
 10
-35.98939024469647
 20
327.9320373979214
 30
0.0
 11
-34.94732217565061
 21
333.9650161774823
 31
0.0
  0
LINE
  5
C3
330
1F
100
AcDbEntity
  8
仕上
  6
Continuous
 62
     3
370
     9
100
AcDbLine
 10
-29.99718954790606
 20
333.9650161774823
 30
0.0
 11
-28.91825294528772
 21
327.9320373979214
 31
0.0
  0
LINE
  5
C4
330
1F
100
AcDbEntity
  8
仕上
  6
Continuous
 62
     3
370
     9
100
AcDbLine
 10
-54.37407009055769
 20
327.9320373979214
 30
0.0
 11
-53.33219997337019
 21
333.9650161774823
 31
0.0
  0
LINE
  5
C5
330
1F
100
AcDbEntity
  8
仕上
  6
Continuous
 62
     3
370
     9
100
AcDbLine
 10
-48.38206734562519
 20
333.9650161774823
 30
0.0
 11
-47.3031307430073
 21
327.9320373979214
 31
0.0
  0
LINE
  5
C6
330
1F
100
AcDbEntity
  8
仕上
  6
Continuous
 62
     3
370
     9
100
AcDbLine
 10
-72.75894788827728
 20
327.9320373979214
 30
0.0
 11
-71.71702828312564
 21
333.9650161774823
 31
0.0
  0
LINE
  5
C7
330
1F
100
AcDbEntity
  8
仕上
  6
Continuous
 62
     3
370
     9
100
AcDbLine
 10
-66.76694514334523
 20
333.9650161774823
 30
0.0
 11
-65.68781058886853
 21
327.9320373979214
 31
0.0
  0
LINE
  5
C8
330
1F
100
AcDbEntity
  8
仕上
  6
Continuous
 62
     3
370
     9
100
AcDbLine
 10
-91.14377619803273
 20
327.9320373979214
 30
0.0
 11
-90.10170812898687
 21
333.9650161774823
 31
0.0
  0
LINE
  5
C9
330
1F
100
AcDbEntity
  8
仕上
  6
Continuous
 62
     3
370
     9
100
AcDbLine
 10
-109.5286539957523
 20
327.9320373979214
 30
0.0
 11
-108.4865859267065
 21
333.9650161774823
 31
0.0
  0
LINE
  5
CA
330
1F
100
AcDbEntity
  8
仕上
  6
Continuous
 62
     3
370
     9
100
AcDbLine
 10
-103.5364532989614
 20
333.9650161774823
 30
0.0
 11
-102.4575661843077
 21
327.9320373979214
 31
0.0
  0
LINE
  5
CB
330
1F
100
AcDbEntity
  8
仕上
  6
Continuous
 62
     3
370
     9
100
AcDbLine
 10
-120.8423944940631
 20
327.9320373979214
 30
0.0
 11
-109.5286539957523
 21
327.9320373979214
 31
0.0
  0
LINE
  5
CC
330
1F
100
AcDbEntity
  8
仕上
  6
Continuous
 62
     3
370
     9
100
AcDbLine
 10
-102.4575661843077
 20
327.9320373979214
 30
0.0
 11
-91.14377619803273
 21
327.9320373979214
 31
0.0
  0
LINE
  5
CD
330
1F
100
AcDbEntity
  8
仕上
  6
Continuous
 62
     3
370
     9
100
AcDbLine
 10
-84.07268838658811
 20
327.9320373979214
 30
0.0
 11
-72.75894788827728
 21
327.9320373979214
 31
0.0
  0
LINE
  5
CE
330
1F
100
AcDbEntity
  8
仕上
  6
Continuous
 62
     3
370
     9
100
AcDbLine
 10
-65.68781058886853
 20
327.9320373979214
 30
0.0
 11
-54.37407009055769
 21
327.9320373979214
 31
0.0
  0
LINE
  5
CF
330
1F
100
AcDbEntity
  8
仕上
  6
Continuous
 62
     3
370
     9
100
AcDbLine
 10
-47.3031307430073
 20
327.9320373979214
 30
0.0
 11
-35.98939024469647
 21
327.9320373979214
 31
0.0
  0
LINE
  5
D0
330
1F
100
AcDbEntity
  8
仕上
  6
Continuous
 62
     3
370
     9
100
AcDbLine
 10
-28.91825294528772
 20
327.9320373979214
 30
0.0
 11
-17.60451244697688
 21
327.9320373979214
 31
0.0
  0
LINE
  5
D1
330
1F
100
AcDbEntity
  8
仕上
  6
Continuous
 62
     3
370
     9
100
AcDbLine
 10
-10.53337514756814
 20
327.9320373979214
 30
0.0
 11
0.7802663748139764
 21
327.9320373979214
 31
0.0
  0
LINE
  5
D2
330
1F
100
AcDbEntity
  8
仕上
  6
Continuous
 62
     3
370
     9
100
AcDbLine
 10
7.851502650151446
 20
327.9320373979214
 30
0.0
 11
19.16519366049769
 21
327.9320373979214
 31
0.0
  0
LINE
  5
D3
330
1F
100
AcDbEntity
  8
仕上
  6
Continuous
 62
     3
370
     9
100
AcDbLine
 10
1.822383931823964
 20
333.9650161774823
 30
0.0
 11
6.772269119746483
 21
333.9650161774823
 31
0.0
  0
LINE
  5
D4
330
1F
100
AcDbEntity
  8
仕上
  6
Continuous
 62
     3
370
     9
100
AcDbLine
 10
-16.56249386589562
 20
333.9650161774823
 30
0.0
 11
-11.61236123815061
 21
333.9650161774823
 31
0.0
  0
LINE
  5
D5
330
1F
100
AcDbEntity
  8
仕上
  6
Continuous
 62
     3
370
     9
100
AcDbLine
 10
-34.94732217565061
 20
333.9650161774823
 30
0.0
 11
-29.99718954790606
 21
333.9650161774823
 31
0.0
  0
LINE
  5
D6
330
1F
100
AcDbEntity
  8
仕上
  6
Continuous
 62
     3
370
     9
100
AcDbLine
 10
-53.33219997337019
 20
333.9650161774823
 30
0.0
 11
-48.38206734562519
 21
333.9650161774823
 31
0.0
  0
LINE
  5
D7
330
1F
100
AcDbEntity
  8
仕上
  6
Continuous
 62
     3
370
     9
100
AcDbLine
 10
-71.71702828312564
 20
333.9650161774823
 30
0.0
 11
-66.76694514334523
 21
333.9650161774823
 31
0.0
  0
LINE
  5
D8
330
1F
100
AcDbEntity
  8
仕上
  6
Continuous
 62
     3
370
     9
100
AcDbLine
 10
-85.15177345310022
 20
333.9650161774823
 30
0.0
 11
-84.07268838658811
 21
327.9320373979214
 31
0.0
  0
LINE
  5
D9
330
1F
100
AcDbEntity
  8
仕上
  6
Continuous
 62
     3
370
     9
100
AcDbLine
 10
-90.10170812898687
 20
333.9650161774823
 30
0.0
 11
-85.15177345310022
 21
333.9650161774823
 31
0.0
  0
LINE
  5
DA
330
1F
100
AcDbEntity
  8
仕上
  6
Continuous
 62
     3
370
     9
100
AcDbLine
 10
-108.4865859267065
 20
333.9650161774823
 30
0.0
 11
-103.5364532989614
 21
333.9650161774823
 31
0.0
  0
LINE
  5
DB
330
1F
100
AcDbEntity
  8
仕上
  6
Continuous
 62
     3
370
     9
100
AcDbLine
 10
-34.94732217565061
 20
333.9650161774823
 30
0.0
 11
-97.05610332007646
 21
342.4690280018064
 31
0.0
  0
LINE
  5
DC
330
1F
100
AcDbEntity
  8
仕上
  6
Continuous
 62
     3
370
     9
100
AcDbLine
 10
-29.99718954790606
 20
333.9650161774823
 30
0.0
 11
-87.1560360164448
 21
341.7912408396443
 31
0.0
  0
LINE
  5
DD
330
1F
100
AcDbEntity
  8
仕上
  6
Continuous
 62
     3
370
     9
100
AcDbLine
 10
-109.5286539957523
 20
327.9320373979214
 30
0.0
 11
-121.126356434519
 21
329.5200072036645
 31
0.0
  0
LINE
  5
DE
330
1F
100
AcDbEntity
  8
仕上
  6
Continuous
 62
     3
370
     9
100
AcDbLine
 10
-91.14377619803273
 20
327.9320373979214
 30
0.0
 11
-102.741528124764
 21
329.5200072036645
 31
0.0
  0
LINE
  5
DF
330
1F
100
AcDbEntity
  8
仕上
  6
Continuous
 62
     3
370
     9
100
AcDbLine
 10
-72.75894788827728
 20
327.9320373979214
 30
0.0
 11
-84.35665032704438
 21
329.5198092518064
 31
0.0
  0
LINE
  5
E0
330
1F
100
AcDbEntity
  8
仕上
  6
Continuous
 62
     3
370
     9
100
AcDbLine
 10
-54.37407009055769
 20
327.9320373979214
 30
0.0
 11
-65.97182201728938
 21
329.5200072036645
 31
0.0
  0
LINE
  5
E1
330
1F
100
AcDbEntity
  8
仕上
  6
Continuous
 62
     3
370
     9
100
AcDbLine
 10
-35.98939024469647
 20
327.9320373979214
 30
0.0
 11
-47.5871421714277
 21
329.5200072036645
 31
0.0
  0
LINE
  5
E2
330
1F
100
AcDbEntity
  8
仕上
  6
Continuous
 62
     3
370
     9
100
AcDbLine
 10
-16.56249386589562
 20
333.9650161774823
 30
0.0
 11
-60.28679311631768
 21
339.9518721741037
 31
0.0
  0
LINE
  5
E3
330
1F
100
AcDbEntity
  8
仕上
  6
Continuous
 62
     3
370
     9
100
AcDbLine
 10
-11.61236123815061
 20
333.9650161774823
 30
0.0
 11
-50.38672581268648
 21
339.2740850119416
 31
0.0
  0
LINE
  5
E4
330
1F
100
AcDbEntity
  8
仕上
  6
Continuous
 62
     3
370
     9
100
AcDbLine
 10
-17.60451244697688
 20
327.9320373979214
 30
0.0
 11
-29.20226437370812
 21
329.5200072036645
 31
0.0
  0
LINE
  5
E5
330
1F
100
AcDbEntity
  8
仕上
  6
Continuous
 62
     3
370
     9
100
AcDbLine
 10
6.772269119746483
 20
333.9650161774823
 30
0.0
 11
-13.61662380149519
 21
336.7567312323808
 31
0.0
  0
LINE
  5
E6
330
1F
100
AcDbEntity
  8
仕上
  6
Continuous
 62
     3
370
     9
100
AcDbLine
 10
1.822383931823964
 20
333.9650161774823
 30
0.0
 11
-23.51688905698521
 21
337.4345183945431
 31
0.0
  0
LINE
  5
E7
330
1F
100
AcDbEntity
  8
仕上
  6
Continuous
 62
     3
370
     9
100
AcDbLine
 10
0.7802663748139764
 20
327.9320373979214
 30
0.0
 11
-10.81743606395312
 21
329.5198092518064
 31
0.0
  0
LINE
  5
E8
330
1F
100
AcDbEntity
  8
仕上
  6
Continuous
 62
     3
370
     9
100
AcDbLine
 10
19.16519366049769
 20
327.9320373979214
 30
0.0
 11
7.567491221731046
 21
329.5198092518064
 31
0.0
  0
LINE
  5
E9
330
1F
100
AcDbEntity
  8
仕上
  6
Continuous
 62
     3
370
     9
100
AcDbLine
 10
20.20706377768519
 20
333.9650161774823
 30
0.0
 11
13.0466007023052
 21
334.9454717306916
 31
0.0
  0
LINE
  5
EA
330
1F
100
AcDbEntity
  8
仕上
  6
Continuous
 62
     3
370
     9
100
AcDbLine
 10
13.04417579204355
 20
334.9316151006239
 30
0.0
 11
12.0045326332598
 21
328.9121960233435
 31
0.0
  0
LINE
  5
EB
330
1F
100
AcDbEntity
  8
仕上
  6
Continuous
 62
     3
370
     9
100
AcDbLine
 10
-24.37857349532979
 20
337.5166684156576
 30
0.0
 11
-24.68297396513563
 21
335.7546989266374
 31
0.0
  0
LINE
  5
EC
330
1F
100
AcDbEntity
  8
仕上
  6
Continuous
 62
     3
370
     9
100
AcDbLine
 10
-13.61662380149519
 20
336.7567312323808
 30
0.0
 11
-24.38253253249187
 21
337.4937060001172
 31
0.0
  0
LINE
  5
ED
330
1F
100
AcDbEntity
  8
仕上
  6
Continuous
 62
     3
370
     9
100
AcDbLine
 10
-61.80157022252561
 20
340.0554999718233
 30
0.0
 11
-62.09443999659689
 21
338.3597453793402
 31
0.0
  0
LINE
  5
EE
330
1F
100
AcDbEntity
  8
仕上
  6
Continuous
 62
     3
370
     9
100
AcDbLine
 10
-50.38672581268648
 20
339.2740850119416
 30
0.0
 11
-61.80157022252561
 21
340.0554999718233
 31
0.0
  0
LINE
  5
EF
330
1F
100
AcDbEntity
  8
仕上
  6
Continuous
 62
     3
370
     9
100
AcDbLine
 10
-99.22427002193436
 20
342.6176898472456
 30
0.0
 11
-99.50966711336187
 21
340.9653856876172
 31
0.0
  0
LINE
  5
F0
330
1F
100
AcDbEntity
  8
仕上
  6
Continuous
 62
     3
370
     9
100
AcDbLine
 10
-87.1560360164448
 20
341.7912408396443
 30
0.0
 11
-99.22427002193436
 21
342.6176898472456
 31
0.0
  0
LINE
  5
F1
330
1F
100
AcDbEntity
  8
0-A
  6
Continuous
 62
     2
370
     9
100
AcDbLine
 10
-124.2500367554648
 20
236.6239715195429
 30
0.0
 11
-126.2385621460898
 21
236.6239715195429
 31
0.0
  0
ARC
  5
F2
330
1F
100
AcDbEntity
  8
仕上
  6
Continuous
 62
     3
370
     9
100
AcDbCircle
 10
-110.2578096650936
 20
257.1449478181073
 30
0.0
 40
3.000000231974834
100
AcDbArc
 50
90.0
 51
252.658203125
  0
ARC
  5
F3
330
1F
100
AcDbEntity
  8
仕上
  6
Continuous
 62
     3
370
     9
100
AcDbCircle
 10
-103.2138412582098
 20
252.1448818341543
 30
0.0
 40
2.000000219087342
100
AcDbArc
 50
229.63232421875
 51
270.0
  0
ARC
  5
F4
330
1F
100
AcDbEntity
  8
仕上
  6
Continuous
 62
     3
370
     9
100
AcDbCircle
 10
-116.8154103566052
 20
236.1449280229214
 30
0.0
 40
19.0000023712983
100
AcDbArc
 50
49.63224792480464
 51
72.65841674804682
  0
ARC
  5
F5
330
1F
100
AcDbEntity
  8
仕上
  6
Continuous
 62
     3
370
     9
100
AcDbCircle
 10
-95.39731623709523
 20
239.1449874084787
 30
0.0
 40
2.000000219087342
100
AcDbArc
 50
90.0
 51
188.2135620117188
  0
ARC
  5
F6
330
1F
100
AcDbEntity
  8
仕上
  6
Continuous
 62
     3
370
     9
100
AcDbCircle
 10
-118.3533478302114
 20
271.144895030945
 30
0.0
 40
2.000000219087342
100
AcDbArc
 50
180.0
 51
270.0
  0
ARC
  5
F7
330
1F
100
AcDbEntity
  8
仕上
  6
Continuous
 62
     3
370
     9
100
AcDbCircle
 10
-118.3533478302114
 20
277.1448158502018
 30
0.0
 40
2.000000219087342
100
AcDbArc
 50
90.0
 51
180.0
  0
ARC
  5
F8
330
1F
100
AcDbEntity
  8
仕上
  6
Continuous
 62
     3
370
     9
100
AcDbCircle
 10
-57.08130919000897
 20
277.1448158502018
 30
0.0
 40
2.000000219087342
100
AcDbArc
 50
0.0
 51
89.99949645996091
  0
ARC
  5
F9
330
1F
100
AcDbEntity
  8
仕上
  6
Continuous
 62
     3
370
     9
100
AcDbCircle
 10
-57.08130919000897
 20
271.144895030945
 30
0.0
 40
2.000000219087342
100
AcDbArc
 50
270.0
 51
0.0
  0
ARC
  5
FA
330
1F
100
AcDbEntity
  8
仕上
  6
Continuous
 62
     3
370
     9
100
AcDbCircle
 10
-57.08130919000897
 20
258.1450006052693
 30
0.0
 40
2.000000219087342
100
AcDbArc
 50
0.0
 51
90.0
  0
ARC
  5
FB
330
1F
100
AcDbEntity
  8
仕上
  6
Continuous
 62
     3
370
     9
100
AcDbCircle
 10
-57.08130919000897
 20
252.1448818341543
 30
0.0
 40
2.000000219087342
100
AcDbArc
 50
270.0
 51
0.0
  0
ARC
  5
FC
330
1F
100
AcDbEntity
  8
仕上
  6
Continuous
 62
     3
370
     9
100
AcDbCircle
 10
-57.08130919000897
 20
239.1449874084787
 30
0.0
 40
2.000000219087342
100
AcDbArc
 50
359.9999999999999
 51
89.99899291992185
  0
ARC
  5
FD
330
1F
100
AcDbEntity
  8
仕上
  6
Continuous
 62
     3
370
     9
100
AcDbCircle
 10
-118.3533478302114
 20
290.1450072036645
 30
0.0
 40
2.000000219087342
100
AcDbArc
 50
180.0
 51
270.0
  0
ARC
  5
FE
330
1F
100
AcDbEntity
  8
仕上
  6
Continuous
 62
     3
370
     9
100
AcDbCircle
 10
-118.3533478302114
 20
296.1449280229214
 30
0.0
 40
2.000000219087342
100
AcDbArc
 50
90.0
 51
180.0
  0
ARC
  5
FF
330
1F
100
AcDbEntity
  8
仕上
  6
Continuous
 62
     3
370
     9
100
AcDbCircle
 10
-57.08111123815061
 20
296.1449280229214
 30
0.0
 40
2.000000219087342
100
AcDbArc
 50
0.0
 51
90.0
  0
ARC
  5
100
330
1F
100
AcDbEntity
  8
仕上
  6
Continuous
 62
     3
370
     9
100
AcDbCircle
 10
-57.08111123815061
 20
290.1450072036645
 30
0.0
 40
2.000000219087342
100
AcDbArc
 50
270.0005035400391
 51
0.0
  0
ARC
  5
101
330
1F
100
AcDbEntity
  8
仕上
  6
Continuous
 62
     3
370
     9
100
AcDbCircle
 10
-118.3533478302114
 20
309.1448224485968
 30
0.0
 40
2.000000219087342
100
AcDbArc
 50
180.0
 51
270.0
  0
ARC
  5
102
330
1F
100
AcDbEntity
  8
仕上
  6
Continuous
 62
     3
370
     9
100
AcDbCircle
 10
-118.3533478302114
 20
315.1449412197118
 30
0.0
 40
2.000000219087342
100
AcDbArc
 50
90.0
 51
180.0
  0
ARC
  5
103
330
1F
100
AcDbEntity
  8
仕上
  6
Continuous
 62
     3
370
     9
100
AcDbCircle
 10
-57.08130919000897
 20
315.1449412197118
 30
0.0
 40
2.000000219087342
100
AcDbArc
 50
0.0
 51
90.0
  0
ARC
  5
104
330
1F
100
AcDbEntity
  8
仕上
  6
Continuous
 62
     3
370
     9
100
AcDbCircle
 10
-57.08111123815061
 20
309.1448224485968
 30
0.0
 40
2.000000219087342
100
AcDbArc
 50
270.0
 51
0.0
  0
ARC
  5
105
330
1F
100
AcDbEntity
  8
仕上
  6
Continuous
 62
     3
370
     9
100
AcDbCircle
 10
16.67619648461104
 20
271.144895030945
 30
0.0
 40
2.000000219087342
100
AcDbArc
 50
270.0
 51
0.0
  0
ARC
  5
106
330
1F
100
AcDbEntity
  8
仕上
  6
Continuous
 62
     3
370
     9
100
AcDbCircle
 10
16.67619648461104
 20
277.1451127779889
 30
0.0
 40
2.000000219087342
100
AcDbArc
 50
0.0
 51
90.0
  0
ARC
  5
107
330
1F
100
AcDbEntity
  8
仕上
  6
Continuous
 62
     3
370
     9
100
AcDbCircle
 10
-44.59589164355603
 20
277.1448158502018
 30
0.0
 40
2.000000219087342
100
AcDbArc
 50
90.00050354003909
 51
180.0
  0
ARC
  5
108
330
1F
100
AcDbEntity
  8
仕上
  6
Continuous
 62
     3
370
     9
100
AcDbCircle
 10
-44.59589164355603
 20
271.144895030945
 30
0.0
 40
2.000000219087342
100
AcDbArc
 50
180.0
 51
270.0
  0
ARC
  5
109
330
1F
100
AcDbEntity
  8
仕上
  6
Continuous
 62
     3
370
     9
100
AcDbCircle
 10
-44.59589164355603
 20
258.1450006052693
 30
0.0
 40
2.000000219087342
100
AcDbArc
 50
90.0
 51
180.0
  0
ARC
  5
10A
330
1F
100
AcDbEntity
  8
仕上
  6
Continuous
 62
     3
370
     9
100
AcDbCircle
 10
-44.59589164355603
 20
252.1448818341543
 30
0.0
 40
2.000000219087342
100
AcDbArc
 50
180.0
 51
270.0
  0
ARC
  5
10B
330
1F
100
AcDbEntity
  8
仕上
  6
Continuous
 62
     3
370
     9
100
AcDbCircle
 10
-44.59589164355603
 20
239.1449874084787
 30
0.0
 40
2.000000219087342
100
AcDbArc
 50
90.00100708007811
 51
180.0
  0
ARC
  5
10C
330
1F
100
AcDbEntity
  8
仕上
  6
Continuous
 62
     3
370
     9
100
AcDbCircle
 10
16.67619648461104
 20
290.1450072036645
 30
0.0
 40
2.000000219087342
100
AcDbArc
 50
270.0
 51
0.0
  0
ARC
  5
10D
330
1F
100
AcDbEntity
  8
仕上
  6
Continuous
 62
     3
370
     9
100
AcDbCircle
 10
16.67619648461104
 20
296.1451259747793
 30
0.0
 40
2.000000219087342
100
AcDbArc
 50
0.0
 51
90.0
  0
ARC
  5
10E
330
1F
100
AcDbEntity
  8
仕上
  6
Continuous
 62
     3
370
     9
100
AcDbCircle
 10
-44.59589164355603
 20
296.1449280229214
 30
0.0
 40
2.000000219087342
100
AcDbArc
 50
90.0
 51
180.0
  0
ARC
  5
10F
330
1F
100
AcDbEntity
  8
仕上
  6
Continuous
 62
     3
370
     9
100
AcDbCircle
 10
-44.59589164355603
 20
290.1450072036645
 30
0.0
 40
2.000000219087342
100
AcDbArc
 50
180.0
 51
269.9994964599609
  0
ARC
  5
110
330
1F
100
AcDbEntity
  8
仕上
  6
Continuous
 62
     3
370
     9
100
AcDbCircle
 10
16.67619648461104
 20
309.1448224485968
 30
0.0
 40
2.000000219087342
100
AcDbArc
 50
270.0
 51
0.0
  0
ARC
  5
111
330
1F
100
AcDbEntity
  8
仕上
  6
Continuous
 62
     3
370
     9
100
AcDbCircle
 10
16.67619648461104
 20
315.1449412197118
 30
0.0
 40
2.000000219087342
100
AcDbArc
 50
0.0
 51
90.0
  0
ARC
  5
112
330
1F
100
AcDbEntity
  8
仕上
  6
Continuous
 62
     3
370
     9
100
AcDbCircle
 10
-44.59589164355603
 20
315.1449412197118
 30
0.0
 40
2.000000219087342
100
AcDbArc
 50
90.0
 51
180.0
  0
ARC
  5
113
330
1F
100
AcDbEntity
  8
仕上
  6
Continuous
 62
     3
370
     9
100
AcDbCircle
 10
-44.59589164355603
 20
309.1448224485968
 30
0.0
 40
2.000000219087342
100
AcDbArc
 50
180.0
 51
270.0
  0
ARC
  5
114
330
1F
100
AcDbEntity
  8
仕上
  6
Continuous
 62
     3
370
     9
100
AcDbCircle
 10
16.67619648461104
 20
239.1449874084787
 30
0.0
 40
2.000000219087342
100
AcDbArc
 50
0.0
 51
90.0
  0
ARC
  5
115
330
1F
100
AcDbEntity
  8
仕上
  6
Continuous
 62
     3
370
     9
100
AcDbCircle
 10
16.67619648461104
 20
258.144802653411
 30
0.0
 40
2.000000219087342
100
AcDbArc
 50
0.0
 51
90.0
  0
ARC
  5
116
330
1F
100
AcDbEntity
  8
仕上
  6
Continuous
 62
     3
370
     9
100
AcDbCircle
 10
16.67619648461104
 20
252.1448818341543
 30
0.0
 40
2.000000219087342
100
AcDbArc
 50
270.0
 51
0.0
  0
ARC
  5
117
330
1F
100
AcDbEntity
  8
仕上
  6
Continuous
 62
     3
370
     9
100
AcDbCircle
 10
24.16149855914645
 20
345.6449676132931
 30
0.0
 40
3.000000231974834
100
AcDbArc
 50
0.0003356933593827
 51
89.99966430664062
  0
ARC
  5
118
330
1F
100
AcDbEntity
  8
0-A
  6
Continuous
 62
     2
370
     9
100
AcDbCircle
 10
-134.2385390517065
 20
236.1449280229214
 30
0.0
 40
10.00000128874908
100
AcDbArc
 50
2.745910644531237
 51
36.86987304687499
  0
LINE
  5
119
330
1F
100
AcDbEntity
  8
躯体
  6
Continuous
 62
     6
370
     9
100
AcDbLine
 10
-153.5904578061367
 20
415.3640692134981
 30
0.0
 11
-159.8385669534922
 21
416.1449280229214
 31
0.0
  0
ARC
  5
11A
330
1F
100
AcDbEntity
  8
躯体
  6
Continuous
 62
     6
370
     9
100
AcDbCircle
 10
-153.8385885750194
 20
413.3794194374665
 30
0.0
 40
2.000000018410701
100
AcDbArc
 50
0.0
 51
82.8746337890625
  0
LINE
  5
11B
330
1F
100
AcDbEntity
  8
躯体
  6
Continuous
 62
     6
370
     9
100
AcDbLine
 10
-79.40794331181897
 20
416.1449280229214
 30
0.0
 11
-79.40794331181897
 21
409.6449720907755
 31
0.0
  0
LINE
  5
11C
330
1F
100
AcDbEntity
  8
躯体
  6
Continuous
 62
     6
370
     9
100
AcDbLine
 10
-71.40795562489566
 20
416.1449280229214
 30
0.0
 11
-71.40795562489566
 21
409.6449720907755
 31
0.0
  0
LINE
  5
11D
330
1F
100
AcDbEntity
  8
躯体
  6
Continuous
 62
     6
370
     9
100
AcDbLine
 10
-63.48100003728032
 20
415.1450720093325
 30
0.0
 11
-63.48100003728032
 21
411.144954298674
 31
0.0
  0
LINE
  5
11E
330
1F
100
AcDbEntity
  8
躯体
  6
Continuous
 62
     6
370
     9
100
AcDbLine
 10
-71.40795562489566
 20
409.6449720907755
 30
0.0
 11
-63.48100003728032
 21
411.144954298674
 31
0.0
  0
LINE
  5
11F
330
1F
100
AcDbEntity
  8
躯体
  6
Continuous
 62
     6
370
     9
100
AcDbLine
 10
-63.48100003728032
 20
415.1450720093325
 30
0.0
 11
-71.40795562489566
 21
416.1449280229214
 31
0.0
  0
LINE
  5
120
330
1F
100
AcDbEntity
  8
躯体
  6
Continuous
 62
     6
370
     9
100
AcDbLine
 10
-79.40794331181897
 20
411.144954298674
 30
0.0
 11
-151.8385792665689
 21
411.144954298674
 31
0.0
  0
LINE
  5
121
330
1F
100
AcDbEntity
  8
躯体
  6
Continuous
 62
     6
370
     9
100
AcDbLine
 10
-79.40794331181897
 20
409.6449720907755
 30
0.0
 11
-151.8385792665689
 21
409.6449720907755
 31
0.0
  0
LINE
  5
122
330
1F
100
AcDbEntity
  8
躯体
  6
Continuous
 62
     6
370
     9
100
AcDbLine
 10
-79.40794331181897
 20
415.1450720093325
 30
0.0
 11
-152.8989815660156
 21
415.1450720093325
 31
0.0
  0
LINE
  5
123
330
1F
100
AcDbEntity
  8
躯体
  6
Continuous
 62
     6
370
     9
100
AcDbLine
 10
-151.8385792665689
 20
357.6449280229214
 30
0.0
 11
-130.8385806215964
 21
356.6449303822912
 31
0.0
  0
LINE
  5
124
330
1F
100
AcDbEntity
  8
躯体
  6
Continuous
 62
     6
370
     9
100
AcDbLine
 10
-63.84010650797009
 20
356.6449280229214
 30
0.0
 11
-63.84010650797009
 21
351.6449280229214
 31
0.0
  0
LINE
  5
125
330
1F
100
AcDbEntity
  8
躯体
  6
Continuous
 62
     6
370
     9
100
AcDbLine
 10
-85.20891256857968
 20
357.6449280229214
 30
0.0
 11
-85.20891256857968
 21
350.1449280229214
 31
0.0
  0
LINE
  5
126
330
1F
100
AcDbEntity
  8
躯体
  6
Continuous
 62
     6
370
     9
100
AcDbLine
 10
-93.20891256857968
 20
357.6449280229214
 30
0.0
 11
-93.20891256857968
 21
350.1449280229214
 31
0.0
  0
LINE
  5
127
330
1F
100
AcDbEntity
  8
躯体
  6
Continuous
 62
     6
370
     9
100
AcDbLine
 10
-93.20891256857968
 20
351.6449280229214
 30
0.0
 11
-130.838531074718
 21
351.6449280229214
 31
0.0
  0
LINE
  5
128
330
1F
100
AcDbEntity
  8
躯体
  6
Continuous
 62
     6
370
     9
100
AcDbLine
 10
-93.20891256857968
 20
356.6449280229214
 30
0.0
 11
-130.838531074718
 21
356.6449280229214
 31
0.0
  0
LINE
  5
129
330
1F
100
AcDbEntity
  8
躯体
  6
Continuous
 62
     6
370
     9
100
AcDbLine
 10
-130.838531074718
 20
350.1449280229214
 30
0.0
 11
-93.20891256857968
 21
350.1449280229214
 31
0.0
  0
LINE
  5
12A
330
1F
100
AcDbEntity
  8
躯体
  6
Continuous
 62
     6
370
     9
100
AcDbLine
 10
-151.8385792665689
 20
357.6449280229214
 30
0.0
 11
-93.20891256857968
 21
357.6449280229214
 31
0.0
  0
LINE
  5
12B
330
1F
100
AcDbEntity
  8
躯体
  6
Continuous
 62
     6
370
     9
100
AcDbLine
 10
-85.20891256857968
 20
350.1449280229214
 30
0.0
 11
-63.84010650797009
 21
351.6449280229214
 31
0.0
  0
LINE
  5
12C
330
1F
100
AcDbEntity
  8
躯体
  6
Continuous
 62
     6
370
     9
100
AcDbLine
 10
-63.84010650797009
 20
356.6449280229214
 30
0.0
 11
-85.20891256857968
 21
357.6449280229214
 31
0.0
  0
LINE
  5
12D
330
1F
100
AcDbEntity
  8
躯体
  6
Continuous
 62
     6
370
     9
100
AcDbLine
 10
34.16024986428928
 20
351.6449280229214
 30
0.0
 11
-63.84010650797009
 21
351.6449280229214
 31
0.0
  0
LINE
  5
12E
330
1F
100
AcDbEntity
  8
躯体
  6
Continuous
 62
     6
370
     9
100
AcDbLine
 10
-85.20891256857968
 20
357.6449280229214
 30
0.0
 11
31.94575305970884
 21
357.6449280229214
 31
0.0
  0
LINE
  5
12F
330
1F
100
AcDbEntity
  8
躯体
  6
Continuous
 62
     6
370
     9
100
AcDbLine
 10
38.58795713873732
 20
356.6449280229214
 30
0.0
 11
-63.84010650797009
 21
356.6449280229214
 31
0.0
  0
LINE
  5
130
330
1F
100
AcDbEntity
  8
躯体
  6
Continuous
 62
     6
370
     9
100
AcDbLine
 10
-85.20891256857968
 20
350.1449280229214
 30
0.0
 11
-4.956722747561713
 21
350.1449280229214
 31
0.0
  0
LINE
  5
131
330
1F
100
AcDbEntity
  8
躯体
  6
Continuous
 62
     6
370
     9
100
AcDbLine
 10
-112.725742314649
 20
415.1450720093325
 30
0.0
 11
-112.725742314649
 21
411.144954298674
 31
0.0
  0
LINE
  5
132
330
1F
100
AcDbEntity
  8
躯体
  6
Continuous
 62
     6
370
     9
100
AcDbLine
 10
-113.1502154092376
 20
409.6449720907755
 30
0.0
 11
-112.725742314649
 21
411.144954298674
 31
0.0
  0
LINE
  5
133
330
1F
100
AcDbEntity
  8
躯体
  6
Continuous
 62
     6
370
     9
100
AcDbLine
 10
-112.725742314649
 20
415.1450720093325
 30
0.0
 11
-112.1088592234004
 21
416.1449280229214
 31
0.0
  0
LINE
  5
134
330
1F
100
AcDbEntity
  8
0-A
  6
Continuous
 62
     2
370
     9
100
AcDbLine
 10
-126.2385621460898
 20
242.1449478181073
 30
0.0
 11
-128.8386598023398
 21
242.1449478181073
 31
0.0
  0
LINE
  5
135
330
1F
100
AcDbEntity
  8
仕上
  6
Continuous
 62
     3
370
     9
100
AcDbLine
 10
-128.8386598023398
 20
248.1450173269229
 30
0.0
 11
-113.4154882176694
 21
247.1367987999483
 31
0.0
  0
LINE
  5
136
330
1F
100
AcDbEntity
  8
仕上
  6
Continuous
 62
     3
370
     9
100
AcDbLine
 10
19.16519366049769
 20
327.9320373979214
 30
0.0
 11
22.74222294756768
 21
348.6449280229214
 31
0.0
  0
LINE
  5
137
330
1F
100
AcDbEntity
  8
仕上
  6
Continuous
 62
     3
370
     9
100
AcDbLine
 10
13.04417579204355
 20
334.9316151006239
 30
0.0
 11
20.28833454866353
 21
334.4356169065185
 31
0.0
  0
LINE
  5
138
330
1F
100
AcDbEntity
  8
仕上
  6
Continuous
 62
     3
370
     9
100
AcDbLine
 10
-120.8423944940631
 20
327.9320373979214
 30
0.0
 11
-124.5465134076334
 21
348.6449280229214
 31
0.0
  0
LINE
  5
139
330
1F
100
AcDbEntity
  8
仕上
  6
Continuous
 62
     3
370
     9
100
AcDbLine
 10
-108.4865859267065
 20
333.9650161774823
 30
0.0
 11
-122.2585090226925
 21
335.8507425011828
 31
0.0
  0
LINE
  5
13A
330
1F
100
AcDbEntity
  8
仕上
  6
Continuous
 62
     3
370
     9
100
AcDbLine
 10
-103.5364532989614
 20
333.9650161774823
 30
0.0
 11
-122.3827617706892
 21
336.5455456754761
 31
0.0
  0
LINE
  5
13B
330
1F
100
AcDbEntity
  8
仕上
  6
Continuous
 62
     3
370
     9
100
AcDbLine
 10
-90.10170812898687
 20
333.9650161774823
 30
0.0
 11
-122.7199602183333
 21
338.4311100236902
 31
0.0
  0
LINE
  5
13C
330
1F
100
AcDbEntity
  8
仕上
  6
Continuous
 62
     3
370
     9
100
AcDbLine
 10
-85.15177345310022
 20
333.9650161774823
 30
0.0
 11
-122.8442435072865
 21
339.1260839785415
 31
0.0
  0
LINE
  5
13D
330
1F
100
AcDbEntity
  8
仕上
  6
Continuous
 62
     3
370
     9
100
AcDbLine
 10
-71.71702828312564
 20
333.9650161774823
 30
0.0
 11
-123.1814403936304
 21
341.011639596192
 31
0.0
  0
LINE
  5
13E
330
1F
100
AcDbEntity
  8
仕上
  6
Continuous
 62
     3
370
     9
100
AcDbLine
 10
-66.76694514334523
 20
333.9650161774823
 30
0.0
 11
-123.3056924389458
 21
341.7064388411963
 31
0.0
  0
LINE
  5
13F
330
1F
100
AcDbEntity
  8
仕上
  6
Continuous
 62
     3
370
     9
100
AcDbLine
 10
-53.33219997337019
 20
333.9650161774823
 30
0.0
 11
-123.6428877252473
 21
343.5919855116453
 31
0.0
  0
LINE
  5
140
330
1F
100
AcDbEntity
  8
仕上
  6
Continuous
 62
     3
370
     9
100
AcDbLine
 10
-48.38206734562519
 20
333.9650161774823
 30
0.0
 11
-123.7671507567494
 21
344.2868461897949
 31
0.0
  0
LINE
  5
141
330
1F
100
AcDbEntity
  8
仕上
  6
Continuous
 62
     3
370
     9
100
AcDbLine
 10
24.16149855914645
 20
348.6449280229214
 30
0.0
 11
-128.8386598023398
 21
348.6449280229214
 31
0.0
  0
LINE
  5
142
330
1F
100
AcDbEntity
  8
仕上
  6
Continuous
 62
     3
370
     9
100
AcDbLine
 10
-130.8385806215964
 20
348.3116034875645
 30
0.0
 11
-128.8386598023398
 21
348.6449280229214
 31
0.0
  0
LINE
  5
143
330
1F
100
AcDbEntity
  8
躯体
  6
Continuous
 62
     6
370
     9
100
AcDbLine
 10
40.08922277889209
 20
317.6711701833266
 30
0.0
 11
35.66151550444405
 21
317.6711701833266
 31
0.0
  0
LINE
  5
144
330
1F
100
AcDbEntity
  8
躯体
  6
Continuous
 62
     6
370
     9
100
AcDbLine
 10
40.08922277889209
 20
317.6710710895692
 30
0.0
 11
31.44701869986383
 21
314.6711151574233
 31
0.0
  0
LINE
  5
145
330
1F
100
AcDbEntity
  8
躯体
  6
Continuous
 62
     6
370
     9
100
AcDbLine
 10
40.08922277889209
 20
304.6710601315198
 30
0.0
 11
35.66151550444405
 21
304.6710601315198
 31
0.0
  0
LINE
  5
146
330
1F
100
AcDbEntity
  8
躯体
  6
Continuous
 62
     6
370
     9
100
AcDbLine
 10
40.08922277889209
 20
304.6710601315198
 30
0.0
 11
31.44701869986383
 21
307.6710160636657
 31
0.0
  0
LINE
  5
147
330
1F
100
AcDbEntity
  8
躯体
  6
Continuous
 62
     6
370
     9
100
AcDbLine
 10
40.08922277889209
 20
267.6710215426905
 30
0.0
 11
35.66151550444405
 21
267.6710215426905
 31
0.0
  0
LINE
  5
148
330
1F
100
AcDbEntity
  8
躯体
  6
Continuous
 62
     6
370
     9
100
AcDbLine
 10
40.08922277889209
 20
254.6711096783988
 30
0.0
 11
35.66151550444405
 21
254.6711096783988
 31
0.0
  0
LINE
  5
149
330
1F
100
AcDbEntity
  8
躯体
  6
Continuous
 62
     6
370
     9
100
AcDbLine
 10
40.08922277889209
 20
254.6711096783988
 30
0.0
 11
31.44701869986383
 21
257.6710656105446
 31
0.0
  0
LINE
  5
14A
330
1F
100
AcDbEntity
  8
躯体
  6
Continuous
 62
     6
370
     9
100
AcDbLine
 10
40.08922277889209
 20
267.6710215426905
 30
0.0
 11
31.44701869986383
 21
264.6710656105446
 31
0.0
  0
LINE
  5
14B
330
1F
100
AcDbEntity
  8
躯体
  6
Continuous
 62
     6
370
     9
100
AcDbLine
 10
40.08922277889209
 20
304.6710601315198
 30
0.0
 11
40.08922277889209
 21
267.6710215426905
 31
0.0
  0
LINE
  5
14C
330
1F
100
AcDbEntity
  8
躯体
  6
Continuous
 62
     6
370
     9
100
AcDbLine
 10
35.66151550444405
 20
304.6710601315198
 30
0.0
 11
35.66151550444405
 21
267.6710215426905
 31
0.0
  0
ARC
  5
14D
330
1F
100
AcDbEntity
  8
躯体
  6
Continuous
 62
     6
370
     9
100
AcDbCircle
 10
38.08922277889209
 20
354.6710656105446
 30
0.0
 40
2.0
100
AcDbArc
 50
0.0
 51
90.0
  0
ARC
  5
14E
330
1F
100
AcDbEntity
  8
躯体
  6
Continuous
 62
     6
370
     9
100
AcDbCircle
 10
33.66151550444405
 20
349.6710656105446
 30
0.0
 40
2.0
100
AcDbArc
 50
0.0000000000000127
 51
90.0
  0
LINE
  5
14F
330
1F
100
AcDbEntity
  8
躯体
  6
Continuous
 62
     6
370
     9
100
AcDbLine
 10
31.44701869986383
 20
357.6710656105446
 30
0.0
 11
38.38068419817782
 21
356.6497142001301
 31
0.0
  0
LINE
  5
150
330
1F
100
AcDbEntity
  8
躯体
  6
Continuous
 62
     6
370
     9
100
AcDbLine
 10
27.31910933833782
 20
351.0657252991375
 30
0.0
 11
6.662823584858955
 21
351.0657252991375
 31
0.0
  0
LINE
  5
151
330
1F
100
AcDbEntity
  8
躯体
  6
Continuous
 62
     6
370
     9
100
AcDbLine
 10
6.662823584858955
 20
351.0657252991375
 30
0.0
 11
-5.455457107406716
 21
350.1710656105446
 31
0.0
  0
LINE
  5
152
330
1F
100
AcDbEntity
  8
躯体
  6
Continuous
 62
     6
370
     9
100
AcDbLine
 10
40.08922277889209
 20
354.6710656105446
 30
0.0
 11
40.08922277889209
 21
317.6711701833266
 31
0.0
  0
LINE
  5
153
330
1F
100
AcDbEntity
  8
躯体
  6
Continuous
 62
     6
370
     9
100
AcDbLine
 10
35.66151550444405
 20
349.6710656105446
 30
0.0
 11
35.66151550444405
 21
317.6711701833266
 31
0.0
  0
LINE
  5
154
330
1F
100
AcDbEntity
  8
躯体
  6
Continuous
 62
     6
370
     9
100
AcDbLine
 10
27.31910933833782
 20
351.0657252991375
 30
0.0
 11
27.31910933833782
 21
341.1710656105446
 31
0.0
  0
LINE
  5
155
330
1F
100
AcDbEntity
  8
躯体
  6
Continuous
 62
     6
370
     9
100
AcDbLine
 10
55.16143284776044
 20
396.1710716197974
 30
0.0
 11
50.16140957663433
 21
396.1710716197974
 31
0.0
  0
LINE
  5
156
330
1F
100
AcDbEntity
  8
躯体
  6
Continuous
 62
     6
370
     9
100
AcDbLine
 10
55.16143284776044
 20
394.6710894118989
 30
0.0
 11
46.02355154299366
 21
394.6710894118989
 31
0.0
  0
LINE
  5
157
330
1F
100
AcDbEntity
  8
躯体
  6
Continuous
 62
     6
370
     9
100
AcDbLine
 10
0.9031785658090428
 20
357.6710656105446
 30
0.0
 11
45.81637343078327
 21
406.0954377981877
 31
0.0
  0
LINE
  5
158
330
1F
100
AcDbEntity
  8
躯体
  6
Continuous
 62
     6
370
     9
100
AcDbLine
 10
6.662823584858955
 20
351.0657252991375
 30
0.0
 11
6.662823584858955
 21
348.6710656105446
 31
0.0
  0
LINE
  5
159
330
1F
100
AcDbEntity
  8
躯体
  6
Continuous
 62
     6
370
     9
100
AcDbLine
 10
-7.4442451698757
 20
348.6710656105446
 30
0.0
 11
-6.053007880594947
 21
350.1710656105446
 31
0.0
  0
LINE
  5
15A
330
1F
100
AcDbEntity
  8
躯体
  6
Continuous
 62
     6
370
     9
100
AcDbLine
 10
-5.455457107406716
 20
350.1710656105446
 30
0.0
 11
-5.455457107406716
 21
348.6710656105446
 31
0.0
  0
LINE
  5
15B
330
1F
100
AcDbEntity
  8
躯体
  6
Continuous
 62
     6
370
     9
100
AcDbLine
 10
27.16155794470396
 20
341.1563989709295
 30
0.0
 11
27.31910933833782
 21
341.1710656105446
 31
0.0
  0
LINE
  5
15C
330
1F
100
AcDbEntity
  8
躯体
  6
Continuous
 62
     6
370
     9
100
AcDbLine
 10
27.31910933833782
 20
341.1710656105446
 30
0.0
 11
27.16155794470396
 21
341.1710656105446
 31
0.0
  0
LINE
  5
15D
330
1F
100
AcDbEntity
  8
躯体
  6
Continuous
 62
     6
370
     9
100
AcDbLine
 10
31.44701869986383
 20
314.6711151574233
 30
0.0
 11
27.16155794470396
 21
314.6711151574233
 31
0.0
  0
LINE
  5
15E
330
1F
100
AcDbEntity
  8
躯体
  6
Continuous
 62
     6
370
     9
100
AcDbLine
 10
27.16155794470396
 20
316.3349391860428
 30
0.0
 11
35.66151550444405
 21
317.6710710895692
 31
0.0
  0
LINE
  5
15F
330
1F
100
AcDbEntity
  8
躯体
  6
Continuous
 62
     6
370
     9
100
AcDbLine
 10
31.44701869986383
 20
307.6710160636657
 30
0.0
 11
27.16155794470396
 21
307.6710160636657
 31
0.0
  0
LINE
  5
160
330
1F
100
AcDbEntity
  8
躯体
  6
Continuous
 62
     6
370
     9
100
AcDbLine
 10
27.16155794470396
 20
306.0071920350464
 30
0.0
 11
35.66151550444405
 21
304.6710601315198
 31
0.0
  0
LINE
  5
161
330
1F
100
AcDbEntity
  8
躯体
  6
Continuous
 62
     6
370
     9
100
AcDbLine
 10
27.16155794470396
 20
256.0072415819251
 30
0.0
 11
35.66151550444405
 21
254.6711096783988
 31
0.0
  0
LINE
  5
162
330
1F
100
AcDbEntity
  8
躯体
  6
Continuous
 62
     6
370
     9
100
AcDbLine
 10
31.44701869986383
 20
257.6710656105446
 30
0.0
 11
27.16155794470396
 21
257.6710656105446
 31
0.0
  0
LINE
  5
163
330
1F
100
AcDbEntity
  8
躯体
  6
Continuous
 62
     6
370
     9
100
AcDbLine
 10
31.44701869986383
 20
264.6710656105446
 30
0.0
 11
27.16155794470396
 21
264.6710656105446
 31
0.0
  0
LINE
  5
164
330
1F
100
AcDbEntity
  8
躯体
  6
Continuous
 62
     6
370
     9
100
AcDbLine
 10
27.16155794470396
 20
266.3348896391639
 30
0.0
 11
35.66151550444405
 21
267.6710215426905
 31
0.0
  0
LINE
  5
165
330
1F
100
AcDbEntity
  8
躯体
  6
Continuous
 62
     6
370
     9
100
AcDbLine
 10
46.02355154299366
 20
404.6449720907755
 30
0.0
 11
46.02355154299366
 21
394.6710894118989
 31
0.0
  0
LINE
  5
166
330
1F
100
AcDbEntity
  8
躯体
  6
Continuous
 62
     6
370
     9
100
AcDbLine
 10
41.02355154299366
 20
409.6449720907755
 30
0.0
 11
-71.40795562489566
 21
409.6449720907755
 31
0.0
  0
ARC
  5
167
330
1F
100
AcDbEntity
  8
躯体
  6
Continuous
 62
     6
370
     9
100
AcDbCircle
 10
41.02355154299366
 20
404.6449720907755
 30
0.0
 40
5.0
100
AcDbArc
 50
0.0000000000000127
 51
90.0
  0
LINE
  5
168
330
1F
100
AcDbEntity
  8
躯体
  6
Continuous
 62
     6
370
     9
100
AcDbLine
 10
45.16140957663433
 20
411.144954298674
 30
0.0
 11
-63.48100003728032
 21
411.144954298674
 31
0.0
  0
LINE
  5
169
330
1F
100
AcDbEntity
  8
躯体
  6
Continuous
 62
     6
370
     9
100
AcDbLine
 10
50.16140957663433
 20
406.144954298674
 30
0.0
 11
50.16140957663433
 21
396.1710716197974
 31
0.0
  0
ARC
  5
16A
330
1F
100
AcDbEntity
  8
躯体
  6
Continuous
 62
     6
370
     9
100
AcDbCircle
 10
45.16140957663433
 20
406.144954298674
 30
0.0
 40
5.0
100
AcDbArc
 50
0.0
 51
90.0
  0
LINE
  5
16B
330
1F
100
AcDbEntity
  8
躯体
  6
Continuous
 62
     6
370
     9
100
AcDbLine
 10
45.16143284776044
 20
415.1450720093325
 30
0.0
 11
-63.48100003728032
 21
415.1450720093325
 31
0.0
  0
ARC
  5
16C
330
1F
100
AcDbEntity
  8
躯体
  6
Continuous
 62
     6
370
     9
100
AcDbCircle
 10
45.16143284776044
 20
405.1450720093325
 30
0.0
 40
10.0
100
AcDbArc
 50
0.0
 51
90.0
  0
LINE
  5
16D
330
1F
100
AcDbEntity
  8
躯体
  6
Continuous
 62
     6
370
     9
100
AcDbLine
 10
45.16143284776044
 20
416.1449280229214
 30
0.0
 11
-159.8385669534922
 21
416.1449280229214
 31
0.0
  0
ARC
  5
16E
330
1F
100
AcDbEntity
  8
躯体
  6
Continuous
 62
     6
370
     9
100
AcDbCircle
 10
45.16143284776044
 20
406.1449280229214
 30
0.0
 40
10.0
100
AcDbArc
 50
0.0000000000000127
 51
90.0
  0
LINE
  5
16F
330
1F
100
AcDbEntity
  8
仕上
  6
Continuous
 62
     3
370
     9
100
AcDbLine
 10
-58.26334907683705
 20
277.1449229491624
 30
0.0
 11
-58.26334907683705
 21
271.1450932113259
 31
0.0
  0
ARC
  5
170
330
1F
100
AcDbEntity
  8
仕上
  6
Continuous
 62
     3
370
     9
100
AcDbCircle
 10
-60.26335838528749
 20
271.1450932113259
 30
0.0
 40
2.000000018410701
100
AcDbArc
 50
270.0007171630859
 51
0.0
  0
ARC
  5
171
330
1F
100
AcDbEntity
  8
仕上
  6
Continuous
 62
     3
370
     9
100
AcDbCircle
 10
-60.26335838528749
 20
277.1449229491624
 30
0.0
 40
2.000000018410701
100
AcDbArc
 50
0.0
 51
90.0
  0
ARC
  5
172
330
1F
100
AcDbEntity
  8
仕上
  6
Continuous
 62
     3
370
     9
100
AcDbCircle
 10
-60.26336850530325
 20
252.1449742300987
 30
0.0
 40
2.000000018410701
100
AcDbArc
 50
270.0
 51
0.0
  0
LINE
  5
173
330
1F
100
AcDbEntity
  8
仕上
  6
Continuous
 62
     3
370
     9
100
AcDbLine
 10
-58.2633591968528
 20
252.1449742300987
 30
0.0
 11
-58.2633591968528
 21
258.1450008059457
 31
0.0
  0
ARC
  5
174
330
1F
100
AcDbEntity
  8
仕上
  6
Continuous
 62
     3
370
     9
100
AcDbCircle
 10
-60.26336850530325
 20
258.1450008059459
 30
0.0
 40
2.000000018410701
100
AcDbArc
 50
0.0
 51
90.0
  0
ARC
  5
175
330
1F
100
AcDbEntity
  8
仕上
  6
Continuous
 62
     3
370
     9
100
AcDbCircle
 10
-60.26333335157292
 20
239.1450929647014
 30
0.0
 40
2.000000018410701
100
AcDbArc
 50
0.0
 51
90.0
  0
ARC
  5
176
330
1F
100
AcDbEntity
  8
仕上
  6
Continuous
 62
     3
370
     9
100
AcDbCircle
 10
-60.28262115908356
 20
309.1448222479202
 30
0.0
 40
2.000000018410701
100
AcDbArc
 50
270.0
 51
0.0
  0
LINE
  5
177
330
1F
100
AcDbEntity
  8
仕上
  6
Continuous
 62
     3
370
     9
100
AcDbLine
 10
-58.28261185063312
 20
309.1448222479202
 30
0.0
 11
-58.28261185063312
 21
315.1448488237672
 31
0.0
  0
ARC
  5
178
330
1F
100
AcDbEntity
  8
仕上
  6
Continuous
 62
     3
370
     9
100
AcDbCircle
 10
-60.28262115908356
 20
315.1448488237674
 30
0.0
 40
2.000000018410701
100
AcDbArc
 50
0.0
 51
90.0
  0
ARC
  5
179
330
1F
100
AcDbEntity
  8
仕上
  6
Continuous
 62
     3
370
     9
100
AcDbCircle
 10
-60.28260358221851
 20
290.145007003065
 30
0.0
 40
2.000000018410701
100
AcDbArc
 50
270.0
 51
0.0
  0
LINE
  5
17A
330
1F
100
AcDbEntity
  8
仕上
  6
Continuous
 62
     3
370
     9
100
AcDbLine
 10
-58.28259427376807
 20
290.145007003065
 30
0.0
 11
-58.28259427376807
 21
296.1450335789122
 31
0.0
  0
ARC
  5
17B
330
1F
100
AcDbEntity
  8
仕上
  6
Continuous
 62
     3
370
     9
100
AcDbCircle
 10
-60.28260358221851
 20
296.1450335789124
 30
0.0
 40
2.000000018410701
100
AcDbArc
 50
0.0
 51
90.0
  0
ARC
  5
17C
330
1F
100
AcDbEntity
  8
仕上
  6
Continuous
 62
     3
370
     9
100
AcDbCircle
 10
13.47470414054314
 20
290.144914406444
 30
0.0
 40
2.000000018410701
100
AcDbArc
 50
270.0
 51
0.0
  0
LINE
  5
17D
330
1F
100
AcDbEntity
  8
仕上
  6
Continuous
 62
     3
370
     9
100
AcDbLine
 10
15.47471344899358
 20
290.144914406444
 30
0.0
 11
15.47471344899358
 21
296.144940982291
 31
0.0
  0
ARC
  5
17E
330
1F
100
AcDbEntity
  8
仕上
  6
Continuous
 62
     3
370
     9
100
AcDbCircle
 10
13.47470414054314
 20
296.1449409822912
 30
0.0
 40
2.000000018410701
100
AcDbArc
 50
0.0
 51
90.0
  0
ARC
  5
17F
330
1F
100
AcDbEntity
  8
仕上
  6
Continuous
 62
     3
370
     9
100
AcDbCircle
 10
13.47470414054314
 20
271.1448948302684
 30
0.0
 40
2.000000018410701
100
AcDbArc
 50
270.0
 51
0.0
  0
LINE
  5
180
330
1F
100
AcDbEntity
  8
仕上
  6
Continuous
 62
     3
370
     9
100
AcDbLine
 10
15.47471344899358
 20
271.1448948302684
 30
0.0
 11
15.47471344899358
 21
277.1449214061153
 31
0.0
  0
ARC
  5
181
330
1F
100
AcDbEntity
  8
仕上
  6
Continuous
 62
     3
370
     9
100
AcDbCircle
 10
13.47470414054314
 20
277.1449214061155
 30
0.0
 40
2.000000018410701
100
AcDbArc
 50
0.0
 51
90.0
  0
ARC
  5
182
330
1F
100
AcDbEntity
  8
仕上
  6
Continuous
 62
     3
370
     9
100
AcDbCircle
 10
13.47470414054314
 20
239.1450929643924
 30
0.0
 40
2.000000018410701
100
AcDbArc
 50
0.0
 51
90.0
  0
ARC
  5
183
330
1F
100
AcDbEntity
  8
仕上
  6
Continuous
 62
     3
370
     9
100
AcDbCircle
 10
13.47470414054314
 20
252.1446773023117
 30
0.0
 40
2.000000018410701
100
AcDbArc
 50
270.0
 51
0.0
  0
LINE
  5
184
330
1F
100
AcDbEntity
  8
仕上
  6
Continuous
 62
     3
370
     9
100
AcDbLine
 10
15.47471344899358
 20
252.1446773023117
 30
0.0
 11
15.47471344899358
 21
258.1447038781586
 31
0.0
  0
ARC
  5
185
330
1F
100
AcDbEntity
  8
仕上
  6
Continuous
 62
     3
370
     9
100
AcDbCircle
 10
13.47470414054314
 20
258.1447038781589
 30
0.0
 40
2.000000018410701
100
AcDbArc
 50
0.0
 51
90.0
  0
ARC
  5
186
330
1F
100
AcDbEntity
  8
仕上
  6
Continuous
 62
     3
370
     9
100
AcDbCircle
 10
13.47470414054314
 20
309.1448222479202
 30
0.0
 40
2.000000018410701
100
AcDbArc
 50
270.0
 51
0.0
  0
LINE
  5
187
330
1F
100
AcDbEntity
  8
仕上
  6
Continuous
 62
     3
370
     9
100
AcDbLine
 10
15.47471344899358
 20
309.1448222479202
 30
0.0
 11
15.47471344899358
 21
315.1448488237672
 31
0.0
  0
ARC
  5
188
330
1F
100
AcDbEntity
  8
仕上
  6
Continuous
 62
     3
370
     9
100
AcDbCircle
 10
13.47470414054314
 20
315.1448488237674
 30
0.0
 40
2.000000018410701
100
AcDbArc
 50
0.0
 51
90.0
  0
LINE
  5
189
330
1F
100
AcDbEntity
  8
躯体
  6
Continuous
 62
     6
370
     9
100
AcDbLine
 10
-159.8385669534922
 20
416.1449280229214
 30
0.0
 11
-159.8385669534922
 21
236.1449280229214
 31
0.0
  0
LINE
  5
18A
330
1F
100
AcDbEntity
  8
躯体
  6
Continuous
 62
     6
370
     9
100
AcDbLine
 10
-151.8385792665689
 20
413.3794194374665
 30
0.0
 11
-151.8385792665689
 21
236.1449280229214
 31
0.0
  0
LINE
  5
18B
330
1F
100
AcDbEntity
  8
躯体
  6
Continuous
 62
     6
370
     9
100
AcDbLine
 10
-130.8385806215964
 20
356.6449303822912
 30
0.0
 11
-130.8385806215964
 21
236.1449280229214
 31
0.0
  0
LINE
  5
18C
330
1F
100
AcDbEntity
  8
仕上
  6
Continuous
 62
     3
370
     9
100
AcDbLine
 10
-129.838514637644
 20
348.478283351196
 30
0.0
 11
-129.838514637644
 21
236.1449280229214
 31
0.0
  0
LINE
  5
18D
330
1F
100
AcDbEntity
  8
仕上
  6
Continuous
 62
     3
370
     9
100
AcDbLine
 10
-128.8386598023398
 20
236.1449280229214
 30
0.0
 11
-128.8386598023398
 21
348.6449280229214
 31
0.0
  0
ARC
  5
18E
330
1F
100
AcDbEntity
  8
仕上
  6
Continuous
 62
     3
370
     9
100
AcDbCircle
 10
-116.1818159467656
 20
236.1449280229214
 30
0.0
 40
19.0000023712983
100
AcDbArc
 50
0.0
 51
8.213150024414077
  0
LINE
  5
18F
330
1F
100
AcDbEntity
  8
仕上
  6
Continuous
 62
     3
370
     9
100
AcDbLine
 10
-58.26332404312248
 20
236.1449280229214
 30
0.0
 11
-58.26332404312248
 21
239.1450929647012
 31
0.0
  0
LINE
  5
190
330
1F
100
AcDbEntity
  8
仕上
  6
Continuous
 62
     3
370
     9
100
AcDbLine
 10
-55.08120361568436
 20
239.1449874084787
 30
0.0
 11
-55.08120361568436
 21
236.1449280229214
 31
0.0
  0
LINE
  5
191
330
1F
100
AcDbEntity
  8
仕上
  6
Continuous
 62
     3
370
     9
100
AcDbLine
 10
15.47471344899358
 20
236.1449280229214
 30
0.0
 11
15.47471344899358
 21
239.1450929643922
 31
0.0
  0
LINE
  5
192
330
1F
100
AcDbEntity
  8
仕上
  6
Continuous
 62
     3
370
     9
100
AcDbLine
 10
18.67622782290695
 20
236.1449280229214
 30
0.0
 11
18.67635154690024
 21
239.1449874084787
 31
0.0
  0
LINE
  5
193
330
1F
100
AcDbEntity
  8
仕上
  6
Continuous
 62
     3
370
     9
100
AcDbLine
 10
-46.59599721788018
 20
239.1449874084787
 30
0.0
 11
-46.59599721788018
 21
236.1449280229214
 31
0.0
  0
LINE
  5
194
330
1F
100
AcDbEntity
  8
躯体
  6
Continuous
 62
     6
370
     9
100
AcDbLine
 10
35.66151550444405
 20
254.6711096783988
 30
0.0
 11
35.66151550444405
 21
236.1449280229214
 31
0.0
  0
LINE
  5
195
330
1F
100
AcDbEntity
  8
躯体
  6
Continuous
 62
     6
370
     9
100
AcDbLine
 10
40.08922277889209
 20
254.6711096783988
 30
0.0
 11
40.08922277889209
 21
236.1449280229214
 31
0.0
  0
LINE
  5
196
330
1F
100
AcDbEntity
  8
躯体
  6
Continuous
 62
     6
370
     9
100
AcDbLine
 10
55.16143284776044
 20
406.1449280229214
 30
0.0
 11
55.16143284776044
 21
236.1449280229214
 31
0.0
  0
LINE
  5
197
330
1F
100
AcDbEntity
  8
仕上
  6
Continuous
 62
     3
370
     9
100
AcDbLine
 10
27.16155794470396
 20
345.6449676132931
 30
0.0
 11
27.16155794470396
 21
236.1449280229214
 31
0.0
  0
ARC
  5
198
330
1F
100
AcDbEntity
  8
仕上
  6
Continuous
 62
     3
370
     9
100
AcDbCircle
 10
-113.8386598023398
 20
236.1449280229214
 30
0.0
 40
11.00000072169948
100
AcDbArc
 50
0.0
 51
87.79574584960939
  0
LINE
  5
199
330
1F
100
AcDbEntity
  8
0-A
  6
Continuous
 62
     2
370
     9
100
AcDbLine
 10
-126.2385621460898
 20
236.6239715195429
 30
0.0
 11
-126.2385621460898
 21
236.1449280229214
 31
0.0
  0
LINE
  5
19A
330
1F
100
AcDbEntity
  8
通り芯
  6
Continuous
 62
     4
370
     9
100
AcDbLine
 10
-159.8385669534922
 20
343.7661056516453
 30
0.0
 11
-165.5170455625437
 21
343.7661056516453
 31
0.0
  0
LINE
  5
19B
330
1F
100
AcDbEntity
  8
通り芯
  6
Continuous
 62
     4
370
     9
100
AcDbLine
 10
-159.8385669534922
 20
342.0887645157545
 30
0.0
 11
-165.5170455625437
 21
342.0887645157545
 31
0.0
  0
LINE
  5
19C
330
1F
100
AcDbEntity
  8
通り芯
  6
Continuous
 62
     4
370
     9
100
AcDbLine
 10
-159.8385669534922
 20
340.5908202136229
 30
0.0
 11
-165.5170455625437
 21
340.5908202136229
 31
0.0
  0
LINE
  5
19D
330
1F
100
AcDbEntity
  8
通り芯
  6
Continuous
 62
     4
370
     9
100
AcDbLine
 10
-159.8385669534922
 20
338.8088071652457
 30
0.0
 11
-165.5170455625437
 21
338.8088071652457
 31
0.0
  0
LINE
  5
19E
330
1F
100
AcDbEntity
  8
通り芯
  6
Continuous
 62
     4
370
     9
100
AcDbLine
 10
-159.8385669534922
 20
337.6449280229214
 30
0.0
 11
-165.5170455625437
 21
337.6449280229214
 31
0.0
  0
LINE
  5
19F
330
1F
100
AcDbEntity
  8
通り芯
  6
Continuous
 62
     4
370
     9
100
AcDbLine
 10
-165.5170455625437
 20
336.6449280229214
 30
0.0
 11
-159.8385669534922
 21
336.3862753794085
 31
0.0
  0
LINE
  5
1A0
330
1F
100
AcDbEntity
  8
躯体
  6
Continuous
 62
     6
370
     9
100
AcDbLine
 10
-109.9632442459723
 20
348.6449280229214
 30
0.0
 11
-110.0416123327163
 21
350.1449280229214
 31
0.0
  0
LINE
  5
1A1
330
1F
100
AcDbEntity
  8
躯体
  6
Continuous
 62
     6
370
     9
100
AcDbLine
 10
-110.4334527664364
 20
357.6449280229214
 30
0.0
 11
-113.1502154092376
 21
409.6449720907755
 31
0.0
  0
LINE
  5
1A2
330
1F
100
AcDbEntity
  8
通り芯
  6
Continuous
 62
     4
370
     9
100
AcDbLine
 10
85.7918105218364
 20
442.9039987787366
 30
0.0
 11
54.01568540799187
 21
410.7927459625179
 31
0.0
  0
LWPOLYLINE
  5
1A3
330
1F
100
AcDbEntity
  8
その他
  6
Continuous
 62
     7
370
     9
100
AcDbPolyline
 90
        4
 70
     1
 43
0.8
 10
275.3398838433262
 20
517.1448394158991
 42
0.4142135623731
 10
274.9398838433262
 20
517.5448394158991
 42
0.4142135623731
 10
274.5398838433263
 20
517.1448394158991
 42
0.4142135623731
 10
274.9398838433262
 20
516.7448394158992
 42
0.4142135623731
  0
LWPOLYLINE
  5
1A4
330
1F
100
AcDbEntity
  8
その他
  6
Continuous
 62
     7
370
     9
100
AcDbPolyline
 90
        4
 70
     1
 43
0.8
 10
127.7732029175448
 20
348.6449280229214
 42
0.4142135623731
 10
127.3732029175448
 20
349.0449280229214
 42
0.4142135623731
 10
126.9732029175448
 20
348.6449280229214
 42
0.4142135623731
 10
127.3732029175448
 20
348.2449280229214
 42
0.4142135623731
  0
LWPOLYLINE
  5
1A5
330
1F
100
AcDbEntity
  8
その他
  6
Continuous
 62
     7
370
     9
100
AcDbPolyline
 90
        4
 70
     1
 43
0.8
 10
196.6136839141886
 20
447.6449280229214
 42
0.4142135623731
 10
196.2136839141886
 20
448.0449280229214
 42
0.4142135623731
 10
195.8136839141885
 20
447.6449280229214
 42
0.4142135623731
 10
196.2136839141886
 20
447.2449280229214
 42
0.4142135623731
  0
LWPOLYLINE
  5
1A6
330
1F
100
AcDbEntity
  8
その他
  6
Continuous
 62
     7
370
     9
100
AcDbPolyline
 90
        4
 70
     1
 43
0.8
 10
160.4803967177476
 20
416.1449744731206
 42
0.4142135623731
 10
160.0803967177476
 20
416.5449744731206
 42
0.4142135623731
 10
159.6803967177476
 20
416.1449744731206
 42
0.4142135623731
 10
160.0803967177476
 20
415.7449744731206
 42
0.4142135623731
  0
LINE
  5
1A7
330
1F
100
AcDbEntity
  8
通り芯
  6
Continuous
 62
     4
370
     9
100
AcDbLine
 10
-166.5166042948597
 20
-179.2783954480606
 30
0.0
 11
-165.516748281271
 21
-177.1338061455201
 31
0.0
  0
ARC
  5
1A8
330
1F
100
AcDbEntity
  8
通り芯
  6
Continuous
 62
     4
370
     9
100
AcDbCircle
 10
-164.5166042948597
 20
-179.7217114766966
 30
0.0
 40
2.0
100
AcDbArc
 50
155.0040028853098
 51
180.0
  0
ARC
  5
1A9
330
1F
100
AcDbEntity
  8
通り芯
  6
Continuous
 62
     4
370
     9
100
AcDbCircle
 10
-164.5166042948597
 20
-180.2425854828238
 30
0.0
 40
2.0
100
AcDbArc
 50
180.0
 51
209.9943220910382
  0
LINE
  5
1AA
330
1F
100
AcDbEntity
  8
通り芯
  6
Continuous
 62
     6
370
     9
100
AcDbLine
 10
-213.7683210116516
 20
-187.4738570630287
 30
0.0
 11
-189.5874899881835
 21
-188.2295080325121
 31
0.0
  0
LINE
  5
1AB
330
1F
100
AcDbEntity
  8
通り芯
  6
Continuous
 62
     4
370
     9
100
AcDbLine
 10
-175.4412899330036
 20
-187.6013719183101
 30
0.0
 11
-176.2517263905654
 21
-184.969002449456
 31
0.0
  0
LINE
  5
1AC
330
1F
100
AcDbEntity
  8
通り芯
  6
Continuous
 62
     4
370
     9
100
AcDbLine
 10
-176.301536039846
 20
-173.1932751629847
 30
0.0
 11
-211.5203036629218
 21
-175.0909012284953
 31
0.0
  0
LINE
  5
1AD
330
1F
100
AcDbEntity
  8
通り芯
  6
JWW_CENTER1
 62
     4
370
     9
100
AcDbLine
 10
30.48380132970647
 20
-366.0446489273464
 30
0.0
 11
30.48380132970647
 21
-336.8254315464573
 31
0.0
  0
ARC
  5
1AE
330
1F
100
AcDbEntity
  8
通り芯
  6
Continuous
 62
     4
370
     9
100
AcDbCircle
 10
-167.516748281271
 20
-183.0463676486737
 30
0.0
 40
2.0
100
AcDbArc
 50
359.9999999999998
 51
29.99432209103832
  0
ARC
  5
1AF
330
1F
100
AcDbEntity
  8
通り芯
  6
Continuous
 62
     4
370
     9
100
AcDbCircle
 10
-167.5170518074535
 20
-78.02839309149078
 30
0.0
 40
2.000000025774982
100
AcDbArc
 50
0.0
 51
90.0
  0
LINE
  5
1B0
330
1F
100
AcDbEntity
  8
通り芯
  6
Continuous
 62
     4
370
     9
100
AcDbLine
 10
-173.8600304206291
 20
-84.87765272220958
 30
0.0
 11
-176.5169825243031
 21
-82.02850526421042
 31
0.0
  0
ARC
  5
1B1
330
1F
100
AcDbEntity
  8
通り芯
  6
Continuous
 62
     4
370
     9
100
AcDbCircle
 10
-177.516748281271
 20
-88.28769883445847
 30
0.0
 40
5.0
100
AcDbArc
 50
0.0
 51
43.00085098804463
  0
ARC
  5
1B2
330
1F
100
AcDbEntity
  8
通り芯
  6
Continuous
 62
     4
370
     9
100
AcDbCircle
 10
-167.516748281271
 20
-176.6904901168841
 30
0.0
 40
2.0
100
AcDbArc
 50
335.0040028853093
 51
0.0000000000000382
  0
LINE
  5
1B3
330
1F
100
AcDbEntity
  8
通り芯
  6
Continuous
 62
     4
370
     9
100
AcDbLine
 10
-166.5166042948597
 20
-180.778377655959
 30
0.0
 11
-166.5166042948597
 21
-179.2783954480606
 31
0.0
  0
LINE
  5
1B4
330
1F
100
AcDbEntity
  8
通り芯
  6
Continuous
 62
     4
370
     9
100
AcDbLine
 10
-184.516942946819
 20
-142.028337005131
 30
0.0
 11
-184.516942946819
 21
-130.028337005131
 31
0.0
  0
LINE
  5
1B5
330
1F
100
AcDbEntity
  8
通り芯
  6
Continuous
 62
     4
370
     9
100
AcDbLine
 10
24.48380132970601
 20
-351.0283799204755
 30
0.0
 11
36.48380132970647
 21
-351.0283799204755
 31
0.0
  0
LINE
  5
1B6
330
1F
100
AcDbEntity
  8
通り芯
  6
Continuous
 62
     4
370
     9
100
AcDbLine
 10
3.483801329706466
 20
-343.5449997216043
 30
0.0
 11
4.483801329706466
 21
-344.5283172357205
 31
0.0
  0
LINE
  5
1B7
330
1F
100
AcDbEntity
  8
通り芯
  6
Continuous
 62
     4
370
     9
100
AcDbLine
 10
56.48380132970647
 20
-344.5283172357205
 30
0.0
 11
61.26449126193552
 21
-340.516842076814
 31
0.0
  0
ARC
  5
1B8
330
1F
100
AcDbEntity
  8
通り芯
  6
Continuous
 62
     4
370
     9
100
AcDbCircle
 10
-17.06917879994421
 20
-338.6139016918602
 30
0.0
 40
1.0
100
AcDbArc
 50
32.99999999999972
 51
92.9999999999991
  0
ARC
  5
1B9
330
1F
100
AcDbEntity
  8
通り芯
  6
Continuous
 62
     4
370
     9
100
AcDbCircle
 10
-15.39183766405336
 20
-337.5246236218301
 30
0.0
 40
1.0
100
AcDbArc
 50
212.9999999999983
 51
272.999999999999
  0
ARC
  5
1BA
330
1F
100
AcDbEntity
  8
通り芯
  6
Continuous
 62
     4
370
     9
100
AcDbCircle
 10
-15.06413424565721
 20
-336.5060770674105
 30
0.0
 40
2.0
100
AcDbArc
 50
272.999999999999
 51
295.0000000000003
  0
ARC
  5
1BB
330
1F
100
AcDbEntity
  8
通り芯
  6
Continuous
 62
     4
370
     9
100
AcDbCircle
 10
-11.65897587330551
 20
-339.3317373170024
 30
0.0
 40
2.0
100
AcDbArc
 50
92.99999999999999
 51
115.0000000000004
  0
LINE
  5
1BC
330
1F
100
AcDbEntity
  8
通り芯
  6
Continuous
 62
     4
370
     9
100
AcDbLine
 10
-14.95946233317113
 20
-338.5033361369198
 30
0.0
 11
-15.33950170781031
 21
-338.5232531565847
 31
0.0
  0
LINE
  5
1BD
330
1F
100
AcDbEntity
  8
通り芯
  6
Continuous
 62
     4
370
     9
100
AcDbLine
 10
-12.50421239678712
 20
-337.5191217429291
 30
0.0
 11
-14.21889772217605
 21
-338.3186926414838
 31
0.0
  0
LINE
  5
1BE
330
1F
100
AcDbEntity
  8
通り芯
  6
Continuous
 62
     4
370
     9
100
AcDbLine
 10
85.4835585441092
 20
-343.0283172357205
 30
0.0
 11
90.4835585441092
 21
-343.0283172357205
 31
0.0
  0
LINE
  5
1BF
330
1F
100
AcDbEntity
  8
通り芯
  6
Continuous
 62
     4
370
     9
100
AcDbLine
 10
85.4835585441092
 20
-343.0283172357205
 30
0.0
 11
80.71642804430621
 21
-347.0284146798791
 31
0.0
  0
LINE
  5
1C0
330
1F
100
AcDbEntity
  8
通り芯
  6
Continuous
 62
     6
370
     9
100
AcDbLine
 10
-215.4544519101971
 20
-178.3648128099389
 30
0.0
 11
-211.4552813208045
 21
-178.2833597747687
 31
0.0
  0
LINE
  5
1C1
330
1F
100
AcDbEntity
  8
通り芯
  6
Continuous
 62
     6
370
     9
100
AcDbLine
 10
-211.5203063461313
 20
-175.0907694886258
 30
0.0
 11
-211.4552813208045
 21
-178.2833597747687
 31
0.0
  0
LINE
  5
1C2
330
1F
100
AcDbEntity
  8
通り芯
  6
Continuous
 62
     6
370
     9
100
AcDbLine
 10
-211.8094285863347
 20
-357.3276966852512
 30
0.0
 11
-207.8102579969423
 21
-357.2462436500811
 31
0.0
  0
ARC
  5
1C3
330
1F
100
AcDbEntity
  8
通り芯
  6
Continuous
 62
     4
370
     9
100
AcDbCircle
 10
-155.5167482812712
 20
-331.9953543512435
 30
0.0
 40
10.0
100
AcDbArc
 50
180.0
 51
270.0
  0
ARC
  5
1C4
330
1F
100
AcDbEntity
  8
通り芯
  6
Continuous
 62
     4
370
     9
100
AcDbCircle
 10
88.4835585441092
 20
-334.0834894764101
 30
0.0
 40
2.0
100
AcDbArc
 50
0.0
 51
93.00000000000071
  0
LINE
  5
1C5
330
1F
100
AcDbEntity
  8
通り芯
  6
JWW_HOJO
 62
     4
370
     9
100
AcDbLine
 10
88.706916874326
 20
-332.0690390703431
 30
0.0
 11
89.4835585441092
 21
-332.0283370051312
 31
0.0
  0
LINE
  5
1C6
330
1F
100
AcDbEntity
  8
通り芯
  6
Continuous
 62
     4
370
     9
100
AcDbLine
 10
90.4835585441092
 20
-334.0834894764101
 30
0.0
 11
90.4835585441092
 21
-343.0283172357205
 31
0.0
  0
ARC
  5
1C7
330
1F
100
AcDbEntity
  8
通り芯
  6
Continuous
 62
     4
370
     9
100
AcDbCircle
 10
80.70652719254508
 20
-344.5047898789393
 30
0.0
 40
5.0
100
AcDbArc
 50
17.17519943354278
 51
92.99999999999974
  0
LINE
  5
1C8
330
1F
100
AcDbEntity
  8
通り芯
  6
Continuous
 62
     4
370
     9
100
AcDbLine
 10
-165.5167482812712
 20
-298.0872115081769
 30
0.0
 11
-121.6086054382047
 21
-341.9953543512435
 31
0.0
  0
LINE
  5
1C9
330
1F
100
AcDbEntity
  8
通り芯
  6
Continuous
 62
     4
370
     9
100
AcDbLine
 10
23.56981661324949
 20
-348.0579009455372
 30
0.0
 11
24.48380132970601
 21
-351.0283799204755
 31
0.0
  0
ARC
  5
1CA
330
1F
100
AcDbEntity
  8
通り芯
  6
Continuous
 62
     4
370
     9
100
AcDbCircle
 10
18.79091758381151
 20
-349.5283172357205
 30
0.0
 40
5.0
100
AcDbArc
 50
17.10257365920128
 51
90.00000000000001
  0
LINE
  5
1CB
330
1F
100
AcDbEntity
  8
通り芯
  6
Continuous
 62
     4
370
     9
100
AcDbLine
 10
42.83618750924938
 20
-345.6980950201254
 30
0.0
 11
36.48380132970647
 21
-351.0283799204755
 31
0.0
  0
ARC
  5
1CC
330
1F
100
AcDbEntity
  8
通り芯
  6
Continuous
 62
     4
370
     9
100
AcDbCircle
 10
46.05012555768212
 20
-349.5283172357205
 30
0.0
 40
5.0
100
AcDbArc
 50
90.0
 51
130.0
  0
LINE
  5
1CD
330
1F
100
AcDbEntity
  8
通り芯
  6
Continuous
 62
     4
370
     9
100
AcDbLine
 10
56.48380132970647
 20
-344.5283172357205
 30
0.0
 11
4.483801329706466
 21
-344.5283172357205
 31
0.0
  0
LINE
  5
1CE
330
1F
100
AcDbEntity
  8
通り芯
  6
Continuous
 62
     4
370
     9
100
AcDbLine
 10
-172.516748281271
 20
-169.199068897512
 30
0.0
 11
-172.516748281271
 21
-88.28769883445847
 31
0.0
  0
ARC
  5
1CF
330
1F
100
AcDbEntity
  8
通り芯
  6
Continuous
 62
     4
370
     9
100
AcDbCircle
 10
-176.516748281271
 20
-169.199068897512
 30
0.0
 40
4.0
100
AcDbArc
 50
273.0841775026121
 51
0.0000000000000254
  0
ARC
  5
1D0
330
1F
100
AcDbEntity
  8
通り芯
  6
Continuous
 62
     4
370
     9
100
AcDbCircle
 10
-175.516748281271
 20
-123.0283245267188
 30
0.0
 40
3.0
100
AcDbArc
 50
292.6195349669712
 51
0.0
  0
ARC
  5
1D1
330
1F
100
AcDbEntity
  8
通り芯
  6
Continuous
 62
     4
370
     9
100
AcDbCircle
 10
-175.516748281271
 20
-149.0283494835433
 30
0.0
 40
3.0
100
AcDbArc
 50
0.0
 51
67.38046503302868
  0
LINE
  5
1D2
330
1F
100
AcDbEntity
  8
通り芯
  6
Continuous
 62
     4
370
     9
100
AcDbLine
 10
-184.516942946819
 20
-130.028337005131
 30
0.0
 11
-174.3629180761534
 21
-125.7975619411993
 31
0.0
  0
LINE
  5
1D3
330
1F
100
AcDbEntity
  8
通り芯
  6
Continuous
 62
     4
370
     9
100
AcDbLine
 10
-184.516942946819
 20
-142.028337005131
 30
0.0
 11
-174.3629180761534
 21
-146.259112069063
 31
0.0
  0
ARC
  5
1D4
330
1F
100
AcDbEntity
  8
通り芯
  6
Continuous
 62
     4
370
     9
100
AcDbCircle
 10
-184.9833108745258
 20
-186.2459552551118
 30
0.0
 40
4.0
100
AcDbArc
 50
91.16680943406949
 51
166.2353922559323
  0
LINE
  5
1D5
330
1F
100
AcDbEntity
  8
通り芯
  6
Continuous
 62
     4
370
     9
100
AcDbLine
 10
-180.1561008484446
 20
-182.1468075589596
 30
0.0
 11
-185.064763909696
 21
-182.2467846657194
 31
0.0
  0
ARC
  5
1D6
330
1F
100
AcDbEntity
  8
通り芯
  6
Continuous
 62
     4
370
     9
100
AcDbCircle
 10
-180.0746478132746
 20
-186.145978148352
 30
0.0
 40
4.0
100
AcDbArc
 50
17.11220533499255
 51
91.16680943406955
  0
ARC
  5
1D7
330
1F
100
AcDbEntity
  8
通り芯
  6
Continuous
 62
     4
370
     9
100
AcDbCircle
 10
-181.6844629501365
 20
-348.2123641255063
 30
0.0
 40
4.0
100
AcDbArc
 50
196.098226612207
 51
271.1668094340695
  0
LINE
  5
1D8
330
1F
100
AcDbEntity
  8
通り芯
  6
Continuous
 62
     4
370
     9
100
AcDbLine
 10
-176.6943468537152
 20
-352.1115576081389
 30
0.0
 11
-181.6030099149664
 21
-352.2115347148987
 31
0.0
  0
ARC
  5
1D9
330
1F
100
AcDbEntity
  8
通り芯
  6
Continuous
 62
     4
370
     9
100
AcDbCircle
 10
-176.7757998888853
 20
-348.1123870187465
 30
0.0
 40
4.0
100
AcDbArc
 50
271.1668094340696
 51
345.2214135331468
  0
LINE
  5
1DA
330
1F
100
AcDbEntity
  8
通り芯
  6
Continuous
 62
     4
370
     9
100
AcDbLine
 10
-172.2069291708081
 20
-346.4747841537386
 30
0.0
 11
-172.9081247267909
 21
-349.1327246297943
 31
0.0
  0
ARC
  5
1DB
330
1F
100
AcDbEntity
  8
通り芯
  6
Continuous
 62
     4
370
     9
100
AcDbCircle
 10
-170.273091589761
 20
-346.9849529592626
 30
0.0
 40
2.0
100
AcDbArc
 50
91.16680943406944
 51
165.2214135331467
  0
LINE
  5
1DC
330
1F
100
AcDbEntity
  8
通り芯
  6
Continuous
 62
     4
370
     9
100
AcDbLine
 10
-173.4891027040642
 20
-189.0124693635584
 30
0.0
 11
-165.5167482812712
 21
-188.8500925780042
 31
0.0
  0
ARC
  5
1DD
330
1F
100
AcDbEntity
  8
通り芯
  6
Continuous
 62
     4
370
     9
100
AcDbCircle
 10
-173.5298292216492
 20
-187.0128840688621
 30
0.0
 40
2.0
100
AcDbArc
 50
197.1122053349924
 51
271.1668094340694
  0
LINE
  5
1DE
330
1F
100
AcDbEntity
  8
通り芯
  6
Continuous
 62
     4
370
     9
100
AcDbLine
 10
-175.0113811239364
 20
-188.3563884271838
 30
0.0
 11
-171.8066645491481
 21
-345.7011484654876
 31
0.0
  0
LINE
  5
1DF
330
1F
100
AcDbEntity
  8
通り芯
  6
Continuous
 62
     4
370
     9
100
AcDbLine
 10
23.25305466322311
 20
-347.0284146798791
 30
0.0
 11
-18.61863198100173
 21
-347.0284146798791
 31
0.0
  0
ARC
  5
1E0
330
1F
100
AcDbEntity
  8
通り芯
  6
Continuous
 62
     4
370
     9
100
AcDbCircle
 10
-17.20901303591972
 20
-340.6239747856313
 30
0.0
 40
3.0
100
AcDbArc
 50
92.99999999999935
 51
130.0000000000004
  0
LINE
  5
1E1
330
1F
100
AcDbEntity
  8
通り芯
  6
Continuous
 62
     4
370
     9
100
AcDbLine
 10
-22.70048228046085
 20
-341.3156427353503
 30
0.0
 11
-19.13737586497928
 21
-338.3258414562744
 31
0.0
  0
LINE
  5
1E2
330
1F
100
AcDbEntity
  8
通り芯
  6
Continuous
 62
     4
370
     9
100
AcDbLine
 10
-24.56775533314294
 20
-342.0168873480378
 30
0.0
 11
-170.3138181073459
 21
-344.9853676645663
 31
0.0
  0
ARC
  5
1E3
330
1F
100
AcDbEntity
  8
通り芯
  6
Continuous
 62
     4
370
     9
100
AcDbCircle
 10
-24.62884510952063
 20
-339.0175094059933
 30
0.0
 40
3.0
100
AcDbArc
 50
271.1668094340694
 51
310.0000000000006
  0
ARC
  5
1E4
330
1F
100
AcDbEntity
  8
通り芯
  6
Continuous
 62
     4
370
     9
100
AcDbCircle
 10
-22.01944561544201
 20
-345.9658142782438
 30
0.0
 40
3.0
100
AcDbArc
 50
271.1668094340694
 51
309.9999999999998
  0
LINE
  5
1E5
330
1F
100
AcDbEntity
  8
通り芯
  6
Continuous
 62
     4
370
     9
100
AcDbLine
 10
-16.43206679356081
 20
-345.1936686375524
 30
0.0
 11
-20.09108278638223
 21
-348.2639476076007
 31
0.0
  0
LINE
  5
1E6
330
1F
100
AcDbEntity
  8
通り芯
  6
Continuous
 62
     4
370
     9
100
AcDbLine
 10
-14.66071183323015
 20
-344.4959133626456
 30
0.0
 11
80.44484741133033
 21
-339.5116422051666
 31
0.0
  0
ARC
  5
1E7
330
1F
100
AcDbEntity
  8
通り芯
  6
Continuous
 62
     4
370
     9
100
AcDbCircle
 10
-14.50370396450126
 20
-347.4918019669093
 30
0.0
 40
3.0
100
AcDbArc
 50
92.99999999999999
 51
129.9999999999999
  0
LINE
  5
1E8
330
1F
100
AcDbEntity
  8
通り芯
  6
Continuous
 62
     4
370
     9
100
AcDbLine
 10
90.4835585441092
 20
-332.0283370051312
 30
0.0
 11
90.4835585441092
 21
-334.0834894764101
 31
0.0
  0
LINE
  5
1E9
330
1F
100
AcDbEntity
  8
通り芯
  6
Continuous
 62
     4
370
     9
100
AcDbLine
 10
-167.5170518074535
 20
-76.0283370051311
 30
0.0
 11
-176.5169825243031
 21
-76.0283370051311
 31
0.0
  0
LINE
  5
1EA
330
1F
100
AcDbEntity
  8
通り芯
  6
Continuous
 62
     4
370
     9
100
AcDbLine
 10
-176.5169825243031
 20
-173.1932751629847
 30
0.0
 11
-176.5169825243031
 21
-145.3615997752274
 31
0.0
  0
LINE
  5
1EB
330
1F
100
AcDbEntity
  8
通り芯
  6
Continuous
 62
     4
370
     9
100
AcDbLine
 10
-165.5167482812712
 20
-331.9953543512435
 30
0.0
 11
-165.5167482812712
 21
-183.0463676486737
 31
0.0
  0
LINE
  5
1EC
330
1F
100
AcDbEntity
  8
通り芯
  6
Continuous
 62
     4
370
     9
100
AcDbLine
 10
-165.5167482812712
 20
-176.6904901168841
 30
0.0
 11
-165.5167482812712
 21
-78.02839309149073
 31
0.0
  0
LINE
  5
1ED
330
1F
100
AcDbEntity
  8
通り芯
  6
Continuous
 62
     4
370
     9
100
AcDbLine
 10
-17.36602090464839
 20
-337.6280861813674
 30
0.0
 11
-17.12151475618725
 21
-337.6152721571054
 31
0.0
  0
LINE
  5
1EE
330
1F
100
AcDbEntity
  8
通り芯
  6
Continuous
 62
     4
370
     9
100
AcDbLine
 10
-11.76364778579136
 20
-337.3344782474935
 30
0.0
 11
88.70691687432645
 21
-332.0690390703525
 31
0.0
  0
LINE
  5
1EF
330
1F
100
AcDbEntity
  8
通り芯
  6
Continuous
 62
     6
370
     9
100
AcDbLine
 10
-215.4544519101971
 20
-178.3648128099389
 30
0.0
 11
-215.2698793325014
 21
-187.4269333655021
 31
0.0
  0
LINE
  5
1F0
330
1F
100
AcDbEntity
  8
通り芯
  6
Continuous
 62
     6
370
     9
100
AcDbLine
 10
-207.8102579969423
 20
-357.2462436500811
 30
0.0
 11
-207.7448681856338
 21
-360.4567441511862
 31
0.0
  0
LINE
  5
1F1
330
1F
100
AcDbEntity
  8
通り芯
  6
Continuous
 62
     4
370
     9
100
AcDbLine
 10
-155.5167482812712
 20
-341.9953543512435
 30
0.0
 11
-24.26492275235046
 21
-341.9953543512435
 31
0.0
  0
LINE
  5
1F2
330
1F
100
AcDbEntity
  8
通り芯
  6
Continuous
 62
     4
370
     9
100
AcDbLine
 10
-174.1619392129971
 20
-361.0016430066294
 30
0.0
 11
-207.7448681856338
 21
-360.4567441511862
 31
0.0
  0
ARC
  5
1F3
330
1F
100
AcDbEntity
  8
通り芯
  6
Continuous
 62
     4
370
     9
100
AcDbCircle
 10
-173.9997058522929
 20
-351.0029590763976
 30
0.0
 40
10.0
100
AcDbArc
 50
269.070430533909
 51
287.7579653159324
  0
LINE
  5
1F4
330
1F
100
AcDbEntity
  8
通り芯
  6
Continuous
 62
     4
370
     9
100
AcDbLine
 10
-143.9053309958638
 20
-351.8653647767085
 30
0.0
 11
-170.9497388614177
 21
-360.5264931554342
 31
0.0
  0
LINE
  5
1F5
330
1F
100
AcDbEntity
  8
通り芯
  6
Continuous
 62
     4
370
     9
100
AcDbLine
 10
-141.0589965929137
 20
-351.390972382264
 30
0.0
 11
-21.95835583906432
 21
-348.965192220288
 31
0.0
  0
ARC
  5
1F6
330
1F
100
AcDbEntity
  8
通り芯
  6
Continuous
 62
     4
370
     9
100
AcDbCircle
 10
-140.8553640049884
 20
-361.3888988557451
 30
0.0
 40
10.0
100
AcDbArc
 50
91.16680943406949
 51
107.7579653159324
  0
LINE
  5
1F7
330
1F
100
AcDbEntity
  8
通り芯
  6
JWW_CENTER1
 62
     4
370
     9
100
AcDbLine
 10
-247.7138998637006
 20
-268.5456355787761
 30
0.0
 11
-162.4849937113054
 21
-266.8097373630926
 31
0.0
  0
LINE
  5
1F8
330
1F
100
AcDbEntity
  8
通り芯
  6
Continuous
 62
     6
370
     9
100
AcDbLine
 10
-215.2698793325026
 20
-187.4269333655022
 30
0.0
 11
-211.8094285863303
 21
-357.3276966852512
 31
0.0
  0
LINE
  5
1F9
330
1F
100
AcDbEntity
  8
通り芯
  6
Continuous
 62
     6
370
     9
100
AcDbLine
 10
-215.2999965922556
 20
-185.9482400400743
 30
0.0
 11
-189.2282371707965
 21
-186.7629825219948
 31
0.0
  0
LINE
  5
1FA
330
1F
100
AcDbEntity
  8
通り芯
  6
Continuous
 62
     6
370
     9
100
AcDbLine
 10
-211.9636714727644
 20
-349.7546993898035
 30
0.0
 11
-185.9467087469336
 21
-347.8790407948562
 31
0.0
  0
LINE
  5
1FB
330
1F
100
AcDbEntity
  8
通り芯
  6
Continuous
 62
     6
370
     9
100
AcDbLine
 10
-215.2999965922556
 20
-185.9482400400743
 30
0.0
 11
-213.7683210116516
 21
-187.4738570630287
 31
0.0
  0
LINE
  5
1FC
330
1F
100
AcDbEntity
  8
通り芯
  6
Continuous
 62
     6
370
     9
100
AcDbLine
 10
-210.4958832583707
 20
-348.1680165458984
 30
0.0
 11
-186.3626370776942
 21
-346.4281620094647
 31
0.0
  0
LINE
  5
1FD
330
1F
100
AcDbEntity
  8
通り芯
  6
Continuous
 62
     6
370
     9
100
AcDbLine
 10
-210.4958832583707
 20
-348.1680165458984
 30
0.0
 11
-211.9636714727644
 21
-349.7546993898035
 31
0.0
  0
LINE
  5
1FE
330
1F
100
AcDbEntity
  8
通り芯
  6
Continuous
 62
     6
370
     9
100
AcDbLine
 10
-210.4958832583707
 20
-348.1680165458984
 30
0.0
 11
-213.7683367958746
 21
-187.4730819734294
 31
0.0
  0
LINE
  5
1FF
330
1F
100
AcDbEntity
  8
0-F
  6
JWW_CENTER1
 62
     7
370
     9
100
AcDbLine
 10
-247.1735928538455
 20
-266.8714865698561
 30
0.0
 11
-165.5167482812712
 21
-266.8714865698561
 31
0.0
  0
ARC
  5
200
330
1F
100
AcDbEntity
  8
その他
  6
Continuous
 62
     7
370
     9
100
AcDbCircle
 10
-190.183384460144
 20
-266.8714865698561
 30
0.0
 40
45.0840832818559
100
AcDbArc
 50
156.6340206435594
 51
202.7846029352762
  0
LINE
  5
201
330
1F
100
AcDbEntity
  8
その他
  6
Continuous
 62
     7
370
     9
100
AcDbLine
 10
-235.2498361490364
 20
-268.1348926072207
 30
0.0
 11
-235.528884170272
 21
-280.1316288170459
 31
0.0
  0
LINE
  5
202
330
1F
100
AcDbEntity
  8
その他
  6
Continuous
 62
     7
370
     9
100
AcDbLine
 10
-235.2498361490364
 20
-268.1348926072207
 30
0.0
 11
-232.4145655582727
 21
-279.7951064164365
 31
0.0
  0
LINE
  5
203
330
1F
100
AcDbEntity
  8
その他
  6
Continuous
 62
     7
370
     9
100
AcDbLine
 10
-235.2671633780992
 20
-266.878460552723
 30
0.0
 11
-232.6697178054342
 21
-255.1629276533599
 31
0.0
  0
LINE
  5
204
330
1F
100
AcDbEntity
  8
その他
  6
Continuous
 62
     7
370
     9
100
AcDbLine
 10
-235.2671633780992
 20
-266.878460552723
 30
0.0
 11
-235.7903784179161
 21
-254.8898748044556
 31
0.0
  0
LINE
  5
205
330
1F
100
AcDbEntity
  8
その他
  6
Continuous
 62
     7
370
     9
100
AcDbLine
 10
-265.5385942507357
 20
-188.4516526506247
 30
0.0
 11
-219.2690485087103
 21
-187.5084557554418
 31
0.0
  0
LINE
  5
206
330
1F
100
AcDbEntity
  8
その他
  6
Continuous
 62
     7
370
     9
100
AcDbLine
 10
-257.5402558983183
 20
-188.2886078707455
 30
0.0
 11
-254.2613758078323
 21
-349.137623706325
 31
0.0
  0
LINE
  5
207
330
1F
100
AcDbEntity
  8
その他
  6
Continuous
 62
     7
370
     9
100
AcDbLine
 10
-262.2597141602498
 20
-349.3006684862042
 30
0.0
 11
-215.9929579087275
 21
-348.3575284543152
 31
0.0
  0
LWPOLYLINE
  5
208
330
1F
100
AcDbEntity
  8
その他
  6
Continuous
 62
     7
370
     9
100
AcDbPolyline
 90
        4
 70
     1
 43
0.8
 10
-257.1402558983183
 20
-188.2886078707454
 42
0.4142135623731
 10
-257.5402558983183
 20
-187.8886078707454
 42
0.4142135623731
 10
-257.9402558983182
 20
-188.2886078707454
 42
0.4142135623731
 10
-257.5402558983183
 20
-188.6886078707454
 42
0.4142135623731
  0
LWPOLYLINE
  5
209
330
1F
100
AcDbEntity
  8
その他
  6
Continuous
 62
     7
370
     9
100
AcDbPolyline
 90
        4
 70
     1
 43
0.8
 10
-253.8613758078323
 20
-349.137623706325
 42
0.4142135623731
 10
-254.2613758078323
 20
-348.7376237063251
 42
0.4142135623731
 10
-254.6613758078323
 20
-349.137623706325
 42
0.4142135623731
 10
-254.2613758078323
 20
-349.537623706325
 42
0.4142135623731
  0
LINE
  5
20A
330
1F
100
AcDbEntity
  8
0-A
  6
Continuous
 62
     2
370
     9
100
AcDbLine
 10
-188.717031860195
 20
-130.0282099860223
 30
0.0
 11
-186.1170098498335
 21
-130.0282099860223
 31
0.0
  0
LINE
  5
20B
330
1F
100
AcDbEntity
  8
0-A
  6
Continuous
 62
     2
370
     9
100
AcDbLine
 10
-188.717031860195
 20
-142.0284640242398
 30
0.0
 11
-186.1170098498335
 21
-142.0284640242398
 31
0.0
  0
LINE
  5
20C
330
1F
100
AcDbEntity
  8
0-A
  6
Continuous
 62
     2
370
     9
100
AcDbLine
 10
-188.717031860195
 20
-136.5076039634786
 30
0.0
 11
-188.717031860195
 21
-135.5494168749355
 31
0.0
  0
LINE
  5
20D
330
1F
100
AcDbEntity
  8
0-A
  6
Continuous
 62
     2
370
     9
100
AcDbLine
 10
-190.7056453865282
 20
-135.5494168749355
 30
0.0
 11
-188.717031860195
 21
-135.5494168749355
 31
0.0
  0
LINE
  5
20E
330
1F
100
AcDbEntity
  8
0-A
  6
Continuous
 62
     2
370
     9
100
AcDbLine
 10
-190.7056453865282
 20
-136.5076039634786
 30
0.0
 11
-188.717031860195
 21
-136.5076039634786
 31
0.0
  0
LINE
  5
20F
330
1F
100
AcDbEntity
  8
0-8
  6
Continuous
 62
     2
370
     9
100
AcDbLine
 10
-186.1170098498335
 20
-121.5286906673345
 30
0.0
 11
-186.1170098498335
 21
-151.0285554591464
 31
0.0
  0
LINE
  5
210
330
1F
100
AcDbEntity
  8
0-8
  6
Continuous
 62
     2
370
     9
100
AcDbLine
 10
-184.516942946819
 20
-121.5286906673345
 30
0.0
 11
-184.516942946819
 21
-151.0285554591464
 31
0.0
  0
LINE
  5
211
330
1F
100
AcDbEntity
  8
0-8
  6
Continuous
 62
     2
370
     9
100
AcDbLine
 10
-186.1170098498335
 20
-151.0285554591464
 30
0.0
 11
-184.516942946819
 21
-151.0285554591464
 31
0.0
  0
ARC
  5
212
330
1F
100
AcDbEntity
  8
0-A
  6
Continuous
 62
     2
370
     9
100
AcDbCircle
 10
-180.7170937201511
 20
-136.0285351926458
 30
0.0
 40
10.00000009205351
100
AcDbArc
 50
143.130126953125
 51
177.254379272461
  0
ARC
  5
213
330
1F
100
AcDbEntity
  8
0-A
  6
Continuous
 62
     2
370
     9
100
AcDbCircle
 10
-180.7170937201511
 20
-136.0285351926458
 30
0.0
 40
10.00000009205351
100
AcDbArc
 50
182.745620727539
 51
216.869873046875
  0
ARC
  5
214
330
1F
100
AcDbEntity
  8
0-8
  6
Continuous
 62
     2
370
     9
100
AcDbCircle
 10
-186.6168387628707
 20
-121.5286906673345
 30
0.0
 40
0.5000000046026752
100
AcDbArc
 50
0.0
 51
90.0
  0
ARC
  5
215
330
1F
100
AcDbEntity
  8
0-8
  6
Continuous
 62
     2
370
     9
100
AcDbCircle
 10
-186.6168387628707
 20
-121.5286906673345
 30
0.0
 40
2.099999941914238
100
AcDbArc
 50
0.0
 51
90.0
  0
LINE
  5
216
330
1F
100
AcDbEntity
  8
0-A
  6
Continuous
 62
     2
370
     9
100
AcDbLine
 10
36.4838292550578
 20
-355.2286174744887
 30
0.0
 11
36.4838292550578
 21
-352.6286450110057
 31
0.0
  0
LINE
  5
217
330
1F
100
AcDbEntity
  8
0-A
  6
Continuous
 62
     2
370
     9
100
AcDbLine
 10
24.48377340435513
 20
-355.2286174744887
 30
0.0
 11
24.48377340435513
 21
-352.6286450110057
 31
0.0
  0
LINE
  5
218
330
1F
100
AcDbEntity
  8
0-A
  6
Continuous
 62
     2
370
     9
100
AcDbLine
 10
30.00468301199567
 20
-355.2286174744887
 30
0.0
 11
30.96272145990201
 21
-355.2286174744887
 31
0.0
  0
LINE
  5
219
330
1F
100
AcDbEntity
  8
0-A
  6
Continuous
 62
     2
370
     9
100
AcDbLine
 10
30.96272145990201
 20
-357.2171814539425
 30
0.0
 11
30.96272145990201
 21
-355.2286174744887
 31
0.0
  0
LINE
  5
21A
330
1F
100
AcDbEntity
  8
0-A
  6
Continuous
 62
     2
370
     9
100
AcDbLine
 10
30.00468301199567
 20
-357.2171814539425
 30
0.0
 11
30.00468301199567
 21
-355.2286174744887
 31
0.0
  0
ARC
  5
21B
330
1F
100
AcDbEntity
  8
0-A
  6
Continuous
 62
     2
370
     9
100
AcDbCircle
 10
30.48370223594907
 20
-347.2285306938076
 30
0.0
 40
10.00000009205351
100
AcDbArc
 50
272.7456207275391
 51
306.869873046875
  0
ARC
  5
21C
330
1F
100
AcDbEntity
  8
0-A
  6
Continuous
 62
     2
370
     9
100
AcDbCircle
 10
30.48370223594907
 20
-347.2285306938076
 30
0.0
 40
10.00000009205351
100
AcDbArc
 50
233.130126953125
 51
267.2543792724609
  0
LINE
  5
21D
330
1F
100
AcDbEntity
  8
0-8
  6
Continuous
 62
     2
370
     9
100
AcDbLine
 10
44.98349721438149
 20
-352.6285459172478
 30
0.0
 11
15.48348378193418
 21
-352.6285459172478
 31
0.0
  0
LINE
  5
21E
330
1F
100
AcDbEntity
  8
0-8
  6
Continuous
 62
     2
370
     9
100
AcDbLine
 10
44.98349721438149
 20
-351.0283799204755
 30
0.0
 11
15.48348378193418
 21
-351.0283799204755
 31
0.0
  0
LINE
  5
21F
330
1F
100
AcDbEntity
  8
0-8
  6
Continuous
 62
     2
370
     9
100
AcDbLine
 10
15.48348378193418
 20
-352.6285459172478
 30
0.0
 11
15.48348378193418
 21
-351.0283799204755
 31
0.0
  0
ARC
  5
220
330
1F
100
AcDbEntity
  8
0-8
  6
Continuous
 62
     2
370
     9
100
AcDbCircle
 10
44.98349721438149
 20
-353.128374830285
 30
0.0
 40
0.5000000046026752
100
AcDbArc
 50
0.0
 51
90.0
  0
ARC
  5
221
330
1F
100
AcDbEntity
  8
0-8
  6
Continuous
 62
     2
370
     9
100
AcDbCircle
 10
44.98349721438149
 20
-353.128374830285
 30
0.0
 40
2.099999941914238
100
AcDbArc
 50
0.0
 51
90.0
  0
LINE
  5
222
330
1F
100
AcDbEntity
  8
通り芯
  6
Continuous
 62
     4
370
     9
100
AcDbLine
 10
-186.3626370776942
 20
-346.428162009465
 30
0.0
 11
-185.5276138980951
 21
-349.3215037881299
 31
0.0
  0
LINE
  5
223
330
1F
100
AcDbEntity
  8
通り芯
  6
Continuous
 62
     4
370
     9
100
AcDbLine
 10
-189.5874899881835
 20
-188.2295080325121
 30
0.0
 11
-186.3626370776942
 21
-346.4281620094647
 31
0.0
  0
LINE
  5
224
330
1F
100
AcDbEntity
  8
通り芯
  6
Continuous
 62
     4
370
     9
100
AcDbLine
 10
-189.5874899881835
 20
-188.2295080325121
 30
0.0
 11
-188.8684366323607
 21
-185.294221129524
 31
0.0
  0
LINE
  5
225
330
1F
100
AcDbEntity
  8
通り芯
  6
Continuous
 62
     4
370
     9
100
AcDbLine
 10
-188.1079262959349
 20
-183.7486009614057
 30
0.0
 11
-184.7047995970345
 21
-350.8348756201246
 31
0.0
  0
LINE
  5
226
330
1F
100
AcDbEntity
  8
通り芯
  6
Continuous
 62
     4
370
     9
100
AcDbLine
 10
-177.1115440087001
 20
-183.4589694317089
 30
0.0
 11
-173.7057436426107
 21
-350.6765154563857
 31
0.0
  0
LINE
  5
227
330
1F
100
AcDbEntity
  8
通り芯
  6
Continuous
 62
     4
370
     9
100
AcDbLine
 10
-117.4334871605861
 20
-332.0283370051312
 30
0.0
 11
90.4835585441092
 21
-332.0283370051312
 31
0.0
  0
LINE
  5
228
330
1F
100
AcDbEntity
  8
躯体
  6
JWW_HOJO
 62
     6
370
     9
100
AcDbLine
 10
-19.83863287291911
 20
-333.9819240627986
 30
0.0
 11
-19.83863287291911
 21
-330.0550356873169
 31
0.0
  0
ARC
  5
229
330
1F
100
AcDbEntity
  8
躯体
  6
Continuous
 62
     6
370
     9
100
AcDbCircle
 10
-131.3386712040872
 20
-142.0584412659622
 30
0.0
 40
0.5000000046026752
100
AcDbArc
 50
0.0
 51
125.0048370361328
  0
LINE
  5
22A
330
1F
100
AcDbEntity
  8
躯体
  6
JWW_DASHED2
 62
     6
370
     9
100
AcDbLine
 10
-130.8386441035348
 20
-146.0980973858796
 30
0.0
 11
-153.8385576174257
 21
-173.507304999002
 31
0.0
  0
ARC
  5
22B
330
1F
100
AcDbEntity
  8
躯体
  6
Continuous
 62
     6
370
     9
100
AcDbCircle
 10
-150.8385576174257
 20
-151.440482614024
 30
0.0
 40
3.0
100
AcDbArc
 50
180.0
 51
305.0018789201794
  0
LINE
  5
22C
330
1F
100
AcDbEntity
  8
躯体
  6
JWW_DASHED2
 62
     6
370
     9
100
AcDbLine
 10
-137.8386441035348
 20
-154.4400615057004
 30
0.0
 11
-137.8386441035348
 21
-170.9678832396742
 31
0.0
  0
LINE
  5
22D
330
1F
100
AcDbEntity
  8
躯体
  6
JWW_DASHED2
 62
     6
370
     9
100
AcDbLine
 10
-137.8386441035348
 20
-170.9678832396742
 30
0.0
 11
-153.8385576174257
 21
-190.0358825936333
 31
0.0
  0
LINE
  5
22E
330
1F
100
AcDbEntity
  8
仕上
  6
Continuous
 62
     3
370
     9
100
AcDbLine
 10
27.16149446276563
 20
-307.0979301699654
 30
0.0
 11
27.16149446276563
 21
-306.0978773828031
 31
0.0
  0
LINE
  5
22F
330
1F
100
AcDbEntity
  8
仕上
  6
Continuous
 62
     3
370
     9
100
AcDbLine
 10
-129.8385781195823
 20
-150.0979318195642
 30
0.0
 11
-128.8387232842781
 21
-150.0979318195642
 31
0.0
  0
LINE
  5
230
330
1F
100
AcDbEntity
  8
仕上
  6
Continuous
 62
     3
370
     9
100
AcDbLine
 10
-102.4851449745231
 20
-184.9368155030525
 30
0.0
 11
-97.18186623191355
 21
-181.7547393839646
 31
0.0
  0
LINE
  5
231
330
1F
100
AcDbEntity
  8
仕上
  6
Continuous
 62
     3
370
     9
100
AcDbLine
 10
-124.9925186812377
 20
-175.2458348495475
 30
0.0
 11
-102.8387364810685
 21
-176.0979681107381
 31
0.0
  0
LINE
  5
232
330
1F
100
AcDbEntity
  8
仕上
  6
Continuous
 62
     3
370
     9
100
AcDbLine
 10
-107.3766343643035
 20
-181.92784828388
 30
0.0
 11
-125.2229841320402
 21
-181.2414502158902
 31
0.0
  0
LINE
  5
233
330
1F
100
AcDbEntity
  8
仕上
  6
Continuous
 62
     3
370
     9
100
AcDbLine
 10
-55.08126709762269
 20
-223.8552890302904
 30
0.0
 11
-58.2633927046752
 21
-229.158617260865
 31
0.0
  0
LINE
  5
234
330
1F
100
AcDbEntity
  8
仕上
  6
Continuous
 62
     3
370
     9
100
AcDbLine
 10
-46.59606069981851
 20
-232.3404954280946
 30
0.0
 11
-51.89933944242853
 21
-235.5226210351469
 31
0.0
  0
LINE
  5
235
330
1F
100
AcDbEntity
  8
仕上
  6
Continuous
 62
     3
370
     9
100
AcDbLine
 10
18.67604062513897
 20
-297.6126709849992
 30
0.0
 11
15.49401399401563
 21
-302.9159744715913
 31
0.0
  0
LINE
  5
236
330
1F
100
AcDbEntity
  8
仕上
  6
Continuous
 62
     3
370
     9
100
AcDbLine
 10
-104.033375944751
 20
-183.3886835087534
 30
0.0
 11
23.0912083563469
 21
-310.5131935779048
 31
0.0
  0
LINE
  5
237
330
1F
100
AcDbEntity
  8
仕上
  6
Continuous
 62
     3
370
     9
100
AcDbLine
 10
-128.8387232842781
 20
-217.1266579333734
 30
0.0
 11
-128.8387232842781
 21
-205.0094803309663
 31
0.0
  0
LINE
  5
238
330
1F
100
AcDbEntity
  8
仕上
  6
Continuous
 62
     3
370
     9
100
AcDbLine
 10
-128.8387232842781
 20
-285.0979318195644
 30
0.0
 11
-128.8387232842781
 21
-279.8552758335001
 31
0.0
  0
LINE
  5
239
330
1F
100
AcDbEntity
  8
仕上
  6
Continuous
 62
     3
370
     9
100
AcDbLine
 10
-128.8387232842781
 20
-253.2654419810929
 30
0.0
 11
-128.8387232842781
 21
-242.4323285942687
 31
0.0
  0
LINE
  5
23A
330
1F
100
AcDbEntity
  8
仕上
  6
Continuous
 62
     3
370
     9
100
AcDbLine
 10
-102.595750575241
 20
-306.0978773828031
 30
0.0
 11
-107.8386045131635
 21
-306.0978773828031
 31
0.0
  0
LINE
  5
23B
330
1F
100
AcDbEntity
  8
仕上
  6
Continuous
 62
     3
370
     9
100
AcDbLine
 10
-65.17300128786769
 20
-306.0978773828032
 30
0.0
 11
-76.0061146746923
 21
-306.0978773828032
 31
0.0
  0
LINE
  5
23C
330
1F
100
AcDbEntity
  8
仕上
  6
Continuous
 62
     3
370
     9
100
AcDbLine
 10
-27.75000456067187
 20
-306.0978773828031
 30
0.0
 11
-39.86718216307895
 21
-306.0978773828031
 31
0.0
  0
LINE
  5
23D
330
1F
100
AcDbEntity
  8
仕上
  6
Continuous
 62
     3
370
     9
100
AcDbLine
 10
9.672744726701467
 20
-306.0978773828031
 30
0.0
 11
-3.72834862739478
 21
-306.0978773828031
 31
0.0
  0
LINE
  5
23E
330
1F
100
AcDbEntity
  8
仕上
  6
Continuous
 62
     3
370
     9
100
AcDbLine
 10
11.75668291293437
 20
-305.2558644103581
 30
0.0
 11
14.84844349676064
 21
-302.2702802544249
 31
0.0
  0
LINE
  5
23F
330
1F
100
AcDbEntity
  8
仕上
  6
Continuous
 62
     3
370
     9
100
AcDbLine
 10
-127.9966360798865
 20
-240.3483904080356
 30
0.0
 11
-88.24132107249602
 21
-199.1805404291505
 31
0.0
  0
LINE
  5
240
330
1F
100
AcDbEntity
  8
仕上
  6
Continuous
 62
     3
370
     9
100
AcDbLine
 10
-123.7546267365585
 20
-219.284630114539
 30
0.0
 11
-95.46062533769896
 21
-191.9612856519123
 31
0.0
  0
LINE
  5
241
330
1F
100
AcDbEntity
  8
仕上
  6
Continuous
 62
     3
370
     9
100
AcDbLine
 10
-123.7546267365585
 20
-255.4235131381875
 30
0.0
 11
-77.07569805201479
 21
-210.3460644737027
 31
0.0
  0
LINE
  5
242
330
1F
100
AcDbEntity
  8
仕上
  6
Continuous
 62
     3
370
     9
100
AcDbLine
 10
-127.9966360798865
 20
-277.7712386713378
 30
0.0
 11
-69.85654225070562
 21
-217.56541822687
 31
0.0
  0
LINE
  5
243
330
1F
100
AcDbEntity
  8
仕上
  6
Continuous
 62
     3
370
     9
100
AcDbLine
 10
-100.5118123890081
 20
-305.2559633862873
 30
0.0
 11
-40.30599194454021
 21
-247.1158695571065
 31
0.0
  0
LINE
  5
244
330
1F
100
AcDbEntity
  8
仕上
  6
Continuous
 62
     3
370
     9
100
AcDbLine
 10
-78.16413634382229
 20
-301.0139540429594
 30
0.0
 11
-33.08678665526645
 21
-254.3350748463801
 31
0.0
  0
LINE
  5
245
330
1F
100
AcDbEntity
  8
仕上
  6
Continuous
 62
     3
370
     9
100
AcDbLine
 10
-42.02525332017353
 20
-301.0138550670304
 30
0.0
 11
-14.70195834551146
 21
-272.7199031561352
 31
0.0
  0
LINE
  5
246
330
1F
100
AcDbEntity
  8
仕上
  6
Continuous
 62
     3
370
     9
100
AcDbLine
 10
-25.66606637443851
 20
-305.2559633862873
 30
0.0
 11
-3.536483788923533
 21
-283.8855014326343
 31
0.0
  0
LINE
  5
247
330
1F
100
AcDbEntity
  8
仕上
  6
Continuous
 62
     3
370
     9
100
AcDbLine
 10
-5.886370296524774
 20
-301.0138550670304
 30
0.0
 11
3.682770988314815
 21
-291.1046819779256
 31
0.0
  0
LINE
  5
248
330
1F
100
AcDbEntity
  8
仕上
  6
Continuous
 62
     3
370
     9
100
AcDbLine
 10
-127.9966360798865
 20
-202.9254926567688
 30
0.0
 11
-107.7072139673444
 21
-181.9150803890321
 31
0.0
  0
LINE
  5
249
330
1F
100
AcDbEntity
  8
仕上
  6
Continuous
 62
     3
370
     9
100
AcDbLine
 10
-123.7546267365585
 20
-183.1457965788548
 30
0.0
 11
-121.9143672876569
 21
-181.3687827486184
 31
0.0
  0
LINE
  5
24A
330
1F
100
AcDbEntity
  8
仕上
  6
Continuous
 62
     3
370
     9
100
AcDbLine
 10
-63.0890136136702
 20
-305.2559633862873
 30
0.0
 11
-21.92111414682063
 21
-265.5006483788969
 31
0.0
  0
LINE
  5
24B
330
1F
100
AcDbEntity
  8
仕上
  6
Continuous
 62
     3
370
     9
100
AcDbLine
 10
-134.8386441035348
 20
-285.0979318195644
 30
0.0
 11
-134.8386441035348
 21
-168.0979417171571
 31
0.0
  0
LINE
  5
24C
330
1F
100
AcDbEntity
  8
仕上
  6
Continuous
 62
     3
370
     9
100
AcDbLine
 10
-134.8386441035348
 20
-162.0978229460423
 30
0.0
 11
-134.8386441035348
 21
-156.05662916437
 31
0.0
  0
LINE
  5
24D
330
1F
100
AcDbEntity
  8
仕上
  6
Continuous
 62
     3
370
     9
100
AcDbLine
 10
-128.8385748203848
 20
-180.9876264458313
 30
0.0
 11
-128.8385748203848
 21
-180.4140114489984
 31
0.0
  0
LINE
  5
24E
330
1F
100
AcDbEntity
  8
仕上
  6
Continuous
 62
     3
370
     9
100
AcDbLine
 10
-128.8387232842781
 20
-171.2488404185929
 30
0.0
 11
-128.8387232842781
 21
-150.0979318195642
 31
0.0
  0
ARC
  5
24F
330
1F
100
AcDbEntity
  8
仕上
  6
Continuous
 62
     3
370
     9
100
AcDbCircle
 10
3.998999081642296
 20
-315.0979813075289
 30
0.0
 40
3.000000231974834
100
AcDbArc
 50
18.43502807617188
 51
90.0
  0
ARC
  5
250
330
1F
100
AcDbEntity
  8
仕上
  6
Continuous
 62
     3
370
     9
100
AcDbCircle
 10
-124.8387100874877
 20
-171.2488404185929
 30
0.0
 40
4.000000438174685
100
AcDbArc
 50
180.0
 51
267.7972259521484
  0
ARC
  5
251
330
1F
100
AcDbEntity
  8
仕上
  6
Continuous
 62
     3
370
     9
100
AcDbCircle
 10
-124.8387100874877
 20
-171.2488404185929
 30
0.0
 40
10.00000128874908
100
AcDbArc
 50
180.0
 51
267.7972259521484
  0
ARC
  5
252
330
1F
100
AcDbEntity
  8
仕上
  6
Continuous
 62
     3
370
     9
100
AcDbCircle
 10
-107.5688456185264
 20
-186.9240542065998
 30
0.0
 40
5.000000644374539
100
AcDbArc
 50
44.99980163574219
 51
87.79737854003906
  0
ARC
  5
253
330
1F
100
AcDbEntity
  8
仕上
  6
Continuous
 62
     3
370
     9
100
AcDbCircle
 10
-102.5958990391348
 20
-303.097916973175
 30
0.0
 40
3.000000231974834
100
AcDbArc
 50
270.0005035400391
 51
313.9999847412109
  0
ARC
  5
254
330
1F
100
AcDbEntity
  8
仕上
  6
Continuous
 62
     3
370
     9
100
AcDbCircle
 10
-76.0061146746923
 20
-303.097916973175
 30
0.0
 40
3.000000231974834
100
AcDbArc
 50
136.0000305175782
 51
270.0001678466797
  0
ARC
  5
255
330
1F
100
AcDbEntity
  8
仕上
  6
Continuous
 62
     3
370
     9
100
AcDbCircle
 10
-65.17300128786769
 20
-303.0979169731751
 30
0.0
 40
3.000000231974834
100
AcDbArc
 50
270.0003356933594
 51
313.9999847412109
  0
ARC
  5
256
330
1F
100
AcDbEntity
  8
仕上
  6
Continuous
 62
     3
370
     9
100
AcDbCircle
 10
-39.86718216307895
 20
-303.097916973175
 30
0.0
 40
3.000000231974834
100
AcDbArc
 50
136.0000152587891
 51
269.9998321533203
  0
ARC
  5
257
330
1F
100
AcDbEntity
  8
仕上
  6
Continuous
 62
     3
370
     9
100
AcDbCircle
 10
-27.75000456067187
 20
-303.097916973175
 30
0.0
 40
3.000000231974834
100
AcDbArc
 50
270.0005035400391
 51
313.9999847412109
  0
ARC
  5
258
330
1F
100
AcDbEntity
  8
仕上
  6
Continuous
 62
     3
370
     9
100
AcDbCircle
 10
-3.72834862739478
 20
-303.097916973175
 30
0.0
 40
3.000000231974834
100
AcDbArc
 50
136.0000152587891
 51
269.9998321533203
  0
ARC
  5
259
330
1F
100
AcDbEntity
  8
仕上
  6
Continuous
 62
     3
370
     9
100
AcDbCircle
 10
9.672744726701467
 20
-303.097916973175
 30
0.0
 40
3.000000231974834
100
AcDbArc
 50
270.0
 51
313.9997406005859
  0
ARC
  5
25A
330
1F
100
AcDbEntity
  8
仕上
  6
Continuous
 62
     3
370
     9
100
AcDbCircle
 10
-125.8385154348273
 20
-279.8552758335001
 30
0.0
 40
3.000000231974834
100
AcDbArc
 50
136.0000152587891
 51
179.9994964599609
  0
ARC
  5
25B
330
1F
100
AcDbEntity
  8
仕上
  6
Continuous
 62
     3
370
     9
100
AcDbCircle
 10
-125.8385154348273
 20
-253.265540957022
 30
0.0
 40
3.000000231974834
100
AcDbArc
 50
179.9998321533203
 51
313.9999694824219
  0
ARC
  5
25C
330
1F
100
AcDbEntity
  8
仕上
  6
Continuous
 62
     3
370
     9
100
AcDbCircle
 10
-125.8385154348273
 20
-242.4324275701977
 30
0.0
 40
3.000000231974834
100
AcDbArc
 50
136.0000152587891
 51
179.9996643066406
  0
ARC
  5
25D
330
1F
100
AcDbEntity
  8
仕上
  6
Continuous
 62
     3
370
     9
100
AcDbCircle
 10
-125.8385154348273
 20
-217.1266579333734
 30
0.0
 40
3.000000231974834
100
AcDbArc
 50
180.0001678466797
 51
313.9999847412109
  0
ARC
  5
25E
330
1F
100
AcDbEntity
  8
仕上
  6
Continuous
 62
     3
370
     9
100
AcDbCircle
 10
-125.8385154348273
 20
-205.0094803309663
 30
0.0
 40
3.000000231974834
100
AcDbArc
 50
136.0000152587891
 51
179.9994964599609
  0
ARC
  5
25F
330
1F
100
AcDbEntity
  8
仕上
  6
Continuous
 62
     3
370
     9
100
AcDbCircle
 10
-125.8385154348273
 20
-180.9876264458313
 30
0.0
 40
3.000000231974834
100
AcDbArc
 50
180.0001678466797
 51
313.9999847412109
  0
LINE
  5
260
330
1F
100
AcDbEntity
  8
仕上
  6
Continuous
 62
     3
370
     9
100
AcDbLine
 10
-128.8387232842781
 20
-161.0978823315998
 30
0.0
 11
-134.8386441035348
 21
-161.0978823315998
 31
0.0
  0
LINE
  5
261
330
1F
100
AcDbEntity
  8
仕上
  6
Continuous
 62
     3
370
     9
100
AcDbLine
 10
-128.8387232842781
 20
-169.0978823315998
 30
0.0
 11
-134.8386441035348
 21
-169.0978823315998
 31
0.0
  0
LINE
  5
262
330
1F
100
AcDbEntity
  8
仕上
  6
Continuous
 62
     3
370
     9
100
AcDbLine
 10
27.16149446276563
 20
-307.0979301699654
 30
0.0
 11
17.627090065527
 21
-315.0979961539183
 31
0.0
  0
LINE
  5
263
330
1F
100
AcDbEntity
  8
仕上
  6
Continuous
 62
     3
370
     9
100
AcDbLine
 10
17.627090065527
 20
-315.0979961539183
 30
0.0
 11
7.16123547213715
 21
-315.0979961539183
 31
0.0
  0
LINE
  5
264
330
1F
100
AcDbEntity
  8
仕上
  6
Continuous
 62
     3
370
     9
100
AcDbLine
 10
6.845249873449802
 20
-314.1493465155103
 30
0.0
 11
7.16123547213715
 21
-315.0979961539183
 31
0.0
  0
LINE
  5
265
330
1F
100
AcDbEntity
  8
躯体
  6
Continuous
 62
     6
370
     9
100
AcDbLine
 10
-130.8386441035348
 20
-146.0980973858796
 30
0.0
 11
-136.3386441035348
 21
-159.0552853979102
 31
0.0
  0
LINE
  5
266
330
1F
100
AcDbEntity
  8
躯体
  6
JWW_HOJO
 62
     6
370
     9
100
AcDbLine
 10
-136.3386441035348
 20
-159.0552853979102
 30
0.0
 11
-136.3386441035348
 21
-152.6524977657387
 31
0.0
  0
LINE
  5
267
330
1F
100
AcDbEntity
  8
躯体
  6
JWW_DASHED2
 62
     6
370
     9
100
AcDbLine
 10
-153.8385576174257
 20
-192.030387929916
 30
0.0
 11
-153.8385576174257
 21
-151.4404826140239
 31
0.0
  0
ARC
  5
268
330
1F
100
AcDbEntity
  8
躯体
  6
Continuous
 62
     6
370
     9
100
AcDbCircle
 10
-156.8386660196336
 20
-195.4985196928922
 30
0.0
 40
3.000000027616052
100
AcDbArc
 50
180.0
 51
220.0000305175781
  0
LINE
  5
269
330
1F
100
AcDbEntity
  8
躯体
  6
Continuous
 62
     6
370
     9
100
AcDbLine
 10
-159.1367493507676
 20
-197.4268842146406
 30
0.0
 11
-158.8386257827367
 21
-197.7821943846506
 31
0.0
  0
LINE
  5
26A
330
1F
100
AcDbEntity
  8
躯体
  6
Continuous
 62
     6
370
     9
100
AcDbLine
 10
-136.3386441035348
 20
-170.9678832396742
 30
0.0
 11
-158.8386257827367
 21
-197.7821943846506
 31
0.0
  0
LINE
  5
26B
330
1F
100
AcDbEntity
  8
躯体
  6
Continuous
 62
     6
370
     9
100
AcDbLine
 10
-151.8385932016288
 20
-110.3453696178653
 30
0.0
 11
-151.8385932016288
 21
-154.2688971576027
 31
0.0
  0
LINE
  5
26C
330
1F
100
AcDbEntity
  8
躯体
  6
Continuous
 62
     6
370
     9
100
AcDbLine
 10
-159.1367493507676
 20
-109.4530821913857
 30
0.0
 11
-158.8385762343266
 21
-109.0978310706011
 31
0.0
  0
LINE
  5
26D
330
1F
100
AcDbEntity
  8
躯体
  6
Continuous
 62
     6
370
     9
100
AcDbLine
 10
-153.3385754095273
 20
-109.0978310706011
 30
0.0
 11
-158.8385762343266
 21
-109.0978310706011
 31
0.0
  0
ARC
  5
26E
330
1F
100
AcDbEntity
  8
躯体
  6
Continuous
 62
     6
370
     9
100
AcDbCircle
 10
-156.8385669258762
 20
-111.381446713134
 30
0.0
 40
3.000000027616052
100
AcDbArc
 50
139.9999694824219
 51
180.0
  0
ARC
  5
26F
330
1F
100
AcDbEntity
  8
躯体
  6
Continuous
 62
     6
370
     9
100
AcDbCircle
 10
-153.3385754095273
 20
-110.5978132784996
 30
0.0
 40
1.500000013808026
100
AcDbArc
 50
0.0
 51
90.0
  0
LINE
  5
270
330
1F
100
AcDbEntity
  8
躯体
  6
JWW_DASHED2
 62
     6
370
     9
100
AcDbLine
 10
-159.1367493507676
 20
-183.7425799498165
 30
0.0
 11
-158.8385762343266
 21
-184.0978310706011
 31
0.0
  0
ARC
  5
271
330
1F
100
AcDbEntity
  8
躯体
  6
JWW_DASHED2
 62
     6
370
     9
100
AcDbCircle
 10
-156.8385669258762
 20
-181.8142154280683
 30
0.0
 40
3.000000027616052
100
AcDbArc
 50
180.0
 51
220.0000305175781
  0
LINE
  5
272
330
1F
100
AcDbEntity
  8
躯体
  6
JWW_DASHED2
 62
     6
370
     9
100
AcDbLine
 10
-158.8385762343266
 20
-184.0978310706011
 30
0.0
 11
-153.8385576174257
 21
-178.1390812419176
 31
0.0
  0
LINE
  5
273
330
1F
100
AcDbEntity
  8
躯体
  6
Continuous
 62
     6
370
     9
100
AcDbLine
 10
-151.8385932016288
 20
-129.0977259675907
 30
0.0
 11
-153.8385576174257
 21
-131.4812470127765
 31
0.0
  0
LINE
  5
274
330
1F
100
AcDbEntity
  8
躯体
  6
Continuous
 62
     6
370
     9
100
AcDbLine
 10
-153.8385576174257
 20
-151.440482614024
 30
0.0
 11
-153.8385576174257
 21
-131.4812470127765
 31
0.0
  0
LINE
  5
275
330
1F
100
AcDbEntity
  8
躯体
  6
Continuous
 62
     6
370
     9
100
AcDbLine
 10
-159.8386304354306
 20
-284.2986292750392
 30
0.0
 11
-159.8386304354306
 21
-111.1290030524996
 31
0.0
  0
LINE
  5
276
330
1F
100
AcDbEntity
  8
躯体
  6
Continuous
 62
     6
370
     9
100
AcDbLine
 10
-155.0424949526798
 20
-301.1414592712525
 30
0.0
 11
-155.0424949526798
 21
-302.555725378878
 31
0.0
  0
LINE
  5
277
330
1F
100
AcDbEntity
  8
躯体
  6
JWW_DASHED2
 62
     6
370
     9
100
AcDbLine
 10
-144.4359450673976
 20
-304.6769263528011
 30
0.0
 11
-147.2643286420123
 21
-308.9197246756776
 31
0.0
  0
LINE
  5
278
330
1F
100
AcDbEntity
  8
躯体
  6
JWW_DASHED2
 62
     6
370
     9
100
AcDbLine
 10
-147.2643286420123
 20
-308.9197246756776
 30
0.0
 11
-148.6783965621223
 21
-308.9197246756776
 31
0.0
  0
LINE
  5
279
330
1F
100
AcDbEntity
  8
躯体
  6
JWW_DASHED2
 62
     6
370
     9
100
AcDbLine
 10
-132.414831793217
 20
-316.6977918925876
 30
0.0
 11
-136.6575805692148
 21
-319.5264232015961
 31
0.0
  0
LINE
  5
27A
330
1F
100
AcDbEntity
  8
躯体
  6
JWW_DASHED2
 62
     6
370
     9
100
AcDbLine
 10
-136.6575805692148
 20
-319.5264232015961
 30
0.0
 11
-136.6578283036085
 21
-320.940392027949
 31
0.0
  0
LINE
  5
27B
330
1F
100
AcDbEntity
  8
躯体
  6
Continuous
 62
     6
370
     9
100
AcDbLine
 10
-128.8795628991836
 20
-327.3044904185061
 30
0.0
 11
-130.2938290068089
 21
-327.3044904185062
 31
0.0
  0
LINE
  5
27C
330
1F
100
AcDbEntity
  8
躯体
  6
Continuous
 62
     6
370
     9
100
AcDbLine
 10
-155.0424949526798
 20
-302.555725378878
 30
0.0
 11
-130.2938290068089
 21
-327.3044904185062
 31
0.0
  0
LINE
  5
27D
330
1F
100
AcDbEntity
  8
躯体
  6
Continuous
 62
     6
370
     9
100
AcDbLine
 10
-151.2788149475139
 20
-297.8341060195633
 30
0.0
 11
-125.5720114599792
 21
-323.5409095070981
 31
0.0
  0
LINE
  5
27E
330
1F
100
AcDbEntity
  8
躯体
  6
Continuous
 62
     6
370
     9
100
AcDbLine
 10
-142.6551603926434
 20
-290.1683908188417
 30
0.0
 11
-155.0424949526798
 21
-301.1414592712525
 31
0.0
  0
LINE
  5
27F
330
1F
100
AcDbEntity
  8
躯体
  6
Continuous
 62
     6
370
     9
100
AcDbLine
 10
-117.9062962592577
 20
-314.9172549522275
 30
0.0
 11
-128.8795628991836
 21
-327.3044904185062
 31
0.0
  0
LINE
  5
280
330
1F
100
AcDbEntity
  8
躯体
  6
Continuous
 62
     6
370
     9
100
AcDbLine
 10
-139.5986134412904
 20
-293.2250368639522
 30
0.0
 11
-147.0362148121528
 21
-302.0767061549246
 31
0.0
  0
LINE
  5
281
330
1F
100
AcDbEntity
  8
躯体
  6
Continuous
 62
     6
370
     9
100
AcDbLine
 10
-120.9629423043682
 20
-311.8607080008745
 30
0.0
 11
-129.8147106890981
 21
-319.2982102779791
 31
0.0
  0
LINE
  5
282
330
1F
100
AcDbEntity
  8
躯体
  6
Continuous
 62
     6
370
     9
100
AcDbLine
 10
-149.0188766873023
 20
-293.7041694607947
 30
0.0
 11
-155.0400671556197
 21
-301.1395764898592
 31
0.0
  0
LINE
  5
283
330
1F
100
AcDbEntity
  8
躯体
  6
Continuous
 62
     6
370
     9
100
AcDbLine
 10
-121.4419758074534
 20
-321.2809712468862
 30
0.0
 11
-128.8773828365177
 21
-327.3023103558402
 31
0.0
  0
LINE
  5
284
330
1F
100
AcDbEntity
  8
躯体
  6
Continuous
 62
     6
370
     9
100
AcDbLine
 10
-153.8385576174257
 20
-281.8134207188057
 30
0.0
 11
-153.8385576174257
 21
-192.030387929916
 31
0.0
  0
LINE
  5
285
330
1F
100
AcDbEntity
  8
躯体
  6
Continuous
 62
     6
370
     9
100
AcDbLine
 10
-153.8385576174257
 20
-281.8134207188057
 30
0.0
 11
-144.154992097355
 21
-291.4969862388762
 31
0.0
  0
LINE
  5
286
330
1F
100
AcDbEntity
  8
躯体
  6
Continuous
 62
     6
370
     9
100
AcDbLine
 10
-119.2349100394897
 20
-316.4170682967417
 30
0.0
 11
-109.6236413311001
 21
-326.0283370051312
 31
0.0
  0
ARC
  5
287
330
1F
100
AcDbEntity
  8
躯体
  6
Continuous
 62
     6
370
     9
100
AcDbCircle
 10
-91.70898276674211
 20
-324.5283370230817
 30
0.0
 40
1.499999982049566
100
AcDbArc
 50
180.0
 51
270.0
  0
ARC
  5
288
330
1F
100
AcDbEntity
  8
躯体
  6
Continuous
 62
     6
370
     9
100
AcDbCircle
 10
-80.9080067937573
 20
-321.5977455322255
 30
0.0
 40
1.5
100
AcDbArc
 50
15.18973379946464
 51
90.0
  0
LINE
  5
289
330
1F
100
AcDbEntity
  8
躯体
  6
Continuous
 62
     6
370
     9
100
AcDbLine
 10
-80.9080067937573
 20
-320.097745414898
 30
0.0
 11
-93.208976050518
 21
-320.097745414898
 31
0.0
  0
LINE
  5
28A
330
1F
100
AcDbEntity
  8
躯体
  6
Continuous
 62
     6
370
     9
100
AcDbLine
 10
-159.8386304354306
 20
-284.2986292750392
 30
0.0
 11
-149.65167032058
 21
-294.48558938989
 31
0.0
  0
LINE
  5
28B
330
1F
100
AcDbEntity
  8
躯体
  6
Continuous
 62
     6
370
     9
100
AcDbLine
 10
-122.2234418585201
 20
-321.9138178519498
 30
0.0
 11
-112.1089227053387
 21
-332.0283370051312
 31
0.0
  0
ARC
  5
28C
330
1F
100
AcDbEntity
  8
仕上
  6
Continuous
 62
     3
370
     9
100
AcDbCircle
 10
-111.7332083455115
 20
-302.6715039268277
 30
0.0
 40
3.000000231974834
100
AcDbArc
 50
136.2303848257567
 51
257.5040893554687
  0
LINE
  5
28D
330
1F
100
AcDbEntity
  8
仕上
  6
Continuous
 62
     3
370
     9
100
AcDbLine
 10
-51.47166445298603
 20
-235.9501970486606
 30
0.0
 11
-113.8995900550399
 21
-300.5962228180452
 31
0.0
  0
ARC
  5
28E
330
1F
100
AcDbEntity
  8
仕上
  6
Continuous
 62
     3
370
     9
100
AcDbCircle
 10
-107.8386045131635
 20
-285.0979318195644
 30
0.0
 40
21.000002783698
100
AcDbArc
 50
257.5042156407825
 51
270.0
  0
ARC
  5
28F
330
1F
100
AcDbEntity
  8
仕上
  6
Continuous
 62
     3
370
     9
100
AcDbCircle
 10
-107.8386045131635
 20
-285.0979318195644
 30
0.0
 40
21.000002783698
100
AcDbArc
 50
180.0
 51
192.4956970763162
  0
LINE
  5
290
330
1F
100
AcDbEntity
  8
躯体
  6
Continuous
 62
     6
370
     9
100
AcDbLine
 10
-68.60743391182405
 20
-312.0979961539183
 30
0.0
 11
-85.208976050518
 21
-326.0283370051313
 31
0.0
  0
LINE
  5
291
330
1F
100
AcDbEntity
  8
仕上
  6
Continuous
 62
     3
370
     9
100
AcDbLine
 10
21.20246222484298
 20
-312.0979961539183
 30
0.0
 11
-107.8386045131635
 21
-312.0979961539183
 31
0.0
  0
LINE
  5
292
330
1F
100
AcDbEntity
  8
躯体
  6
Continuous
 62
     6
370
     9
100
AcDbLine
 10
-93.208976050518
 20
-324.5283370230817
 30
0.0
 11
-93.208976050518
 21
-312.0979961539183
 31
0.0
  0
LINE
  5
293
330
1F
100
AcDbEntity
  8
仕上
  6
Continuous
 62
     3
370
     9
100
AcDbLine
 10
-129.8385781195823
 20
-150.0979318195642
 30
0.0
 11
-135.2982680323635
 21
-156.6043129692947
 31
0.0
  0
ARC
  5
294
330
1F
100
AcDbEntity
  8
仕上
  6
Continuous
 62
     3
370
     9
100
AcDbCircle
 10
-137.8386441035348
 20
-173.2602094797327
 30
0.0
 40
3.0
100
AcDbArc
 50
0.0
 51
60.00000000000001
  0
LINE
  5
295
330
1F
100
AcDbEntity
  8
躯体
  6
Continuous
 62
     6
370
     9
100
AcDbLine
 10
-136.3386441035348
 20
-170.9678832396742
 30
0.0
 11
-136.3386441035348
 21
-167.2278938128075
 31
0.0
  0
LINE
  5
296
330
1F
100
AcDbEntity
  8
躯体
  6
Continuous
 62
     6
370
     9
100
AcDbLine
 10
-136.3386441035348
 20
-162.9679203383564
 30
0.0
 11
-136.3386441035348
 21
-159.0552853979101
 31
0.0
  0
LINE
  5
297
330
1F
100
AcDbEntity
  8
躯体
  6
Continuous
 62
     6
370
     9
100
AcDbLine
 10
-145.3386441035348
 20
-162.9678955943743
 30
0.0
 11
-145.3386441035348
 21
-167.2278195808606
 31
0.0
  0
LINE
  5
298
330
1F
100
AcDbEntity
  8
躯体
  6
Continuous
 62
     6
370
     9
100
AcDbLine
 10
-145.3386441035348
 20
-162.9678955943743
 30
0.0
 11
-146.5683782336976
 21
-165.0978575876175
 31
0.0
  0
LINE
  5
299
330
1F
100
AcDbEntity
  8
躯体
  6
Continuous
 62
     6
370
     9
100
AcDbLine
 10
-145.3386441035348
 20
-167.2278195808606
 30
0.0
 11
-146.5683782336976
 21
-165.0978575876175
 31
0.0
  0
LINE
  5
29A
330
1F
100
AcDbEntity
  8
躯体
  6
Continuous
 62
     6
370
     9
100
AcDbLine
 10
-144.3386441035348
 20
-162.0978476900246
 30
0.0
 11
-144.3386441035348
 21
-168.0978674852104
 31
0.0
  0
LINE
  5
29B
330
1F
100
AcDbEntity
  8
躯体
  6
JWW_CENTER1
 62
     6
370
     9
100
AcDbLine
 10
-147.4393603161573
 20
-165.0978823315999
 30
0.0
 11
-122.4522956637049
 21
-165.0978823315999
 31
0.0
  0
LINE
  5
29C
330
1F
100
AcDbEntity
  8
躯体
  6
Continuous
 62
     6
370
     9
100
AcDbLine
 10
-140.8386144107565
 20
-162.0978476900245
 30
0.0
 11
-144.3386441035348
 21
-162.0978476900245
 31
0.0
  0
LINE
  5
29D
330
1F
100
AcDbEntity
  8
躯体
  6
Continuous
 62
     6
370
     9
100
AcDbLine
 10
-140.8386144107565
 20
-162.9678955943743
 30
0.0
 11
-145.3386441035348
 21
-162.9678955943743
 31
0.0
  0
LINE
  5
29E
330
1F
100
AcDbEntity
  8
躯体
  6
Continuous
 62
     6
370
     9
100
AcDbLine
 10
-140.8386144107565
 20
-167.2278195808606
 30
0.0
 11
-145.3386441035348
 21
-167.2278195808606
 31
0.0
  0
LINE
  5
29F
330
1F
100
AcDbEntity
  8
躯体
  6
Continuous
 62
     6
370
     9
100
AcDbLine
 10
-140.8386144107565
 20
-168.0978674852104
 30
0.0
 11
-144.3386441035348
 21
-168.0978674852104
 31
0.0
  0
LINE
  5
2A0
330
1F
100
AcDbEntity
  8
躯体
  6
Continuous
 62
     6
370
     9
100
AcDbLine
 10
-19.6207257000865
 20
-331.2360587856564
 30
0.0
 11
-19.83863287291911
 21
-331.0531317092356
 31
0.0
  0
LINE
  5
2A1
330
1F
100
AcDbEntity
  8
躯体
  6
Continuous
 62
     6
370
     9
100
AcDbLine
 10
54.65737851496851
 20
-327.5454108797985
 30
0.0
 11
55.16136936582211
 21
-327.1225778163709
 31
0.0
  0
LINE
  5
2A2
330
1F
100
AcDbEntity
  8
躯体
  6
Continuous
 62
     6
370
     9
100
AcDbLine
 10
55.16136936582211
 20
-321.6238652104196
 30
0.0
 11
55.16136936582211
 21
-327.1225778163709
 31
0.0
  0
ARC
  5
2A3
330
1F
100
AcDbEntity
  8
躯体
  6
Continuous
 62
     6
370
     9
100
AcDbCircle
 10
52.72901399322018
 20
-325.2473275486648
 30
0.0
 40
3.000000027616052
100
AcDbArc
 50
272.9991607666016
 51
310.0000305175782
  0
ARC
  5
2A4
330
1F
100
AcDbEntity
  8
躯体
  6
Continuous
 62
     6
370
     9
100
AcDbCircle
 10
39.58918174328051
 20
-308.6239533461278
 30
0.0
 40
0.5000000046026752
100
AcDbArc
 50
319.9972534179688
 51
90.0
  0
ARC
  5
2A5
330
1F
100
AcDbEntity
  8
躯体
  6
Continuous
 62
     6
370
     9
100
AcDbCircle
 10
53.66138715792363
 20
-321.6238652104195
 30
0.0
 40
1.500000013808026
100
AcDbArc
 50
0.0
 51
90.0
  0
ARC
  5
2A6
330
1F
100
AcDbEntity
  8
躯体
  6
Continuous
 62
     6
370
     9
100
AcDbCircle
 10
26.59115266038202
 20
-313.1239990635808
 30
0.0
 40
2.000000018410701
100
AcDbArc
 50
270.0
 51
309.9999389648438
  0
LINE
  5
2A7
330
1F
100
AcDbEntity
  8
躯体
  6
Continuous
 62
     6
370
     9
100
AcDbLine
 10
-19.83863287291911
 20
-331.0531317092356
 30
0.0
 11
-13.47427029553614
 21
-325.7126980410113
 31
0.0
  0
LINE
  5
2A8
330
1F
100
AcDbEntity
  8
躯体
  6
Continuous
 62
     6
370
     9
100
AcDbLine
 10
35.66140247562703
 20
-308.1239262455758
 30
0.0
 11
16.57688556837866
 21
-324.1377820480271
 31
0.0
  0
LINE
  5
2A9
330
1F
100
AcDbEntity
  8
躯体
  6
Continuous
 62
     6
370
     9
100
AcDbLine
 10
32.14882403219553
 20
-318.2687679709733
 30
0.0
 11
40.66137619987421
 21
-308.1239262455758
 31
0.0
  0
ARC
  5
2AA
330
1F
100
AcDbEntity
  8
躯体
  6
Continuous
 62
     6
370
     9
100
AcDbCircle
 10
34.44695521792551
 20
-320.1971333547052
 30
0.0
 40
3.0
100
AcDbArc
 50
139.999936308304
 51
273.0000031358944
  0
LINE
  5
2AB
330
1F
100
AcDbEntity
  8
躯体
  6
Continuous
 62
     6
370
     9
100
AcDbLine
 10
53.66138715792363
 20
-320.1238830025211
 30
0.0
 11
31.44784962026711
 21
-320.1238830025211
 31
0.0
  0
ARC
  5
2AC
330
1F
100
AcDbEntity
  8
躯体
  6
Continuous
 62
     6
370
     9
100
AcDbCircle
 10
-17.69236117833816
 20
-328.9379754545225
 30
0.0
 40
3.000000027616052
100
AcDbArc
 50
229.9999694824219
 51
273.0001831054688
  0
LINE
  5
2AD
330
1F
100
AcDbEntity
  8
躯体
  6
Continuous
 62
     6
370
     9
100
AcDbLine
 10
50.16129654781707
 20
-320.1238830025211
 30
0.0
 11
47.29643429611792
 21
-322.5278370326786
 31
0.0
  0
LINE
  5
2AE
330
1F
100
AcDbEntity
  8
躯体
  6
Continuous
 62
     6
370
     9
100
AcDbLine
 10
-109.6236413311001
 20
-326.0283370051312
 30
0.0
 11
-19.49701420679662
 21
-326.0283370051313
 31
0.0
  0
LINE
  5
2AF
330
1F
100
AcDbEntity
  8
躯体
  6
Continuous
 62
     6
370
     9
100
AcDbLine
 10
52.90831879838106
 20
-328.241964413552
 30
0.0
 11
-19.3398985130741
 21
-332.0283370051313
 31
0.0
  0
LINE
  5
2B0
330
1F
100
AcDbEntity
  8
躯体
  6
Continuous
 62
     6
370
     9
100
AcDbLine
 10
-112.1089227053387
 20
-332.0283370051312
 30
0.0
 11
-19.3398985130741
 21
-332.0283370051313
 31
0.0
  0
LINE
  5
2B1
330
1F
100
AcDbEntity
  8
躯体
  6
Continuous
 62
     6
370
     9
100
AcDbLine
 10
27.3190458563995
 20
-315.1240083720312
 30
0.0
 11
6.662760102920629
 21
-315.1240083720312
 31
0.0
  0
LINE
  5
2B2
330
1F
100
AcDbEntity
  8
躯体
  6
Continuous
 62
     6
370
     9
100
AcDbLine
 10
6.662760102920629
 20
-315.1240083720312
 30
0.0
 11
-5.455520589345042
 21
-325.2924527361984
 31
0.0
  0
LINE
  5
2B3
330
1F
100
AcDbEntity
  8
躯体
  6
Continuous
 62
     6
370
     9
100
AcDbLine
 10
25.93872186133058
 20
-308.1239262455758
 30
0.0
 11
40.66137619987421
 21
-308.1239262455758
 31
0.0
  0
LINE
  5
2B4
330
1F
100
AcDbEntity
  8
0-A
  6
Continuous
 62
     2
370
     9
100
AcDbLine
 10
-129.6702511819001
 20
-317.1796842865957
 30
0.0
 11
-145.2269801782652
 21
-301.6233516652606
 31
0.0
  0
LINE
  5
2B5
330
1F
100
AcDbEntity
  8
0-A
  6
Continuous
 62
     2
370
     9
100
AcDbLine
 10
-146.358135420596
 20
-302.7548041888641
 30
0.0
 11
-145.2269801782652
 21
-301.6233516652606
 31
0.0
  0
LINE
  5
2B6
330
1F
100
AcDbEntity
  8
0-A
  6
Continuous
 62
     2
370
     9
100
AcDbLine
 10
-130.8018027992609
 20
-318.3111368101992
 30
0.0
 11
-129.6702511819001
 21
-317.1796842865957
 31
0.0
  0
LINE
  5
2B7
330
1F
100
AcDbEntity
  8
0-A
  6
Continuous
 62
     2
370
     9
100
AcDbLine
 10
-143.9540217688932
 20
-302.8962109808751
 30
0.0
 11
-142.1861891343613
 21
-301.1282792525856
 31
0.0
  0
LINE
  5
2B8
330
1F
100
AcDbEntity
  8
0-A
  6
Continuous
 62
     2
370
     9
100
AcDbLine
 10
-130.9433086850295
 20
-315.9069240647389
 30
0.0
 11
-129.1752778629825
 21
-314.139091430207
 31
0.0
  0
LINE
  5
2B9
330
1F
100
AcDbEntity
  8
0-A
  6
Continuous
 62
     2
370
     9
100
AcDbLine
 10
-134.1161917077354
 20
-299.1501696645518
 30
0.0
 11
-139.1402452150653
 21
-304.1742231718816
 31
0.0
  0
LINE
  5
2BA
330
1F
100
AcDbEntity
  8
0-A
  6
Continuous
 62
     2
370
     9
100
AcDbLine
 10
-127.1972178218273
 20
-306.069094003581
 30
0.0
 11
-132.2213208760361
 21
-311.093147510911
 31
0.0
  0
LINE
  5
2BB
330
1F
100
AcDbEntity
  8
0-A
  6
Continuous
 62
     2
370
     9
100
AcDbLine
 10
-135.2187584010157
 20
-296.782324328109
 30
0.0
 11
-124.8294220322634
 21
-307.1714129624674
 31
0.0
  0
LINE
  5
2BC
330
1F
100
AcDbEntity
  8
0-A
  6
Continuous
 62
     2
370
     9
100
AcDbLine
 10
-137.5866532843372
 20
-295.6801044629802
 30
0.0
 11
-142.610310416637
 21
-300.7041579703101
 31
0.0
  0
LINE
  5
2BD
330
1F
100
AcDbEntity
  8
0-A
  6
Continuous
 62
     2
370
     9
100
AcDbLine
 10
-128.7510574869495
 20
-314.5636090875128
 30
0.0
 11
-142.610310416637
 21
-300.7041579703101
 31
0.0
  0
LINE
  5
2BE
330
1F
100
AcDbEntity
  8
0-A
  6
Continuous
 62
     2
370
     9
100
AcDbLine
 10
-123.7270039796197
 20
-309.5392582989102
 30
0.0
 11
-128.7510574869495
 21
-314.5636090875128
 31
0.0
  0
LINE
  5
2BF
330
1F
100
AcDbEntity
  8
0-A
  6
Continuous
 62
     2
370
     9
100
AcDbLine
 10
-138.9156987604774
 20
-307.9344348955334
 30
0.0
 11
-137.1481138603394
 21
-306.1666022610014
 31
0.0
  0
LINE
  5
2C0
330
1F
100
AcDbEntity
  8
0-A
  6
Continuous
 62
     2
370
     9
100
AcDbLine
 10
-139.6230300018053
 20
-307.2273018417206
 30
0.0
 11
-137.8550982735158
 21
-305.4596673947038
 31
0.0
  0
ARC
  5
2C1
330
1F
100
AcDbEntity
  8
0-A
  6
Continuous
 62
     2
370
     9
100
AcDbCircle
 10
-137.9138113248589
 20
-299.4774763457097
 30
0.0
 40
3.811437777110509
100
AcDbArc
 50
4.925643920898438
 51
85.07435607910156
  0
ARC
  5
2C2
330
1F
100
AcDbEntity
  8
0-A
  6
Continuous
 62
     2
370
     9
100
AcDbCircle
 10
-139.7971377338047
 20
-311.750139123408
 30
0.0
 40
13.8216220752613
100
AcDbArc
 50
24.26925659179688
 51
65.73074340820312
  0
ARC
  5
2C3
330
1F
100
AcDbEntity
  8
0-A
  6
Continuous
 62
     2
370
     9
100
AcDbCircle
 10
-127.5245740498642
 20
-309.8665649800682
 30
0.0
 40
3.811437777110509
100
AcDbArc
 50
4.925643920898438
 51
85.07435607910156
  0
LINE
  5
2C4
330
1F
100
AcDbEntity
  8
0-A
  6
JWW_DASHED2
 62
     2
370
     9
100
AcDbLine
 10
-146.3583021651052
 20
-311.2399730165811
 30
0.0
 11
-142.1156343789921
 21
-306.9973052304677
 31
0.0
  0
LINE
  5
2C5
330
1F
100
AcDbEntity
  8
0-A
  6
JWW_DASHED2
 62
     2
370
     9
100
AcDbLine
 10
-145.6511705269716
 20
-311.9471074860727
 30
0.0
 11
-141.4085018277071
 21
-307.7044387868084
 31
0.0
  0
LINE
  5
2C6
330
1F
100
AcDbEntity
  8
0-A
  6
JWW_DASHED2
 62
     2
370
     9
100
AcDbLine
 10
-139.2871193008805
 20
-318.3111841938504
 30
0.0
 11
-135.0444520027145
 21
-314.0684886118012
 31
0.0
  0
LINE
  5
2C7
330
1F
100
AcDbEntity
  8
0-A
  6
JWW_DASHED2
 62
     2
370
     9
100
AcDbLine
 10
-139.994260589252
 20
-317.6040400740823
 30
0.0
 11
-135.7516088488105
 21
-313.3613317657051
 31
0.0
  0
LINE
  5
2C8
330
1F
100
AcDbEntity
  8
躯体
  6
Continuous
 62
     6
370
     9
100
AcDbLine
 10
-142.6551603926434
 20
-290.1683908188417
 30
0.0
 11
-137.0609752749608
 21
-295.7626777507951
 31
0.0
  0
LINE
  5
2C9
330
1F
100
AcDbEntity
  8
躯体
  6
Continuous
 62
     6
370
     9
100
AcDbLine
 10
-123.8097615018432
 20
-309.0137897096419
 30
0.0
 11
-117.9062962592577
 21
-314.9172549522275
 31
0.0
  0
ARC
  5
2CA
330
1F
100
AcDbEntity
  8
仕上
  6
Continuous
 62
     3
370
     9
100
AcDbCircle
 10
-107.8386045131635
 20
-285.0979318195644
 30
0.0
 40
27.00000556739601
100
AcDbArc
 50
227.6492515620904
 51
270.0
  0
ARC
  5
2CB
330
1F
100
AcDbEntity
  8
仕上
  6
Continuous
 62
     3
370
     9
100
AcDbCircle
 10
-107.8386045131635
 20
-285.0979318195644
 30
0.0
 40
27.00000556739601
100
AcDbArc
 50
180.0
 51
206.0853251216658
  0
ARC
  5
2CC
330
1F
100
AcDbEntity
  8
仕上
  6
Continuous
 62
     3
370
     9
100
AcDbCircle
 10
-125.412275596356
 20
-288.9925109079298
 30
0.0
 40
3.000000231974834
100
AcDbArc
 50
192.4961700439453
 51
242.8658365060452
  0
ARC
  5
2CD
330
1F
100
AcDbEntity
  8
0-A
  6
Continuous
 62
     2
370
     9
100
AcDbCircle
 10
-134.2385530456802
 20
-165.0978080996528
 30
0.0
 40
10.00000128874908
100
AcDbArc
 50
323.130126953125
 51
357.2543792724609
  0
ARC
  5
2CE
330
1F
100
AcDbEntity
  8
0-A
  6
Continuous
 62
     2
370
     9
100
AcDbCircle
 10
-134.2385530456802
 20
-165.0978080996528
 30
0.0
 40
10.00000128874908
100
AcDbArc
 50
2.745620727539063
 51
36.869873046875
  0
ARC
  5
2CF
330
1F
100
AcDbEntity
  8
0-A
  6
Continuous
 62
     2
370
     9
100
AcDbCircle
 10
-129.0887364810685
 20
-161.6979849366462
 30
0.0
 40
0.2500000273859178
100
AcDbArc
 50
299.3291778564453
 51
0.0
  0
ARC
  5
2D0
330
1F
100
AcDbEntity
  8
0-A
  6
Continuous
 62
     2
370
     9
100
AcDbCircle
 10
-129.0887364810685
 20
-168.4978787024822
 30
0.0
 40
0.2500000273859178
100
AcDbArc
 50
0.0
 51
60.67082214355469
  0
LINE
  5
2D1
330
1F
100
AcDbEntity
  8
0-A
  6
Continuous
 62
     2
370
     9
100
AcDbLine
 10
-124.2501002374031
 20
-165.5768021083099
 30
0.0
 11
-126.2388235798865
 21
-165.5768021083099
 31
0.0
  0
LINE
  5
2D2
330
1F
100
AcDbEntity
  8
0-A
  6
Continuous
 62
     2
370
     9
100
AcDbLine
 10
-130.8386803947089
 20
-162.0978476900245
 30
0.0
 11
-130.8386803947089
 21
-168.0979664611393
 31
0.0
  0
LINE
  5
2D3
330
1F
100
AcDbEntity
  8
0-A
  6
Continuous
 62
     2
370
     9
100
AcDbLine
 10
-124.2501002374031
 20
-164.6188635789602
 30
0.0
 11
-126.2388235798865
 21
-164.6188635789602
 31
0.0
  0
LINE
  5
2D4
330
1F
100
AcDbEntity
  8
0-A
  6
Continuous
 62
     2
370
     9
100
AcDbLine
 10
-130.8386803947089
 20
-162.0978476900245
 30
0.0
 11
-130.0749326381635
 21
-162.5388844298893
 31
0.0
  0
LINE
  5
2D5
330
1F
100
AcDbEntity
  8
0-A
  6
Continuous
 62
     2
370
     9
100
AcDbLine
 10
-130.8386803947089
 20
-162.9679450823386
 30
0.0
 11
-128.9661547929352
 21
-161.9158804444586
 31
0.0
  0
LINE
  5
2D6
330
1F
100
AcDbEntity
  8
0-A
  6
Continuous
 62
     2
370
     9
100
AcDbLine
 10
-130.8386803947089
 20
-168.0979664611393
 30
0.0
 11
-130.0749326381635
 21
-167.6569792092389
 31
0.0
  0
LINE
  5
2D7
330
1F
100
AcDbEntity
  8
0-A
  6
Continuous
 62
     2
370
     9
100
AcDbLine
 10
-130.8386803947089
 20
-167.2279185567897
 30
0.0
 11
-128.9661547929352
 21
-168.2799831946697
 31
0.0
  0
LINE
  5
2D8
330
1F
100
AcDbEntity
  8
0-A
  6
Continuous
 62
     2
370
     9
100
AcDbLine
 10
-130.8386803947089
 20
-167.2279185567897
 30
0.0
 11
-140.8386144107565
 21
-167.2279185567897
 31
0.0
  0
LINE
  5
2D9
330
1F
100
AcDbEntity
  8
0-A
  6
Continuous
 62
     2
370
     9
100
AcDbLine
 10
-130.8386803947089
 20
-162.9679450823386
 30
0.0
 11
-140.8386144107565
 21
-162.9679450823386
 31
0.0
  0
LINE
  5
2DA
330
1F
100
AcDbEntity
  8
0-A
  6
Continuous
 62
     2
370
     9
100
AcDbLine
 10
-130.8386803947089
 20
-168.0979664611393
 30
0.0
 11
-140.8386144107565
 21
-168.0979664611393
 31
0.0
  0
LINE
  5
2DB
330
1F
100
AcDbEntity
  8
0-A
  6
Continuous
 62
     2
370
     9
100
AcDbLine
 10
-130.8386803947089
 20
-162.0978476900245
 30
0.0
 11
-140.8386144107565
 21
-162.0978476900245
 31
0.0
  0
LINE
  5
2DC
330
1F
100
AcDbEntity
  8
0-A
  6
Continuous
 62
     2
370
     9
100
AcDbLine
 10
-140.8386144107565
 20
-162.0978476900245
 30
0.0
 11
-140.8386144107565
 21
-168.0979664611392
 31
0.0
  0
LINE
  5
2DD
330
1F
100
AcDbEntity
  8
0-A
  6
Continuous
 62
     2
370
     9
100
AcDbLine
 10
-126.2388235798865
 20
-165.5768021083099
 30
0.0
 11
-126.2388235798865
 21
-164.6188635789601
 31
0.0
  0
LINE
  5
2DE
330
1F
100
AcDbEntity
  8
0-A
  6
Continuous
 62
     2
370
     9
100
AcDbLine
 10
-126.2388235798865
 20
-171.0977289189097
 30
0.0
 11
-128.8387232842781
 21
-171.0977289189097
 31
0.0
  0
LINE
  5
2DF
330
1F
100
AcDbEntity
  8
0-A
  6
Continuous
 62
     2
370
     9
100
AcDbLine
 10
-126.2388235798865
 20
-159.0978872803962
 30
0.0
 11
-128.8387232842781
 21
-159.0978872803962
 31
0.0
  0
LINE
  5
2E0
330
1F
100
AcDbEntity
  8
0-A
  6
JWW_DASHED2
 62
     2
370
     9
100
AcDbLine
 10
-139.2871341161576
 20
-318.3111687628285
 30
0.0
 11
-135.0444666233368
 21
-314.0684729861231
 31
0.0
  0
LINE
  5
2E1
330
1F
100
AcDbEntity
  8
躯体
  6
Continuous
 62
     6
370
     9
100
AcDbLine
 10
-149.1177477210947
 20
-153.8978823171023
 30
0.0
 11
-131.6255268653345
 21
-141.6488425212182
 31
0.0
  0
LINE
  5
2E2
330
1F
100
AcDbEntity
  8
躯体
  6
Continuous
 62
     6
370
     9
100
AcDbLine
 10
-130.8386441035348
 20
-151.289723033062
 30
0.0
 11
-130.8386441035348
 21
-142.0584412659622
 31
0.0
  0
LINE
  5
2E3
330
1F
100
AcDbEntity
  8
躯体
  6
Continuous
 62
     6
370
     9
100
AcDbLine
 10
16.57688556837843
 20
-324.1377820480274
 30
0.0
 11
-19.49701420679662
 21
-326.0283370051313
 31
0.0
  0
LINE
  5
2E4
330
1F
100
AcDbEntity
  8
躯体
  6
Continuous
 62
     6
370
     9
100
AcDbLine
 10
55.16136936582211
 20
-322.1156528198269
 30
0.0
 11
34.60396325062447
 21
-323.1930219503757
 31
0.0
  0
LINE
  5
2E5
330
1F
100
AcDbEntity
  8
躯体
  6
JWW_DASHED2
 62
     6
370
     9
100
AcDbLine
 10
34.60396325062447
 20
-323.1930219503757
 30
0.0
 11
16.57688556837866
 21
-324.1377820480274
 31
0.0
  0
LINE
  5
2E6
330
1F
100
AcDbEntity
  8
0-A
  6
JWW_DASHED2
 62
     2
370
     9
100
AcDbLine
 10
-155.5507128580234
 20
-320.4324483891778
 30
0.0
 11
-155.550613764266
 21
-321.8467144968033
 31
0.0
  0
LINE
  5
2E7
330
1F
100
AcDbEntity
  8
0-A
  6
JWW_DASHED2
 62
     2
370
     9
100
AcDbLine
 10
-155.550613764266
 20
-321.8467144968031
 30
0.0
 11
-149.8937475212792
 21
-327.5035807397896
 31
0.0
  0
LINE
  5
2E8
330
1F
100
AcDbEntity
  8
0-A
  6
JWW_DASHED2
 62
     2
370
     9
100
AcDbLine
 10
-149.8937475212792
 20
-327.5035807397899
 30
0.0
 11
-148.4795805074114
 21
-327.5035807397896
 31
0.0
  0
LINE
  5
2E9
330
1F
100
AcDbEntity
  8
仕上
  6
Continuous
 62
     3
370
     9
100
AcDbLine
 10
-128.838723284277
 20
-150.0979318195632
 30
0.0
 11
27.16149446276563
 21
-306.0978773828031
 31
0.0
  0
LINE
  5
2EA
330
1F
100
AcDbEntity
  8
0-A
  6
JWW_HOJO
 62
     2
370
     9
100
AcDbLine
 10
-155.7706322569932
 20
-280.2306310966018
 30
0.0
 11
-162.5009126630544
 21
-286.960911502663
 31
0.0
  0
LINE
  5
2EB
330
1F
100
AcDbEntity
  8
0-A
  6
JWW_HOJO
 62
     2
370
     9
100
AcDbLine
 10
-108.0409245269013
 20
-327.9603388266938
 30
0.0
 11
-112.1089227053387
 21
-332.0283370051312
 31
0.0
  0
LINE
  5
2EC
330
1F
100
AcDbEntity
  8
通り芯
  6
Continuous
 62
     4
370
     9
100
AcDbLine
 10
-165.5167482812712
 20
-283.9450758844459
 30
0.0
 11
-152.0341608983144
 21
-297.4276632674025
 31
0.0
  0
LINE
  5
2ED
330
1F
100
AcDbEntity
  8
通り芯
  6
Continuous
 62
     4
370
     9
100
AcDbLine
 10
-125.165483238449
 20
-324.2963409272675
 30
0.0
 11
-117.4334871605856
 21
-332.0283370051308
 31
0.0
  0
LINE
  5
2EE
330
1F
100
AcDbEntity
  8
0-A
  6
Continuous
 62
     2
370
     9
100
AcDbLine
 10
-149.3611468761244
 20
-314.2428129133239
 30
0.0
 11
-146.3583042643963
 21
-311.2399703015959
 31
0.0
  0
LINE
  5
2EF
330
1F
100
AcDbEntity
  8
0-A
  6
Continuous
 62
     2
370
     9
100
AcDbLine
 10
-148.6540138223115
 20
-314.9499459671365
 30
0.0
 11
-145.6511726262627
 21
-311.9471047710878
 31
0.0
  0
LINE
  5
2F0
330
1F
100
AcDbEntity
  8
0-A
  6
Continuous
 62
     2
370
     9
100
AcDbLine
 10
-142.9971003802436
 20
-320.6068594092046
 30
0.0
 11
-139.9942905277492
 21
-317.6040095197794
 31
0.0
  0
LINE
  5
2F1
330
1F
100
AcDbEntity
  8
0-A
  6
Continuous
 62
     2
370
     9
100
AcDbLine
 10
-142.2899537657672
 20
-321.3140060236809
 30
0.0
 11
-139.2871353197283
 21
-318.3111675592528
 31
0.0
  0
LINE
  5
2F2
330
1F
100
AcDbEntity
  8
0-A
  6
JWW_DASHED2
 62
     2
370
     9
100
AcDbLine
 10
-155.524453012275
 20
-320.4061885434294
 30
0.0
 11
-149.3612143474627
 21
-314.2427454419854
 31
0.0
  0
LINE
  5
2F3
330
1F
100
AcDbEntity
  8
0-A
  6
JWW_DASHED2
 62
     2
370
     9
100
AcDbLine
 10
-148.4533206616629
 20
-327.4773208940419
 30
0.0
 11
-142.2898633606947
 21
-321.3140964287534
 31
0.0
  0
TEXT
  5
2F4
330
1F
100
AcDbEntity
  8
その他
  6
Continuous
 62
     2
370
     9
100
AcDbText
 10
-234.244595623904
 20
-330.2978169690389
 30
0.0
 40
12.192
  1
1ﾟ10'
 50
90.58335496
 41
1.100000000000001
  7
ＭＳ ゴシック
100
AcDbText
  0
TEXT
  5
2F5
330
1F
100
AcDbEntity
  8
その他
  6
Continuous
 62
     2
370
   211
100
AcDbText
 10
-261.276539269421
 20
-283.0890476012465
 30
0.0
 40
12.192
  1
Rc6
 50
91.16680943000001
 41
1.083333333333331
  7
ＭＳ ゴシック
100
AcDbText
  0
LINE
  5
2F6
330
1F
100
AcDbEntity
  8
その他
  6
Continuous
 62
     7
370
     9
100
AcDbLine
 10
127.3732029175447
 20
-328.2419644135506
 30
0.0
 11
127.3732029175447
 21
-320.1238651966114
 31
0.0
  0
LWPOLYLINE
  5
2F7
330
1F
100
AcDbEntity
  8
その他
  6
Continuous
 62
     7
370
     9
100
AcDbPolyline
 90
        4
 70
     1
 43
0.8
 10
127.7732029175448
 20
-328.2419644135506
 42
0.4142135623731
 10
127.3732029175447
 20
-327.8419644135506
 42
0.4142135623731
 10
126.9732029175447
 20
-328.2419644135506
 42
0.4142135623731
 10
127.3732029175447
 20
-328.6419644135506
 42
0.4142135623731
  0
LWPOLYLINE
  5
2F8
330
1F
100
AcDbEntity
  8
その他
  6
Continuous
 62
     7
370
     9
100
AcDbPolyline
 90
        4
 70
     1
 43
0.8
 10
127.7732029175448
 20
-320.1238651966114
 42
0.4142135623731
 10
127.3732029175447
 20
-319.7238651966114
 42
0.4142135623731
 10
126.9732029175447
 20
-320.1238651966114
 42
0.4142135623731
 10
127.3732029175447
 20
-320.5238651966114
 42
0.4142135623731
  0
TEXT
  5
2F9
330
1F
100
AcDbEntity
  8
その他
  6
Continuous
 62
     2
370
     5
100
AcDbText
 10
122.7172029175447
 20
-328.1829148050811
 30
0.0
 40
12.192
  1
8
 50
90.0
  7
ＭＳ ゴシック
100
AcDbText
  0
LINE
  5
2FA
330
1F
100
AcDbEntity
  8
その他
  6
Continuous
 62
     7
370
     9
100
AcDbLine
 10
127.3732029175447
 20
-320.1238651966114
 30
0.0
 11
127.3732029175448
 21
-109.0978132646916
 31
0.0
  0
LWPOLYLINE
  5
2FB
330
1F
100
AcDbEntity
  8
その他
  6
Continuous
 62
     7
370
     9
100
AcDbPolyline
 90
        4
 70
     1
 43
0.8
 10
127.7732029175448
 20
-109.0978132646916
 42
0.4142135623731
 10
127.3732029175448
 20
-108.6978132646915
 42
0.4142135623731
 10
126.9732029175448
 20
-109.0978132646916
 42
0.4142135623731
 10
127.3732029175448
 20
-109.4978132646916
 42
0.4142135623731
  0
TEXT
  5
2FC
330
1F
100
AcDbEntity
  8
その他
  6
Continuous
 62
     2
370
     5
100
AcDbText
 10
122.7172029175448
 20
-227.6108392306515
 30
0.0
 40
12.192
  1
211
 50
90.0
 41
1.083333333333333
  7
ＭＳ ゴシック
100
AcDbText
  0
LINE
  5
2FD
330
1F
100
AcDbEntity
  8
寸法
  6
Continuous
 62
     7
370
     9
100
AcDbLine
 10
-125.4027677153577
 20
-160.5093137788452
 30
0.0
 11
-117.4692343124453
 21
-154.4216994887582
 31
0.0
  0
LINE
  5
2FE
330
1F
100
AcDbEntity
  8
寸法
  6
Continuous
 62
     7
370
     9
100
AcDbLine
 10
-125.4027677153577
 20
-160.5093137788452
 30
0.0
 11
-119.3151534252703
 21
-152.5757803759327
 31
0.0
  0
LINE
  5
2FF
330
1F
100
AcDbEntity
  8
寸法
  6
Continuous
 62
     7
370
     9
100
AcDbLine
 10
55.12865947730734
 20
-324.7790305237806
 30
0.0
 11
63.06219288021975
 21
-318.6914162336936
 31
0.0
  0
LINE
  5
300
330
1F
100
AcDbEntity
  8
寸法
  6
Continuous
 62
     7
370
     9
100
AcDbLine
 10
55.12865947730734
 20
-324.7790305237806
 30
0.0
 11
61.21627376739434
 21
-316.8454971208682
 31
0.0
  0
LWPOLYLINE
  5
301
330
1F
100
AcDbEntity
  8
その他
  6
Continuous
 62
     7
370
     9
100
AcDbPolyline
 90
        4
 70
     1
 43
0.8
 10
160.4803967177476
 20
-332.0283370051313
 42
0.4142135623731
 10
160.0803967177476
 20
-331.6283370051314
 42
0.4142135623731
 10
159.6803967177476
 20
-332.0283370051313
 42
0.4142135623731
 10
160.0803967177476
 20
-332.4283370051313
 42
0.4142135623731
  0
LINE
  5
302
330
1F
100
AcDbEntity
  8
その他
  6
Continuous
 62
     7
370
     9
100
AcDbLine
 10
160.0803967177476
 20
-332.0283370051313
 30
0.0
 11
160.0803967177476
 21
-76.02833700513108
 31
0.0
  0
LWPOLYLINE
  5
303
330
1F
100
AcDbEntity
  8
その他
  6
Continuous
 62
     7
370
     9
100
AcDbPolyline
 90
        4
 70
     1
 43
0.8
 10
160.4803967177476
 20
-76.02833700513108
 42
0.4142135623731
 10
160.0803967177476
 20
-75.62833700513107
 42
0.4142135623731
 10
159.6803967177476
 20
-76.02833700513108
 42
0.4142135623731
 10
160.0803967177476
 20
-76.42833700513108
 42
0.4142135623731
  0
TEXT
  5
304
330
1F
100
AcDbEntity
  8
その他
  6
Continuous
 62
     2
370
     5
100
AcDbText
 10
155.4243967177476
 20
-217.0283370051312
 30
0.0
 40
12.192
  1
256
 50
90.0
 41
1.083333333333333
  7
ＭＳ ゴシック
100
AcDbText
  0
LINE
  5
305
330
1F
100
AcDbEntity
  8
その他
  6
Continuous
 62
     7
370
     9
100
AcDbLine
 10
160.0803967177476
 20
-76.02833700513108
 30
0.0
 11
160.0803967177476
 21
78.97177180947668
 31
0.0
  0
LWPOLYLINE
  5
306
330
1F
100
AcDbEntity
  8
その他
  6
Continuous
 62
     7
370
     9
100
AcDbPolyline
 90
        4
 70
     1
 43
0.8
 10
160.4803967177476
 20
78.97177180947668
 42
0.4142135623731
 10
160.0803967177476
 20
79.37177180947668
 42
0.4142135623731
 10
159.6803967177476
 20
78.97177180947668
 42
0.4142135623731
 10
160.0803967177476
 20
78.57177180947667
 42
0.4142135623731
  0
TEXT
  5
307
330
1F
100
AcDbEntity
  8
その他
  6
Continuous
 62
     2
370
     5
100
AcDbText
 10
155.4243967177476
 20
-11.5282825978272
 30
0.0
 40
12.192
  1
155
 50
90.0
 41
1.083333333333333
  7
ＭＳ ゴシック
100
AcDbText
  0
LINE
  5
308
330
1F
100
AcDbEntity
  8
寸法
  6
Continuous
 62
     7
370
     9
100
AcDbLine
 10
-4.601408968807974
 20
-274.3350293700486
 30
0.0
 11
1.486205321279485
 21
-266.4014959671362
 31
0.0
  0
LINE
  5
309
330
1F
100
AcDbEntity
  8
寸法
  6
Continuous
 62
     7
370
     9
100
AcDbLine
 10
-4.601408968807974
 20
-274.3350293700486
 30
0.0
 11
3.332124434104443
 21
-268.2474150799611
 31
0.0
  0
LINE
  5
30A
330
1F
100
AcDbEntity
  8
寸法
  6
Continuous
 62
     7
370
     9
100
AcDbLine
 10
-4.601408968807968
 20
-274.3350293700486
 30
0.0
 11
260.8991320522677
 21
-8.834488348972855
 31
0.0
  0
LINE
  5
30B
330
1F
100
AcDbEntity
  8
寸法
  6
Continuous
 62
     7
370
     9
100
AcDbLine
 10
55.12865947730734
 20
-324.7790305237806
 30
0.0
 11
260.8991320522677
 21
-119.0085579488203
 31
0.0
  0
LINE
  5
30C
330
1F
100
AcDbEntity
  8
寸法
  6
Continuous
 62
     7
370
     9
100
AcDbLine
 10
432.7046971233005
 20
-8.834488348972855
 30
0.0
 11
260.8991320522677
 21
-8.834488348972855
 31
0.0
  0
TEXT
  5
30D
330
1F
100
AcDbEntity
  8
寸法
  6
Continuous
 62
     7
370
     9
100
AcDbText
 10
265.5713729489379
 20
-1.133461744243057
 30
0.0
 40
9.144
  1
ストレーナー：ＦＣ１５０
 41
1.152777777777778
  7
ＭＳ ゴシック
100
AcDbText
  0
TEXT
  5
30E
330
1F
100
AcDbEntity
  8
寸法
  6
Continuous
 62
     7
370
     9
100
AcDbText
 10
267.3925463983255
 20
-109.9989705860665
 30
0.0
 40
9.144
  1
防水層押え：ＦＣ１５０
 41
1.151515151515152
  7
ＭＳ ゴシック
100
AcDbText
  0
LINE
  5
30F
330
1F
100
AcDbEntity
  8
寸法
  6
Continuous
 62
     7
370
     9
100
AcDbLine
 10
418.9625296301671
 20
-119.0085579488203
 30
0.0
 11
260.8991320522677
 21
-119.0085579488203
 31
0.0
  0
LINE
  5
310
330
1F
100
AcDbEntity
  8
躯体
  6
Continuous
 62
     6
370
     9
100
AcDbLine
 10
-149.0188766873023
 20
-293.7041694607947
 30
0.0
 11
-147.9045200068649
 21
-294.8184292995982
 31
0.0
  0
LINE
  5
311
330
1F
100
AcDbEntity
  8
躯体
  6
Continuous
 62
     6
370
     9
100
AcDbLine
 10
-121.4419758074534
 20
-321.2809712468862
 30
0.0
 11
-122.5563979421733
 21
-320.1665491121663
 31
0.0
  0
LINE
  5
312
330
1F
100
AcDbEntity
  8
0-8
  6
Continuous
 62
     2
370
     9
100
AcDbLine
 10
47.08369031170582
 20
-354.9281389258714
 30
0.0
 11
47.08369031170582
 21
-353.128374830285
 31
0.0
  0
LINE
  5
313
330
1F
100
AcDbEntity
  8
0-8
  6
Continuous
 62
     2
370
     9
100
AcDbLine
 10
45.48352431493345
 20
-353.128374830285
 30
0.0
 11
45.48352431493345
 21
-354.9281389258714
 31
0.0
  0
LINE
  5
314
330
1F
100
AcDbEntity
  8
0-8
  6
Continuous
 62
     2
370
     9
100
AcDbLine
 10
45.4837225024487
 20
-357.0281338356809
 30
0.0
 11
45.4837225024487
 21
-358.6284484730896
 31
0.0
  0
ARC
  5
315
330
1F
100
AcDbEntity
  8
0-8
  6
Continuous
 62
     2
370
     9
100
AcDbCircle
 10
47.58371741225778
 20
-354.9281389258714
 30
0.0
 40
2.099999941914238
100
AcDbArc
 50
180.0
 51
270.0
  0
ARC
  5
316
330
1F
100
AcDbEntity
  8
0-8
  6
Continuous
 62
     2
370
     9
100
AcDbCircle
 10
47.58371741225778
 20
-354.9281389258714
 30
0.0
 40
0.5000000046026752
100
AcDbArc
 50
180.0
 51
270.0
  0
LINE
  5
317
330
1F
100
AcDbEntity
  8
0-8
  6
Continuous
 62
     2
370
     9
100
AcDbLine
 10
72.14644888454245
 20
-355.4277448779532
 30
0.0
 11
75.48356484793317
 21
-355.4277448779532
 31
0.0
  0
LINE
  5
318
330
1F
100
AcDbEntity
  8
0-8
  6
Continuous
 62
     2
370
     9
100
AcDbLine
 10
32.47754355719371
 20
-357.0277448779535
 30
0.0
 11
245.4835633161626
 21
-357.0277448779535
 31
0.0
  0
LINE
  5
319
330
1F
100
AcDbEntity
  8
0-8
  6
Continuous
 62
     2
370
     9
100
AcDbLine
 10
75.48356484793317
 20
-355.4277448779532
 30
0.0
 11
75.48356484793317
 21
-357.0277448779535
 31
0.0
  0
LINE
  5
31A
330
1F
100
AcDbEntity
  8
0-8
  6
JWW_CENTER1
 62
     2
370
     9
100
AcDbLine
 10
63.48370718474575
 20
-341.2989891184972
 30
0.0
 11
63.48370718474575
 21
-361.4274755220323
 31
0.0
  0
LINE
  5
31B
330
1F
100
AcDbEntity
  8
0-8
  6
Continuous
 62
     2
370
     9
100
AcDbLine
 10
58.17109265545582
 20
-352.4277770686959
 30
0.0
 11
68.79607397964105
 21
-352.4277770686959
 31
0.0
  0
LINE
  5
31C
330
1F
100
AcDbEntity
  8
0-8
  6
Continuous
 62
     2
370
     9
100
AcDbLine
 10
69.14648107528524
 20
-352.4277770686959
 30
0.0
 11
72.14644888454245
 21
-355.4277448779532
 31
0.0
  0
LINE
  5
31D
330
1F
100
AcDbEntity
  8
0-8
  6
Continuous
 62
     2
370
     9
100
AcDbLine
 10
57.82093329420582
 20
-352.4277770686959
 30
0.0
 11
54.8209654849486
 21
-355.4277448779532
 31
0.0
  0
LINE
  5
31E
330
1F
100
AcDbEntity
  8
0-8
  6
Continuous
 62
     2
370
     9
100
AcDbLine
 10
47.58371741225778
 20
-355.428017385787
 30
0.0
 11
72.14644888454245
 21
-355.428017385787
 31
0.0
  0
LINE
  5
31F
330
1F
100
AcDbEntity
  8
0-8
  6
Continuous
 62
     2
370
     9
100
AcDbLine
 10
-114.5162294235286
 20
-357.0277448779535
 30
0.0
 11
-114.5162294235286
 21
-358.6280595153622
 31
0.0
  0
LINE
  5
320
330
1F
100
AcDbEntity
  8
0-8
  6
Continuous
 62
     2
370
     9
100
AcDbLine
 10
245.4835633161626
 20
-357.0277448779535
 30
0.0
 11
245.4835633161626
 21
-358.6280595153622
 31
0.0
  0
LINE
  5
321
330
1F
100
AcDbEntity
  8
0-A
  6
Continuous
 62
     2
370
     9
100
AcDbLine
 10
57.73359371591255
 20
-347.9187385927463
 30
0.0
 11
57.73359371591255
 21
-352.4280991234083
 31
0.0
  0
LINE
  5
322
330
1F
100
AcDbEntity
  8
0-A
  6
Continuous
 62
     2
370
     9
100
AcDbLine
 10
69.23362246606325
 20
-347.9187385927463
 30
0.0
 11
69.23362246606325
 21
-352.4280991234083
 31
0.0
  0
LINE
  5
323
330
1F
100
AcDbEntity
  8
0-A
  6
Continuous
 62
     2
370
     9
100
AcDbLine
 10
60.62024441996141
 20
-347.9187385927463
 30
0.0
 11
60.62024441996141
 21
-352.4280991234083
 31
0.0
  0
LINE
  5
324
330
1F
100
AcDbEntity
  8
0-A
  6
Continuous
 62
     2
370
     9
100
AcDbLine
 10
66.34692221513546
 20
-347.9187385927463
 30
0.0
 11
66.34692221513546
 21
-352.4280991234083
 31
0.0
  0
LINE
  5
325
330
1F
100
AcDbEntity
  8
0-A
  6
Continuous
 62
     2
370
     9
100
AcDbLine
 10
59.17709248201231
 20
-347.4280263054035
 30
0.0
 11
67.79027234059936
 21
-347.4280263054035
 31
0.0
  0
ARC
  5
326
330
1F
100
AcDbEntity
  8
0-A
  6
Continuous
 62
     2
370
     9
100
AcDbCircle
 10
59.17709248201231
 20
-349.7959707356041
 30
0.0
 40
2.367928946800674
100
AcDbArc
 50
52.44277954101562
 51
127.5572204589844
  0
ARC
  5
327
330
1F
100
AcDbEntity
  8
0-A
  6
Continuous
 62
     2
370
     9
100
AcDbCircle
 10
63.4837071847453
 20
-356.0259952722082
 30
0.0
 40
8.597918645755664
100
AcDbArc
 50
70.54800415039065
 51
109.4519958496094
  0
ARC
  5
328
330
1F
100
AcDbEntity
  8
0-A
  6
Continuous
 62
     2
370
     9
100
AcDbCircle
 10
67.79027234059936
 20
-349.7959707356041
 30
0.0
 40
2.367928946800674
100
AcDbArc
 50
52.44277954101562
 51
127.5572204589844
  0
LINE
  5
329
330
1F
100
AcDbEntity
  8
0-A
  6
Continuous
 62
     2
370
     9
100
AcDbLine
 10
69.23362246606325
 20
-352.4280991234083
 30
0.0
 11
68.79607397964105
 21
-352.4280991234083
 31
0.0
  0
LINE
  5
32A
330
1F
100
AcDbEntity
  8
0-A
  6
Continuous
 62
     2
370
     9
100
AcDbLine
 10
57.73359371591255
 20
-352.4280991234083
 30
0.0
 11
58.17109265545582
 21
-352.4280991234083
 31
0.0
  0
LINE
  5
32B
330
1F
100
AcDbEntity
  8
0-A
  6
Continuous
 62
     2
370
     9
100
AcDbLine
 10
66.48367160054227
 20
-342.1092408625947
 30
0.0
 11
60.48374276894833
 21
-342.1092408625947
 31
0.0
  0
LINE
  5
32C
330
1F
100
AcDbEntity
  8
0-A
  6
Continuous
 62
     2
370
     9
100
AcDbLine
 10
66.48367160054227
 20
-347.4280263054035
 30
0.0
 11
66.48367160054227
 21
-342.1092408625947
 31
0.0
  0
LINE
  5
32D
330
1F
100
AcDbEntity
  8
0-A
  6
Continuous
 62
     2
370
     9
100
AcDbLine
 10
65.61362840933202
 20
-347.4280263054035
 30
0.0
 11
65.61362840933202
 21
-342.1092408625947
 31
0.0
  0
LINE
  5
32E
330
1F
100
AcDbEntity
  8
0-A
  6
Continuous
 62
     2
370
     9
100
AcDbLine
 10
61.35358777264332
 20
-347.4280263054035
 30
0.0
 11
61.35358777264332
 21
-342.1092408625947
 31
0.0
  0
LINE
  5
32F
330
1F
100
AcDbEntity
  8
0-A
  6
Continuous
 62
     2
370
     9
100
AcDbLine
 10
60.48374276894833
 20
-347.4280263054035
 30
0.0
 11
60.48374276894833
 21
-342.1092408625947
 31
0.0
  0
LINE
  5
330
330
1F
100
AcDbEntity
  8
0-A
  6
JWW_DASHED1
 62
     2
370
     9
100
AcDbLine
 10
57.83377750478644
 20
-358.1093153301982
 30
0.0
 11
57.83377750478644
 21
-357.8093585261214
 31
0.0
  0
LINE
  5
331
330
1F
100
AcDbEntity
  8
0-A
  6
JWW_DASHED1
 62
     2
370
     9
100
AcDbLine
 10
69.13368641158308
 20
-358.1093153301982
 30
0.0
 11
57.83377750478644
 21
-358.1093153301982
 31
0.0
  0
LINE
  5
332
330
1F
100
AcDbEntity
  8
0-A
  6
JWW_DASHED1
 62
     2
370
     9
100
AcDbLine
 10
69.13368641158308
 20
-358.1093153301982
 30
0.0
 11
69.13368641158308
 21
-357.8093585261214
 31
0.0
  0
LINE
  5
333
330
1F
100
AcDbEntity
  8
0-A
  6
JWW_DASHED1
 62
     2
370
     9
100
AcDbLine
 10
69.13368641158308
 20
-357.8093585261214
 30
0.0
 11
57.83377750478644
 21
-357.8093585261214
 31
0.0
  0
LINE
  5
334
330
1F
100
AcDbEntity
  8
0-A
  6
JWW_DASHED1
 62
     2
370
     9
100
AcDbLine
 10
60.48374276894833
 20
-355.15939326196
 30
0.0
 11
66.48367160054227
 21
-355.15939326196
 31
0.0
  0
LINE
  5
335
330
1F
100
AcDbEntity
  8
0-A
  6
JWW_DASHED1
 62
     2
370
     9
100
AcDbLine
 10
66.4836614883618
 20
-355.1594033745488
 30
0.0
 11
69.13370511791459
 21
-357.8093398190332
 31
0.0
  0
LINE
  5
336
330
1F
100
AcDbEntity
  8
0-A
  6
JWW_DASHED1
 62
     2
370
     9
100
AcDbLine
 10
60.48375288112879
 20
-355.1594033745488
 30
0.0
 11
57.83373402601751
 21
-357.8093150455944
 31
0.0
  0
LINE
  5
337
330
1F
100
AcDbEntity
  8
0-A
  6
JWW_DASHED1
 62
     2
370
     9
100
AcDbLine
 10
66.48367160054227
 20
-352.4280991234083
 30
0.0
 11
66.48367160054227
 21
-355.15939326196
 31
0.0
  0
LINE
  5
338
330
1F
100
AcDbEntity
  8
0-A
  6
JWW_DASHED1
 62
     2
370
     9
100
AcDbLine
 10
65.61362840933202
 20
-355.15939326196
 30
0.0
 11
65.61362840933202
 21
-352.4280991234083
 31
0.0
  0
LINE
  5
339
330
1F
100
AcDbEntity
  8
0-A
  6
JWW_DASHED1
 62
     2
370
     9
100
AcDbLine
 10
61.35358777264332
 20
-355.15939326196
 30
0.0
 11
61.35358777264332
 21
-352.4280991234083
 31
0.0
  0
LINE
  5
33A
330
1F
100
AcDbEntity
  8
0-A
  6
JWW_DASHED1
 62
     2
370
     9
100
AcDbLine
 10
60.48374276894833
 20
-352.4280991234083
 30
0.0
 11
60.48374276894833
 21
-355.15939326196
 31
0.0
  0
LINE
  5
33B
330
1F
100
AcDbEntity
  8
0-8
  6
Continuous
 62
     2
370
     9
100
AcDbLine
 10
245.4835633161626
 20
-358.6277374606499
 30
0.0
 11
-114.5162294235286
 21
-358.6277374606499
 31
0.0
  0
LINE
  5
33C
330
1F
100
AcDbEntity
  8
0-8
  6
Continuous
 62
     2
370
     9
100
AcDbLine
 10
-192.1170114994327
 20
78.9717718094767
 30
0.0
 11
-190.5167464089029
 21
78.9717718094767
 31
0.0
  0
LINE
  5
33D
330
1F
100
AcDbEntity
  8
0-8
  6
Continuous
 62
     2
370
     9
100
AcDbLine
 10
-188.4167514990934
 20
-119.4286462106465
 30
0.0
 11
-186.6168387628707
 21
-119.4286462106465
 31
0.0
  0
LINE
  5
33E
330
1F
100
AcDbEntity
  8
0-8
  6
Continuous
 62
     2
370
     9
100
AcDbLine
 10
-186.6168387628707
 20
-121.0287626605404
 30
0.0
 11
-188.4167514990934
 21
-121.0287626605404
 31
0.0
  0
ARC
  5
33F
330
1F
100
AcDbEntity
  8
0-8
  6
Continuous
 62
     2
370
     9
100
AcDbCircle
 10
-188.4167514990934
 20
-118.9286191100945
 30
0.0
 40
2.099999941914238
100
AcDbArc
 50
180.0
 51
270.0
  0
ARC
  5
340
330
1F
100
AcDbEntity
  8
0-8
  6
Continuous
 62
     2
370
     9
100
AcDbCircle
 10
-188.4167514990934
 20
-118.9286191100945
 30
0.0
 40
0.5000000046026752
100
AcDbArc
 50
180.0
 51
270.0
  0
LINE
  5
341
330
1F
100
AcDbEntity
  8
0-8
  6
Continuous
 62
     2
370
     9
100
AcDbLine
 10
-190.5165804121305
 20
-95.02853024384962
 30
0.0
 11
-190.5165804121305
 21
-91.02867258066175
 31
0.0
  0
LINE
  5
342
330
1F
100
AcDbEntity
  8
0-8
  6
Continuous
 62
     2
370
     9
100
AcDbLine
 10
-188.9165804121305
 20
-91.02867258066175
 30
0.0
 11
-190.5165804121305
 21
-91.02867258066175
 31
0.0
  0
LINE
  5
343
330
1F
100
AcDbEntity
  8
0-8
  6
Continuous
 62
     2
370
     9
100
AcDbLine
 10
-185.9166126028733
 20
-97.7159157145606
 30
0.0
 11
-185.9166126028733
 21
-108.3408970387454
 31
0.0
  0
LINE
  5
344
330
1F
100
AcDbEntity
  8
0-8
  6
Continuous
 62
     2
370
     9
100
AcDbLine
 10
-185.9166126028733
 20
-108.6913041343896
 30
0.0
 11
-188.9165804121305
 21
-111.6912719436468
 31
0.0
  0
LINE
  5
345
330
1F
100
AcDbEntity
  8
0-8
  6
Continuous
 62
     2
370
     9
100
AcDbLine
 10
-185.9166126028733
 20
-97.36575635330968
 30
0.0
 11
-188.9165804121305
 21
-94.36578854405246
 31
0.0
  0
LINE
  5
346
330
1F
100
AcDbEntity
  8
0-8
  6
Continuous
 62
     2
370
     9
100
AcDbLine
 10
-188.9165804121305
 20
-118.9286191100945
 30
0.0
 11
-188.9165804121305
 21
-91.02867258066175
 31
0.0
  0
LINE
  5
347
330
1F
100
AcDbEntity
  8
0-A
  6
Continuous
 62
     2
370
     9
100
AcDbLine
 10
-181.4072520722113
 20
-97.27841677501686
 30
0.0
 11
-185.9166126028733
 21
-97.27841677501686
 31
0.0
  0
LINE
  5
348
330
1F
100
AcDbEntity
  8
0-A
  6
Continuous
 62
     2
370
     9
100
AcDbLine
 10
-181.4072520722113
 20
-108.7784455251676
 30
0.0
 11
-185.9166126028733
 21
-108.7784455251676
 31
0.0
  0
LINE
  5
349
330
1F
100
AcDbEntity
  8
0-A
  6
Continuous
 62
     2
370
     9
100
AcDbLine
 10
-181.4072520722113
 20
-100.1650674790653
 30
0.0
 11
-185.9166126028733
 21
-100.1650674790653
 31
0.0
  0
LINE
  5
34A
330
1F
100
AcDbEntity
  8
0-A
  6
Continuous
 62
     2
370
     9
100
AcDbLine
 10
-181.4072520722113
 20
-105.8917452742398
 30
0.0
 11
-185.9166126028733
 21
-105.8917452742398
 31
0.0
  0
LINE
  5
34B
330
1F
100
AcDbEntity
  8
0-A
  6
Continuous
 62
     2
370
     9
100
AcDbLine
 10
-180.9165397848681
 20
-98.72191554111663
 30
0.0
 11
-180.9165397848681
 21
-107.3350953997041
 31
0.0
  0
ARC
  5
34C
330
1F
100
AcDbEntity
  8
0-A
  6
Continuous
 62
     2
370
     9
100
AcDbCircle
 10
-183.2844842150682
 20
-98.72191554111663
 30
0.0
 40
2.367928946800674
100
AcDbArc
 50
322.4427795410156
 51
37.55722045898438
  0
ARC
  5
34D
330
1F
100
AcDbEntity
  8
0-A
  6
Continuous
 62
     2
370
     9
100
AcDbCircle
 10
-189.5145087516723
 20
-103.0285302438496
 30
0.0
 40
8.597918645755664
100
AcDbArc
 50
340.5480041503906
 51
19.4519958496094
  0
ARC
  5
34E
330
1F
100
AcDbEntity
  8
0-A
  6
Continuous
 62
     2
370
     9
100
AcDbCircle
 10
-183.2844842150682
 20
-107.3350953997041
 30
0.0
 40
2.367928946800674
100
AcDbArc
 50
322.4427795410156
 51
37.55722045898438
  0
LINE
  5
34F
330
1F
100
AcDbEntity
  8
0-A
  6
Continuous
 62
     2
370
     9
100
AcDbLine
 10
-185.9166126028733
 20
-108.7784455251676
 30
0.0
 11
-185.9166126028733
 21
-108.3408970387454
 31
0.0
  0
LINE
  5
350
330
1F
100
AcDbEntity
  8
0-A
  6
Continuous
 62
     2
370
     9
100
AcDbLine
 10
-185.9166126028733
 20
-97.27841677501686
 30
0.0
 11
-185.9166126028733
 21
-97.7159157145606
 31
0.0
  0
LINE
  5
351
330
1F
100
AcDbEntity
  8
0-A
  6
Continuous
 62
     2
370
     9
100
AcDbLine
 10
-175.5977543420593
 20
-106.0284946596466
 30
0.0
 11
-175.5977543420593
 21
-100.0285658280526
 31
0.0
  0
LINE
  5
352
330
1F
100
AcDbEntity
  8
0-A
  6
Continuous
 62
     2
370
     9
100
AcDbLine
 10
-180.9165397848681
 20
-106.0284946596466
 30
0.0
 11
-175.5977543420593
 21
-106.0284946596466
 31
0.0
  0
LINE
  5
353
330
1F
100
AcDbEntity
  8
0-A
  6
Continuous
 62
     2
370
     9
100
AcDbLine
 10
-180.9165397848681
 20
-105.1584514684363
 30
0.0
 11
-175.5977543420593
 21
-105.1584514684363
 31
0.0
  0
LINE
  5
354
330
1F
100
AcDbEntity
  8
0-A
  6
Continuous
 62
     2
370
     9
100
AcDbLine
 10
-180.9165397848681
 20
-100.8984108317481
 30
0.0
 11
-175.5977543420593
 21
-100.8984108317481
 31
0.0
  0
LINE
  5
355
330
1F
100
AcDbEntity
  8
0-A
  6
Continuous
 62
     2
370
     9
100
AcDbLine
 10
-180.9165397848681
 20
-100.0285658280526
 30
0.0
 11
-175.5977543420593
 21
-100.0285658280526
 31
0.0
  0
LINE
  5
356
330
1F
100
AcDbEntity
  8
0-A
  6
JWW_DASHED1
 62
     2
370
     9
100
AcDbLine
 10
-191.5978288096633
 20
-97.3786005638903
 30
0.0
 11
-191.2978720055864
 21
-97.3786005638903
 31
0.0
  0
LINE
  5
357
330
1F
100
AcDbEntity
  8
0-A
  6
JWW_DASHED1
 62
     2
370
     9
100
AcDbLine
 10
-191.5978288096633
 20
-108.6785094706874
 30
0.0
 11
-191.5978288096633
 21
-97.3786005638903
 31
0.0
  0
LINE
  5
358
330
1F
100
AcDbEntity
  8
0-A
  6
JWW_DASHED1
 62
     2
370
     9
100
AcDbLine
 10
-191.5978288096633
 20
-108.6785094706874
 30
0.0
 11
-191.2978720055864
 21
-108.6785094706874
 31
0.0
  0
LINE
  5
359
330
1F
100
AcDbEntity
  8
0-A
  6
JWW_DASHED1
 62
     2
370
     9
100
AcDbLine
 10
-191.2978720055864
 20
-108.6785094706874
 30
0.0
 11
-191.2978720055864
 21
-97.3786005638903
 31
0.0
  0
LINE
  5
35A
330
1F
100
AcDbEntity
  8
0-A
  6
JWW_DASHED1
 62
     2
370
     9
100
AcDbLine
 10
-188.6479067414241
 20
-100.0285658280526
 30
0.0
 11
-188.6479067414241
 21
-106.0284946596466
 31
0.0
  0
LINE
  5
35B
330
1F
100
AcDbEntity
  8
0-A
  6
JWW_DASHED1
 62
     2
370
     9
100
AcDbLine
 10
-188.6479168540138
 20
-106.0284845474661
 30
0.0
 11
-191.2978532984982
 21
-108.6785281770189
 31
0.0
  0
LINE
  5
35C
330
1F
100
AcDbEntity
  8
0-A
  6
JWW_DASHED1
 62
     2
370
     9
100
AcDbLine
 10
-188.6479168540138
 20
-100.0285759402331
 30
0.0
 11
-191.2978285250585
 21
-97.37855708512137
 31
0.0
  0
LINE
  5
35D
330
1F
100
AcDbEntity
  8
0-A
  6
JWW_DASHED1
 62
     2
370
     9
100
AcDbLine
 10
-185.9166126028733
 20
-106.0284946596466
 30
0.0
 11
-188.6479067414241
 21
-106.0284946596466
 31
0.0
  0
LINE
  5
35E
330
1F
100
AcDbEntity
  8
0-A
  6
JWW_DASHED1
 62
     2
370
     9
100
AcDbLine
 10
-188.6479067414241
 20
-105.1584514684363
 30
0.0
 11
-185.9166126028733
 21
-105.1584514684363
 31
0.0
  0
LINE
  5
35F
330
1F
100
AcDbEntity
  8
0-A
  6
JWW_DASHED1
 62
     2
370
     9
100
AcDbLine
 10
-188.6479067414241
 20
-100.8984108317481
 30
0.0
 11
-185.9166126028733
 21
-100.8984108317481
 31
0.0
  0
LINE
  5
360
330
1F
100
AcDbEntity
  8
0-A
  6
JWW_DASHED1
 62
     2
370
     9
100
AcDbLine
 10
-185.9166126028733
 20
-100.0285658280526
 30
0.0
 11
-188.6479067414241
 21
-100.0285658280526
 31
0.0
  0
LINE
  5
361
330
1F
100
AcDbEntity
  8
0-8
  6
JWW_CENTER1
 62
     2
370
     9
100
AcDbLine
 10
-173.991789847237
 20
-103.0285302438496
 30
0.0
 11
-194.9161450594368
 21
-103.0285302438496
 31
0.0
  0
LINE
  5
362
330
1F
100
AcDbEntity
  8
通り芯
  6
Continuous
 62
     4
370
     9
100
AcDbLine
 10
80.71642804430621
 20
-347.0284146798791
 30
0.0
 11
66.48367160054227
 21
-347.0284146798791
 31
0.0
  0
LINE
  5
363
330
1F
100
AcDbEntity
  8
通り芯
  6
Continuous
 62
     4
370
     9
100
AcDbLine
 10
60.48374276894833
 20
-347.0284146798791
 30
0.0
 11
41.25077427543897
 21
-347.0284146798791
 31
0.0
  0
LINE
  5
364
330
1F
100
AcDbEntity
  8
0-8
  6
Continuous
 62
     2
370
     9
100
AcDbLine
 10
28.48986091470442
 20
-357.0277448779535
 30
0.0
 11
-114.5162294235286
 21
-357.0277448779535
 31
0.0
  0
LINE
  5
365
330
1F
100
AcDbEntity
  8
0-8
  6
Continuous
 62
     2
370
     9
100
AcDbLine
 10
-190.5167464089029
 20
-134.0368502223484
 30
0.0
 11
-190.5167464089029
 21
78.9717718094767
 31
0.0
  0
LINE
  5
366
330
1F
100
AcDbEntity
  8
通り芯
  6
Continuous
 62
     4
370
     9
100
AcDbLine
 10
-176.5169825243031
 20
-126.6950742350348
 30
0.0
 11
-176.5169825243031
 21
-106.0284946596466
 31
0.0
  0
LINE
  5
367
330
1F
100
AcDbEntity
  8
通り芯
  6
Continuous
 62
     4
370
     9
100
AcDbLine
 10
-176.5169825243031
 20
-100.0285658280526
 30
0.0
 11
-176.5169825243031
 21
-76.0283370051311
 31
0.0
  0
LWPOLYLINE
  5
368
330
1F
100
AcDbEntity
  8
その他
  6
Continuous
 62
     7
370
     9
100
AcDbPolyline
 90
        4
 70
     1
 43
0.8
 10
160.4803967177476
 20
-357.0277448779536
 42
0.4142135623731
 10
160.0803967177476
 20
-356.6277448779537
 42
0.4142135623731
 10
159.6803967177476
 20
-357.0277448779536
 42
0.4142135623731
 10
160.0803967177476
 20
-357.4277448779536
 42
0.4142135623731
  0
LINE
  5
369
330
1F
100
AcDbEntity
  8
その他
  6
Continuous
 62
     7
370
     9
100
AcDbLine
 10
160.0803967177476
 20
-357.0277448779536
 30
0.0
 11
160.0803967177476
 21
-332.0283370051313
 31
0.0
  0
TEXT
  5
36A
330
1F
100
AcDbEntity
  8
その他
  6
Continuous
 62
     2
370
     5
100
AcDbText
 10
155.4243967177476
 20
-353.0280409415425
 30
0.0
 40
12.192
  1
25
 50
90.0
 41
1.0625
  7
ＭＳ ゴシック
100
AcDbText
  0
LINE
  5
36B
330
1F
100
AcDbEntity
  8
0-8
  6
Continuous
 62
     2
370
     9
100
AcDbLine
 10
-192.1170114994327
 20
78.9717718094767
 30
0.0
 11
-192.1170114994327
 21
-174.0454304340536
 31
0.0
  0
LINE
  5
36C
330
1F
100
AcDbEntity
  8
0-8
  6
Continuous
 62
     2
370
     9
100
AcDbLine
 10
-190.5167464089029
 20
-173.9592063849893
 30
0.0
 11
-190.5167464089029
 21
-138.0202201629433
 31
0.0
  0
LINE
  5
36D
330
1F
100
AcDbEntity
  8
0-8
  6
Continuous
 62
     2
370
     9
100
AcDbLine
 10
-188.9168776934023
 20
409.1449313221187
 30
0.0
 11
-188.9168776934023
 21
365.1449247237237
 31
0.0
  0
LINE
  5
36E
330
1F
100
AcDbEntity
  8
0-8
  6
Continuous
 62
     2
370
     9
100
AcDbLine
 10
-192.1170114994327
 20
517.1448394158991
 30
0.0
 11
-190.5170436901747
 21
517.1448394158991
 31
0.0
  0
LINE
  5
36F
330
1F
100
AcDbEntity
  8
0-8
  6
JWW_CENTER1
 62
     2
370
     9
100
AcDbLine
 10
-194.7669767635946
 20
502.1448191493993
 30
0.0
 11
-187.2102850010308
 21
502.1448191493993
 31
0.0
  0
LINE
  5
370
330
1F
100
AcDbEntity
  8
0-A
  6
Continuous
 62
     2
370
     9
100
AcDbLine
 10
-181.4073016190898
 20
392.8951405855118
 30
0.0
 11
-185.9166621497518
 21
392.8951405855118
 31
0.0
  0
LINE
  5
371
330
1F
100
AcDbEntity
  8
0-A
  6
Continuous
 62
     2
370
     9
100
AcDbLine
 10
-181.4073016190898
 20
381.3951118353611
 30
0.0
 11
-185.9166621497518
 21
381.3951118353611
 31
0.0
  0
LINE
  5
372
330
1F
100
AcDbEntity
  8
0-A
  6
Continuous
 62
     2
370
     9
100
AcDbLine
 10
-181.4073016190898
 20
390.0085394283421
 30
0.0
 11
-185.9166621497518
 21
390.0085394283421
 31
0.0
  0
LINE
  5
373
330
1F
100
AcDbEntity
  8
0-A
  6
Continuous
 62
     2
370
     9
100
AcDbLine
 10
-181.4073016190898
 20
384.2817129925313
 30
0.0
 11
-185.9166621497518
 21
384.2817129925313
 31
0.0
  0
LINE
  5
374
330
1F
100
AcDbEntity
  8
0-A
  6
Continuous
 62
     2
370
     9
100
AcDbLine
 10
-180.9165893317465
 20
391.4515427256544
 30
0.0
 11
-180.9165893317465
 21
382.8385115077037
 31
0.0
  0
ARC
  5
375
330
1F
100
AcDbEntity
  8
0-A
  6
Continuous
 62
     2
370
     9
100
AcDbCircle
 10
-183.2845337619467
 20
391.4515427256544
 30
0.0
 40
2.367928946800674
100
AcDbArc
 50
322.4427795410156
 51
37.55722045898439
  0
ARC
  5
376
330
1F
100
AcDbEntity
  8
0-A
  6
Continuous
 62
     2
370
     9
100
AcDbCircle
 10
-189.5145582985508
 20
387.1449280229212
 30
0.0
 40
8.597919419925645
100
AcDbArc
 50
340.5480041503906
 51
19.45199584960935
  0
ARC
  5
377
330
1F
100
AcDbEntity
  8
0-A
  6
Continuous
 62
     2
370
     9
100
AcDbCircle
 10
-183.2845337619467
 20
382.8385115077037
 30
0.0
 40
2.367928946800674
100
AcDbArc
 50
322.4427795410156
 51
37.55722045898439
  0
LINE
  5
378
330
1F
100
AcDbEntity
  8
0-A
  6
Continuous
 62
     2
370
     9
100
AcDbLine
 10
-185.9166621497518
 20
392.8951405855118
 30
0.0
 11
-185.9166621497518
 21
392.4575425522109
 31
0.0
  0
LINE
  5
379
330
1F
100
AcDbEntity
  8
0-A
  6
Continuous
 62
     2
370
     9
100
AcDbLine
 10
-185.9166621497518
 20
381.3951118353611
 30
0.0
 11
-185.9166621497518
 21
381.8327098686624
 31
0.0
  0
LINE
  5
37A
330
1F
100
AcDbEntity
  8
0-8
  6
Continuous
 62
     2
370
     9
100
AcDbLine
 10
-185.9166621497518
 20
392.4575425522109
 30
0.0
 11
-185.9166621497518
 21
382.7481676147826
 31
0.0
  0
LINE
  5
37B
330
1F
100
AcDbEntity
  8
0-8
  6
Continuous
 62
     2
370
     9
100
AcDbLine
 10
-185.9166621497518
 20
382.7481676147826
 30
0.0
 11
-185.9166621497518
 21
381.8327098686624
 31
0.0
  0
LINE
  5
37C
330
1F
100
AcDbEntity
  8
0-8
  6
Continuous
 62
     2
370
     9
100
AcDbLine
 10
-185.9166621497518
 20
381.4821541323817
 30
0.0
 11
-188.916629959009
 21
378.4821863231245
 31
0.0
  0
LINE
  5
37D
330
1F
100
AcDbEntity
  8
0-8
  6
Continuous
 62
     2
370
     9
100
AcDbLine
 10
-185.9166621497518
 20
392.8077019134609
 30
0.0
 11
-188.916629959009
 21
395.8076697227183
 31
0.0
  0
LINE
  5
37E
330
1F
100
AcDbEntity
  8
0-8
  6
Continuous
 62
     2
370
     9
100
AcDbLine
 10
-192.1170114994327
 20
236.1449280229214
 30
0.0
 11
-192.1170114994327
 21
517.1448394158991
 31
0.0
  0
LINE
  5
37F
330
1F
100
AcDbEntity
  8
0-8
  6
Continuous
 62
     2
370
     9
100
AcDbLine
 10
-190.5170436901747
 20
517.1448394158991
 30
0.0
 11
-190.5170436901747
 21
236.1449280229214
 31
0.0
  0
LINE
  5
380
330
1F
100
AcDbEntity
  8
0-8
  6
Continuous
 62
     2
370
     9
100
AcDbLine
 10
-184.516942946819
 20
409.1449313221187
 30
0.0
 11
-190.5170436901747
 21
409.1449313221187
 31
0.0
  0
LINE
  5
381
330
1F
100
AcDbEntity
  8
0-8
  6
Continuous
 62
     2
370
     9
100
AcDbLine
 10
-184.516942946819
 20
365.1449247237237
 30
0.0
 11
-190.5170436901747
 21
365.1449247237237
 31
0.0
  0
LINE
  5
382
330
1F
100
AcDbEntity
  8
通り芯
  6
Continuous
 62
     4
370
     9
100
AcDbLine
 10
-184.5172402280914
 20
393.1449280229214
 30
0.0
 11
-184.5172402280914
 21
392.8951405855118
 31
0.0
  0
LINE
  5
383
330
1F
100
AcDbEntity
  8
通り芯
  6
Continuous
 62
     4
370
     9
100
AcDbLine
 10
-184.5172402280914
 20
381.3951118353611
 30
0.0
 11
-184.5172402280914
 21
381.1449280229214
 31
0.0
  0
LINE
  5
384
330
1F
100
AcDbEntity
  8
通り芯
  6
JWW_CENTER1
 62
     4
370
     9
100
AcDbLine
 10
-174.2155300054123
 20
387.1449280229214
 30
0.0
 11
-195.9012310374596
 21
387.1449280229214
 31
0.0
  0
LINE
  5
385
330
1F
100
AcDbEntity
  8
通り芯
  6
Continuous
 62
     4
370
     9
100
AcDbLine
 10
-176.5172798055755
 20
330.0016654772127
 30
0.0
 11
-190.5170436901747
 21
329.5002843851136
 31
0.0
  0
LINE
  5
386
330
1F
100
AcDbEntity
  8
通り芯
  6
Continuous
 62
     4
370
     9
100
AcDbLine
 10
-192.1170114994327
 20
329.4429838753234
 30
0.0
 11
-211.4552813208045
 21
328.7504119918066
 31
0.0
  0
LINE
  5
387
330
1F
100
AcDbEntity
  8
通り芯
  6
JWW_CENTER1
 62
     4
370
     9
100
AcDbLine
 10
-193.7049939698398
 20
-136.028337005131
 30
0.0
 11
-169.6496081850576
 21
-136.028337005131
 31
0.0
  0
LINE
  5
388
330
1F
100
AcDbEntity
  8
寸法
  6
Continuous
 62
     7
370
     9
100
AcDbLine
 10
-191.5978288096637
 20
-103.02844143569
 30
0.0
 11
-195.4246631333147
 21
-93.78964611057722
 31
0.0
  0
LINE
  5
389
330
1F
100
AcDbEntity
  8
寸法
  6
Continuous
 62
     7
370
     9
100
AcDbLine
 10
-191.5978288096637
 20
-103.02844143569
 30
0.0
 11
-197.6854430997507
 21
-95.09490803277754
 31
0.0
  0
TEXT
  5
38A
330
1F
100
AcDbEntity
  8
寸法
  6
Continuous
 62
     7
370
     9
100
AcDbText
 10
-372.4134090358361
 20
94.68651147518221
 30
0.0
 40
9.144
  1
固定金具：ＳＧＨＣ
 41
1.148148148148148
  7
ＭＳ ゴシック
100
AcDbText
  0
LINE
  5
38B
330
1F
100
AcDbEntity
  8
寸法
  6
Continuous
 62
     7
370
     9
100
AcDbLine
 10
-372.2978341775902
 20
88.9996953204045
 30
0.0
 11
-249.229519480685
 21
88.9996953204045
 31
0.0
  0
LINE
  5
38C
330
1F
100
AcDbEntity
  8
寸法
  6
Continuous
 62
     7
370
     9
100
AcDbLine
 10
-192.4322340754272
 20
-9.376088733492224
 30
0.0
 11
-249.229519480685
 21
88.9996953204045
 31
0.0
  0
LINE
  5
38D
330
1F
100
AcDbEntity
  8
寸法
  6
Continuous
 62
     7
370
     9
100
AcDbLine
 10
-192.4322340754272
 20
-9.376088733492224
 30
0.0
 11
-198.5198483655142
 21
-1.442555330579822
 31
0.0
  0
LINE
  5
38E
330
1F
100
AcDbEntity
  8
寸法
  6
Continuous
 62
     7
370
     9
100
AcDbLine
 10
-192.4322340754272
 20
-9.376088733492224
 30
0.0
 11
-196.2590683990782
 21
-0.1372934083792785
 31
0.0
  0
LINE
  5
38F
330
1F
100
AcDbEntity
  8
寸法
  6
Continuous
 62
     7
370
     9
100
AcDbLine
 10
-191.5978288096637
 20
-103.02844143569
 30
0.0
 11
-239.4091417282206
 21
-20.2168182841761
 31
0.0
  0
LINE
  5
390
330
1F
100
AcDbEntity
  8
通り芯
  6
Continuous
 62
     4
370
     9
100
AcDbLine
 10
-176.5172798055755
 20
447.6449280229214
 30
0.0
 11
-176.5172798055755
 21
236.1449280229214
 31
0.0
  0
LINE
  5
391
330
1F
100
AcDbEntity
  8
0-A
  6
Continuous
 62
     2
370
     9
100
AcDbLine
 10
-180.9165893317465
 20
390.1448924387184
 30
0.0
 11
-176.5172798055755
 21
390.1448924387184
 31
0.0
  0
LINE
  5
392
330
1F
100
AcDbEntity
  8
0-A
  6
Continuous
 62
     2
370
     9
100
AcDbLine
 10
-180.9165893317465
 20
389.2750474350234
 30
0.0
 11
-176.5172798055755
 21
389.2750474350234
 31
0.0
  0
LINE
  5
393
330
1F
100
AcDbEntity
  8
0-A
  6
Continuous
 62
     2
370
     9
100
AcDbLine
 10
-180.9165893317465
 20
385.0150067983347
 30
0.0
 11
-176.5172798055755
 21
385.0150067983347
 31
0.0
  0
LINE
  5
394
330
1F
100
AcDbEntity
  8
0-A
  6
Continuous
 62
     2
370
     9
100
AcDbLine
 10
-180.9165893317465
 20
384.1449636071245
 30
0.0
 11
-176.5172798055755
 21
384.1449636071245
 31
0.0
  0
LINE
  5
395
330
1F
100
AcDbEntity
  8
その他
  6
Continuous
 62
     7
370
     9
100
AcDbLine
 10
-165.5167482812712
 20
134.7053088589218
 30
0.0
 11
90.4835585441092
 21
134.7053088589218
 31
0.0
  0
LWPOLYLINE
  5
396
330
1F
100
AcDbEntity
  8
その他
  6
Continuous
 62
     7
370
     9
100
AcDbPolyline
 90
        4
 70
     1
 43
0.8
 10
-165.1167482812712
 20
134.7053088589218
 42
0.4142135623731
 10
-165.5167482812712
 20
135.1053088589218
 42
0.4142135623731
 10
-165.9167482812713
 20
134.7053088589218
 42
0.4142135623731
 10
-165.5167482812712
 20
134.3053088589218
 42
0.4142135623731
  0
LWPOLYLINE
  5
397
330
1F
100
AcDbEntity
  8
その他
  6
Continuous
 62
     7
370
     9
100
AcDbPolyline
 90
        4
 70
     1
 43
0.8
 10
90.8835585441092
 20
134.7053088589218
 42
0.4142135623731
 10
90.4835585441092
 20
135.1053088589218
 42
0.4142135623731
 10
90.0835585441092
 20
134.7053088589218
 42
0.4142135623731
 10
90.4835585441092
 20
134.3053088589218
 42
0.4142135623731
  0
TEXT
  5
398
330
1F
100
AcDbEntity
  8
その他
  6
Continuous
 62
     2
370
   211
100
AcDbText
 10
-50.51659486858102
 20
139.3613088589218
 30
0.0
 40
12.192
  1
256
 41
1.083333333333333
  7
ＭＳ ゴシック
100
AcDbText
  0
LINE
  5
399
330
1F
100
AcDbEntity
  8
その他
  6
Continuous
 62
     7
370
     9
100
AcDbLine
 10
90.4835585441092
 20
134.7053088589218
 30
0.0
 11
245.4835633161626
 21
134.7053088589218
 31
0.0
  0
LWPOLYLINE
  5
39A
330
1F
100
AcDbEntity
  8
その他
  6
Continuous
 62
     7
370
     9
100
AcDbPolyline
 90
        4
 70
     1
 43
0.8
 10
245.8835633161627
 20
134.7053088589218
 42
0.4142135623731
 10
245.4835633161626
 20
135.1053088589218
 42
0.4142135623731
 10
245.0835633161626
 20
134.7053088589218
 42
0.4142135623731
 10
245.4835633161626
 20
134.3053088589218
 42
0.4142135623731
  0
LINE
  5
39B
330
1F
100
AcDbEntity
  8
その他
  6
Continuous
 62
     7
370
     9
100
AcDbLine
 10
-165.5167482812712
 20
134.7053088589218
 30
0.0
 11
-215.4544519101971
 21
134.7053088589218
 31
0.0
  0
LWPOLYLINE
  5
39C
330
1F
100
AcDbEntity
  8
その他
  6
Continuous
 62
     7
370
     9
100
AcDbPolyline
 90
        4
 70
     1
 43
0.8
 10
-215.0544519101971
 20
134.7053088589218
 42
0.4142135623731
 10
-215.4544519101971
 20
135.1053088589218
 42
0.4142135623731
 10
-215.8544519101971
 20
134.7053088589218
 42
0.4142135623731
 10
-215.4544519101971
 20
134.3053088589218
 42
0.4142135623731
  0
TEXT
  5
39D
330
1F
100
AcDbEntity
  8
その他
  6
Continuous
 62
     2
370
     5
100
AcDbText
 10
-198.9856000957342
 20
139.3613088589218
 30
0.0
 40
12.192
  1
50
 41
1.0625
  7
ＭＳ ゴシック
100
AcDbText
  0
LINE
  5
39E
330
1F
100
AcDbEntity
  8
寸法
  6
Continuous
 62
     7
370
     9
100
AcDbLine
 10
-125.4027677153577
 20
-160.5093137788452
 30
0.0
 11
203.9847839076991
 21
168.8782378442116
 31
0.0
  0
LINE
  5
39F
330
1F
100
AcDbEntity
  8
寸法
  6
Continuous
 62
     7
370
     9
100
AcDbLine
 10
353.5335550391925
 20
168.8782378442116
 30
0.0
 11
203.9847839076991
 21
168.8782378442116
 31
0.0
  0
TEXT
  5
3A0
330
1F
100
AcDbEntity
  8
その他
  6
Continuous
 62
     2
370
   211
100
AcDbText
 10
136.7276112090928
 20
139.3613088589218
 30
0.0
 40
12.192
  1
155
 41
1.083333333333333
  7
ＭＳ ゴシック
100
AcDbText
  0
LINE
  5
3A1
330
1F
100
AcDbEntity
  8
その他
  6
Continuous
 62
     7
370
     9
100
AcDbLine
 10
-159.8386304354306
 20
107.2848780426083
 30
0.0
 11
-130.8386441035348
 21
107.2848780426083
 31
0.0
  0
LWPOLYLINE
  5
3A2
330
1F
100
AcDbEntity
  8
その他
  6
Continuous
 62
     7
370
     9
100
AcDbPolyline
 90
        4
 70
     1
 43
0.8
 10
-159.4386304354306
 20
107.2848780426083
 42
0.4142135623731
 10
-159.8386304354306
 20
107.6848780426083
 42
0.4142135623731
 10
-160.2386304354306
 20
107.2848780426083
 42
0.4142135623731
 10
-159.8386304354306
 20
106.8848780426083
 42
0.4142135623731
  0
LWPOLYLINE
  5
3A3
330
1F
100
AcDbEntity
  8
その他
  6
Continuous
 62
     7
370
     9
100
AcDbPolyline
 90
        4
 70
     1
 43
0.8
 10
-130.4386441035348
 20
107.2848780426083
 42
0.4142135623731
 10
-130.8386441035348
 20
107.6848780426083
 42
0.4142135623731
 10
-131.2386441035348
 20
107.2848780426083
 42
0.4142135623731
 10
-130.8386441035348
 20
106.8848780426083
 42
0.4142135623731
  0
TEXT
  5
3A4
330
1F
100
AcDbEntity
  8
その他
  6
Continuous
 62
     2
370
     5
100
AcDbText
 10
-153.8386372694827
 20
111.9408780426083
 30
0.0
 40
12.192
  1
29
 41
1.0625
  7
ＭＳ ゴシック
100
AcDbText
  0
LINE
  5
3A5
330
1F
100
AcDbEntity
  8
その他
  6
Continuous
 62
     7
370
     9
100
AcDbLine
 10
-130.8386441035348
 20
107.2848780426083
 30
0.0
 11
55.16136936582211
 21
107.2848780426083
 31
0.0
  0
LWPOLYLINE
  5
3A6
330
1F
100
AcDbEntity
  8
その他
  6
Continuous
 62
     7
370
     9
100
AcDbPolyline
 90
        4
 70
     1
 43
0.8
 10
55.56136936582211
 20
107.2848780426083
 42
0.4142135623731
 10
55.16136936582211
 20
107.6848780426083
 42
0.4142135623731
 10
54.76136936582211
 20
107.2848780426083
 42
0.4142135623731
 10
55.16136936582211
 20
106.8848780426083
 42
0.4142135623731
  0
TEXT
  5
3A7
330
1F
100
AcDbEntity
  8
その他
  6
Continuous
 62
     2
370
     5
100
AcDbText
 10
-50.83863736885633
 20
111.9408780426083
 30
0.0
 40
12.192
  1
186
 41
1.083333333333333
  7
ＭＳ ゴシック
100
AcDbText
  0
LINE
  5
3A8
330
1F
100
AcDbEntity
  8
その他
  6
Continuous
 62
     7
370
     9
100
AcDbLine
 10
-190.5167464089029
 20
107.2848780426083
 30
0.0
 11
-165.5167482812712
 21
107.2848780426083
 31
0.0
  0
LWPOLYLINE
  5
3A9
330
1F
100
AcDbEntity
  8
その他
  6
Continuous
 62
     7
370
     9
100
AcDbPolyline
 90
        4
 70
     1
 43
0.8
 10
-190.1167464089029
 20
107.2848780426083
 42
0.4142135623731
 10
-190.5167464089029
 20
107.6848780426083
 42
0.4142135623731
 10
-190.9167464089029
 20
107.2848780426083
 42
0.4142135623731
 10
-190.5167464089029
 20
106.8848780426083
 42
0.4142135623731
  0
LWPOLYLINE
  5
3AA
330
1F
100
AcDbEntity
  8
その他
  6
Continuous
 62
     7
370
     9
100
AcDbPolyline
 90
        4
 70
     1
 43
0.8
 10
-165.1167482812712
 20
107.2848780426083
 42
0.4142135623731
 10
-165.5167482812712
 20
107.6848780426083
 42
0.4142135623731
 10
-165.9167482812713
 20
107.2848780426083
 42
0.4142135623731
 10
-165.5167482812712
 20
106.8848780426083
 42
0.4142135623731
  0
TEXT
  5
3AB
330
1F
100
AcDbEntity
  8
その他
  6
Continuous
 62
     2
370
     5
100
AcDbText
 10
-186.5167473450871
 20
111.9408780426083
 30
0.0
 40
12.192
  1
25
 41
1.0625
  7
ＭＳ ゴシック
100
AcDbText
  0
LINE
  5
3AC
330
1F
100
AcDbEntity
  8
仕上
  6
Continuous
 62
     3
370
     9
100
AcDbLine
 10
-58.69086974225979
 20
-228.7310412473515
 30
0.0
 11
-105.166373801165
 21
-273.3694705638505
 31
0.0
  0
LINE
  5
3AD
330
1F
100
AcDbEntity
  8
0-A
  6
Continuous
 62
     2
370
     9
100
AcDbLine
 10
-107.5337204013466
 20
-272.4160811232435
 30
0.0
 11
-106.1197020281151
 21
-272.4161802170011
 31
0.0
  0
LINE
  5
3AE
330
1F
100
AcDbEntity
  8
0-A
  6
Continuous
 62
     2
370
     9
100
AcDbLine
 10
-100.4629844257646
 20
-278.0730464599879
 30
0.0
 11
-100.4629844257646
 21
-279.4869161925833
 31
0.0
  0
LINE
  5
3AF
330
1F
100
AcDbEntity
  8
0-A
  6
JWW_HOJO
 62
     2
370
     9
100
AcDbLine
 10
-103.6450831679221
 20
-274.8909477178306
 30
0.0
 11
-102.937751926594
 21
-275.5978825841282
 31
0.0
  0
LINE
  5
3B0
330
1F
100
AcDbEntity
  8
0-A
  6
Continuous
 62
     2
370
     9
100
AcDbLine
 10
-105.2357361639705
 20
-276.1282323744879
 30
0.0
 11
-103.82166824386
 21
-274.7141644543774
 31
0.0
  0
LINE
  5
3B1
330
1F
100
AcDbEntity
  8
0-A
  6
Continuous
 62
     2
370
     9
100
AcDbLine
 10
-104.1751356770089
 20
-277.188931955207
 30
0.0
 11
-102.7609686631407
 21
-275.774764941339
 31
0.0
  0
LINE
  5
3B2
330
1F
100
AcDbEntity
  8
0-A
  6
Continuous
 62
     2
370
     9
100
AcDbLine
 10
-104.5286031101577
 20
-275.4212975081902
 30
0.0
 11
-107.5337204013466
 21
-272.4160811232435
 31
0.0
  0
LINE
  5
3B3
330
1F
100
AcDbEntity
  8
0-A
  6
Continuous
 62
     2
370
     9
100
AcDbLine
 10
-103.82166824386
 20
-274.7141644543774
 30
0.0
 11
-106.1197020281151
 21
-272.4161802170011
 31
0.0
  0
LINE
  5
3B4
330
1F
100
AcDbEntity
  8
0-A
  6
Continuous
 62
     2
370
     9
100
AcDbLine
 10
-100.4629844257646
 20
-278.0730464599879
 30
0.0
 11
-102.7609686631407
 21
-275.774764941339
 31
0.0
  0
LINE
  5
3B5
330
1F
100
AcDbEntity
  8
0-A
  6
Continuous
 62
     2
370
     9
100
AcDbLine
 10
-100.4629844257646
 20
-279.4869161925834
 30
0.0
 11
-103.4681017169536
 21
-276.4819970889094
 31
0.0
  0
LINE
  5
3B6
330
1F
100
AcDbEntity
  8
0-A
  6
Continuous
 62
     2
370
     9
100
AcDbLine
 10
-133.55969897867
 20
-298.4413441900762
 30
0.0
 11
-107.5337204013466
 21
-272.4160811232435
 31
0.0
  0
LINE
  5
3B7
330
1F
100
AcDbEntity
  8
0-A
  6
Continuous
 62
     2
370
     9
100
AcDbLine
 10
-132.852532286091
 20
-299.14849402022
 30
0.0
 11
-106.1197020281151
 21
-272.4161802170011
 31
0.0
  0
LINE
  5
3B8
330
1F
100
AcDbEntity
  8
0-A
  6
Continuous
 62
     2
370
     9
100
AcDbLine
 10
-127.19544748003
 20
-304.8054439327298
 30
0.0
 11
-100.4629844257646
 21
-278.0730464599879
 31
0.0
  0
LINE
  5
3B9
330
1F
100
AcDbEntity
  8
0-A
  6
Continuous
 62
     2
370
     9
100
AcDbLine
 10
-126.4883080385152
 20
-305.5125665124592
 30
0.0
 11
-100.4629844257646
 21
-279.4869161925833
 31
0.0
  0
LINE
  5
3BA
330
1F
100
AcDbEntity
  8
通り芯
  6
JWW_CENTER1
 62
     4
370
     9
100
AcDbLine
 10
-153.8963375630715
 20
-325.8494602334497
 30
0.0
 11
-101.3651921218406
 21
-273.3185091938522
 31
0.0
  0
LINE
  5
3BB
330
1F
100
AcDbEntity
  8
寸法
  6
Continuous
 62
     7
370
     9
100
AcDbLine
 10
-102.7609686631407
 20
-275.7747649413389
 30
0.0
 11
-94.82743526022833
 21
-269.6871506512519
 31
0.0
  0
LINE
  5
3BC
330
1F
100
AcDbEntity
  8
寸法
  6
Continuous
 62
     7
370
     9
100
AcDbLine
 10
-102.7609686631407
 20
-275.7747649413389
 30
0.0
 11
-96.67335437305374
 21
-267.8412315384265
 31
0.0
  0
LINE
  5
3BD
330
1F
100
AcDbEntity
  8
寸法
  6
Continuous
 62
     7
370
     9
100
AcDbLine
 10
-102.7609686631407
 20
-275.7747649413389
 30
0.0
 11
260.8991320522677
 21
87.88553017570297
 31
0.0
  0
TEXT
  5
3BE
330
1F
100
AcDbEntity
  8
F-4ﾚｲﾔ
  6
Continuous
 62
     2
370
     0
100
AcDbText
 10
-345.7533333333333
 20
-529.124
 30
0.0
 40
12.192
  1
鋳鉄製ルーフドレン　防水層張掛け幅100mm　よこ引き用　鋼製下地断熱屋根工法用
 41
0.7743333333333333
  7
ＭＳ ゴシック
100
AcDbText
  0
TEXT
  5
3BF
330
1F
100
AcDbEntity
  8
F-4ﾚｲﾔ
  6
Continuous
 62
     2
370
     0
100
AcDbText
 10
-345.7351769547325
 20
-549.2273333333334
 30
0.0
 40
12.192
  1
ねじ込み式　アスファルト防水用（キャント付入隅用）　　ＷＨＸＡ－６－１５０－２５
 41
0.774375
  7
ＭＳ ゴシック
100
AcDbText
  0
TEXT
  5
3C0
330
1F
100
AcDbEntity
  8
寸法
  6
Continuous
 62
     7
370
     9
100
AcDbText
 10
212.6235823366698
 20
173.9951732802254
 30
0.0
 40
9.144
  1
丸小ねじ：Ｍ６×１２
 41
1.15
  7
ＭＳ ゴシック
100
AcDbText
  0
TEXT
  5
3C1
330
1F
100
AcDbEntity
  8
寸法
  6
Continuous
 62
     7
370
     9
100
AcDbText
 10
262.9424106647158
 20
92.61652982145276
 30
0.0
 40
9.144
  1
ボルト：Ｍ１０×７０，ばね座金・平座金
 50
359.9999999966688
 41
1.157894736842106
  7
ＭＳ ゴシック
100
AcDbText
  0
LINE
  5
3C2
330
1F
100
AcDbEntity
  8
寸法
  6
Continuous
 62
     7
370
     9
100
AcDbLine
 10
260.8991320522677
 20
87.88553017570297
 30
0.0
 11
530.6712378472223
 21
87.88553017570297
 31
0.0
  0
LINE
  5
3C3
330
1F
100
AcDbEntity
  8
寸法
  6
Continuous
 62
     7
370
     9
100
AcDbLine
 10
-239.4091417282206
 20
-20.2168182841761
 30
0.0
 11
-426.9499965277777
 21
-20.2168182841761
 31
0.0
  0
LINE
  5
3C4
330
1F
100
AcDbEntity
  8
寸法
  6
Continuous
 62
     7
370
     9
100
AcDbLine
 10
90.4835585441092
 20
-343.0283172357205
 30
0.0
 11
129.5616448107046
 21
-410.7135481120233
 31
0.0
  0
LINE
  5
3C5
330
1F
100
AcDbEntity
  8
寸法
  6
Continuous
 62
     7
370
     9
100
AcDbLine
 10
90.4835585441092
 20
-343.0283172357205
 30
0.0
 11
96.5711728341964
 21
-350.9618506386328
 31
0.0
  0
LINE
  5
3C6
330
1F
100
AcDbEntity
  8
寸法
  6
Continuous
 62
     7
370
     9
100
AcDbLine
 10
90.4835585441092
 20
-343.0283172357205
 30
0.0
 11
94.3103928677601
 21
-352.2671125608333
 31
0.0
  0
LINE
  5
3C7
330
1F
100
AcDbEntity
  8
寸法
  6
Continuous
 62
     7
370
     9
100
AcDbLine
 10
15.48348378193418
 20
-352.6285459172478
 30
0.0
 11
-13.25832013526235
 21
-402.4108106030145
 31
0.0
  0
LINE
  5
3C8
330
1F
100
AcDbEntity
  8
寸法
  6
Continuous
 62
     7
370
     9
100
AcDbLine
 10
15.48348378193418
 20
-352.6285459172478
 30
0.0
 11
11.65664945828329
 21
-361.8673412423607
 31
0.0
  0
LINE
  5
3C9
330
1F
100
AcDbEntity
  8
寸法
  6
Continuous
 62
     7
370
     9
100
AcDbLine
 10
15.48348378193418
 20
-352.6285459172478
 30
0.0
 11
9.39586949184698
 21
-360.5620793201602
 31
0.0
  0
LINE
  5
3CA
330
1F
100
AcDbEntity
  8
寸法
  6
Continuous
 62
     7
370
     9
100
AcDbLine
 10
129.5616448107046
 20
-410.7135481120233
 30
0.0
 11
249.582208292794
 21
-410.7135481120233
 31
0.0
  0
TEXT
  5
3CB
330
1F
100
AcDbEntity
  8
寸法
  6
Continuous
 62
     7
370
     9
100
AcDbText
 10
-150.4422096904134
 20
-396.7239944482367
 30
0.0
 40
9.144
  1
取付ピース：ＳＧＨＣ
 41
1.15
  7
ＭＳ ゴシック
100
AcDbText
  0
LINE
  5
3CC
330
1F
100
AcDbEntity
  8
寸法
  6
Continuous
 62
     7
370
     9
100
AcDbLine
 10
-151.1000333885211
 20
-402.4108106030144
 30
0.0
 11
-13.25832013526235
 21
-402.4108106030144
 31
0.0
  0
LINE
  5
3CD
330
1F
100
AcDbEntity
  8
寸法
  6
Continuous
 62
     7
370
     9
100
AcDbLine
 10
-190.7056453865282
 20
-135.5494168749355
 30
0.0
 11
-220.8189972864413
 21
-83.39156139808524
 31
0.0
  0
LINE
  5
3CE
330
1F
100
AcDbEntity
  8
寸法
  6
Continuous
 62
     7
370
     9
100
AcDbLine
 10
-190.7056453865282
 20
-135.5494168749355
 30
0.0
 11
-196.7932596766154
 21
-127.6158834720231
 31
0.0
  0
LINE
  5
3CF
330
1F
100
AcDbEntity
  8
寸法
  6
Continuous
 62
     7
370
     9
100
AcDbLine
 10
-190.7056453865282
 20
-135.5494168749355
 30
0.0
 11
-194.5324797101791
 21
-126.3106215498226
 31
0.0
  0
LINE
  5
3D0
330
1F
100
AcDbEntity
  8
寸法
  6
Continuous
 62
     7
370
     9
100
AcDbLine
 10
-220.8189972864413
 20
-83.39156139808524
 30
0.0
 11
-402.5608789835845
 21
-83.39156139808524
 31
0.0
  0
TEXT
  5
3D1
330
1F
100
AcDbEntity
  8
寸法
  6
Continuous
 62
     7
370
     9
100
AcDbText
 10
-373.6899381350129
 20
-78.15909372441658
 30
0.0
 40
9.144
  1
丸小ねじ：Ｍ６×８
 41
1.148148148148148
  7
ＭＳ ゴシック
100
AcDbText
  0
TEXT
  5
3D2
330
1F
100
AcDbEntity
  8
寸法
  6
Continuous
 62
     7
370
     9
100
AcDbText
 10
-423.1795691279992
 20
-13.82023588100635
 30
0.0
 40
9.144
  1
皿小ねじ・六角ナット：Ｍ６
 41
1.153846153846154
  7
ＭＳ ゴシック
100
AcDbText
  0
TEXT
  5
3D3
330
1F
100
AcDbEntity
  8
寸法
  6
Continuous
 62
     7
370
     9
100
AcDbText
 10
-423.1795691279992
 20
-34.4230177400875
 30
0.0
 40
9.144
  1
ＳＳ４００　電気亜鉛めっき
 41
1.153846153846154
  7
ＭＳ ゴシック
100
AcDbText
  0
TEXT
  5
3D4
330
1F
100
AcDbEntity
  8
寸法
  6
Continuous
 62
     7
370
     9
100
AcDbText
 10
-401.6899381350129
 20
-96.55712253135627
 30
0.0
 40
9.144
  1
ＳＳ４００　電気亜鉛めっき
 41
1.153846153846154
  7
ＭＳ ゴシック
100
AcDbText
  0
TEXT
  5
3D5
330
1F
100
AcDbEntity
  8
寸法
  6
Continuous
 62
     7
370
     9
100
AcDbText
 10
155.5719265517493
 20
-425.1999382934507
 30
0.0
 40
9.144
  1
樹脂系塗装
 41
1.133333333333333
  7
ＭＳ ゴシック
100
AcDbText
  0
TEXT
  5
3D6
330
1F
100
AcDbEntity
  8
寸法
  6
Continuous
 62
     7
370
     9
100
AcDbText
 10
134.5719265517493
 20
-404.9526476686112
 30
0.0
 40
9.144
  1
本体：ＦＣ１５０
 41
1.145833333333333
  7
ＭＳ ゴシック
100
AcDbText
  0
TEXT
  5
3D7
330
1F
100
AcDbEntity
  8
寸法
  6
Continuous
 62
     7
370
     9
100
AcDbText
 10
305.9308308412174
 20
-134.4197964412186
 30
0.0
 40
9.144
  1
樹脂系塗装
 41
1.133333333333333
  7
ＭＳ ゴシック
100
AcDbText
  0
TEXT
  5
3D8
330
1F
100
AcDbEntity
  8
寸法
  6
Continuous
 62
     7
370
     9
100
AcDbText
 10
312.8019145877841
 20
-22.84690003605056
 30
0.0
 40
9.144
  1
樹脂系塗装
 41
1.133333333333333
  7
ＭＳ ゴシック
100
AcDbText
  0
TEXT
  5
3D9
330
1F
100
AcDbEntity
  8
寸法
  6
Continuous
 62
     7
370
     9
100
AcDbText
 10
354.785184949745
 20
74.90316827591795
 30
0.0
 40
9.144
  1
ＳＵＳ３０４
 41
1.138888888888889
  7
ＭＳ ゴシック
100
AcDbText
  0
TEXT
  5
3DA
330
1F
100
AcDbEntity
  8
寸法
  6
Continuous
 62
     7
370
     9
100
AcDbText
 10
237.7591694734458
 20
154.1385510304447
 30
0.0
 40
9.144
  1
ＳＵＳ３０４
 41
1.138888888888889
  7
ＭＳ ゴシック
100
AcDbText
  0
LINE
  5
3DB
330
1F
100
AcDbEntity
  8
その他
  6
Continuous
 62
     7
370
     9
100
AcDbLine
 10
-165.5167482812712
 20
135.4614103647491
 30
0.0
 11
-165.5167482812712
 21
-70.02839309149073
 31
0.0
  0
LINE
  5
3DC
330
1F
100
AcDbEntity
  8
その他
  6
Continuous
 62
     7
370
     9
100
AcDbLine
 10
90.4835585441092
 20
135.4614103647491
 30
0.0
 11
90.4835585441092
 21
-324.0283370051312
 31
0.0
  0
LINE
  5
3DD
330
1F
100
AcDbEntity
  8
その他
  6
Continuous
 62
     7
370
     9
100
AcDbLine
 10
-215.4544519101971
 20
135.4614103647491
 30
0.0
 11
-215.4544519101971
 21
-170.3648128099389
 31
0.0
  0
LINE
  5
3DE
330
1F
100
AcDbEntity
  8
その他
  6
Continuous
 62
     7
370
     9
100
AcDbLine
 10
245.4835633161626
 20
135.4614103647491
 30
0.0
 11
245.4835633161626
 21
-340.0629342309284
 31
0.0
  0
LINE
  5
3DF
330
1F
100
AcDbEntity
  8
その他
  6
Continuous
 62
     7
370
     9
100
AcDbLine
 10
-159.8386304354306
 20
108.027470597687
 30
0.0
 11
-159.8386304354306
 21
-103.1290030524996
 31
0.0
  0
LINE
  5
3E0
330
1F
100
AcDbEntity
  8
その他
  6
Continuous
 62
     7
370
     9
100
AcDbLine
 10
-130.8386441035348
 20
108.027470597687
 30
0.0
 11
-130.8386441035348
 21
-134.0584412659622
 31
0.0
  0
LINE
  5
3E1
330
1F
100
AcDbEntity
  8
その他
  6
Continuous
 62
     7
370
     9
100
AcDbLine
 10
55.16136936582211
 20
108.027470597687
 30
0.0
 11
55.16136936582211
 21
-314.1156528198269
 31
0.0
  0
LINE
  5
3E2
330
1F
100
AcDbEntity
  8
その他
  6
Continuous
 62
     7
370
     9
100
AcDbLine
 10
-190.5167464089029
 20
107.2848780426083
 30
0.0
 11
-190.5167464089029
 21
83.55085243974132
 31
0.0
  0
LINE
  5
3E3
330
1F
100
AcDbEntity
  8
その他
  6
Continuous
 62
     7
370
     9
100
AcDbLine
 10
127.6297276769057
 20
-109.0978132646916
 30
0.0
 11
-145.3385754095273
 21
-109.0978132646915
 31
0.0
  0
LINE
  5
3E4
330
1F
100
AcDbEntity
  8
その他
  6
Continuous
 62
     7
370
     9
100
AcDbLine
 10
163.3651339049555
 20
-332.0283370051313
 30
0.0
 11
98.4835585441092
 21
-332.0283370051313
 31
0.0
  0
LINE
  5
3E5
330
1F
100
AcDbEntity
  8
その他
  6
Continuous
 62
     7
370
     9
100
AcDbLine
 10
163.3651339049555
 20
-76.0283370051311
 30
0.0
 11
-159.5170518074535
 21
-76.02833700513106
 31
0.0
  0
LINE
  5
3E6
330
1F
100
AcDbEntity
  8
その他
  6
Continuous
 62
     7
370
     9
100
AcDbLine
 10
163.3651339049555
 20
78.97177180947668
 30
0.0
 11
-182.6621919420647
 21
78.97177180947668
 31
0.0
  0
LINE
  5
3E7
330
1F
100
AcDbEntity
  8
その他
  6
Continuous
 62
     7
370
     9
100
AcDbLine
 10
128.4768727991537
 20
-320.1238651966114
 30
0.0
 11
61.66138715792363
 21
-320.1238651966114
 31
0.0
  0
LINE
  5
3E8
330
1F
100
AcDbEntity
  8
その他
  6
Continuous
 62
     7
370
     9
100
AcDbLine
 10
127.3732029175447
 20
-328.2419644135506
 30
0.0
 11
60.90831879840759
 21
-328.2419644135506
 31
0.0
  0
LINE
  5
3E9
330
1F
100
AcDbEntity
  8
その他
  6
Continuous
 62
     7
370
     9
100
AcDbLine
 10
274.9398838433262
 20
517.1448394158991
 30
0.0
 11
274.9398838433262
 21
240.8435025878076
 31
0.0
  0
TEXT
  5
3EA
330
1F
100
AcDbEntity
  8
その他
  6
Continuous
 62
     2
370
     5
100
AcDbText
 10
270.2838838433262
 20
241.2687972889701
 30
0.0
 40
12.192
  1
562
 50
90.0
 41
1.083333333333333
  7
ＭＳ ゴシック
100
AcDbText
  0
LINE
  5
3EB
330
1F
100
AcDbEntity
  8
その他
  6
Continuous
 62
     7
370
     9
100
AcDbLine
 10
127.3732029175448
 20
348.6449280229214
 30
0.0
 11
127.3732029175448
 21
240.8435025878076
 31
0.0
  0
LINE
  5
3EC
330
1F
100
AcDbEntity
  8
その他
  6
Continuous
 62
     7
370
     9
100
AcDbLine
 10
196.2136839141886
 20
447.6449280229214
 30
0.0
 11
196.2136839141886
 21
240.8435025878076
 31
0.0
  0
LINE
  5
3ED
330
1F
100
AcDbEntity
  8
その他
  6
Continuous
 62
     7
370
     9
100
AcDbLine
 10
160.0803967177476
 20
416.1449744731206
 30
0.0
 11
160.0803967177476
 21
240.8435025878076
 31
0.0
  0
TEXT
  5
3EE
330
1F
100
AcDbEntity
  8
その他
  6
Continuous
 62
     2
370
     5
100
AcDbText
 10
122.7172029175447
 20
241.2687972889701
 30
0.0
 40
12.192
  1
225
 50
90.0
 41
1.083333333333333
  7
ＭＳ ゴシック
100
AcDbText
  0
TEXT
  5
3EF
330
1F
100
AcDbEntity
  8
その他
  6
Continuous
 62
     2
370
     5
100
AcDbText
 10
155.4243967177476
 20
241.2687972889701
 30
0.0
 40
12.192
  1
360
 50
90.0
 41
1.083333333333333
  7
ＭＳ ゴシック
100
AcDbText
  0
TEXT
  5
3F0
330
1F
100
AcDbEntity
  8
その他
  6
Continuous
 62
     2
370
     5
100
AcDbText
 10
191.5576839141885
 20
241.2687972889701
 30
0.0
 40
12.192
  1
423
 50
90.0
 41
1.083333333333333
  7
ＭＳ ゴシック
100
AcDbText
  0
LINE
  5
3F1
330
1F
100
AcDbEntity
  8
通り芯
  6
JWW_CENTER1
 62
     4
370
     9
100
AcDbLine
 10
-217.5604672846684
 20
236.1449280229214
 30
0.0
 11
235.2252945636201
 21
236.1449280229214
 31
0.0
  0
LINE
  5
3F2
330
1F
100
AcDbEntity
  8
その他
  6
Continuous
 62
     7
370
     9
100
AcDbLine
 10
130.2269437641551
 20
348.6449280229214
 30
0.0
 11
47.98718783582844
 21
348.6449280229214
 31
0.0
  0
LINE
  5
3F3
330
1F
100
AcDbEntity
  8
その他
  6
Continuous
 62
     7
370
     9
100
AcDbLine
 10
161.8376385616552
 20
416.1449744731206
 30
0.0
 11
53.34041142979305
 21
416.1449744731206
 31
0.0
  0
LINE
  5
3F4
330
1F
100
AcDbEntity
  8
その他
  6
Continuous
 62
     7
370
     9
100
AcDbLine
 10
198.1313992550813
 20
447.6449280229214
 30
0.0
 11
96.3082000653341
 21
447.6449280229214
 31
0.0
  0
LINE
  5
3F5
330
1F
100
AcDbEntity
  8
その他
  6
Continuous
 62
     7
370
     9
100
AcDbLine
 10
277.7435194858224
 20
517.1448394158991
 30
0.0
 11
229.4828601157528
 21
517.1448394158991
 31
0.0
  0
ENDSEC
  0
SECTION
  2
OBJECTS
  0
DICTIONARY
  5
C
330
0
100
AcDbDictionary
281
     1
  3
ACAD_DETAILVIEWSTYLE
350
43B
  3
ACAD_GROUP
350
D
  3
ACAD_LAYOUT
350
1A
  3
ACAD_MATERIAL
350
43
  3
ACAD_MLEADERSTYLE
350
6B
  3
ACAD_MLINESTYLE
350
17
  3
ACAD_PLOTSETTINGS
350
19
  3
ACAD_PLOTSTYLENAME
350
E
  3
ACAD_SCALELIST
350
47
  3
ACAD_SECTIONVIEWSTYLE
350
43C
  3
ACAD_TABLESTYLE
350
69
  3
ACAD_VISUALSTYLE
350
2A
  3
ACDB_RECOMPOSE_DATA
350
438
  3
AcDbVariableDictionary
350
3F8
  0
DICTIONARY
  5
3F6
330
8
100
AcDbDictionary
280
     1
281
     1
  3
ACAD_XREC_ROUNDTRIP
360
3F7
  0
DICTIONARY
  5
43B
102
{ACAD_REACTORS
330
C
102
}
330
C
100
AcDbDictionary
281
     1
  0
DICTIONARY
  5
D
102
{ACAD_REACTORS
330
C
102
}
330
C
100
AcDbDictionary
281
     1
  0
DICTIONARY
  5
1A
102
{ACAD_REACTORS
330
C
102
}
330
C
100
AcDbDictionary
281
     1
  3
Layout1
350
1E
  3
Layout2
350
26
  3
Model
350
22
  0
DICTIONARY
  5
43
102
{ACAD_REACTORS
330
C
102
}
330
C
100
AcDbDictionary
281
     1
  3
ByBlock
350
45
  3
ByLayer
350
44
  3
Global
350
46
  0
DICTIONARY
  5
6B
102
{ACAD_REACTORS
330
C
102
}
330
C
100
AcDbDictionary
281
     1
  3
Standard
350
6C
  0
DICTIONARY
  5
17
102
{ACAD_REACTORS
330
C
102
}
330
C
100
AcDbDictionary
281
     1
  3
Standard
350
18
  0
DICTIONARY
  5
19
102
{ACAD_REACTORS
330
C
102
}
330
C
100
AcDbDictionary
281
     1
  0
ACDBDICTIONARYWDFLT
  5
E
102
{ACAD_REACTORS
330
C
102
}
330
C
100
AcDbDictionary
281
     1
  3
Normal
350
F
100
AcDbDictionaryWithDefault
340
F
  0
DICTIONARY
  5
47
102
{ACAD_REACTORS
330
C
102
}
330
C
100
AcDbDictionary
281
     1
  3
A0
350
48
  3
A1
350
49
  3
A2
350
4A
  3
A3
350
4B
  3
A4
350
4C
  3
A5
350
4D
  3
A6
350
4E
  3
A7
350
4F
  3
A8
350
50
  3
A9
350
51
  3
B0
350
52
  3
B1
350
53
  3
B2
350
54
  3
B3
350
55
  3
B4
350
56
  3
B5
350
57
  3
B6
350
58
  3
B7
350
59
  3
B8
350
5A
  3
B9
350
5B
  3
C0
350
5C
  3
C1
350
5D
  3
C2
350
5E
  3
C3
350
5F
  3
C4
350
60
  3
C5
350
61
  3
C6
350
62
  3
C7
350
63
  3
C8
350
64
  3
C9
350
65
  3
D0
350
66
  3
D1
350
67
  3
D2
350
68
  0
DICTIONARY
  5
43C
102
{ACAD_REACTORS
330
C
102
}
330
C
100
AcDbDictionary
281
     1
  0
DICTIONARY
  5
69
102
{ACAD_REACTORS
330
C
102
}
330
C
100
AcDbDictionary
281
     1
  3
Standard
350
6A
  0
DICTIONARY
  5
2A
102
{ACAD_REACTORS
330
C
102
}
330
C
100
AcDbDictionary
281
     1
  3
2dWireframe
350
2F
  3
Basic
350
32
  3
Brighten
350
36
  3
ColorChange
350
3A
  3
Conceptual
350
34
  3
Dim
350
35
  3
EdgeColorOff
350
3D
  3
Facepattern
350
39
  3
Flat
350
2B
  3
FlatWithEdges
350
2C
  3
Gouraud
350
2D
  3
GouraudWithEdges
350
2E
  3
Hidden
350
31
  3
JitterOff
350
3B
  3
Linepattern
350
38
  3
OverhangOff
350
3C
  3
Realistic
350
33
  3
Shaded
350
42
  3
Shaded with edges
350
41
  3
Shades of Gray
350
3E
  3
Sketchy
350
3F
  3
Thicken
350
37
  3
Wireframe
350
30
  3
X-Ray
350
40
  0
XRECORD
  5
438
102
{ACAD_REACTORS
330
C
102
}
330
C
100
AcDbXrecord
280
     1
 90
        1
330
6A
  0
DICTIONARY
  5
3F8
102
{ACAD_REACTORS
330
C
102
}
330
C
100
AcDbDictionary
281
     1
  3
CANNOSCALE
350
3F9
  3
CENTEREXE
350
43D
  3
CENTERLTYPEFILE
350
43E
  3
CMLEADERSTYLE
350
43A
  3
CTABLESTYLE
350
439
  3
MSLTSCALE
350
3FA
  3
XCLIPFRAME
350
3FB
  0
XRECORD
  5
3F7
102
{ACAD_REACTORS
330
3F6
102
}
330
3F6
100
AcDbXrecord
280
     1
102
VTR_0.000_0.000_1.000_1.000_VISUALSTYLE
340
2F
102
VTR_0.000_0.000_1.000_1.000_GRIDDISPLAY
 70
     3
102
VTR_0.000_0.000_1.000_1.000_GRIDMAJOR
 70
     5
102
VTR_0.000_0.000_1.000_1.000_DEFAULTLIGHTING
280
     1
102
VTR_0.000_0.000_1.000_1.000_DEFAULTLIGHTINGTYPE
 70
     1
102
VTR_0.000_0.000_1.000_1.000_BRIGHTNESS
141
0.0
102
VTR_0.000_0.000_1.000_1.000_CONTRAST
142
0.0
  0
LAYOUT
  5
1E
102
{ACAD_REACTORS
330
1A
102
}
330
1A
100
AcDbPlotSettings
  1

  2
none_device
  4

  6

 40
0.0
 41
0.0
 42
0.0
 43
0.0
 44
0.0
 45
0.0
 46
0.0
 47
0.0
 48
0.0
 49
0.0
140
0.0
141
0.0
142
1.0
143
1.0
 70
   688
 72
     1
 73
     0
 74
     5
  7

 75
    16
 76
     0
 77
     5
 78
   300
147
1.0
148
0.0
149
0.0
100
AcDbLayout
  1
Layout1
 70
     1
 71
     1
 10
0.0
 20
0.0
 11
420.0
 21
297.0
 12
0.0
 22
0.0
 32
0.0
 14
1.000000000000000E+20
 24
1.000000000000000E+20
 34
1.000000000000000E+20
 15
-1.000000000000000E+20
 25
-1.000000000000000E+20
 35
-1.000000000000000E+20
146
0.0
 13
0.0
 23
0.0
 33
0.0
 16
1.0
 26
0.0
 36
0.0
 17
0.0
 27
1.0
 37
0.0
 76
     0
330
1B
  0
LAYOUT
  5
26
102
{ACAD_REACTORS
330
1A
102
}
330
1A
100
AcDbPlotSettings
  1

  2
none_device
  4

  6

 40
0.0
 41
0.0
 42
0.0
 43
0.0
 44
0.0
 45
0.0
 46
0.0
 47
0.0
 48
0.0
 49
0.0
140
0.0
141
0.0
142
1.0
143
1.0
 70
   688
 72
     1
 73
     0
 74
     5
  7

 75
    16
 76
     0
 77
     5
 78
   300
147
1.0
148
0.0
149
0.0
100
AcDbLayout
  1
Layout2
 70
     1
 71
     2
 10
0.0
 20
0.0
 11
0.0
 21
0.0
 12
0.0
 22
0.0
 32
0.0
 14
0.0
 24
0.0
 34
0.0
 15
0.0
 25
0.0
 35
0.0
146
0.0
 13
0.0
 23
0.0
 33
0.0
 16
1.0
 26
0.0
 36
0.0
 17
0.0
 27
1.0
 37
0.0
 76
     0
330
23
  0
LAYOUT
  5
22
102
{ACAD_REACTORS
330
1A
102
}
330
1A
100
AcDbPlotSettings
  1

  2
none_device
  4
Letter_(8.50_x_11.00_Inches)
  6

 40
6.35
 41
6.35
 42
6.35000508
 43
6.35000508
 44
215.9
 45
279.4
 46
0.0
 47
0.0
 48
0.0
 49
0.0
140
0.0
141
0.0
142
1.0
143
1.0
 70
  1712
 72
     1
 73
     0
 74
     0
  7

 75
     0
 76
     0
 77
     5
 78
   300
147
1.0
148
0.0
149
0.0
100
AcDbLayout
  1
Model
 70
     1
 71
     0
 10
-840.0
 20
-594.0
 11
840.0
 21
594.0
 12
0.0
 22
0.0
 32
0.0
 14
-840.0
 24
-594.0
 34
0.0
 15
840.0
 25
594.0
 35
0.0
146
0.0
 13
0.0
 23
0.0
 33
0.0
 16
1.0
 26
0.0
 36
0.0
 17
0.0
 27
1.0
 37
0.0
 76
     0
330
1F
331
29
  0
MATERIAL
  5
45
102
{ACAD_REACTORS
330
43
102
}
102
{ACAD_XDICTIONARY
360
42E
102
}
330
43
100
AcDbMaterial
  1
ByBlock
  0
MATERIAL
  5
44
102
{ACAD_REACTORS
330
43
102
}
102
{ACAD_XDICTIONARY
360
42C
102
}
330
43
100
AcDbMaterial
  1
ByLayer
  0
MATERIAL
  5
46
102
{ACAD_REACTORS
330
43
102
}
102
{ACAD_XDICTIONARY
360
430
102
}
330
43
100
AcDbMaterial
  1
Global
  0
MLEADERSTYLE
  5
6C
102
{ACAD_REACTORS
330
6B
102
}
102
{ACAD_XDICTIONARY
360
436
102
}
330
6B
100
AcDbMLeaderStyle
170
     2
171
     1
172
     0
 90
        2
 40
0.0
 41
0.0
173
     1
 91
-1056964608
340
14
 92
       -2
290
     1
 42
2.0
291
     1
 43
8.0
  3
Standard
341
0
 44
4.0
300

342
11
174
     1
178
     6
175
     1
176
     0
 93
-1056964608
 45
4.0
292
     0
297
     0
 46
4.0
343
0
 94
-1056964608
 47
1.0
 49
1.0
140
1.0
293
     1
141
0.0
294
     1
177
     0
142
1.0
295
     0
296
     0
143
3.75
1001
ACAD_MLEADERVER
1070
     2
  0
MLINESTYLE
  5
18
102
{ACAD_REACTORS
330
17
102
}
330
17
100
AcDbMlineStyle
  2
Standard
 70
     0
  3

 62
   256
 51
90.0
 52
90.0
 71
     2
 49
0.5
 62
   256
  6
BYLAYER
 49
-0.5
 62
   256
  6
BYLAYER
  0
ACDBPLACEHOLDER
  5
F
102
{ACAD_REACTORS
330
E
102
}
330
E
  0
SCALE
  5
48
102
{ACAD_REACTORS
330
47
102
}
330
47
100
AcDbScale
 70
     0
300
1:1
140
1.0
141
1.0
290
     1
  0
SCALE
  5
49
102
{ACAD_REACTORS
330
47
102
}
330
47
100
AcDbScale
 70
     0
300
1:2
140
1.0
141
2.0
290
     0
  0
SCALE
  5
4A
102
{ACAD_REACTORS
330
47
102
}
330
47
100
AcDbScale
 70
     0
300
1:4
140
1.0
141
4.0
290
     0
  0
SCALE
  5
4B
102
{ACAD_REACTORS
330
47
102
}
330
47
100
AcDbScale
 70
     0
300
1:5
140
1.0
141
5.0
290
     0
  0
SCALE
  5
4C
102
{ACAD_REACTORS
330
47
102
}
330
47
100
AcDbScale
 70
     0
300
1:8
140
1.0
141
8.0
290
     0
  0
SCALE
  5
4D
102
{ACAD_REACTORS
330
47
102
}
330
47
100
AcDbScale
 70
     0
300
1:10
140
1.0
141
10.0
290
     0
  0
SCALE
  5
4E
102
{ACAD_REACTORS
330
47
102
}
330
47
100
AcDbScale
 70
     0
300
1:16
140
1.0
141
16.0
290
     0
  0
SCALE
  5
4F
102
{ACAD_REACTORS
330
47
102
}
330
47
100
AcDbScale
 70
     0
300
1:20
140
1.0
141
20.0
290
     0
  0
SCALE
  5
50
102
{ACAD_REACTORS
330
47
102
}
330
47
100
AcDbScale
 70
     0
300
1:30
140
1.0
141
30.0
290
     0
  0
SCALE
  5
51
102
{ACAD_REACTORS
330
47
102
}
330
47
100
AcDbScale
 70
     0
300
1:40
140
1.0
141
40.0
290
     0
  0
SCALE
  5
52
102
{ACAD_REACTORS
330
47
102
}
330
47
100
AcDbScale
 70
     0
300
1:50
140
1.0
141
50.0
290
     0
  0
SCALE
  5
53
102
{ACAD_REACTORS
330
47
102
}
330
47
100
AcDbScale
 70
     0
300
1:100
140
1.0
141
100.0
290
     0
  0
SCALE
  5
54
102
{ACAD_REACTORS
330
47
102
}
330
47
100
AcDbScale
 70
     0
300
2:1
140
2.0
141
1.0
290
     0
  0
SCALE
  5
55
102
{ACAD_REACTORS
330
47
102
}
330
47
100
AcDbScale
 70
     0
300
4:1
140
4.0
141
1.0
290
     0
  0
SCALE
  5
56
102
{ACAD_REACTORS
330
47
102
}
330
47
100
AcDbScale
 70
     0
300
8:1
140
8.0
141
1.0
290
     0
  0
SCALE
  5
57
102
{ACAD_REACTORS
330
47
102
}
330
47
100
AcDbScale
 70
     0
300
10:1
140
10.0
141
1.0
290
     0
  0
SCALE
  5
58
102
{ACAD_REACTORS
330
47
102
}
330
47
100
AcDbScale
 70
     0
300
100:1
140
100.0
141
1.0
290
     0
  0
SCALE
  5
59
102
{ACAD_REACTORS
330
47
102
}
330
47
100
AcDbScale
 70
     0
300
1/128" = 1'-0"
140
0.0078125
141
12.0
290
     0
  0
SCALE
  5
5A
102
{ACAD_REACTORS
330
47
102
}
330
47
100
AcDbScale
 70
     0
300
1/64" = 1'-0"
140
0.015625
141
12.0
290
     0
  0
SCALE
  5
5B
102
{ACAD_REACTORS
330
47
102
}
330
47
100
AcDbScale
 70
     0
300
1/32" = 1'-0"
140
0.03125
141
12.0
290
     0
  0
SCALE
  5
5C
102
{ACAD_REACTORS
330
47
102
}
330
47
100
AcDbScale
 70
     0
300
1/16" = 1'-0"
140
0.0625
141
12.0
290
     0
  0
SCALE
  5
5D
102
{ACAD_REACTORS
330
47
102
}
330
47
100
AcDbScale
 70
     0
300
3/32" = 1'-0"
140
0.09375
141
12.0
290
     0
  0
SCALE
  5
5E
102
{ACAD_REACTORS
330
47
102
}
330
47
100
AcDbScale
 70
     0
300
1/8" = 1'-0"
140
0.125
141
12.0
290
     0
  0
SCALE
  5
5F
102
{ACAD_REACTORS
330
47
102
}
330
47
100
AcDbScale
 70
     0
300
3/16" = 1'-0"
140
0.1875
141
12.0
290
     0
  0
SCALE
  5
60
102
{ACAD_REACTORS
330
47
102
}
330
47
100
AcDbScale
 70
     0
300
1/4" = 1'-0"
140
0.25
141
12.0
290
     0
  0
SCALE
  5
61
102
{ACAD_REACTORS
330
47
102
}
330
47
100
AcDbScale
 70
     0
300
3/8" = 1'-0"
140
0.375
141
12.0
290
     0
  0
SCALE
  5
62
102
{ACAD_REACTORS
330
47
102
}
330
47
100
AcDbScale
 70
     0
300
1/2" = 1'-0"
140
0.5
141
12.0
290
     0
  0
SCALE
  5
63
102
{ACAD_REACTORS
330
47
102
}
330
47
100
AcDbScale
 70
     0
300
3/4" = 1'-0"
140
0.75
141
12.0
290
     0
  0
SCALE
  5
64
102
{ACAD_REACTORS
330
47
102
}
330
47
100
AcDbScale
 70
     0
300
1" = 1'-0"
140
1.0
141
12.0
290
     0
  0
SCALE
  5
65
102
{ACAD_REACTORS
330
47
102
}
330
47
100
AcDbScale
 70
     0
300
1-1/2" = 1'-0"
140
1.5
141
12.0
290
     0
  0
SCALE
  5
66
102
{ACAD_REACTORS
330
47
102
}
330
47
100
AcDbScale
 70
     0
300
3" = 1'-0"
140
3.0
141
12.0
290
     0
  0
SCALE
  5
67
102
{ACAD_REACTORS
330
47
102
}
330
47
100
AcDbScale
 70
     0
300
6" = 1'-0"
140
6.0
141
12.0
290
     0
  0
SCALE
  5
68
102
{ACAD_REACTORS
330
47
102
}
330
47
100
AcDbScale
 70
     0
300
1'-0" = 1'-0"
140
12.0
141
12.0
290
     0
  0
TABLESTYLE
  5
6A
102
{ACAD_REACTORS
330
69
102
}
102
{ACAD_XDICTIONARY
360
432
102
}
330
69
100
AcDbTableStyle
  3
Standard
 70
     0
 71
     0
 40
0.06
 41
0.06
280
     0
281
     0
  7
Standard
140
4.5
170
     2
 62
     0
 63
   257
283
     0
274
    -2
284
     1
 64
     0
275
    -2
285
     1
 65
     0
276
    -2
286
     1
 66
     0
277
    -2
287
     1
 67
     0
278
    -2
288
     1
 68
     0
279
    -2
289
     1
 69
     0
  7
Standard
140
6.0
170
     5
 62
     0
 63
   257
283
     0
274
    -2
284
     1
 64
     0
275
    -2
285
     1
 65
     0
276
    -2
286
     1
 66
     0
277
    -2
287
     1
 67
     0
278
    -2
288
     1
 68
     0
279
    -2
289
     1
 69
     0
  7
Standard
140
4.5
170
     5
 62
     0
 63
   257
283
     0
274
    -2
284
     1
 64
     0
275
    -2
285
     1
 65
     0
276
    -2
286
     1
 66
     0
277
    -2
287
     1
 67
     0
278
    -2
288
     1
 68
     0
279
    -2
289
     1
 69
     0
  0
VISUALSTYLE
  5
2F
102
{ACAD_REACTORS
330
2A
102
}
102
{ACAD_XDICTIONARY
360
404
102
}
330
2A
100
AcDbVisualStyle
  2
2dWireframe
 70
     4
 71
     0
 72
     2
 73
     0
 90
        0
 40
0.6
 41
30.0
 62
     5
 63
     7
421
 16777215
 74
     1
 91
        4
 64
     7
 65
   257
 75
     1
175
     1
 42
1.0
 92
        0
 66
   257
 43
1.0
 76
     1
 77
     6
 78
     2
 67
     7
 79
     5
170
     0
171
     0
290
     0
174
     0
 93
        1
 44
0.0
173
     0
291
     0
 45
0.0
1001
ACAD
1000
AcDbSavedByObjectVersion
1070
     0
  0
VISUALSTYLE
  5
32
102
{ACAD_REACTORS
330
2A
102
}
102
{ACAD_XDICTIONARY
360
40A
102
}
330
2A
100
AcDbVisualStyle
  2
Basic
 70
     7
 71
     1
 72
     0
 73
     1
 90
        0
 40
0.6
 41
30.0
 62
     5
 63
     7
421
 16777215
 74
     0
 91
        4
 64
     7
 65
   257
 75
     1
175
     1
 42
1.0
 92
        8
 66
     7
 43
1.0
 76
     1
 77
     6
 78
     2
 67
     7
 79
     5
170
     0
171
     0
290
     0
174
     0
 93
        1
 44
0.0
173
     0
291
     1
 45
0.0
1001
ACAD
1000
AcDbSavedByObjectVersion
1070
     0
  0
VISUALSTYLE
  5
36
102
{ACAD_REACTORS
330
2A
102
}
102
{ACAD_XDICTIONARY
360
412
102
}
330
2A
100
AcDbVisualStyle
  2
Brighten
 70
    12
 71
     2
 72
     2
 73
     0
 90
        0
 40
0.6
 41
30.0
 62
     5
 63
     7
421
 16777215
 74
     1
 91
        4
 64
     7
 65
   257
 75
     1
175
     1
 42
1.0
 92
        8
 66
     7
 43
1.0
 76
     1
 77
     6
 78
     2
 67
     7
 79
     5
170
     0
171
     0
290
     0
174
     0
 93
        1
 44
50.0
173
     0
291
     1
 45
0.0
1001
ACAD
1000
AcDbSavedByObjectVersion
1070
     0
  0
VISUALSTYLE
  5
3A
102
{ACAD_REACTORS
330
2A
102
}
102
{ACAD_XDICTIONARY
360
41A
102
}
330
2A
100
AcDbVisualStyle
  2
ColorChange
 70
    16
 71
     2
 72
     2
 73
     3
 90
        0
 40
0.6
 41
30.0
 62
     5
 63
     8
421
  8421504
 74
     1
 91
        4
 64
     7
 65
   257
 75
     1
175
     1
 42
1.0
 92
        8
 66
     8
424
  8421504
 43
1.0
 76
     1
 77
     6
 78
     2
 67
     7
 79
     5
170
     0
171
     0
290
     0
174
     0
 93
        1
 44
0.0
173
     0
291
     1
 45
0.0
1001
ACAD
1000
AcDbSavedByObjectVersion
1070
     0
  0
VISUALSTYLE
  5
34
102
{ACAD_REACTORS
330
2A
102
}
102
{ACAD_XDICTIONARY
360
40E
102
}
330
2A
100
AcDbVisualStyle
  2
Conceptual
 70
     9
 71
     3
 72
     2
 73
     0
 90
        0
 40
0.6
 41
30.0
 62
     5
 63
     7
421
 16777215
 74
     2
 91
        2
 64
     7
 65
   257
 75
     1
175
     1
 42
179.0
 92
        8
 66
     7
 43
1.0
 76
     1
 77
     6
 78
     2
 67
     7
 79
     3
170
     0
171
     0
290
     0
174
     0
 93
        1
 44
0.0
173
     0
291
     0
 45
0.0
1001
ACAD
1000
AcDbSavedByObjectVersion
1070
     0
  0
VISUALSTYLE
  5
35
102
{ACAD_REACTORS
330
2A
102
}
102
{ACAD_XDICTIONARY
360
410
102
}
330
2A
100
AcDbVisualStyle
  2
Dim
 70
    11
 71
     2
 72
     2
 73
     0
 90
        0
 40
0.6
 41
30.0
 62
     5
 63
     7
421
 16777215
 74
     1
 91
        4
 64
     7
 65
   257
 75
     1
175
     1
 42
1.0
 92
        8
 66
     7
 43
1.0
 76
     1
 77
     6
 78
     2
 67
     7
 79
     5
170
     0
171
     0
290
     0
174
     0
 93
        1
 44
-50.0
173
     0
291
     1
 45
0.0
1001
ACAD
1000
AcDbSavedByObjectVersion
1070
     0
  0
VISUALSTYLE
  5
3D
102
{ACAD_REACTORS
330
2A
102
}
102
{ACAD_XDICTIONARY
360
420
102
}
330
2A
100
AcDbVisualStyle
  2
EdgeColorOff
 70
    22
 71
     2
 72
     2
 73
     0
 90
        0
 40
0.6
 41
30.0
 62
     5
 63
     7
421
 16777215
 74
     1
 91
        4
 64
     7
 65
   257
 75
     1
175
     1
 42
1.0
 92
        8
 66
     7
 43
1.0
 76
     1
 77
     6
 78
     2
 67
     7
 79
     5
170
     0
171
     0
290
     0
174
     0
 93
        1
 44
0.0
173
     0
291
     1
 45
0.0
1001
ACAD
1000
AcDbSavedByObjectVersion
1070
     0
  0
VISUALSTYLE
  5
39
102
{ACAD_REACTORS
330
2A
102
}
102
{ACAD_XDICTIONARY
360
418
102
}
330
2A
100
AcDbVisualStyle
  2
Facepattern
 70
    15
 71
     2
 72
     2
 73
     0
 90
        0
 40
0.6
 41
30.0
 62
     5
 63
     7
421
 16777215
 74
     1
 91
        4
 64
     7
 65
   257
 75
     1
175
     1
 42
1.0
 92
        8
 66
     7
 43
1.0
 76
     1
 77
     6
 78
     2
 67
     7
 79
     5
170
     0
171
     0
290
     0
174
     0
 93
        1
 44
0.0
173
     0
291
     1
 45
0.0
1001
ACAD
1000
AcDbSavedByObjectVersion
1070
     0
  0
VISUALSTYLE
  5
2B
102
{ACAD_REACTORS
330
2A
102
}
102
{ACAD_XDICTIONARY
360
3FC
102
}
330
2A
100
AcDbVisualStyle
  2
Flat
 70
     0
 71
     2
 72
     1
 73
     1
 90
        2
 40
0.6
 41
30.0
 62
     5
 63
     7
421
 16777215
 74
     0
 91
        0
 64
     7
 65
   257
 75
     1
175
     1
 42
1.0
 92
        8
 66
     7
 43
1.0
 76
     1
 77
     6
 78
     2
 67
     7
 79
     5
170
     0
171
     0
290
     0
174
     0
 93
       13
 44
0.0
173
     0
291
     1
 45
0.0
1001
ACAD
1000
AcDbSavedByObjectVersion
1070
     0
  0
VISUALSTYLE
  5
2C
102
{ACAD_REACTORS
330
2A
102
}
102
{ACAD_XDICTIONARY
360
3FE
102
}
330
2A
100
AcDbVisualStyle
  2
FlatWithEdges
 70
     1
 71
     2
 72
     1
 73
     1
 90
        2
 40
0.6
 41
30.0
 62
     5
 63
     7
421
 16777215
 74
     1
 91
        0
 64
     7
 65
   257
 75
     1
175
     1
 42
1.0
 92
        0
 66
   257
 43
1.0
 76
     1
 77
     6
 78
     2
 67
     7
 79
     5
170
     0
171
     0
290
     0
174
     0
 93
       13
 44
0.0
173
     0
291
     1
 45
0.0
1001
ACAD
1000
AcDbSavedByObjectVersion
1070
     0
  0
VISUALSTYLE
  5
2D
102
{ACAD_REACTORS
330
2A
102
}
102
{ACAD_XDICTIONARY
360
400
102
}
330
2A
100
AcDbVisualStyle
  2
Gouraud
 70
     2
 71
     2
 72
     2
 73
     1
 90
        2
 40
0.6
 41
30.0
 62
     5
 63
     7
421
 16777215
 74
     0
 91
        0
 64
     7
 65
   257
 75
     1
175
     1
 42
1.0
 92
        0
 66
     7
 43
1.0
 76
     1
 77
     6
 78
     2
 67
     7
 79
     5
170
     0
171
     0
290
     0
174
     0
 93
       13
 44
0.0
173
     0
291
     1
 45
0.0
1001
ACAD
1000
AcDbSavedByObjectVersion
1070
     0
  0
VISUALSTYLE
  5
2E
102
{ACAD_REACTORS
330
2A
102
}
102
{ACAD_XDICTIONARY
360
402
102
}
330
2A
100
AcDbVisualStyle
  2
GouraudWithEdges
 70
     3
 71
     2
 72
     2
 73
     1
 90
        2
 40
0.6
 41
30.0
 62
     5
 63
     7
421
 16777215
 74
     1
 91
        0
 64
     7
 65
   257
 75
     1
175
     1
 42
1.0
 92
        0
 66
   257
 43
1.0
 76
     1
 77
     6
 78
     2
 67
     7
 79
     5
170
     0
171
     0
290
     0
174
     0
 93
       13
 44
0.0
173
     0
291
     1
 45
0.0
1001
ACAD
1000
AcDbSavedByObjectVersion
1070
     0
  0
VISUALSTYLE
  5
31
102
{ACAD_REACTORS
330
2A
102
}
102
{ACAD_XDICTIONARY
360
408
102
}
330
2A
100
AcDbVisualStyle
  2
Hidden
 70
     6
 71
     1
 72
     2
 73
     2
 90
        0
 40
0.6
 41
30.0
 62
     5
 63
     7
421
 16777215
 74
     2
 91
        2
 64
     7
 65
   257
 75
     2
175
     1
 42
40.0
 92
        0
 66
   257
 43
1.0
 76
     1
 77
     6
 78
     2
 67
     7
 79
     3
170
     0
171
     0
290
     0
174
     0
 93
        1
 44
0.0
173
     0
291
     0
 45
0.0
1001
ACAD
1000
AcDbSavedByObjectVersion
1070
     0
  0
VISUALSTYLE
  5
3B
102
{ACAD_REACTORS
330
2A
102
}
102
{ACAD_XDICTIONARY
360
41C
102
}
330
2A
100
AcDbVisualStyle
  2
JitterOff
 70
    20
 71
     2
 72
     2
 73
     0
 90
        0
 40
0.6
 41
30.0
 62
     5
 63
     7
421
 16777215
 74
     1
 91
        4
 64
     7
 65
   257
 75
     1
175
     1
 42
1.0
 92
       10
 66
     7
 43
1.0
 76
     1
 77
     6
 78
     2
 67
     7
 79
     5
170
     0
171
     0
290
     0
174
     0
 93
        1
 44
0.0
173
     0
291
     1
 45
0.0
1001
ACAD
1000
AcDbSavedByObjectVersion
1070
     0
  0
VISUALSTYLE
  5
38
102
{ACAD_REACTORS
330
2A
102
}
102
{ACAD_XDICTIONARY
360
416
102
}
330
2A
100
AcDbVisualStyle
  2
Linepattern
 70
    14
 71
     2
 72
     2
 73
     0
 90
        0
 40
0.6
 41
30.0
 62
     5
 63
     7
421
 16777215
 74
     1
 91
        4
 64
     7
 65
   257
 75
     7
175
     7
 42
1.0
 92
        8
 66
     7
 43
1.0
 76
     1
 77
     6
 78
     2
 67
     7
 79
     5
170
     0
171
     0
290
     0
174
     0
 93
        1
 44
0.0
173
     0
291
     1
 45
0.0
1001
ACAD
1000
AcDbSavedByObjectVersion
1070
     0
  0
VISUALSTYLE
  5
3C
102
{ACAD_REACTORS
330
2A
102
}
102
{ACAD_XDICTIONARY
360
41E
102
}
330
2A
100
AcDbVisualStyle
  2
OverhangOff
 70
    21
 71
     2
 72
     2
 73
     0
 90
        0
 40
0.6
 41
30.0
 62
     5
 63
     7
421
 16777215
 74
     1
 91
        4
 64
     7
 65
   257
 75
     1
175
     1
 42
1.0
 92
        9
 66
     7
 43
1.0
 76
     1
 77
     6
 78
     2
 67
     7
 79
     5
170
     0
171
     0
290
     0
174
     0
 93
        1
 44
0.0
173
     0
291
     1
 45
0.0
1001
ACAD
1000
AcDbSavedByObjectVersion
1070
     0
  0
VISUALSTYLE
  5
33
102
{ACAD_REACTORS
330
2A
102
}
102
{ACAD_XDICTIONARY
360
40C
102
}
330
2A
100
AcDbVisualStyle
  2
Realistic
 70
     8
 71
     2
 72
     3
 73
     0
 90
        2
 40
0.6
 41
30.0
 62
     5
 63
     7
421
 16777215
 74
     0
 91
        0
 64
     7
 65
   257
 75
     1
175
     1
 42
1.0
 92
        8
 66
   257
 43
1.0
 76
     1
 77
     6
 78
     2
 67
     7
 79
     3
170
     0
171
     0
290
     0
174
     0
 93
       13
 44
0.0
173
     0
291
     0
 45
0.0
1001
ACAD
1000
AcDbSavedByObjectVersion
1070
     0
  0
VISUALSTYLE
  5
42
102
{ACAD_REACTORS
330
2A
102
}
102
{ACAD_XDICTIONARY
360
42A
102
}
330
2A
100
AcDbVisualStyle
  2
Shaded
 70
    27
 71
     2
 72
     2
 73
     1
 90
        2
 40
0.6
 41
30.0
 62
     5
 63
     7
421
 16777215
 74
     0
 91
        4
 64
     7
 65
   257
 75
     1
175
     1
 42
1.0
 92
        8
 66
   257
 43
1.0
 76
     1
 77
     6
 78
     2
 67
     8
425
  7895160
 79
     3
170
     0
171
     0
290
     0
174
     0
 93
        5
 44
0.0
173
     0
291
     0
 45
0.0
1001
ACAD
1000
AcDbSavedByObjectVersion
1070
     0
  0
VISUALSTYLE
  5
41
102
{ACAD_REACTORS
330
2A
102
}
102
{ACAD_XDICTIONARY
360
428
102
}
330
2A
100
AcDbVisualStyle
  2
Shaded with edges
 70
    26
 71
     2
 72
     2
 73
     1
 90
        2
 40
0.6
 41
30.0
 62
     5
 63
     7
421
 16777215
 74
     1
 91
       10
 64
     7
 65
   257
 75
     2
175
     1
 42
1.0
 92
        8
 66
   257
 43
1.0
 76
     1
 77
     6
 78
     2
 67
     7
 79
     3
170
     0
171
     0
290
     0
174
     0
 93
        5
 44
0.0
173
     0
291
     0
 45
0.0
1001
ACAD
1000
AcDbSavedByObjectVersion
1070
     0
  0
VISUALSTYLE
  5
3E
102
{ACAD_REACTORS
330
2A
102
}
102
{ACAD_XDICTIONARY
360
422
102
}
330
2A
100
AcDbVisualStyle
  2
Shades of Gray
 70
    23
 71
     2
 72
     2
 73
     3
 90
        0
 40
0.6
 41
30.0
 62
     5
 63
     7
421
 16777215
 74
     2
 91
        2
 64
     7
 65
     7
 75
     1
175
     1
 42
40.0
 92
        8
 66
     7
 43
1.0
 76
     1
 77
     6
 78
     2
 67
     7
 79
     3
170
     0
171
     0
290
     0
174
     0
 93
        1
 44
0.0
173
     0
291
     0
 45
0.0
1001
ACAD
1000
AcDbSavedByObjectVersion
1070
     0
  0
VISUALSTYLE
  5
3F
102
{ACAD_REACTORS
330
2A
102
}
102
{ACAD_XDICTIONARY
360
424
102
}
330
2A
100
AcDbVisualStyle
  2
Sketchy
 70
    24
 71
     1
 72
     2
 73
     2
 90
        0
 40
0.6
 41
30.0
 62
     5
 63
     7
421
 16777215
 74
     2
 91
        2
 64
     7
 65
     7
 75
     1
175
     1
 42
40.0
 92
       11
 66
     7
 43
1.0
 76
     1
 77
     6
 78
     2
 67
     7
 79
     6
170
     0
171
     0
290
     0
174
     0
 93
        1
 44
0.0
173
     0
291
     0
 45
0.0
1001
ACAD
1000
AcDbSavedByObjectVersion
1070
     0
  0
VISUALSTYLE
  5
37
102
{ACAD_REACTORS
330
2A
102
}
102
{ACAD_XDICTIONARY
360
414
102
}
330
2A
100
AcDbVisualStyle
  2
Thicken
 70
    13
 71
     2
 72
     2
 73
     0
 90
        0
 40
0.6
 41
30.0
 62
     5
 63
     7
421
 16777215
 74
     1
 91
        4
 64
     7
 65
   257
 75
     1
175
     1
 42
1.0
 92
       12
 66
     7
 43
1.0
 76
     1
 77
     6
 78
     2
 67
     7
 79
     5
170
     0
171
     0
290
     0
174
     0
 93
        1
 44
0.0
173
     0
291
     1
 45
0.0
1001
ACAD
1000
AcDbSavedByObjectVersion
1070
     0
  0
VISUALSTYLE
  5
30
102
{ACAD_REACTORS
330
2A
102
}
102
{ACAD_XDICTIONARY
360
406
102
}
330
2A
100
AcDbVisualStyle
  2
Wireframe
 70
     5
 71
     0
 72
     2
 73
     0
 90
        0
 40
0.6
 41
30.0
 62
     5
 63
     7
421
 16777215
 74
     1
 91
        4
 64
     7
 65
   257
 75
     1
175
     1
 42
1.0
 92
        0
 66
   257
 43
1.0
 76
     1
 77
     6
 78
     2
 67
     7
 79
     3
170
     0
171
     0
290
     0
174
     0
 93
        1
 44
0.0
173
     0
291
     0
 45
0.0
1001
ACAD
1000
AcDbSavedByObjectVersion
1070
     0
  0
VISUALSTYLE
  5
40
102
{ACAD_REACTORS
330
2A
102
}
102
{ACAD_XDICTIONARY
360
426
102
}
330
2A
100
AcDbVisualStyle
  2
X-Ray
 70
    25
 71
     2
 72
     2
 73
     1
 90
        1
 40
0.5
 41
30.0
 62
     5
 63
     7
421
 16777215
 74
     1
 91
        0
 64
     7
 65
   257
 75
     1
175
     1
 42
1.0
 92
        8
 66
     7
 43
1.0
 76
     1
 77
     6
 78
     2
 67
     7
 79
     3
170
     0
171
     0
290
     0
174
     0
 93
       13
 44
0.0
173
     0
291
     0
 45
0.0
1001
ACAD
1000
AcDbSavedByObjectVersion
1070
     0
  0
DICTIONARYVAR
  5
3F9
102
{ACAD_REACTORS
330
3F8
102
}
330
3F8
100
DictionaryVariables
280
     0
  1
1:1
  0
DICTIONARYVAR
  5
43D
102
{ACAD_REACTORS
330
3F8
102
}
330
3F8
100
DictionaryVariables
280
     0
  1
3.500000
  0
DICTIONARYVAR
  5
43E
102
{ACAD_REACTORS
330
3F8
102
}
330
3F8
100
DictionaryVariables
280
     0
  1
acadiso.lin
  0
DICTIONARYVAR
  5
43A
102
{ACAD_REACTORS
330
3F8
102
}
330
3F8
100
DictionaryVariables
280
     0
  1
Standard
  0
DICTIONARYVAR
  5
439
102
{ACAD_REACTORS
330
3F8
102
}
330
3F8
100
DictionaryVariables
280
     0
  1
Standard
  0
DICTIONARYVAR
  5
3FA
102
{ACAD_REACTORS
330
3F8
102
}
330
3F8
100
DictionaryVariables
280
     0
  1
1
  0
DICTIONARYVAR
  5
3FB
102
{ACAD_REACTORS
330
3F8
102
}
330
3F8
100
DictionaryVariables
280
     0
  1
2
  0
DICTIONARY
  5
42E
330
45
100
AcDbDictionary
280
     1
281
     1
  3
ACAD_XREC_ROUNDTRIP
360
42F
  0
DICTIONARY
  5
42C
330
44
100
AcDbDictionary
280
     1
281
     1
  3
ACAD_XREC_ROUNDTRIP
360
42D
  0
DICTIONARY
  5
430
330
46
100
AcDbDictionary
280
     1
281
     1
  3
ACAD_XREC_ROUNDTRIP
360
431
  0
DICTIONARY
  5
436
330
6C
100
AcDbDictionary
280
     1
281
     1
  3
ACAD_XREC_ROUNDTRIP
360
437
  0
DICTIONARY
  5
432
330
6A
100
AcDbDictionary
280
     1
281
     1
  3
ACAD_ROUNDTRIP_2008_TABLESTYLE_CELLSTYLEMAP
360
434
  3
ACAD_XREC_ROUNDTRIP
360
433
  0
DICTIONARY
  5
404
330
2F
100
AcDbDictionary
280
     1
281
     1
  3
ACAD_XREC_ROUNDTRIP
360
405
  0
DICTIONARY
  5
40A
330
32
100
AcDbDictionary
280
     1
281
     1
  3
ACAD_XREC_ROUNDTRIP
360
40B
  0
DICTIONARY
  5
412
330
36
100
AcDbDictionary
280
     1
281
     1
  3
ACAD_XREC_ROUNDTRIP
360
413
  0
DICTIONARY
  5
41A
330
3A
100
AcDbDictionary
280
     1
281
     1
  3
ACAD_XREC_ROUNDTRIP
360
41B
  0
DICTIONARY
  5
40E
330
34
100
AcDbDictionary
280
     1
281
     1
  3
ACAD_XREC_ROUNDTRIP
360
40F
  0
DICTIONARY
  5
410
330
35
100
AcDbDictionary
280
     1
281
     1
  3
ACAD_XREC_ROUNDTRIP
360
411
  0
DICTIONARY
  5
420
330
3D
100
AcDbDictionary
280
     1
281
     1
  3
ACAD_XREC_ROUNDTRIP
360
421
  0
DICTIONARY
  5
418
330
39
100
AcDbDictionary
280
     1
281
     1
  3
ACAD_XREC_ROUNDTRIP
360
419
  0
DICTIONARY
  5
3FC
330
2B
100
AcDbDictionary
280
     1
281
     1
  3
ACAD_XREC_ROUNDTRIP
360
3FD
  0
DICTIONARY
  5
3FE
330
2C
100
AcDbDictionary
280
     1
281
     1
  3
ACAD_XREC_ROUNDTRIP
360
3FF
  0
DICTIONARY
  5
400
330
2D
100
AcDbDictionary
280
     1
281
     1
  3
ACAD_XREC_ROUNDTRIP
360
401
  0
DICTIONARY
  5
402
330
2E
100
AcDbDictionary
280
     1
281
     1
  3
ACAD_XREC_ROUNDTRIP
360
403
  0
DICTIONARY
  5
408
330
31
100
AcDbDictionary
280
     1
281
     1
  3
ACAD_XREC_ROUNDTRIP
360
409
  0
DICTIONARY
  5
41C
330
3B
100
AcDbDictionary
280
     1
281
     1
  3
ACAD_XREC_ROUNDTRIP
360
41D
  0
DICTIONARY
  5
416
330
38
100
AcDbDictionary
280
     1
281
     1
  3
ACAD_XREC_ROUNDTRIP
360
417
  0
DICTIONARY
  5
41E
330
3C
100
AcDbDictionary
280
     1
281
     1
  3
ACAD_XREC_ROUNDTRIP
360
41F
  0
DICTIONARY
  5
40C
330
33
100
AcDbDictionary
280
     1
281
     1
  3
ACAD_XREC_ROUNDTRIP
360
40D
  0
DICTIONARY
  5
42A
330
42
100
AcDbDictionary
280
     1
281
     1
  3
ACAD_XREC_ROUNDTRIP
360
42B
  0
DICTIONARY
  5
428
330
41
100
AcDbDictionary
280
     1
281
     1
  3
ACAD_XREC_ROUNDTRIP
360
429
  0
DICTIONARY
  5
422
330
3E
100
AcDbDictionary
280
     1
281
     1
  3
ACAD_XREC_ROUNDTRIP
360
423
  0
DICTIONARY
  5
424
330
3F
100
AcDbDictionary
280
     1
281
     1
  3
ACAD_XREC_ROUNDTRIP
360
425
  0
DICTIONARY
  5
414
330
37
100
AcDbDictionary
280
     1
281
     1
  3
ACAD_XREC_ROUNDTRIP
360
415
  0
DICTIONARY
  5
406
330
30
100
AcDbDictionary
280
     1
281
     1
  3
ACAD_XREC_ROUNDTRIP
360
407
  0
DICTIONARY
  5
426
330
40
100
AcDbDictionary
280
     1
281
     1
  3
ACAD_XREC_ROUNDTRIP
360
427
  0
XRECORD
  5
42F
102
{ACAD_REACTORS
330
42E
102
}
330
42E
100
AcDbXrecord
280
     1
102
MATERIAL
148
0.0
149
0.0
149
0.0
 93
        0
 94
      127
282
     0
 72
     1
 77
     1
171
     1
175
     1
179
     1
273
     0
  0
XRECORD
  5
42D
102
{ACAD_REACTORS
330
42C
102
}
330
42C
100
AcDbXrecord
280
     1
102
MATERIAL
148
0.0
149
0.0
149
0.0
 93
        0
 94
      127
282
     0
 72
     1
 77
     1
171
     1
175
     1
179
     1
273
     0
  0
XRECORD
  5
431
102
{ACAD_REACTORS
330
430
102
}
330
430
100
AcDbXrecord
280
     1
102
MATERIAL
148
0.0
149
0.0
149
0.0
 93
        0
 94
      127
282
     0
 72
     1
 77
     1
171
     1
175
     1
179
     1
273
     0
  0
XRECORD
  5
437
102
{ACAD_REACTORS
330
436
102
}
330
436
100
AcDbXrecord
280
     1
102
ACAD_ROUNDTRIP_2010_MLEADER_STYLE
  0
CELLSTYLEMAP
  5
434
102
{ACAD_REACTORS
330
432
102
}
330
432
100
AcDbCellStyleMap
 90
        3
300
CELLSTYLE
  1
TABLEFORMAT_BEGIN
 90
        5
170
     1
 91
        0
 92
    32768
 62
   257
 93
        1
300
CONTENTFORMAT
  1
CONTENTFORMAT_BEGIN
 90
        0
 91
        0
 92
        4
 93
        0
300

 40
0.0
140
1.0
 94
        5
 62
     0
340
11
144
6.0
309
CONTENTFORMAT_END
171
     1
301
MARGIN
  1
CELLMARGIN_BEGIN
 40
1.5
 40
1.5
 40
1.5
 40
1.5
 40
1.5
 40
1.5
309
CELLMARGIN_END
 94
        6
 95
        1
302
GRIDFORMAT
  1
GRIDFORMAT_BEGIN
 90
        0
 91
        1
 62
     0
 92
       -2
340
14
 93
        0
 40
0.045
309
GRIDFORMAT_END
 95
        2
302
GRIDFORMAT
  1
GRIDFORMAT_BEGIN
 90
        0
 91
        1
 62
     0
 92
       -2
340
14
 93
        0
 40
0.045
309
GRIDFORMAT_END
 95
        4
302
GRIDFORMAT
  1
GRIDFORMAT_BEGIN
 90
        0
 91
        1
 62
     0
 92
       -2
340
14
 93
        0
 40
0.045
309
GRIDFORMAT_END
 95
        8
302
GRIDFORMAT
  1
GRIDFORMAT_BEGIN
 90
        0
 91
        1
 62
     0
 92
       -2
340
14
 93
        0
 40
0.045
309
GRIDFORMAT_END
 95
       16
302
GRIDFORMAT
  1
GRIDFORMAT_BEGIN
 90
        0
 91
        1
 62
     0
 92
       -2
340
14
 93
        0
 40
0.045
309
GRIDFORMAT_END
 95
       32
302
GRIDFORMAT
  1
GRIDFORMAT_BEGIN
 90
        0
 91
        1
 62
     0
 92
       -2
340
14
 93
        0
 40
0.045
309
GRIDFORMAT_END
309
TABLEFORMAT_END
  1
CELLSTYLE_BEGIN
 90
        1
 91
        1
300
_TITLE
309
CELLSTYLE_END
300
CELLSTYLE
  1
TABLEFORMAT_BEGIN
 90
        5
170
     1
 91
        0
 92
        0
 62
   257
 93
        1
300
CONTENTFORMAT
  1
CONTENTFORMAT_BEGIN
 90
        0
 91
        0
 92
        4
 93
        0
300

 40
0.0
140
1.0
 94
        5
 62
     0
340
11
144
4.5
309
CONTENTFORMAT_END
171
     1
301
MARGIN
  1
CELLMARGIN_BEGIN
 40
1.5
 40
1.5
 40
1.5
 40
1.5
 40
1.5
 40
1.5
309
CELLMARGIN_END
 94
        6
 95
        1
302
GRIDFORMAT
  1
GRIDFORMAT_BEGIN
 90
        0
 91
        1
 62
     0
 92
       -2
340
14
 93
        0
 40
0.045
309
GRIDFORMAT_END
 95
        2
302
GRIDFORMAT
  1
GRIDFORMAT_BEGIN
 90
        0
 91
        1
 62
     0
 92
       -2
340
14
 93
        0
 40
0.045
309
GRIDFORMAT_END
 95
        4
302
GRIDFORMAT
  1
GRIDFORMAT_BEGIN
 90
        0
 91
        1
 62
     0
 92
       -2
340
14
 93
        0
 40
0.045
309
GRIDFORMAT_END
 95
        8
302
GRIDFORMAT
  1
GRIDFORMAT_BEGIN
 90
        0
 91
        1
 62
     0
 92
       -2
340
14
 93
        0
 40
0.045
309
GRIDFORMAT_END
 95
       16
302
GRIDFORMAT
  1
GRIDFORMAT_BEGIN
 90
        0
 91
        1
 62
     0
 92
       -2
340
14
 93
        0
 40
0.045
309
GRIDFORMAT_END
 95
       32
302
GRIDFORMAT
  1
GRIDFORMAT_BEGIN
 90
        0
 91
        1
 62
     0
 92
       -2
340
14
 93
        0
 40
0.045
309
GRIDFORMAT_END
309
TABLEFORMAT_END
  1
CELLSTYLE_BEGIN
 90
        2
 91
        1
300
_HEADER
309
CELLSTYLE_END
300
CELLSTYLE
  1
TABLEFORMAT_BEGIN
 90
        5
170
     1
 91
        0
 92
        0
 62
   257
 93
        1
300
CONTENTFORMAT
  1
CONTENTFORMAT_BEGIN
 90
        0
 91
        0
 92
        4
 93
        0
300

 40
0.0
140
1.0
 94
        2
 62
     0
340
11
144
4.5
309
CONTENTFORMAT_END
171
     1
301
MARGIN
  1
CELLMARGIN_BEGIN
 40
1.5
 40
1.5
 40
1.5
 40
1.5
 40
1.5
 40
1.5
309
CELLMARGIN_END
 94
        6
 95
        1
302
GRIDFORMAT
  1
GRIDFORMAT_BEGIN
 90
        0
 91
        1
 62
     0
 92
       -2
340
14
 93
        0
 40
0.045
309
GRIDFORMAT_END
 95
        2
302
GRIDFORMAT
  1
GRIDFORMAT_BEGIN
 90
        0
 91
        1
 62
     0
 92
       -2
340
14
 93
        0
 40
0.045
309
GRIDFORMAT_END
 95
        4
302
GRIDFORMAT
  1
GRIDFORMAT_BEGIN
 90
        0
 91
        1
 62
     0
 92
       -2
340
14
 93
        0
 40
0.045
309
GRIDFORMAT_END
 95
        8
302
GRIDFORMAT
  1
GRIDFORMAT_BEGIN
 90
        0
 91
        1
 62
     0
 92
       -2
340
14
 93
        0
 40
0.045
309
GRIDFORMAT_END
 95
       16
302
GRIDFORMAT
  1
GRIDFORMAT_BEGIN
 90
        0
 91
        1
 62
     0
 92
       -2
340
14
 93
        0
 40
0.045
309
GRIDFORMAT_END
 95
       32
302
GRIDFORMAT
  1
GRIDFORMAT_BEGIN
 90
        0
 91
        1
 62
     0
 92
       -2
340
14
 93
        0
 40
0.045
309
GRIDFORMAT_END
309
TABLEFORMAT_END
  1
CELLSTYLE_BEGIN
 90
        3
 91
        2
300
_DATA
309
CELLSTYLE_END
  0
XRECORD
  5
433
102
{ACAD_REACTORS
330
432
102
}
330
432
100
AcDbXrecord
280
     1
102
ACAD_ROUNDTRIP_PRE2007_TABLESTYLE
 90
        4
 91
        0
  1

 92
        4
 93
        0
  2

 94
        4
 95
        0
  3

  0
XRECORD
  5
405
102
{ACAD_REACTORS
330
404
102
}
330
404
100
AcDbXrecord
280
     1
102
RTVSPropertyOp0
 70
     1
102
RTVSPropertyOp1
 70
     1
102
RTVSPropertyOp2
 70
     1
102
RTVSPropertyOp3
 70
     1
102
RTVSPropertyOp4
 70
     1
102
RTVSPropertyOp5
 70
     1
102
RTVSPropertyOp6
 70
     1
102
RTVSPropertyOp7
 70
     1
102
RTVSPropertyOp8
 70
     1
102
RTVSPropertyOp9
 70
     1
102
RTVSPropertyOp10
 70
     1
102
RTVSPropertyOp11
 70
     1
102
RTVSPropertyOp12
 70
     1
102
RTVSPropertyOp13
 70
     1
102
RTVSPropertyOp14
 70
     1
102
RTVSPropertyOp15
 70
     1
102
RTVSPropertyOp16
 70
     1
102
RTVSPropertyOp17
 70
     1
102
RTVSPropertyOp18
 70
     1
102
RTVSPropertyOp19
 70
     1
102
RTVSPropertyOp20
 70
     1
102
RTVSPropertyOp21
 70
     1
102
RTVSPropertyOp22
 70
     1
102
RTVSPropertyOp23
 70
     1
102
RTVSPropertyOp24
 70
     1
102
RTVSPropertyOp25
 70
     1
102
RTVSPropertyOp26
 70
     1
102
RTVSPropertyOp27
 70
     1
102
RTVSPropertyOp28
 70
     1
102
RTVSPropertyOp29
 70
     1
102
RTVSPropertyOp30
 70
     1
102
RTVSPropertyOp31
 70
     1
102
RTVSPropertyOp32
 70
     1
102
RTVSPropertyOp33
 70
     1
102
RTVSPropertyOp34
 70
     1
102
RTVSPropertyOp35
 70
     1
102
RTVSPropertyOp36
 70
     1
102
RTVSPropertyOp37
 70
     1
102
RTVSPropertyOp38
 70
     1
102
RTVSPropertyOp39
 70
     1
102
RTVSPropertyOp40
 70
     1
102
RTVSPropertyOp41
 70
     1
102
RTVSPropertyOp42
 70
     1
102
RTVSPropertyOp43
 70
     1
102
RTVSPropertyOp44
 70
     1
102
RTVSPropertyOp45
 70
     1
102
RTVSPropertyOp46
 70
     1
102
RTVSPropertyOp47
 70
     1
102
RTVSPropertyOp48
 70
     1
102
RTVSPropertyOp49
 70
     1
102
RTVSPropertyOp50
 70
     1
102
RTVSPropertyOp51
 70
     0
102
RTVSPropertyOp52
 70
     0
102
RTVSPropertyOp53
 70
     1
102
RTVSPropertyOp54
 70
     1
102
RTVSPropertyOp55
 70
     1
102
RTVSPropertyOp56
 70
     1
102
RTVSPropertyOp57
 70
     1
102
RTVSPost2010Prop28
280
     1
102
RTVSPost2010PropOp28
 70
     1
102
RTVSPost2010Prop29
280
     1
102
RTVSPost2010PropOp29
 70
     1
102
RTVSPost2010Prop30
280
     0
102
RTVSPost2010PropOp30
 70
     1
102
RTVSPost2010Prop31
280
     0
102
RTVSPost2010PropOp31
 70
     1
102
RTVSPost2010Prop32
280
     0
102
RTVSPost2010PropOp32
 70
     1
102
RTVSPost2010Prop33
280
     0
102
RTVSPost2010PropOp33
 70
     1
102
RTVSPost2010Prop34
280
     0
102
RTVSPost2010PropOp34
 70
     1
102
RTVSPost2010Prop35
280
     0
102
RTVSPost2010PropOp35
 70
     1
102
RTVSPost2010Prop36
280
     0
102
RTVSPost2010PropOp36
 70
     1
102
RTVSPost2010Prop37
 90
       50
102
RTVSPost2010PropOp37
 70
     1
102
RTVSPost2010Prop38
140
0.0
102
RTVSPost2010PropOp38
 70
     1
102
RTVSPost2010Prop39
140
1.0
102
RTVSPost2010PropOp39
 70
     1
102
RTVSPost2010Prop40
 90
        0
102
RTVSPost2010PropOp40
 70
     1
102
RTVSPost2010Prop41ColorIndex
 90
       18
102
RTVSPost2010Prop41ColorRGB
 90
        0
102
RTVSPost2010PropOp41
 70
     1
102
RTVSPost2010Prop42
 90
       50
102
RTVSPost2010PropOp42
 70
     1
102
RTVSPost2010Prop43
 90
        3
102
RTVSPost2010PropOp43
 70
     1
102
RTVSPost2010Prop44ColorIndex
 90
        5
102
RTVSPost2010Prop44ColorRGB
 90
      255
102
RTVSPost2010PropOp44
 70
     1
102
RTVSPost2010Prop45
280
     0
102
RTVSPost2010PropOp45
 70
     1
102
RTVSPost2010Prop46
 90
       50
102
RTVSPost2010PropOp46
 70
     1
102
RTVSPost2010Prop47
 90
       50
102
RTVSPost2010PropOp47
 70
     1
102
RTVSPost2010Prop48
 90
       50
102
RTVSPost2010PropOp48
 70
     1
102
RTVSPost2010Prop49
280
     0
102
RTVSPost2010PropOp49
 70
     1
102
RTVSPost2010Prop50
 90
       50
102
RTVSPost2010PropOp50
 70
     1
102
RTVSPost2010Prop51ColorIndex
 90
      256
102
RTVSPost2010Prop51ColorRGB
 90
-16777216
102
RTVSPost2010PropOp51
 70
     0
102
RTVSPost2010Prop52
140
1.0
102
RTVSPost2010PropOp52
 70
     0
102
RTVSPost2010Prop53
 90
        2
102
RTVSPost2010PropOp53
 70
     1
102
RTVSPost2010Prop54
  1
strokes_ogs.tif
102
RTVSPost2010PropOp54
 70
     1
102
RTVSPost2010Prop55
280
     0
102
RTVSPost2010PropOp55
 70
     1
102
RTVSPost2010Prop56
140
1.0
102
RTVSPost2010PropOp56
 70
     1
102
RTVSPost2010Prop57
140
1.0
102
RTVSPost2010PropOp57
 70
     1
  0
XRECORD
  5
40B
102
{ACAD_REACTORS
330
40A
102
}
330
40A
100
AcDbXrecord
280
     1
102
RTVSPropertyOp0
 70
     1
102
RTVSPropertyOp1
 70
     1
102
RTVSPropertyOp2
 70
     1
102
RTVSPropertyOp3
 70
     1
102
RTVSPropertyOp4
 70
     1
102
RTVSPropertyOp5
 70
     1
102
RTVSPropertyOp6
 70
     1
102
RTVSPropertyOp7
 70
     1
102
RTVSPropertyOp8
 70
     1
102
RTVSPropertyOp9
 70
     1
102
RTVSPropertyOp10
 70
     1
102
RTVSPropertyOp11
 70
     1
102
RTVSPropertyOp12
 70
     1
102
RTVSPropertyOp13
 70
     1
102
RTVSPropertyOp14
 70
     1
102
RTVSPropertyOp15
 70
     1
102
RTVSPropertyOp16
 70
     1
102
RTVSPropertyOp17
 70
     1
102
RTVSPropertyOp18
 70
     1
102
RTVSPropertyOp19
 70
     1
102
RTVSPropertyOp20
 70
     1
102
RTVSPropertyOp21
 70
     1
102
RTVSPropertyOp22
 70
     1
102
RTVSPropertyOp23
 70
     1
102
RTVSPropertyOp24
 70
     1
102
RTVSPropertyOp25
 70
     1
102
RTVSPropertyOp26
 70
     1
102
RTVSPropertyOp27
 70
     1
102
RTVSPropertyOp28
 70
     1
102
RTVSPropertyOp29
 70
     1
102
RTVSPropertyOp30
 70
     1
102
RTVSPropertyOp31
 70
     1
102
RTVSPropertyOp32
 70
     1
102
RTVSPropertyOp33
 70
     1
102
RTVSPropertyOp34
 70
     1
102
RTVSPropertyOp35
 70
     1
102
RTVSPropertyOp36
 70
     1
102
RTVSPropertyOp37
 70
     1
102
RTVSPropertyOp38
 70
     1
102
RTVSPropertyOp39
 70
     1
102
RTVSPropertyOp40
 70
     1
102
RTVSPropertyOp41
 70
     1
102
RTVSPropertyOp42
 70
     1
102
RTVSPropertyOp43
 70
     1
102
RTVSPropertyOp44
 70
     1
102
RTVSPropertyOp45
 70
     1
102
RTVSPropertyOp46
 70
     1
102
RTVSPropertyOp47
 70
     1
102
RTVSPropertyOp48
 70
     1
102
RTVSPropertyOp49
 70
     1
102
RTVSPropertyOp50
 70
     1
102
RTVSPropertyOp51
 70
     0
102
RTVSPropertyOp52
 70
     0
102
RTVSPropertyOp53
 70
     1
102
RTVSPropertyOp54
 70
     1
102
RTVSPropertyOp55
 70
     1
102
RTVSPropertyOp56
 70
     1
102
RTVSPropertyOp57
 70
     1
102
RTVSPost2010Prop28
280
     0
102
RTVSPost2010PropOp28
 70
     1
102
RTVSPost2010Prop29
280
     1
102
RTVSPost2010PropOp29
 70
     1
102
RTVSPost2010Prop30
280
     1
102
RTVSPost2010PropOp30
 70
     1
102
RTVSPost2010Prop31
280
     0
102
RTVSPost2010PropOp31
 70
     1
102
RTVSPost2010Prop32
280
     0
102
RTVSPost2010PropOp32
 70
     1
102
RTVSPost2010Prop33
280
     0
102
RTVSPost2010PropOp33
 70
     1
102
RTVSPost2010Prop34
280
     0
102
RTVSPost2010PropOp34
 70
     1
102
RTVSPost2010Prop35
280
     0
102
RTVSPost2010PropOp35
 70
     1
102
RTVSPost2010Prop36
280
     0
102
RTVSPost2010PropOp36
 70
     1
102
RTVSPost2010Prop37
 90
       50
102
RTVSPost2010PropOp37
 70
     1
102
RTVSPost2010Prop38
140
0.0
102
RTVSPost2010PropOp38
 70
     1
102
RTVSPost2010Prop39
140
1.0
102
RTVSPost2010PropOp39
 70
     1
102
RTVSPost2010Prop40
 90
        0
102
RTVSPost2010PropOp40
 70
     1
102
RTVSPost2010Prop41ColorIndex
 90
       18
102
RTVSPost2010Prop41ColorRGB
 90
        0
102
RTVSPost2010PropOp41
 70
     1
102
RTVSPost2010Prop42
 90
       50
102
RTVSPost2010PropOp42
 70
     1
102
RTVSPost2010Prop43
 90
        3
102
RTVSPost2010PropOp43
 70
     1
102
RTVSPost2010Prop44ColorIndex
 90
        5
102
RTVSPost2010Prop44ColorRGB
 90
      255
102
RTVSPost2010PropOp44
 70
     1
102
RTVSPost2010Prop45
280
     0
102
RTVSPost2010PropOp45
 70
     1
102
RTVSPost2010Prop46
 90
       50
102
RTVSPost2010PropOp46
 70
     1
102
RTVSPost2010Prop47
 90
       50
102
RTVSPost2010PropOp47
 70
     1
102
RTVSPost2010Prop48
 90
       50
102
RTVSPost2010PropOp48
 70
     1
102
RTVSPost2010Prop49
280
     0
102
RTVSPost2010PropOp49
 70
     1
102
RTVSPost2010Prop50
 90
       50
102
RTVSPost2010PropOp50
 70
     1
102
RTVSPost2010Prop51ColorIndex
 90
      256
102
RTVSPost2010Prop51ColorRGB
 90
-16777216
102
RTVSPost2010PropOp51
 70
     0
102
RTVSPost2010Prop52
140
1.0
102
RTVSPost2010PropOp52
 70
     0
102
RTVSPost2010Prop53
 90
        2
102
RTVSPost2010PropOp53
 70
     1
102
RTVSPost2010Prop54
  1
strokes_ogs.tif
102
RTVSPost2010PropOp54
 70
     1
102
RTVSPost2010Prop55
280
     0
102
RTVSPost2010PropOp55
 70
     1
102
RTVSPost2010Prop56
140
1.0
102
RTVSPost2010PropOp56
 70
     1
102
RTVSPost2010Prop57
140
1.0
102
RTVSPost2010PropOp57
 70
     1
  0
XRECORD
  5
413
102
{ACAD_REACTORS
330
412
102
}
330
412
100
AcDbXrecord
280
     1
102
RTVSPropertyOp0
 70
     1
102
RTVSPropertyOp1
 70
     1
102
RTVSPropertyOp2
 70
     1
102
RTVSPropertyOp3
 70
     1
102
RTVSPropertyOp4
 70
     1
102
RTVSPropertyOp5
 70
     1
102
RTVSPropertyOp6
 70
     1
102
RTVSPropertyOp7
 70
     1
102
RTVSPropertyOp8
 70
     1
102
RTVSPropertyOp9
 70
     1
102
RTVSPropertyOp10
 70
     1
102
RTVSPropertyOp11
 70
     1
102
RTVSPropertyOp12
 70
     1
102
RTVSPropertyOp13
 70
     1
102
RTVSPropertyOp14
 70
     1
102
RTVSPropertyOp15
 70
     1
102
RTVSPropertyOp16
 70
     1
102
RTVSPropertyOp17
 70
     1
102
RTVSPropertyOp18
 70
     1
102
RTVSPropertyOp19
 70
     1
102
RTVSPropertyOp20
 70
     1
102
RTVSPropertyOp21
 70
     1
102
RTVSPropertyOp22
 70
     1
102
RTVSPropertyOp23
 70
     1
102
RTVSPropertyOp24
 70
     1
102
RTVSPropertyOp25
 70
     1
102
RTVSPropertyOp26
 70
     1
102
RTVSPropertyOp27
 70
     1
102
RTVSPropertyOp28
 70
     1
102
RTVSPropertyOp29
 70
     1
102
RTVSPropertyOp30
 70
     1
102
RTVSPropertyOp31
 70
     1
102
RTVSPropertyOp32
 70
     1
102
RTVSPropertyOp33
 70
     1
102
RTVSPropertyOp34
 70
     1
102
RTVSPropertyOp35
 70
     1
102
RTVSPropertyOp36
 70
     1
102
RTVSPropertyOp37
 70
     1
102
RTVSPropertyOp38
 70
     1
102
RTVSPropertyOp39
 70
     1
102
RTVSPropertyOp40
 70
     1
102
RTVSPropertyOp41
 70
     1
102
RTVSPropertyOp42
 70
     1
102
RTVSPropertyOp43
 70
     1
102
RTVSPropertyOp44
 70
     1
102
RTVSPropertyOp45
 70
     1
102
RTVSPropertyOp46
 70
     1
102
RTVSPropertyOp47
 70
     1
102
RTVSPropertyOp48
 70
     1
102
RTVSPropertyOp49
 70
     1
102
RTVSPropertyOp50
 70
     1
102
RTVSPropertyOp51
 70
     0
102
RTVSPropertyOp52
 70
     0
102
RTVSPropertyOp53
 70
     1
102
RTVSPropertyOp54
 70
     1
102
RTVSPropertyOp55
 70
     1
102
RTVSPropertyOp56
 70
     1
102
RTVSPropertyOp57
 70
     1
102
RTVSPost2010Prop28
280
     0
102
RTVSPost2010PropOp28
 70
     1
102
RTVSPost2010Prop29
280
     1
102
RTVSPost2010PropOp29
 70
     1
102
RTVSPost2010Prop30
280
     1
102
RTVSPost2010PropOp30
 70
     1
102
RTVSPost2010Prop31
280
     0
102
RTVSPost2010PropOp31
 70
     1
102
RTVSPost2010Prop32
280
     0
102
RTVSPost2010PropOp32
 70
     1
102
RTVSPost2010Prop33
280
     0
102
RTVSPost2010PropOp33
 70
     1
102
RTVSPost2010Prop34
280
     0
102
RTVSPost2010PropOp34
 70
     1
102
RTVSPost2010Prop35
280
     0
102
RTVSPost2010PropOp35
 70
     1
102
RTVSPost2010Prop36
280
     0
102
RTVSPost2010PropOp36
 70
     1
102
RTVSPost2010Prop37
 90
       50
102
RTVSPost2010PropOp37
 70
     1
102
RTVSPost2010Prop38
140
0.0
102
RTVSPost2010PropOp38
 70
     1
102
RTVSPost2010Prop39
140
1.0
102
RTVSPost2010PropOp39
 70
     1
102
RTVSPost2010Prop40
 90
        0
102
RTVSPost2010PropOp40
 70
     1
102
RTVSPost2010Prop41ColorIndex
 90
       18
102
RTVSPost2010Prop41ColorRGB
 90
        0
102
RTVSPost2010PropOp41
 70
     1
102
RTVSPost2010Prop42
 90
       50
102
RTVSPost2010PropOp42
 70
     1
102
RTVSPost2010Prop43
 90
        3
102
RTVSPost2010PropOp43
 70
     1
102
RTVSPost2010Prop44ColorIndex
 90
        5
102
RTVSPost2010Prop44ColorRGB
 90
      255
102
RTVSPost2010PropOp44
 70
     1
102
RTVSPost2010Prop45
280
     0
102
RTVSPost2010PropOp45
 70
     1
102
RTVSPost2010Prop46
 90
       50
102
RTVSPost2010PropOp46
 70
     1
102
RTVSPost2010Prop47
 90
       50
102
RTVSPost2010PropOp47
 70
     1
102
RTVSPost2010Prop48
 90
       50
102
RTVSPost2010PropOp48
 70
     1
102
RTVSPost2010Prop49
280
     0
102
RTVSPost2010PropOp49
 70
     1
102
RTVSPost2010Prop50
 90
       50
102
RTVSPost2010PropOp50
 70
     1
102
RTVSPost2010Prop51ColorIndex
 90
      256
102
RTVSPost2010Prop51ColorRGB
 90
-16777216
102
RTVSPost2010PropOp51
 70
     0
102
RTVSPost2010Prop52
140
1.0
102
RTVSPost2010PropOp52
 70
     0
102
RTVSPost2010Prop53
 90
        2
102
RTVSPost2010PropOp53
 70
     1
102
RTVSPost2010Prop54
  1
strokes_ogs.tif
102
RTVSPost2010PropOp54
 70
     1
102
RTVSPost2010Prop55
280
     0
102
RTVSPost2010PropOp55
 70
     1
102
RTVSPost2010Prop56
140
1.0
102
RTVSPost2010PropOp56
 70
     1
102
RTVSPost2010Prop57
140
1.0
102
RTVSPost2010PropOp57
 70
     1
  0
XRECORD
  5
41B
102
{ACAD_REACTORS
330
41A
102
}
330
41A
100
AcDbXrecord
280
     1
102
RTVSPropertyOp0
 70
     1
102
RTVSPropertyOp1
 70
     1
102
RTVSPropertyOp2
 70
     1
102
RTVSPropertyOp3
 70
     1
102
RTVSPropertyOp4
 70
     1
102
RTVSPropertyOp5
 70
     1
102
RTVSPropertyOp6
 70
     1
102
RTVSPropertyOp7
 70
     1
102
RTVSPropertyOp8
 70
     1
102
RTVSPropertyOp9
 70
     1
102
RTVSPropertyOp10
 70
     1
102
RTVSPropertyOp11
 70
     1
102
RTVSPropertyOp12
 70
     1
102
RTVSPropertyOp13
 70
     1
102
RTVSPropertyOp14
 70
     1
102
RTVSPropertyOp15
 70
     1
102
RTVSPropertyOp16
 70
     1
102
RTVSPropertyOp17
 70
     1
102
RTVSPropertyOp18
 70
     1
102
RTVSPropertyOp19
 70
     1
102
RTVSPropertyOp20
 70
     1
102
RTVSPropertyOp21
 70
     1
102
RTVSPropertyOp22
 70
     1
102
RTVSPropertyOp23
 70
     1
102
RTVSPropertyOp24
 70
     1
102
RTVSPropertyOp25
 70
     1
102
RTVSPropertyOp26
 70
     1
102
RTVSPropertyOp27
 70
     1
102
RTVSPropertyOp28
 70
     1
102
RTVSPropertyOp29
 70
     1
102
RTVSPropertyOp30
 70
     1
102
RTVSPropertyOp31
 70
     1
102
RTVSPropertyOp32
 70
     1
102
RTVSPropertyOp33
 70
     1
102
RTVSPropertyOp34
 70
     1
102
RTVSPropertyOp35
 70
     1
102
RTVSPropertyOp36
 70
     1
102
RTVSPropertyOp37
 70
     1
102
RTVSPropertyOp38
 70
     1
102
RTVSPropertyOp39
 70
     1
102
RTVSPropertyOp40
 70
     1
102
RTVSPropertyOp41
 70
     1
102
RTVSPropertyOp42
 70
     1
102
RTVSPropertyOp43
 70
     1
102
RTVSPropertyOp44
 70
     1
102
RTVSPropertyOp45
 70
     1
102
RTVSPropertyOp46
 70
     1
102
RTVSPropertyOp47
 70
     1
102
RTVSPropertyOp48
 70
     1
102
RTVSPropertyOp49
 70
     1
102
RTVSPropertyOp50
 70
     1
102
RTVSPropertyOp51
 70
     0
102
RTVSPropertyOp52
 70
     0
102
RTVSPropertyOp53
 70
     1
102
RTVSPropertyOp54
 70
     1
102
RTVSPropertyOp55
 70
     1
102
RTVSPropertyOp56
 70
     1
102
RTVSPropertyOp57
 70
     1
102
RTVSPost2010Prop28
280
     0
102
RTVSPost2010PropOp28
 70
     1
102
RTVSPost2010Prop29
280
     1
102
RTVSPost2010PropOp29
 70
     1
102
RTVSPost2010Prop30
280
     1
102
RTVSPost2010PropOp30
 70
     1
102
RTVSPost2010Prop31
280
     0
102
RTVSPost2010PropOp31
 70
     1
102
RTVSPost2010Prop32
280
     0
102
RTVSPost2010PropOp32
 70
     1
102
RTVSPost2010Prop33
280
     0
102
RTVSPost2010PropOp33
 70
     1
102
RTVSPost2010Prop34
280
     0
102
RTVSPost2010PropOp34
 70
     1
102
RTVSPost2010Prop35
280
     0
102
RTVSPost2010PropOp35
 70
     1
102
RTVSPost2010Prop36
280
     0
102
RTVSPost2010PropOp36
 70
     1
102
RTVSPost2010Prop37
 90
       50
102
RTVSPost2010PropOp37
 70
     1
102
RTVSPost2010Prop38
140
0.0
102
RTVSPost2010PropOp38
 70
     1
102
RTVSPost2010Prop39
140
1.0
102
RTVSPost2010PropOp39
 70
     1
102
RTVSPost2010Prop40
 90
        0
102
RTVSPost2010PropOp40
 70
     1
102
RTVSPost2010Prop41ColorIndex
 90
       18
102
RTVSPost2010Prop41ColorRGB
 90
        0
102
RTVSPost2010PropOp41
 70
     1
102
RTVSPost2010Prop42
 90
       50
102
RTVSPost2010PropOp42
 70
     1
102
RTVSPost2010Prop43
 90
        3
102
RTVSPost2010PropOp43
 70
     1
102
RTVSPost2010Prop44ColorIndex
 90
        5
102
RTVSPost2010Prop44ColorRGB
 90
      255
102
RTVSPost2010PropOp44
 70
     1
102
RTVSPost2010Prop45
280
     0
102
RTVSPost2010PropOp45
 70
     1
102
RTVSPost2010Prop46
 90
       50
102
RTVSPost2010PropOp46
 70
     1
102
RTVSPost2010Prop47
 90
       50
102
RTVSPost2010PropOp47
 70
     1
102
RTVSPost2010Prop48
 90
       50
102
RTVSPost2010PropOp48
 70
     1
102
RTVSPost2010Prop49
280
     0
102
RTVSPost2010PropOp49
 70
     1
102
RTVSPost2010Prop50
 90
       50
102
RTVSPost2010PropOp50
 70
     1
102
RTVSPost2010Prop51ColorIndex
 90
      256
102
RTVSPost2010Prop51ColorRGB
 90
-16777216
102
RTVSPost2010PropOp51
 70
     0
102
RTVSPost2010Prop52
140
1.0
102
RTVSPost2010PropOp52
 70
     0
102
RTVSPost2010Prop53
 90
        2
102
RTVSPost2010PropOp53
 70
     1
102
RTVSPost2010Prop54
  1
strokes_ogs.tif
102
RTVSPost2010PropOp54
 70
     1
102
RTVSPost2010Prop55
280
     0
102
RTVSPost2010PropOp55
 70
     1
102
RTVSPost2010Prop56
140
1.0
102
RTVSPost2010PropOp56
 70
     1
102
RTVSPost2010Prop57
140
1.0
102
RTVSPost2010PropOp57
 70
     1
  0
XRECORD
  5
40F
102
{ACAD_REACTORS
330
40E
102
}
330
40E
100
AcDbXrecord
280
     1
102
RTVSPropertyOp0
 70
     1
102
RTVSPropertyOp1
 70
     1
102
RTVSPropertyOp2
 70
     1
102
RTVSPropertyOp3
 70
     1
102
RTVSPropertyOp4
 70
     1
102
RTVSPropertyOp5
 70
     1
102
RTVSPropertyOp6
 70
     1
102
RTVSPropertyOp7
 70
     1
102
RTVSPropertyOp8
 70
     1
102
RTVSPropertyOp9
 70
     1
102
RTVSPropertyOp10
 70
     1
102
RTVSPropertyOp11
 70
     1
102
RTVSPropertyOp12
 70
     1
102
RTVSPropertyOp13
 70
     1
102
RTVSPropertyOp14
 70
     1
102
RTVSPropertyOp15
 70
     1
102
RTVSPropertyOp16
 70
     1
102
RTVSPropertyOp17
 70
     1
102
RTVSPropertyOp18
 70
     1
102
RTVSPropertyOp19
 70
     1
102
RTVSPropertyOp20
 70
     1
102
RTVSPropertyOp21
 70
     1
102
RTVSPropertyOp22
 70
     1
102
RTVSPropertyOp23
 70
     1
102
RTVSPropertyOp24
 70
     1
102
RTVSPropertyOp25
 70
     1
102
RTVSPropertyOp26
 70
     1
102
RTVSPropertyOp27
 70
     1
102
RTVSPropertyOp28
 70
     1
102
RTVSPropertyOp29
 70
     1
102
RTVSPropertyOp30
 70
     1
102
RTVSPropertyOp31
 70
     1
102
RTVSPropertyOp32
 70
     1
102
RTVSPropertyOp33
 70
     1
102
RTVSPropertyOp34
 70
     1
102
RTVSPropertyOp35
 70
     1
102
RTVSPropertyOp36
 70
     1
102
RTVSPropertyOp37
 70
     1
102
RTVSPropertyOp38
 70
     1
102
RTVSPropertyOp39
 70
     1
102
RTVSPropertyOp40
 70
     1
102
RTVSPropertyOp41
 70
     1
102
RTVSPropertyOp42
 70
     1
102
RTVSPropertyOp43
 70
     1
102
RTVSPropertyOp44
 70
     1
102
RTVSPropertyOp45
 70
     1
102
RTVSPropertyOp46
 70
     1
102
RTVSPropertyOp47
 70
     1
102
RTVSPropertyOp48
 70
     1
102
RTVSPropertyOp49
 70
     1
102
RTVSPropertyOp50
 70
     1
102
RTVSPropertyOp51
 70
     0
102
RTVSPropertyOp52
 70
     0
102
RTVSPropertyOp53
 70
     1
102
RTVSPropertyOp54
 70
     1
102
RTVSPropertyOp55
 70
     1
102
RTVSPropertyOp56
 70
     1
102
RTVSPropertyOp57
 70
     1
102
RTVSPost2010Prop28
280
     0
102
RTVSPost2010PropOp28
 70
     1
102
RTVSPost2010Prop29
280
     1
102
RTVSPost2010PropOp29
 70
     1
102
RTVSPost2010Prop30
280
     1
102
RTVSPost2010PropOp30
 70
     1
102
RTVSPost2010Prop31
280
     0
102
RTVSPost2010PropOp31
 70
     1
102
RTVSPost2010Prop32
280
     0
102
RTVSPost2010PropOp32
 70
     1
102
RTVSPost2010Prop33
280
     0
102
RTVSPost2010PropOp33
 70
     1
102
RTVSPost2010Prop34
280
     0
102
RTVSPost2010PropOp34
 70
     1
102
RTVSPost2010Prop35
280
     0
102
RTVSPost2010PropOp35
 70
     1
102
RTVSPost2010Prop36
280
     0
102
RTVSPost2010PropOp36
 70
     1
102
RTVSPost2010Prop37
 90
       50
102
RTVSPost2010PropOp37
 70
     1
102
RTVSPost2010Prop38
140
0.0
102
RTVSPost2010PropOp38
 70
     1
102
RTVSPost2010Prop39
140
1.0
102
RTVSPost2010PropOp39
 70
     1
102
RTVSPost2010Prop40
 90
        0
102
RTVSPost2010PropOp40
 70
     1
102
RTVSPost2010Prop41ColorIndex
 90
       18
102
RTVSPost2010Prop41ColorRGB
 90
        0
102
RTVSPost2010PropOp41
 70
     1
102
RTVSPost2010Prop42
 90
       50
102
RTVSPost2010PropOp42
 70
     1
102
RTVSPost2010Prop43
 90
        3
102
RTVSPost2010PropOp43
 70
     1
102
RTVSPost2010Prop44ColorIndex
 90
        5
102
RTVSPost2010Prop44ColorRGB
 90
      255
102
RTVSPost2010PropOp44
 70
     1
102
RTVSPost2010Prop45
280
     0
102
RTVSPost2010PropOp45
 70
     1
102
RTVSPost2010Prop46
 90
       50
102
RTVSPost2010PropOp46
 70
     1
102
RTVSPost2010Prop47
 90
       50
102
RTVSPost2010PropOp47
 70
     1
102
RTVSPost2010Prop48
 90
       50
102
RTVSPost2010PropOp48
 70
     1
102
RTVSPost2010Prop49
280
     0
102
RTVSPost2010PropOp49
 70
     1
102
RTVSPost2010Prop50
 90
       50
102
RTVSPost2010PropOp50
 70
     1
102
RTVSPost2010Prop51ColorIndex
 90
      256
102
RTVSPost2010Prop51ColorRGB
 90
-16777216
102
RTVSPost2010PropOp51
 70
     0
102
RTVSPost2010Prop52
140
1.0
102
RTVSPost2010PropOp52
 70
     0
102
RTVSPost2010Prop53
 90
        2
102
RTVSPost2010PropOp53
 70
     1
102
RTVSPost2010Prop54
  1
strokes_ogs.tif
102
RTVSPost2010PropOp54
 70
     1
102
RTVSPost2010Prop55
280
     0
102
RTVSPost2010PropOp55
 70
     1
102
RTVSPost2010Prop56
140
1.0
102
RTVSPost2010PropOp56
 70
     1
102
RTVSPost2010Prop57
140
1.0
102
RTVSPost2010PropOp57
 70
     1
  0
XRECORD
  5
411
102
{ACAD_REACTORS
330
410
102
}
330
410
100
AcDbXrecord
280
     1
102
RTVSPropertyOp0
 70
     1
102
RTVSPropertyOp1
 70
     1
102
RTVSPropertyOp2
 70
     1
102
RTVSPropertyOp3
 70
     1
102
RTVSPropertyOp4
 70
     1
102
RTVSPropertyOp5
 70
     1
102
RTVSPropertyOp6
 70
     1
102
RTVSPropertyOp7
 70
     1
102
RTVSPropertyOp8
 70
     1
102
RTVSPropertyOp9
 70
     1
102
RTVSPropertyOp10
 70
     1
102
RTVSPropertyOp11
 70
     1
102
RTVSPropertyOp12
 70
     1
102
RTVSPropertyOp13
 70
     1
102
RTVSPropertyOp14
 70
     1
102
RTVSPropertyOp15
 70
     1
102
RTVSPropertyOp16
 70
     1
102
RTVSPropertyOp17
 70
     1
102
RTVSPropertyOp18
 70
     1
102
RTVSPropertyOp19
 70
     1
102
RTVSPropertyOp20
 70
     1
102
RTVSPropertyOp21
 70
     1
102
RTVSPropertyOp22
 70
     1
102
RTVSPropertyOp23
 70
     1
102
RTVSPropertyOp24
 70
     1
102
RTVSPropertyOp25
 70
     1
102
RTVSPropertyOp26
 70
     1
102
RTVSPropertyOp27
 70
     1
102
RTVSPropertyOp28
 70
     1
102
RTVSPropertyOp29
 70
     1
102
RTVSPropertyOp30
 70
     1
102
RTVSPropertyOp31
 70
     1
102
RTVSPropertyOp32
 70
     1
102
RTVSPropertyOp33
 70
     1
102
RTVSPropertyOp34
 70
     1
102
RTVSPropertyOp35
 70
     1
102
RTVSPropertyOp36
 70
     1
102
RTVSPropertyOp37
 70
     1
102
RTVSPropertyOp38
 70
     1
102
RTVSPropertyOp39
 70
     1
102
RTVSPropertyOp40
 70
     1
102
RTVSPropertyOp41
 70
     1
102
RTVSPropertyOp42
 70
     1
102
RTVSPropertyOp43
 70
     1
102
RTVSPropertyOp44
 70
     1
102
RTVSPropertyOp45
 70
     1
102
RTVSPropertyOp46
 70
     1
102
RTVSPropertyOp47
 70
     1
102
RTVSPropertyOp48
 70
     1
102
RTVSPropertyOp49
 70
     1
102
RTVSPropertyOp50
 70
     1
102
RTVSPropertyOp51
 70
     0
102
RTVSPropertyOp52
 70
     0
102
RTVSPropertyOp53
 70
     1
102
RTVSPropertyOp54
 70
     1
102
RTVSPropertyOp55
 70
     1
102
RTVSPropertyOp56
 70
     1
102
RTVSPropertyOp57
 70
     1
102
RTVSPost2010Prop28
280
     0
102
RTVSPost2010PropOp28
 70
     1
102
RTVSPost2010Prop29
280
     1
102
RTVSPost2010PropOp29
 70
     1
102
RTVSPost2010Prop30
280
     1
102
RTVSPost2010PropOp30
 70
     1
102
RTVSPost2010Prop31
280
     0
102
RTVSPost2010PropOp31
 70
     1
102
RTVSPost2010Prop32
280
     0
102
RTVSPost2010PropOp32
 70
     1
102
RTVSPost2010Prop33
280
     0
102
RTVSPost2010PropOp33
 70
     1
102
RTVSPost2010Prop34
280
     0
102
RTVSPost2010PropOp34
 70
     1
102
RTVSPost2010Prop35
280
     0
102
RTVSPost2010PropOp35
 70
     1
102
RTVSPost2010Prop36
280
     0
102
RTVSPost2010PropOp36
 70
     1
102
RTVSPost2010Prop37
 90
       50
102
RTVSPost2010PropOp37
 70
     1
102
RTVSPost2010Prop38
140
0.0
102
RTVSPost2010PropOp38
 70
     1
102
RTVSPost2010Prop39
140
1.0
102
RTVSPost2010PropOp39
 70
     1
102
RTVSPost2010Prop40
 90
        0
102
RTVSPost2010PropOp40
 70
     1
102
RTVSPost2010Prop41ColorIndex
 90
       18
102
RTVSPost2010Prop41ColorRGB
 90
        0
102
RTVSPost2010PropOp41
 70
     1
102
RTVSPost2010Prop42
 90
       50
102
RTVSPost2010PropOp42
 70
     1
102
RTVSPost2010Prop43
 90
        3
102
RTVSPost2010PropOp43
 70
     1
102
RTVSPost2010Prop44ColorIndex
 90
        5
102
RTVSPost2010Prop44ColorRGB
 90
      255
102
RTVSPost2010PropOp44
 70
     1
102
RTVSPost2010Prop45
280
     0
102
RTVSPost2010PropOp45
 70
     1
102
RTVSPost2010Prop46
 90
       50
102
RTVSPost2010PropOp46
 70
     1
102
RTVSPost2010Prop47
 90
       50
102
RTVSPost2010PropOp47
 70
     1
102
RTVSPost2010Prop48
 90
       50
102
RTVSPost2010PropOp48
 70
     1
102
RTVSPost2010Prop49
280
     0
102
RTVSPost2010PropOp49
 70
     1
102
RTVSPost2010Prop50
 90
       50
102
RTVSPost2010PropOp50
 70
     1
102
RTVSPost2010Prop51ColorIndex
 90
      256
102
RTVSPost2010Prop51ColorRGB
 90
-16777216
102
RTVSPost2010PropOp51
 70
     0
102
RTVSPost2010Prop52
140
1.0
102
RTVSPost2010PropOp52
 70
     0
102
RTVSPost2010Prop53
 90
        2
102
RTVSPost2010PropOp53
 70
     1
102
RTVSPost2010Prop54
  1
strokes_ogs.tif
102
RTVSPost2010PropOp54
 70
     1
102
RTVSPost2010Prop55
280
     0
102
RTVSPost2010PropOp55
 70
     1
102
RTVSPost2010Prop56
140
1.0
102
RTVSPost2010PropOp56
 70
     1
102
RTVSPost2010Prop57
140
1.0
102
RTVSPost2010PropOp57
 70
     1
  0
XRECORD
  5
421
102
{ACAD_REACTORS
330
420
102
}
330
420
100
AcDbXrecord
280
     1
102
RTVSPropertyOp0
 70
     0
102
RTVSPropertyOp1
 70
     0
102
RTVSPropertyOp2
 70
     0
102
RTVSPropertyOp3
 70
     0
102
RTVSPropertyOp4
 70
     0
102
RTVSPropertyOp5
 70
     0
102
RTVSPropertyOp6
 70
     0
102
RTVSPropertyOp7
 70
     0
102
RTVSPropertyOp8
 70
     0
102
RTVSPropertyOp9
 70
     0
102
RTVSPropertyOp10
 70
     0
102
RTVSPropertyOp11
 70
     0
102
RTVSPropertyOp12
 70
     0
102
RTVSPropertyOp13
 70
     0
102
RTVSPropertyOp14
 70
     2
102
RTVSPropertyOp15
 70
     0
102
RTVSPropertyOp16
 70
     0
102
RTVSPropertyOp17
 70
     0
102
RTVSPropertyOp18
 70
     0
102
RTVSPropertyOp19
 70
     0
102
RTVSPropertyOp20
 70
     0
102
RTVSPropertyOp21
 70
     0
102
RTVSPropertyOp22
 70
     0
102
RTVSPropertyOp23
 70
     0
102
RTVSPropertyOp24
 70
     0
102
RTVSPropertyOp25
 70
     0
102
RTVSPropertyOp26
 70
     0
102
RTVSPropertyOp27
 70
     0
102
RTVSPropertyOp28
 70
     0
102
RTVSPropertyOp29
 70
     0
102
RTVSPropertyOp30
 70
     0
102
RTVSPropertyOp31
 70
     0
102
RTVSPropertyOp32
 70
     0
102
RTVSPropertyOp33
 70
     0
102
RTVSPropertyOp34
 70
     0
102
RTVSPropertyOp35
 70
     0
102
RTVSPropertyOp36
 70
     0
102
RTVSPropertyOp37
 70
     0
102
RTVSPropertyOp38
 70
     0
102
RTVSPropertyOp39
 70
     0
102
RTVSPropertyOp40
 70
     0
102
RTVSPropertyOp41
 70
     0
102
RTVSPropertyOp42
 70
     0
102
RTVSPropertyOp43
 70
     0
102
RTVSPropertyOp44
 70
     0
102
RTVSPropertyOp45
 70
     0
102
RTVSPropertyOp46
 70
     0
102
RTVSPropertyOp47
 70
     0
102
RTVSPropertyOp48
 70
     0
102
RTVSPropertyOp49
 70
     0
102
RTVSPropertyOp50
 70
     0
102
RTVSPropertyOp51
 70
     0
102
RTVSPropertyOp52
 70
     0
102
RTVSPropertyOp53
 70
     0
102
RTVSPropertyOp54
 70
     0
102
RTVSPropertyOp55
 70
     0
102
RTVSPropertyOp56
 70
     0
102
RTVSPropertyOp57
 70
     0
102
RTVSPost2010Prop28
280
     0
102
RTVSPost2010PropOp28
 70
     0
102
RTVSPost2010Prop29
280
     1
102
RTVSPost2010PropOp29
 70
     0
102
RTVSPost2010Prop30
280
     1
102
RTVSPost2010PropOp30
 70
     0
102
RTVSPost2010Prop31
280
     0
102
RTVSPost2010PropOp31
 70
     0
102
RTVSPost2010Prop32
280
     0
102
RTVSPost2010PropOp32
 70
     0
102
RTVSPost2010Prop33
280
     0
102
RTVSPost2010PropOp33
 70
     0
102
RTVSPost2010Prop34
280
     0
102
RTVSPost2010PropOp34
 70
     0
102
RTVSPost2010Prop35
280
     0
102
RTVSPost2010PropOp35
 70
     0
102
RTVSPost2010Prop36
280
     0
102
RTVSPost2010PropOp36
 70
     0
102
RTVSPost2010Prop37
 90
       50
102
RTVSPost2010PropOp37
 70
     0
102
RTVSPost2010Prop38
140
0.0
102
RTVSPost2010PropOp38
 70
     0
102
RTVSPost2010Prop39
140
1.0
102
RTVSPost2010PropOp39
 70
     0
102
RTVSPost2010Prop40
 90
        0
102
RTVSPost2010PropOp40
 70
     0
102
RTVSPost2010Prop41ColorIndex
 90
       18
102
RTVSPost2010Prop41ColorRGB
 90
        0
102
RTVSPost2010PropOp41
 70
     0
102
RTVSPost2010Prop42
 90
       50
102
RTVSPost2010PropOp42
 70
     0
102
RTVSPost2010Prop43
 90
        3
102
RTVSPost2010PropOp43
 70
     0
102
RTVSPost2010Prop44ColorIndex
 90
        5
102
RTVSPost2010Prop44ColorRGB
 90
      255
102
RTVSPost2010PropOp44
 70
     0
102
RTVSPost2010Prop45
280
     0
102
RTVSPost2010PropOp45
 70
     0
102
RTVSPost2010Prop46
 90
       50
102
RTVSPost2010PropOp46
 70
     0
102
RTVSPost2010Prop47
 90
       50
102
RTVSPost2010PropOp47
 70
     0
102
RTVSPost2010Prop48
 90
       50
102
RTVSPost2010PropOp48
 70
     0
102
RTVSPost2010Prop49
280
     0
102
RTVSPost2010PropOp49
 70
     0
102
RTVSPost2010Prop50
 90
       50
102
RTVSPost2010PropOp50
 70
     0
102
RTVSPost2010Prop51ColorIndex
 90
      256
102
RTVSPost2010Prop51ColorRGB
 90
-16777216
102
RTVSPost2010PropOp51
 70
     0
102
RTVSPost2010Prop52
140
1.0
102
RTVSPost2010PropOp52
 70
     0
102
RTVSPost2010Prop53
 90
        2
102
RTVSPost2010PropOp53
 70
     0
102
RTVSPost2010Prop54
  1
strokes_ogs.tif
102
RTVSPost2010PropOp54
 70
     0
102
RTVSPost2010Prop55
280
     0
102
RTVSPost2010PropOp55
 70
     0
102
RTVSPost2010Prop56
140
1.0
102
RTVSPost2010PropOp56
 70
     0
102
RTVSPost2010Prop57
140
1.0
102
RTVSPost2010PropOp57
 70
     0
  0
XRECORD
  5
419
102
{ACAD_REACTORS
330
418
102
}
330
418
100
AcDbXrecord
280
     1
102
RTVSPropertyOp0
 70
     1
102
RTVSPropertyOp1
 70
     1
102
RTVSPropertyOp2
 70
     1
102
RTVSPropertyOp3
 70
     1
102
RTVSPropertyOp4
 70
     1
102
RTVSPropertyOp5
 70
     1
102
RTVSPropertyOp6
 70
     1
102
RTVSPropertyOp7
 70
     1
102
RTVSPropertyOp8
 70
     1
102
RTVSPropertyOp9
 70
     1
102
RTVSPropertyOp10
 70
     1
102
RTVSPropertyOp11
 70
     1
102
RTVSPropertyOp12
 70
     1
102
RTVSPropertyOp13
 70
     1
102
RTVSPropertyOp14
 70
     1
102
RTVSPropertyOp15
 70
     1
102
RTVSPropertyOp16
 70
     1
102
RTVSPropertyOp17
 70
     1
102
RTVSPropertyOp18
 70
     1
102
RTVSPropertyOp19
 70
     1
102
RTVSPropertyOp20
 70
     1
102
RTVSPropertyOp21
 70
     1
102
RTVSPropertyOp22
 70
     1
102
RTVSPropertyOp23
 70
     1
102
RTVSPropertyOp24
 70
     1
102
RTVSPropertyOp25
 70
     1
102
RTVSPropertyOp26
 70
     1
102
RTVSPropertyOp27
 70
     1
102
RTVSPropertyOp28
 70
     1
102
RTVSPropertyOp29
 70
     1
102
RTVSPropertyOp30
 70
     1
102
RTVSPropertyOp31
 70
     1
102
RTVSPropertyOp32
 70
     1
102
RTVSPropertyOp33
 70
     1
102
RTVSPropertyOp34
 70
     1
102
RTVSPropertyOp35
 70
     1
102
RTVSPropertyOp36
 70
     1
102
RTVSPropertyOp37
 70
     1
102
RTVSPropertyOp38
 70
     1
102
RTVSPropertyOp39
 70
     1
102
RTVSPropertyOp40
 70
     1
102
RTVSPropertyOp41
 70
     1
102
RTVSPropertyOp42
 70
     1
102
RTVSPropertyOp43
 70
     1
102
RTVSPropertyOp44
 70
     1
102
RTVSPropertyOp45
 70
     1
102
RTVSPropertyOp46
 70
     1
102
RTVSPropertyOp47
 70
     1
102
RTVSPropertyOp48
 70
     1
102
RTVSPropertyOp49
 70
     1
102
RTVSPropertyOp50
 70
     1
102
RTVSPropertyOp51
 70
     0
102
RTVSPropertyOp52
 70
     0
102
RTVSPropertyOp53
 70
     1
102
RTVSPropertyOp54
 70
     1
102
RTVSPropertyOp55
 70
     1
102
RTVSPropertyOp56
 70
     1
102
RTVSPropertyOp57
 70
     1
102
RTVSPost2010Prop28
280
     0
102
RTVSPost2010PropOp28
 70
     1
102
RTVSPost2010Prop29
280
     1
102
RTVSPost2010PropOp29
 70
     1
102
RTVSPost2010Prop30
280
     1
102
RTVSPost2010PropOp30
 70
     1
102
RTVSPost2010Prop31
280
     0
102
RTVSPost2010PropOp31
 70
     1
102
RTVSPost2010Prop32
280
     0
102
RTVSPost2010PropOp32
 70
     1
102
RTVSPost2010Prop33
280
     0
102
RTVSPost2010PropOp33
 70
     1
102
RTVSPost2010Prop34
280
     0
102
RTVSPost2010PropOp34
 70
     1
102
RTVSPost2010Prop35
280
     0
102
RTVSPost2010PropOp35
 70
     1
102
RTVSPost2010Prop36
280
     0
102
RTVSPost2010PropOp36
 70
     1
102
RTVSPost2010Prop37
 90
       50
102
RTVSPost2010PropOp37
 70
     1
102
RTVSPost2010Prop38
140
0.0
102
RTVSPost2010PropOp38
 70
     1
102
RTVSPost2010Prop39
140
1.0
102
RTVSPost2010PropOp39
 70
     1
102
RTVSPost2010Prop40
 90
        0
102
RTVSPost2010PropOp40
 70
     1
102
RTVSPost2010Prop41ColorIndex
 90
       18
102
RTVSPost2010Prop41ColorRGB
 90
        0
102
RTVSPost2010PropOp41
 70
     1
102
RTVSPost2010Prop42
 90
       50
102
RTVSPost2010PropOp42
 70
     1
102
RTVSPost2010Prop43
 90
        3
102
RTVSPost2010PropOp43
 70
     1
102
RTVSPost2010Prop44ColorIndex
 90
        5
102
RTVSPost2010Prop44ColorRGB
 90
      255
102
RTVSPost2010PropOp44
 70
     1
102
RTVSPost2010Prop45
280
     0
102
RTVSPost2010PropOp45
 70
     1
102
RTVSPost2010Prop46
 90
       50
102
RTVSPost2010PropOp46
 70
     1
102
RTVSPost2010Prop47
 90
       50
102
RTVSPost2010PropOp47
 70
     1
102
RTVSPost2010Prop48
 90
       50
102
RTVSPost2010PropOp48
 70
     1
102
RTVSPost2010Prop49
280
     0
102
RTVSPost2010PropOp49
 70
     1
102
RTVSPost2010Prop50
 90
       50
102
RTVSPost2010PropOp50
 70
     1
102
RTVSPost2010Prop51ColorIndex
 90
      256
102
RTVSPost2010Prop51ColorRGB
 90
-16777216
102
RTVSPost2010PropOp51
 70
     0
102
RTVSPost2010Prop52
140
1.0
102
RTVSPost2010PropOp52
 70
     0
102
RTVSPost2010Prop53
 90
        2
102
RTVSPost2010PropOp53
 70
     1
102
RTVSPost2010Prop54
  1
strokes_ogs.tif
102
RTVSPost2010PropOp54
 70
     1
102
RTVSPost2010Prop55
280
     0
102
RTVSPost2010PropOp55
 70
     1
102
RTVSPost2010Prop56
140
1.0
102
RTVSPost2010PropOp56
 70
     1
102
RTVSPost2010Prop57
140
1.0
102
RTVSPost2010PropOp57
 70
     1
  0
XRECORD
  5
3FD
102
{ACAD_REACTORS
330
3FC
102
}
330
3FC
100
AcDbXrecord
280
     1
102
RTVSPropertyOp0
 70
     1
102
RTVSPropertyOp1
 70
     1
102
RTVSPropertyOp2
 70
     1
102
RTVSPropertyOp3
 70
     1
102
RTVSPropertyOp4
 70
     1
102
RTVSPropertyOp5
 70
     1
102
RTVSPropertyOp6
 70
     1
102
RTVSPropertyOp7
 70
     1
102
RTVSPropertyOp8
 70
     1
102
RTVSPropertyOp9
 70
     1
102
RTVSPropertyOp10
 70
     1
102
RTVSPropertyOp11
 70
     1
102
RTVSPropertyOp12
 70
     1
102
RTVSPropertyOp13
 70
     1
102
RTVSPropertyOp14
 70
     1
102
RTVSPropertyOp15
 70
     1
102
RTVSPropertyOp16
 70
     1
102
RTVSPropertyOp17
 70
     1
102
RTVSPropertyOp18
 70
     1
102
RTVSPropertyOp19
 70
     1
102
RTVSPropertyOp20
 70
     1
102
RTVSPropertyOp21
 70
     1
102
RTVSPropertyOp22
 70
     1
102
RTVSPropertyOp23
 70
     1
102
RTVSPropertyOp24
 70
     1
102
RTVSPropertyOp25
 70
     1
102
RTVSPropertyOp26
 70
     1
102
RTVSPropertyOp27
 70
     1
102
RTVSPropertyOp28
 70
     1
102
RTVSPropertyOp29
 70
     1
102
RTVSPropertyOp30
 70
     1
102
RTVSPropertyOp31
 70
     1
102
RTVSPropertyOp32
 70
     1
102
RTVSPropertyOp33
 70
     1
102
RTVSPropertyOp34
 70
     1
102
RTVSPropertyOp35
 70
     1
102
RTVSPropertyOp36
 70
     1
102
RTVSPropertyOp37
 70
     1
102
RTVSPropertyOp38
 70
     1
102
RTVSPropertyOp39
 70
     1
102
RTVSPropertyOp40
 70
     1
102
RTVSPropertyOp41
 70
     1
102
RTVSPropertyOp42
 70
     1
102
RTVSPropertyOp43
 70
     1
102
RTVSPropertyOp44
 70
     1
102
RTVSPropertyOp45
 70
     1
102
RTVSPropertyOp46
 70
     1
102
RTVSPropertyOp47
 70
     1
102
RTVSPropertyOp48
 70
     1
102
RTVSPropertyOp49
 70
     1
102
RTVSPropertyOp50
 70
     1
102
RTVSPropertyOp51
 70
     0
102
RTVSPropertyOp52
 70
     0
102
RTVSPropertyOp53
 70
     1
102
RTVSPropertyOp54
 70
     1
102
RTVSPropertyOp55
 70
     1
102
RTVSPropertyOp56
 70
     1
102
RTVSPropertyOp57
 70
     1
102
RTVSPost2010Prop28
280
     0
102
RTVSPost2010PropOp28
 70
     1
102
RTVSPost2010Prop29
280
     1
102
RTVSPost2010PropOp29
 70
     1
102
RTVSPost2010Prop30
280
     1
102
RTVSPost2010PropOp30
 70
     1
102
RTVSPost2010Prop31
280
     0
102
RTVSPost2010PropOp31
 70
     1
102
RTVSPost2010Prop32
280
     0
102
RTVSPost2010PropOp32
 70
     1
102
RTVSPost2010Prop33
280
     0
102
RTVSPost2010PropOp33
 70
     1
102
RTVSPost2010Prop34
280
     0
102
RTVSPost2010PropOp34
 70
     1
102
RTVSPost2010Prop35
280
     0
102
RTVSPost2010PropOp35
 70
     1
102
RTVSPost2010Prop36
280
     0
102
RTVSPost2010PropOp36
 70
     1
102
RTVSPost2010Prop37
 90
       50
102
RTVSPost2010PropOp37
 70
     1
102
RTVSPost2010Prop38
140
0.0
102
RTVSPost2010PropOp38
 70
     1
102
RTVSPost2010Prop39
140
1.0
102
RTVSPost2010PropOp39
 70
     1
102
RTVSPost2010Prop40
 90
        0
102
RTVSPost2010PropOp40
 70
     1
102
RTVSPost2010Prop41ColorIndex
 90
       18
102
RTVSPost2010Prop41ColorRGB
 90
        0
102
RTVSPost2010PropOp41
 70
     1
102
RTVSPost2010Prop42
 90
       50
102
RTVSPost2010PropOp42
 70
     1
102
RTVSPost2010Prop43
 90
        3
102
RTVSPost2010PropOp43
 70
     1
102
RTVSPost2010Prop44ColorIndex
 90
        5
102
RTVSPost2010Prop44ColorRGB
 90
      255
102
RTVSPost2010PropOp44
 70
     1
102
RTVSPost2010Prop45
280
     0
102
RTVSPost2010PropOp45
 70
     1
102
RTVSPost2010Prop46
 90
       50
102
RTVSPost2010PropOp46
 70
     1
102
RTVSPost2010Prop47
 90
       50
102
RTVSPost2010PropOp47
 70
     1
102
RTVSPost2010Prop48
 90
       50
102
RTVSPost2010PropOp48
 70
     1
102
RTVSPost2010Prop49
280
     0
102
RTVSPost2010PropOp49
 70
     1
102
RTVSPost2010Prop50
 90
       50
102
RTVSPost2010PropOp50
 70
     1
102
RTVSPost2010Prop51ColorIndex
 90
      256
102
RTVSPost2010Prop51ColorRGB
 90
-16777216
102
RTVSPost2010PropOp51
 70
     0
102
RTVSPost2010Prop52
140
1.0
102
RTVSPost2010PropOp52
 70
     0
102
RTVSPost2010Prop53
 90
        2
102
RTVSPost2010PropOp53
 70
     1
102
RTVSPost2010Prop54
  1
strokes_ogs.tif
102
RTVSPost2010PropOp54
 70
     1
102
RTVSPost2010Prop55
280
     0
102
RTVSPost2010PropOp55
 70
     1
102
RTVSPost2010Prop56
140
1.0
102
RTVSPost2010PropOp56
 70
     1
102
RTVSPost2010Prop57
140
1.0
102
RTVSPost2010PropOp57
 70
     1
  0
XRECORD
  5
3FF
102
{ACAD_REACTORS
330
3FE
102
}
330
3FE
100
AcDbXrecord
280
     1
102
RTVSPropertyOp0
 70
     1
102
RTVSPropertyOp1
 70
     1
102
RTVSPropertyOp2
 70
     1
102
RTVSPropertyOp3
 70
     1
102
RTVSPropertyOp4
 70
     1
102
RTVSPropertyOp5
 70
     1
102
RTVSPropertyOp6
 70
     1
102
RTVSPropertyOp7
 70
     1
102
RTVSPropertyOp8
 70
     1
102
RTVSPropertyOp9
 70
     1
102
RTVSPropertyOp10
 70
     1
102
RTVSPropertyOp11
 70
     1
102
RTVSPropertyOp12
 70
     1
102
RTVSPropertyOp13
 70
     1
102
RTVSPropertyOp14
 70
     1
102
RTVSPropertyOp15
 70
     1
102
RTVSPropertyOp16
 70
     1
102
RTVSPropertyOp17
 70
     1
102
RTVSPropertyOp18
 70
     1
102
RTVSPropertyOp19
 70
     1
102
RTVSPropertyOp20
 70
     1
102
RTVSPropertyOp21
 70
     1
102
RTVSPropertyOp22
 70
     1
102
RTVSPropertyOp23
 70
     1
102
RTVSPropertyOp24
 70
     1
102
RTVSPropertyOp25
 70
     1
102
RTVSPropertyOp26
 70
     1
102
RTVSPropertyOp27
 70
     1
102
RTVSPropertyOp28
 70
     1
102
RTVSPropertyOp29
 70
     1
102
RTVSPropertyOp30
 70
     1
102
RTVSPropertyOp31
 70
     1
102
RTVSPropertyOp32
 70
     1
102
RTVSPropertyOp33
 70
     1
102
RTVSPropertyOp34
 70
     1
102
RTVSPropertyOp35
 70
     1
102
RTVSPropertyOp36
 70
     1
102
RTVSPropertyOp37
 70
     1
102
RTVSPropertyOp38
 70
     1
102
RTVSPropertyOp39
 70
     1
102
RTVSPropertyOp40
 70
     1
102
RTVSPropertyOp41
 70
     1
102
RTVSPropertyOp42
 70
     1
102
RTVSPropertyOp43
 70
     1
102
RTVSPropertyOp44
 70
     1
102
RTVSPropertyOp45
 70
     1
102
RTVSPropertyOp46
 70
     1
102
RTVSPropertyOp47
 70
     1
102
RTVSPropertyOp48
 70
     1
102
RTVSPropertyOp49
 70
     1
102
RTVSPropertyOp50
 70
     1
102
RTVSPropertyOp51
 70
     0
102
RTVSPropertyOp52
 70
     0
102
RTVSPropertyOp53
 70
     1
102
RTVSPropertyOp54
 70
     1
102
RTVSPropertyOp55
 70
     1
102
RTVSPropertyOp56
 70
     1
102
RTVSPropertyOp57
 70
     1
102
RTVSPost2010Prop28
280
     0
102
RTVSPost2010PropOp28
 70
     1
102
RTVSPost2010Prop29
280
     1
102
RTVSPost2010PropOp29
 70
     1
102
RTVSPost2010Prop30
280
     1
102
RTVSPost2010PropOp30
 70
     1
102
RTVSPost2010Prop31
280
     0
102
RTVSPost2010PropOp31
 70
     1
102
RTVSPost2010Prop32
280
     0
102
RTVSPost2010PropOp32
 70
     1
102
RTVSPost2010Prop33
280
     0
102
RTVSPost2010PropOp33
 70
     1
102
RTVSPost2010Prop34
280
     0
102
RTVSPost2010PropOp34
 70
     1
102
RTVSPost2010Prop35
280
     0
102
RTVSPost2010PropOp35
 70
     1
102
RTVSPost2010Prop36
280
     0
102
RTVSPost2010PropOp36
 70
     1
102
RTVSPost2010Prop37
 90
       50
102
RTVSPost2010PropOp37
 70
     1
102
RTVSPost2010Prop38
140
0.0
102
RTVSPost2010PropOp38
 70
     1
102
RTVSPost2010Prop39
140
1.0
102
RTVSPost2010PropOp39
 70
     1
102
RTVSPost2010Prop40
 90
        0
102
RTVSPost2010PropOp40
 70
     1
102
RTVSPost2010Prop41ColorIndex
 90
       18
102
RTVSPost2010Prop41ColorRGB
 90
        0
102
RTVSPost2010PropOp41
 70
     1
102
RTVSPost2010Prop42
 90
       50
102
RTVSPost2010PropOp42
 70
     1
102
RTVSPost2010Prop43
 90
        3
102
RTVSPost2010PropOp43
 70
     1
102
RTVSPost2010Prop44ColorIndex
 90
        5
102
RTVSPost2010Prop44ColorRGB
 90
      255
102
RTVSPost2010PropOp44
 70
     1
102
RTVSPost2010Prop45
280
     0
102
RTVSPost2010PropOp45
 70
     1
102
RTVSPost2010Prop46
 90
       50
102
RTVSPost2010PropOp46
 70
     1
102
RTVSPost2010Prop47
 90
       50
102
RTVSPost2010PropOp47
 70
     1
102
RTVSPost2010Prop48
 90
       50
102
RTVSPost2010PropOp48
 70
     1
102
RTVSPost2010Prop49
280
     0
102
RTVSPost2010PropOp49
 70
     1
102
RTVSPost2010Prop50
 90
       50
102
RTVSPost2010PropOp50
 70
     1
102
RTVSPost2010Prop51ColorIndex
 90
      256
102
RTVSPost2010Prop51ColorRGB
 90
-16777216
102
RTVSPost2010PropOp51
 70
     0
102
RTVSPost2010Prop52
140
1.0
102
RTVSPost2010PropOp52
 70
     0
102
RTVSPost2010Prop53
 90
        2
102
RTVSPost2010PropOp53
 70
     1
102
RTVSPost2010Prop54
  1
strokes_ogs.tif
102
RTVSPost2010PropOp54
 70
     1
102
RTVSPost2010Prop55
280
     0
102
RTVSPost2010PropOp55
 70
     1
102
RTVSPost2010Prop56
140
1.0
102
RTVSPost2010PropOp56
 70
     1
102
RTVSPost2010Prop57
140
1.0
102
RTVSPost2010PropOp57
 70
     1
  0
XRECORD
  5
401
102
{ACAD_REACTORS
330
400
102
}
330
400
100
AcDbXrecord
280
     1
102
RTVSPropertyOp0
 70
     1
102
RTVSPropertyOp1
 70
     1
102
RTVSPropertyOp2
 70
     1
102
RTVSPropertyOp3
 70
     1
102
RTVSPropertyOp4
 70
     1
102
RTVSPropertyOp5
 70
     1
102
RTVSPropertyOp6
 70
     1
102
RTVSPropertyOp7
 70
     1
102
RTVSPropertyOp8
 70
     1
102
RTVSPropertyOp9
 70
     1
102
RTVSPropertyOp10
 70
     1
102
RTVSPropertyOp11
 70
     1
102
RTVSPropertyOp12
 70
     1
102
RTVSPropertyOp13
 70
     1
102
RTVSPropertyOp14
 70
     1
102
RTVSPropertyOp15
 70
     1
102
RTVSPropertyOp16
 70
     1
102
RTVSPropertyOp17
 70
     1
102
RTVSPropertyOp18
 70
     1
102
RTVSPropertyOp19
 70
     1
102
RTVSPropertyOp20
 70
     1
102
RTVSPropertyOp21
 70
     1
102
RTVSPropertyOp22
 70
     1
102
RTVSPropertyOp23
 70
     1
102
RTVSPropertyOp24
 70
     1
102
RTVSPropertyOp25
 70
     1
102
RTVSPropertyOp26
 70
     1
102
RTVSPropertyOp27
 70
     1
102
RTVSPropertyOp28
 70
     1
102
RTVSPropertyOp29
 70
     1
102
RTVSPropertyOp30
 70
     1
102
RTVSPropertyOp31
 70
     1
102
RTVSPropertyOp32
 70
     1
102
RTVSPropertyOp33
 70
     1
102
RTVSPropertyOp34
 70
     1
102
RTVSPropertyOp35
 70
     1
102
RTVSPropertyOp36
 70
     1
102
RTVSPropertyOp37
 70
     1
102
RTVSPropertyOp38
 70
     1
102
RTVSPropertyOp39
 70
     1
102
RTVSPropertyOp40
 70
     1
102
RTVSPropertyOp41
 70
     1
102
RTVSPropertyOp42
 70
     1
102
RTVSPropertyOp43
 70
     1
102
RTVSPropertyOp44
 70
     1
102
RTVSPropertyOp45
 70
     1
102
RTVSPropertyOp46
 70
     1
102
RTVSPropertyOp47
 70
     1
102
RTVSPropertyOp48
 70
     1
102
RTVSPropertyOp49
 70
     1
102
RTVSPropertyOp50
 70
     1
102
RTVSPropertyOp51
 70
     0
102
RTVSPropertyOp52
 70
     0
102
RTVSPropertyOp53
 70
     1
102
RTVSPropertyOp54
 70
     1
102
RTVSPropertyOp55
 70
     1
102
RTVSPropertyOp56
 70
     1
102
RTVSPropertyOp57
 70
     1
102
RTVSPost2010Prop28
280
     0
102
RTVSPost2010PropOp28
 70
     1
102
RTVSPost2010Prop29
280
     1
102
RTVSPost2010PropOp29
 70
     1
102
RTVSPost2010Prop30
280
     1
102
RTVSPost2010PropOp30
 70
     1
102
RTVSPost2010Prop31
280
     0
102
RTVSPost2010PropOp31
 70
     1
102
RTVSPost2010Prop32
280
     0
102
RTVSPost2010PropOp32
 70
     1
102
RTVSPost2010Prop33
280
     0
102
RTVSPost2010PropOp33
 70
     1
102
RTVSPost2010Prop34
280
     0
102
RTVSPost2010PropOp34
 70
     1
102
RTVSPost2010Prop35
280
     0
102
RTVSPost2010PropOp35
 70
     1
102
RTVSPost2010Prop36
280
     0
102
RTVSPost2010PropOp36
 70
     1
102
RTVSPost2010Prop37
 90
       50
102
RTVSPost2010PropOp37
 70
     1
102
RTVSPost2010Prop38
140
0.0
102
RTVSPost2010PropOp38
 70
     1
102
RTVSPost2010Prop39
140
1.0
102
RTVSPost2010PropOp39
 70
     1
102
RTVSPost2010Prop40
 90
        0
102
RTVSPost2010PropOp40
 70
     1
102
RTVSPost2010Prop41ColorIndex
 90
       18
102
RTVSPost2010Prop41ColorRGB
 90
        0
102
RTVSPost2010PropOp41
 70
     1
102
RTVSPost2010Prop42
 90
       50
102
RTVSPost2010PropOp42
 70
     1
102
RTVSPost2010Prop43
 90
        3
102
RTVSPost2010PropOp43
 70
     1
102
RTVSPost2010Prop44ColorIndex
 90
        5
102
RTVSPost2010Prop44ColorRGB
 90
      255
102
RTVSPost2010PropOp44
 70
     1
102
RTVSPost2010Prop45
280
     0
102
RTVSPost2010PropOp45
 70
     1
102
RTVSPost2010Prop46
 90
       50
102
RTVSPost2010PropOp46
 70
     1
102
RTVSPost2010Prop47
 90
       50
102
RTVSPost2010PropOp47
 70
     1
102
RTVSPost2010Prop48
 90
       50
102
RTVSPost2010PropOp48
 70
     1
102
RTVSPost2010Prop49
280
     0
102
RTVSPost2010PropOp49
 70
     1
102
RTVSPost2010Prop50
 90
       50
102
RTVSPost2010PropOp50
 70
     1
102
RTVSPost2010Prop51ColorIndex
 90
      256
102
RTVSPost2010Prop51ColorRGB
 90
-16777216
102
RTVSPost2010PropOp51
 70
     0
102
RTVSPost2010Prop52
140
1.0
102
RTVSPost2010PropOp52
 70
     0
102
RTVSPost2010Prop53
 90
        2
102
RTVSPost2010PropOp53
 70
     1
102
RTVSPost2010Prop54
  1
strokes_ogs.tif
102
RTVSPost2010PropOp54
 70
     1
102
RTVSPost2010Prop55
280
     0
102
RTVSPost2010PropOp55
 70
     1
102
RTVSPost2010Prop56
140
1.0
102
RTVSPost2010PropOp56
 70
     1
102
RTVSPost2010Prop57
140
1.0
102
RTVSPost2010PropOp57
 70
     1
  0
XRECORD
  5
403
102
{ACAD_REACTORS
330
402
102
}
330
402
100
AcDbXrecord
280
     1
102
RTVSPropertyOp0
 70
     1
102
RTVSPropertyOp1
 70
     1
102
RTVSPropertyOp2
 70
     1
102
RTVSPropertyOp3
 70
     1
102
RTVSPropertyOp4
 70
     1
102
RTVSPropertyOp5
 70
     1
102
RTVSPropertyOp6
 70
     1
102
RTVSPropertyOp7
 70
     1
102
RTVSPropertyOp8
 70
     1
102
RTVSPropertyOp9
 70
     1
102
RTVSPropertyOp10
 70
     1
102
RTVSPropertyOp11
 70
     1
102
RTVSPropertyOp12
 70
     1
102
RTVSPropertyOp13
 70
     1
102
RTVSPropertyOp14
 70
     1
102
RTVSPropertyOp15
 70
     1
102
RTVSPropertyOp16
 70
     1
102
RTVSPropertyOp17
 70
     1
102
RTVSPropertyOp18
 70
     1
102
RTVSPropertyOp19
 70
     1
102
RTVSPropertyOp20
 70
     1
102
RTVSPropertyOp21
 70
     1
102
RTVSPropertyOp22
 70
     1
102
RTVSPropertyOp23
 70
     1
102
RTVSPropertyOp24
 70
     1
102
RTVSPropertyOp25
 70
     1
102
RTVSPropertyOp26
 70
     1
102
RTVSPropertyOp27
 70
     1
102
RTVSPropertyOp28
 70
     1
102
RTVSPropertyOp29
 70
     1
102
RTVSPropertyOp30
 70
     1
102
RTVSPropertyOp31
 70
     1
102
RTVSPropertyOp32
 70
     1
102
RTVSPropertyOp33
 70
     1
102
RTVSPropertyOp34
 70
     1
102
RTVSPropertyOp35
 70
     1
102
RTVSPropertyOp36
 70
     1
102
RTVSPropertyOp37
 70
     1
102
RTVSPropertyOp38
 70
     1
102
RTVSPropertyOp39
 70
     1
102
RTVSPropertyOp40
 70
     1
102
RTVSPropertyOp41
 70
     1
102
RTVSPropertyOp42
 70
     1
102
RTVSPropertyOp43
 70
     1
102
RTVSPropertyOp44
 70
     1
102
RTVSPropertyOp45
 70
     1
102
RTVSPropertyOp46
 70
     1
102
RTVSPropertyOp47
 70
     1
102
RTVSPropertyOp48
 70
     1
102
RTVSPropertyOp49
 70
     1
102
RTVSPropertyOp50
 70
     1
102
RTVSPropertyOp51
 70
     0
102
RTVSPropertyOp52
 70
     0
102
RTVSPropertyOp53
 70
     1
102
RTVSPropertyOp54
 70
     1
102
RTVSPropertyOp55
 70
     1
102
RTVSPropertyOp56
 70
     1
102
RTVSPropertyOp57
 70
     1
102
RTVSPost2010Prop28
280
     0
102
RTVSPost2010PropOp28
 70
     1
102
RTVSPost2010Prop29
280
     1
102
RTVSPost2010PropOp29
 70
     1
102
RTVSPost2010Prop30
280
     1
102
RTVSPost2010PropOp30
 70
     1
102
RTVSPost2010Prop31
280
     0
102
RTVSPost2010PropOp31
 70
     1
102
RTVSPost2010Prop32
280
     0
102
RTVSPost2010PropOp32
 70
     1
102
RTVSPost2010Prop33
280
     0
102
RTVSPost2010PropOp33
 70
     1
102
RTVSPost2010Prop34
280
     0
102
RTVSPost2010PropOp34
 70
     1
102
RTVSPost2010Prop35
280
     0
102
RTVSPost2010PropOp35
 70
     1
102
RTVSPost2010Prop36
280
     0
102
RTVSPost2010PropOp36
 70
     1
102
RTVSPost2010Prop37
 90
       50
102
RTVSPost2010PropOp37
 70
     1
102
RTVSPost2010Prop38
140
0.0
102
RTVSPost2010PropOp38
 70
     1
102
RTVSPost2010Prop39
140
1.0
102
RTVSPost2010PropOp39
 70
     1
102
RTVSPost2010Prop40
 90
        0
102
RTVSPost2010PropOp40
 70
     1
102
RTVSPost2010Prop41ColorIndex
 90
       18
102
RTVSPost2010Prop41ColorRGB
 90
        0
102
RTVSPost2010PropOp41
 70
     1
102
RTVSPost2010Prop42
 90
       50
102
RTVSPost2010PropOp42
 70
     1
102
RTVSPost2010Prop43
 90
        3
102
RTVSPost2010PropOp43
 70
     1
102
RTVSPost2010Prop44ColorIndex
 90
        5
102
RTVSPost2010Prop44ColorRGB
 90
      255
102
RTVSPost2010PropOp44
 70
     1
102
RTVSPost2010Prop45
280
     0
102
RTVSPost2010PropOp45
 70
     1
102
RTVSPost2010Prop46
 90
       50
102
RTVSPost2010PropOp46
 70
     1
102
RTVSPost2010Prop47
 90
       50
102
RTVSPost2010PropOp47
 70
     1
102
RTVSPost2010Prop48
 90
       50
102
RTVSPost2010PropOp48
 70
     1
102
RTVSPost2010Prop49
280
     0
102
RTVSPost2010PropOp49
 70
     1
102
RTVSPost2010Prop50
 90
       50
102
RTVSPost2010PropOp50
 70
     1
102
RTVSPost2010Prop51ColorIndex
 90
      256
102
RTVSPost2010Prop51ColorRGB
 90
-16777216
102
RTVSPost2010PropOp51
 70
     0
102
RTVSPost2010Prop52
140
1.0
102
RTVSPost2010PropOp52
 70
     0
102
RTVSPost2010Prop53
 90
        2
102
RTVSPost2010PropOp53
 70
     1
102
RTVSPost2010Prop54
  1
strokes_ogs.tif
102
RTVSPost2010PropOp54
 70
     1
102
RTVSPost2010Prop55
280
     0
102
RTVSPost2010PropOp55
 70
     1
102
RTVSPost2010Prop56
140
1.0
102
RTVSPost2010PropOp56
 70
     1
102
RTVSPost2010Prop57
140
1.0
102
RTVSPost2010PropOp57
 70
     1
  0
XRECORD
  5
409
102
{ACAD_REACTORS
330
408
102
}
330
408
100
AcDbXrecord
280
     1
102
RTVSPropertyOp0
 70
     1
102
RTVSPropertyOp1
 70
     1
102
RTVSPropertyOp2
 70
     1
102
RTVSPropertyOp3
 70
     1
102
RTVSPropertyOp4
 70
     1
102
RTVSPropertyOp5
 70
     1
102
RTVSPropertyOp6
 70
     1
102
RTVSPropertyOp7
 70
     1
102
RTVSPropertyOp8
 70
     1
102
RTVSPropertyOp9
 70
     1
102
RTVSPropertyOp10
 70
     1
102
RTVSPropertyOp11
 70
     1
102
RTVSPropertyOp12
 70
     1
102
RTVSPropertyOp13
 70
     1
102
RTVSPropertyOp14
 70
     1
102
RTVSPropertyOp15
 70
     1
102
RTVSPropertyOp16
 70
     1
102
RTVSPropertyOp17
 70
     1
102
RTVSPropertyOp18
 70
     1
102
RTVSPropertyOp19
 70
     1
102
RTVSPropertyOp20
 70
     1
102
RTVSPropertyOp21
 70
     1
102
RTVSPropertyOp22
 70
     1
102
RTVSPropertyOp23
 70
     1
102
RTVSPropertyOp24
 70
     1
102
RTVSPropertyOp25
 70
     1
102
RTVSPropertyOp26
 70
     1
102
RTVSPropertyOp27
 70
     1
102
RTVSPropertyOp28
 70
     1
102
RTVSPropertyOp29
 70
     1
102
RTVSPropertyOp30
 70
     1
102
RTVSPropertyOp31
 70
     1
102
RTVSPropertyOp32
 70
     1
102
RTVSPropertyOp33
 70
     1
102
RTVSPropertyOp34
 70
     1
102
RTVSPropertyOp35
 70
     1
102
RTVSPropertyOp36
 70
     1
102
RTVSPropertyOp37
 70
     1
102
RTVSPropertyOp38
 70
     1
102
RTVSPropertyOp39
 70
     1
102
RTVSPropertyOp40
 70
     1
102
RTVSPropertyOp41
 70
     1
102
RTVSPropertyOp42
 70
     1
102
RTVSPropertyOp43
 70
     1
102
RTVSPropertyOp44
 70
     1
102
RTVSPropertyOp45
 70
     1
102
RTVSPropertyOp46
 70
     1
102
RTVSPropertyOp47
 70
     1
102
RTVSPropertyOp48
 70
     1
102
RTVSPropertyOp49
 70
     1
102
RTVSPropertyOp50
 70
     1
102
RTVSPropertyOp51
 70
     0
102
RTVSPropertyOp52
 70
     0
102
RTVSPropertyOp53
 70
     1
102
RTVSPropertyOp54
 70
     1
102
RTVSPropertyOp55
 70
     1
102
RTVSPropertyOp56
 70
     1
102
RTVSPropertyOp57
 70
     1
102
RTVSPost2010Prop28
280
     0
102
RTVSPost2010PropOp28
 70
     1
102
RTVSPost2010Prop29
280
     1
102
RTVSPost2010PropOp29
 70
     1
102
RTVSPost2010Prop30
280
     1
102
RTVSPost2010PropOp30
 70
     1
102
RTVSPost2010Prop31
280
     0
102
RTVSPost2010PropOp31
 70
     1
102
RTVSPost2010Prop32
280
     0
102
RTVSPost2010PropOp32
 70
     1
102
RTVSPost2010Prop33
280
     0
102
RTVSPost2010PropOp33
 70
     1
102
RTVSPost2010Prop34
280
     0
102
RTVSPost2010PropOp34
 70
     1
102
RTVSPost2010Prop35
280
     0
102
RTVSPost2010PropOp35
 70
     1
102
RTVSPost2010Prop36
280
     0
102
RTVSPost2010PropOp36
 70
     1
102
RTVSPost2010Prop37
 90
       50
102
RTVSPost2010PropOp37
 70
     1
102
RTVSPost2010Prop38
140
0.0
102
RTVSPost2010PropOp38
 70
     1
102
RTVSPost2010Prop39
140
1.0
102
RTVSPost2010PropOp39
 70
     1
102
RTVSPost2010Prop40
 90
        0
102
RTVSPost2010PropOp40
 70
     1
102
RTVSPost2010Prop41ColorIndex
 90
       18
102
RTVSPost2010Prop41ColorRGB
 90
        0
102
RTVSPost2010PropOp41
 70
     1
102
RTVSPost2010Prop42
 90
       50
102
RTVSPost2010PropOp42
 70
     1
102
RTVSPost2010Prop43
 90
        3
102
RTVSPost2010PropOp43
 70
     1
102
RTVSPost2010Prop44ColorIndex
 90
        5
102
RTVSPost2010Prop44ColorRGB
 90
      255
102
RTVSPost2010PropOp44
 70
     1
102
RTVSPost2010Prop45
280
     0
102
RTVSPost2010PropOp45
 70
     1
102
RTVSPost2010Prop46
 90
       50
102
RTVSPost2010PropOp46
 70
     1
102
RTVSPost2010Prop47
 90
       50
102
RTVSPost2010PropOp47
 70
     1
102
RTVSPost2010Prop48
 90
       50
102
RTVSPost2010PropOp48
 70
     1
102
RTVSPost2010Prop49
280
     0
102
RTVSPost2010PropOp49
 70
     1
102
RTVSPost2010Prop50
 90
       50
102
RTVSPost2010PropOp50
 70
     1
102
RTVSPost2010Prop51ColorIndex
 90
      256
102
RTVSPost2010Prop51ColorRGB
 90
-16777216
102
RTVSPost2010PropOp51
 70
     0
102
RTVSPost2010Prop52
140
1.0
102
RTVSPost2010PropOp52
 70
     0
102
RTVSPost2010Prop53
 90
        2
102
RTVSPost2010PropOp53
 70
     1
102
RTVSPost2010Prop54
  1
strokes_ogs.tif
102
RTVSPost2010PropOp54
 70
     1
102
RTVSPost2010Prop55
280
     0
102
RTVSPost2010PropOp55
 70
     1
102
RTVSPost2010Prop56
140
1.0
102
RTVSPost2010PropOp56
 70
     1
102
RTVSPost2010Prop57
140
1.0
102
RTVSPost2010PropOp57
 70
     1
  0
XRECORD
  5
41D
102
{ACAD_REACTORS
330
41C
102
}
330
41C
100
AcDbXrecord
280
     1
102
RTVSPropertyOp0
 70
     0
102
RTVSPropertyOp1
 70
     0
102
RTVSPropertyOp2
 70
     0
102
RTVSPropertyOp3
 70
     0
102
RTVSPropertyOp4
 70
     0
102
RTVSPropertyOp5
 70
     0
102
RTVSPropertyOp6
 70
     0
102
RTVSPropertyOp7
 70
     0
102
RTVSPropertyOp8
 70
     0
102
RTVSPropertyOp9
 70
     0
102
RTVSPropertyOp10
 70
     0
102
RTVSPropertyOp11
 70
     0
102
RTVSPropertyOp12
 70
     0
102
RTVSPropertyOp13
 70
     0
102
RTVSPropertyOp14
 70
     2
102
RTVSPropertyOp15
 70
     0
102
RTVSPropertyOp16
 70
     0
102
RTVSPropertyOp17
 70
     0
102
RTVSPropertyOp18
 70
     0
102
RTVSPropertyOp19
 70
     0
102
RTVSPropertyOp20
 70
     0
102
RTVSPropertyOp21
 70
     0
102
RTVSPropertyOp22
 70
     0
102
RTVSPropertyOp23
 70
     0
102
RTVSPropertyOp24
 70
     0
102
RTVSPropertyOp25
 70
     0
102
RTVSPropertyOp26
 70
     0
102
RTVSPropertyOp27
 70
     0
102
RTVSPropertyOp28
 70
     0
102
RTVSPropertyOp29
 70
     0
102
RTVSPropertyOp30
 70
     0
102
RTVSPropertyOp31
 70
     0
102
RTVSPropertyOp32
 70
     0
102
RTVSPropertyOp33
 70
     0
102
RTVSPropertyOp34
 70
     0
102
RTVSPropertyOp35
 70
     0
102
RTVSPropertyOp36
 70
     0
102
RTVSPropertyOp37
 70
     0
102
RTVSPropertyOp38
 70
     0
102
RTVSPropertyOp39
 70
     0
102
RTVSPropertyOp40
 70
     0
102
RTVSPropertyOp41
 70
     0
102
RTVSPropertyOp42
 70
     0
102
RTVSPropertyOp43
 70
     0
102
RTVSPropertyOp44
 70
     0
102
RTVSPropertyOp45
 70
     0
102
RTVSPropertyOp46
 70
     0
102
RTVSPropertyOp47
 70
     0
102
RTVSPropertyOp48
 70
     0
102
RTVSPropertyOp49
 70
     0
102
RTVSPropertyOp50
 70
     0
102
RTVSPropertyOp51
 70
     0
102
RTVSPropertyOp52
 70
     0
102
RTVSPropertyOp53
 70
     0
102
RTVSPropertyOp54
 70
     0
102
RTVSPropertyOp55
 70
     0
102
RTVSPropertyOp56
 70
     0
102
RTVSPropertyOp57
 70
     0
102
RTVSPost2010Prop28
280
     0
102
RTVSPost2010PropOp28
 70
     0
102
RTVSPost2010Prop29
280
     1
102
RTVSPost2010PropOp29
 70
     0
102
RTVSPost2010Prop30
280
     1
102
RTVSPost2010PropOp30
 70
     0
102
RTVSPost2010Prop31
280
     0
102
RTVSPost2010PropOp31
 70
     0
102
RTVSPost2010Prop32
280
     0
102
RTVSPost2010PropOp32
 70
     0
102
RTVSPost2010Prop33
280
     0
102
RTVSPost2010PropOp33
 70
     0
102
RTVSPost2010Prop34
280
     0
102
RTVSPost2010PropOp34
 70
     0
102
RTVSPost2010Prop35
280
     0
102
RTVSPost2010PropOp35
 70
     0
102
RTVSPost2010Prop36
280
     0
102
RTVSPost2010PropOp36
 70
     0
102
RTVSPost2010Prop37
 90
       50
102
RTVSPost2010PropOp37
 70
     0
102
RTVSPost2010Prop38
140
0.0
102
RTVSPost2010PropOp38
 70
     0
102
RTVSPost2010Prop39
140
1.0
102
RTVSPost2010PropOp39
 70
     0
102
RTVSPost2010Prop40
 90
        0
102
RTVSPost2010PropOp40
 70
     0
102
RTVSPost2010Prop41ColorIndex
 90
       18
102
RTVSPost2010Prop41ColorRGB
 90
        0
102
RTVSPost2010PropOp41
 70
     0
102
RTVSPost2010Prop42
 90
       50
102
RTVSPost2010PropOp42
 70
     0
102
RTVSPost2010Prop43
 90
        3
102
RTVSPost2010PropOp43
 70
     0
102
RTVSPost2010Prop44ColorIndex
 90
        5
102
RTVSPost2010Prop44ColorRGB
 90
      255
102
RTVSPost2010PropOp44
 70
     0
102
RTVSPost2010Prop45
280
     0
102
RTVSPost2010PropOp45
 70
     0
102
RTVSPost2010Prop46
 90
       50
102
RTVSPost2010PropOp46
 70
     0
102
RTVSPost2010Prop47
 90
       50
102
RTVSPost2010PropOp47
 70
     0
102
RTVSPost2010Prop48
 90
       50
102
RTVSPost2010PropOp48
 70
     0
102
RTVSPost2010Prop49
280
     0
102
RTVSPost2010PropOp49
 70
     0
102
RTVSPost2010Prop50
 90
       50
102
RTVSPost2010PropOp50
 70
     0
102
RTVSPost2010Prop51ColorIndex
 90
      256
102
RTVSPost2010Prop51ColorRGB
 90
-16777216
102
RTVSPost2010PropOp51
 70
     0
102
RTVSPost2010Prop52
140
1.0
102
RTVSPost2010PropOp52
 70
     0
102
RTVSPost2010Prop53
 90
        2
102
RTVSPost2010PropOp53
 70
     0
102
RTVSPost2010Prop54
  1
strokes_ogs.tif
102
RTVSPost2010PropOp54
 70
     0
102
RTVSPost2010Prop55
280
     0
102
RTVSPost2010PropOp55
 70
     0
102
RTVSPost2010Prop56
140
1.0
102
RTVSPost2010PropOp56
 70
     0
102
RTVSPost2010Prop57
140
1.0
102
RTVSPost2010PropOp57
 70
     0
  0
XRECORD
  5
417
102
{ACAD_REACTORS
330
416
102
}
330
416
100
AcDbXrecord
280
     1
102
RTVSPropertyOp0
 70
     1
102
RTVSPropertyOp1
 70
     1
102
RTVSPropertyOp2
 70
     1
102
RTVSPropertyOp3
 70
     1
102
RTVSPropertyOp4
 70
     1
102
RTVSPropertyOp5
 70
     1
102
RTVSPropertyOp6
 70
     1
102
RTVSPropertyOp7
 70
     1
102
RTVSPropertyOp8
 70
     1
102
RTVSPropertyOp9
 70
     1
102
RTVSPropertyOp10
 70
     1
102
RTVSPropertyOp11
 70
     1
102
RTVSPropertyOp12
 70
     1
102
RTVSPropertyOp13
 70
     1
102
RTVSPropertyOp14
 70
     1
102
RTVSPropertyOp15
 70
     1
102
RTVSPropertyOp16
 70
     1
102
RTVSPropertyOp17
 70
     1
102
RTVSPropertyOp18
 70
     1
102
RTVSPropertyOp19
 70
     1
102
RTVSPropertyOp20
 70
     1
102
RTVSPropertyOp21
 70
     1
102
RTVSPropertyOp22
 70
     1
102
RTVSPropertyOp23
 70
     1
102
RTVSPropertyOp24
 70
     1
102
RTVSPropertyOp25
 70
     1
102
RTVSPropertyOp26
 70
     1
102
RTVSPropertyOp27
 70
     1
102
RTVSPropertyOp28
 70
     1
102
RTVSPropertyOp29
 70
     1
102
RTVSPropertyOp30
 70
     1
102
RTVSPropertyOp31
 70
     1
102
RTVSPropertyOp32
 70
     1
102
RTVSPropertyOp33
 70
     1
102
RTVSPropertyOp34
 70
     1
102
RTVSPropertyOp35
 70
     1
102
RTVSPropertyOp36
 70
     1
102
RTVSPropertyOp37
 70
     1
102
RTVSPropertyOp38
 70
     1
102
RTVSPropertyOp39
 70
     1
102
RTVSPropertyOp40
 70
     1
102
RTVSPropertyOp41
 70
     1
102
RTVSPropertyOp42
 70
     1
102
RTVSPropertyOp43
 70
     1
102
RTVSPropertyOp44
 70
     1
102
RTVSPropertyOp45
 70
     1
102
RTVSPropertyOp46
 70
     1
102
RTVSPropertyOp47
 70
     1
102
RTVSPropertyOp48
 70
     1
102
RTVSPropertyOp49
 70
     1
102
RTVSPropertyOp50
 70
     1
102
RTVSPropertyOp51
 70
     0
102
RTVSPropertyOp52
 70
     0
102
RTVSPropertyOp53
 70
     1
102
RTVSPropertyOp54
 70
     1
102
RTVSPropertyOp55
 70
     1
102
RTVSPropertyOp56
 70
     1
102
RTVSPropertyOp57
 70
     1
102
RTVSPost2010Prop28
280
     0
102
RTVSPost2010PropOp28
 70
     1
102
RTVSPost2010Prop29
280
     1
102
RTVSPost2010PropOp29
 70
     1
102
RTVSPost2010Prop30
280
     1
102
RTVSPost2010PropOp30
 70
     1
102
RTVSPost2010Prop31
280
     0
102
RTVSPost2010PropOp31
 70
     1
102
RTVSPost2010Prop32
280
     0
102
RTVSPost2010PropOp32
 70
     1
102
RTVSPost2010Prop33
280
     0
102
RTVSPost2010PropOp33
 70
     1
102
RTVSPost2010Prop34
280
     0
102
RTVSPost2010PropOp34
 70
     1
102
RTVSPost2010Prop35
280
     0
102
RTVSPost2010PropOp35
 70
     1
102
RTVSPost2010Prop36
280
     0
102
RTVSPost2010PropOp36
 70
     1
102
RTVSPost2010Prop37
 90
       50
102
RTVSPost2010PropOp37
 70
     1
102
RTVSPost2010Prop38
140
0.0
102
RTVSPost2010PropOp38
 70
     1
102
RTVSPost2010Prop39
140
1.0
102
RTVSPost2010PropOp39
 70
     1
102
RTVSPost2010Prop40
 90
        0
102
RTVSPost2010PropOp40
 70
     1
102
RTVSPost2010Prop41ColorIndex
 90
       18
102
RTVSPost2010Prop41ColorRGB
 90
        0
102
RTVSPost2010PropOp41
 70
     1
102
RTVSPost2010Prop42
 90
       50
102
RTVSPost2010PropOp42
 70
     1
102
RTVSPost2010Prop43
 90
        3
102
RTVSPost2010PropOp43
 70
     1
102
RTVSPost2010Prop44ColorIndex
 90
        5
102
RTVSPost2010Prop44ColorRGB
 90
      255
102
RTVSPost2010PropOp44
 70
     1
102
RTVSPost2010Prop45
280
     0
102
RTVSPost2010PropOp45
 70
     1
102
RTVSPost2010Prop46
 90
       50
102
RTVSPost2010PropOp46
 70
     1
102
RTVSPost2010Prop47
 90
       50
102
RTVSPost2010PropOp47
 70
     1
102
RTVSPost2010Prop48
 90
       50
102
RTVSPost2010PropOp48
 70
     1
102
RTVSPost2010Prop49
280
     0
102
RTVSPost2010PropOp49
 70
     1
102
RTVSPost2010Prop50
 90
       50
102
RTVSPost2010PropOp50
 70
     1
102
RTVSPost2010Prop51ColorIndex
 90
      256
102
RTVSPost2010Prop51ColorRGB
 90
-16777216
102
RTVSPost2010PropOp51
 70
     0
102
RTVSPost2010Prop52
140
1.0
102
RTVSPost2010PropOp52
 70
     0
102
RTVSPost2010Prop53
 90
        2
102
RTVSPost2010PropOp53
 70
     1
102
RTVSPost2010Prop54
  1
strokes_ogs.tif
102
RTVSPost2010PropOp54
 70
     1
102
RTVSPost2010Prop55
280
     0
102
RTVSPost2010PropOp55
 70
     1
102
RTVSPost2010Prop56
140
1.0
102
RTVSPost2010PropOp56
 70
     1
102
RTVSPost2010Prop57
140
1.0
102
RTVSPost2010PropOp57
 70
     1
  0
XRECORD
  5
41F
102
{ACAD_REACTORS
330
41E
102
}
330
41E
100
AcDbXrecord
280
     1
102
RTVSPropertyOp0
 70
     0
102
RTVSPropertyOp1
 70
     0
102
RTVSPropertyOp2
 70
     0
102
RTVSPropertyOp3
 70
     0
102
RTVSPropertyOp4
 70
     0
102
RTVSPropertyOp5
 70
     0
102
RTVSPropertyOp6
 70
     0
102
RTVSPropertyOp7
 70
     0
102
RTVSPropertyOp8
 70
     0
102
RTVSPropertyOp9
 70
     0
102
RTVSPropertyOp10
 70
     0
102
RTVSPropertyOp11
 70
     0
102
RTVSPropertyOp12
 70
     0
102
RTVSPropertyOp13
 70
     0
102
RTVSPropertyOp14
 70
     2
102
RTVSPropertyOp15
 70
     0
102
RTVSPropertyOp16
 70
     0
102
RTVSPropertyOp17
 70
     0
102
RTVSPropertyOp18
 70
     0
102
RTVSPropertyOp19
 70
     0
102
RTVSPropertyOp20
 70
     0
102
RTVSPropertyOp21
 70
     0
102
RTVSPropertyOp22
 70
     0
102
RTVSPropertyOp23
 70
     0
102
RTVSPropertyOp24
 70
     0
102
RTVSPropertyOp25
 70
     0
102
RTVSPropertyOp26
 70
     0
102
RTVSPropertyOp27
 70
     0
102
RTVSPropertyOp28
 70
     0
102
RTVSPropertyOp29
 70
     0
102
RTVSPropertyOp30
 70
     0
102
RTVSPropertyOp31
 70
     0
102
RTVSPropertyOp32
 70
     0
102
RTVSPropertyOp33
 70
     0
102
RTVSPropertyOp34
 70
     0
102
RTVSPropertyOp35
 70
     0
102
RTVSPropertyOp36
 70
     0
102
RTVSPropertyOp37
 70
     0
102
RTVSPropertyOp38
 70
     0
102
RTVSPropertyOp39
 70
     0
102
RTVSPropertyOp40
 70
     0
102
RTVSPropertyOp41
 70
     0
102
RTVSPropertyOp42
 70
     0
102
RTVSPropertyOp43
 70
     0
102
RTVSPropertyOp44
 70
     0
102
RTVSPropertyOp45
 70
     0
102
RTVSPropertyOp46
 70
     0
102
RTVSPropertyOp47
 70
     0
102
RTVSPropertyOp48
 70
     0
102
RTVSPropertyOp49
 70
     0
102
RTVSPropertyOp50
 70
     0
102
RTVSPropertyOp51
 70
     0
102
RTVSPropertyOp52
 70
     0
102
RTVSPropertyOp53
 70
     0
102
RTVSPropertyOp54
 70
     0
102
RTVSPropertyOp55
 70
     0
102
RTVSPropertyOp56
 70
     0
102
RTVSPropertyOp57
 70
     0
102
RTVSPost2010Prop28
280
     0
102
RTVSPost2010PropOp28
 70
     0
102
RTVSPost2010Prop29
280
     1
102
RTVSPost2010PropOp29
 70
     0
102
RTVSPost2010Prop30
280
     1
102
RTVSPost2010PropOp30
 70
     0
102
RTVSPost2010Prop31
280
     0
102
RTVSPost2010PropOp31
 70
     0
102
RTVSPost2010Prop32
280
     0
102
RTVSPost2010PropOp32
 70
     0
102
RTVSPost2010Prop33
280
     0
102
RTVSPost2010PropOp33
 70
     0
102
RTVSPost2010Prop34
280
     0
102
RTVSPost2010PropOp34
 70
     0
102
RTVSPost2010Prop35
280
     0
102
RTVSPost2010PropOp35
 70
     0
102
RTVSPost2010Prop36
280
     0
102
RTVSPost2010PropOp36
 70
     0
102
RTVSPost2010Prop37
 90
       50
102
RTVSPost2010PropOp37
 70
     0
102
RTVSPost2010Prop38
140
0.0
102
RTVSPost2010PropOp38
 70
     0
102
RTVSPost2010Prop39
140
1.0
102
RTVSPost2010PropOp39
 70
     0
102
RTVSPost2010Prop40
 90
        0
102
RTVSPost2010PropOp40
 70
     0
102
RTVSPost2010Prop41ColorIndex
 90
       18
102
RTVSPost2010Prop41ColorRGB
 90
        0
102
RTVSPost2010PropOp41
 70
     0
102
RTVSPost2010Prop42
 90
       50
102
RTVSPost2010PropOp42
 70
     0
102
RTVSPost2010Prop43
 90
        3
102
RTVSPost2010PropOp43
 70
     0
102
RTVSPost2010Prop44ColorIndex
 90
        5
102
RTVSPost2010Prop44ColorRGB
 90
      255
102
RTVSPost2010PropOp44
 70
     0
102
RTVSPost2010Prop45
280
     0
102
RTVSPost2010PropOp45
 70
     0
102
RTVSPost2010Prop46
 90
       50
102
RTVSPost2010PropOp46
 70
     0
102
RTVSPost2010Prop47
 90
       50
102
RTVSPost2010PropOp47
 70
     0
102
RTVSPost2010Prop48
 90
       50
102
RTVSPost2010PropOp48
 70
     0
102
RTVSPost2010Prop49
280
     0
102
RTVSPost2010PropOp49
 70
     0
102
RTVSPost2010Prop50
 90
       50
102
RTVSPost2010PropOp50
 70
     0
102
RTVSPost2010Prop51ColorIndex
 90
      256
102
RTVSPost2010Prop51ColorRGB
 90
-16777216
102
RTVSPost2010PropOp51
 70
     0
102
RTVSPost2010Prop52
140
1.0
102
RTVSPost2010PropOp52
 70
     0
102
RTVSPost2010Prop53
 90
        2
102
RTVSPost2010PropOp53
 70
     0
102
RTVSPost2010Prop54
  1
strokes_ogs.tif
102
RTVSPost2010PropOp54
 70
     0
102
RTVSPost2010Prop55
280
     0
102
RTVSPost2010PropOp55
 70
     0
102
RTVSPost2010Prop56
140
1.0
102
RTVSPost2010PropOp56
 70
     0
102
RTVSPost2010Prop57
140
1.0
102
RTVSPost2010PropOp57
 70
     0
  0
XRECORD
  5
40D
102
{ACAD_REACTORS
330
40C
102
}
330
40C
100
AcDbXrecord
280
     1
102
RTVSPropertyOp0
 70
     1
102
RTVSPropertyOp1
 70
     1
102
RTVSPropertyOp2
 70
     1
102
RTVSPropertyOp3
 70
     1
102
RTVSPropertyOp4
 70
     1
102
RTVSPropertyOp5
 70
     1
102
RTVSPropertyOp6
 70
     1
102
RTVSPropertyOp7
 70
     1
102
RTVSPropertyOp8
 70
     1
102
RTVSPropertyOp9
 70
     1
102
RTVSPropertyOp10
 70
     1
102
RTVSPropertyOp11
 70
     1
102
RTVSPropertyOp12
 70
     1
102
RTVSPropertyOp13
 70
     1
102
RTVSPropertyOp14
 70
     1
102
RTVSPropertyOp15
 70
     1
102
RTVSPropertyOp16
 70
     1
102
RTVSPropertyOp17
 70
     1
102
RTVSPropertyOp18
 70
     1
102
RTVSPropertyOp19
 70
     1
102
RTVSPropertyOp20
 70
     1
102
RTVSPropertyOp21
 70
     1
102
RTVSPropertyOp22
 70
     1
102
RTVSPropertyOp23
 70
     1
102
RTVSPropertyOp24
 70
     1
102
RTVSPropertyOp25
 70
     1
102
RTVSPropertyOp26
 70
     1
102
RTVSPropertyOp27
 70
     1
102
RTVSPropertyOp28
 70
     1
102
RTVSPropertyOp29
 70
     1
102
RTVSPropertyOp30
 70
     1
102
RTVSPropertyOp31
 70
     1
102
RTVSPropertyOp32
 70
     1
102
RTVSPropertyOp33
 70
     1
102
RTVSPropertyOp34
 70
     1
102
RTVSPropertyOp35
 70
     1
102
RTVSPropertyOp36
 70
     1
102
RTVSPropertyOp37
 70
     1
102
RTVSPropertyOp38
 70
     1
102
RTVSPropertyOp39
 70
     1
102
RTVSPropertyOp40
 70
     1
102
RTVSPropertyOp41
 70
     1
102
RTVSPropertyOp42
 70
     1
102
RTVSPropertyOp43
 70
     1
102
RTVSPropertyOp44
 70
     1
102
RTVSPropertyOp45
 70
     1
102
RTVSPropertyOp46
 70
     1
102
RTVSPropertyOp47
 70
     1
102
RTVSPropertyOp48
 70
     1
102
RTVSPropertyOp49
 70
     1
102
RTVSPropertyOp50
 70
     1
102
RTVSPropertyOp51
 70
     0
102
RTVSPropertyOp52
 70
     0
102
RTVSPropertyOp53
 70
     1
102
RTVSPropertyOp54
 70
     1
102
RTVSPropertyOp55
 70
     1
102
RTVSPropertyOp56
 70
     1
102
RTVSPropertyOp57
 70
     1
102
RTVSPost2010Prop28
280
     0
102
RTVSPost2010PropOp28
 70
     1
102
RTVSPost2010Prop29
280
     1
102
RTVSPost2010PropOp29
 70
     1
102
RTVSPost2010Prop30
280
     1
102
RTVSPost2010PropOp30
 70
     1
102
RTVSPost2010Prop31
280
     0
102
RTVSPost2010PropOp31
 70
     1
102
RTVSPost2010Prop32
280
     0
102
RTVSPost2010PropOp32
 70
     1
102
RTVSPost2010Prop33
280
     0
102
RTVSPost2010PropOp33
 70
     1
102
RTVSPost2010Prop34
280
     0
102
RTVSPost2010PropOp34
 70
     1
102
RTVSPost2010Prop35
280
     0
102
RTVSPost2010PropOp35
 70
     1
102
RTVSPost2010Prop36
280
     0
102
RTVSPost2010PropOp36
 70
     1
102
RTVSPost2010Prop37
 90
       50
102
RTVSPost2010PropOp37
 70
     1
102
RTVSPost2010Prop38
140
0.0
102
RTVSPost2010PropOp38
 70
     1
102
RTVSPost2010Prop39
140
1.0
102
RTVSPost2010PropOp39
 70
     1
102
RTVSPost2010Prop40
 90
        0
102
RTVSPost2010PropOp40
 70
     1
102
RTVSPost2010Prop41ColorIndex
 90
       18
102
RTVSPost2010Prop41ColorRGB
 90
        0
102
RTVSPost2010PropOp41
 70
     1
102
RTVSPost2010Prop42
 90
       50
102
RTVSPost2010PropOp42
 70
     1
102
RTVSPost2010Prop43
 90
        3
102
RTVSPost2010PropOp43
 70
     1
102
RTVSPost2010Prop44ColorIndex
 90
        5
102
RTVSPost2010Prop44ColorRGB
 90
      255
102
RTVSPost2010PropOp44
 70
     1
102
RTVSPost2010Prop45
280
     0
102
RTVSPost2010PropOp45
 70
     1
102
RTVSPost2010Prop46
 90
       50
102
RTVSPost2010PropOp46
 70
     1
102
RTVSPost2010Prop47
 90
       50
102
RTVSPost2010PropOp47
 70
     1
102
RTVSPost2010Prop48
 90
       50
102
RTVSPost2010PropOp48
 70
     1
102
RTVSPost2010Prop49
280
     0
102
RTVSPost2010PropOp49
 70
     1
102
RTVSPost2010Prop50
 90
       50
102
RTVSPost2010PropOp50
 70
     1
102
RTVSPost2010Prop51ColorIndex
 90
      256
102
RTVSPost2010Prop51ColorRGB
 90
-16777216
102
RTVSPost2010PropOp51
 70
     0
102
RTVSPost2010Prop52
140
1.0
102
RTVSPost2010PropOp52
 70
     0
102
RTVSPost2010Prop53
 90
        2
102
RTVSPost2010PropOp53
 70
     1
102
RTVSPost2010Prop54
  1
strokes_ogs.tif
102
RTVSPost2010PropOp54
 70
     1
102
RTVSPost2010Prop55
280
     0
102
RTVSPost2010PropOp55
 70
     1
102
RTVSPost2010Prop56
140
1.0
102
RTVSPost2010PropOp56
 70
     1
102
RTVSPost2010Prop57
140
1.0
102
RTVSPost2010PropOp57
 70
     1
  0
XRECORD
  5
42B
102
{ACAD_REACTORS
330
42A
102
}
330
42A
100
AcDbXrecord
280
     1
102
RTVSPropertyOp0
 70
     1
102
RTVSPropertyOp1
 70
     1
102
RTVSPropertyOp2
 70
     1
102
RTVSPropertyOp3
 70
     1
102
RTVSPropertyOp4
 70
     1
102
RTVSPropertyOp5
 70
     1
102
RTVSPropertyOp6
 70
     1
102
RTVSPropertyOp7
 70
     1
102
RTVSPropertyOp8
 70
     1
102
RTVSPropertyOp9
 70
     1
102
RTVSPropertyOp10
 70
     1
102
RTVSPropertyOp11
 70
     1
102
RTVSPropertyOp12
 70
     1
102
RTVSPropertyOp13
 70
     1
102
RTVSPropertyOp14
 70
     1
102
RTVSPropertyOp15
 70
     1
102
RTVSPropertyOp16
 70
     1
102
RTVSPropertyOp17
 70
     1
102
RTVSPropertyOp18
 70
     1
102
RTVSPropertyOp19
 70
     1
102
RTVSPropertyOp20
 70
     1
102
RTVSPropertyOp21
 70
     1
102
RTVSPropertyOp22
 70
     1
102
RTVSPropertyOp23
 70
     1
102
RTVSPropertyOp24
 70
     1
102
RTVSPropertyOp25
 70
     1
102
RTVSPropertyOp26
 70
     1
102
RTVSPropertyOp27
 70
     1
102
RTVSPropertyOp28
 70
     1
102
RTVSPropertyOp29
 70
     1
102
RTVSPropertyOp30
 70
     1
102
RTVSPropertyOp31
 70
     1
102
RTVSPropertyOp32
 70
     1
102
RTVSPropertyOp33
 70
     1
102
RTVSPropertyOp34
 70
     1
102
RTVSPropertyOp35
 70
     1
102
RTVSPropertyOp36
 70
     1
102
RTVSPropertyOp37
 70
     1
102
RTVSPropertyOp38
 70
     1
102
RTVSPropertyOp39
 70
     1
102
RTVSPropertyOp40
 70
     1
102
RTVSPropertyOp41
 70
     1
102
RTVSPropertyOp42
 70
     1
102
RTVSPropertyOp43
 70
     1
102
RTVSPropertyOp44
 70
     1
102
RTVSPropertyOp45
 70
     1
102
RTVSPropertyOp46
 70
     1
102
RTVSPropertyOp47
 70
     1
102
RTVSPropertyOp48
 70
     1
102
RTVSPropertyOp49
 70
     1
102
RTVSPropertyOp50
 70
     1
102
RTVSPropertyOp51
 70
     0
102
RTVSPropertyOp52
 70
     0
102
RTVSPropertyOp53
 70
     1
102
RTVSPropertyOp54
 70
     1
102
RTVSPropertyOp55
 70
     1
102
RTVSPropertyOp56
 70
     1
102
RTVSPropertyOp57
 70
     1
102
RTVSPost2010Prop28
280
     0
102
RTVSPost2010PropOp28
 70
     1
102
RTVSPost2010Prop29
280
     1
102
RTVSPost2010PropOp29
 70
     1
102
RTVSPost2010Prop30
280
     1
102
RTVSPost2010PropOp30
 70
     1
102
RTVSPost2010Prop31
280
     0
102
RTVSPost2010PropOp31
 70
     1
102
RTVSPost2010Prop32
280
     0
102
RTVSPost2010PropOp32
 70
     1
102
RTVSPost2010Prop33
280
     0
102
RTVSPost2010PropOp33
 70
     1
102
RTVSPost2010Prop34
280
     0
102
RTVSPost2010PropOp34
 70
     1
102
RTVSPost2010Prop35
280
     0
102
RTVSPost2010PropOp35
 70
     1
102
RTVSPost2010Prop36
280
     0
102
RTVSPost2010PropOp36
 70
     1
102
RTVSPost2010Prop37
 90
       50
102
RTVSPost2010PropOp37
 70
     1
102
RTVSPost2010Prop38
140
0.0
102
RTVSPost2010PropOp38
 70
     1
102
RTVSPost2010Prop39
140
1.0
102
RTVSPost2010PropOp39
 70
     1
102
RTVSPost2010Prop40
 90
        0
102
RTVSPost2010PropOp40
 70
     1
102
RTVSPost2010Prop41ColorIndex
 90
       18
102
RTVSPost2010Prop41ColorRGB
 90
        0
102
RTVSPost2010PropOp41
 70
     1
102
RTVSPost2010Prop42
 90
       50
102
RTVSPost2010PropOp42
 70
     1
102
RTVSPost2010Prop43
 90
        3
102
RTVSPost2010PropOp43
 70
     1
102
RTVSPost2010Prop44ColorIndex
 90
        5
102
RTVSPost2010Prop44ColorRGB
 90
      255
102
RTVSPost2010PropOp44
 70
     1
102
RTVSPost2010Prop45
280
     0
102
RTVSPost2010PropOp45
 70
     1
102
RTVSPost2010Prop46
 90
       50
102
RTVSPost2010PropOp46
 70
     1
102
RTVSPost2010Prop47
 90
       50
102
RTVSPost2010PropOp47
 70
     1
102
RTVSPost2010Prop48
 90
       50
102
RTVSPost2010PropOp48
 70
     1
102
RTVSPost2010Prop49
280
     0
102
RTVSPost2010PropOp49
 70
     1
102
RTVSPost2010Prop50
 90
       50
102
RTVSPost2010PropOp50
 70
     1
102
RTVSPost2010Prop51ColorIndex
 90
      256
102
RTVSPost2010Prop51ColorRGB
 90
-16777216
102
RTVSPost2010PropOp51
 70
     0
102
RTVSPost2010Prop52
140
1.0
102
RTVSPost2010PropOp52
 70
     0
102
RTVSPost2010Prop53
 90
        2
102
RTVSPost2010PropOp53
 70
     1
102
RTVSPost2010Prop54
  1
strokes_ogs.tif
102
RTVSPost2010PropOp54
 70
     1
102
RTVSPost2010Prop55
280
     0
102
RTVSPost2010PropOp55
 70
     1
102
RTVSPost2010Prop56
140
1.0
102
RTVSPost2010PropOp56
 70
     1
102
RTVSPost2010Prop57
140
1.0
102
RTVSPost2010PropOp57
 70
     1
  0
XRECORD
  5
429
102
{ACAD_REACTORS
330
428
102
}
330
428
100
AcDbXrecord
280
     1
102
RTVSPropertyOp0
 70
     1
102
RTVSPropertyOp1
 70
     1
102
RTVSPropertyOp2
 70
     1
102
RTVSPropertyOp3
 70
     1
102
RTVSPropertyOp4
 70
     1
102
RTVSPropertyOp5
 70
     1
102
RTVSPropertyOp6
 70
     1
102
RTVSPropertyOp7
 70
     1
102
RTVSPropertyOp8
 70
     1
102
RTVSPropertyOp9
 70
     1
102
RTVSPropertyOp10
 70
     1
102
RTVSPropertyOp11
 70
     1
102
RTVSPropertyOp12
 70
     1
102
RTVSPropertyOp13
 70
     1
102
RTVSPropertyOp14
 70
     1
102
RTVSPropertyOp15
 70
     1
102
RTVSPropertyOp16
 70
     1
102
RTVSPropertyOp17
 70
     1
102
RTVSPropertyOp18
 70
     1
102
RTVSPropertyOp19
 70
     1
102
RTVSPropertyOp20
 70
     1
102
RTVSPropertyOp21
 70
     1
102
RTVSPropertyOp22
 70
     1
102
RTVSPropertyOp23
 70
     1
102
RTVSPropertyOp24
 70
     1
102
RTVSPropertyOp25
 70
     1
102
RTVSPropertyOp26
 70
     1
102
RTVSPropertyOp27
 70
     1
102
RTVSPropertyOp28
 70
     1
102
RTVSPropertyOp29
 70
     1
102
RTVSPropertyOp30
 70
     1
102
RTVSPropertyOp31
 70
     1
102
RTVSPropertyOp32
 70
     1
102
RTVSPropertyOp33
 70
     1
102
RTVSPropertyOp34
 70
     1
102
RTVSPropertyOp35
 70
     1
102
RTVSPropertyOp36
 70
     1
102
RTVSPropertyOp37
 70
     1
102
RTVSPropertyOp38
 70
     1
102
RTVSPropertyOp39
 70
     1
102
RTVSPropertyOp40
 70
     1
102
RTVSPropertyOp41
 70
     1
102
RTVSPropertyOp42
 70
     1
102
RTVSPropertyOp43
 70
     1
102
RTVSPropertyOp44
 70
     1
102
RTVSPropertyOp45
 70
     1
102
RTVSPropertyOp46
 70
     1
102
RTVSPropertyOp47
 70
     1
102
RTVSPropertyOp48
 70
     1
102
RTVSPropertyOp49
 70
     1
102
RTVSPropertyOp50
 70
     1
102
RTVSPropertyOp51
 70
     0
102
RTVSPropertyOp52
 70
     0
102
RTVSPropertyOp53
 70
     1
102
RTVSPropertyOp54
 70
     1
102
RTVSPropertyOp55
 70
     1
102
RTVSPropertyOp56
 70
     1
102
RTVSPropertyOp57
 70
     1
102
RTVSPost2010Prop28
280
     0
102
RTVSPost2010PropOp28
 70
     1
102
RTVSPost2010Prop29
280
     1
102
RTVSPost2010PropOp29
 70
     1
102
RTVSPost2010Prop30
280
     1
102
RTVSPost2010PropOp30
 70
     1
102
RTVSPost2010Prop31
280
     0
102
RTVSPost2010PropOp31
 70
     1
102
RTVSPost2010Prop32
280
     0
102
RTVSPost2010PropOp32
 70
     1
102
RTVSPost2010Prop33
280
     0
102
RTVSPost2010PropOp33
 70
     1
102
RTVSPost2010Prop34
280
     0
102
RTVSPost2010PropOp34
 70
     1
102
RTVSPost2010Prop35
280
     0
102
RTVSPost2010PropOp35
 70
     1
102
RTVSPost2010Prop36
280
     0
102
RTVSPost2010PropOp36
 70
     1
102
RTVSPost2010Prop37
 90
       50
102
RTVSPost2010PropOp37
 70
     1
102
RTVSPost2010Prop38
140
0.0
102
RTVSPost2010PropOp38
 70
     1
102
RTVSPost2010Prop39
140
1.0
102
RTVSPost2010PropOp39
 70
     1
102
RTVSPost2010Prop40
 90
        0
102
RTVSPost2010PropOp40
 70
     1
102
RTVSPost2010Prop41ColorIndex
 90
       18
102
RTVSPost2010Prop41ColorRGB
 90
        0
102
RTVSPost2010PropOp41
 70
     1
102
RTVSPost2010Prop42
 90
       50
102
RTVSPost2010PropOp42
 70
     1
102
RTVSPost2010Prop43
 90
        3
102
RTVSPost2010PropOp43
 70
     1
102
RTVSPost2010Prop44ColorIndex
 90
        5
102
RTVSPost2010Prop44ColorRGB
 90
      255
102
RTVSPost2010PropOp44
 70
     1
102
RTVSPost2010Prop45
280
     0
102
RTVSPost2010PropOp45
 70
     1
102
RTVSPost2010Prop46
 90
       50
102
RTVSPost2010PropOp46
 70
     1
102
RTVSPost2010Prop47
 90
       50
102
RTVSPost2010PropOp47
 70
     1
102
RTVSPost2010Prop48
 90
       50
102
RTVSPost2010PropOp48
 70
     1
102
RTVSPost2010Prop49
280
     0
102
RTVSPost2010PropOp49
 70
     1
102
RTVSPost2010Prop50
 90
       50
102
RTVSPost2010PropOp50
 70
     1
102
RTVSPost2010Prop51ColorIndex
 90
      256
102
RTVSPost2010Prop51ColorRGB
 90
-16777216
102
RTVSPost2010PropOp51
 70
     0
102
RTVSPost2010Prop52
140
1.0
102
RTVSPost2010PropOp52
 70
     0
102
RTVSPost2010Prop53
 90
        2
102
RTVSPost2010PropOp53
 70
     1
102
RTVSPost2010Prop54
  1
strokes_ogs.tif
102
RTVSPost2010PropOp54
 70
     1
102
RTVSPost2010Prop55
280
     0
102
RTVSPost2010PropOp55
 70
     1
102
RTVSPost2010Prop56
140
1.0
102
RTVSPost2010PropOp56
 70
     1
102
RTVSPost2010Prop57
140
1.0
102
RTVSPost2010PropOp57
 70
     1
  0
XRECORD
  5
423
102
{ACAD_REACTORS
330
422
102
}
330
422
100
AcDbXrecord
280
     1
102
RTVSPropertyOp0
 70
     1
102
RTVSPropertyOp1
 70
     1
102
RTVSPropertyOp2
 70
     1
102
RTVSPropertyOp3
 70
     1
102
RTVSPropertyOp4
 70
     1
102
RTVSPropertyOp5
 70
     1
102
RTVSPropertyOp6
 70
     1
102
RTVSPropertyOp7
 70
     1
102
RTVSPropertyOp8
 70
     1
102
RTVSPropertyOp9
 70
     1
102
RTVSPropertyOp10
 70
     1
102
RTVSPropertyOp11
 70
     1
102
RTVSPropertyOp12
 70
     1
102
RTVSPropertyOp13
 70
     1
102
RTVSPropertyOp14
 70
     1
102
RTVSPropertyOp15
 70
     1
102
RTVSPropertyOp16
 70
     1
102
RTVSPropertyOp17
 70
     1
102
RTVSPropertyOp18
 70
     1
102
RTVSPropertyOp19
 70
     1
102
RTVSPropertyOp20
 70
     1
102
RTVSPropertyOp21
 70
     1
102
RTVSPropertyOp22
 70
     1
102
RTVSPropertyOp23
 70
     1
102
RTVSPropertyOp24
 70
     1
102
RTVSPropertyOp25
 70
     1
102
RTVSPropertyOp26
 70
     1
102
RTVSPropertyOp27
 70
     1
102
RTVSPropertyOp28
 70
     1
102
RTVSPropertyOp29
 70
     1
102
RTVSPropertyOp30
 70
     1
102
RTVSPropertyOp31
 70
     1
102
RTVSPropertyOp32
 70
     1
102
RTVSPropertyOp33
 70
     1
102
RTVSPropertyOp34
 70
     1
102
RTVSPropertyOp35
 70
     1
102
RTVSPropertyOp36
 70
     1
102
RTVSPropertyOp37
 70
     1
102
RTVSPropertyOp38
 70
     1
102
RTVSPropertyOp39
 70
     1
102
RTVSPropertyOp40
 70
     1
102
RTVSPropertyOp41
 70
     1
102
RTVSPropertyOp42
 70
     1
102
RTVSPropertyOp43
 70
     1
102
RTVSPropertyOp44
 70
     1
102
RTVSPropertyOp45
 70
     1
102
RTVSPropertyOp46
 70
     1
102
RTVSPropertyOp47
 70
     1
102
RTVSPropertyOp48
 70
     1
102
RTVSPropertyOp49
 70
     1
102
RTVSPropertyOp50
 70
     1
102
RTVSPropertyOp51
 70
     0
102
RTVSPropertyOp52
 70
     0
102
RTVSPropertyOp53
 70
     1
102
RTVSPropertyOp54
 70
     1
102
RTVSPropertyOp55
 70
     1
102
RTVSPropertyOp56
 70
     1
102
RTVSPropertyOp57
 70
     1
102
RTVSPost2010Prop28
280
     0
102
RTVSPost2010PropOp28
 70
     1
102
RTVSPost2010Prop29
280
     1
102
RTVSPost2010PropOp29
 70
     1
102
RTVSPost2010Prop30
280
     1
102
RTVSPost2010PropOp30
 70
     1
102
RTVSPost2010Prop31
280
     0
102
RTVSPost2010PropOp31
 70
     1
102
RTVSPost2010Prop32
280
     0
102
RTVSPost2010PropOp32
 70
     1
102
RTVSPost2010Prop33
280
     0
102
RTVSPost2010PropOp33
 70
     1
102
RTVSPost2010Prop34
280
     0
102
RTVSPost2010PropOp34
 70
     1
102
RTVSPost2010Prop35
280
     0
102
RTVSPost2010PropOp35
 70
     1
102
RTVSPost2010Prop36
280
     0
102
RTVSPost2010PropOp36
 70
     1
102
RTVSPost2010Prop37
 90
       50
102
RTVSPost2010PropOp37
 70
     1
102
RTVSPost2010Prop38
140
0.0
102
RTVSPost2010PropOp38
 70
     1
102
RTVSPost2010Prop39
140
1.0
102
RTVSPost2010PropOp39
 70
     1
102
RTVSPost2010Prop40
 90
        0
102
RTVSPost2010PropOp40
 70
     1
102
RTVSPost2010Prop41ColorIndex
 90
       18
102
RTVSPost2010Prop41ColorRGB
 90
        0
102
RTVSPost2010PropOp41
 70
     1
102
RTVSPost2010Prop42
 90
       50
102
RTVSPost2010PropOp42
 70
     1
102
RTVSPost2010Prop43
 90
        3
102
RTVSPost2010PropOp43
 70
     1
102
RTVSPost2010Prop44ColorIndex
 90
        5
102
RTVSPost2010Prop44ColorRGB
 90
      255
102
RTVSPost2010PropOp44
 70
     1
102
RTVSPost2010Prop45
280
     0
102
RTVSPost2010PropOp45
 70
     1
102
RTVSPost2010Prop46
 90
       50
102
RTVSPost2010PropOp46
 70
     1
102
RTVSPost2010Prop47
 90
       50
102
RTVSPost2010PropOp47
 70
     1
102
RTVSPost2010Prop48
 90
       50
102
RTVSPost2010PropOp48
 70
     1
102
RTVSPost2010Prop49
280
     0
102
RTVSPost2010PropOp49
 70
     1
102
RTVSPost2010Prop50
 90
       50
102
RTVSPost2010PropOp50
 70
     1
102
RTVSPost2010Prop51ColorIndex
 90
      256
102
RTVSPost2010Prop51ColorRGB
 90
-16777216
102
RTVSPost2010PropOp51
 70
     0
102
RTVSPost2010Prop52
140
1.0
102
RTVSPost2010PropOp52
 70
     0
102
RTVSPost2010Prop53
 90
        2
102
RTVSPost2010PropOp53
 70
     1
102
RTVSPost2010Prop54
  1
strokes_ogs.tif
102
RTVSPost2010PropOp54
 70
     1
102
RTVSPost2010Prop55
280
     0
102
RTVSPost2010PropOp55
 70
     1
102
RTVSPost2010Prop56
140
1.0
102
RTVSPost2010PropOp56
 70
     1
102
RTVSPost2010Prop57
140
1.0
102
RTVSPost2010PropOp57
 70
     1
  0
XRECORD
  5
425
102
{ACAD_REACTORS
330
424
102
}
330
424
100
AcDbXrecord
280
     1
102
RTVSPropertyOp0
 70
     1
102
RTVSPropertyOp1
 70
     1
102
RTVSPropertyOp2
 70
     1
102
RTVSPropertyOp3
 70
     1
102
RTVSPropertyOp4
 70
     1
102
RTVSPropertyOp5
 70
     1
102
RTVSPropertyOp6
 70
     1
102
RTVSPropertyOp7
 70
     1
102
RTVSPropertyOp8
 70
     1
102
RTVSPropertyOp9
 70
     1
102
RTVSPropertyOp10
 70
     1
102
RTVSPropertyOp11
 70
     1
102
RTVSPropertyOp12
 70
     1
102
RTVSPropertyOp13
 70
     1
102
RTVSPropertyOp14
 70
     1
102
RTVSPropertyOp15
 70
     1
102
RTVSPropertyOp16
 70
     1
102
RTVSPropertyOp17
 70
     1
102
RTVSPropertyOp18
 70
     1
102
RTVSPropertyOp19
 70
     1
102
RTVSPropertyOp20
 70
     1
102
RTVSPropertyOp21
 70
     1
102
RTVSPropertyOp22
 70
     1
102
RTVSPropertyOp23
 70
     1
102
RTVSPropertyOp24
 70
     1
102
RTVSPropertyOp25
 70
     1
102
RTVSPropertyOp26
 70
     1
102
RTVSPropertyOp27
 70
     1
102
RTVSPropertyOp28
 70
     1
102
RTVSPropertyOp29
 70
     1
102
RTVSPropertyOp30
 70
     1
102
RTVSPropertyOp31
 70
     1
102
RTVSPropertyOp32
 70
     1
102
RTVSPropertyOp33
 70
     1
102
RTVSPropertyOp34
 70
     1
102
RTVSPropertyOp35
 70
     1
102
RTVSPropertyOp36
 70
     1
102
RTVSPropertyOp37
 70
     1
102
RTVSPropertyOp38
 70
     1
102
RTVSPropertyOp39
 70
     1
102
RTVSPropertyOp40
 70
     1
102
RTVSPropertyOp41
 70
     1
102
RTVSPropertyOp42
 70
     1
102
RTVSPropertyOp43
 70
     1
102
RTVSPropertyOp44
 70
     1
102
RTVSPropertyOp45
 70
     1
102
RTVSPropertyOp46
 70
     1
102
RTVSPropertyOp47
 70
     1
102
RTVSPropertyOp48
 70
     1
102
RTVSPropertyOp49
 70
     1
102
RTVSPropertyOp50
 70
     1
102
RTVSPropertyOp51
 70
     0
102
RTVSPropertyOp52
 70
     0
102
RTVSPropertyOp53
 70
     1
102
RTVSPropertyOp54
 70
     1
102
RTVSPropertyOp55
 70
     1
102
RTVSPropertyOp56
 70
     1
102
RTVSPropertyOp57
 70
     1
102
RTVSPost2010Prop28
280
     0
102
RTVSPost2010PropOp28
 70
     1
102
RTVSPost2010Prop29
280
     1
102
RTVSPost2010PropOp29
 70
     1
102
RTVSPost2010Prop30
280
     1
102
RTVSPost2010PropOp30
 70
     1
102
RTVSPost2010Prop31
280
     0
102
RTVSPost2010PropOp31
 70
     1
102
RTVSPost2010Prop32
280
     0
102
RTVSPost2010PropOp32
 70
     1
102
RTVSPost2010Prop33
280
     0
102
RTVSPost2010PropOp33
 70
     1
102
RTVSPost2010Prop34
280
     0
102
RTVSPost2010PropOp34
 70
     1
102
RTVSPost2010Prop35
280
     0
102
RTVSPost2010PropOp35
 70
     1
102
RTVSPost2010Prop36
280
     0
102
RTVSPost2010PropOp36
 70
     1
102
RTVSPost2010Prop37
 90
       50
102
RTVSPost2010PropOp37
 70
     1
102
RTVSPost2010Prop38
140
0.0
102
RTVSPost2010PropOp38
 70
     1
102
RTVSPost2010Prop39
140
1.0
102
RTVSPost2010PropOp39
 70
     1
102
RTVSPost2010Prop40
 90
        0
102
RTVSPost2010PropOp40
 70
     1
102
RTVSPost2010Prop41ColorIndex
 90
       18
102
RTVSPost2010Prop41ColorRGB
 90
        0
102
RTVSPost2010PropOp41
 70
     1
102
RTVSPost2010Prop42
 90
       50
102
RTVSPost2010PropOp42
 70
     1
102
RTVSPost2010Prop43
 90
        3
102
RTVSPost2010PropOp43
 70
     1
102
RTVSPost2010Prop44ColorIndex
 90
        5
102
RTVSPost2010Prop44ColorRGB
 90
      255
102
RTVSPost2010PropOp44
 70
     1
102
RTVSPost2010Prop45
280
     0
102
RTVSPost2010PropOp45
 70
     1
102
RTVSPost2010Prop46
 90
       50
102
RTVSPost2010PropOp46
 70
     1
102
RTVSPost2010Prop47
 90
       50
102
RTVSPost2010PropOp47
 70
     1
102
RTVSPost2010Prop48
 90
       50
102
RTVSPost2010PropOp48
 70
     1
102
RTVSPost2010Prop49
280
     0
102
RTVSPost2010PropOp49
 70
     1
102
RTVSPost2010Prop50
 90
       50
102
RTVSPost2010PropOp50
 70
     1
102
RTVSPost2010Prop51ColorIndex
 90
      256
102
RTVSPost2010Prop51ColorRGB
 90
-16777216
102
RTVSPost2010PropOp51
 70
     0
102
RTVSPost2010Prop52
140
1.0
102
RTVSPost2010PropOp52
 70
     0
102
RTVSPost2010Prop53
 90
        2
102
RTVSPost2010PropOp53
 70
     1
102
RTVSPost2010Prop54
  1
strokes_ogs.tif
102
RTVSPost2010PropOp54
 70
     1
102
RTVSPost2010Prop55
280
     0
102
RTVSPost2010PropOp55
 70
     1
102
RTVSPost2010Prop56
140
1.0
102
RTVSPost2010PropOp56
 70
     1
102
RTVSPost2010Prop57
140
1.0
102
RTVSPost2010PropOp57
 70
     1
  0
XRECORD
  5
415
102
{ACAD_REACTORS
330
414
102
}
330
414
100
AcDbXrecord
280
     1
102
RTVSPropertyOp0
 70
     1
102
RTVSPropertyOp1
 70
     1
102
RTVSPropertyOp2
 70
     1
102
RTVSPropertyOp3
 70
     1
102
RTVSPropertyOp4
 70
     1
102
RTVSPropertyOp5
 70
     1
102
RTVSPropertyOp6
 70
     1
102
RTVSPropertyOp7
 70
     1
102
RTVSPropertyOp8
 70
     1
102
RTVSPropertyOp9
 70
     1
102
RTVSPropertyOp10
 70
     1
102
RTVSPropertyOp11
 70
     1
102
RTVSPropertyOp12
 70
     1
102
RTVSPropertyOp13
 70
     1
102
RTVSPropertyOp14
 70
     1
102
RTVSPropertyOp15
 70
     1
102
RTVSPropertyOp16
 70
     1
102
RTVSPropertyOp17
 70
     1
102
RTVSPropertyOp18
 70
     1
102
RTVSPropertyOp19
 70
     1
102
RTVSPropertyOp20
 70
     1
102
RTVSPropertyOp21
 70
     1
102
RTVSPropertyOp22
 70
     1
102
RTVSPropertyOp23
 70
     1
102
RTVSPropertyOp24
 70
     1
102
RTVSPropertyOp25
 70
     1
102
RTVSPropertyOp26
 70
     1
102
RTVSPropertyOp27
 70
     1
102
RTVSPropertyOp28
 70
     1
102
RTVSPropertyOp29
 70
     1
102
RTVSPropertyOp30
 70
     1
102
RTVSPropertyOp31
 70
     1
102
RTVSPropertyOp32
 70
     1
102
RTVSPropertyOp33
 70
     1
102
RTVSPropertyOp34
 70
     1
102
RTVSPropertyOp35
 70
     1
102
RTVSPropertyOp36
 70
     1
102
RTVSPropertyOp37
 70
     1
102
RTVSPropertyOp38
 70
     1
102
RTVSPropertyOp39
 70
     1
102
RTVSPropertyOp40
 70
     1
102
RTVSPropertyOp41
 70
     1
102
RTVSPropertyOp42
 70
     1
102
RTVSPropertyOp43
 70
     1
102
RTVSPropertyOp44
 70
     1
102
RTVSPropertyOp45
 70
     1
102
RTVSPropertyOp46
 70
     1
102
RTVSPropertyOp47
 70
     1
102
RTVSPropertyOp48
 70
     1
102
RTVSPropertyOp49
 70
     1
102
RTVSPropertyOp50
 70
     1
102
RTVSPropertyOp51
 70
     0
102
RTVSPropertyOp52
 70
     0
102
RTVSPropertyOp53
 70
     1
102
RTVSPropertyOp54
 70
     1
102
RTVSPropertyOp55
 70
     1
102
RTVSPropertyOp56
 70
     1
102
RTVSPropertyOp57
 70
     1
102
RTVSPost2010Prop28
280
     0
102
RTVSPost2010PropOp28
 70
     1
102
RTVSPost2010Prop29
280
     1
102
RTVSPost2010PropOp29
 70
     1
102
RTVSPost2010Prop30
280
     1
102
RTVSPost2010PropOp30
 70
     1
102
RTVSPost2010Prop31
280
     0
102
RTVSPost2010PropOp31
 70
     1
102
RTVSPost2010Prop32
280
     0
102
RTVSPost2010PropOp32
 70
     1
102
RTVSPost2010Prop33
280
     0
102
RTVSPost2010PropOp33
 70
     1
102
RTVSPost2010Prop34
280
     0
102
RTVSPost2010PropOp34
 70
     1
102
RTVSPost2010Prop35
280
     0
102
RTVSPost2010PropOp35
 70
     1
102
RTVSPost2010Prop36
280
     0
102
RTVSPost2010PropOp36
 70
     1
102
RTVSPost2010Prop37
 90
       50
102
RTVSPost2010PropOp37
 70
     1
102
RTVSPost2010Prop38
140
0.0
102
RTVSPost2010PropOp38
 70
     1
102
RTVSPost2010Prop39
140
1.0
102
RTVSPost2010PropOp39
 70
     1
102
RTVSPost2010Prop40
 90
        0
102
RTVSPost2010PropOp40
 70
     1
102
RTVSPost2010Prop41ColorIndex
 90
       18
102
RTVSPost2010Prop41ColorRGB
 90
        0
102
RTVSPost2010PropOp41
 70
     1
102
RTVSPost2010Prop42
 90
       50
102
RTVSPost2010PropOp42
 70
     1
102
RTVSPost2010Prop43
 90
        3
102
RTVSPost2010PropOp43
 70
     1
102
RTVSPost2010Prop44ColorIndex
 90
        5
102
RTVSPost2010Prop44ColorRGB
 90
      255
102
RTVSPost2010PropOp44
 70
     1
102
RTVSPost2010Prop45
280
     0
102
RTVSPost2010PropOp45
 70
     1
102
RTVSPost2010Prop46
 90
       50
102
RTVSPost2010PropOp46
 70
     1
102
RTVSPost2010Prop47
 90
       50
102
RTVSPost2010PropOp47
 70
     1
102
RTVSPost2010Prop48
 90
       50
102
RTVSPost2010PropOp48
 70
     1
102
RTVSPost2010Prop49
280
     0
102
RTVSPost2010PropOp49
 70
     1
102
RTVSPost2010Prop50
 90
       50
102
RTVSPost2010PropOp50
 70
     1
102
RTVSPost2010Prop51ColorIndex
 90
      256
102
RTVSPost2010Prop51ColorRGB
 90
-16777216
102
RTVSPost2010PropOp51
 70
     0
102
RTVSPost2010Prop52
140
1.0
102
RTVSPost2010PropOp52
 70
     0
102
RTVSPost2010Prop53
 90
        2
102
RTVSPost2010PropOp53
 70
     1
102
RTVSPost2010Prop54
  1
strokes_ogs.tif
102
RTVSPost2010PropOp54
 70
     1
102
RTVSPost2010Prop55
280
     0
102
RTVSPost2010PropOp55
 70
     1
102
RTVSPost2010Prop56
140
1.0
102
RTVSPost2010PropOp56
 70
     1
102
RTVSPost2010Prop57
140
1.0
102
RTVSPost2010PropOp57
 70
     1
  0
XRECORD
  5
407
102
{ACAD_REACTORS
330
406
102
}
330
406
100
AcDbXrecord
280
     1
102
RTVSPropertyOp0
 70
     1
102
RTVSPropertyOp1
 70
     1
102
RTVSPropertyOp2
 70
     1
102
RTVSPropertyOp3
 70
     1
102
RTVSPropertyOp4
 70
     1
102
RTVSPropertyOp5
 70
     1
102
RTVSPropertyOp6
 70
     1
102
RTVSPropertyOp7
 70
     1
102
RTVSPropertyOp8
 70
     1
102
RTVSPropertyOp9
 70
     1
102
RTVSPropertyOp10
 70
     1
102
RTVSPropertyOp11
 70
     1
102
RTVSPropertyOp12
 70
     1
102
RTVSPropertyOp13
 70
     1
102
RTVSPropertyOp14
 70
     1
102
RTVSPropertyOp15
 70
     1
102
RTVSPropertyOp16
 70
     1
102
RTVSPropertyOp17
 70
     1
102
RTVSPropertyOp18
 70
     1
102
RTVSPropertyOp19
 70
     1
102
RTVSPropertyOp20
 70
     1
102
RTVSPropertyOp21
 70
     1
102
RTVSPropertyOp22
 70
     1
102
RTVSPropertyOp23
 70
     1
102
RTVSPropertyOp24
 70
     1
102
RTVSPropertyOp25
 70
     1
102
RTVSPropertyOp26
 70
     1
102
RTVSPropertyOp27
 70
     1
102
RTVSPropertyOp28
 70
     1
102
RTVSPropertyOp29
 70
     1
102
RTVSPropertyOp30
 70
     1
102
RTVSPropertyOp31
 70
     1
102
RTVSPropertyOp32
 70
     1
102
RTVSPropertyOp33
 70
     1
102
RTVSPropertyOp34
 70
     1
102
RTVSPropertyOp35
 70
     1
102
RTVSPropertyOp36
 70
     1
102
RTVSPropertyOp37
 70
     1
102
RTVSPropertyOp38
 70
     1
102
RTVSPropertyOp39
 70
     1
102
RTVSPropertyOp40
 70
     1
102
RTVSPropertyOp41
 70
     1
102
RTVSPropertyOp42
 70
     1
102
RTVSPropertyOp43
 70
     1
102
RTVSPropertyOp44
 70
     1
102
RTVSPropertyOp45
 70
     1
102
RTVSPropertyOp46
 70
     1
102
RTVSPropertyOp47
 70
     1
102
RTVSPropertyOp48
 70
     1
102
RTVSPropertyOp49
 70
     1
102
RTVSPropertyOp50
 70
     1
102
RTVSPropertyOp51
 70
     0
102
RTVSPropertyOp52
 70
     0
102
RTVSPropertyOp53
 70
     1
102
RTVSPropertyOp54
 70
     1
102
RTVSPropertyOp55
 70
     1
102
RTVSPropertyOp56
 70
     1
102
RTVSPropertyOp57
 70
     1
102
RTVSPost2010Prop28
280
     0
102
RTVSPost2010PropOp28
 70
     1
102
RTVSPost2010Prop29
280
     1
102
RTVSPost2010PropOp29
 70
     1
102
RTVSPost2010Prop30
280
     1
102
RTVSPost2010PropOp30
 70
     1
102
RTVSPost2010Prop31
280
     0
102
RTVSPost2010PropOp31
 70
     1
102
RTVSPost2010Prop32
280
     0
102
RTVSPost2010PropOp32
 70
     1
102
RTVSPost2010Prop33
280
     0
102
RTVSPost2010PropOp33
 70
     1
102
RTVSPost2010Prop34
280
     0
102
RTVSPost2010PropOp34
 70
     1
102
RTVSPost2010Prop35
280
     0
102
RTVSPost2010PropOp35
 70
     1
102
RTVSPost2010Prop36
280
     0
102
RTVSPost2010PropOp36
 70
     1
102
RTVSPost2010Prop37
 90
       50
102
RTVSPost2010PropOp37
 70
     1
102
RTVSPost2010Prop38
140
0.0
102
RTVSPost2010PropOp38
 70
     1
102
RTVSPost2010Prop39
140
1.0
102
RTVSPost2010PropOp39
 70
     1
102
RTVSPost2010Prop40
 90
        0
102
RTVSPost2010PropOp40
 70
     1
102
RTVSPost2010Prop41ColorIndex
 90
       18
102
RTVSPost2010Prop41ColorRGB
 90
        0
102
RTVSPost2010PropOp41
 70
     1
102
RTVSPost2010Prop42
 90
       50
102
RTVSPost2010PropOp42
 70
     1
102
RTVSPost2010Prop43
 90
        3
102
RTVSPost2010PropOp43
 70
     1
102
RTVSPost2010Prop44ColorIndex
 90
        5
102
RTVSPost2010Prop44ColorRGB
 90
      255
102
RTVSPost2010PropOp44
 70
     1
102
RTVSPost2010Prop45
280
     0
102
RTVSPost2010PropOp45
 70
     1
102
RTVSPost2010Prop46
 90
       50
102
RTVSPost2010PropOp46
 70
     1
102
RTVSPost2010Prop47
 90
       50
102
RTVSPost2010PropOp47
 70
     1
102
RTVSPost2010Prop48
 90
       50
102
RTVSPost2010PropOp48
 70
     1
102
RTVSPost2010Prop49
280
     0
102
RTVSPost2010PropOp49
 70
     1
102
RTVSPost2010Prop50
 90
       50
102
RTVSPost2010PropOp50
 70
     1
102
RTVSPost2010Prop51ColorIndex
 90
      256
102
RTVSPost2010Prop51ColorRGB
 90
-16777216
102
RTVSPost2010PropOp51
 70
     0
102
RTVSPost2010Prop52
140
1.0
102
RTVSPost2010PropOp52
 70
     0
102
RTVSPost2010Prop53
 90
        2
102
RTVSPost2010PropOp53
 70
     1
102
RTVSPost2010Prop54
  1
strokes_ogs.tif
102
RTVSPost2010PropOp54
 70
     1
102
RTVSPost2010Prop55
280
     0
102
RTVSPost2010PropOp55
 70
     1
102
RTVSPost2010Prop56
140
1.0
102
RTVSPost2010PropOp56
 70
     1
102
RTVSPost2010Prop57
140
1.0
102
RTVSPost2010PropOp57
 70
     1
  0
XRECORD
  5
427
102
{ACAD_REACTORS
330
426
102
}
330
426
100
AcDbXrecord
280
     1
102
RTVSPropertyOp0
 70
     1
102
RTVSPropertyOp1
 70
     1
102
RTVSPropertyOp2
 70
     1
102
RTVSPropertyOp3
 70
     1
102
RTVSPropertyOp4
 70
     1
102
RTVSPropertyOp5
 70
     1
102
RTVSPropertyOp6
 70
     1
102
RTVSPropertyOp7
 70
     1
102
RTVSPropertyOp8
 70
     1
102
RTVSPropertyOp9
 70
     1
102
RTVSPropertyOp10
 70
     1
102
RTVSPropertyOp11
 70
     1
102
RTVSPropertyOp12
 70
     1
102
RTVSPropertyOp13
 70
     1
102
RTVSPropertyOp14
 70
     1
102
RTVSPropertyOp15
 70
     1
102
RTVSPropertyOp16
 70
     1
102
RTVSPropertyOp17
 70
     1
102
RTVSPropertyOp18
 70
     1
102
RTVSPropertyOp19
 70
     1
102
RTVSPropertyOp20
 70
     1
102
RTVSPropertyOp21
 70
     1
102
RTVSPropertyOp22
 70
     1
102
RTVSPropertyOp23
 70
     1
102
RTVSPropertyOp24
 70
     1
102
RTVSPropertyOp25
 70
     1
102
RTVSPropertyOp26
 70
     1
102
RTVSPropertyOp27
 70
     1
102
RTVSPropertyOp28
 70
     1
102
RTVSPropertyOp29
 70
     1
102
RTVSPropertyOp30
 70
     1
102
RTVSPropertyOp31
 70
     1
102
RTVSPropertyOp32
 70
     1
102
RTVSPropertyOp33
 70
     1
102
RTVSPropertyOp34
 70
     1
102
RTVSPropertyOp35
 70
     1
102
RTVSPropertyOp36
 70
     1
102
RTVSPropertyOp37
 70
     1
102
RTVSPropertyOp38
 70
     1
102
RTVSPropertyOp39
 70
     1
102
RTVSPropertyOp40
 70
     1
102
RTVSPropertyOp41
 70
     1
102
RTVSPropertyOp42
 70
     1
102
RTVSPropertyOp43
 70
     1
102
RTVSPropertyOp44
 70
     1
102
RTVSPropertyOp45
 70
     1
102
RTVSPropertyOp46
 70
     1
102
RTVSPropertyOp47
 70
     1
102
RTVSPropertyOp48
 70
     1
102
RTVSPropertyOp49
 70
     1
102
RTVSPropertyOp50
 70
     1
102
RTVSPropertyOp51
 70
     0
102
RTVSPropertyOp52
 70
     0
102
RTVSPropertyOp53
 70
     1
102
RTVSPropertyOp54
 70
     1
102
RTVSPropertyOp55
 70
     1
102
RTVSPropertyOp56
 70
     1
102
RTVSPropertyOp57
 70
     1
102
RTVSPost2010Prop28
280
     0
102
RTVSPost2010PropOp28
 70
     1
102
RTVSPost2010Prop29
280
     1
102
RTVSPost2010PropOp29
 70
     1
102
RTVSPost2010Prop30
280
     1
102
RTVSPost2010PropOp30
 70
     1
102
RTVSPost2010Prop31
280
     0
102
RTVSPost2010PropOp31
 70
     1
102
RTVSPost2010Prop32
280
     0
102
RTVSPost2010PropOp32
 70
     1
102
RTVSPost2010Prop33
280
     0
102
RTVSPost2010PropOp33
 70
     1
102
RTVSPost2010Prop34
280
     0
102
RTVSPost2010PropOp34
 70
     1
102
RTVSPost2010Prop35
280
     0
102
RTVSPost2010PropOp35
 70
     1
102
RTVSPost2010Prop36
280
     0
102
RTVSPost2010PropOp36
 70
     1
102
RTVSPost2010Prop37
 90
       50
102
RTVSPost2010PropOp37
 70
     1
102
RTVSPost2010Prop38
140
0.0
102
RTVSPost2010PropOp38
 70
     1
102
RTVSPost2010Prop39
140
1.0
102
RTVSPost2010PropOp39
 70
     1
102
RTVSPost2010Prop40
 90
        0
102
RTVSPost2010PropOp40
 70
     1
102
RTVSPost2010Prop41ColorIndex
 90
       18
102
RTVSPost2010Prop41ColorRGB
 90
        0
102
RTVSPost2010PropOp41
 70
     1
102
RTVSPost2010Prop42
 90
       50
102
RTVSPost2010PropOp42
 70
     1
102
RTVSPost2010Prop43
 90
        3
102
RTVSPost2010PropOp43
 70
     1
102
RTVSPost2010Prop44ColorIndex
 90
        5
102
RTVSPost2010Prop44ColorRGB
 90
      255
102
RTVSPost2010PropOp44
 70
     1
102
RTVSPost2010Prop45
280
     0
102
RTVSPost2010PropOp45
 70
     1
102
RTVSPost2010Prop46
 90
       50
102
RTVSPost2010PropOp46
 70
     1
102
RTVSPost2010Prop47
 90
       50
102
RTVSPost2010PropOp47
 70
     1
102
RTVSPost2010Prop48
 90
       50
102
RTVSPost2010PropOp48
 70
     1
102
RTVSPost2010Prop49
280
     0
102
RTVSPost2010PropOp49
 70
     1
102
RTVSPost2010Prop50
 90
       50
102
RTVSPost2010PropOp50
 70
     1
102
RTVSPost2010Prop51ColorIndex
 90
      256
102
RTVSPost2010Prop51ColorRGB
 90
-16777216
102
RTVSPost2010PropOp51
 70
     0
102
RTVSPost2010Prop52
140
1.0
102
RTVSPost2010PropOp52
 70
     0
102
RTVSPost2010Prop53
 90
        2
102
RTVSPost2010PropOp53
 70
     1
102
RTVSPost2010Prop54
  1
strokes_ogs.tif
102
RTVSPost2010PropOp54
 70
     1
102
RTVSPost2010Prop55
280
     0
102
RTVSPost2010PropOp55
 70
     1
102
RTVSPost2010Prop56
140
1.0
102
RTVSPost2010PropOp56
 70
     1
102
RTVSPost2010Prop57
140
1.0
102
RTVSPost2010PropOp57
 70
     1
  0
ENDSEC
  0
EOF
