  0
SECTION
  2
HEADER
  9
$ACADVER
  1
AC1018
  9
$ACADMAINTVER
 70
     0
  9
$DWGCODEPAGE
  3
ANSI_932
  9
$INSBASE
 10
0.0
 20
0.0
 30
0.0
  9
$EXTMIN
 10
-630.0
 20
-445.5
 30
0.0
  9
$EXTMAX
 10
630.0
 20
445.5
 30
0.0
  9
$LIMMIN
 10
-630.0
 20
-445.5
  9
$LIMMAX
 10
630.0
 20
445.5
  9
$ORTHOMODE
 70
     0
  9
$REGENMODE
 70
     1
  9
$FILLMODE
 70
     1
  9
$QTEXTMODE
 70
     0
  9
$MIRRTEXT
 70
     1
  9
$LTSCALE
 40
3.0
  9
$ATTMODE
 70
     1
  9
$TEXTSIZE
 40
2.5
  9
$TRACEWID
 40
1.0
  9
$TEXTSTYLE
  7
Standard
  9
$CLAYER
  8
0
  9
$CELTYPE
  6
ByLayer
  9
$CECOLOR
 62
   256
  9
$CELTSCALE
 40
1.0
  9
$DISPSILH
 70
     0
  9
$DIMSCALE
 40
1.0
  9
$DIMASZ
 40
2.5
  9
$DIMEXO
 40
0.625
  9
$DIMDLI
 40
3.75
  9
$DIMRND
 40
0.0
  9
$DIMDLE
 40
0.0
  9
$DIMEXE
 40
1.25
  9
$DIMTP
 40
0.0
  9
$DIMTM
 40
0.0
  9
$DIMTXT
 40
2.5
  9
$DIMCEN
 40
2.5
  9
$DIMTSZ
 40
0.0
  9
$DIMTOL
 70
     0
  9
$DIMLIM
 70
     0
  9
$DIMTIH
 70
     0
  9
$DIMTOH
 70
     0
  9
$DIMSE1
 70
     0
  9
$DIMSE2
 70
     0
  9
$DIMTAD
 70
     1
  9
$DIMZIN
 70
     8
  9
$DIMBLK
  1

  9
$DIMASO
 70
     1
  9
$DIMSHO
 70
     1
  9
$DIMPOST
  1

  9
$DIMAPOST
  1

  9
$DIMALT
 70
     0
  9
$DIMALTD
 70
     3
  9
$DIMALTF
 40
0.03937007874016
  9
$DIMLFAC
 40
1.0
  9
$DIMTOFL
 70
     1
  9
$DIMTVP
 40
0.0
  9
$DIMTIX
 70
     0
  9
$DIMSOXD
 70
     0
  9
$DIMSAH
 70
     0
  9
$DIMBLK1
  1

  9
$DIMBLK2
  1

  9
$DIMSTYLE
  2
ISO-25
  9
$DIMCLRD
 70
     0
  9
$DIMCLRE
 70
     0
  9
$DIMCLRT
 70
     0
  9
$DIMTFAC
 40
1.0
  9
$DIMGAP
 40
0.625
  9
$DIMJUST
 70
     0
  9
$DIMSD1
 70
     0
  9
$DIMSD2
 70
     0
  9
$DIMTOLJ
 70
     0
  9
$DIMTZIN
 70
     8
  9
$DIMALTZ
 70
     0
  9
$DIMALTTZ
 70
     0
  9
$DIMUPT
 70
     0
  9
$DIMDEC
 70
     2
  9
$DIMTDEC
 70
     2
  9
$DIMALTU
 70
     2
  9
$DIMALTTD
 70
     3
  9
$DIMTXSTY
  7
Standard
  9
$DIMAUNIT
 70
     0
  9
$DIMADEC
 70
     0
  9
$DIMALTRND
 40
0.0
  9
$DIMAZIN
 70
     0
  9
$DIMDSEP
 70
    44
  9
$DIMATFIT
 70
     3
  9
$DIMFRAC
 70
     0
  9
$DIMLDRBLK
  1

  9
$DIMLUNIT
 70
     2
  9
$DIMLWD
 70
    -2
  9
$DIMLWE
 70
    -2
  9
$DIMTMOVE
 70
     0
  9
$LUNITS
 70
     2
  9
$LUPREC
 70
     4
  9
$SKETCHINC
 40
1.0
  9
$FILLETRAD
 40
10.0
  9
$AUNITS
 70
     0
  9
$AUPREC
 70
     0
  9
$MENU
  1
.
  9
$ELEVATION
 40
0.0
  9
$PELEVATION
 40
0.0
  9
$THICKNESS
 40
0.0
  9
$LIMCHECK
 70
     0
  9
$CHAMFERA
 40
0.0
  9
$CHAMFERB
 40
0.0
  9
$CHAMFERC
 40
0.0
  9
$CHAMFERD
 40
0.0
  9
$SKPOLY
 70
     0
  9
$TDCREATE
 40
2461033.545675544
  9
$TDUCREATE
 40
2461033.170675544
  9
$TDUPDATE
 40
2461033.545681018
  9
$TDUUPDATE
 40
2461033.170681018
  9
$TDINDWG
 40
0.0000000116
  9
$TDUSRTIMER
 40
0.0000000116
  9
$USRTIMER
 70
     1
  9
$ANGBASE
 50
0.0
  9
$ANGDIR
 70
     0
  9
$PDMODE
 70
     0
  9
$PDSIZE
 40
0.0
  9
$PLINEWID
 40
0.0
  9
$SPLFRAME
 70
     0
  9
$SPLINETYPE
 70
     6
  9
$SPLINESEGS
 70
     8
  9
$HANDSEED
  5
42F
  9
$SURFTAB1
 70
     6
  9
$SURFTAB2
 70
     6
  9
$SURFTYPE
 70
     6
  9
$SURFU
 70
     6
  9
$SURFV
 70
     6
  9
$UCSBASE
  2

  9
$UCSNAME
  2

  9
$UCSORG
 10
0.0
 20
0.0
 30
0.0
  9
$UCSXDIR
 10
1.0
 20
0.0
 30
0.0
  9
$UCSYDIR
 10
0.0
 20
1.0
 30
0.0
  9
$UCSORTHOREF
  2

  9
$UCSORTHOVIEW
 70
     0
  9
$UCSORGTOP
 10
0.0
 20
0.0
 30
0.0
  9
$UCSORGBOTTOM
 10
0.0
 20
0.0
 30
0.0
  9
$UCSORGLEFT
 10
0.0
 20
0.0
 30
0.0
  9
$UCSORGRIGHT
 10
0.0
 20
0.0
 30
0.0
  9
$UCSORGFRONT
 10
0.0
 20
0.0
 30
0.0
  9
$UCSORGBACK
 10
0.0
 20
0.0
 30
0.0
  9
$PUCSBASE
  2

  9
$PUCSNAME
  2

  9
$PUCSORG
 10
0.0
 20
0.0
 30
0.0
  9
$PUCSXDIR
 10
1.0
 20
0.0
 30
0.0
  9
$PUCSYDIR
 10
0.0
 20
1.0
 30
0.0
  9
$PUCSORTHOREF
  2

  9
$PUCSORTHOVIEW
 70
     0
  9
$PUCSORGTOP
 10
0.0
 20
0.0
 30
0.0
  9
$PUCSORGBOTTOM
 10
0.0
 20
0.0
 30
0.0
  9
$PUCSORGLEFT
 10
0.0
 20
0.0
 30
0.0
  9
$PUCSORGRIGHT
 10
0.0
 20
0.0
 30
0.0
  9
$PUCSORGFRONT
 10
0.0
 20
0.0
 30
0.0
  9
$PUCSORGBACK
 10
0.0
 20
0.0
 30
0.0
  9
$USERI1
 70
     0
  9
$USERI2
 70
     0
  9
$USERI3
 70
     0
  9
$USERI4
 70
     0
  9
$USERI5
 70
     0
  9
$USERR1
 40
0.0
  9
$USERR2
 40
0.0
  9
$USERR3
 40
0.0
  9
$USERR4
 40
0.0
  9
$USERR5
 40
0.0
  9
$WORLDVIEW
 70
     1
  9
$SHADEDGE
 70
     3
  9
$SHADEDIF
 70
    70
  9
$TILEMODE
 70
     1
  9
$MAXACTVP
 70
    64
  9
$PINSBASE
 10
0.0
 20
0.0
 30
0.0
  9
$PLIMCHECK
 70
     0
  9
$PEXTMIN
 10
1.000000000000000E+20
 20
1.000000000000000E+20
 30
1.000000000000000E+20
  9
$PEXTMAX
 10
-1.000000000000000E+20
 20
-1.000000000000000E+20
 30
-1.000000000000000E+20
  9
$PLIMMIN
 10
0.0
 20
0.0
  9
$PLIMMAX
 10
420.0
 20
297.0
  9
$UNITMODE
 70
     0
  9
$VISRETAIN
 70
     1
  9
$PLINEGEN
 70
     0
  9
$PSLTSCALE
 70
     1
  9
$TREEDEPTH
 70
  3020
  9
$CMLSTYLE
  2
Standard
  9
$CMLJUST
 70
     0
  9
$CMLSCALE
 40
20.0
  9
$PROXYGRAPHICS
 70
     1
  9
$MEASUREMENT
 70
     1
  9
$CELWEIGHT
370
    -1
  9
$ENDCAPS
280
     0
  9
$JOINSTYLE
280
     0
  9
$LWDISPLAY
290
     0
  9
$INSUNITS
 70
     4
  9
$HYPERLINKBASE
  1

  9
$STYLESHEET
  1

  9
$XEDIT
290
     1
  9
$CEPSNTYPE
380
     0
  9
$PSTYLEMODE
290
     1
  9
$FINGERPRINTGUID
  2
{47A29584-725C-43CC-8C84-862C6BA3AF2B}
  9
$VERSIONGUID
  2
{FAEB1C32-E019-11D5-929B-00C0DF256EC4}
  9
$EXTNAMES
290
     1
  9
$PSVPSCALE
 40
0.0
  9
$OLESTARTUP
290
     0
  9
$SORTENTS
280
   127
  9
$INDEXCTL
280
     0
  9
$HIDETEXT
280
     1
  9
$XCLIPFRAME
290
     0
  9
$HALOGAP
280
     0
  9
$OBSCOLOR
 70
   257
  9
$OBSLTYPE
280
     0
  9
$INTERSECTIONDISPLAY
280
     0
  9
$INTERSECTIONCOLOR
 70
   257
  9
$DIMASSOC
280
     2
  9
$PROJECTNAME
  1

  0
ENDSEC
  0
SECTION
  2
CLASSES
  0
CLASS
  1
ACDBDICTIONARYWDFLT
  2
AcDbDictionaryWithDefault
  3
ObjectDBX Classes
 90
        0
 91
        4
280
     0
281
     0
  0
CLASS
  1
VISUALSTYLE
  2
AcDbVisualStyle
  3
ObjectDBX Classes
 90
     4095
 91
        4
280
     0
281
     0
  0
CLASS
  1
MATERIAL
  2
AcDbMaterial
  3
ObjectDBX Classes
 90
     1153
 91
        4
280
     0
281
     0
  0
CLASS
  1
SCALE
  2
AcDbScale
  3
ObjectDBX Classes
 90
     1153
 91
        4
280
     0
281
     0
  0
CLASS
  1
TABLESTYLE
  2
AcDbTableStyle
  3
ObjectDBX Classes
 90
     4095
 91
        4
280
     0
281
     0
  0
CLASS
  1
MLEADERSTYLE
  2
AcDbMLeaderStyle
  3
ACDB_MLEADERSTYLE_CLASS
 90
     4095
 91
        4
280
     0
281
     0
  0
CLASS
  1
SUN
  2
AcDbSun
  3
SCENEOE
 90
     1153
 91
        4
280
     0
281
     0
  0
CLASS
  1
DICTIONARYVAR
  2
AcDbDictionaryVar
  3
ObjectDBX Classes
 90
        0
 91
        4
280
     0
281
     0
  0
CLASS
  1
CELLSTYLEMAP
  2
AcDbCellStyleMap
  3
ObjectDBX Classes
 90
     1152
 91
        4
280
     0
281
     0
  0
ENDSEC
  0
SECTION
  2
TABLES
  0
TABLE
  2
VPORT
  5
8
102
{ACAD_XDICTIONARY
360
3E6
102
}
330
0
100
AcDbSymbolTable
 70
     1
  0
VPORT
  5
29
330
8
100
AcDbSymbolTableRecord
100
AcDbViewportTableRecord
  2
*Active
 70
     0
 10
0.0
 20
0.0
 11
1.0
 21
1.0
 12
0.0
 22
0.0
 13
0.0
 23
0.0
 14
10.0
 24
10.0
 15
10.0
 25
10.0
 16
0.0
 26
0.0
 36
1.0
 17
0.0
 27
0.0
 37
0.0
 40
980.1
 41
1.414141414141414
 42
50.0
 43
0.0
 44
0.0
 50
0.0
 51
0.0
 71
     0
 72
 10000
 73
     1
 74
     3
 75
     0
 76
     0
 77
     0
 78
     0
281
     0
 65
     1
110
0.0
120
0.0
130
0.0
111
1.0
121
0.0
131
0.0
112
0.0
122
1.0
132
0.0
 79
     0
146
0.0
  0
ENDTAB
  0
TABLE
  2
LTYPE
  5
5
330
0
100
AcDbSymbolTable
 70
     3
  0
LTYPE
  5
14
330
5
100
AcDbSymbolTableRecord
100
AcDbLinetypeTableRecord
  2
ByBlock
 70
     0
  3

 72
    65
 73
     0
 40
0.0
  0
LTYPE
  5
15
330
5
100
AcDbSymbolTableRecord
100
AcDbLinetypeTableRecord
  2
ByLayer
 70
     0
  3

 72
    65
 73
     0
 40
0.0
  0
LTYPE
  5
16
330
5
100
AcDbSymbolTableRecord
100
AcDbLinetypeTableRecord
  2
Continuous
 70
     0
  3
Solid line
 72
    65
 73
     0
 40
0.0
  0
LTYPE
  5
6F
330
5
100
AcDbSymbolTableRecord
100
AcDbLinetypeTableRecord
  2
JWW_CENTER1
 70
     0
  3
-----  --  ----------  --  -----
 72
    65
 73
     4
 40
6.773333333333333
 49
4.233333333333333
 74
     0
 49
-0.8466666666666667
 74
     0
 49
0.8466666666666667
 74
     0
 49
-0.8466666666666667
 74
     0
  0
LTYPE
  5
70
330
5
100
AcDbSymbolTableRecord
100
AcDbLinetypeTableRecord
  2
JWW_PHANTOM2
 70
     0
  3
------------  -  -  ------------
 72
    65
 73
     6
 40
13.54666666666667
 49
10.16
 74
     0
 49
-0.8466666666666667
 74
     0
 49
0.4233333333333333
 74
     0
 49
-0.8466666666666667
 74
     0
 49
0.4233333333333333
 74
     0
 49
-0.8466666666666667
 74
     0
  0
ENDTAB
  0
TABLE
  2
LAYER
  5
2
330
0
100
AcDbSymbolTable
 70
    12
  0
LAYER
  5
10
330
2
100
AcDbSymbolTableRecord
100
AcDbLayerTableRecord
  2
0
 70
     0
 62
     7
  6
Continuous
370
    -3
390
F
  0
LAYER
  5
71
330
2
100
AcDbSymbolTableRecord
100
AcDbLayerTableRecord
  2
0-2
 70
     0
 62
     7
  6
Continuous
370
    -3
390
F
  0
LAYER
  5
72
330
2
100
AcDbSymbolTableRecord
100
AcDbLayerTableRecord
  2
0-A
 70
     0
 62
     7
  6
Continuous
370
    -3
390
F
  0
LAYER
  5
73
330
2
100
AcDbSymbolTableRecord
100
AcDbLayerTableRecord
  2
0-0
 70
     0
 62
     7
  6
Continuous
370
    -3
390
F
  0
LAYER
  5
74
330
2
100
AcDbSymbolTableRecord
100
AcDbLayerTableRecord
  2
0-1
 70
     0
 62
     7
  6
Continuous
370
    -3
390
F
  0
LAYER
  5
75
330
2
100
AcDbSymbolTableRecord
100
AcDbLayerTableRecord
  2
0-3
 70
     0
 62
     7
  6
Continuous
370
    -3
390
F
  0
LAYER
  5
76
330
2
100
AcDbSymbolTableRecord
100
AcDbLayerTableRecord
  2
0-8
 70
     0
 62
     7
  6
Continuous
370
    -3
390
F
  0
LAYER
  5
77
330
2
100
AcDbSymbolTableRecord
100
AcDbLayerTableRecord
  2
0-4
 70
     0
 62
     7
  6
Continuous
370
    -3
390
F
  0
LAYER
  5
78
330
2
100
AcDbSymbolTableRecord
100
AcDbLayerTableRecord
  2
0-5
 70
     0
 62
     7
  6
Continuous
370
    -3
390
F
  0
LAYER
  5
79
330
2
100
AcDbSymbolTableRecord
100
AcDbLayerTableRecord
  2
F-5
 70
     0
 62
     7
  6
Continuous
370
    -3
390
F
  0
LAYER
  5
7A
330
2
100
AcDbSymbolTableRecord
100
AcDbLayerTableRecord
  2
F-4
 70
     0
 62
     7
  6
Continuous
370
    -3
390
F
  0
LAYER
  5
7B
330
2
100
AcDbSymbolTableRecord
100
AcDbLayerTableRecord
  2
F-0
 70
     0
 62
     7
  6
Continuous
370
    -3
390
F
  0
ENDTAB
  0
TABLE
  2
STYLE
  5
3
330
0
100
AcDbSymbolTable
 70
     2
  0
STYLE
  5
11
330
3
100
AcDbSymbolTableRecord
100
AcDbTextStyleTableRecord
  2
Standard
 70
     0
 40
0.0
 41
1.0
 50
0.0
 71
     0
 42
2.5
  3
txt
  4

  0
STYLE
  5
6E
330
3
100
AcDbSymbolTableRecord
100
AcDbTextStyleTableRecord
  2
ＭＳ ゴシック
 70
     0
 40
1.0
 41
1.0
 50
0.0
 71
     0
 42
2.5
  3

  4

1001
ACAD
1000
MS Gothic
1071
    32817
  0
ENDTAB
  0
TABLE
  2
VIEW
  5
6
330
0
100
AcDbSymbolTable
 70
     0
  0
ENDTAB
  0
TABLE
  2
UCS
  5
7
330
0
100
AcDbSymbolTable
 70
     0
  0
ENDTAB
  0
TABLE
  2
APPID
  5
9
330
0
100
AcDbSymbolTable
 70
     2
  0
APPID
  5
12
330
9
100
AcDbSymbolTableRecord
100
AcDbRegAppTableRecord
  2
ACAD
 70
     0
  0
APPID
  5
425
330
9
100
AcDbSymbolTableRecord
100
AcDbRegAppTableRecord
  2
ACAD_MLEADERVER
 70
     0
  0
ENDTAB
  0
TABLE
  2
DIMSTYLE
  5
A
330
0
100
AcDbSymbolTable
 70
     1
100
AcDbDimStyleTable
  0
DIMSTYLE
105
27
330
A
100
AcDbSymbolTableRecord
100
AcDbDimStyleTableRecord
  2
ISO-25
 70
     0
 41
2.5
 42
0.625
 43
3.75
 44
1.25
 73
     0
 74
     0
 77
     1
 78
     8
140
2.5
141
2.5
143
0.03937007874016
147
0.625
171
     3
172
     1
178
     0
271
     2
272
     2
274
     3
278
    44
283
     0
284
     8
340
11
  0
ENDTAB
  0
TABLE
  2
BLOCK_RECORD
  5
1
330
0
100
AcDbSymbolTable
 70
     1
  0
BLOCK_RECORD
  5
1F
330
1
100
AcDbSymbolTableRecord
100
AcDbBlockTableRecord
  2
*Model_Space
340
22
  0
BLOCK_RECORD
  5
1B
330
1
100
AcDbSymbolTableRecord
100
AcDbBlockTableRecord
  2
*Paper_Space
340
1E
  0
BLOCK_RECORD
  5
23
330
1
100
AcDbSymbolTableRecord
100
AcDbBlockTableRecord
  2
*Paper_Space0
340
26
  0
ENDTAB
  0
ENDSEC
  0
SECTION
  2
BLOCKS
  0
BLOCK
  5
20
330
1F
100
AcDbEntity
  8
0
100
AcDbBlockBegin
  2
*Model_Space
 70
     0
 10
0.0
 20
0.0
 30
0.0
  3
*Model_Space
  1

  0
ENDBLK
  5
21
330
1F
100
AcDbEntity
  8
0
100
AcDbBlockEnd
  0
BLOCK
  5
1C
330
1B
100
AcDbEntity
 67
     1
  8
0
100
AcDbBlockBegin
  2
*Paper_Space
 70
     0
 10
0.0
 20
0.0
 30
0.0
  3
*Paper_Space
  1

  0
ENDBLK
  5
1D
330
1B
100
AcDbEntity
 67
     1
  8
0
100
AcDbBlockEnd
  0
BLOCK
  5
24
330
23
100
AcDbEntity
  8
0
100
AcDbBlockBegin
  2
*Paper_Space0
 70
     0
 10
0.0
 20
0.0
 30
0.0
  3
*Paper_Space0
  1

  0
ENDBLK
  5
25
330
23
100
AcDbEntity
  8
0
100
AcDbBlockEnd
  0
ENDSEC
  0
SECTION
  2
ENTITIES
  0
LINE
  5
7C
330
1F
100
AcDbEntity
  8
0-2
  6
Continuous
 62
     3
370
     9
100
AcDbLine
 10
-27.82756573560908
 20
175.8307916672542
 30
0.0
 11
-27.82756573560908
 21
181.830522311333
 31
0.0
  0
LINE
  5
7D
330
1F
100
AcDbEntity
  8
0-2
  6
Continuous
 62
     3
370
     9
100
AcDbLine
 10
-27.82756573560908
 20
157.3306807906479
 30
0.0
 11
-27.82756573560908
 21
163.8306367227938
 31
0.0
  0
LINE
  5
7E
330
1F
100
AcDbEntity
  8
0-2
  6
Continuous
 62
     3
370
     9
100
AcDbLine
 10
41.44471822350347
 20
193.8305781620357
 30
0.0
 11
41.44471822350347
 21
199.8305069936297
 31
0.0
  0
LINE
  5
7F
330
1F
100
AcDbEntity
  8
0-2
  6
Continuous
 62
     3
370
     9
100
AcDbLine
 10
41.44471822350347
 20
175.8307916672542
 30
0.0
 11
41.44471822350347
 21
181.830522311333
 31
0.0
  0
LINE
  5
80
330
1F
100
AcDbEntity
  8
0-2
  6
Continuous
 62
     3
370
     9
100
AcDbLine
 10
41.44471822350347
 20
157.3306807906479
 30
0.0
 11
41.44471822350347
 21
163.8306367227938
 31
0.0
  0
LINE
  5
81
330
1F
100
AcDbEntity
  8
0-2
  6
Continuous
 62
     3
370
     9
100
AcDbLine
 10
12.34420127458265
 20
155.3305723884399
 30
0.0
 11
39.4446593681742
 21
155.3305723884399
 31
0.0
  0
LINE
  5
82
330
1F
100
AcDbEntity
  8
0-2
  6
Continuous
 62
     3
370
     9
100
AcDbLine
 10
10.34429105988972
 20
163.8306367227938
 30
0.0
 11
10.34429105988972
 21
157.3306807906479
 31
0.0
  0
LINE
  5
83
330
1F
100
AcDbEntity
  8
0-2
  6
Continuous
 62
     3
370
     9
100
AcDbLine
 10
12.34420127458265
 20
165.8307451250018
 30
0.0
 11
39.4446593681742
 21
165.8307451250018
 31
0.0
  0
LINE
  5
84
330
1F
100
AcDbEntity
  8
0-2
  6
Continuous
 62
     3
370
     9
100
AcDbLine
 10
1.273149400826875
 20
165.8307451250018
 30
0.0
 11
-25.82755642715857
 21
165.8307451250018
 31
0.0
  0
LINE
  5
85
330
1F
100
AcDbEntity
  8
0-2
  6
Continuous
 62
     3
370
     9
100
AcDbLine
 10
3.273059615519807
 20
157.3306807906479
 30
0.0
 11
3.273059615519807
 21
163.8306367227938
 31
0.0
  0
LINE
  5
86
330
1F
100
AcDbEntity
  8
0-2
  6
Continuous
 62
     3
370
     9
100
AcDbLine
 10
1.273149400826875
 20
155.3305723884399
 30
0.0
 11
-25.82755642715857
 21
155.3305723884399
 31
0.0
  0
LINE
  5
87
330
1F
100
AcDbEntity
  8
0-2
  6
Continuous
 62
     3
370
     9
100
AcDbLine
 10
1.273149400826875
 20
173.8307823588037
 30
0.0
 11
-25.82755642715857
 21
173.8307823588037
 31
0.0
  0
LINE
  5
88
330
1F
100
AcDbEntity
  8
0-2
  6
Continuous
 62
     3
370
     9
100
AcDbLine
 10
3.273059615519807
 20
181.830522311333
 30
0.0
 11
3.273059615519807
 21
175.8307916672542
 31
0.0
  0
LINE
  5
89
330
1F
100
AcDbEntity
  8
0-2
  6
Continuous
 62
     3
370
     9
100
AcDbLine
 10
1.273149400826875
 20
183.8306307135409
 30
0.0
 11
-25.82755642715857
 21
183.8306307135409
 31
0.0
  0
LINE
  5
8A
330
1F
100
AcDbEntity
  8
0-2
  6
Continuous
 62
     3
370
     9
100
AcDbLine
 10
3.273059615519807
 20
199.8305069936297
 30
0.0
 11
3.273059615519807
 21
193.8305781620357
 31
0.0
  0
LINE
  5
8B
330
1F
100
AcDbEntity
  8
0-2
  6
Continuous
 62
     3
370
     9
100
AcDbLine
 10
12.34420127458265
 20
201.8308135833528
 30
0.0
 11
39.4446593681742
 21
201.8308135833528
 31
0.0
  0
LINE
  5
8C
330
1F
100
AcDbEntity
  8
0-2
  6
Continuous
 62
     3
370
     9
100
AcDbLine
 10
10.34429105988972
 20
193.8305781620357
 30
0.0
 11
10.34429105988972
 21
199.8305069936297
 31
0.0
  0
LINE
  5
8D
330
1F
100
AcDbEntity
  8
0-2
  6
Continuous
 62
     3
370
     9
100
AcDbLine
 10
12.34420127458265
 20
191.8306679473428
 30
0.0
 11
39.4446593681742
 21
191.8306679473428
 31
0.0
  0
LINE
  5
8E
330
1F
100
AcDbEntity
  8
0-2
  6
Continuous
 62
     3
370
     9
100
AcDbLine
 10
12.34420127458265
 20
183.8306307135409
 30
0.0
 11
39.4446593681742
 21
183.8306307135409
 31
0.0
  0
LINE
  5
8F
330
1F
100
AcDbEntity
  8
0-2
  6
Continuous
 62
     3
370
     9
100
AcDbLine
 10
10.34429105988972
 20
175.8307916672542
 30
0.0
 11
10.34429105988972
 21
181.830522311333
 31
0.0
  0
LINE
  5
90
330
1F
100
AcDbEntity
  8
0-2
  6
Continuous
 62
     3
370
     9
100
AcDbLine
 10
12.34420127458265
 20
173.8307823588037
 30
0.0
 11
39.4446593681742
 21
173.8307823588037
 31
0.0
  0
LINE
  5
91
330
1F
100
AcDbEntity
  8
0-2
  6
Continuous
 62
     3
370
     9
100
AcDbLine
 10
1.273149400826875
 20
201.8308135833528
 30
0.0
 11
0.8873774027196726
 21
201.8308135833528
 31
0.0
  0
LINE
  5
92
330
1F
100
AcDbEntity
  8
0-2
  6
Continuous
 62
     3
370
     9
100
AcDbLine
 10
1.273149400826875
 20
191.8306679473428
 30
0.0
 11
-2.191564737837431
 21
191.8306679473428
 31
0.0
  0
LINE
  5
93
330
1F
100
AcDbEntity
  8
0-2
  6
Continuous
 62
     3
370
     9
100
AcDbLine
 10
-4.151540168241346
 20
146.9305927492024
 30
0.0
 11
-3.118933667785135
 21
141.9026745853284
 31
0.0
  0
LINE
  5
94
330
1F
100
AcDbEntity
  8
0-2
  6
Continuous
 62
     3
370
     9
100
AcDbLine
 10
0.7708431438514438
 20
141.9026745853284
 30
0.0
 11
1.858942148530624
 21
146.9305927492024
 31
0.0
  0
LINE
  5
95
330
1F
100
AcDbEntity
  8
0-2
  6
Continuous
 62
     3
370
     9
100
AcDbLine
 10
11.75835898000009
 20
146.9305927492024
 30
0.0
 11
12.79081683982003
 21
141.9026745853284
 31
0.0
  0
LINE
  5
96
330
1F
100
AcDbEntity
  8
0-2
  6
Continuous
 62
     3
370
     9
100
AcDbLine
 10
16.68074229209282
 20
141.9026745853284
 30
0.0
 11
17.76869265613579
 21
146.9305927492024
 31
0.0
  0
LINE
  5
97
330
1F
100
AcDbEntity
  8
0-2
  6
Continuous
 62
     3
370
     9
100
AcDbLine
 10
28.70071598806141
 20
141.9026745853284
 30
0.0
 11
27.66825812824147
 21
146.9305927492024
 31
0.0
  0
LINE
  5
98
330
1F
100
AcDbEntity
  8
0-2
  6
Continuous
 62
     3
370
     9
100
AcDbLine
 10
11.75835898000009
 20
146.9305927492024
 30
0.0
 11
1.858942148530624
 21
146.9305927492024
 31
0.0
  0
LINE
  5
99
330
1F
100
AcDbEntity
  8
0-2
  6
Continuous
 62
     3
370
     9
100
AcDbLine
 10
27.66825812824147
 20
146.9305927492024
 30
0.0
 11
17.76869265613579
 21
146.9305927492024
 31
0.0
  0
LINE
  5
9A
330
1F
100
AcDbEntity
  8
0-2
  6
Continuous
 62
     3
370
     9
100
AcDbLine
 10
-15.13905600438999
 20
141.9026745853284
 30
0.0
 11
-14.05120473410465
 21
146.9305927492024
 31
0.0
  0
LINE
  5
9B
330
1F
100
AcDbEntity
  8
0-2
  6
Continuous
 62
     3
370
     9
100
AcDbLine
 10
0.7708431438514438
 20
141.9026745853284
 30
0.0
 11
-3.118933667785135
 21
141.9026745853284
 31
0.0
  0
LINE
  5
9C
330
1F
100
AcDbEntity
  8
0-2
  6
Continuous
 62
     3
370
     9
100
AcDbLine
 10
16.68074229209282
 20
141.9026745853284
 30
0.0
 11
12.79081683982003
 21
141.9026745853284
 31
0.0
  0
LINE
  5
9D
330
1F
100
AcDbEntity
  8
0-2
  6
Continuous
 62
     3
370
     9
100
AcDbLine
 10
47.80866797342429
 20
141.9026745853284
 30
0.0
 11
44.61071423006042
 21
141.9026745853284
 31
0.0
  0
LINE
  5
9E
330
1F
100
AcDbEntity
  8
0-2
  6
Continuous
 62
     3
370
     9
100
AcDbLine
 10
32.59059189345551
 20
141.9026745853284
 30
0.0
 11
28.70071598806141
 21
141.9026745853284
 31
0.0
  0
LINE
  5
9F
330
1F
100
AcDbEntity
  8
0-2
  6
Continuous
 62
     3
370
     9
100
AcDbLine
 10
-19.02898145666284
 20
141.9026745853284
 30
0.0
 11
-20.06138976960403
 21
146.9305927492024
 31
0.0
  0
LINE
  5
A0
330
1F
100
AcDbEntity
  8
0-2
  6
Continuous
 62
     3
370
     9
100
AcDbLine
 10
-15.13905600438999
 20
141.9026745853284
 30
0.0
 11
-19.02898145666284
 21
141.9026745853284
 31
0.0
  0
LINE
  5
A1
330
1F
100
AcDbEntity
  8
0-2
  6
Continuous
 62
     3
370
     9
100
AcDbLine
 10
-4.151540168241346
 20
146.9305927492024
 30
0.0
 11
-14.05120473410465
 21
146.9305927492024
 31
0.0
  0
LINE
  5
A2
330
1F
100
AcDbEntity
  8
0-2
  6
Continuous
 62
     3
370
     9
100
AcDbLine
 10
-20.06138976960403
 20
146.9305927492024
 30
0.0
 11
-34.19146593865109
 21
146.9305927492024
 31
0.0
  0
LINE
  5
A3
330
1F
100
AcDbEntity
  8
0-2
  6
Continuous
 62
     3
370
     9
100
AcDbLine
 10
43.57815727648296
 20
146.9305927492024
 30
0.0
 11
33.67859180437717
 21
146.9305927492024
 31
0.0
  0
LINE
  5
A4
330
1F
100
AcDbEntity
  8
0-2
  6
Continuous
 62
     3
370
     9
100
AcDbLine
 10
43.57815727648296
 20
146.9305927492024
 30
0.0
 11
44.61071423006042
 21
141.9026745853284
 31
0.0
  0
LINE
  5
A5
330
1F
100
AcDbEntity
  8
0-2
  6
Continuous
 62
     3
370
     9
100
AcDbLine
 10
8.623825241462391
 20
139.2401244139587
 30
0.0
 11
28.70071598806141
 21
141.9026745853284
 31
0.0
  0
LINE
  5
A6
330
1F
100
AcDbEntity
  8
0-2
  6
Continuous
 62
     3
370
     9
100
AcDbLine
 10
32.59059189345551
 20
141.9026745853284
 30
0.0
 11
18.20193056410512
 21
139.8908731197306
 31
0.0
  0
LINE
  5
A7
330
1F
100
AcDbEntity
  8
0-2
  6
Continuous
 62
     3
370
     9
100
AcDbLine
 10
17.47621743075348
 20
145.5790529901004
 30
0.0
 11
27.66825812824147
 21
146.9305927492024
 31
0.0
  0
LINE
  5
A8
330
1F
100
AcDbEntity
  8
0-2
  6
Continuous
 62
     3
370
     9
100
AcDbLine
 10
44.61071423006042
 20
141.9026745853284
 30
0.0
 11
41.29924858743329
 21
141.4603200516653
 31
0.0
  0
LINE
  5
A9
330
1F
100
AcDbEntity
  8
0-2
  6
Continuous
 62
     3
370
     9
100
AcDbLine
 10
32.59059189345551
 20
141.9026745853284
 30
0.0
 11
33.67859180437717
 21
146.9305927492024
 31
0.0
  0
LINE
  5
AA
330
1F
100
AcDbEntity
  8
0-2
  6
Continuous
 62
     3
370
     9
100
AcDbLine
 10
43.57815727648296
 20
146.9305927492024
 30
0.0
 11
33.38398606320773
 21
145.5688463330737
 31
0.0
  0
LINE
  5
AB
330
1F
100
AcDbEntity
  8
0-2
  6
Continuous
 62
     3
370
     9
100
AcDbLine
 10
-10.73810404447805
 20
137.9240602200564
 30
0.0
 11
16.68074229209282
 21
141.9026745853284
 31
0.0
  0
LINE
  5
AC
330
1F
100
AcDbEntity
  8
0-2
  6
Continuous
 62
     3
370
     9
100
AcDbLine
 10
12.79081683982003
 20
141.9026745853284
 30
0.0
 11
-23.20315735244213
 21
137.0773040618684
 31
0.0
  0
LINE
  5
AD
330
1F
100
AcDbEntity
  8
0-2
  6
Continuous
 62
     3
370
     9
100
AcDbLine
 10
11.75835898000009
 20
146.9305927492024
 30
0.0
 11
1.563097735391929
 21
145.5638916451967
 31
0.0
  0
LINE
  5
AE
330
1F
100
AcDbEntity
  8
0-2
  6
Continuous
 62
     3
370
     9
100
AcDbLine
 10
-14.45748914002285
 20
145.0519732937397
 30
0.0
 11
-4.151540168241346
 21
146.9305927492024
 31
0.0
  0
LINE
  5
AF
330
1F
100
AcDbEntity
  8
0-2
  6
Continuous
 62
     3
370
     9
100
AcDbLine
 10
38.96985162891639
 20
193.8305781620357
 30
0.0
 11
38.96985162891639
 21
199.8305069936297
 31
0.0
  0
LINE
  5
B0
330
1F
100
AcDbEntity
  8
0-2
  6
Continuous
 62
     3
370
     9
100
AcDbLine
 10
38.96985162891639
 20
175.8307916672542
 30
0.0
 11
38.96985162891639
 21
181.830522311333
 31
0.0
  0
LINE
  5
B1
330
1F
100
AcDbEntity
  8
0-2
  6
Continuous
 62
     3
370
     9
100
AcDbLine
 10
38.96985162891639
 20
157.3306807906479
 30
0.0
 11
38.96985162891639
 21
163.8306367227938
 31
0.0
  0
LINE
  5
B2
330
1F
100
AcDbEntity
  8
0-2
  6
Continuous
 62
     3
370
     9
100
AcDbLine
 10
0.7981434740539801
 20
157.3306807906479
 30
0.0
 11
0.7981434740539801
 21
163.8306367227938
 31
0.0
  0
LINE
  5
B3
330
1F
100
AcDbEntity
  8
0-2
  6
Continuous
 62
     3
370
     9
100
AcDbLine
 10
0.7981434740539801
 20
181.830522311333
 30
0.0
 11
0.7981434740539801
 21
175.8307916672542
 31
0.0
  0
LINE
  5
B4
330
1F
100
AcDbEntity
  8
0-2
  6
Continuous
 62
     3
370
     9
100
AcDbLine
 10
0.7981434740539801
 20
199.8305069936297
 30
0.0
 11
0.7981434740539801
 21
193.8305781620357
 31
0.0
  0
LINE
  5
B5
330
1F
100
AcDbEntity
  8
0-A
  6
Continuous
 62
     2
370
     9
100
AcDbLine
 10
-31.59124574077469
 20
205.3518129763004
 30
0.0
 11
-31.59124574077469
 21
206.3096532366919
 31
0.0
  0
LINE
  5
B6
330
1F
100
AcDbEntity
  8
0-A
  6
Continuous
 62
     2
370
     9
100
AcDbLine
 10
-29.60273130819899
 20
205.3518129763004
 30
0.0
 11
-31.59124574077469
 21
205.3518129763004
 31
0.0
  0
LINE
  5
B7
330
1F
100
AcDbEntity
  8
0-2
  6
Continuous
 62
     3
370
     9
100
AcDbLine
 10
41.44471822350347
 20
217.8306898634414
 30
0.0
 11
41.44471822350347
 21
211.8307610318476
 31
0.0
  0
LINE
  5
B8
330
1F
100
AcDbEntity
  8
0-2
  6
Continuous
 62
     3
370
     9
100
AcDbLine
 10
3.273059615519807
 20
211.8307610318476
 30
0.0
 11
3.273059615519807
 21
217.8306898634414
 31
0.0
  0
LINE
  5
B9
330
1F
100
AcDbEntity
  8
0-2
  6
Continuous
 62
     3
370
     9
100
AcDbLine
 10
12.34420127458265
 20
209.8308508171547
 30
0.0
 11
39.4446593681742
 21
209.8308508171547
 31
0.0
  0
LINE
  5
BA
330
1F
100
AcDbEntity
  8
0-2
  6
Continuous
 62
     3
370
     9
100
AcDbLine
 10
10.34429105988972
 20
217.8306898634414
 30
0.0
 11
10.34429105988972
 21
211.8307610318476
 31
0.0
  0
LINE
  5
BB
330
1F
100
AcDbEntity
  8
0-2
  6
Continuous
 62
     3
370
     9
100
AcDbLine
 10
12.34420127458265
 20
219.8307982656494
 30
0.0
 11
39.4446593681742
 21
219.8307982656494
 31
0.0
  0
LINE
  5
BC
330
1F
100
AcDbEntity
  8
0-2
  6
Continuous
 62
     3
370
     9
100
AcDbLine
 10
1.273149400826875
 20
209.8308508171547
 30
0.0
 11
0.8873774027196726
 21
209.8308508171547
 31
0.0
  0
LINE
  5
BD
330
1F
100
AcDbEntity
  8
0-2
  6
Continuous
 62
     3
370
     9
100
AcDbLine
 10
1.273149400826875
 20
219.8307982656494
 30
0.0
 11
-2.191564737837431
 21
219.8307982656494
 31
0.0
  0
LINE
  5
BE
330
1F
100
AcDbEntity
  8
0-2
  6
Continuous
 62
     3
370
     9
100
AcDbLine
 10
38.96985162891639
 20
217.8306898634414
 30
0.0
 11
38.96985162891639
 21
211.8307610318476
 31
0.0
  0
LINE
  5
BF
330
1F
100
AcDbEntity
  8
0-2
  6
Continuous
 62
     3
370
     9
100
AcDbLine
 10
0.7981434740539801
 20
211.8307610318476
 30
0.0
 11
0.7981434740539801
 21
217.8306898634414
 31
0.0
  0
LINE
  5
C0
330
1F
100
AcDbEntity
  8
0-2
  6
Continuous
 62
     3
370
     9
100
AcDbLine
 10
-33.19101536251695
 20
136.3988091039849
 30
0.0
 11
47.80866797342429
 21
141.9026745853284
 31
0.0
  0
LINE
  5
C1
330
1F
100
AcDbEntity
  8
0-0
  6
Continuous
 62
     4
370
     9
100
AcDbLine
 10
-80.11270230825174
 20
154.8308425691605
 30
0.0
 11
-96.11416408846111
 21
154.8308425691605
 31
0.0
  0
LINE
  5
C2
330
1F
100
AcDbEntity
  8
0-1
  6
Continuous
 62
     6
370
     5
100
AcDbLine
 10
13.65085156151856
 20
130.8308299615124
 30
0.0
 11
26.80896660972457
 21
129.9040060472313
 31
0.0
  0
LINE
  5
C3
330
1F
100
AcDbEntity
  8
0-1
  6
Continuous
 62
     6
370
     5
100
AcDbLine
 10
56.73676779347666
 20
173.3307552582517
 30
0.0
 11
52.30906051902862
 21
173.3307552582517
 31
0.0
  0
LINE
  5
C4
330
1F
100
AcDbEntity
  8
0-1
  6
Continuous
 62
     6
370
     5
100
AcDbLine
 10
56.73676779347666
 20
160.33084339396
 30
0.0
 11
52.30906051902862
 21
160.33084339396
 31
0.0
  0
LINE
  5
C5
330
1F
100
AcDbEntity
  8
0-1
  6
Continuous
 62
     6
370
     5
100
AcDbLine
 10
56.73676779347666
 20
199.3308762681078
 30
0.0
 11
52.30906051902862
 21
199.3308762681078
 31
0.0
  0
LINE
  5
C6
330
1F
100
AcDbEntity
  8
0-1
  6
Continuous
 62
     6
370
     5
100
AcDbLine
 10
52.30906051902862
 20
173.3307552582517
 30
0.0
 11
52.30906051902862
 21
199.3308762681078
 31
0.0
  0
LINE
  5
C7
330
1F
100
AcDbEntity
  8
0-1
  6
Continuous
 62
     6
370
     5
100
AcDbLine
 10
56.73676779347666
 20
173.3307552582517
 30
0.0
 11
56.73676779347666
 21
199.3308762681078
 31
0.0
  0
LINE
  5
C8
330
1F
100
AcDbEntity
  8
0-1
  6
Continuous
 62
     6
370
     5
100
AcDbLine
 10
-12.75149101019655
 20
123.33091892202
 30
0.0
 11
-12.75149101019655
 21
130.8308299615124
 31
0.0
  0
LINE
  5
C9
330
1F
100
AcDbEntity
  8
0-1
  6
Continuous
 62
     6
370
     5
100
AcDbLine
 10
-4.751503323273475
 20
123.33091892202
 30
0.0
 11
-4.751503323273475
 21
130.8308299615124
 31
0.0
  0
LINE
  5
CA
330
1F
100
AcDbEntity
  8
0-1
  6
Continuous
 62
     6
370
     5
100
AcDbLine
 10
-4.751503323273475
 20
130.8308299615124
 30
0.0
 11
17.80897426857616
 21
129.330847753614
 31
0.0
  0
LINE
  5
CB
330
1F
100
AcDbEntity
  8
0-1
  6
Continuous
 62
     6
370
     5
100
AcDbLine
 10
17.80897426857616
 20
124.3308740293665
 30
0.0
 11
-4.751503323273475
 21
123.33091892202
 31
0.0
  0
LINE
  5
CC
330
1F
100
AcDbEntity
  8
0-1
  6
Continuous
 62
     6
370
     5
100
AcDbLine
 10
-12.75149101019655
 20
129.330847753614
 30
0.0
 11
-37.19123216693298
 21
129.330847753614
 31
0.0
  0
LINE
  5
CD
330
1F
100
AcDbEntity
  8
0-1
  6
Continuous
 62
     6
370
     5
100
AcDbLine
 10
17.80897426857616
 20
124.3308740293665
 30
0.0
 11
17.80897426857616
 21
129.330847753614
 31
0.0
  0
LINE
  5
CE
330
1F
100
AcDbEntity
  8
0-1
  6
Continuous
 62
     6
370
     5
100
AcDbLine
 10
13.65085156151856
 20
130.8308299615124
 30
0.0
 11
-4.751503323273475
 21
130.8308299615124
 31
0.0
  0
LINE
  5
CF
330
1F
100
AcDbEntity
  8
0-1
  6
Continuous
 62
     6
370
     5
100
AcDbLine
 10
-12.75149101019655
 20
130.8308299615124
 30
0.0
 11
-37.19123216693298
 21
130.8308299615124
 31
0.0
  0
LINE
  5
D0
330
1F
100
AcDbEntity
  8
0-1
  6
Continuous
 62
     6
370
     5
100
AcDbLine
 10
47.21559183454128
 20
123.33091892202
 30
0.0
 11
-4.751503323273475
 21
123.33091892202
 31
0.0
  0
LINE
  5
D1
330
1F
100
AcDbEntity
  8
0-1
  6
Continuous
 62
     6
370
     5
100
AcDbLine
 10
-12.75149101019655
 20
123.33091892202
 30
0.0
 11
-58.19123081190536
 21
123.33091892202
 31
0.0
  0
LINE
  5
D2
330
1F
100
AcDbEntity
  8
0-1
  6
Continuous
 62
     6
370
     5
100
AcDbLine
 10
71.80897786234499
 20
87.33094955742672
 30
0.0
 11
66.80890504434008
 21
87.33094955742672
 31
0.0
  0
LINE
  5
D3
330
1F
100
AcDbEntity
  8
0-1
  6
Continuous
 62
     6
370
     5
100
AcDbLine
 10
71.80897786234499
 20
88.83093176532519
 30
0.0
 11
62.67104701069964
 21
88.83093176532519
 31
0.0
  0
LINE
  5
D4
330
1F
100
AcDbEntity
  8
0-1
  6
Continuous
 62
     6
370
     5
100
AcDbLine
 10
66.80890504434008
 20
87.33094955742672
 30
0.0
 11
62.67104701069964
 21
88.83093176532519
 31
0.0
  0
LINE
  5
D5
330
1F
100
AcDbEntity
  8
0-1
  6
Continuous
 62
     6
370
     5
100
AcDbLine
 10
16.80896961435094
 20
72.33102838468449
 30
0.0
 11
16.80896961435094
 21
68.33081158026846
 31
0.0
  0
LINE
  5
D6
330
1F
100
AcDbEntity
  8
0-1
  6
Continuous
 62
     6
370
     5
100
AcDbLine
 10
9.340322655362861
 20
73.83091149882546
 30
0.0
 11
9.340322655362861
 21
67.33095556667955
 31
0.0
  0
LINE
  5
D7
330
1F
100
AcDbEntity
  8
0-1
  6
Continuous
 62
     6
370
     5
100
AcDbLine
 10
1.340334968439727
 20
73.83091149882546
 30
0.0
 11
1.340334968439727
 21
67.33095556667955
 31
0.0
  0
LINE
  5
D8
330
1F
100
AcDbEntity
  8
0-1
  6
Continuous
 62
     6
370
     5
100
AcDbLine
 10
9.340322655362861
 20
67.33095556667955
 30
0.0
 11
16.80896961435094
 21
68.33081158026846
 31
0.0
  0
LINE
  5
D9
330
1F
100
AcDbEntity
  8
0-1
  6
Continuous
 62
     6
370
     5
100
AcDbLine
 10
16.80896961435094
 20
72.33102838468449
 30
0.0
 11
9.340322655362861
 21
73.83091149882546
 31
0.0
  0
LINE
  5
DA
330
1F
100
AcDbEntity
  8
0-1
  6
Continuous
 62
     6
370
     5
100
AcDbLine
 10
1.340334968439727
 20
73.83091149882546
 30
0.0
 11
-58.19123081190536
 21
73.83091149882546
 31
0.0
  0
LINE
  5
DB
330
1F
100
AcDbEntity
  8
0-2
  6
Continuous
 62
     3
370
     9
100
AcDbLine
 10
44.80870355762734
 20
132.3306139818958
 30
0.0
 11
-37.19123216693298
 21
132.3306139818958
 31
0.0
  0
LINE
  5
DC
330
1F
100
AcDbEntity
  8
0-2
  6
Continuous
 62
     3
370
     9
100
AcDbLine
 10
-20.06138976960403
 20
146.9305927492024
 30
0.0
 11
-34.19146593865109
 21
141.7380798540529
 31
0.0
  0
LINE
  5
DD
330
1F
100
AcDbEntity
  8
0-2
  6
Continuous
 62
     3
370
     9
100
AcDbLine
 10
-19.02898145666284
 20
141.9026745853284
 30
0.0
 11
-34.19146593865109
 21
136.3307316925543
 31
0.0
  0
LINE
  5
DE
330
1F
100
AcDbEntity
  8
0-2
  6
Continuous
 62
     3
370
     9
100
AcDbLine
 10
-15.13905600438999
 20
141.9026745853284
 30
0.0
 11
-34.19146593865109
 21
136.3307316925543
 31
0.0
  0
LINE
  5
DF
330
1F
100
AcDbEntity
  8
0-2
  6
Continuous
 62
     3
370
     9
100
AcDbLine
 10
-34.19146593865109
 20
136.2386735917987
 30
0.0
 11
-3.118933667785135
 21
141.9026745853284
 31
0.0
  0
LINE
  5
E0
330
1F
100
AcDbEntity
  8
0-2
  6
Continuous
 62
     3
370
     9
100
AcDbLine
 10
0.7708431438514438
 20
141.9026745853284
 30
0.0
 11
-34.19146593865109
 21
136.1968560261164
 31
0.0
  0
LINE
  5
E1
330
1F
100
AcDbEntity
  8
0-A
  6
Continuous
 62
     2
370
     9
100
AcDbLine
 10
-29.60287994883526
 20
206.3096532366919
 30
0.0
 11
-31.59124574077469
 21
206.3096532366919
 31
0.0
  0
LINE
  5
E2
330
1F
100
AcDbEntity
  8
0-A
  6
Continuous
 62
     2
370
     9
100
AcDbLine
 10
-31.59124574077469
 20
211.8307610318476
 30
0.0
 11
-34.19146593865109
 21
211.8307610318476
 31
0.0
  0
LINE
  5
E3
330
1F
100
AcDbEntity
  8
0-A
  6
Continuous
 62
     2
370
     9
100
AcDbLine
 10
-31.5913448345322
 20
199.8309033686598
 30
0.0
 11
-34.19146593865109
 21
199.8309033686598
 31
0.0
  0
LINE
  5
E4
330
1F
100
AcDbEntity
  8
0-0
  6
Continuous
 62
     4
370
     9
100
AcDbLine
 10
-21.02923849950718
 20
36.33095992633355
 30
0.0
 11
-19.41430753286112
 21
67.33095556667955
 31
0.0
  0
LINE
  5
E5
330
1F
100
AcDbEntity
  8
0-1
  6
Continuous
 62
     6
370
     5
100
AcDbLine
 10
61.80898086697148
 20
68.33081158026846
 30
0.0
 11
16.80896961435094
 21
68.33081158026846
 31
0.0
  0
LINE
  5
E6
330
1F
100
AcDbEntity
  8
0-1
  6
Continuous
 62
     6
370
     5
100
AcDbLine
 10
61.80898086697148
 20
67.33095556667955
 30
0.0
 11
-66.19121849882849
 21
67.33095556667955
 31
0.0
  0
LINE
  5
E7
330
1F
100
AcDbEntity
  8
0-1
  6
Continuous
 62
     6
370
     5
100
AcDbLine
 10
62.67104701069964
 20
78.83088522307287
 30
0.0
 11
62.67104701069964
 21
88.83093176532519
 31
0.0
  0
LINE
  5
E8
330
1F
100
AcDbEntity
  8
0-1
  6
Continuous
 62
     6
370
     5
100
AcDbLine
 10
57.67102373957341
 20
73.83091149882546
 30
0.0
 11
9.340322655362861
 21
73.83091149882546
 31
0.0
  0
LINE
  5
E9
330
1F
100
AcDbEntity
  8
0-1
  6
Continuous
 62
     6
370
     5
100
AcDbLine
 10
61.80888177321395
 20
72.33102838468449
 30
0.0
 11
16.80896961435094
 21
72.33102838468449
 31
0.0
  0
LINE
  5
EA
330
1F
100
AcDbEntity
  8
0-1
  6
Continuous
 62
     6
370
     5
100
AcDbLine
 10
66.80890504434008
 20
77.3310021089319
 30
0.0
 11
66.80890504434008
 21
87.33094955742672
 31
0.0
  0
LINE
  5
EB
330
1F
100
AcDbEntity
  8
0-1
  6
Continuous
 62
     6
370
     5
100
AcDbLine
 10
18.10610690056291
 20
123.33091892202
 30
0.0
 11
61.28259482691357
 21
75.37310764743631
 31
0.0
  0
LINE
  5
EC
330
1F
100
AcDbEntity
  8
0-1
  6
Continuous
 62
     6
370
     5
100
AcDbLine
 10
13.65085156151856
 20
130.8308299615124
 30
0.0
 11
13.65085156151856
 21
132.3306139818958
 31
0.0
  0
LINE
  5
ED
330
1F
100
AcDbEntity
  8
0-1
  6
Continuous
 62
     6
370
     5
100
AcDbLine
 10
10.00370581522117
 20
132.3306139818958
 30
0.0
 11
11.3539573554752
 21
130.8308299615124
 31
0.0
  0
LINE
  5
EE
330
1F
100
AcDbEntity
  8
0-1
  6
Continuous
 62
     6
370
     5
100
AcDbLine
 10
26.80896660972457
 20
132.3306139818958
 30
0.0
 11
26.80896660972457
 21
129.9040060472313
 31
0.0
  0
LINE
  5
EF
330
1F
100
AcDbEntity
  8
0-1
  6
Continuous
 62
     6
370
     5
100
AcDbLine
 10
50.30905121057816
 20
129.330847753614
 30
0.0
 11
17.80897426857616
 21
129.330847753614
 31
0.0
  0
LINE
  5
F0
330
1F
100
AcDbEntity
  8
0-1
  6
Continuous
 62
     6
370
     5
100
AcDbLine
 10
52.30906051902862
 20
131.3308570620644
 30
0.0
 11
52.30906051902862
 21
160.33084339396
 31
0.0
  0
LINE
  5
F1
330
1F
100
AcDbEntity
  8
0-1
  6
Continuous
 62
     6
370
     5
100
AcDbLine
 10
54.7367584850262
 20
124.3308740293665
 30
0.0
 11
17.80897426857616
 21
124.3308740293665
 31
0.0
  0
LINE
  5
F2
330
1F
100
AcDbEntity
  8
0-1
  6
Continuous
 62
     6
370
     5
100
AcDbLine
 10
56.73676779347666
 20
126.330883337817
 30
0.0
 11
56.73676779347666
 21
160.33084339396
 31
0.0
  0
LINE
  5
F3
330
1F
100
AcDbEntity
  8
0-1
  6
Continuous
 62
     6
370
     5
100
AcDbLine
 10
47.21559183454128
 20
123.33091892202
 30
0.0
 11
54.99658231729877
 21
124.3478190619061
 31
0.0
  0
LINE
  5
F4
330
1F
100
AcDbEntity
  8
0-1
  6
Continuous
 62
     6
370
     5
100
AcDbLine
 10
-19.07833014791827
 20
68.33081158026846
 30
0.0
 11
-19.07833014791827
 21
72.33102838468449
 31
0.0
  0
LINE
  5
F5
330
1F
100
AcDbEntity
  8
0-1
  6
Continuous
 62
     6
370
     5
100
AcDbLine
 10
1.340334968439727
 20
72.33102838468449
 30
0.0
 11
-58.19123081190536
 21
72.33102838468449
 31
0.0
  0
LINE
  5
F6
330
1F
100
AcDbEntity
  8
0-1
  6
Continuous
 62
     6
370
     5
100
AcDbLine
 10
-19.07833014791827
 20
72.33102838468449
 30
0.0
 11
-16.66415847982511
 21
73.83091149882546
 31
0.0
  0
LINE
  5
F7
330
1F
100
AcDbEntity
  8
0-1
  6
Continuous
 62
     6
370
     5
100
AcDbLine
 10
-16.66415847982511
 20
73.83091149882546
 30
0.0
 11
-16.66415847982511
 21
123.33091892202
 31
0.0
  0
LINE
  5
F8
330
1F
100
AcDbEntity
  8
0-1
  6
Continuous
 62
     6
370
     5
100
AcDbLine
 10
-19.07833014791827
 20
68.33081158026846
 30
0.0
 11
-16.66415847982511
 21
67.33095556667955
 31
0.0
  0
LINE
  5
F9
330
1F
100
AcDbEntity
  8
0-1
  6
Continuous
 62
     6
370
     5
100
AcDbLine
 10
-39.09611146814404
 20
124.2402032412164
 30
0.0
 11
-58.19123081190536
 21
123.33091892202
 31
0.0
  0
LINE
  5
FA
330
1F
100
AcDbEntity
  8
0-1
  6
Continuous
 62
     6
370
     5
100
AcDbLine
 10
-12.75149101019655
 20
124.3308740293665
 30
0.0
 11
-38.58850369514015
 21
124.3308740293665
 31
0.0
  0
LINE
  5
FB
330
1F
100
AcDbEntity
  8
0-1
  6
Continuous
 62
     6
370
     5
100
AcDbLine
 10
43.96675344668012
 20
131.9040153556817
 30
0.0
 11
43.96675344668012
 21
132.3347759197125
 31
0.0
  0
LINE
  5
FC
330
1F
100
AcDbEntity
  8
0-1
  6
Continuous
 62
     6
370
     5
100
AcDbLine
 10
41.96674413822956
 20
129.9040060472313
 30
0.0
 11
26.80896660972457
 21
129.9040060472313
 31
0.0
  0
LINE
  5
FD
330
1F
100
AcDbEntity
  8
0-1
  6
Continuous
 62
     6
370
     5
100
AcDbLine
 10
-59.94320844523064
 20
68.11191346986037
 30
0.0
 11
-66.19121849882849
 21
67.33105466043708
 31
0.0
  0
LINE
  5
FE
330
1F
100
AcDbEntity
  8
0-1
  6
Continuous
 62
     6
370
     5
100
AcDbLine
 10
1.340334968439727
 20
68.33081158026846
 30
0.0
 11
-59.25193039262449
 21
68.33081158026846
 31
0.0
  0
LINE
  5
FF
330
1F
100
AcDbEntity
  8
0-0
  6
Continuous
 62
     4
370
     9
100
AcDbLine
 10
100.8874959970918
 20
34.83097771843507
 30
0.0
 11
-80.11270230825174
 21
34.83097771843507
 31
0.0
  0
LINE
  5
100
330
1F
100
AcDbEntity
  8
0-0
  6
Continuous
 62
     4
370
     9
100
AcDbLine
 10
-70.84228310277392
 20
36.09511678338595
 30
0.0
 11
-80.11270230825174
 21
34.83097771843507
 31
0.0
  0
LINE
  5
101
330
1F
100
AcDbEntity
  8
0-0
  6
Continuous
 62
     4
370
     9
100
AcDbLine
 10
100.8874959970918
 20
36.33095992633355
 30
0.0
 11
-70.13668600220306
 21
36.33095992633355
 31
0.0
  0
LINE
  5
102
330
1F
100
AcDbEntity
  8
0-0
  6
Continuous
 62
     4
370
     9
100
AcDbLine
 10
-80.11270230825174
 20
75.97381400565006
 30
0.0
 11
-88.11273954205363
 21
74.831064793687
 31
0.0
  0
LINE
  5
103
330
1F
100
AcDbEntity
  8
0-0
  6
Continuous
 62
     4
370
     9
100
AcDbLine
 10
-80.11270230825174
 20
63.68816994571397
 30
0.0
 11
-88.11273954205363
 21
64.83091915767703
 31
0.0
  0
LINE
  5
104
330
1F
100
AcDbEntity
  8
0-0
  6
Continuous
 62
     4
370
     9
100
AcDbLine
 10
100.8874464502131
 20
37.33091503368007
 30
0.0
 11
-20.97716472991936
 21
37.33091503368007
 31
0.0
  0
LINE
  5
105
330
1F
100
AcDbEntity
  8
0-1
  6
Continuous
 62
     6
370
     5
100
AcDbLine
 10
47.80866797342429
 20
202.1439498571824
 30
0.0
 11
56.73676779347666
 21
199.3308762681078
 31
0.0
  0
LINE
  5
106
330
1F
100
AcDbEntity
  8
0-1
  6
Continuous
 62
     6
370
     5
100
AcDbLine
 10
47.80866797342429
 20
199.9984709126617
 30
0.0
 11
52.30906051902862
 21
199.3308762681078
 31
0.0
  0
LINE
  5
107
330
1F
100
AcDbEntity
  8
0-1
  6
Continuous
 62
     6
370
     5
100
AcDbLine
 10
52.30906051902862
 20
173.3307552582517
 30
0.0
 11
47.80866797342429
 21
172.6631606136978
 31
0.0
  0
LINE
  5
108
330
1F
100
AcDbEntity
  8
0-1
  6
Continuous
 62
     6
370
     5
100
AcDbLine
 10
47.80866797342429
 20
170.5176816691771
 30
0.0
 11
56.73676779347666
 21
173.3307552582517
 31
0.0
  0
LINE
  5
109
330
1F
100
AcDbEntity
  8
0-1
  6
Continuous
 62
     6
370
     5
100
AcDbLine
 10
47.80866797342429
 20
163.1439169830345
 30
0.0
 11
56.73676779347666
 21
160.33084339396
 31
0.0
  0
LINE
  5
10A
330
1F
100
AcDbEntity
  8
0-1
  6
Continuous
 62
     6
370
     5
100
AcDbLine
 10
47.80866797342429
 20
160.9983389447563
 30
0.0
 11
52.30906051902862
 21
160.33084339396
 31
0.0
  0
LINE
  5
10B
330
1F
100
AcDbEntity
  8
0-0
  6
Continuous
 62
     4
370
     9
100
AcDbLine
 10
-88.11273954205363
 20
64.83091915767703
 30
0.0
 11
-88.11273954205363
 21
74.831064793687
 31
0.0
  0
LINE
  5
10C
330
1F
100
AcDbEntity
  8
0-0
  6
JWW_CENTER1
 62
     4
370
     9
100
AcDbLine
 10
-77.236406901866
 20
69.83099197568197
 30
0.0
 11
-112.6903696624084
 21
69.83099197568197
 31
0.0
  0
LINE
  5
10D
330
1F
100
AcDbEntity
  8
0-3
  6
Continuous
 62
     7
370
     9
100
AcDbLine
 10
-96.11416408846111
 20
154.8308425691605
 30
0.0
 11
-96.11416408846111
 21
152.8308332607101
 31
0.0
  0
LINE
  5
10E
330
1F
100
AcDbEntity
  8
0-3
  6
Continuous
 62
     7
370
     9
100
AcDbLine
 10
-96.11416408846111
 20
152.8308332607101
 30
0.0
 11
-181.0709584442881
 21
152.8308332607101
 31
0.0
  0
LINE
  5
10F
330
1F
100
AcDbEntity
  8
0-2
  6
Continuous
 62
     3
370
     9
100
AcDbLine
 10
-34.19146593865109
 20
217.8307394103202
 30
0.0
 11
-16.99542891128475
 21
215.7588375807737
 31
0.0
  0
LINE
  5
110
330
1F
100
AcDbEntity
  8
0-2
  6
Continuous
 62
     3
370
     9
100
AcDbLine
 10
-34.19146593865109
 20
193.8307763495509
 30
0.0
 11
-16.99528027064843
 21
195.9022322571884
 31
0.0
  0
LINE
  5
111
330
1F
100
AcDbEntity
  8
0-2
  6
Continuous
 62
     3
370
     9
100
AcDbLine
 10
-27.82756573560908
 20
235.8308727332532
 30
0.0
 11
-27.82756573560908
 21
229.8311420891744
 31
0.0
  0
LINE
  5
112
330
1F
100
AcDbEntity
  8
0-2
  6
Continuous
 62
     3
370
     9
100
AcDbLine
 10
-27.82756573560908
 20
254.3309836098595
 30
0.0
 11
-27.82756573560908
 21
247.8310276777136
 31
0.0
  0
LINE
  5
113
330
1F
100
AcDbEntity
  8
0-2
  6
Continuous
 62
     3
370
     9
100
AcDbLine
 10
41.44471822350347
 20
235.8308727332532
 30
0.0
 11
41.44471822350347
 21
229.8311420891744
 31
0.0
  0
LINE
  5
114
330
1F
100
AcDbEntity
  8
0-2
  6
Continuous
 62
     3
370
     9
100
AcDbLine
 10
41.44471822350347
 20
254.3309836098595
 30
0.0
 11
41.44471822350347
 21
247.8310276777136
 31
0.0
  0
LINE
  5
115
330
1F
100
AcDbEntity
  8
0-2
  6
Continuous
 62
     3
370
     9
100
AcDbLine
 10
12.34420127458265
 20
256.3310920120674
 30
0.0
 11
39.4446593681742
 21
256.3310920120674
 31
0.0
  0
LINE
  5
116
330
1F
100
AcDbEntity
  8
0-2
  6
Continuous
 62
     3
370
     9
100
AcDbLine
 10
10.34429105988972
 20
247.8310276777136
 30
0.0
 11
10.34429105988972
 21
254.3309836098595
 31
0.0
  0
LINE
  5
117
330
1F
100
AcDbEntity
  8
0-2
  6
Continuous
 62
     3
370
     9
100
AcDbLine
 10
12.34420127458265
 20
245.8309192755055
 30
0.0
 11
39.4446593681742
 21
245.8309192755055
 31
0.0
  0
LINE
  5
118
330
1F
100
AcDbEntity
  8
0-2
  6
Continuous
 62
     3
370
     9
100
AcDbLine
 10
1.273149400826875
 20
245.8309192755055
 30
0.0
 11
-25.82755642715857
 21
245.8309192755055
 31
0.0
  0
LINE
  5
119
330
1F
100
AcDbEntity
  8
0-2
  6
Continuous
 62
     3
370
     9
100
AcDbLine
 10
3.273059615519807
 20
254.3309836098595
 30
0.0
 11
3.273059615519807
 21
247.8310276777136
 31
0.0
  0
LINE
  5
11A
330
1F
100
AcDbEntity
  8
0-2
  6
Continuous
 62
     3
370
     9
100
AcDbLine
 10
1.273149400826875
 20
256.3310920120674
 30
0.0
 11
-25.82755642715857
 21
256.3310920120674
 31
0.0
  0
LINE
  5
11B
330
1F
100
AcDbEntity
  8
0-2
  6
Continuous
 62
     3
370
     9
100
AcDbLine
 10
1.273149400826875
 20
237.8308820417037
 30
0.0
 11
-25.82755642715857
 21
237.8308820417037
 31
0.0
  0
LINE
  5
11C
330
1F
100
AcDbEntity
  8
0-2
  6
Continuous
 62
     3
370
     9
100
AcDbLine
 10
3.273059615519807
 20
229.8311420891744
 30
0.0
 11
3.273059615519807
 21
235.8308727332532
 31
0.0
  0
LINE
  5
11D
330
1F
100
AcDbEntity
  8
0-2
  6
Continuous
 62
     3
370
     9
100
AcDbLine
 10
1.273149400826875
 20
227.8310336869664
 30
0.0
 11
-25.82755642715857
 21
227.8310336869664
 31
0.0
  0
LINE
  5
11E
330
1F
100
AcDbEntity
  8
0-2
  6
Continuous
 62
     3
370
     9
100
AcDbLine
 10
12.34420127458265
 20
227.8310336869664
 30
0.0
 11
39.4446593681742
 21
227.8310336869664
 31
0.0
  0
LINE
  5
11F
330
1F
100
AcDbEntity
  8
0-2
  6
Continuous
 62
     3
370
     9
100
AcDbLine
 10
10.34429105988972
 20
235.8308727332532
 30
0.0
 11
10.34429105988972
 21
229.8311420891744
 31
0.0
  0
LINE
  5
120
330
1F
100
AcDbEntity
  8
0-2
  6
Continuous
 62
     3
370
     9
100
AcDbLine
 10
12.34420127458265
 20
237.8308820417037
 30
0.0
 11
39.4446593681742
 21
237.8308820417037
 31
0.0
  0
LINE
  5
121
330
1F
100
AcDbEntity
  8
0-2
  6
Continuous
 62
     3
370
     9
100
AcDbLine
 10
-4.151540168241346
 20
264.7310716513049
 30
0.0
 11
-3.118933667785135
 21
269.7589898151789
 31
0.0
  0
LINE
  5
122
330
1F
100
AcDbEntity
  8
0-2
  6
Continuous
 62
     3
370
     9
100
AcDbLine
 10
0.7708431438514438
 20
269.7589898151789
 30
0.0
 11
1.858942148530624
 21
264.7310716513049
 31
0.0
  0
LINE
  5
123
330
1F
100
AcDbEntity
  8
0-2
  6
Continuous
 62
     3
370
     9
100
AcDbLine
 10
11.75835898000009
 20
264.7310716513049
 30
0.0
 11
12.79081683982003
 21
269.7589898151789
 31
0.0
  0
LINE
  5
124
330
1F
100
AcDbEntity
  8
0-2
  6
Continuous
 62
     3
370
     9
100
AcDbLine
 10
16.68074229209282
 20
269.7589898151789
 30
0.0
 11
17.76869265613579
 21
264.7310716513049
 31
0.0
  0
LINE
  5
125
330
1F
100
AcDbEntity
  8
0-2
  6
Continuous
 62
     3
370
     9
100
AcDbLine
 10
28.70071598806141
 20
269.7589898151789
 30
0.0
 11
27.66825812824147
 21
264.7310716513049
 31
0.0
  0
LINE
  5
126
330
1F
100
AcDbEntity
  8
0-2
  6
Continuous
 62
     3
370
     9
100
AcDbLine
 10
11.75835898000009
 20
264.7310716513049
 30
0.0
 11
1.858942148530624
 21
264.7310716513049
 31
0.0
  0
LINE
  5
127
330
1F
100
AcDbEntity
  8
0-2
  6
Continuous
 62
     3
370
     9
100
AcDbLine
 10
27.66825812824147
 20
264.7310716513049
 30
0.0
 11
17.76869265613579
 21
264.7310716513049
 31
0.0
  0
LINE
  5
128
330
1F
100
AcDbEntity
  8
0-2
  6
Continuous
 62
     3
370
     9
100
AcDbLine
 10
-15.13905600438999
 20
269.7589898151789
 30
0.0
 11
-14.05120473410465
 21
264.7310716513049
 31
0.0
  0
LINE
  5
129
330
1F
100
AcDbEntity
  8
0-2
  6
Continuous
 62
     3
370
     9
100
AcDbLine
 10
0.7708431438514438
 20
269.7589898151789
 30
0.0
 11
-3.118933667785135
 21
269.7589898151789
 31
0.0
  0
LINE
  5
12A
330
1F
100
AcDbEntity
  8
0-2
  6
Continuous
 62
     3
370
     9
100
AcDbLine
 10
16.68074229209282
 20
269.7589898151789
 30
0.0
 11
12.79081683982003
 21
269.7589898151789
 31
0.0
  0
LINE
  5
12B
330
1F
100
AcDbEntity
  8
0-2
  6
Continuous
 62
     3
370
     9
100
AcDbLine
 10
47.80866797342429
 20
269.7589898151789
 30
0.0
 11
44.61071423006042
 21
269.7589898151789
 31
0.0
  0
LINE
  5
12C
330
1F
100
AcDbEntity
  8
0-2
  6
Continuous
 62
     3
370
     9
100
AcDbLine
 10
32.59059189345551
 20
269.7589898151789
 30
0.0
 11
28.70071598806141
 21
269.7589898151789
 31
0.0
  0
LINE
  5
12D
330
1F
100
AcDbEntity
  8
0-2
  6
Continuous
 62
     3
370
     9
100
AcDbLine
 10
-19.02898145666284
 20
269.7589898151789
 30
0.0
 11
-20.06138976960403
 21
264.7310716513049
 31
0.0
  0
LINE
  5
12E
330
1F
100
AcDbEntity
  8
0-2
  6
Continuous
 62
     3
370
     9
100
AcDbLine
 10
-15.13905600438999
 20
269.7589898151789
 30
0.0
 11
-19.02898145666284
 21
269.7589898151789
 31
0.0
  0
LINE
  5
12F
330
1F
100
AcDbEntity
  8
0-2
  6
Continuous
 62
     3
370
     9
100
AcDbLine
 10
-4.151540168241346
 20
264.7310716513049
 30
0.0
 11
-14.05120473410465
 21
264.7310716513049
 31
0.0
  0
LINE
  5
130
330
1F
100
AcDbEntity
  8
0-2
  6
Continuous
 62
     3
370
     9
100
AcDbLine
 10
-20.06138976960403
 20
264.7310716513049
 30
0.0
 11
-34.19146593865109
 21
264.7310716513049
 31
0.0
  0
LINE
  5
131
330
1F
100
AcDbEntity
  8
0-2
  6
Continuous
 62
     3
370
     9
100
AcDbLine
 10
43.57815727648296
 20
264.7310716513049
 30
0.0
 11
33.67859180437717
 21
264.7310716513049
 31
0.0
  0
LINE
  5
132
330
1F
100
AcDbEntity
  8
0-2
  6
Continuous
 62
     3
370
     9
100
AcDbLine
 10
43.57815727648296
 20
264.7310716513049
 30
0.0
 11
44.61071423006042
 21
269.7589898151789
 31
0.0
  0
LINE
  5
133
330
1F
100
AcDbEntity
  8
0-2
  6
Continuous
 62
     3
370
     9
100
AcDbLine
 10
8.623825241462391
 20
272.4215399865487
 30
0.0
 11
28.70071598806141
 21
269.7589898151789
 31
0.0
  0
LINE
  5
134
330
1F
100
AcDbEntity
  8
0-2
  6
Continuous
 62
     3
370
     9
100
AcDbLine
 10
32.59059189345551
 20
269.7589898151789
 30
0.0
 11
18.20193056410512
 21
271.7707912807767
 31
0.0
  0
LINE
  5
135
330
1F
100
AcDbEntity
  8
0-2
  6
Continuous
 62
     3
370
     9
100
AcDbLine
 10
17.47621743075348
 20
266.0826114104069
 30
0.0
 11
27.66825812824147
 21
264.7310716513049
 31
0.0
  0
LINE
  5
136
330
1F
100
AcDbEntity
  8
0-2
  6
Continuous
 62
     3
370
     9
100
AcDbLine
 10
44.61071423006042
 20
269.7589898151789
 30
0.0
 11
41.29924858743329
 21
270.201344348842
 31
0.0
  0
LINE
  5
137
330
1F
100
AcDbEntity
  8
0-2
  6
Continuous
 62
     3
370
     9
100
AcDbLine
 10
32.59059189345551
 20
269.7589898151789
 30
0.0
 11
33.67859180437717
 21
264.7310716513049
 31
0.0
  0
LINE
  5
138
330
1F
100
AcDbEntity
  8
0-2
  6
Continuous
 62
     3
370
     9
100
AcDbLine
 10
43.57815727648296
 20
264.7310716513049
 30
0.0
 11
33.38398606320773
 21
266.0928180674337
 31
0.0
  0
LINE
  5
139
330
1F
100
AcDbEntity
  8
0-2
  6
Continuous
 62
     3
370
     9
100
AcDbLine
 10
-10.73810404447805
 20
273.737604180451
 30
0.0
 11
16.68074229209282
 21
269.7589898151789
 31
0.0
  0
LINE
  5
13A
330
1F
100
AcDbEntity
  8
0-2
  6
Continuous
 62
     3
370
     9
100
AcDbLine
 10
12.79081683982003
 20
269.7589898151789
 30
0.0
 11
-23.20315735244213
 21
274.584360338639
 31
0.0
  0
LINE
  5
13B
330
1F
100
AcDbEntity
  8
0-2
  6
Continuous
 62
     3
370
     9
100
AcDbLine
 10
11.75835898000009
 20
264.7310716513049
 30
0.0
 11
1.563097735391929
 21
266.0977727553106
 31
0.0
  0
LINE
  5
13C
330
1F
100
AcDbEntity
  8
0-2
  6
Continuous
 62
     3
370
     9
100
AcDbLine
 10
-14.45748914002285
 20
266.6096911067676
 30
0.0
 11
-4.151540168241346
 21
264.7310716513049
 31
0.0
  0
LINE
  5
13D
330
1F
100
AcDbEntity
  8
0-2
  6
Continuous
 62
     3
370
     9
100
AcDbLine
 10
38.96985162891639
 20
235.8308727332532
 30
0.0
 11
38.96985162891639
 21
229.8311420891744
 31
0.0
  0
LINE
  5
13E
330
1F
100
AcDbEntity
  8
0-2
  6
Continuous
 62
     3
370
     9
100
AcDbLine
 10
38.96985162891639
 20
254.3309836098595
 30
0.0
 11
38.96985162891639
 21
247.8310276777136
 31
0.0
  0
LINE
  5
13F
330
1F
100
AcDbEntity
  8
0-2
  6
Continuous
 62
     3
370
     9
100
AcDbLine
 10
0.7981434740539801
 20
254.3309836098595
 30
0.0
 11
0.7981434740539801
 21
247.8310276777136
 31
0.0
  0
LINE
  5
140
330
1F
100
AcDbEntity
  8
0-2
  6
Continuous
 62
     3
370
     9
100
AcDbLine
 10
0.7981434740539801
 20
229.8311420891744
 30
0.0
 11
0.7981434740539801
 21
235.8308727332532
 31
0.0
  0
LINE
  5
141
330
1F
100
AcDbEntity
  8
0-2
  6
Continuous
 62
     3
370
     9
100
AcDbLine
 10
-33.19101536251695
 20
275.2628552965224
 30
0.0
 11
47.80866797342429
 21
269.7589898151789
 31
0.0
  0
LINE
  5
142
330
1F
100
AcDbEntity
  8
0-2
  6
Continuous
 62
     3
370
     9
100
AcDbLine
 10
44.80870355762734
 20
279.3310504186115
 30
0.0
 11
-37.19123216693298
 21
279.3310504186115
 31
0.0
  0
LINE
  5
143
330
1F
100
AcDbEntity
  8
0-2
  6
Continuous
 62
     3
370
     9
100
AcDbLine
 10
-20.06138976960403
 20
264.7310716513049
 30
0.0
 11
-34.19146593865109
 21
269.9235845464546
 31
0.0
  0
LINE
  5
144
330
1F
100
AcDbEntity
  8
0-2
  6
Continuous
 62
     3
370
     9
100
AcDbLine
 10
-19.02898145666284
 20
269.7589898151789
 30
0.0
 11
-34.19146593865109
 21
275.330932707953
 31
0.0
  0
LINE
  5
145
330
1F
100
AcDbEntity
  8
0-2
  6
Continuous
 62
     3
370
     9
100
AcDbLine
 10
-15.13905600438999
 20
269.7589898151789
 30
0.0
 11
-34.19146593865109
 21
275.330932707953
 31
0.0
  0
LINE
  5
146
330
1F
100
AcDbEntity
  8
0-2
  6
Continuous
 62
     3
370
     9
100
AcDbLine
 10
-34.19146593865109
 20
275.4229908087086
 30
0.0
 11
-3.118933667785135
 21
269.7589898151789
 31
0.0
  0
LINE
  5
147
330
1F
100
AcDbEntity
  8
0-2
  6
Continuous
 62
     3
370
     9
100
AcDbLine
 10
0.7708431438514438
 20
269.7589898151789
 30
0.0
 11
-34.19146593865109
 21
275.464808374391
 31
0.0
  0
LINE
  5
148
330
1F
100
AcDbEntity
  8
0-2
  6
Continuous
 62
     3
370
     9
100
AcDbLine
 10
-35.19112376472496
 20
279.3310504186115
 30
0.0
 11
-35.19112376472496
 21
132.3306139818958
 31
0.0
  0
LINE
  5
149
330
1F
100
AcDbEntity
  8
0-2
  6
Continuous
 62
     3
370
     9
100
AcDbLine
 10
-34.19146593865109
 20
132.3306139818958
 30
0.0
 11
-34.19146593865109
 21
279.3310504186115
 31
0.0
  0
LINE
  5
14A
330
1F
100
AcDbEntity
  8
0-2
  6
Continuous
 62
     3
370
     9
100
AcDbLine
 10
47.80866797342429
 20
135.3305783976928
 30
0.0
 11
47.80866797342429
 21
276.3310860028146
 31
0.0
  0
LINE
  5
14B
330
1F
100
AcDbEntity
  8
0-1
  6
Continuous
 62
     6
370
     5
100
AcDbLine
 10
13.65085156151856
 20
280.8308344389949
 30
0.0
 11
26.80896660972457
 21
281.7576583532762
 31
0.0
  0
LINE
  5
14C
330
1F
100
AcDbEntity
  8
0-1
  6
Continuous
 62
     6
370
     5
100
AcDbLine
 10
56.73676779347666
 20
238.3309091422557
 30
0.0
 11
52.30906051902862
 21
238.3309091422557
 31
0.0
  0
LINE
  5
14D
330
1F
100
AcDbEntity
  8
0-1
  6
Continuous
 62
     6
370
     5
100
AcDbLine
 10
56.73676779347666
 20
251.3308210065475
 30
0.0
 11
52.30906051902862
 21
251.3308210065475
 31
0.0
  0
LINE
  5
14E
330
1F
100
AcDbEntity
  8
0-1
  6
Continuous
 62
     6
370
     5
100
AcDbLine
 10
56.73676779347666
 20
212.3307881323996
 30
0.0
 11
52.30906051902862
 21
212.3307881323996
 31
0.0
  0
LINE
  5
14F
330
1F
100
AcDbEntity
  8
0-1
  6
Continuous
 62
     6
370
     5
100
AcDbLine
 10
52.30906051902862
 20
238.3309091422557
 30
0.0
 11
52.30906051902862
 21
212.3307881323996
 31
0.0
  0
LINE
  5
150
330
1F
100
AcDbEntity
  8
0-1
  6
Continuous
 62
     6
370
     5
100
AcDbLine
 10
56.73676779347666
 20
238.3309091422557
 30
0.0
 11
56.73676779347666
 21
212.3307881323996
 31
0.0
  0
LINE
  5
151
330
1F
100
AcDbEntity
  8
0-1
  6
Continuous
 62
     6
370
     5
100
AcDbLine
 10
-12.75149101019655
 20
288.3307454784874
 30
0.0
 11
-12.75149101019655
 21
280.8308344389949
 31
0.0
  0
LINE
  5
152
330
1F
100
AcDbEntity
  8
0-1
  6
Continuous
 62
     6
370
     5
100
AcDbLine
 10
-4.751503323273475
 20
288.3307454784874
 30
0.0
 11
-4.751503323273475
 21
280.8308344389949
 31
0.0
  0
LINE
  5
153
330
1F
100
AcDbEntity
  8
0-1
  6
Continuous
 62
     6
370
     5
100
AcDbLine
 10
-4.751503323273475
 20
280.8308344389949
 30
0.0
 11
17.80897426857616
 21
282.3308166468934
 31
0.0
  0
LINE
  5
154
330
1F
100
AcDbEntity
  8
0-1
  6
Continuous
 62
     6
370
     5
100
AcDbLine
 10
17.80897426857616
 20
287.3307903711408
 30
0.0
 11
-4.751503323273475
 21
288.3307454784874
 31
0.0
  0
LINE
  5
155
330
1F
100
AcDbEntity
  8
0-1
  6
Continuous
 62
     6
370
     5
100
AcDbLine
 10
-12.75149101019655
 20
282.3308166468934
 30
0.0
 11
-37.19123216693298
 21
282.3308166468934
 31
0.0
  0
LINE
  5
156
330
1F
100
AcDbEntity
  8
0-1
  6
Continuous
 62
     6
370
     5
100
AcDbLine
 10
17.80897426857616
 20
287.3307903711408
 30
0.0
 11
17.80897426857616
 21
282.3308166468934
 31
0.0
  0
LINE
  5
157
330
1F
100
AcDbEntity
  8
0-1
  6
Continuous
 62
     6
370
     5
100
AcDbLine
 10
13.65085156151856
 20
280.8308344389949
 30
0.0
 11
-4.751503323273475
 21
280.8308344389949
 31
0.0
  0
LINE
  5
158
330
1F
100
AcDbEntity
  8
0-1
  6
Continuous
 62
     6
370
     5
100
AcDbLine
 10
-12.75149101019655
 20
280.8308344389949
 30
0.0
 11
-37.19123216693298
 21
280.8308344389949
 31
0.0
  0
LINE
  5
159
330
1F
100
AcDbEntity
  8
0-1
  6
Continuous
 62
     6
370
     5
100
AcDbLine
 10
47.21559183454128
 20
288.3307454784874
 30
0.0
 11
-4.751503323273475
 21
288.3307454784874
 31
0.0
  0
LINE
  5
15A
330
1F
100
AcDbEntity
  8
0-1
  6
Continuous
 62
     6
370
     5
100
AcDbLine
 10
-12.75149101019655
 20
288.3307454784874
 30
0.0
 11
-58.19123081190536
 21
288.3307454784874
 31
0.0
  0
LINE
  5
15B
330
1F
100
AcDbEntity
  8
0-1
  6
Continuous
 62
     6
370
     5
100
AcDbLine
 10
71.80897786234499
 20
324.3307148430806
 30
0.0
 11
66.80890504434008
 21
324.3307148430806
 31
0.0
  0
LINE
  5
15C
330
1F
100
AcDbEntity
  8
0-1
  6
Continuous
 62
     6
370
     5
100
AcDbLine
 10
71.80897786234499
 20
322.8307326351822
 30
0.0
 11
62.67104701069964
 21
322.8307326351822
 31
0.0
  0
LINE
  5
15D
330
1F
100
AcDbEntity
  8
0-1
  6
Continuous
 62
     6
370
     5
100
AcDbLine
 10
66.80890504434008
 20
324.3307148430806
 30
0.0
 11
62.67104701069964
 21
322.8307326351822
 31
0.0
  0
LINE
  5
15E
330
1F
100
AcDbEntity
  8
0-1
  6
Continuous
 62
     6
370
     5
100
AcDbLine
 10
16.80896961435094
 20
339.3306360158228
 30
0.0
 11
16.80896961435094
 21
343.3308528202389
 31
0.0
  0
LINE
  5
15F
330
1F
100
AcDbEntity
  8
0-1
  6
Continuous
 62
     6
370
     5
100
AcDbLine
 10
9.340322655362861
 20
337.830752901682
 30
0.0
 11
9.340322655362861
 21
344.3307088338278
 31
0.0
  0
LINE
  5
160
330
1F
100
AcDbEntity
  8
0-1
  6
Continuous
 62
     6
370
     5
100
AcDbLine
 10
1.340334968439727
 20
337.830752901682
 30
0.0
 11
1.340334968439727
 21
344.3307088338278
 31
0.0
  0
LINE
  5
161
330
1F
100
AcDbEntity
  8
0-1
  6
Continuous
 62
     6
370
     5
100
AcDbLine
 10
9.340322655362861
 20
344.3307088338278
 30
0.0
 11
16.80896961435094
 21
343.3308528202389
 31
0.0
  0
LINE
  5
162
330
1F
100
AcDbEntity
  8
0-1
  6
Continuous
 62
     6
370
     5
100
AcDbLine
 10
16.80896961435094
 20
339.3306360158228
 30
0.0
 11
9.340322655362861
 21
337.830752901682
 31
0.0
  0
LINE
  5
163
330
1F
100
AcDbEntity
  8
0-1
  6
Continuous
 62
     6
370
     5
100
AcDbLine
 10
1.340334968439727
 20
337.830752901682
 30
0.0
 11
-58.19123081190536
 21
337.830752901682
 31
0.0
  0
LINE
  5
164
330
1F
100
AcDbEntity
  8
0-1
  6
Continuous
 62
     6
370
     5
100
AcDbLine
 10
61.80898086697148
 20
343.3308528202389
 30
0.0
 11
16.80896961435094
 21
343.3308528202389
 31
0.0
  0
LINE
  5
165
330
1F
100
AcDbEntity
  8
0-1
  6
Continuous
 62
     6
370
     5
100
AcDbLine
 10
61.80898086697148
 20
344.3307088338278
 30
0.0
 11
-66.19121849882849
 21
344.3307088338278
 31
0.0
  0
LINE
  5
166
330
1F
100
AcDbEntity
  8
0-1
  6
Continuous
 62
     6
370
     5
100
AcDbLine
 10
62.67104701069964
 20
332.8307791774346
 30
0.0
 11
62.67104701069964
 21
322.8307326351822
 31
0.0
  0
LINE
  5
167
330
1F
100
AcDbEntity
  8
0-1
  6
Continuous
 62
     6
370
     5
100
AcDbLine
 10
57.67102373957341
 20
337.830752901682
 30
0.0
 11
9.340322655362861
 21
337.830752901682
 31
0.0
  0
LINE
  5
168
330
1F
100
AcDbEntity
  8
0-1
  6
Continuous
 62
     6
370
     5
100
AcDbLine
 10
61.80888177321395
 20
339.3306360158228
 30
0.0
 11
16.80896961435094
 21
339.3306360158228
 31
0.0
  0
LINE
  5
169
330
1F
100
AcDbEntity
  8
0-1
  6
Continuous
 62
     6
370
     5
100
AcDbLine
 10
66.80890504434008
 20
334.3306622915754
 30
0.0
 11
66.80890504434008
 21
324.3307148430806
 31
0.0
  0
LINE
  5
16A
330
1F
100
AcDbEntity
  8
0-1
  6
Continuous
 62
     6
370
     5
100
AcDbLine
 10
18.10610690056291
 20
288.3307454784874
 30
0.0
 11
61.28259482691357
 21
336.288556753071
 31
0.0
  0
LINE
  5
16B
330
1F
100
AcDbEntity
  8
0-1
  6
Continuous
 62
     6
370
     5
100
AcDbLine
 10
13.65085156151856
 20
280.8308344389949
 30
0.0
 11
13.65085156151856
 21
279.3310504186115
 31
0.0
  0
LINE
  5
16C
330
1F
100
AcDbEntity
  8
0-1
  6
Continuous
 62
     6
370
     5
100
AcDbLine
 10
10.00370581522117
 20
279.3310504186115
 30
0.0
 11
11.3539573554752
 21
280.8308344389949
 31
0.0
  0
LINE
  5
16D
330
1F
100
AcDbEntity
  8
0-1
  6
Continuous
 62
     6
370
     5
100
AcDbLine
 10
26.80896660972457
 20
279.3310504186115
 30
0.0
 11
26.80896660972457
 21
281.7576583532762
 31
0.0
  0
LINE
  5
16E
330
1F
100
AcDbEntity
  8
0-1
  6
Continuous
 62
     6
370
     5
100
AcDbLine
 10
50.30905121057816
 20
282.3308166468934
 30
0.0
 11
17.80897426857616
 21
282.3308166468934
 31
0.0
  0
LINE
  5
16F
330
1F
100
AcDbEntity
  8
0-1
  6
Continuous
 62
     6
370
     5
100
AcDbLine
 10
52.30906051902862
 20
280.3308073384429
 30
0.0
 11
52.30906051902862
 21
251.3308210065475
 31
0.0
  0
LINE
  5
170
330
1F
100
AcDbEntity
  8
0-1
  6
Continuous
 62
     6
370
     5
100
AcDbLine
 10
54.7367584850262
 20
287.3307903711408
 30
0.0
 11
17.80897426857616
 21
287.3307903711408
 31
0.0
  0
LINE
  5
171
330
1F
100
AcDbEntity
  8
0-1
  6
Continuous
 62
     6
370
     5
100
AcDbLine
 10
56.73676779347666
 20
285.3307810626903
 30
0.0
 11
56.73676779347666
 21
251.3308210065475
 31
0.0
  0
LINE
  5
172
330
1F
100
AcDbEntity
  8
0-1
  6
Continuous
 62
     6
370
     5
100
AcDbLine
 10
47.21559183454128
 20
288.3307454784874
 30
0.0
 11
54.99658231729877
 21
287.3138453386013
 31
0.0
  0
LINE
  5
173
330
1F
100
AcDbEntity
  8
0-1
  6
Continuous
 62
     6
370
     5
100
AcDbLine
 10
-19.07833014791827
 20
343.3308528202389
 30
0.0
 11
-19.07833014791827
 21
339.3306360158228
 31
0.0
  0
LINE
  5
174
330
1F
100
AcDbEntity
  8
0-1
  6
Continuous
 62
     6
370
     5
100
AcDbLine
 10
1.340334968439727
 20
339.3306360158228
 30
0.0
 11
-58.19123081190536
 21
339.3306360158228
 31
0.0
  0
LINE
  5
175
330
1F
100
AcDbEntity
  8
0-1
  6
Continuous
 62
     6
370
     5
100
AcDbLine
 10
-19.07833014791827
 20
339.3306360158228
 30
0.0
 11
-16.66415847982511
 21
337.830752901682
 31
0.0
  0
LINE
  5
176
330
1F
100
AcDbEntity
  8
0-1
  6
Continuous
 62
     6
370
     5
100
AcDbLine
 10
-16.66415847982511
 20
337.830752901682
 30
0.0
 11
-16.66415847982511
 21
288.3307454784874
 31
0.0
  0
LINE
  5
177
330
1F
100
AcDbEntity
  8
0-1
  6
Continuous
 62
     6
370
     5
100
AcDbLine
 10
-19.07833014791827
 20
343.3308528202389
 30
0.0
 11
-16.66415847982511
 21
344.3307088338278
 31
0.0
  0
LINE
  5
178
330
1F
100
AcDbEntity
  8
0-1
  6
Continuous
 62
     6
370
     5
100
AcDbLine
 10
-39.09611146814404
 20
287.4214611592909
 30
0.0
 11
-58.19123081190536
 21
288.3307454784874
 31
0.0
  0
LINE
  5
179
330
1F
100
AcDbEntity
  8
0-1
  6
Continuous
 62
     6
370
     5
100
AcDbLine
 10
-12.75149101019655
 20
287.3307903711408
 30
0.0
 11
-38.58850369514015
 21
287.3307903711408
 31
0.0
  0
LINE
  5
17A
330
1F
100
AcDbEntity
  8
0-1
  6
Continuous
 62
     6
370
     5
100
AcDbLine
 10
43.96675344668012
 20
279.7576490448256
 30
0.0
 11
43.96675344668012
 21
279.3268884807948
 31
0.0
  0
LINE
  5
17B
330
1F
100
AcDbEntity
  8
0-1
  6
Continuous
 62
     6
370
     5
100
AcDbLine
 10
41.96674413822956
 20
281.7576583532762
 30
0.0
 11
26.80896660972457
 21
281.7576583532762
 31
0.0
  0
LINE
  5
17C
330
1F
100
AcDbEntity
  8
0-1
  6
Continuous
 62
     6
370
     5
100
AcDbLine
 10
-59.94320844523064
 20
343.5497509306471
 30
0.0
 11
-66.19121849882849
 21
344.3306097400703
 31
0.0
  0
LINE
  5
17D
330
1F
100
AcDbEntity
  8
0-1
  6
Continuous
 62
     6
370
     5
100
AcDbLine
 10
1.340334968439727
 20
343.3308528202389
 30
0.0
 11
-59.25193039262449
 21
343.3308528202389
 31
0.0
  0
LINE
  5
17E
330
1F
100
AcDbEntity
  8
0-1
  6
Continuous
 62
     6
370
     5
100
AcDbLine
 10
47.80866797342429
 20
209.5177145433249
 30
0.0
 11
56.73676779347666
 21
212.3307881323996
 31
0.0
  0
LINE
  5
17F
330
1F
100
AcDbEntity
  8
0-1
  6
Continuous
 62
     6
370
     5
100
AcDbLine
 10
47.80866797342429
 20
211.6631934878457
 30
0.0
 11
52.30906051902862
 21
212.3307881323996
 31
0.0
  0
LINE
  5
180
330
1F
100
AcDbEntity
  8
0-1
  6
Continuous
 62
     6
370
     5
100
AcDbLine
 10
52.30906051902862
 20
238.3309091422557
 30
0.0
 11
47.80866797342429
 21
238.9985037868096
 31
0.0
  0
LINE
  5
181
330
1F
100
AcDbEntity
  8
0-1
  6
Continuous
 62
     6
370
     5
100
AcDbLine
 10
47.80866797342429
 20
241.1439827313302
 30
0.0
 11
56.73676779347666
 21
238.3309091422557
 31
0.0
  0
LINE
  5
182
330
1F
100
AcDbEntity
  8
0-1
  6
Continuous
 62
     6
370
     5
100
AcDbLine
 10
47.80866797342429
 20
248.5177474174728
 30
0.0
 11
56.73676779347666
 21
251.3308210065475
 31
0.0
  0
LINE
  5
183
330
1F
100
AcDbEntity
  8
0-1
  6
Continuous
 62
     6
370
     5
100
AcDbLine
 10
47.80866797342429
 20
250.6633254557511
 30
0.0
 11
52.30906051902862
 21
251.3308210065475
 31
0.0
  0
LINE
  5
184
330
1F
100
AcDbEntity
  8
0-1
  6
Continuous
 62
     6
370
     5
100
AcDbLine
 10
-66.19121849882849
 20
67.33095556667955
 30
0.0
 11
-66.19121849882849
 21
344.3306097400703
 31
0.0
  0
LINE
  5
185
330
1F
100
AcDbEntity
  8
0-1
  6
Continuous
 62
     6
370
     5
100
AcDbLine
 10
-58.19123081190536
 20
70.09656324589196
 30
0.0
 11
-58.19123081190536
 21
341.5651011546154
 31
0.0
  0
LINE
  5
186
330
1F
100
AcDbEntity
  8
0-1
  6
Continuous
 62
     6
370
     5
100
AcDbLine
 10
71.80897786234499
 20
334.3306622915754
 30
0.0
 11
71.80897786234499
 21
77.3310021089319
 31
0.0
  0
LINE
  5
187
330
1F
100
AcDbEntity
  8
0-1
  6
Continuous
 62
     6
370
     5
100
AcDbLine
 10
-37.19123216693298
 20
285.4237310072638
 30
0.0
 11
-37.19123216693298
 21
126.2379333932436
 31
0.0
  0
LINE
  5
188
330
1F
100
AcDbEntity
  8
0-0
  6
Continuous
 62
     4
370
     9
100
AcDbLine
 10
-80.11270230825174
 20
256.8308218313468
 30
0.0
 11
-96.11416408846111
 21
256.8308218313468
 31
0.0
  0
LINE
  5
189
330
1F
100
AcDbEntity
  8
0-0
  6
Continuous
 62
     4
370
     9
100
AcDbLine
 10
100.8874959970918
 20
376.8306866820723
 30
0.0
 11
-80.11270230825174
 21
376.8306866820723
 31
0.0
  0
LINE
  5
18A
330
1F
100
AcDbEntity
  8
0-0
  6
Continuous
 62
     4
370
     9
100
AcDbLine
 10
-70.84228310277392
 20
375.5665476171214
 30
0.0
 11
-80.11270230825174
 21
376.8306866820723
 31
0.0
  0
LINE
  5
18B
330
1F
100
AcDbEntity
  8
0-0
  6
Continuous
 62
     4
370
     9
100
AcDbLine
 10
100.8874959970918
 20
375.3307044741738
 30
0.0
 11
-70.13668600220306
 21
375.3307044741738
 31
0.0
  0
LINE
  5
18C
330
1F
100
AcDbEntity
  8
0-0
  6
Continuous
 62
     4
370
     9
100
AcDbLine
 10
-80.11270230825174
 20
335.6878503948573
 30
0.0
 11
-88.11273954205363
 21
336.8305996068205
 31
0.0
  0
LINE
  5
18D
330
1F
100
AcDbEntity
  8
0-0
  6
Continuous
 62
     4
370
     9
100
AcDbLine
 10
-80.11270230825174
 20
347.9734944547934
 30
0.0
 11
-88.11273954205363
 21
346.8307452428303
 31
0.0
  0
LINE
  5
18E
330
1F
100
AcDbEntity
  8
0-0
  6
Continuous
 62
     4
370
     9
100
AcDbLine
 10
100.8874464502131
 20
374.3307493668274
 30
0.0
 11
-20.97716472991936
 21
374.3307493668274
 31
0.0
  0
LINE
  5
18F
330
1F
100
AcDbEntity
  8
0-0
  6
Continuous
 62
     4
370
     9
100
AcDbLine
 10
-88.11273954205363
 20
346.8307452428303
 30
0.0
 11
-88.11273954205363
 21
336.8305996068205
 31
0.0
  0
LINE
  5
190
330
1F
100
AcDbEntity
  8
0-0
  6
JWW_CENTER1
 62
     4
370
     9
100
AcDbLine
 10
-77.236406901866
 20
341.8306724248254
 30
0.0
 11
-112.6903696624084
 21
341.8306724248254
 31
0.0
  0
LINE
  5
191
330
1F
100
AcDbEntity
  8
0-0
  6
Continuous
 62
     4
370
     9
100
AcDbLine
 10
-80.11270230825174
 20
34.83097771843507
 30
0.0
 11
-80.11270230825174
 21
376.8306866820723
 31
0.0
  0
LINE
  5
192
330
1F
100
AcDbEntity
  8
0-0
  6
Continuous
 62
     4
370
     9
100
AcDbLine
 10
-69.11250247113786
 20
375.3307044741738
 30
0.0
 11
-69.11250247113786
 21
38.07679374669135
 31
0.0
  0
LINE
  5
193
330
1F
100
AcDbEntity
  8
0-0
  6
Continuous
 62
     4
370
     9
100
AcDbLine
 10
-96.11416408846111
 20
154.8308425691605
 30
0.0
 11
-96.11416408846111
 21
256.8308218313468
 31
0.0
  0
LINE
  5
194
330
1F
100
AcDbEntity
  8
0-0
  6
Continuous
 62
     4
370
     9
100
AcDbLine
 10
110.8874929924654
 20
366.8306401398199
 30
0.0
 11
110.8874929924654
 21
44.8310242606874
 31
0.0
  0
LINE
  5
195
330
1F
100
AcDbEntity
  8
0-0
  6
Continuous
 62
     4
370
     9
100
AcDbLine
 10
109.8874387913614
 20
365.330757025679
 30
0.0
 11
109.8874387913614
 21
46.33090737482837
 31
0.0
  0
LINE
  5
196
330
1F
100
AcDbEntity
  8
0-0
  6
Continuous
 62
     4
370
     9
100
AcDbLine
 10
-69.11250247113786
 20
266.8308683735992
 30
0.0
 11
-66.19121849882849
 21
266.6343654523953
 31
0.0
  0
LINE
  5
197
330
1F
100
AcDbEntity
  8
0-0
  6
Continuous
 62
     4
370
     9
100
AcDbLine
 10
-66.19121849882849
 20
266.8308683735992
 30
0.0
 11
-69.11250247113786
 21
266.8308683735992
 31
0.0
  0
LINE
  5
198
330
1F
100
AcDbEntity
  8
0-0
  6
Continuous
 62
     4
370
     9
100
AcDbLine
 10
-69.11250247113786
 20
234.8307194383916
 30
0.0
 11
-66.19121849882849
 21
234.9617213858609
 31
0.0
  0
LINE
  5
199
330
1F
100
AcDbEntity
  8
0-0
  6
Continuous
 62
     4
370
     9
100
AcDbLine
 10
-66.19121849882849
 20
236.8308278405997
 30
0.0
 11
-69.11250247113786
 21
236.8308278405997
 31
0.0
  0
LINE
  5
19A
330
1F
100
AcDbEntity
  8
0-0
  6
Continuous
 62
     4
370
     9
100
AcDbLine
 10
-66.19121849882849
 20
174.8308365599076
 30
0.0
 11
-69.11250247113786
 21
174.8308365599076
 31
0.0
  0
LINE
  5
19B
330
1F
100
AcDbEntity
  8
0-0
  6
Continuous
 62
     4
370
     9
100
AcDbLine
 10
-69.11250247113786
 20
176.8309449621157
 30
0.0
 11
-66.19121849882849
 21
176.6999430146465
 31
0.0
  0
LINE
  5
19C
330
1F
100
AcDbEntity
  8
0-0
  6
Continuous
 62
     4
370
     9
100
AcDbLine
 10
-66.19121849882849
 20
144.8307960269082
 30
0.0
 11
-69.11250247113786
 21
144.8307960269082
 31
0.0
  0
LINE
  5
19D
330
1F
100
AcDbEntity
  8
0-0
  6
Continuous
 62
     4
370
     9
100
AcDbLine
 10
-69.11250247113786
 20
144.8307960269082
 30
0.0
 11
-66.19121849882849
 21
145.0273484949907
 31
0.0
  0
LINE
  5
19E
330
1F
100
AcDbEntity
  8
0-3
  6
Continuous
 62
     7
370
     9
100
AcDbLine
 10
-181.0709584442881
 20
152.8308332607101
 30
0.0
 11
-181.0709584442881
 21
258.8308311397973
 31
0.0
  0
LINE
  5
19F
330
1F
100
AcDbEntity
  8
0-3
  6
Continuous
 62
     7
370
     9
100
AcDbLine
 10
-96.11416408846111
 20
258.8308311397973
 30
0.0
 11
-181.0709584442881
 21
258.8308311397973
 31
0.0
  0
LINE
  5
1A0
330
1F
100
AcDbEntity
  8
0-0
  6
Continuous
 62
     4
370
     9
100
AcDbLine
 10
-21.02923849950718
 20
375.3307044741738
 30
0.0
 11
-19.41430753286112
 21
344.3307088338278
 31
0.0
  0
LINE
  5
1A1
330
1F
100
AcDbEntity
  8
0-0
  6
Continuous
 62
     4
370
     9
100
AcDbLine
 10
71.63259097392205
 20
336.2007596838896
 30
0.0
 11
107.2470856216808
 21
371.6990173540528
 31
0.0
  0
LINE
  5
1A2
330
1F
100
AcDbEntity
  8
0-0
  6
Continuous
 62
     4
370
     9
100
AcDbLine
 10
71.63259097392205
 20
75.46095426349642
 30
0.0
 11
107.2470856216808
 21
39.96264704645455
 31
0.0
  0
LINE
  5
1A3
330
1F
100
AcDbEntity
  8
0-3
  6
JWW_PHANTOM2
 62
     7
370
     9
100
AcDbLine
 10
-189.1079824230921
 20
260.8308404482477
 30
0.0
 11
-181.0709584442881
 21
258.8308311397973
 31
0.0
  0
LINE
  5
1A4
330
1F
100
AcDbEntity
  8
0-3
  6
JWW_PHANTOM2
 62
     7
370
     9
100
AcDbLine
 10
-189.1079824230921
 20
150.8308239522596
 30
0.0
 11
-189.1079824230921
 21
260.8308404482477
 31
0.0
  0
LINE
  5
1A5
330
1F
100
AcDbEntity
  8
0-3
  6
JWW_PHANTOM2
 62
     7
370
     9
100
AcDbLine
 10
-189.1079824230921
 20
150.8308239522596
 30
0.0
 11
-181.0709584442881
 21
152.8308332607101
 31
0.0
  0
LINE
  5
1A6
330
1F
100
AcDbEntity
  8
0-0
  6
JWW_CENTER1
 62
     4
370
     9
100
AcDbLine
 10
118.5657727955316
 20
205.8308322002537
 30
0.0
 11
-197.0992250859122
 21
205.8308322002537
 31
0.0
  0
ARC
  5
1A7
330
1F
100
AcDbEntity
  8
0-2
  6
Continuous
 62
     3
370
     9
100
AcDbCircle
 10
-25.82755642715857
 20
181.830522311333
 30
0.0
 40
2.000000018410701
100
AcDbArc
 50
90.0
 51
180.0
  0
ARC
  5
1A8
330
1F
100
AcDbEntity
  8
0-2
  6
Continuous
 62
     3
370
     9
100
AcDbCircle
 10
-25.82755642715857
 20
175.8307916672542
 30
0.0
 40
2.000000018410701
100
AcDbArc
 50
180.0
 51
270.0
  0
ARC
  5
1A9
330
1F
100
AcDbEntity
  8
0-2
  6
Continuous
 62
     3
370
     9
100
AcDbCircle
 10
-25.82755642715857
 20
163.8306367227938
 30
0.0
 40
2.000000018410701
100
AcDbArc
 50
90.0
 51
180.0
  0
ARC
  5
1AA
330
1F
100
AcDbEntity
  8
0-2
  6
Continuous
 62
     3
370
     9
100
AcDbCircle
 10
-25.82755642715857
 20
157.3306807906479
 30
0.0
 40
2.000000018410701
100
AcDbArc
 50
180.0
 51
270.0
  0
ARC
  5
1AB
330
1F
100
AcDbEntity
  8
0-2
  6
Continuous
 62
     3
370
     9
100
AcDbCircle
 10
39.4446593681742
 20
199.8305069936297
 30
0.0
 40
2.000000018410701
100
AcDbArc
 50
0.0
 51
90.0
  0
ARC
  5
1AC
330
1F
100
AcDbEntity
  8
0-2
  6
Continuous
 62
     3
370
     9
100
AcDbCircle
 10
39.4446593681742
 20
193.8305781620357
 30
0.0
 40
2.000000018410701
100
AcDbArc
 50
270.0
 51
0.0
  0
ARC
  5
1AD
330
1F
100
AcDbEntity
  8
0-2
  6
Continuous
 62
     3
370
     9
100
AcDbCircle
 10
39.4446593681742
 20
181.830522311333
 30
0.0
 40
2.000000018410701
100
AcDbArc
 50
0.0
 51
90.0
  0
ARC
  5
1AE
330
1F
100
AcDbEntity
  8
0-2
  6
Continuous
 62
     3
370
     9
100
AcDbCircle
 10
39.4446593681742
 20
175.8307916672542
 30
0.0
 40
2.000000018410701
100
AcDbArc
 50
270.0
 51
0.0
  0
ARC
  5
1AF
330
1F
100
AcDbEntity
  8
0-2
  6
Continuous
 62
     3
370
     9
100
AcDbCircle
 10
39.4446593681742
 20
163.8306367227938
 30
0.0
 40
2.000000018410701
100
AcDbArc
 50
0.0
 51
90.0
  0
ARC
  5
1B0
330
1F
100
AcDbEntity
  8
0-2
  6
Continuous
 62
     3
370
     9
100
AcDbCircle
 10
39.4446593681742
 20
157.3306807906479
 30
0.0
 40
2.000000018410701
100
AcDbArc
 50
270.0
 51
0.0
  0
ARC
  5
1B1
330
1F
100
AcDbEntity
  8
0-2
  6
Continuous
 62
     3
370
     9
100
AcDbCircle
 10
12.34420127458265
 20
157.3306807906479
 30
0.0
 40
2.000000018410701
100
AcDbArc
 50
180.0
 51
270.0
  0
ARC
  5
1B2
330
1F
100
AcDbEntity
  8
0-2
  6
Continuous
 62
     3
370
     9
100
AcDbCircle
 10
12.34420127458265
 20
163.8306367227938
 30
0.0
 40
2.000000018410701
100
AcDbArc
 50
90.0
 51
180.0
  0
ARC
  5
1B3
330
1F
100
AcDbEntity
  8
0-2
  6
Continuous
 62
     3
370
     9
100
AcDbCircle
 10
1.273149400826875
 20
163.8306367227938
 30
0.0
 40
2.000000018410701
100
AcDbArc
 50
0.0
 51
90.0
  0
ARC
  5
1B4
330
1F
100
AcDbEntity
  8
0-2
  6
Continuous
 62
     3
370
     9
100
AcDbCircle
 10
1.273149400826875
 20
157.3306807906479
 30
0.0
 40
2.000000018410701
100
AcDbArc
 50
270.0
 51
0.0
  0
ARC
  5
1B5
330
1F
100
AcDbEntity
  8
0-2
  6
Continuous
 62
     3
370
     9
100
AcDbCircle
 10
1.273149400826875
 20
175.8307916672542
 30
0.0
 40
2.000000018410701
100
AcDbArc
 50
270.0
 51
0.0
  0
ARC
  5
1B6
330
1F
100
AcDbEntity
  8
0-2
  6
Continuous
 62
     3
370
     9
100
AcDbCircle
 10
1.273149400826875
 20
181.830522311333
 30
0.0
 40
2.000000018410701
100
AcDbArc
 50
0.0
 51
90.0
  0
ARC
  5
1B7
330
1F
100
AcDbEntity
  8
0-2
  6
Continuous
 62
     3
370
     9
100
AcDbCircle
 10
1.273149400826875
 20
193.8305781620357
 30
0.0
 40
2.000000018410701
100
AcDbArc
 50
270.0
 51
0.0
  0
ARC
  5
1B8
330
1F
100
AcDbEntity
  8
0-2
  6
Continuous
 62
     3
370
     9
100
AcDbCircle
 10
1.273149400826875
 20
199.8305069936297
 30
0.0
 40
2.000000018410701
100
AcDbArc
 50
0.0
 51
90.0
  0
ARC
  5
1B9
330
1F
100
AcDbEntity
  8
0-2
  6
Continuous
 62
     3
370
     9
100
AcDbCircle
 10
12.34420127458265
 20
199.8305069936297
 30
0.0
 40
2.000000018410701
100
AcDbArc
 50
90.0
 51
180.0
  0
ARC
  5
1BA
330
1F
100
AcDbEntity
  8
0-2
  6
Continuous
 62
     3
370
     9
100
AcDbCircle
 10
12.34420127458265
 20
193.8305781620357
 30
0.0
 40
2.000000018410701
100
AcDbArc
 50
180.0
 51
270.0
  0
ARC
  5
1BB
330
1F
100
AcDbEntity
  8
0-2
  6
Continuous
 62
     3
370
     9
100
AcDbCircle
 10
12.34420127458265
 20
181.830522311333
 30
0.0
 40
2.000000018410701
100
AcDbArc
 50
90.0
 51
180.0
  0
ARC
  5
1BC
330
1F
100
AcDbEntity
  8
0-2
  6
Continuous
 62
     3
370
     9
100
AcDbCircle
 10
12.34420127458265
 20
175.8307916672542
 30
0.0
 40
2.000000018410701
100
AcDbArc
 50
180.0
 51
270.0
  0
ARC
  5
1BD
330
1F
100
AcDbEntity
  8
0-2
  6
Continuous
 62
     3
370
     9
100
AcDbCircle
 10
-2.191564737837431
 20
193.8305781620357
 30
0.0
 40
2.000000018410701
100
AcDbArc
 50
143.1299591064453
 51
270.0
  0
ARC
  5
1BE
330
1F
100
AcDbEntity
  8
0-2
  6
Continuous
 62
     3
370
     9
100
AcDbCircle
 10
0.8873774027196726
 20
199.8305069936297
 30
0.0
 40
2.000000018410701
100
AcDbArc
 50
90.0
 51
162.5420379638672
  0
ARC
  5
1BF
330
1F
100
AcDbEntity
  8
0-2
  6
Continuous
 62
     3
370
     9
100
AcDbCircle
 10
-18.19149056480489
 20
205.8306340127386
 30
0.0
 40
18.00000016569631
100
AcDbArc
 50
323.1300964355469
 51
342.5423431396485
  0
ARC
  5
1C0
330
1F
100
AcDbEntity
  8
0-2
  6
Continuous
 62
     3
370
     9
100
AcDbCircle
 10
36.96979277358724
 20
199.8305069936297
 30
0.0
 40
2.000000018410701
100
AcDbArc
 50
0.0
 51
90.0
  0
ARC
  5
1C1
330
1F
100
AcDbEntity
  8
0-2
  6
Continuous
 62
     3
370
     9
100
AcDbCircle
 10
36.96979277358724
 20
193.8305781620357
 30
0.0
 40
2.000000018410701
100
AcDbArc
 50
270.0
 51
0.0
  0
ARC
  5
1C2
330
1F
100
AcDbEntity
  8
0-2
  6
Continuous
 62
     3
370
     9
100
AcDbCircle
 10
36.96979277358724
 20
181.830522311333
 30
0.0
 40
2.000000018410701
100
AcDbArc
 50
0.0
 51
90.0
  0
ARC
  5
1C3
330
1F
100
AcDbEntity
  8
0-2
  6
Continuous
 62
     3
370
     9
100
AcDbCircle
 10
36.96979277358724
 20
175.8307916672542
 30
0.0
 40
2.000000018410701
100
AcDbArc
 50
270.0
 51
0.0
  0
ARC
  5
1C4
330
1F
100
AcDbEntity
  8
0-2
  6
Continuous
 62
     3
370
     9
100
AcDbCircle
 10
36.96979277358724
 20
163.8306367227938
 30
0.0
 40
2.000000018410701
100
AcDbArc
 50
0.0
 51
90.0
  0
ARC
  5
1C5
330
1F
100
AcDbEntity
  8
0-2
  6
Continuous
 62
     3
370
     9
100
AcDbCircle
 10
36.96979277358724
 20
157.3306807906479
 30
0.0
 40
2.000000018410701
100
AcDbArc
 50
270.0
 51
0.0
  0
ARC
  5
1C6
330
1F
100
AcDbEntity
  8
0-2
  6
Continuous
 62
     3
370
     9
100
AcDbCircle
 10
-1.20191538127522
 20
163.8306367227938
 30
0.0
 40
2.000000018410701
100
AcDbArc
 50
0.0
 51
90.0
  0
ARC
  5
1C7
330
1F
100
AcDbEntity
  8
0-2
  6
Continuous
 62
     3
370
     9
100
AcDbCircle
 10
-1.20191538127522
 20
157.3306807906479
 30
0.0
 40
2.000000018410701
100
AcDbArc
 50
270.0
 51
0.0
  0
ARC
  5
1C8
330
1F
100
AcDbEntity
  8
0-2
  6
Continuous
 62
     3
370
     9
100
AcDbCircle
 10
-1.20191538127522
 20
175.8307916672542
 30
0.0
 40
2.000000018410701
100
AcDbArc
 50
270.0
 51
0.0
  0
ARC
  5
1C9
330
1F
100
AcDbEntity
  8
0-2
  6
Continuous
 62
     3
370
     9
100
AcDbCircle
 10
-1.20191538127522
 20
181.830522311333
 30
0.0
 40
2.000000018410701
100
AcDbArc
 50
0.0
 51
90.0
  0
ARC
  5
1CA
330
1F
100
AcDbEntity
  8
0-2
  6
Continuous
 62
     3
370
     9
100
AcDbCircle
 10
-1.20191538127522
 20
193.8305781620357
 30
0.0
 40
2.000000018410701
100
AcDbArc
 50
270.0
 51
0.0
  0
ARC
  5
1CB
330
1F
100
AcDbEntity
  8
0-2
  6
Continuous
 62
     3
370
     9
100
AcDbCircle
 10
-1.20191538127522
 20
199.8305069936297
 30
0.0
 40
2.000000018410701
100
AcDbArc
 50
0.0
 51
58.5144500732422
  0
ARC
  5
1CC
330
1F
100
AcDbEntity
  8
0-2
  6
Continuous
 62
     3
370
     9
100
AcDbCircle
 10
-18.19149056480489
 20
205.8306340127386
 30
0.0
 40
10.0000000920535
100
AcDbArc
 50
276.870361328125
 51
83.13005065917972
  0
ARC
  5
1CD
330
1F
100
AcDbEntity
  8
0-2
  6
Continuous
 62
     3
370
     9
100
AcDbCircle
 10
44.80870355762734
 20
135.3305783976928
 30
0.0
 40
3.000000027616052
100
AcDbArc
 50
270.0
 51
0.0
  0
ARC
  5
1CE
330
1F
100
AcDbEntity
  8
0-A
  6
Continuous
 62
     2
370
     9
100
AcDbCircle
 10
-39.59138206833408
 20
205.8306340127386
 30
0.0
 40
10.0000000920535
100
AcDbArc
 50
323.130126953125
 51
357.2540893554688
  0
ARC
  5
1CF
330
1F
100
AcDbEntity
  8
0-2
  6
Continuous
 62
     3
370
     9
100
AcDbCircle
 10
39.4446593681742
 20
211.8307610318476
 30
0.0
 40
2.000000018410701
100
AcDbArc
 50
270.0
 51
0.0
  0
ARC
  5
1D0
330
1F
100
AcDbEntity
  8
0-2
  6
Continuous
 62
     3
370
     9
100
AcDbCircle
 10
39.4446593681742
 20
217.8306898634414
 30
0.0
 40
2.000000018410701
100
AcDbArc
 50
0.0
 51
90.0
  0
ARC
  5
1D1
330
1F
100
AcDbEntity
  8
0-2
  6
Continuous
 62
     3
370
     9
100
AcDbCircle
 10
1.273149400826875
 20
217.8306898634414
 30
0.0
 40
2.000000018410701
100
AcDbArc
 50
0.0
 51
90.0
  0
ARC
  5
1D2
330
1F
100
AcDbEntity
  8
0-2
  6
Continuous
 62
     3
370
     9
100
AcDbCircle
 10
1.273149400826875
 20
211.8307610318476
 30
0.0
 40
2.000000018410701
100
AcDbArc
 50
270.0
 51
0.0
  0
ARC
  5
1D3
330
1F
100
AcDbEntity
  8
0-2
  6
Continuous
 62
     3
370
     9
100
AcDbCircle
 10
12.34420127458265
 20
211.8307610318476
 30
0.0
 40
2.000000018410701
100
AcDbArc
 50
180.0
 51
270.0
  0
ARC
  5
1D4
330
1F
100
AcDbEntity
  8
0-2
  6
Continuous
 62
     3
370
     9
100
AcDbCircle
 10
12.34420127458265
 20
217.8306898634414
 30
0.0
 40
2.000000018410701
100
AcDbArc
 50
90.0
 51
180.0
  0
ARC
  5
1D5
330
1F
100
AcDbEntity
  8
0-2
  6
Continuous
 62
     3
370
     9
100
AcDbCircle
 10
-2.191564737837431
 20
217.8306898634414
 30
0.0
 40
2.000000018410701
100
AcDbArc
 50
90.0
 51
216.8700408935547
  0
ARC
  5
1D6
330
1F
100
AcDbEntity
  8
0-2
  6
Continuous
 62
     3
370
     9
100
AcDbCircle
 10
0.8873774027196726
 20
211.8307610318476
 30
0.0
 40
2.000000018410701
100
AcDbArc
 50
197.4579620361328
 51
270.0
  0
ARC
  5
1D7
330
1F
100
AcDbEntity
  8
0-2
  6
Continuous
 62
     3
370
     9
100
AcDbCircle
 10
-18.19149056480489
 20
205.8306340127386
 30
0.0
 40
18.00000016569631
100
AcDbArc
 50
17.45765686035156
 51
36.86990356445312
  0
ARC
  5
1D8
330
1F
100
AcDbEntity
  8
0-2
  6
Continuous
 62
     3
370
     9
100
AcDbCircle
 10
36.96979277358724
 20
211.8307610318476
 30
0.0
 40
2.000000018410701
100
AcDbArc
 50
270.0
 51
0.0
  0
ARC
  5
1D9
330
1F
100
AcDbEntity
  8
0-2
  6
Continuous
 62
     3
370
     9
100
AcDbCircle
 10
36.96979277358724
 20
217.8306898634414
 30
0.0
 40
2.000000018410701
100
AcDbArc
 50
0.0
 51
90.0
  0
ARC
  5
1DA
330
1F
100
AcDbEntity
  8
0-2
  6
Continuous
 62
     3
370
     9
100
AcDbCircle
 10
-1.20191538127522
 20
217.8306898634414
 30
0.0
 40
2.000000018410701
100
AcDbArc
 50
0.0
 51
90.0
  0
ARC
  5
1DB
330
1F
100
AcDbEntity
  8
0-2
  6
Continuous
 62
     3
370
     9
100
AcDbCircle
 10
-1.20191538127522
 20
211.8307610318476
 30
0.0
 40
2.000000018410701
100
AcDbArc
 50
301.4855499267578
 51
0.0000000000000127
  0
ARC
  5
1DC
330
1F
100
AcDbEntity
  8
0-A
  6
Continuous
 62
     2
370
     9
100
AcDbCircle
 10
-39.59138206833408
 20
205.8306340127386
 30
0.0
 40
10.0000000920535
100
AcDbArc
 50
2.745071411132812
 51
36.86935424804687
  0
ARC
  5
1DD
330
1F
100
AcDbEntity
  8
0-1
  6
Continuous
 62
     6
370
     5
100
AcDbCircle
 10
61.80898086697148
 20
78.33085812252078
 30
0.0
 40
10.0000000920535
100
AcDbArc
 50
270.0
 51
0.0
  0
ARC
  5
1DE
330
1F
100
AcDbEntity
  8
0-1
  6
Continuous
 62
     6
370
     5
100
AcDbCircle
 10
61.80898086697148
 20
77.3310021089319
 30
0.0
 40
10.0000000920535
100
AcDbArc
 50
270.0
 51
0.0
  0
ARC
  5
1DF
330
1F
100
AcDbEntity
  8
0-1
  6
Continuous
 62
     6
370
     5
100
AcDbCircle
 10
57.67102373957341
 20
78.83088522307287
 30
0.0
 40
5.000000046026752
100
AcDbArc
 50
270.0
 51
0.0
  0
ARC
  5
1E0
330
1F
100
AcDbEntity
  8
0-1
  6
Continuous
 62
     6
370
     5
100
AcDbCircle
 10
61.80888177321395
 20
77.3310021089319
 30
0.0
 40
5.000000046026752
100
AcDbArc
 50
270.0
 51
0.0
  0
ARC
  5
1E1
330
1F
100
AcDbEntity
  8
0-1
  6
Continuous
 62
     6
370
     5
100
AcDbCircle
 10
50.30905121057816
 20
131.3308570620644
 30
0.0
 40
2.000000018410701
100
AcDbArc
 50
270.0
 51
0.0
  0
ARC
  5
1E2
330
1F
100
AcDbEntity
  8
0-1
  6
Continuous
 62
     6
370
     5
100
AcDbCircle
 10
54.7367584850262
 20
126.330883337817
 30
0.0
 40
2.000000018410701
100
AcDbArc
 50
270.0
 51
0.0
  0
ARC
  5
1E3
330
1F
100
AcDbEntity
  8
0-1
  6
Continuous
 62
     6
370
     5
100
AcDbCircle
 10
-39.19124147538342
 20
126.2379333932436
 30
0.0
 40
2.000000018410701
100
AcDbArc
 50
272.726318359375
 51
0.0000000000000254
  0
ARC
  5
1E4
330
1F
100
AcDbEntity
  8
0-1
  6
Continuous
 62
     6
370
     5
100
AcDbCircle
 10
41.96674413822956
 20
131.9040153556817
 30
0.0
 40
2.000000018410701
100
AcDbArc
 50
270.0
 51
0.0
  0
ARC
  5
1E5
330
1F
100
AcDbEntity
  8
0-1
  6
Continuous
 62
     6
370
     5
100
AcDbCircle
 10
-60.19124012035586
 20
70.09656324589196
 30
0.0
 40
2.000000018410701
100
AcDbArc
 50
277.1239624023437
 51
0.0
  0
ARC
  5
1E6
330
1F
100
AcDbEntity
  8
0-0
  6
Continuous
 62
     4
370
     9
100
AcDbCircle
 10
100.8874464502131
 20
46.33090737482837
 30
0.0
 40
9.000000082848155
100
AcDbArc
 50
270.0
 51
0.0
  0
ARC
  5
1E7
330
1F
100
AcDbEntity
  8
0-0
  6
Continuous
 62
     4
370
     9
100
AcDbCircle
 10
100.8874959970918
 20
46.33090737482837
 30
0.0
 40
10.0000000920535
100
AcDbArc
 50
270.0
 51
0.0
  0
ARC
  5
1E8
330
1F
100
AcDbEntity
  8
0-0
  6
Continuous
 62
     4
370
     9
100
AcDbCircle
 10
100.8874959970918
 20
44.8310242606874
 30
0.0
 40
10.0000000920535
100
AcDbArc
 50
270.0
 51
0.0
  0
ARC
  5
1E9
330
1F
100
AcDbEntity
  8
0-0
  6
Continuous
 62
     4
370
     9
100
AcDbCircle
 10
-71.1125117795883
 20
38.07679374669135
 30
0.0
 40
2.000000018410701
100
AcDbArc
 50
277.7651672363282
 51
0.0000000000000382
  0
ARC
  5
1EA
330
1F
100
AcDbEntity
  8
0-2
  6
Continuous
 62
     3
370
     9
100
AcDbCircle
 10
-25.82755642715857
 20
229.8311420891744
 30
0.0
 40
2.000000018410701
100
AcDbArc
 50
180.0
 51
270.0
  0
ARC
  5
1EB
330
1F
100
AcDbEntity
  8
0-2
  6
Continuous
 62
     3
370
     9
100
AcDbCircle
 10
-25.82755642715857
 20
235.8308727332532
 30
0.0
 40
2.000000018410701
100
AcDbArc
 50
90.0
 51
180.0
  0
ARC
  5
1EC
330
1F
100
AcDbEntity
  8
0-2
  6
Continuous
 62
     3
370
     9
100
AcDbCircle
 10
-25.82755642715857
 20
247.8310276777136
 30
0.0
 40
2.000000018410701
100
AcDbArc
 50
180.0
 51
270.0
  0
ARC
  5
1ED
330
1F
100
AcDbEntity
  8
0-2
  6
Continuous
 62
     3
370
     9
100
AcDbCircle
 10
-25.82755642715857
 20
254.3309836098595
 30
0.0
 40
2.000000018410701
100
AcDbArc
 50
90.0
 51
180.0
  0
ARC
  5
1EE
330
1F
100
AcDbEntity
  8
0-2
  6
Continuous
 62
     3
370
     9
100
AcDbCircle
 10
39.4446593681742
 20
229.8311420891744
 30
0.0
 40
2.000000018410701
100
AcDbArc
 50
270.0
 51
0.0
  0
ARC
  5
1EF
330
1F
100
AcDbEntity
  8
0-2
  6
Continuous
 62
     3
370
     9
100
AcDbCircle
 10
39.4446593681742
 20
235.8308727332532
 30
0.0
 40
2.000000018410701
100
AcDbArc
 50
0.0
 51
90.0
  0
ARC
  5
1F0
330
1F
100
AcDbEntity
  8
0-2
  6
Continuous
 62
     3
370
     9
100
AcDbCircle
 10
39.4446593681742
 20
247.8310276777136
 30
0.0
 40
2.000000018410701
100
AcDbArc
 50
270.0
 51
0.0
  0
ARC
  5
1F1
330
1F
100
AcDbEntity
  8
0-2
  6
Continuous
 62
     3
370
     9
100
AcDbCircle
 10
39.4446593681742
 20
254.3309836098595
 30
0.0
 40
2.000000018410701
100
AcDbArc
 50
0.0
 51
90.0
  0
ARC
  5
1F2
330
1F
100
AcDbEntity
  8
0-2
  6
Continuous
 62
     3
370
     9
100
AcDbCircle
 10
12.34420127458265
 20
254.3309836098595
 30
0.0
 40
2.000000018410701
100
AcDbArc
 50
90.0
 51
180.0
  0
ARC
  5
1F3
330
1F
100
AcDbEntity
  8
0-2
  6
Continuous
 62
     3
370
     9
100
AcDbCircle
 10
12.34420127458265
 20
247.8310276777136
 30
0.0
 40
2.000000018410701
100
AcDbArc
 50
180.0
 51
270.0
  0
ARC
  5
1F4
330
1F
100
AcDbEntity
  8
0-2
  6
Continuous
 62
     3
370
     9
100
AcDbCircle
 10
1.273149400826875
 20
247.8310276777136
 30
0.0
 40
2.000000018410701
100
AcDbArc
 50
270.0
 51
0.0
  0
ARC
  5
1F5
330
1F
100
AcDbEntity
  8
0-2
  6
Continuous
 62
     3
370
     9
100
AcDbCircle
 10
1.273149400826875
 20
254.3309836098595
 30
0.0
 40
2.000000018410701
100
AcDbArc
 50
0.0
 51
90.0
  0
ARC
  5
1F6
330
1F
100
AcDbEntity
  8
0-2
  6
Continuous
 62
     3
370
     9
100
AcDbCircle
 10
1.273149400826875
 20
235.8308727332532
 30
0.0
 40
2.000000018410701
100
AcDbArc
 50
0.0
 51
90.0
  0
ARC
  5
1F7
330
1F
100
AcDbEntity
  8
0-2
  6
Continuous
 62
     3
370
     9
100
AcDbCircle
 10
1.273149400826875
 20
229.8311420891744
 30
0.0
 40
2.000000018410701
100
AcDbArc
 50
270.0
 51
0.0
  0
ARC
  5
1F8
330
1F
100
AcDbEntity
  8
0-2
  6
Continuous
 62
     3
370
     9
100
AcDbCircle
 10
12.34420127458265
 20
229.8311420891744
 30
0.0
 40
2.000000018410701
100
AcDbArc
 50
180.0
 51
270.0
  0
ARC
  5
1F9
330
1F
100
AcDbEntity
  8
0-2
  6
Continuous
 62
     3
370
     9
100
AcDbCircle
 10
12.34420127458265
 20
235.8308727332532
 30
0.0
 40
2.000000018410701
100
AcDbArc
 50
90.0
 51
180.0
  0
ARC
  5
1FA
330
1F
100
AcDbEntity
  8
0-2
  6
Continuous
 62
     3
370
     9
100
AcDbCircle
 10
36.96979277358724
 20
229.8311420891744
 30
0.0
 40
2.000000018410701
100
AcDbArc
 50
270.0
 51
0.0
  0
ARC
  5
1FB
330
1F
100
AcDbEntity
  8
0-2
  6
Continuous
 62
     3
370
     9
100
AcDbCircle
 10
36.96979277358724
 20
235.8308727332532
 30
0.0
 40
2.000000018410701
100
AcDbArc
 50
0.0
 51
90.0
  0
ARC
  5
1FC
330
1F
100
AcDbEntity
  8
0-2
  6
Continuous
 62
     3
370
     9
100
AcDbCircle
 10
36.96979277358724
 20
247.8310276777136
 30
0.0
 40
2.000000018410701
100
AcDbArc
 50
270.0
 51
0.0
  0
ARC
  5
1FD
330
1F
100
AcDbEntity
  8
0-2
  6
Continuous
 62
     3
370
     9
100
AcDbCircle
 10
36.96979277358724
 20
254.3309836098595
 30
0.0
 40
2.000000018410701
100
AcDbArc
 50
0.0
 51
90.0
  0
ARC
  5
1FE
330
1F
100
AcDbEntity
  8
0-2
  6
Continuous
 62
     3
370
     9
100
AcDbCircle
 10
-1.20191538127522
 20
247.8310276777136
 30
0.0
 40
2.000000018410701
100
AcDbArc
 50
270.0
 51
0.0
  0
ARC
  5
1FF
330
1F
100
AcDbEntity
  8
0-2
  6
Continuous
 62
     3
370
     9
100
AcDbCircle
 10
-1.20191538127522
 20
254.3309836098595
 30
0.0
 40
2.000000018410701
100
AcDbArc
 50
0.0
 51
90.0
  0
ARC
  5
200
330
1F
100
AcDbEntity
  8
0-2
  6
Continuous
 62
     3
370
     9
100
AcDbCircle
 10
-1.20191538127522
 20
235.8308727332532
 30
0.0
 40
2.000000018410701
100
AcDbArc
 50
0.0
 51
90.0
  0
ARC
  5
201
330
1F
100
AcDbEntity
  8
0-2
  6
Continuous
 62
     3
370
     9
100
AcDbCircle
 10
-1.20191538127522
 20
229.8311420891744
 30
0.0
 40
2.000000018410701
100
AcDbArc
 50
270.0
 51
0.0
  0
ARC
  5
202
330
1F
100
AcDbEntity
  8
0-2
  6
Continuous
 62
     3
370
     9
100
AcDbCircle
 10
44.80870355762734
 20
276.3310860028146
 30
0.0
 40
3.000000027616052
100
AcDbArc
 50
0.0
 51
90.0
  0
ARC
  5
203
330
1F
100
AcDbEntity
  8
0-1
  6
Continuous
 62
     6
370
     5
100
AcDbCircle
 10
61.80898086697148
 20
333.3308062779866
 30
0.0
 40
10.0000000920535
100
AcDbArc
 50
0.0
 51
90.0
  0
ARC
  5
204
330
1F
100
AcDbEntity
  8
0-1
  6
Continuous
 62
     6
370
     5
100
AcDbCircle
 10
61.80898086697148
 20
334.3306622915754
 30
0.0
 40
10.0000000920535
100
AcDbArc
 50
0.0
 51
90.0
  0
ARC
  5
205
330
1F
100
AcDbEntity
  8
0-1
  6
Continuous
 62
     6
370
     5
100
AcDbCircle
 10
57.67102373957341
 20
332.8307791774346
 30
0.0
 40
5.000000046026752
100
AcDbArc
 50
0.0
 51
90.0
  0
ARC
  5
206
330
1F
100
AcDbEntity
  8
0-1
  6
Continuous
 62
     6
370
     5
100
AcDbCircle
 10
61.80888177321395
 20
334.3306622915754
 30
0.0
 40
5.000000046026752
100
AcDbArc
 50
0.0
 51
90.0
  0
ARC
  5
207
330
1F
100
AcDbEntity
  8
0-1
  6
Continuous
 62
     6
370
     5
100
AcDbCircle
 10
50.30905121057816
 20
280.3308073384429
 30
0.0
 40
2.000000018410701
100
AcDbArc
 50
0.0
 51
90.0
  0
ARC
  5
208
330
1F
100
AcDbEntity
  8
0-1
  6
Continuous
 62
     6
370
     5
100
AcDbCircle
 10
54.7367584850262
 20
285.3307810626903
 30
0.0
 40
2.000000018410701
100
AcDbArc
 50
0.0
 51
90.0
  0
ARC
  5
209
330
1F
100
AcDbEntity
  8
0-1
  6
Continuous
 62
     6
370
     5
100
AcDbCircle
 10
-39.19124147538342
 20
285.4237310072638
 30
0.0
 40
2.000000018410701
100
AcDbArc
 50
0.0
 51
87.273681640625
  0
ARC
  5
20A
330
1F
100
AcDbEntity
  8
0-1
  6
Continuous
 62
     6
370
     5
100
AcDbCircle
 10
41.96674413822956
 20
279.7576490448256
 30
0.0
 40
2.000000018410701
100
AcDbArc
 50
0.0
 51
90.0
  0
ARC
  5
20B
330
1F
100
AcDbEntity
  8
0-1
  6
Continuous
 62
     6
370
     5
100
AcDbCircle
 10
-60.19124012035586
 20
341.5651011546154
 30
0.0
 40
2.000000018410701
100
AcDbArc
 50
0.0
 51
82.87603759765626
  0
ARC
  5
20C
330
1F
100
AcDbEntity
  8
0-0
  6
Continuous
 62
     4
370
     9
100
AcDbCircle
 10
100.8874464502131
 20
365.330757025679
 30
0.0
 40
9.000000082848155
100
AcDbArc
 50
0.0
 51
90.0
  0
ARC
  5
20D
330
1F
100
AcDbEntity
  8
0-0
  6
Continuous
 62
     4
370
     9
100
AcDbCircle
 10
100.8874959970918
 20
365.330757025679
 30
0.0
 40
10.0000000920535
100
AcDbArc
 50
0.0
 51
90.0
  0
ARC
  5
20E
330
1F
100
AcDbEntity
  8
0-0
  6
Continuous
 62
     4
370
     9
100
AcDbCircle
 10
100.8874959970918
 20
366.8306401398199
 30
0.0
 40
10.0000000920535
100
AcDbArc
 50
0.0
 51
90.0
  0
ARC
  5
20F
330
1F
100
AcDbEntity
  8
0-0
  6
Continuous
 62
     4
370
     9
100
AcDbCircle
 10
-71.1125117795883
 20
373.5848706538161
 30
0.0
 40
2.000000018410701
100
AcDbArc
 50
0.0
 51
82.23483276367188
  0
LINE
  5
210
330
1F
100
AcDbEntity
  8
0-8
  6
Continuous
 62
     3
370
     9
100
AcDbLine
 10
-90.11274885050408
 20
73.00595596729634
 30
0.0
 11
-90.11274885050408
 21
66.65607753094638
 31
0.0
  0
LINE
  5
211
330
1F
100
AcDbEntity
  8
0-8
  6
Continuous
 62
     3
370
     9
100
AcDbLine
 10
-90.11274885050408
 20
67.47092549920625
 30
0.0
 11
-88.11273954205363
 21
67.47092549920625
 31
0.0
  0
LINE
  5
212
330
1F
100
AcDbEntity
  8
0-8
  6
Continuous
 62
     3
370
     9
100
AcDbLine
 10
-90.11274885050408
 20
72.19086026464265
 30
0.0
 11
-88.11273954205363
 21
72.19086026464265
 31
0.0
  0
LINE
  5
213
330
1F
100
AcDbEntity
  8
0-8
  6
Continuous
 62
     3
370
     9
100
AcDbLine
 10
-90.11274885050408
 20
73.00595596729634
 30
0.0
 11
-88.11273954205363
 21
73.00595596729634
 31
0.0
  0
LINE
  5
214
330
1F
100
AcDbEntity
  8
0-8
  6
Continuous
 62
     3
370
     9
100
AcDbLine
 10
-90.11274885050408
 20
66.65607753094638
 30
0.0
 11
-88.11273954205363
 21
66.65607753094638
 31
0.0
  0
LINE
  5
215
330
1F
100
AcDbEntity
  8
0-8
  6
Continuous
 62
     3
370
     9
100
AcDbLine
 10
-108.1127335328008
 20
72.83105548523645
 30
0.0
 11
-90.11274885050408
 21
72.83105548523645
 31
0.0
  0
LINE
  5
216
330
1F
100
AcDbEntity
  8
0-8
  6
Continuous
 62
     3
370
     9
100
AcDbLine
 10
-108.1127335328008
 20
66.8309780130063
 30
0.0
 11
-90.11274885050408
 21
66.8309780130063
 31
0.0
  0
LINE
  5
217
330
1F
100
AcDbEntity
  8
0-8
  6
JWW_CENTER1
 62
     3
370
     9
100
AcDbLine
 10
-108.1127335328008
 20
65.15396480726075
 30
0.0
 11
-108.1127335328008
 21
74.75575353795578
 31
0.0
  0
LINE
  5
218
330
1F
100
AcDbEntity
  8
0-8
  6
Continuous
 62
     3
370
     9
100
AcDbLine
 10
-90.11274885050408
 20
338.655708433211
 30
0.0
 11
-90.11274885050408
 21
345.0055373226822
 31
0.0
  0
LINE
  5
219
330
1F
100
AcDbEntity
  8
0-8
  6
Continuous
 62
     3
370
     9
100
AcDbLine
 10
-90.11274885050408
 20
344.1907884481799
 30
0.0
 11
-88.11273954205363
 21
344.1907884481799
 31
0.0
  0
LINE
  5
21A
330
1F
100
AcDbEntity
  8
0-8
  6
Continuous
 62
     3
370
     9
100
AcDbLine
 10
-90.11274885050408
 20
339.4707545889859
 30
0.0
 11
-88.11273954205363
 21
339.4707545889859
 31
0.0
  0
LINE
  5
21B
330
1F
100
AcDbEntity
  8
0-8
  6
Continuous
 62
     3
370
     9
100
AcDbLine
 10
-90.11274885050408
 20
338.655708433211
 30
0.0
 11
-88.11273954205363
 21
338.655708433211
 31
0.0
  0
LINE
  5
21C
330
1F
100
AcDbEntity
  8
0-8
  6
Continuous
 62
     3
370
     9
100
AcDbLine
 10
-90.11274885050408
 20
345.0055373226822
 30
0.0
 11
-88.11273954205363
 21
345.0055373226822
 31
0.0
  0
LINE
  5
21D
330
1F
100
AcDbEntity
  8
0-8
  6
Continuous
 62
     3
370
     9
100
AcDbLine
 10
-108.1127335328008
 20
338.8306089152709
 30
0.0
 11
-90.11274885050408
 21
338.8306089152709
 31
0.0
  0
LINE
  5
21E
330
1F
100
AcDbEntity
  8
0-8
  6
Continuous
 62
     3
370
     9
100
AcDbLine
 10
-108.1127335328008
 20
344.8307359343798
 30
0.0
 11
-90.11274885050408
 21
344.8307359343798
 31
0.0
  0
LINE
  5
21F
330
1F
100
AcDbEntity
  8
0-8
  6
JWW_CENTER1
 62
     3
370
     9
100
AcDbLine
 10
-108.1127335328008
 20
346.5076995932466
 30
0.0
 11
-108.1127335328008
 21
336.9059108625516
 31
0.0
  0
CIRCLE
  5
220
330
1F
100
AcDbEntity
  8
0-8
  6
Continuous
 62
     3
370
     9
100
AcDbCircle
 10
-108.1127335328008
 20
69.83099197568197
 30
0.0
 40
3.000063509554476
  0
CIRCLE
  5
221
330
1F
100
AcDbEntity
  8
0-8
  6
Continuous
 62
     3
370
     9
100
AcDbCircle
 10
-108.1127335328008
 20
341.8306724248254
 30
0.0
 40
3.000063509554476
  0
LINE
  5
222
330
1F
100
AcDbEntity
  8
0-4
  6
Continuous
 62
     7
370
     9
100
AcDbLine
 10
136.8028392927452
 20
132.3306139818958
 30
0.0
 11
136.8028392927452
 21
279.3310504186115
 31
0.0
  0
LINE
  5
223
330
1F
100
AcDbEntity
  8
0-4
  6
Continuous
 62
     7
370
     9
100
AcDbLine
 10
48.80872217452833
 20
132.3306139818958
 30
0.0
 11
137.402851994656
 21
132.3306139818958
 31
0.0
  0
LINE
  5
224
330
1F
100
AcDbEntity
  8
0-4
  6
Continuous
 62
     7
370
     9
100
AcDbLine
 10
48.80872217452833
 20
279.3310504186115
 30
0.0
 11
137.402851994656
 21
279.3310504186115
 31
0.0
  0
LINE
  5
225
330
1F
100
AcDbEntity
  8
0-4
  6
Continuous
 62
     7
370
     9
100
AcDbLine
 10
136.8028392927452
 20
132.3306139818958
 30
0.0
 11
136.0197013268984
 21
138.2792617939621
 31
0.0
  0
LINE
  5
226
330
1F
100
AcDbEntity
  8
0-4
  6
Continuous
 62
     7
370
     9
100
AcDbLine
 10
136.8028392927452
 20
132.3306139818958
 30
0.0
 11
137.5859772585919
 21
138.2792617939621
 31
0.0
  0
LINE
  5
227
330
1F
100
AcDbEntity
  8
0-4
  6
Continuous
 62
     7
370
     9
100
AcDbLine
 10
136.8028392927452
 20
279.3310504186115
 30
0.0
 11
136.0197013268984
 21
273.3823530596664
 31
0.0
  0
LINE
  5
228
330
1F
100
AcDbEntity
  8
0-4
  6
Continuous
 62
     7
370
     9
100
AcDbLine
 10
136.8028392927452
 20
279.3310504186115
 30
0.0
 11
137.5859772585919
 21
273.3823530596664
 31
0.0
  0
LINE
  5
229
330
1F
100
AcDbEntity
  8
0-4
  6
Continuous
 62
     7
370
     9
100
AcDbLine
 10
156.4610589137333
 20
67.33100511355826
 30
0.0
 11
156.4610589137333
 21
344.3307088338278
 31
0.0
  0
LINE
  5
22A
330
1F
100
AcDbEntity
  8
0-4
  6
Continuous
 62
     7
370
     9
100
AcDbLine
 10
65.80899948387236
 20
67.33100511355826
 30
0.0
 11
157.0610716156443
 21
67.33100511355826
 31
0.0
  0
LINE
  5
22B
330
1F
100
AcDbEntity
  8
0-4
  6
Continuous
 62
     7
370
     9
100
AcDbLine
 10
65.80899948387236
 20
344.3307088338278
 30
0.0
 11
157.0610716156443
 21
344.3307088338278
 31
0.0
  0
LINE
  5
22C
330
1F
100
AcDbEntity
  8
0-4
  6
Continuous
 62
     7
370
     9
100
AcDbLine
 10
156.4610589137333
 20
67.33100511355826
 30
0.0
 11
155.6779209478867
 21
73.27965292562463
 31
0.0
  0
LINE
  5
22D
330
1F
100
AcDbEntity
  8
0-4
  6
Continuous
 62
     7
370
     9
100
AcDbLine
 10
156.4610589137333
 20
67.33100511355826
 30
0.0
 11
157.24419687958
 21
73.27965292562463
 31
0.0
  0
LINE
  5
22E
330
1F
100
AcDbEntity
  8
0-4
  6
Continuous
 62
     7
370
     9
100
AcDbLine
 10
156.4610589137333
 20
344.3307088338278
 30
0.0
 11
155.6779209478867
 21
338.3820114748827
 31
0.0
  0
LINE
  5
22F
330
1F
100
AcDbEntity
  8
0-4
  6
Continuous
 62
     7
370
     9
100
AcDbLine
 10
156.4610589137333
 20
344.3307088338278
 30
0.0
 11
157.24419687958
 21
338.3820114748827
 31
0.0
  0
LINE
  5
230
330
1F
100
AcDbEntity
  8
0-4
  6
Continuous
 62
     7
370
     9
100
AcDbLine
 10
180.667582912097
 20
34.83097771843507
 30
0.0
 11
180.667582912097
 21
376.8306866820723
 31
0.0
  0
LINE
  5
231
330
1F
100
AcDbEntity
  8
0-4
  6
Continuous
 62
     7
370
     9
100
AcDbLine
 10
104.8875146139928
 20
34.83097771843507
 30
0.0
 11
181.2675956140078
 21
34.83097771843507
 31
0.0
  0
LINE
  5
232
330
1F
100
AcDbEntity
  8
0-4
  6
Continuous
 62
     7
370
     9
100
AcDbLine
 10
104.8875146139928
 20
376.8306866820723
 30
0.0
 11
181.2675956140078
 21
376.8306866820723
 31
0.0
  0
LINE
  5
233
330
1F
100
AcDbEntity
  8
0-4
  6
Continuous
 62
     7
370
     9
100
AcDbLine
 10
180.667582912097
 20
34.83097771843507
 30
0.0
 11
179.8844449462502
 21
40.77962553050145
 31
0.0
  0
LINE
  5
234
330
1F
100
AcDbEntity
  8
0-4
  6
Continuous
 62
     7
370
     9
100
AcDbLine
 10
180.667582912097
 20
34.83097771843507
 30
0.0
 11
181.4507208779436
 21
40.77962553050145
 31
0.0
  0
LINE
  5
235
330
1F
100
AcDbEntity
  8
0-4
  6
Continuous
 62
     7
370
     9
100
AcDbLine
 10
180.667582912097
 20
376.8306866820723
 30
0.0
 11
179.8844449462502
 21
370.8819893231271
 31
0.0
  0
LINE
  5
236
330
1F
100
AcDbEntity
  8
0-4
  6
Continuous
 62
     7
370
     9
100
AcDbLine
 10
180.667582912097
 20
376.8306866820723
 30
0.0
 11
181.4507208779436
 21
370.8819893231271
 31
0.0
  0
TEXT
  5
237
330
1F
100
AcDbEntity
  8
0-4
  6
Continuous
 62
     2
370
     9
100
AcDbText
 10
133.8355141646073
 20
195.9611599236126
 30
0.0
 40
9.144
  1
147
 50
90.0
 41
1.083333333333333
  7
ＭＳ ゴシック
100
AcDbText
  0
TEXT
  5
238
330
1F
100
AcDbEntity
  8
0-4
  6
Continuous
 62
     2
370
     9
100
AcDbText
 10
153.4129037925044
 20
195.9611599236126
 30
0.0
 40
9.144
  1
277
 50
90.0
 41
1.083333333333333
  7
ＭＳ ゴシック
100
AcDbText
  0
TEXT
  5
239
330
1F
100
AcDbEntity
  8
0-4
  6
Continuous
 62
     2
370
     9
100
AcDbText
 10
177.8210778740386
 20
195.9611599236126
 30
0.0
 40
9.144
  1
342
 50
90.0
 41
1.083333333333333
  7
ＭＳ ゴシック
100
AcDbText
  0
LINE
  5
23A
330
1F
100
AcDbEntity
  8
0-0
  6
Continuous
 62
     4
370
     9
100
AcDbLine
 10
-79.58205523661955
 20
-189.2816459777549
 30
0.0
 11
-81.56502041877296
 21
-189.3220762308316
 31
0.0
  0
LINE
  5
23B
330
1F
100
AcDbEntity
  8
0-0
  6
Continuous
 62
     4
370
     9
100
AcDbLine
 10
-77.74277600290064
 20
-280.2630930576822
 30
0.0
 11
-79.71226443402848
 21
-280.3032260294863
 31
0.0
  0
LINE
  5
23C
330
1F
100
AcDbEntity
  8
0-0
  6
Continuous
 62
     4
370
     9
100
AcDbLine
 10
-83.87192309432798
 20
-276.6515219703421
 30
0.0
 11
-83.61655848114479
 21
-277.4809367209604
 31
0.0
  0
LINE
  5
23D
330
1F
100
AcDbEntity
  8
0-0
  6
Continuous
 62
     4
370
     9
100
AcDbLine
 10
-85.57266925500458
 20
-193.1400596151297
 30
0.0
 11
-85.35129380065796
 21
-192.3009336762723
 31
0.0
  0
LINE
  5
23E
330
1F
100
AcDbEntity
  8
0-0
  6
Continuous
 62
     4
370
     9
100
AcDbLine
 10
-74.75836930703763
 20
-278.8329719488501
 30
0.0
 11
-76.5557318813167
 21
-190.5738285760898
 31
0.0
  0
LINE
  5
23F
330
1F
100
AcDbEntity
  8
0-0
  6
Continuous
 62
     4
370
     9
100
AcDbLine
 10
-69.11250247113786
 20
-285.5885897754519
 30
0.0
 11
-49.1125084803907
 21
-279.2302388228321
 31
0.0
  0
LINE
  5
240
330
1F
100
AcDbEntity
  8
0-0
  6
Continuous
 62
     4
370
     9
100
AcDbLine
 10
-70.11235848472676
 20
-185.5310463485847
 30
0.0
 11
-69.11250247113786
 21
-184.3393448203963
 31
0.0
  0
LINE
  5
241
330
1F
100
AcDbEntity
  8
0-0
  6
Continuous
 62
     4
370
     9
100
AcDbLine
 10
-70.11235848472676
 20
-185.5310463485847
 30
0.0
 11
-70.11235848472676
 21
-187.0310285564832
 31
0.0
  0
LINE
  5
242
330
1F
100
AcDbEntity
  8
0-0
  6
Continuous
 62
     4
370
     9
100
AcDbLine
 10
-70.11235848472676
 20
-187.0310285564832
 30
0.0
 11
-69.11250247113786
 21
-188.0310827575872
 31
0.0
  0
LINE
  5
243
330
1F
100
AcDbEntity
  8
0-0
  6
Continuous
 62
     4
370
     9
100
AcDbLine
 10
5.832651372804441
 20
-268.7355162429349
 30
0.0
 11
7.105609782176438
 21
-267.6674837241578
 31
0.0
  0
LINE
  5
244
330
1F
100
AcDbEntity
  8
0-0
  6
Continuous
 62
     4
370
     9
100
AcDbLine
 10
5.832651372804441
 20
-268.7355162429349
 30
0.0
 11
4.834034031184793
 21
-268.7877386531591
 31
0.0
  0
LINE
  5
245
330
1F
100
AcDbEntity
  8
0-2
  6
Continuous
 62
     3
370
     9
100
AcDbLine
 10
-35.19092557720988
 20
-155.9178182981466
 30
0.0
 11
-34.19097046986342
 21
-155.9178182981466
 31
0.0
  0
LINE
  5
246
330
1F
100
AcDbEntity
  8
0-2
  6
Continuous
 62
     3
370
     9
100
AcDbLine
 10
47.80871752030311
 20
-237.9181751711765
 30
0.0
 11
47.80871752030311
 21
-238.9180311847653
 31
0.0
  0
LINE
  5
247
330
1F
100
AcDbEntity
  8
0-2
  6
Continuous
 62
     3
370
     9
100
AcDbLine
 10
-12.29907846014304
 20
-186.7634010908042
 30
0.0
 11
-30.53698725429575
 21
-186.0619163811713
 31
0.0
  0
LINE
  5
248
330
1F
100
AcDbEntity
  8
0-2
  6
Continuous
 62
     3
370
     9
100
AcDbLine
 10
-6.147833460784049
 20
-189.5203876131106
 30
0.0
 11
-2.534181404535551
 21
-187.5747807775502
 31
0.0
  0
LINE
  5
249
330
1F
100
AcDbEntity
  8
0-2
  6
Continuous
 62
     3
370
     9
100
AcDbLine
 10
1.327601420595677
 20
-196.9958224944903
 30
0.0
 11
3.273505537428726
 21
-193.3822695319993
 31
0.0
  0
LINE
  5
24A
330
1F
100
AcDbEntity
  8
0-2
  6
Continuous
 62
     3
370
     9
100
AcDbLine
 10
-34.19097046986342
 20
-177.0686624155358
 30
0.0
 11
-34.19097046986342
 21
-155.9178182981466
 31
0.0
  0
LINE
  5
24B
330
1F
100
AcDbEntity
  8
0-2
  6
Continuous
 62
     3
370
     9
100
AcDbLine
 10
-2.677966446727559
 20
-187.6519748146746
 30
0.0
 11
-2.567377813311785
 21
-187.5416834625314
 31
0.0
  0
LINE
  5
24C
330
1F
100
AcDbEntity
  8
0-2
  6
Continuous
 62
     3
370
     9
100
AcDbLine
 10
-8.191047647522387
 20
-181.9178154408058
 30
0.0
 11
-30.34484445842366
 21
-181.0657082197105
 31
0.0
  0
LINE
  5
24D
330
1F
100
AcDbEntity
  8
0-A
  6
Continuous
 62
     2
370
     9
100
AcDbLine
 10
-31.59094845950203
 20
-164.9177115455374
 30
0.0
 11
-34.19097046986342
 21
-164.9177115455374
 31
0.0
  0
LINE
  5
24E
330
1F
100
AcDbEntity
  8
0-A
  6
Continuous
 62
     2
370
     9
100
AcDbLine
 10
-31.59094845950203
 20
-176.9174453415282
 30
0.0
 11
-34.19097046986342
 21
-176.9174453415282
 31
0.0
  0
LINE
  5
24F
330
1F
100
AcDbEntity
  8
0-A
  6
Continuous
 62
     2
370
     9
100
AcDbLine
 10
-31.59094845950203
 20
-171.3967339214028
 30
0.0
 11
-31.59094845950203
 21
-170.4386954734961
 31
0.0
  0
LINE
  5
250
330
1F
100
AcDbEntity
  8
0-A
  6
Continuous
 62
     2
370
     9
100
AcDbLine
 10
-46.19082813305117
 20
-167.9177502816525
 30
0.0
 11
-46.19082813305117
 21
-173.9178773007614
 31
0.0
  0
LINE
  5
251
330
1F
100
AcDbEntity
  8
0-A
  6
Continuous
 62
     2
370
     9
100
AcDbLine
 10
-34.19097046986342
 20
-164.9177115455374
 30
0.0
 11
-34.19097046986342
 21
-176.9174453415282
 31
0.0
  0
LINE
  5
252
330
1F
100
AcDbEntity
  8
0-A
  6
Continuous
 62
     2
370
     9
100
AcDbLine
 10
-29.60243402692634
 20
-170.4386954734961
 30
0.0
 11
-31.59094845950203
 21
-170.4386954734961
 31
0.0
  0
LINE
  5
253
330
1F
100
AcDbEntity
  8
0-A
  6
Continuous
 62
     2
370
     9
100
AcDbLine
 10
-29.60243402692634
 20
-171.3967339214028
 30
0.0
 11
-31.59094845950203
 21
-171.3967339214028
 31
0.0
  0
LINE
  5
254
330
1F
100
AcDbEntity
  8
0-2
  6
Continuous
 62
     3
370
     9
100
AcDbLine
 10
-39.19114238162591
 20
-161.2309282962236
 30
0.0
 11
-39.19114238162591
 21
-167.9177502816525
 31
0.0
  0
LINE
  5
255
330
1F
100
AcDbEntity
  8
0-2
  6
Continuous
 62
     3
370
     9
100
AcDbLine
 10
-5.931214506799328
 20
-232.8530968482246
 30
0.0
 11
14.32612597228189
 21
-211.5063195987374
 31
0.0
  0
LINE
  5
256
330
1F
100
AcDbEntity
  8
0-2
  6
Continuous
 62
     3
370
     9
100
AcDbLine
 10
8.130586063302026
 20
-205.3104824084849
 30
0.0
 11
-23.17412288148261
 21
-235.0177008879507
 31
0.0
  0
LINE
  5
257
330
1F
100
AcDbEntity
  8
0-2
  6
Continuous
 62
     3
370
     9
100
AcDbLine
 10
-29.1259416937903
 20
-209.6580228330822
 30
0.0
 11
-7.77931308493941
 21
-189.400682354001
 31
0.0
  0
LINE
  5
258
330
1F
100
AcDbEntity
  8
0-2
  6
Continuous
 62
     3
370
     9
100
AcDbLine
 10
-33.36720406342486
 20
-196.4135475751792
 30
0.0
 11
-23.79018877211518
 21
-186.3215420259288
 31
0.0
  0
LINE
  5
259
330
1F
100
AcDbEntity
  8
0-2
  6
Continuous
 62
     3
370
     9
100
AcDbLine
 10
27.25270845599329
 20
-237.9179769836614
 30
0.0
 11
37.92371883055586
 21
-237.9181751711765
 31
0.0
  0
LINE
  5
25A
330
1F
100
AcDbEntity
  8
0-2
  6
Continuous
 62
     3
370
     9
100
AcDbLine
 10
-3.755016497440912
 20
-237.9179769836614
 30
0.0
 11
5.248146843948697
 21
-237.9179769836614
 31
0.0
  0
LINE
  5
25B
330
1F
100
AcDbEntity
  8
0-2
  6
Continuous
 62
     3
370
     9
100
AcDbLine
 10
-34.19097046986342
 20
-207.4821221049964
 30
0.0
 11
-34.19097046986342
 21
-198.4787605760917
 31
0.0
  0
LINE
  5
25C
330
1F
100
AcDbEntity
  8
0-2
  6
Continuous
 62
     3
370
     9
100
AcDbLine
 10
-18.19129237728981
 20
-242.9180498016663
 30
0.0
 11
43.04171322003464
 21
-242.9180498016663
 31
0.0
  0
LINE
  5
25D
330
1F
100
AcDbEntity
  8
0-2
  6
Continuous
 62
     3
370
     9
100
AcDbLine
 10
5.748173944500714
 20
-202.9281693834412
 30
0.0
 11
10.34443970052605
 21
-200.4536000701268
 31
0.0
  0
LINE
  5
25E
330
1F
100
AcDbEntity
  8
0-2
  6
Continuous
 62
     3
370
     9
100
AcDbLine
 10
27.56752932370108
 20
-246.7123497779121
 30
0.0
 11
27.29100819328285
 21
-245.3297936726997
 31
0.0
  0
LINE
  5
25F
330
1F
100
AcDbEntity
  8
0-2
  6
Continuous
 62
     3
370
     9
100
AcDbLine
 10
36.53700078752679
 20
-247.9181226196712
 30
0.0
 11
29.03837796688248
 21
-247.9181226196712
 31
0.0
  0
LINE
  5
260
330
1F
100
AcDbEntity
  8
0-1
  6
Continuous
 62
     6
370
     5
100
AcDbLine
 10
-2.97306765668474
 20
-264.0826927247931
 30
0.0
 11
-3.190974829517407
 21
-263.8997656483724
 31
0.0
  0
LINE
  5
261
330
1F
100
AcDbEntity
  8
0-1
  6
Continuous
 62
     6
370
     5
100
AcDbLine
 10
-3.190974829517407
 20
-263.8997656483724
 30
0.0
 11
1.900611073576621
 21
-259.6273382919911
 31
0.0
  0
LINE
  5
262
330
1F
100
AcDbEntity
  8
0-1
  6
Continuous
 62
     6
370
     5
100
AcDbLine
 10
71.3050365583702
 20
-260.3920448189352
 30
0.0
 11
71.8090274092238
 21
-259.9692117555077
 31
0.0
  0
LINE
  5
263
330
1F
100
AcDbEntity
  8
0-1
  6
Continuous
 62
     6
370
     5
100
AcDbLine
 10
66.80895459121889
 20
-252.9705169416579
 30
0.0
 11
62.67109655757833
 21
-256.4426631121378
 31
0.0
  0
LINE
  5
264
330
1F
100
AcDbEntity
  8
0-1
  6
Continuous
 62
     6
370
     5
100
AcDbLine
 10
-65.48933741416543
 20
-118.3258333983385
 30
0.0
 11
-65.19116429772446
 21
-117.9705822775539
 31
0.0
  0
LINE
  5
265
330
1F
100
AcDbEntity
  8
0-1
  6
Continuous
 62
     6
370
     5
100
AcDbLine
 10
-58.1911812650266
 20
-137.9704771745436
 30
0.0
 11
-61.19114568082351
 21
-141.5457799466237
 31
0.0
  0
LINE
  5
266
330
1F
100
AcDbEntity
  8
0-1
  6
Continuous
 62
     6
370
     5
100
AcDbLine
 10
47.9175224660831
 20
-252.1629028176985
 30
0.0
 11
57.30903424327603
 21
-240.9705601847126
 31
0.0
  0
LINE
  5
267
330
1F
100
AcDbEntity
  8
0-1
  6
Continuous
 62
     6
370
     5
100
AcDbLine
 10
-66.19121849882849
 20
-217.1189900258609
 30
0.0
 11
-66.19121849882849
 21
-120.2541979200868
 31
0.0
  0
LINE
  5
268
330
1F
100
AcDbEntity
  8
0-A
  6
Continuous
 62
     2
370
     9
100
AcDbLine
 10
-35.92758857076984
 20
-250.0694480958869
 30
0.0
 11
-51.48431756713506
 21
-234.5131154745518
 31
0.0
  0
LINE
  5
269
330
1F
100
AcDbEntity
  8
0-A
  6
Continuous
 62
     2
370
     9
100
AcDbLine
 10
-52.61547280946586
 20
-235.6445679981552
 30
0.0
 11
-51.48431756713506
 21
-234.5131154745518
 31
0.0
  0
LINE
  5
26A
330
1F
100
AcDbEntity
  8
0-A
  6
Continuous
 62
     2
370
     9
100
AcDbLine
 10
-37.0591401881308
 20
-251.2009006194903
 30
0.0
 11
-35.92758857076984
 21
-250.0694480958869
 31
0.0
  0
LINE
  5
26B
330
1F
100
AcDbEntity
  8
0-A
  6
Continuous
 62
     2
370
     9
100
AcDbLine
 10
-50.21135915776312
 20
-235.7859747901663
 30
0.0
 11
-48.44352652323123
 21
-234.0180430618769
 31
0.0
  0
LINE
  5
26C
330
1F
100
AcDbEntity
  8
0-A
  6
Continuous
 62
     2
370
     9
100
AcDbLine
 10
-37.2006460738994
 20
-248.7966878740299
 30
0.0
 11
-35.43261525185243
 21
-247.0288552394981
 31
0.0
  0
LINE
  5
26D
330
1F
100
AcDbEntity
  8
0-A
  6
Continuous
 62
     2
370
     9
100
AcDbLine
 10
-40.3735290966054
 20
-232.039933473843
 30
0.0
 11
-45.39758260393528
 21
-237.0639869811728
 31
0.0
  0
LINE
  5
26E
330
1F
100
AcDbEntity
  8
0-A
  6
Continuous
 62
     2
370
     9
100
AcDbLine
 10
-33.45455521069731
 20
-238.9588578128723
 30
0.0
 11
-38.47865826490595
 21
-243.9829113202021
 31
0.0
  0
LINE
  5
26F
330
1F
100
AcDbEntity
  8
0-A
  6
Continuous
 62
     2
370
     9
100
AcDbLine
 10
-41.47609578988561
 20
-229.6720881374002
 30
0.0
 11
-31.0867594211333
 21
-240.0611767717586
 31
0.0
  0
LINE
  5
270
330
1F
100
AcDbEntity
  8
0-A
  6
Continuous
 62
     2
370
     9
100
AcDbLine
 10
-43.84399067320707
 20
-228.5698682722714
 30
0.0
 11
-48.8676478055068
 21
-233.5939217796013
 31
0.0
  0
LINE
  5
271
330
1F
100
AcDbEntity
  8
0-A
  6
Continuous
 62
     2
370
     9
100
AcDbLine
 10
-35.0083948758193
 20
-247.4533728968038
 30
0.0
 11
-48.8676478055068
 21
-233.5939217796013
 31
0.0
  0
LINE
  5
272
330
1F
100
AcDbEntity
  8
0-A
  6
Continuous
 62
     2
370
     9
100
AcDbLine
 10
-29.98434136848941
 20
-242.4290221082014
 30
0.0
 11
-35.0083948758193
 21
-247.4533728968038
 31
0.0
  0
LINE
  5
273
330
1F
100
AcDbEntity
  8
0-A
  6
Continuous
 62
     2
370
     9
100
AcDbLine
 10
-45.17303614934729
 20
-240.8241987048245
 30
0.0
 11
-43.40545124920929
 21
-239.0563660702926
 31
0.0
  0
LINE
  5
274
330
1F
100
AcDbEntity
  8
0-A
  6
Continuous
 62
     2
370
     9
100
AcDbLine
 10
-45.88036739067512
 20
-240.1170656510117
 30
0.0
 11
-44.11243566238572
 21
-238.349431203995
 31
0.0
  0
LINE
  5
275
330
1F
100
AcDbEntity
  8
0-1
  6
Continuous
 62
     6
370
     5
100
AcDbLine
 10
-65.48933741416543
 20
-204.4433129362434
 30
0.0
 11
-65.19126339148202
 21
-204.798564057028
 31
0.0
  0
LINE
  5
276
330
1F
100
AcDbEntity
  8
0-1
  6
Continuous
 62
     6
370
     5
100
AcDbLine
 10
-40.69122368328191
 20
-175.6006874913231
 30
0.0
 11
-65.19126339148202
 21
-204.798564057028
 31
0.0
  0
LINE
  5
277
330
1F
100
AcDbEntity
  8
0-1
  6
Continuous
 62
     6
370
     5
100
AcDbLine
 10
-61.41826857310757
 20
-233.9128054913683
 30
0.0
 11
-61.41826857310757
 21
-235.3270715989938
 31
0.0
  0
LINE
  5
278
330
1F
100
AcDbEntity
  8
0-1
  6
Continuous
 62
     6
370
     5
100
AcDbLine
 10
-35.25533651961153
 20
-260.0758366386218
 30
0.0
 11
-36.66960262723705
 21
-260.0758366386218
 31
0.0
  0
LINE
  5
279
330
1F
100
AcDbEntity
  8
0-1
  6
Continuous
 62
     6
370
     5
100
AcDbLine
 10
-49.75096956022752
 20
-223.6597725861137
 30
0.0
 11
-44.30626305213598
 21
-229.1045781879628
 31
0.0
  0
LINE
  5
27A
330
1F
100
AcDbEntity
  8
0-1
  6
Continuous
 62
     6
370
     5
100
AcDbLine
 10
-49.75096956022752
 20
-223.6597725861137
 30
0.0
 11
-61.41826857310757
 21
-233.9128054913683
 31
0.0
  0
LINE
  5
27B
330
1F
100
AcDbEntity
  8
0-1
  6
Continuous
 62
     6
370
     5
100
AcDbLine
 10
-30.44671284117583
 20
-242.9640293051654
 30
0.0
 11
-25.00210542684186
 21
-248.4086367194993
 31
0.0
  0
LINE
  5
27C
330
1F
100
AcDbEntity
  8
0-1
  6
Continuous
 62
     6
370
     5
100
AcDbLine
 10
-25.00210542684186
 20
-248.4086367194993
 30
0.0
 11
-35.25533651961153
 21
-260.0758366386218
 31
0.0
  0
LINE
  5
27D
330
1F
100
AcDbEntity
  8
0-1
  6
Continuous
 62
     6
370
     5
100
AcDbLine
 10
-46.6944226088746
 20
-226.7164186312241
 30
0.0
 11
-53.41198843258058
 21
-234.8480523750405
 31
0.0
  0
LINE
  5
27E
330
1F
100
AcDbEntity
  8
0-1
  6
Continuous
 62
     6
370
     5
100
AcDbLine
 10
-28.05875147195228
 20
-245.3520897681465
 30
0.0
 11
-36.19048430952618
 21
-252.0695564980949
 31
0.0
  0
LINE
  5
27F
330
1F
100
AcDbEntity
  8
0-1
  6
Continuous
 62
     6
370
     5
100
AcDbLine
 10
-57.65458856794196
 20
-230.6054522396791
 30
0.0
 11
-31.94778508040729
 21
-256.3122557272138
 31
0.0
  0
LINE
  5
280
330
1F
100
AcDbEntity
  8
0-1
  6
Continuous
 62
     6
370
     5
100
AcDbLine
 10
-55.40763761569927
 20
-226.4885029888798
 30
0.0
 11
-61.41584077604783
 21
-233.910922709975
 31
0.0
  0
LINE
  5
281
330
1F
100
AcDbEntity
  8
0-1
  6
Continuous
 62
     6
370
     5
100
AcDbLine
 10
-27.83073673585039
 20
-254.0653047749711
 30
0.0
 11
-35.25315645694563
 21
-260.073656575956
 31
0.0
  0
LINE
  5
282
330
1F
100
AcDbEntity
  8
0-1
  6
Continuous
 62
     6
370
     5
100
AcDbLine
 10
26.80896660972457
 20
-247.970642311168
 30
0.0
 11
13.65090110839737
 21
-259.0115696826313
 31
0.0
  0
LINE
  5
283
330
1F
100
AcDbEntity
  8
0-1
  6
Continuous
 62
     6
370
     5
100
AcDbLine
 10
-58.1911812650266
 20
-119.4705644854524
 30
0.0
 11
-58.1911812650266
 21
-160.1433743072109
 31
0.0
  0
LINE
  5
284
330
1F
100
AcDbEntity
  8
0-1
  6
Continuous
 62
     6
370
     5
100
AcDbLine
 10
-55.40763761569927
 20
-226.4885029888798
 30
0.0
 11
-54.2673657476747
 21
-227.6286757631468
 31
0.0
  0
LINE
  5
285
330
1F
100
AcDbEntity
  8
0-1
  6
Continuous
 62
     6
370
     5
100
AcDbLine
 10
-27.83073673585039
 20
-254.0653047749711
 30
0.0
 11
-28.97110769763247
 21
-252.924933813189
 31
0.0
  0
LINE
  5
286
330
1F
100
AcDbEntity
  8
0-1
  6
Continuous
 62
     6
370
     5
100
AcDbLine
 10
-66.19121849882849
 20
-217.1189900258609
 30
0.0
 11
-56.04025216384115
 21
-227.2699563608483
 31
0.0
  0
LINE
  5
287
330
1F
100
AcDbEntity
  8
0-1
  6
Continuous
 62
     6
370
     5
100
AcDbLine
 10
-28.61228920157645
 20
-254.697919323113
 30
0.0
 11
-18.46152105410419
 21
-264.8486874705852
 31
0.0
  0
LINE
  5
288
330
1F
100
AcDbEntity
  8
0-1
  6
Continuous
 62
     6
370
     5
100
AcDbLine
 10
-61.19114568082351
 20
-215.0479304932535
 30
0.0
 11
-51.25640192479072
 21
-224.9826742492864
 31
0.0
  0
LINE
  5
289
330
1F
100
AcDbEntity
  8
0-1
  6
Continuous
 62
     6
370
     5
100
AcDbLine
 10
-26.3251061837721
 20
-249.9140690840625
 30
0.0
 11
-16.66415847982511
 21
-259.5749176942519
 31
0.0
  0
LINE
  5
28A
330
1F
100
AcDbEntity
  8
0-1
  6
Continuous
 62
     6
370
     5
100
AcDbLine
 10
-37.19123216693298
 20
-151.1007716503199
 30
0.0
 11
-40.69122368328191
 21
-166.8828150778941
 31
0.0
  0
LINE
  5
28B
330
1F
100
AcDbEntity
  8
0-1
  6
Continuous
 62
     6
370
     5
100
AcDbLine
 10
-61.19114568082351
 20
-157.1433107976564
 30
0.0
 11
-61.19114568082351
 21
-141.5457799466237
 31
0.0
  0
LINE
  5
28C
330
1F
100
AcDbEntity
  8
0-1
  6
Continuous
 62
     6
370
     5
100
AcDbLine
 10
71.8090274092238
 20
-255.9636438881845
 30
0.0
 11
1.900611073576621
 21
-259.6273382919911
 31
0.0
  0
LINE
  5
28D
330
1F
100
AcDbEntity
  8
0-1
  6
Continuous
 62
     6
370
     5
100
AcDbLine
 10
71.8090274092238
 20
-254.4704991495564
 30
0.0
 11
71.8090274092238
 21
-259.9692117555077
 31
0.0
  0
LINE
  5
28E
330
1F
100
AcDbEntity
  8
0-1
  6
Continuous
 62
     6
370
     5
100
AcDbLine
 10
70.30904520132533
 20
-252.9705169416579
 30
0.0
 11
47.43285489794999
 21
-252.9705169416579
 31
0.0
  0
LINE
  5
28F
330
1F
100
AcDbEntity
  8
0-1
  6
Continuous
 62
     6
370
     5
100
AcDbLine
 10
-59.69116347292508
 20
-117.9705822775539
 30
0.0
 11
-65.19116429772446
 21
-117.9705822775539
 31
0.0
  0
LINE
  5
290
330
1F
100
AcDbEntity
  8
0-1
  6
Continuous
 62
     6
370
     5
100
AcDbLine
 10
1.340384515318483
 20
-254.4704991495564
 30
0.0
 11
1.340384515318483
 21
-254.7893828613234
 31
0.0
  0
LINE
  5
291
330
1F
100
AcDbEntity
  8
0-2
  6
Continuous
 62
     3
370
     9
100
AcDbLine
 10
37.50118304840095
 20
-247.5673307179761
 30
0.0
 11
47.80871752030311
 21
-238.9180311847653
 31
0.0
  0
LINE
  5
292
330
1F
100
AcDbEntity
  8
0-2
  6
Continuous
 62
     3
370
     9
100
AcDbLine
 10
-39.36178183211153
 20
-160.8882620826468
 30
0.0
 11
-35.19092557720988
 21
-155.9178182981466
 31
0.0
  0
LINE
  5
293
330
1F
100
AcDbEntity
  8
0-1
  6
Continuous
 62
     6
370
     5
100
AcDbLine
 10
-37.19123216693298
 20
-147.0611155304026
 30
0.0
 11
-37.19123216693298
 21
-158.3016177295534
 31
0.0
  0
LINE
  5
294
330
1F
100
AcDbEntity
  8
0-1
  6
Continuous
 62
     6
370
     5
100
AcDbLine
 10
-56.47036861844798
 20
-159.6008359846738
 30
0.0
 11
-37.97803660180868
 21
-146.651461936728
 31
0.0
  0
LINE
  5
295
330
1F
100
AcDbEntity
  8
0-1
  6
Continuous
 62
     6
370
     5
100
AcDbLine
 10
-0.1595976925799993
 20
-252.9705169416579
 30
0.0
 11
-12.7514414633178
 21
-252.9705169416579
 31
0.0
  0
LINE
  5
296
330
1F
100
AcDbEntity
  8
0-1
  6
Continuous
 62
     6
370
     5
100
AcDbLine
 10
-12.7514414633178
 20
-258.1273560840927
 30
0.0
 11
-12.7514414633178
 21
-242.9704703994055
 31
0.0
  0
LINE
  5
297
330
1F
100
AcDbEntity
  8
0-1
  6
Continuous
 62
     6
370
     5
100
AcDbLine
 10
2.9006157278019
 20
-259.5749176942519
 30
0.0
 11
-16.66415847982511
 21
-259.5749176942519
 31
0.0
  0
LINE
  5
298
330
1F
100
AcDbEntity
  8
0-1
  6
Continuous
 62
     6
370
     5
100
AcDbLine
 10
52.30906051902862
 20
-240.9705601847126
 30
0.0
 11
32.08481735496611
 21
-257.940762538643
 31
0.0
  0
LINE
  5
299
330
1F
100
AcDbEntity
  8
0-0
  6
Continuous
 62
     4
370
     9
100
AcDbLine
 10
-74.9790511050815
 20
-194.3278964867739
 30
0.0
 11
-75.68440047125851
 21
-192.0821346596217
 31
0.0
  0
LINE
  5
29A
330
1F
100
AcDbEntity
  8
0-0
  6
Continuous
 62
     4
370
     9
100
AcDbLine
 10
-74.9790511050815
 20
-194.3278964867739
 30
0.0
 11
-69.11250247113786
 21
-194.3278964867739
 31
0.0
  0
LINE
  5
29B
330
1F
100
AcDbEntity
  8
0-0
  6
Continuous
 62
     4
370
     9
100
AcDbLine
 10
-74.9790511050815
 20
-194.3278964867739
 30
0.0
 11
-73.31625785354315
 21
-275.598155327681
 31
0.0
  0
LINE
  5
29C
330
1F
100
AcDbEntity
  8
0-0
  6
Continuous
 62
     4
370
     9
100
AcDbLine
 10
-73.32998233896255
 20
-274.9221377137361
 30
0.0
 11
-73.95798902737879
 21
-277.2894875813911
 31
0.0
  0
LINE
  5
29D
330
1F
100
AcDbEntity
  8
0-1
  6
Continuous
 62
     6
370
     5
100
AcDbLine
 10
-18.46152105410419
 20
-264.8486874705852
 30
0.0
 11
-2.190722440898347
 21
-264.8486874705852
 31
0.0
  0
LINE
  5
29E
330
1F
100
AcDbEntity
  8
0-1
  6
Continuous
 62
     6
370
     5
100
AcDbLine
 10
69.53373564232442
 20
-261.0897639657816
 30
0.0
 11
-2.190722440898347
 21
-264.8486874705852
 31
0.0
  0
LINE
  5
29F
330
1F
100
AcDbEntity
  8
0-1
  6
Continuous
 62
     6
370
     5
100
AcDbLine
 10
43.96670389980131
 20
-247.970642311168
 30
0.0
 11
26.80896660972457
 21
-247.970642311168
 31
0.0
  0
LINE
  5
2A0
330
1F
100
AcDbEntity
  8
0-1
  6
Continuous
 62
     6
370
     5
100
AcDbLine
 10
57.30903424327603
 20
-240.9705601847126
 30
0.0
 11
45.36268720916047
 21
-240.9705601847126
 31
0.0
  0
LINE
  5
2A1
330
1F
100
AcDbEntity
  8
0-1
  6
Continuous
 62
     6
370
     5
100
AcDbLine
 10
15.48814892008665
 20
-242.9180498016663
 30
0.0
 11
-4.425286673448447
 21
-259.6273382919911
 31
0.0
  0
LINE
  5
2A2
330
1F
100
AcDbEntity
  8
0-0
  6
Continuous
 62
     4
370
     9
100
AcDbLine
 10
-96.0835936642597
 20
-185.6169606363728
 30
0.0
 11
-104.0819463041834
 21
-185.7798707737702
 31
0.0
  0
LINE
  5
2A3
330
1F
100
AcDbEntity
  8
0-0
  6
Continuous
 62
     4
370
     9
100
AcDbLine
 10
-94.0678284483602
 20
-284.5965126218299
 30
0.0
 11
-102.0661810882839
 21
-284.7593732123485
 31
0.0
  0
LINE
  5
2A4
330
1F
100
AcDbEntity
  8
0-0
  6
Continuous
 62
     4
370
     9
100
AcDbLine
 10
-83.74934411624973
 20
-277.6402299362076
 30
0.0
 11
-102.1944084105419
 21
-278.4631044988283
 31
0.0
  0
LINE
  5
2A5
330
1F
100
AcDbEntity
  8
0-0
  6
Continuous
 62
     4
370
     9
100
AcDbLine
 10
-103.9536198881677
 20
-192.0760899404117
 30
0.0
 11
-85.34341584693344
 21
-192.1479329146289
 31
0.0
  0
LINE
  5
2A6
330
1F
100
AcDbEntity
  8
0-0
  6
Continuous
 62
     4
370
     9
100
AcDbLine
 10
-96.11411454158235
 20
-184.1172757097469
 30
0.0
 11
-96.0835936642597
 21
-185.6169606363728
 31
0.0
  0
LINE
  5
2A7
330
1F
100
AcDbEntity
  8
0-0
  6
Continuous
 62
     4
370
     9
100
AcDbLine
 10
-102.4445210545755
 20
-193.5605144283762
 30
0.0
 11
-85.77145133263188
 21
-193.6247271832629
 31
0.0
  0
LINE
  5
2A8
330
1F
100
AcDbEntity
  8
0-0
  6
Continuous
 62
     4
370
     9
100
AcDbLine
 10
-100.7471440816553
 20
-276.905647911556
 30
0.0
 11
-84.31204801844648
 21
-275.8853290370349
 31
0.0
  0
LINE
  5
2A9
330
1F
100
AcDbEntity
  8
0-0
  6
Continuous
 62
     4
370
     9
100
AcDbLine
 10
-94.0678284483602
 20
-284.5965126218299
 30
0.0
 11
-94.03730757103754
 21
-286.0961480015769
 31
0.0
  0
LINE
  5
2AA
330
1F
100
AcDbEntity
  8
0-0
  6
Continuous
 62
     4
370
     9
100
AcDbLine
 10
-94.03730757103754
 20
-286.0961480015769
 30
0.0
 11
-69.11250247113786
 21
-285.5885897754519
 31
0.0
  0
LINE
  5
2AB
330
1F
100
AcDbEntity
  8
0-0
  6
Continuous
 62
     4
370
     9
100
AcDbLine
 10
-82.7567714938401
 20
-278.9910264921281
 30
0.0
 11
-84.55363859933145
 21
-190.7571024806619
 31
0.0
  0
LINE
  5
2AC
330
1F
100
AcDbEntity
  8
0-0
  6
Continuous
 62
     4
370
     9
100
AcDbLine
 10
-85.77145133263188
 20
-193.6247271832629
 30
0.0
 11
-84.31204801844648
 21
-275.8853290370349
 31
0.0
  0
LINE
  5
2AD
330
1F
100
AcDbEntity
  8
0-0
  6
Continuous
 62
     4
370
     9
100
AcDbLine
 10
-76.68822023514905
 20
-135.64900771663
 30
0.0
 11
-88.11273954205363
 21
-137.2810819033307
 31
0.0
  0
LINE
  5
2AE
330
1F
100
AcDbEntity
  8
0-0
  6
Continuous
 62
     4
370
     9
100
AcDbLine
 10
-75.28222845627828
 20
-162.5718650232687
 30
0.0
 11
-88.11273954205363
 21
-147.2810541252648
 31
0.0
  0
LINE
  5
2AF
330
1F
100
AcDbEntity
  8
0-0
  6
Continuous
 62
     4
370
     9
100
AcDbLine
 10
68.79642853934041
 20
-270.449540967122
 30
0.0
 11
55.88798021325903
 21
-281.2809841351436
 31
0.0
  0
LINE
  5
2B0
330
1F
100
AcDbEntity
  8
0-0
  6
Continuous
 62
     4
370
     9
100
AcDbLine
 10
44.37591157156698
 20
-273.3200889355703
 30
0.0
 11
45.88743820221892
 21
-281.2809841351436
 31
0.0
  0
LINE
  5
2B1
330
1F
100
AcDbEntity
  8
0-0
  6
Continuous
 62
     4
370
     9
100
AcDbLine
 10
-59.11250547576428
 20
-272.9331278123726
 30
0.0
 11
-3.923228150866855
 21
-272.9331278123726
 31
0.0
  0
LINE
  5
2B2
330
1F
100
AcDbEntity
  8
0-0
  6
Continuous
 62
     4
370
     9
100
AcDbLine
 10
-69.17498108526745
 20
-228.2774178203285
 30
0.0
 11
-24.58150197295901
 21
-272.8708969326369
 31
0.0
  0
LINE
  5
2B3
330
1F
100
AcDbEntity
  8
0-0
  6
Continuous
 62
     4
370
     9
100
AcDbLine
 10
-78.03108929046623
 20
-183.7489442129669
 30
0.0
 11
-96.11411454158235
 21
-184.1172757097469
 31
0.0
  0
LINE
  5
2B4
330
1F
100
AcDbEntity
  8
0-0
  6
Continuous
 62
     4
370
     9
100
AcDbLine
 10
110.8874929924654
 20
-264.3361002362649
 30
0.0
 11
110.8874929924654
 21
-273.2809469013417
 31
0.0
  0
LINE
  5
2B5
330
1F
100
AcDbEntity
  8
0-0
  6
Continuous
 62
     4
370
     9
100
AcDbLine
 10
3.440775800158016
 20
-273.2809469013417
 30
0.0
 11
44.36818225847874
 21
-273.2809469013417
 31
0.0
  0
LINE
  5
2B6
330
1F
100
AcDbEntity
  8
0-0
  6
Continuous
 62
     4
370
     9
100
AcDbLine
 10
65.42208790755348
 20
-273.2809469013417
 30
0.0
 11
110.8874929924654
 21
-273.2809469013417
 31
0.0
  0
LINE
  5
2B7
330
1F
100
AcDbEntity
  8
0-0
  6
Continuous
 62
     4
370
     9
100
AcDbLine
 10
-71.1125117795883
 20
-82.28087546782146
 30
0.0
 11
-80.11250412073666
 21
-82.28087546782146
 31
0.0
  0
LINE
  5
2B8
330
1F
100
AcDbEntity
  8
0-0
  6
Continuous
 62
     4
370
     9
100
AcDbLine
 10
-75.45574162573261
 20
-92.27467910334875
 30
0.0
 11
-80.11250412073666
 21
-87.28084919206887
 31
0.0
  0
LINE
  5
2B9
330
1F
100
AcDbEntity
  8
0-0
  6
Continuous
 62
     4
370
     9
100
AcDbLine
 10
-74.11252574226403
 20
-95.68469348785041
 30
0.0
 11
-74.11252574226403
 21
-179.7498174398839
 31
0.0
  0
LINE
  5
2BA
330
1F
100
AcDbEntity
  8
0-1
  6
Continuous
 62
     6
370
     5
100
AcDbLine
 10
-40.69122368328191
 20
-166.8828150778941
 30
0.0
 11
-40.69122368328191
 21
-168.7875952853476
 31
0.0
  0
LINE
  5
2BB
330
1F
100
AcDbEntity
  8
0-1
  6
Continuous
 62
     6
370
     5
100
AcDbLine
 10
-40.69122368328191
 20
-173.0478341095513
 30
0.0
 11
-40.69122368328191
 21
-175.6006874913231
 31
0.0
  0
LINE
  5
2BC
330
1F
100
AcDbEntity
  8
0-0
  6
Continuous
 62
     4
370
     9
100
AcDbLine
 10
-4.966289042743646
 20
-272.9630045802713
 30
0.0
 11
-73.32998233896255
 21
-274.9221377137361
 31
0.0
  0
LINE
  5
2BD
330
1F
100
AcDbEntity
  8
0-0
  6
Continuous
 62
     4
370
     9
100
AcDbLine
 10
1.266559665950417
 20
-268.5783535434749
 30
0.0
 11
-3.123888355662181
 21
-272.2623621675774
 31
0.0
  0
LINE
  5
2BE
330
1F
100
AcDbEntity
  8
0-0
  6
Continuous
 62
     4
370
     9
100
AcDbLine
 10
-1.24234563435197
 20
-277.2105098566309
 30
0.0
 11
3.198838391121577
 21
-273.4838909167857
 31
0.0
  0
LINE
  5
2BF
330
1F
100
AcDbEntity
  8
0-0
  6
Continuous
 62
     4
370
     9
100
AcDbLine
 10
-3.084746321433435
 20
-277.9111522693248
 30
0.0
 11
-49.1125084803907
 21
-279.2302388228321
 31
0.0
  0
LINE
  5
2C0
330
1F
100
AcDbEntity
  8
0-0
  6
Continuous
 62
     4
370
     9
100
AcDbLine
 10
3.037910128874963
 20
-267.8806343966285
 30
0.0
 11
3.783095185583485
 21
-267.8415914561573
 31
0.0
  0
LINE
  5
2C1
330
1F
100
AcDbEntity
  8
0-0
  6
Continuous
 62
     4
370
     9
100
AcDbLine
 10
7.105659329055192
 20
-267.667434177279
 30
0.0
 11
108.7827911291728
 21
-262.3388160061468
 31
0.0
  0
LINE
  5
2C2
330
1F
100
AcDbEntity
  8
0-0
  6
Continuous
 62
     4
370
     9
100
AcDbLine
 10
-69.11250247113786
 20
-84.28088477627199
 30
0.0
 11
-69.11250247113786
 21
-183.9753734489482
 31
0.0
  0
LINE
  5
2C3
330
1F
100
AcDbEntity
  8
0-0
  6
Continuous
 62
     4
370
     9
100
AcDbLine
 10
-69.11250247113786
 20
-188.4451955703511
 30
0.0
 11
-69.11250247113786
 21
-262.9331308169991
 31
0.0
  0
LINE
  5
2C4
330
1F
100
AcDbEntity
  8
0-0
  6
Continuous
 62
     4
370
     9
100
AcDbLine
 10
100.4619874022107
 20
-267.7817388266026
 30
0.0
 11
4.970238400924934
 21
-272.7861717699394
 31
0.0
  0
LINE
  5
2C5
330
1F
100
AcDbEntity
  8
0-0
  6
Continuous
 62
     4
370
     9
100
AcDbLine
 10
105.6492483282106
 20
-271.9154844693051
 30
0.0
 11
105.8874697213392
 21
-273.2809469013417
 31
0.0
  0
LINE
  5
2C6
330
1F
100
AcDbEntity
  8
0-3
  6
Continuous
 62
     7
370
     9
100
AcDbLine
 10
-96.11411454158235
 20
-184.1172757097469
 30
0.0
 11
-96.15479252905294
 21
-182.117687549766
 31
0.0
  0
LINE
  5
2C7
330
1F
100
AcDbEntity
  8
0-3
  6
Continuous
 62
     7
370
     9
100
AcDbLine
 10
-181.009867142764
 20
-186.8464416596236
 30
0.0
 11
-96.09375077440761
 21
-185.1170574030177
 31
0.0
  0
LINE
  5
2C8
330
1F
100
AcDbEntity
  8
0-3
  6
Continuous
 62
     7
370
     9
100
AcDbLine
 10
-94.03720847728003
 20
-286.0960984546982
 30
0.0
 11
-93.99643139605188
 21
-288.0957113881185
 31
0.0
  0
LINE
  5
2C9
330
1F
100
AcDbEntity
  8
0-3
  6
Continuous
 62
     7
370
     9
100
AcDbLine
 10
-178.973688612811
 20
-286.8257257914727
 30
0.0
 11
-94.0575722444547
 21
-285.0963415348668
 31
0.0
  0
LINE
  5
2CA
330
1F
100
AcDbEntity
  8
0-3
  6
Continuous
 62
     7
370
     9
100
AcDbLine
 10
-181.0709584442881
 20
-183.8470718063719
 30
0.0
 11
-96.15479252905294
 21
-182.117687549766
 31
0.0
  0
LINE
  5
2CB
330
1F
100
AcDbEntity
  8
0-3
  6
Continuous
 62
     7
370
     9
100
AcDbLine
 10
-178.9126964050446
 20
-289.8250956447244
 30
0.0
 11
-93.99643139605188
 21
-288.0957113881185
 31
0.0
  0
LINE
  5
2CC
330
1F
100
AcDbEntity
  8
0-0
  6
Continuous
 62
     4
370
     9
100
AcDbLine
 10
45.88743820221892
 20
-281.2809841351436
 30
0.0
 11
55.88798021325903
 21
-281.2809841351436
 31
0.0
  0
LINE
  5
2CD
330
1F
100
AcDbEntity
  8
0-0
  6
Continuous
 62
     4
370
     9
100
AcDbLine
 10
-88.11273954205363
 20
-137.2810819033307
 30
0.0
 11
-88.11273954205363
 21
-147.2810541252648
 31
0.0
  0
LINE
  5
2CE
330
1F
100
AcDbEntity
  8
0-2
  6
Continuous
 62
     3
370
     9
100
AcDbLine
 10
-8.955754174466442
 20
-188.2243403582315
 30
0.0
 11
44.50770626909657
 21
-241.687899895552
 31
0.0
  0
LINE
  5
2CF
330
1F
100
AcDbEntity
  8
0-2
  6
Continuous
 62
     3
370
     9
100
AcDbLine
 10
-34.19097046986342
 20
-155.9178182981466
 30
0.0
 11
47.80871752030311
 21
-237.9181751711765
 31
0.0
  0
LINE
  5
2D0
330
1F
100
AcDbEntity
  8
0-2
  6
Continuous
 62
     3
370
     9
100
AcDbLine
 10
39.49901229418555
 20
-235.1677288368678
 30
0.0
 11
41.44476777038228
 21
-231.5541758743769
 31
0.0
  0
LINE
  5
2D1
330
1F
100
AcDbEntity
  8
0-2
  6
Continuous
 62
     3
370
     9
100
AcDbLine
 10
7.313260751103662
 20
-237.0943096709804
 30
0.0
 11
24.04058430530104
 21
-221.2207036114384
 31
0.0
  0
LINE
  5
2D2
330
1F
100
AcDbEntity
  8
0-2
  6
Continuous
 62
     3
370
     9
100
AcDbLine
 10
25.07655999351363
 20
-232.8529234341489
 30
0.0
 11
30.23592602676576
 21
-227.4160948797819
 31
0.0
  0
LINE
  5
2D3
330
1F
100
AcDbEntity
  8
0-2
  6
Continuous
 62
     3
370
     9
100
AcDbLine
 10
-39.19134056914099
 20
-221.917605234785
 30
0.0
 11
-39.19114238162591
 21
-173.9178773007614
 31
0.0
  0
LINE
  5
2D4
330
1F
100
AcDbEntity
  8
0-0
  6
Continuous
 62
     4
370
     9
100
AcDbLine
 10
-69.11250247113786
 20
-214.1976812801122
 30
0.0
 11
-66.19121849882849
 21
-217.1189652524216
 31
0.0
  0
LINE
  5
2D5
330
1F
100
AcDbEntity
  8
0-1
  6
Continuous
 62
     6
370
     5
100
AcDbLine
 10
-61.41826857310757
 20
-233.9128054913683
 30
0.0
 11
-35.25533651961153
 21
-260.0758366386218
 31
0.0
  0
LINE
  5
2D6
330
1F
100
AcDbEntity
  8
0-1
  6
Continuous
 62
     6
370
     5
100
AcDbLine
 10
-61.41826857310757
 20
-235.3270715989938
 30
0.0
 11
-36.66960262723705
 21
-260.0758366386218
 31
0.0
  0
LINE
  5
2D7
330
1F
100
AcDbEntity
  8
0-A
  6
JWW_CENTER1
 62
     2
370
     9
100
AcDbLine
 10
-29.33309719392985
 20
-170.9179128849645
 30
0.0
 11
-48.25841938414458
 21
-170.9176651505707
 31
0.0
  0
LINE
  5
2D8
330
1F
100
AcDbEntity
  8
0-1
  6
Continuous
 62
     6
370
     5
100
AcDbLine
 10
-61.19114568082351
 20
-215.0479304932535
 30
0.0
 11
-61.19114568082351
 21
-200.0314358895626
 31
0.0
  0
LINE
  5
2D9
330
1F
100
AcDbEntity
  8
0-3
  6
JWW_PHANTOM2
 62
     7
370
     9
100
AcDbLine
 10
-178.8906975908705
 20
-290.9063324066939
 30
0.0
 11
-189.1079824230921
 21
-292.372597963589
 31
0.0
  0
LINE
  5
2DA
330
1F
100
AcDbEntity
  8
0-3
  6
JWW_PHANTOM2
 62
     7
370
     9
100
AcDbLine
 10
-189.1079824230921
 20
-182.1095370882083
 30
0.0
 11
-189.1079824230921
 21
-292.372597963589
 31
0.0
  0
LINE
  5
2DB
330
1F
100
AcDbEntity
  8
0-3
  6
JWW_PHANTOM2
 62
     7
370
     9
100
AcDbLine
 10
-174.9882120048293
 20
-286.0759081015992
 30
0.0
 11
-178.977280761522
 21
-286.6572168567742
 31
0.0
  0
LINE
  5
2DC
330
1F
100
AcDbEntity
  8
0-3
  6
JWW_PHANTOM2
 62
     7
370
     9
100
AcDbLine
 10
-181.0896623910239
 20
-182.9286460880424
 30
0.0
 11
-189.1079824230921
 21
-182.1095370882083
 31
0.0
  0
LINE
  5
2DD
330
1F
100
AcDbEntity
  8
0-3
  6
Continuous
 62
     7
370
     9
100
AcDbLine
 10
-181.0896623910239
 20
-182.9286460880424
 30
0.0
 11
-181.0031039938119
 21
-187.1777864114014
 31
0.0
  0
LINE
  5
2DE
330
1F
100
AcDbEntity
  8
0-3
  6
JWW_PHANTOM2
 62
     7
370
     9
100
AcDbLine
 10
-176.9937457902626
 20
-187.5962841229365
 30
0.0
 11
-181.0031039938119
 21
-187.1777864114014
 31
0.0
  0
LINE
  5
2DF
330
1F
100
AcDbEntity
  8
0-3
  6
Continuous
 62
     7
370
     9
100
AcDbLine
 10
-178.977280761522
 20
-286.6572168567742
 30
0.0
 11
-178.8906975908705
 21
-290.9063324066939
 31
0.0
  0
LINE
  5
2E0
330
1F
100
AcDbEntity
  8
0-3
  6
JWW_PHANTOM2
 62
     7
370
     9
100
AcDbLine
 10
-176.9937457902626
 20
-187.5962841229365
 30
0.0
 11
-174.9882120048293
 21
-286.0759081015992
 31
0.0
  0
LINE
  5
2E1
330
1F
100
AcDbEntity
  8
0-0
  6
JWW_CENTER1
 62
     4
370
     9
100
AcDbLine
 10
-74.11252574226403
 20
-142.2809813072599
 30
0.0
 11
-103.1127598085534
 21
-142.2809813072599
 31
0.0
  0
LINE
  5
2E2
330
1F
100
AcDbEntity
  8
0-0
  6
JWW_CENTER1
 62
     4
370
     9
100
AcDbLine
 10
50.88770920773896
 20
-296.2810539485221
 30
0.0
 11
50.88770920773896
 21
-270.3797789618131
 31
0.0
  0
LINE
  5
2E3
330
1F
100
AcDbEntity
  8
0-0
  6
Continuous
 62
     4
370
     9
100
AcDbLine
 10
-103.9537189819253
 20
-192.0760899404117
 30
0.0
 11
-102.4445210545755
 21
-193.5605144283762
 31
0.0
  0
LINE
  5
2E4
330
1F
100
AcDbEntity
  8
0-0
  6
Continuous
 62
     4
370
     9
100
AcDbLine
 10
-102.4445210545755
 20
-193.5605144283762
 30
0.0
 11
-100.7471440816553
 21
-276.905647911556
 31
0.0
  0
LINE
  5
2E5
330
1F
100
AcDbEntity
  8
0-0
  6
Continuous
 62
     4
370
     9
100
AcDbLine
 10
-100.7471440816553
 20
-276.905647911556
 30
0.0
 11
-102.1944084105419
 21
-278.4631044988283
 31
0.0
  0
LINE
  5
2E6
330
1F
100
AcDbEntity
  8
0-0
  6
Continuous
 62
     4
370
     9
100
AcDbLine
 10
-104.0819463041834
 20
-185.7798707737702
 30
0.0
 11
-102.0661810882839
 21
-284.7593732123485
 31
0.0
  0
LINE
  5
2E7
330
1F
100
AcDbEntity
  8
0-0
  6
Continuous
 62
     4
370
     9
100
AcDbLine
 10
-80.11250412073666
 20
-82.28087546782146
 30
0.0
 11
-80.11250412073666
 21
-136.1382335976101
 31
0.0
  0
LINE
  5
2E8
330
1F
100
AcDbEntity
  8
0-0
  6
Continuous
 62
     4
370
     9
100
AcDbLine
 10
-80.11250412073666
 20
-156.8153600070744
 30
0.0
 11
-80.11250412073666
 21
-183.7913315677551
 31
0.0
  0
LINE
  5
2E9
330
1F
100
AcDbEntity
  8
0-0
  6
JWW_CENTER1
 62
     4
370
     9
100
AcDbLine
 10
-69.11270065865294
 20
-234.577947565423
 30
0.0
 11
-204.179647476294
 21
-234.577947565423
 31
0.0
  0
LINE
  5
2EA
330
1F
100
AcDbEntity
  8
0-0
  6
JWW_CENTER1
 62
     4
370
     9
100
AcDbLine
 10
-204.182471648384
 20
-237.3287902747619
 30
0.0
 11
-64.62048334804574
 21
-234.4864344803339
 31
0.0
  0
LINE
  5
2EB
330
1F
100
AcDbEntity
  8
0-2
  6
Continuous
 62
     3
370
     9
100
AcDbLine
 10
-39.19084510035326
 20
-174.9180553690624
 30
0.0
 11
-34.19097046986342
 21
-174.9180553690624
 31
0.0
  0
LINE
  5
2EC
330
1F
100
AcDbEntity
  8
0-2
  6
Continuous
 62
     3
370
     9
100
AcDbLine
 10
-39.19084510035326
 20
-166.9175969867909
 30
0.0
 11
-34.19097046986342
 21
-166.9175969867909
 31
0.0
  0
LINE
  5
2ED
330
1F
100
AcDbEntity
  8
0-A
  6
Continuous
 62
     2
370
     9
100
AcDbLine
 10
-34.19097046986342
 20
-167.9177502816525
 30
0.0
 11
-46.19082813305117
 21
-167.9177502816525
 31
0.0
  0
LINE
  5
2EE
330
1F
100
AcDbEntity
  8
0-A
  6
Continuous
 62
     2
370
     9
100
AcDbLine
 10
-34.19097046986342
 20
-168.7875952853476
 30
0.0
 11
-46.19082813305117
 21
-168.7875952853476
 31
0.0
  0
LINE
  5
2EF
330
1F
100
AcDbEntity
  8
0-A
  6
Continuous
 62
     2
370
     9
100
AcDbLine
 10
-34.19097046986342
 20
-173.9178773007614
 30
0.0
 11
-46.19082813305117
 21
-173.9178773007614
 31
0.0
  0
LINE
  5
2F0
330
1F
100
AcDbEntity
  8
0-A
  6
Continuous
 62
     2
370
     9
100
AcDbLine
 10
-34.19097046986342
 20
-173.0478341095513
 30
0.0
 11
-46.19082813305117
 21
-173.0478341095513
 31
0.0
  0
ARC
  5
2F1
330
1F
100
AcDbEntity
  8
0-0
  6
Continuous
 62
     4
370
     9
100
AcDbCircle
 10
-81.48356535007427
 20
-193.3212030039147
 30
0.0
 40
4.000000036821402
100
AcDbArc
 50
91.16683959960938
 51
165.2220306396485
  0
ARC
  5
2F2
330
1F
100
AcDbEntity
  8
0-0
  6
Continuous
 62
     4
370
     9
100
AcDbCircle
 10
-79.50060016792087
 20
-193.2808718445955
 30
0.0
 40
4.000000036821402
100
AcDbArc
 50
17.43865966796875
 51
91.16683959960938
  0
ARC
  5
2F3
330
1F
100
AcDbEntity
  8
0-0
  6
Continuous
 62
     4
370
     9
100
AcDbCircle
 10
-79.79362040896966
 20
-276.3040992564032
 30
0.0
 40
4.000000036821402
100
AcDbArc
 50
197.1116027832031
 51
271.1661224365234
  0
ARC
  5
2F4
330
1F
100
AcDbEntity
  8
0-0
  6
Continuous
 62
     4
370
     9
100
AcDbCircle
 10
-77.82423107159933
 20
-276.2639662845991
 30
0.0
 40
4.000000036821402
100
AcDbArc
 50
271.1668395996094
 51
345.1438751220703
  0
ARC
  5
2F5
330
1F
100
AcDbEntity
  8
0-0
  6
Continuous
 62
     4
370
     9
100
AcDbCircle
 10
-73.51087799335367
 20
-192.3278871783235
 30
0.0
 40
2.000000018410701
100
AcDbArc
 50
197.4384460449219
 51
270.0
  0
ARC
  5
2F6
330
1F
100
AcDbEntity
  8
0-0
  6
Continuous
 62
     4
370
     9
100
AcDbCircle
 10
-70.11255667224184
 20
-183.9753734489482
 30
0.0
 40
1.00000000920535
100
AcDbArc
 50
320.0046997070312
 51
0.0000000000000254
  0
ARC
  5
2F7
330
1F
100
AcDbEntity
  8
0-0
  6
Continuous
 62
     4
370
     9
100
AcDbCircle
 10
-70.11255667224184
 20
-188.4451955703511
 30
0.0
 40
1.00000000920535
100
AcDbArc
 50
0.0
 51
44.99397277832031
  0
ARC
  5
2F8
330
1F
100
AcDbEntity
  8
0-0
  6
Continuous
 62
     4
370
     9
100
AcDbCircle
 10
-69.11240337738029
 20
-186.6169157437193
 30
0.0
 40
1.00000000920535
100
AcDbArc
 50
180.0
 51
224.9939727783203
  0
ARC
  5
2F9
330
1F
100
AcDbEntity
  8
0-0
  6
Continuous
 62
     4
370
     9
100
AcDbCircle
 10
-69.11240337738029
 20
-185.8949186262753
 30
0.0
 40
1.00000000920535
100
AcDbArc
 50
140.0046997070312
 51
180.0
  0
ARC
  5
2FA
330
1F
100
AcDbEntity
  8
0-0
  6
Continuous
 62
     4
370
     9
100
AcDbCircle
 10
3.809255937574286
 20
-268.3409249004066
 30
0.0
 40
0.5000000046026752
100
AcDbArc
 50
3.010406494140625
 51
92.99920654296875
  0
ARC
  5
2FB
330
1F
100
AcDbEntity
  8
0-0
  6
Continuous
 62
     4
370
     9
100
AcDbCircle
 10
4.807873279193934
 20
-268.2884052089098
 30
0.0
 40
0.5000000046026752
100
AcDbArc
 50
183.0106964111328
 51
272.9990539550781
  0
ARC
  5
2FC
330
1F
100
AcDbEntity
  8
0-2
  6
Continuous
 62
     3
370
     9
100
AcDbCircle
 10
-30.19105094671999
 20
-177.0686624155358
 30
0.0
 40
9.000000082848155
100
AcDbArc
 50
179.9998931884766
 51
267.79736328125
  0
ARC
  5
2FD
330
1F
100
AcDbEntity
  8
0-2
  6
Continuous
 62
     3
370
     9
100
AcDbCircle
 10
-12.49122125601507
 20
-191.7597083460226
 30
0.0
 40
5.000000046026752
100
AcDbArc
 50
44.99969482421876
 51
87.79678344726562
  0
ARC
  5
2FE
330
1F
100
AcDbEntity
  8
0-2
  6
Continuous
 62
     3
370
     9
100
AcDbCircle
 10
-6.858930264898383
 20
-188.1998642001189
 30
0.0
 40
1.500000013808026
100
AcDbArc
 50
225.0010070800781
 51
298.3021545410156
  0
ARC
  5
2FF
330
1F
100
AcDbEntity
  8
0-2
  6
Continuous
 62
     3
370
     9
100
AcDbCircle
 10
2.64822392734488
 20
-197.7072165798773
 30
0.0
 40
1.500000013808026
100
AcDbArc
 50
151.6992950439453
 51
224.9996643066407
  0
ARC
  5
300
330
1F
100
AcDbEntity
  8
0-2
  6
Continuous
 62
     3
370
     9
100
AcDbCircle
 10
6.019690840163102
 20
-201.0782871176654
 30
0.0
 40
1.500000013808026
100
AcDbArc
 50
224.9989929199219
 51
298.3000335693359
  0
ARC
  5
301
330
1F
100
AcDbEntity
  8
0-2
  6
Continuous
 62
     3
370
     9
100
AcDbCircle
 10
-37.69096198621235
 20
-161.2309282962236
 30
0.0
 40
1.500000013808026
100
AcDbArc
 50
140.000244140625
 51
179.9996643066406
  0
ARC
  5
302
330
1F
100
AcDbEntity
  8
0-2
  6
Continuous
 62
     3
370
     9
100
AcDbCircle
 10
40.81973389469221
 20
-235.8788256409822
 30
0.0
 40
1.500000013808026
100
AcDbArc
 50
151.6992950439453
 51
224.9996643066407
  0
ARC
  5
303
330
1F
100
AcDbEntity
  8
0-2
  6
Continuous
 62
     3
370
     9
100
AcDbCircle
 10
-30.19105094671999
 20
-177.0686624155358
 30
0.0
 40
4.000000036821402
100
AcDbArc
 50
180.0
 51
267.7975769042969
  0
ARC
  5
304
330
1F
100
AcDbEntity
  8
0-A
  6
Continuous
 62
     2
370
     9
100
AcDbCircle
 10
-39.59088659954642
 20
-170.9177146974494
 30
0.0
 40
10.0000000920535
100
AcDbArc
 50
2.745620727539063
 51
36.869873046875
  0
ARC
  5
305
330
1F
100
AcDbEntity
  8
0-A
  6
Continuous
 62
     2
370
     9
100
AcDbCircle
 10
-39.59088659954642
 20
-170.9177146974494
 30
0.0
 40
10.0000000920535
100
AcDbArc
 50
323.130126953125
 51
357.2543792724609
  0
ARC
  5
306
330
1F
100
AcDbEntity
  8
0-2
  6
Continuous
 62
     3
370
     9
100
AcDbCircle
 10
-3.755016497440912
 20
-234.9180125678644
 30
0.0
 40
3.000000027616052
100
AcDbArc
 50
136.500015258789
 51
269.9996643066406
  0
ARC
  5
307
330
1F
100
AcDbEntity
  8
0-2
  6
Continuous
 62
     3
370
     9
100
AcDbCircle
 10
5.248146843948697
 20
-234.9180125678644
 30
0.0
 40
3.000000027616052
100
AcDbArc
 50
270.0003356933594
 51
313.4999847412109
  0
ARC
  5
308
330
1F
100
AcDbEntity
  8
0-2
  6
Continuous
 62
     3
370
     9
100
AcDbCircle
 10
-31.19110514782402
 20
-207.4821221049964
 30
0.0
 40
3.000000027616052
100
AcDbArc
 50
180.0003356933594
 51
313.4999847412109
  0
ARC
  5
309
330
1F
100
AcDbEntity
  8
0-2
  6
Continuous
 62
     3
370
     9
100
AcDbCircle
 10
-31.19110514782402
 20
-198.4787605760917
 30
0.0
 40
3.000000027616052
100
AcDbArc
 50
136.500015258789
 51
179.9996643066406
  0
ARC
  5
30A
330
1F
100
AcDbEntity
  8
0-2
  6
Continuous
 62
     3
370
     9
100
AcDbCircle
 10
37.92371883055586
 20
-234.9180125678644
 30
0.0
 40
3.000000027616052
100
AcDbArc
 50
269.999496459961
 51
312.4908447265626
  0
ARC
  5
30B
330
1F
100
AcDbEntity
  8
0-2
  6
Continuous
 62
     3
370
     9
100
AcDbCircle
 10
24.34931090692005
 20
-245.9181133112208
 30
0.0
 40
3.000000027616052
100
AcDbArc
 50
11.30984497070313
 51
90.00000000000001
  0
ARC
  5
30C
330
1F
100
AcDbEntity
  8
0-2
  6
Continuous
 62
     3
370
     9
100
AcDbCircle
 10
29.03847706064
 20
-246.4182395055303
 30
0.0
 40
1.500000013808026
100
AcDbArc
 50
191.3101501464844
 51
269.9996643066406
  0
ARC
  5
30D
330
1F
100
AcDbEntity
  8
0-1
  6
Continuous
 62
     6
370
     5
100
AcDbCircle
 10
-1.044703134936405
 20
-261.7846093936593
 30
0.0
 40
3.000000027616052
100
AcDbArc
 50
229.9999694824219
 51
273.0001831054688
  0
ARC
  5
30E
330
1F
100
AcDbEntity
  8
0-1
  6
Continuous
 62
     6
370
     5
100
AcDbCircle
 10
69.37667203662187
 20
-258.0939614878014
 30
0.0
 40
3.000000027616052
100
AcDbArc
 50
272.9991607666016
 51
310.0000305175782
  0
ARC
  5
30F
330
1F
100
AcDbEntity
  8
0-1
  6
Continuous
 62
     6
370
     5
100
AcDbCircle
 10
-63.19115498927401
 20
-120.2541979200868
 30
0.0
 40
3.000000027616052
100
AcDbArc
 50
139.9999694824219
 51
180.0
  0
ARC
  5
310
330
1F
100
AcDbEntity
  8
0-1
  6
Continuous
 62
     6
370
     5
100
AcDbCircle
 10
-37.69125926748499
 20
-147.0611155304026
 30
0.0
 40
0.5000000046026752
100
AcDbArc
 50
0.0
 51
125.0048370361328
  0
ARC
  5
311
330
1F
100
AcDbEntity
  8
0-1
  6
Continuous
 62
     6
370
     5
100
AcDbCircle
 10
56.2368397866822
 20
-241.4705872852645
 30
0.0
 40
0.5000000046026752
100
AcDbArc
 50
319.9972534179688
 51
90.0
  0
ARC
  5
312
330
1F
100
AcDbEntity
  8
0-1
  6
Continuous
 62
     6
370
     5
100
AcDbCircle
 10
50.21560579721694
 20
-254.0912673394469
 30
0.0
 40
3.000000027616052
100
AcDbArc
 50
139.9996032714844
 51
273.0001373291015
  0
ARC
  5
313
330
1F
100
AcDbEntity
  8
0-A
  6
Continuous
 62
     2
370
     9
100
AcDbCircle
 10
-44.17114871372882
 20
-232.367240155001
 30
0.0
 40
3.811437777110508
100
AcDbArc
 50
4.925643920898437
 51
85.07435607910156
  0
ARC
  5
314
330
1F
100
AcDbEntity
  8
0-A
  6
Continuous
 62
     2
370
     9
100
AcDbCircle
 10
-46.0544751226747
 20
-244.6399029326992
 30
0.0
 40
13.8216220752613
100
AcDbArc
 50
24.26925659179688
 51
65.73074340820312
  0
ARC
  5
315
330
1F
100
AcDbEntity
  8
0-A
  6
Continuous
 62
     2
370
     9
100
AcDbCircle
 10
-33.78191143873407
 20
-242.7563287893593
 30
0.0
 40
3.811437777110508
100
AcDbArc
 50
4.925643920898437
 51
85.07435607910156
  0
ARC
  5
316
330
1F
100
AcDbEntity
  8
0-1
  6
Continuous
 62
     6
370
     5
100
AcDbCircle
 10
-63.19125408303152
 20
-202.5149484144951
 30
0.0
 40
3.000000027616052
100
AcDbArc
 50
180.0
 51
220.0000305175781
  0
ARC
  5
317
330
1F
100
AcDbEntity
  8
0-1
  6
Continuous
 62
     6
370
     5
100
AcDbCircle
 10
-58.1911812650266
 20
-157.1433107976564
 30
0.0
 40
3.000000027616052
100
AcDbArc
 50
180.0
 51
305.0016326904297
  0
ARC
  5
318
330
1F
100
AcDbEntity
  8
0-1
  6
Continuous
 62
     6
370
     5
100
AcDbCircle
 10
70.30904520132533
 20
-254.4704991495564
 30
0.0
 40
1.500000013808026
100
AcDbArc
 50
0.0
 51
90.0
  0
ARC
  5
319
330
1F
100
AcDbEntity
  8
0-1
  6
Continuous
 62
     6
370
     5
100
AcDbCircle
 10
-59.69116347292508
 20
-119.4705644854524
 30
0.0
 40
1.500000013808026
100
AcDbArc
 50
0.0
 51
90.0
  0
ARC
  5
31A
330
1F
100
AcDbEntity
  8
0-1
  6
Continuous
 62
     6
370
     5
100
AcDbCircle
 10
-0.1595976925799993
 20
-254.4704991495564
 30
0.0
 40
1.500000013808026
100
AcDbArc
 50
0.0
 51
90.0
  0
ARC
  5
31B
330
1F
100
AcDbEntity
  8
0-2
  6
Continuous
 62
     3
370
     9
100
AcDbCircle
 10
36.53700078752679
 20
-246.4182395055303
 30
0.0
 40
1.500000013808026
100
AcDbArc
 50
269.9996643066406
 51
310.0008697509766
  0
ARC
  5
31C
330
1F
100
AcDbEntity
  8
0-2
  6
Continuous
 62
     3
370
     9
100
AcDbCircle
 10
-42.19100770366531
 20
-179.3771505912115
 30
0.0
 40
3.000000027616052
100
AcDbArc
 50
0.0
 51
75.22633361816406
  0
ARC
  5
31D
330
1F
100
AcDbEntity
  8
0-2
  6
Continuous
 62
     3
370
     9
100
AcDbCircle
 10
-25.23913769488001
 20
-232.8417010661074
 30
0.0
 40
3.000000027616052
100
AcDbArc
 50
237.1703796386719
 51
313.4999847412109
  0
ARC
  5
31E
330
1F
100
AcDbEntity
  8
0-1
  6
Continuous
 62
     6
370
     5
100
AcDbCircle
 10
-11.25145925541937
 20
-258.1273560840927
 30
0.0
 40
1.500000013808026
100
AcDbArc
 50
180.0
 51
270.0
  0
ARC
  5
31F
330
1F
100
AcDbEntity
  8
0-1
  6
Continuous
 62
     6
370
     5
100
AcDbCircle
 10
43.23881070378372
 20
-245.9706330027175
 30
0.0
 40
2.000000018410701
100
AcDbArc
 50
270.0
 51
309.9999389648438
  0
ARC
  5
320
330
1F
100
AcDbEntity
  8
0-0
  6
Continuous
 62
     4
370
     9
100
AcDbCircle
 10
-71.77980914286955
 20
-276.8785457688684
 30
0.0
 40
2.000000018410701
100
AcDbArc
 50
91.64173889160158
 51
165.1459350585938
  0
ARC
  5
321
330
1F
100
AcDbEntity
  8
0-0
  6
Continuous
 62
     4
370
     9
100
AcDbCircle
 10
-87.50648393341764
 20
-192.6299249513085
 30
0.0
 40
2.000000018410701
100
AcDbArc
 50
330.1716613769531
 51
345.2218627929687
  0
ARC
  5
322
330
1F
100
AcDbEntity
  8
0-0
  6
Continuous
 62
     4
370
     9
100
AcDbCircle
 10
-85.7834416772943
 20
-277.2399407026206
 30
0.0
 40
2.000000018410701
100
AcDbArc
 50
17.11160278320312
 51
42.63365173339844
  0
ARC
  5
323
330
1F
100
AcDbEntity
  8
0-0
  6
Continuous
 62
     4
370
     9
100
AcDbCircle
 10
-77.11249015806094
 20
-132.679068709368
 30
0.0
 40
3.000000027616052
100
AcDbArc
 50
278.1301727294922
 51
0.0000000000000254
  0
ARC
  5
324
330
1F
100
AcDbEntity
  8
0-0
  6
Continuous
 62
     4
370
     9
100
AcDbCircle
 10
-79.11249946651144
 20
-165.7858224084756
 30
0.0
 40
5.000000046026752
100
AcDbArc
 50
0.0
 51
39.99958801269531
  0
ARC
  5
325
330
1F
100
AcDbEntity
  8
0-0
  6
Continuous
 62
     4
370
     9
100
AcDbCircle
 10
72.01038592454717
 20
-274.2797624304764
 30
0.0
 40
5.000000046026752
100
AcDbArc
 50
93.00030517578125
 51
130.0001678466797
  0
ARC
  5
326
330
1F
100
AcDbEntity
  8
0-0
  6
Continuous
 62
     4
370
     9
100
AcDbCircle
 10
41.42856594102427
 20
-273.8797209312833
 30
0.0
 40
3.000000027616052
100
AcDbArc
 50
10.75067138671875
 51
92.99919128417967
  0
ARC
  5
327
330
1F
100
AcDbEntity
  8
0-0
  6
Continuous
 62
     4
370
     9
100
AcDbCircle
 10
-59.11250547576428
 20
-262.9331308169991
 30
0.0
 40
10.0000000920535
100
AcDbArc
 50
180.0
 51
270.0
  0
ARC
  5
328
330
1F
100
AcDbEntity
  8
0-0
  6
Continuous
 62
     4
370
     9
100
AcDbCircle
 10
-78.11254435916497
 20
-179.7498174398839
 30
0.0
 40
4.000000036821402
100
AcDbArc
 50
271.1668395996094
 51
0.0000000000000127
  0
ARC
  5
329
330
1F
100
AcDbEntity
  8
0-0
  6
Continuous
 62
     4
370
     9
100
AcDbCircle
 10
108.887483684015
 20
-264.3361002362649
 30
0.0
 40
2.000000018410701
100
AcDbArc
 50
0.0
 51
93.00059509277342
  0
ARC
  5
32A
330
1F
100
AcDbEntity
  8
0-0
  6
Continuous
 62
     4
370
     9
100
AcDbCircle
 10
-71.1125117795883
 20
-84.28088477627199
 30
0.0
 40
2.000000018410701
100
AcDbArc
 50
0.0
 51
90.0
  0
ARC
  5
32B
330
1F
100
AcDbEntity
  8
0-0
  6
Continuous
 62
     4
370
     9
100
AcDbCircle
 10
-79.1125490133902
 20
-95.68469348785041
 30
0.0
 40
5.000000046026752
100
AcDbArc
 50
0.0
 51
42.99946594238282
  0
ARC
  5
32C
330
1F
100
AcDbEntity
  8
0-0
  6
Continuous
 62
     4
370
     9
100
AcDbCircle
 10
-5.052203330531703
 20
-269.9642788364436
 30
0.0
 40
3.000000027616052
100
AcDbArc
 50
271.6410675048828
 51
309.9992980957031
  0
ARC
  5
32D
330
1F
100
AcDbEntity
  8
0-0
  6
Continuous
 62
     4
370
     9
100
AcDbCircle
 10
3.194924187698696
 20
-270.8765359683663
 30
0.0
 40
3.000000027616052
100
AcDbArc
 50
93.00010681152344
 51
130.0000305175781
  0
ARC
  5
32E
330
1F
100
AcDbEntity
  8
0-0
  6
Continuous
 62
     4
370
     9
100
AcDbCircle
 10
5.127202912869911
 20
-275.7820733416771
 30
0.0
 40
3.000000027616052
100
AcDbArc
 50
92.99917602539065
 51
130.0000305175782
  0
ARC
  5
32F
330
1F
100
AcDbEntity
  8
0-0
  6
Continuous
 62
     4
370
     9
100
AcDbCircle
 10
-3.170710156100305
 20
-274.912426525497
 30
0.0
 40
3.000000027616052
100
AcDbArc
 50
271.6420135498047
 51
310.0001831054688
  0
ARC
  5
330
330
1F
100
AcDbEntity
  8
0-0
  6
Continuous
 62
     4
370
     9
100
AcDbCircle
 10
100.7236444689977
 20
-272.7749246284585
 30
0.0
 40
5.000000046026752
100
AcDbArc
 50
9.897293090820312
 51
92.99974060058594
  0
ARC
  5
331
330
1F
100
AcDbEntity
  8
0-2
  6
Continuous
 62
     3
370
     9
100
AcDbCircle
 10
27.25270845599329
 20
-234.9180125678644
 30
0.0
 40
3.000000027616052
100
AcDbArc
 50
136.4999847412109
 51
269.9996643066406
  0
ARC
  5
332
330
1F
100
AcDbEntity
  8
0-2
  6
Continuous
 62
     3
370
     9
100
AcDbCircle
 10
-18.19109418977472
 20
-221.9177043285426
 30
0.0
 40
21.00000019331236
100
AcDbArc
 50
179.9997253417969
 51
200.7186126708984
  0
ARC
  5
333
330
1F
100
AcDbEntity
  8
0-2
  6
Continuous
 62
     3
370
     9
100
AcDbCircle
 10
-18.19109418977472
 20
-221.9177043285426
 30
0.0
 40
21.00000019331236
100
AcDbArc
 50
228.7262268066407
 51
269.9998016357422
  0
ARC
  5
334
330
1F
100
AcDbEntity
  8
0-2
  6
Continuous
 62
     3
370
     9
100
AcDbCircle
 10
-18.19109418977472
 20
-221.9177043285426
 30
0.0
 40
16.00000014728561
100
AcDbArc
 50
229.8929748535156
 51
237.1702423095703
  0
LINE
  5
335
330
1F
100
AcDbEntity
  8
0-8
  6
Continuous
 62
     3
370
     9
100
AcDbLine
 10
61.88756221670151
 20
-298.280964163215
 30
0.0
 11
61.88756221670151
 21
-304.2809920885664
 31
0.0
  0
LINE
  5
336
330
1F
100
AcDbEntity
  8
0-8
  6
Continuous
 62
     3
370
     9
100
AcDbLine
 10
55.88758383822887
 20
-298.280964163215
 30
0.0
 11
61.88756221670151
 21
-298.280964163215
 31
0.0
  0
LINE
  5
337
330
1F
100
AcDbEntity
  8
0-8
  6
Continuous
 62
     3
370
     9
100
AcDbLine
 10
47.88754660442698
 20
-296.2810539485221
 30
0.0
 11
47.88754660442698
 21
-283.2809438967153
 31
0.0
  0
LINE
  5
338
330
1F
100
AcDbEntity
  8
0-8
  6
Continuous
 62
     3
370
     9
100
AcDbLine
 10
55.88758383822887
 20
-304.2809920885664
 30
0.0
 11
61.88756221670151
 21
-304.2809920885664
 31
0.0
  0
LINE
  5
339
330
1F
100
AcDbEntity
  8
0-8
  6
Continuous
 62
     3
370
     9
100
AcDbLine
 10
53.88762407665713
 20
-296.2810539485221
 30
0.0
 11
53.88762407665713
 21
-283.2809438967153
 31
0.0
  0
LINE
  5
33A
330
1F
100
AcDbEntity
  8
0-8
  6
Continuous
 62
     3
370
     9
100
AcDbLine
 10
47.71264612236706
 20
-283.2809438967153
 30
0.0
 11
54.06252455871704
 21
-283.2809438967153
 31
0.0
  0
LINE
  5
33B
330
1F
100
AcDbEntity
  8
0-8
  6
Continuous
 62
     3
370
     9
100
AcDbLine
 10
53.24767659045727
 20
-283.2809438967153
 30
0.0
 11
53.24767659045727
 21
-281.2809841351436
 31
0.0
  0
LINE
  5
33C
330
1F
100
AcDbEntity
  8
0-8
  6
Continuous
 62
     3
370
     9
100
AcDbLine
 10
48.52774182502078
 20
-283.2809438967153
 30
0.0
 11
48.52774182502078
 21
-281.2809841351436
 31
0.0
  0
LINE
  5
33D
330
1F
100
AcDbEntity
  8
0-8
  6
Continuous
 62
     3
370
     9
100
AcDbLine
 10
47.71264612236706
 20
-283.2809438967153
 30
0.0
 11
47.71264612236706
 21
-281.2809841351436
 31
0.0
  0
LINE
  5
33E
330
1F
100
AcDbEntity
  8
0-8
  6
Continuous
 62
     3
370
     9
100
AcDbLine
 10
54.06252455871704
 20
-283.2809438967153
 30
0.0
 11
54.06252455871704
 21
-281.2809841351436
 31
0.0
  0
LINE
  5
33F
330
1F
100
AcDbEntity
  8
0-8
  6
JWW_CENTER1
 62
     3
370
     9
100
AcDbLine
 10
55.88773247886519
 20
-301.280928579012
 30
0.0
 11
63.27596485360875
 21
-301.280928579012
 31
0.0
  0
LINE
  5
340
330
1F
100
AcDbEntity
  8
0-8
  6
Continuous
 62
     3
370
     9
100
AcDbLine
 10
-105.1127195701251
 20
-131.2810539779792
 30
0.0
 11
-111.1126979485977
 21
-131.2810539779792
 31
0.0
  0
LINE
  5
341
330
1F
100
AcDbEntity
  8
0-8
  6
Continuous
 62
     3
370
     9
100
AcDbLine
 10
-105.1127195701251
 20
-137.2809828095731
 30
0.0
 11
-105.1127195701251
 21
-131.2810539779792
 31
0.0
  0
LINE
  5
342
330
1F
100
AcDbEntity
  8
0-8
  6
Continuous
 62
     3
370
     9
100
AcDbLine
 10
-103.1127598085534
 20
-139.280893024266
 30
0.0
 11
-90.11274885050408
 21
-139.280893024266
 31
0.0
  0
LINE
  5
343
330
1F
100
AcDbEntity
  8
0-8
  6
Continuous
 62
     3
370
     9
100
AcDbLine
 10
-111.1126979485977
 20
-137.2809828095731
 30
0.0
 11
-111.1126979485977
 21
-131.2810539779792
 31
0.0
  0
LINE
  5
344
330
1F
100
AcDbEntity
  8
0-8
  6
Continuous
 62
     3
370
     9
100
AcDbLine
 10
-103.1127598085534
 20
-145.2809952699356
 30
0.0
 11
-90.11274885050408
 21
-145.2809952699356
 31
0.0
  0
LINE
  5
345
330
1F
100
AcDbEntity
  8
0-8
  6
Continuous
 62
     3
370
     9
100
AcDbLine
 10
-90.11274885050408
 20
-139.1059925422061
 30
0.0
 11
-90.11274885050408
 21
-145.4558957519955
 31
0.0
  0
LINE
  5
346
330
1F
100
AcDbEntity
  8
0-8
  6
Continuous
 62
     3
370
     9
100
AcDbLine
 10
-90.11274885050408
 20
-144.6410477837357
 30
0.0
 11
-88.11273954205363
 21
-144.6410477837357
 31
0.0
  0
LINE
  5
347
330
1F
100
AcDbEntity
  8
0-8
  6
Continuous
 62
     3
370
     9
100
AcDbLine
 10
-90.11274885050408
 20
-139.9211377917386
 30
0.0
 11
-88.11273954205363
 21
-139.9211377917386
 31
0.0
  0
LINE
  5
348
330
1F
100
AcDbEntity
  8
0-8
  6
Continuous
 62
     3
370
     9
100
AcDbLine
 10
-90.11274885050408
 20
-139.1059925422061
 30
0.0
 11
-88.11273954205363
 21
-139.1059925422061
 31
0.0
  0
LINE
  5
349
330
1F
100
AcDbEntity
  8
0-8
  6
Continuous
 62
     3
370
     9
100
AcDbLine
 10
-90.11274885050408
 20
-145.4558957519955
 30
0.0
 11
-88.11273954205363
 21
-145.4558957519955
 31
0.0
  0
LINE
  5
34A
330
1F
100
AcDbEntity
  8
0-8
  6
JWW_CENTER1
 62
     3
370
     9
100
AcDbLine
 10
-108.1127335328008
 20
-137.2808837158156
 30
0.0
 11
-108.1127335328008
 21
-129.892651341072
 31
0.0
  0
ARC
  5
34B
330
1F
100
AcDbEntity
  8
0-8
  6
Continuous
 62
     3
370
     9
100
AcDbCircle
 10
55.88758383822887
 20
-296.2810539485221
 30
0.0
 40
2.000000018410701
100
AcDbArc
 50
180.0
 51
270.0
  0
ARC
  5
34C
330
1F
100
AcDbEntity
  8
0-8
  6
Continuous
 62
     3
370
     9
100
AcDbCircle
 10
55.88758383822887
 20
-296.2810539485221
 30
0.0
 40
8.000000073642804
100
AcDbArc
 50
180.0
 51
270.0
  0
ARC
  5
34D
330
1F
100
AcDbEntity
  8
0-8
  6
JWW_CENTER1
 62
     3
370
     9
100
AcDbCircle
 10
55.88773247886519
 20
-296.2810539485221
 30
0.0
 40
5.000000046026752
100
AcDbArc
 50
180.0
 51
270.0
  0
ARC
  5
34E
330
1F
100
AcDbEntity
  8
0-8
  6
Continuous
 62
     3
370
     9
100
AcDbCircle
 10
-103.1127598085534
 20
-137.2809828095731
 30
0.0
 40
2.000000018410701
100
AcDbArc
 50
180.0
 51
270.0
  0
ARC
  5
34F
330
1F
100
AcDbEntity
  8
0-8
  6
Continuous
 62
     3
370
     9
100
AcDbCircle
 10
-103.1127598085534
 20
-137.2809828095731
 30
0.0
 40
8.000000073642804
100
AcDbArc
 50
180.0
 51
270.0
  0
ARC
  5
350
330
1F
100
AcDbEntity
  8
0-8
  6
JWW_CENTER1
 62
     3
370
     9
100
AcDbCircle
 10
-103.1127598085534
 20
-137.2808837158156
 30
0.0
 40
5.000000046026752
100
AcDbArc
 50
180.0
 51
270.0
  0
LINE
  5
351
330
1F
100
AcDbEntity
  8
0-4
  6
Continuous
 62
     7
370
     9
100
AcDbLine
 10
-202.5464089379422
 20
-234.577947565423
 30
0.0
 11
-201.7632461986562
 21
-228.6292749799172
 31
0.0
  0
LINE
  5
352
330
1F
100
AcDbEntity
  8
0-4
  6
Continuous
 62
     7
370
     9
100
AcDbLine
 10
-202.5464089379422
 20
-234.577947565423
 30
0.0
 11
-203.3295716772283
 21
-228.6292749799172
 31
0.0
  0
LINE
  5
353
330
1F
100
AcDbEntity
  8
0-4
  6
Continuous
 62
     7
370
     9
100
AcDbLine
 10
-202.5187370061489
 20
-237.2948754362434
 30
0.0
 11
-203.1806089862048
 21
-243.258263444744
 31
0.0
  0
LINE
  5
354
330
1F
100
AcDbEntity
  8
0-4
  6
Continuous
 62
     7
370
     9
100
AcDbLine
 10
-202.5187370061489
 20
-237.2948754362434
 30
0.0
 11
-201.6146055623446
 21
-243.2263800282552
 31
0.0
  0
LINE
  5
355
330
1F
100
AcDbEntity
  8
0-4
  6
Continuous
 62
     7
370
     9
100
AcDbLine
 10
74.30906381822632
 20
-252.9704921682185
 30
0.0
 11
132.9820812832359
 21
-252.9704921682185
 31
0.0
  0
LINE
  5
356
330
1F
100
AcDbEntity
  8
0-4
  6
Continuous
 62
     7
370
     9
100
AcDbLine
 10
75.8090460261248
 20
-260.9706037223385
 30
0.0
 11
132.9820812832359
 21
-260.9706037223385
 31
0.0
  0
LINE
  5
357
330
1F
100
AcDbEntity
  8
0-4
  6
Continuous
 62
     7
370
     9
100
AcDbLine
 10
132.3820685813251
 20
-252.9704921682185
 30
0.0
 11
131.5989306154783
 21
-247.0218195827127
 31
0.0
  0
LINE
  5
358
330
1F
100
AcDbEntity
  8
0-4
  6
Continuous
 62
     7
370
     9
100
AcDbLine
 10
132.3820685813251
 20
-252.9704921682185
 30
0.0
 11
133.1652065471717
 21
-247.0218195827127
 31
0.0
  0
LINE
  5
359
330
1F
100
AcDbEntity
  8
0-4
  6
Continuous
 62
     7
370
     9
100
AcDbLine
 10
132.3820685813251
 20
-260.9706037223385
 30
0.0
 11
131.5989306154783
 21
-266.9192763078443
 31
0.0
  0
LINE
  5
35A
330
1F
100
AcDbEntity
  8
0-4
  6
Continuous
 62
     7
370
     9
100
AcDbLine
 10
132.3820685813251
 20
-260.9706037223385
 30
0.0
 11
133.1652065471717
 21
-266.9192763078443
 31
0.0
  0
LINE
  5
35B
330
1F
100
AcDbEntity
  8
0-4
  6
Continuous
 62
     7
370
     9
100
AcDbLine
 10
-55.69114485602414
 20
-117.9705822775539
 30
0.0
 11
132.9820812832359
 21
-117.9705822775539
 31
0.0
  0
LINE
  5
35C
330
1F
100
AcDbEntity
  8
0-4
  6
Continuous
 62
     7
370
     9
100
AcDbLine
 10
132.3820685813251
 20
-117.9705822775539
 30
0.0
 11
131.5989306154783
 21
-123.9191805427415
 31
0.0
  0
LINE
  5
35D
330
1F
100
AcDbEntity
  8
0-4
  6
Continuous
 62
     7
370
     9
100
AcDbLine
 10
132.3820685813251
 20
-117.9705822775539
 30
0.0
 11
133.1652065471717
 21
-123.9191805427415
 31
0.0
  0
LINE
  5
35E
330
1F
100
AcDbEntity
  8
0-4
  6
Continuous
 62
     7
370
     9
100
AcDbLine
 10
132.3820685813251
 20
-117.9705822775539
 30
0.0
 11
132.3820685813251
 21
-268.9642246353396
 31
0.0
  0
LINE
  5
35F
330
1F
100
AcDbEntity
  8
0-4
  6
Continuous
 62
     7
370
     9
100
AcDbLine
 10
150.1047889300219
 20
-262.2809452517429
 30
0.0
 11
150.1047889300219
 21
-234.577947565423
 31
0.0
  0
LINE
  5
360
330
1F
100
AcDbEntity
  8
0-4
  6
Continuous
 62
     7
370
     9
100
AcDbLine
 10
-65.112682041752
 20
-234.577947565423
 30
0.0
 11
150.7048016319329
 21
-234.577947565423
 31
0.0
  0
LINE
  5
361
330
1F
100
AcDbEntity
  8
0-4
  6
Continuous
 62
     7
370
     9
100
AcDbLine
 10
150.1047889300219
 20
-262.2809452517429
 30
0.0
 11
149.3216509641753
 21
-256.3322726662371
 31
0.0
  0
LINE
  5
362
330
1F
100
AcDbEntity
  8
0-4
  6
Continuous
 62
     7
370
     9
100
AcDbLine
 10
150.1047889300219
 20
-262.2809452517429
 30
0.0
 11
150.8879268958687
 21
-256.3322726662371
 31
0.0
  0
LINE
  5
363
330
1F
100
AcDbEntity
  8
0-4
  6
Continuous
 62
     7
370
     9
100
AcDbLine
 10
150.1047889300219
 20
-234.577947565423
 30
0.0
 11
149.3216509641753
 21
-240.5266201509288
 31
0.0
  0
LINE
  5
364
330
1F
100
AcDbEntity
  8
0-4
  6
Continuous
 62
     7
370
     9
100
AcDbLine
 10
150.1047889300219
 20
-234.577947565423
 30
0.0
 11
150.8879268958687
 21
-240.5266201509288
 31
0.0
  0
LINE
  5
365
330
1F
100
AcDbEntity
  8
0-4
  6
Continuous
 62
     7
370
     9
100
AcDbLine
 10
168.6345783870117
 20
-286.0961480015769
 30
0.0
 11
168.6345783870117
 21
-82.28087546782146
 31
0.0
  0
LINE
  5
366
330
1F
100
AcDbEntity
  8
0-4
  6
Continuous
 62
     7
370
     9
100
AcDbLine
 10
-90.037313727576
 20
-286.0961480015769
 30
0.0
 11
169.2345910889226
 21
-286.0961480015769
 31
0.0
  0
LINE
  5
367
330
1F
100
AcDbEntity
  8
0-4
  6
Continuous
 62
     7
370
     9
100
AcDbLine
 10
168.6345783870117
 20
-286.0961480015769
 30
0.0
 11
167.851440421165
 21
-280.1474754160712
 31
0.0
  0
LINE
  5
368
330
1F
100
AcDbEntity
  8
0-4
  6
Continuous
 62
     7
370
     9
100
AcDbLine
 10
168.6345783870117
 20
-286.0961480015769
 30
0.0
 11
169.4177163528585
 21
-280.1474754160712
 31
0.0
  0
LINE
  5
369
330
1F
100
AcDbEntity
  8
0-4
  6
Continuous
 62
     7
370
     9
100
AcDbLine
 10
169.4177163528585
 20
-256.3322726662371
 30
0.0
 11
167.851440421165
 21
-268.2296178372486
 31
0.0
  0
LINE
  5
36A
330
1F
100
AcDbEntity
  8
0-4
  6
Continuous
 62
     7
370
     9
100
AcDbLine
 10
167.851440421165
 20
-256.3322726662371
 30
0.0
 11
169.4177163528585
 21
-268.2296178372486
 31
0.0
  0
LINE
  5
36B
330
1F
100
AcDbEntity
  8
0-4
  6
Continuous
 62
     7
370
     9
100
AcDbLine
 10
-67.11249316268736
 20
-82.28087546782146
 30
0.0
 11
169.2345910889226
 21
-82.28087546782146
 31
0.0
  0
LINE
  5
36C
330
1F
100
AcDbEntity
  8
0-4
  6
Continuous
 62
     7
370
     9
100
AcDbLine
 10
168.6345783870117
 20
-82.28087546782146
 30
0.0
 11
167.851440421165
 21
-88.22957282676667
 31
0.0
  0
LINE
  5
36D
330
1F
100
AcDbEntity
  8
0-4
  6
Continuous
 62
     7
370
     9
100
AcDbLine
 10
168.6345783870117
 20
-82.28087546782146
 30
0.0
 11
169.4177163528585
 21
-88.22957282676667
 31
0.0
  0
LINE
  5
36E
330
1F
100
AcDbEntity
  8
0-4
  6
Continuous
 62
     7
370
     9
100
AcDbLine
 10
114.8875116093663
 20
-262.2809452517429
 30
0.0
 11
130.2085461034202
 21
-262.2809452517429
 31
0.0
  0
LINE
  5
36F
330
1F
100
AcDbEntity
  8
0-4
  6
Continuous
 62
     7
370
     9
100
AcDbLine
 10
134.4975221173108
 20
-262.2809452517429
 30
0.0
 11
169.2345910889226
 21
-262.2809452517429
 31
0.0
  0
ARC
  5
370
330
1F
100
AcDbEntity
  8
0-4
  6
Continuous
 62
     7
370
     9
100
AcDbCircle
 10
-69.11388978374343
 20
-234.577947565423
 30
0.0
 40
133.4325191541988
100
AcDbArc
 50
176.5338134765625
 51
185.1354522705078
  0
LINE
  5
371
330
1F
100
AcDbEntity
  8
0-4
  6
Continuous
 62
     7
370
     9
100
AcDbLine
 10
-235.0848256916968
 20
-196.7672854062503
 30
0.0
 11
-233.3874239453372
 21
-280.1124436628694
 31
0.0
  0
LINE
  5
372
330
1F
100
AcDbEntity
  8
0-4
  6
Continuous
 62
     7
370
     9
100
AcDbLine
 10
-106.4436973745374
 20
-193.641969497075
 30
0.0
 11
-235.6846897529714
 21
-196.7794987118672
 31
0.0
  0
LINE
  5
373
330
1F
100
AcDbEntity
  8
0-4
  6
Continuous
 62
     7
370
     9
100
AcDbLine
 10
-104.7463204016171
 20
-276.9871029802547
 30
0.0
 11
-233.9872880066117
 21
-280.1246569684863
 31
0.0
  0
LINE
  5
374
330
1F
100
AcDbEntity
  8
0-4
  6
Continuous
 62
     7
370
     9
100
AcDbLine
 10
-235.0848256916968
 20
-196.7672854062503
 30
0.0
 11
-234.1807190213318
 21
-202.6987652248226
 31
0.0
  0
LINE
  5
375
330
1F
100
AcDbEntity
  8
0-4
  6
Continuous
 62
     7
370
     9
100
AcDbLine
 10
-235.0848256916968
 20
-196.7672854062503
 30
0.0
 11
-235.7466976717527
 21
-202.7306734147509
 31
0.0
  0
LINE
  5
376
330
1F
100
AcDbEntity
  8
0-4
  6
Continuous
 62
     7
370
     9
100
AcDbLine
 10
-233.3874239453372
 20
-280.1124436628694
 30
0.0
 11
-232.7255519652813
 21
-274.1490556543687
 31
0.0
  0
LINE
  5
377
330
1F
100
AcDbEntity
  8
0-4
  6
Continuous
 62
     7
370
     9
100
AcDbLine
 10
-233.3874239453372
 20
-280.1124436628694
 30
0.0
 11
-234.2915306157021
 21
-274.1809390708576
 31
0.0
  0
TEXT
  5
378
330
1F
100
AcDbEntity
  8
0-4
  6
Continuous
 62
     2
370
     9
100
AcDbText
 10
-237.3083740667764
 20
-247.4048119045203
 30
0.0
 40
9.144
  1
Rc3
 50
91.16683799999997
 41
1.083333333333334
  7
ＭＳ ゴシック
100
AcDbText
  0
TEXT
  5
379
330
1F
100
AcDbEntity
  8
0-4
  6
Continuous
 62
     2
370
     9
100
AcDbText
 10
-209.2962155488525
 20
-251.5499288673589
 30
0.0
 40
9.144
  1
1ﾟ10'
 50
90.58332441
 41
1.100000000000001
  7
ＭＳ ゴシック
100
AcDbText
  0
TEXT
  5
37A
330
1F
100
AcDbEntity
  8
0-4
  6
Continuous
 62
     2
370
     9
100
AcDbText
 10
130.5333038659258
 20
-195.2205248361665
 30
0.0
 40
9.144
  1
135
 50
90.0
 41
1.083333333333333
  7
ＭＳ ゴシック
100
AcDbText
  0
TEXT
  5
37B
330
1F
100
AcDbEntity
  8
0-4
  6
Continuous
 62
     2
370
     9
100
AcDbText
 10
166.251088729215
 20
-280.5635342399402
 30
0.0
 40
9.144
  1
24
 50
90.0
 41
1.0625
  7
ＭＳ ゴシック
100
AcDbText
  0
TEXT
  5
37C
330
1F
100
AcDbEntity
  8
0-4
  6
Continuous
 62
     2
370
     9
100
AcDbText
 10
148.0674891624496
 20
-254.8044587953026
 30
0.0
 40
9.144
  1
28
 50
90.0
 41
1.0625
  7
ＭＳ ゴシック
100
AcDbText
  0
TEXT
  5
37D
330
1F
100
AcDbEntity
  8
0-4
  6
Continuous
 62
     2
370
     9
100
AcDbText
 10
130.8580110010466
 20
-259.9705479452785
 30
0.0
 40
9.144
  1
8
 50
90.0
  7
ＭＳ ゴシック
100
AcDbText
  0
LINE
  5
37E
330
1F
100
AcDbEntity
  8
0-5
  6
Continuous
 62
     7
370
     9
100
AcDbLine
 10
71.8090274092238
 20
-255.9636438881845
 30
0.0
 11
183.6630308348013
 21
-144.109640462607
 31
0.0
  0
LINE
  5
37F
330
1F
100
AcDbEntity
  8
0-5
  6
Continuous
 62
     7
370
     9
100
AcDbLine
 10
71.8090274092238
 20
-255.9636438881845
 30
0.0
 11
76.37473812678921
 21
-250.0134938360002
 31
0.0
  0
LINE
  5
380
330
1F
100
AcDbEntity
  8
0-5
  6
Continuous
 62
     7
370
     9
100
AcDbLine
 10
71.8090274092238
 20
-255.9636438881845
 30
0.0
 11
77.75917746140807
 21
-251.3979331706191
 31
0.0
  0
TEXT
  5
381
330
1F
100
AcDbEntity
  8
0-4
  6
Continuous
 62
     2
370
     9
100
AcDbText
 10
165.6016744589734
 20
-198.6152954398189
 30
0.0
 40
9.144
  1
180
 50
90.0
 41
1.083333333333333
  7
ＭＳ ゴシック
100
AcDbText
  0
LINE
  5
382
330
1F
100
AcDbEntity
  8
0-5
  6
Continuous
 62
     7
370
     9
100
AcDbLine
 10
110.8874929924654
 20
-273.2809469013417
 30
0.0
 11
116.8376430446497
 21
-277.8466576189071
 31
0.0
  0
LINE
  5
383
330
1F
100
AcDbEntity
  8
0-5
  6
Continuous
 62
     7
370
     9
100
AcDbLine
 10
110.8874929924654
 20
-273.2809469013417
 30
0.0
 11
115.4532037100308
 21
-279.2310969535259
 31
0.0
  0
LINE
  5
384
330
1F
100
AcDbEntity
  8
0-5
  6
Continuous
 62
     7
370
     9
100
AcDbLine
 10
304.9939309822983
 20
-144.109640462607
 30
0.0
 11
183.6630308348013
 21
-144.109640462607
 31
0.0
  0
LINE
  5
385
330
1F
100
AcDbEntity
  8
0-5
  6
Continuous
 62
     7
370
     9
100
AcDbLine
 10
61.88756221670151
 20
-301.280928579012
 30
0.0
 11
93.15026027584506
 21
-332.5436266381555
 31
0.0
  0
LINE
  5
386
330
1F
100
AcDbEntity
  8
0-5
  6
Continuous
 62
     7
370
     9
100
AcDbLine
 10
61.88756221670151
 20
-301.280928579012
 30
0.0
 11
66.4532729342669
 21
-307.2310786311962
 31
0.0
  0
LINE
  5
387
330
1F
100
AcDbEntity
  8
0-5
  6
Continuous
 62
     7
370
     9
100
AcDbLine
 10
61.88756221670151
 20
-301.280928579012
 30
0.0
 11
67.83771226888577
 21
-305.8466392965773
 31
0.0
  0
LINE
  5
388
330
1F
100
AcDbEntity
  8
0-5
  6
Continuous
 62
     7
370
     9
100
AcDbLine
 10
110.8874929924654
 20
-273.2809469013417
 30
0.0
 11
142.5493732191356
 21
-304.9428271280119
 31
0.0
  0
LINE
  5
389
330
1F
100
AcDbEntity
  8
0-5
  6
Continuous
 62
     7
370
     9
100
AcDbLine
 10
-31.59088394990631
 20
-164.9177180768819
 30
0.0
 11
-27.0251732323409
 21
-158.9675680246976
 31
0.0
  0
LINE
  5
38A
330
1F
100
AcDbEntity
  8
0-5
  6
Continuous
 62
     7
370
     9
100
AcDbLine
 10
-31.59088394990631
 20
-164.9177180768819
 30
0.0
 11
-25.64073389772204
 21
-160.3520073593165
 31
0.0
  0
LINE
  5
38B
330
1F
100
AcDbEntity
  8
0-5
  6
Continuous
 62
     7
370
     9
100
AcDbLine
 10
305.8102953457004
 20
-98.97782438567671
 30
0.0
 11
174.0211192590825
 21
-98.97782438567671
 31
0.0
  0
TEXT
  5
38C
330
1F
100
AcDbEntity
  8
0-5
  6
Continuous
 62
     7
370
     9
100
AcDbText
 10
-294.2350042343288
 20
-307.2222867286845
 30
0.0
 40
6.858000000000001
  1
位置決めプレート
 41
1.145833333333333
  7
ＭＳ ゴシック
100
AcDbText
  0
LINE
  5
38D
330
1F
100
AcDbEntity
  8
0-5
  6
Continuous
 62
     7
370
     9
100
AcDbLine
 10
-189.1079824230921
 20
-292.372597963589
 30
0.0
 11
-209.3078233154473
 21
-312.5723735833615
 31
0.0
  0
LINE
  5
38E
330
1F
100
AcDbEntity
  8
0-5
  6
Continuous
 62
     7
370
     9
100
AcDbLine
 10
-296.0929358202021
 20
-312.5723735833615
 30
0.0
 11
-209.3078233154473
 21
-312.5723735833615
 31
0.0
  0
LINE
  5
38F
330
1F
100
AcDbEntity
  8
0-5
  6
Continuous
 62
     7
370
     9
100
AcDbLine
 10
-189.1079824230921
 20
-292.372597963589
 30
0.0
 11
-193.6736925423911
 21
-298.3227338905315
 31
0.0
  0
LINE
  5
390
330
1F
100
AcDbEntity
  8
0-5
  6
Continuous
 62
     7
370
     9
100
AcDbLine
 10
-189.1079824230921
 20
-292.372597963589
 30
0.0
 11
-195.058127999517
 21
-296.9383145140716
 31
0.0
  0
LINE
  5
391
330
1F
100
AcDbEntity
  8
0-5
  6
Continuous
 62
     7
370
     9
100
AcDbLine
 10
-111.8767178575201
 20
-288.3933743022254
 30
0.0
 11
-117.8268537844627
 21
-292.9590844215243
 31
0.0
  0
LINE
  5
392
330
1F
100
AcDbEntity
  8
0-5
  6
Continuous
 62
     7
370
     9
100
AcDbLine
 10
-111.8767178575201
 20
-288.3933743022254
 30
0.0
 11
-116.4424279768191
 21
-294.3435102291679
 31
0.0
  0
TEXT
  5
393
330
1F
100
AcDbEntity
  8
0-5
  6
Continuous
 62
     7
370
     9
100
AcDbText
 10
-237.5828661318882
 20
-326.7017642618761
 30
0.0
 40
6.858000000000001
  1
スペーサー
 41
1.133333333333333
  7
ＭＳ ゴシック
100
AcDbText
  0
LINE
  5
394
330
1F
100
AcDbEntity
  8
0-5
  6
Continuous
 62
     7
370
     9
100
AcDbLine
 10
-264.7834468169677
 20
-330.8929381524091
 30
0.0
 11
-154.3764190387489
 21
-330.8929381524091
 31
0.0
  0
LINE
  5
395
330
1F
100
AcDbEntity
  8
0-5
  6
Continuous
 62
     7
370
     9
100
AcDbLine
 10
-111.8767178575201
 20
-288.3933743022254
 30
0.0
 11
-154.3764190387489
 21
-330.8929381524091
 31
0.0
  0
LINE
  5
396
330
1F
100
AcDbEntity
  8
0-5
  6
Continuous
 62
     7
370
     9
100
AcDbLine
 10
41.44476777038228
 20
-231.5541758743769
 30
0.0
 11
174.0211192590825
 21
-98.97782438567671
 31
0.0
  0
LINE
  5
397
330
1F
100
AcDbEntity
  8
0-5
  6
Continuous
 62
     7
370
     9
100
AcDbLine
 10
41.44476777038228
 20
-231.5541758743769
 30
0.0
 11
47.39491782256655
 21
-226.9884651568115
 31
0.0
  0
LINE
  5
398
330
1F
100
AcDbEntity
  8
0-5
  6
Continuous
 62
     7
370
     9
100
AcDbLine
 10
41.44476777038228
 20
-231.5541758743769
 30
0.0
 11
46.01047848794769
 21
-225.6040258221926
 31
0.0
  0
LINE
  5
399
330
1F
100
AcDbEntity
  8
0-5
  6
Continuous
 62
     7
370
     9
100
AcDbLine
 10
234.1996370162491
 20
-14.39896211177556
 30
0.0
 11
118.9278720152
 21
-14.39896211177556
 31
0.0
  0
LINE
  5
39A
330
1F
100
AcDbEntity
  8
0-5
  6
Continuous
 62
     7
370
     9
100
AcDbLine
 10
-31.59088394990631
 20
-164.9177180768819
 30
0.0
 11
118.9278720152
 21
-14.39896211177556
 31
0.0
  0
LINE
  5
39B
330
1F
100
AcDbEntity
  8
0-A
  6
Continuous
 62
     2
370
     9
100
AcDbLine
 10
-11.24957193532182
 20
-202.7640798700816
 30
0.0
 11
-9.835553562090215
 21
-202.7641789638392
 31
0.0
  0
LINE
  5
39C
330
1F
100
AcDbEntity
  8
0-A
  6
Continuous
 62
     2
370
     9
100
AcDbLine
 10
-4.178835959739644
 20
-208.4210452068261
 30
0.0
 11
-4.178835959739644
 21
-209.8349149394214
 31
0.0
  0
LINE
  5
39D
330
1F
100
AcDbEntity
  8
0-A
  6
Continuous
 62
     2
370
     9
100
AcDbLine
 10
-8.951587697945484
 20
-206.476231121326
 30
0.0
 11
-7.537519777835115
 21
-205.0621632012155
 31
0.0
  0
LINE
  5
39E
330
1F
100
AcDbEntity
  8
0-A
  6
Continuous
 62
     2
370
     9
100
AcDbLine
 10
-7.890987210983925
 20
-207.536930702045
 30
0.0
 11
-8.951587697945484
 21
-206.476231121326
 31
0.0
  0
LINE
  5
39F
330
1F
100
AcDbEntity
  8
0-A
  6
Continuous
 62
     2
370
     9
100
AcDbLine
 10
-7.890987210983925
 20
-207.536930702045
 30
0.0
 11
-6.476820197115983
 21
-206.1227636881771
 31
0.0
  0
LINE
  5
3A0
330
1F
100
AcDbEntity
  8
0-A
  6
Continuous
 62
     2
370
     9
100
AcDbLine
 10
-8.244454644132789
 20
-205.7692962550283
 30
0.0
 11
-11.24957193532182
 21
-202.7640798700816
 31
0.0
  0
LINE
  5
3A1
330
1F
100
AcDbEntity
  8
0-A
  6
Continuous
 62
     2
370
     9
100
AcDbLine
 10
-7.537519777835115
 20
-205.0621632012155
 30
0.0
 11
-9.835553562090215
 21
-202.7641789638392
 31
0.0
  0
LINE
  5
3A2
330
1F
100
AcDbEntity
  8
0-A
  6
Continuous
 62
     2
370
     9
100
AcDbLine
 10
-4.178835959739644
 20
-208.4210452068261
 30
0.0
 11
-6.476820197115984
 21
-206.1227636881771
 31
0.0
  0
LINE
  5
3A3
330
1F
100
AcDbEntity
  8
0-A
  6
Continuous
 62
     2
370
     9
100
AcDbLine
 10
-4.178835959739643
 20
-209.8349149394214
 30
0.0
 11
-7.183953250928738
 21
-206.8299958357474
 31
0.0
  0
LINE
  5
3A4
330
1F
100
AcDbEntity
  8
0-A
  6
Continuous
 62
     2
370
     9
100
AcDbLine
 10
-39.81706810113376
 20
-231.3310662792732
 30
0.0
 11
-11.24957193532183
 21
-202.7640798700816
 31
0.0
  0
LINE
  5
3A5
330
1F
100
AcDbEntity
  8
0-A
  6
Continuous
 62
     2
370
     9
100
AcDbLine
 10
-39.10988550044225
 20
-232.0382241065254
 30
0.0
 11
-9.835553562090212
 21
-202.7641789638392
 31
0.0
  0
LINE
  5
3A6
330
1F
100
AcDbEntity
  8
0-A
  6
Continuous
 62
     2
370
     9
100
AcDbLine
 10
-33.45277152306157
 20
-237.6952142167091
 30
0.0
 11
-4.17883595973964
 21
-208.4210452068261
 31
0.0
  0
LINE
  5
3A7
330
1F
100
AcDbEntity
  8
0-A
  6
Continuous
 62
     2
370
     9
100
AcDbLine
 10
-32.74563846924882
 20
-238.4023472705219
 30
0.0
 11
-4.178835959739645
 21
-209.8349149394214
 31
0.0
  0
LINE
  5
3A8
330
1F
100
AcDbEntity
  8
0-0
  6
JWW_CENTER1
 62
     4
370
     9
100
AcDbLine
 10
-6.068851197319616
 20
-204.6536987326314
 30
0.0
 11
-53.9916869141956
 21
-252.5769413101443
 31
0.0
  0
LINE
  5
3A9
330
1F
100
AcDbEntity
  8
0-5
  6
Continuous
 62
     7
370
     9
100
AcDbLine
 10
-6.476820197115984
 20
-206.1227636881771
 30
0.0
 11
-1.91110947955058
 21
-200.1726136359928
 31
0.0
  0
LINE
  5
3AA
330
1F
100
AcDbEntity
  8
0-5
  6
Continuous
 62
     7
370
     9
100
AcDbLine
 10
-6.476820197115984
 20
-206.1227636881771
 30
0.0
 11
-0.5266701449317184
 21
-201.5570529706117
 31
0.0
  0
LINE
  5
3AB
330
1F
100
AcDbEntity
  8
0-5
  6
Continuous
 62
     7
370
     9
100
AcDbLine
 10
-6.476820197115984
 20
-206.1227636881771
 30
0.0
 11
149.6058107589791
 21
-50.04019276456749
 31
0.0
  0
LINE
  5
3AC
330
1F
100
AcDbEntity
  8
0-2
  6
Continuous
 62
     3
370
     9
100
AcDbLine
 10
-1.583773175959599
 20
-195.5963213567384
 30
0.0
 11
-9.091664901284505
 21
-203.5080515859941
 31
0.0
  0
LINE
  5
3AD
330
1F
100
AcDbEntity
  8
0-5
  6
Continuous
 62
     7
370
     9
100
AcDbLine
 10
247.5133708840864
 20
-304.9428271280119
 30
0.0
 11
142.5493732191356
 21
-304.9428271280119
 31
0.0
  0
LINE
  5
3AE
330
1F
100
AcDbEntity
  8
0-5
  6
Continuous
 62
     7
370
     9
100
AcDbLine
 10
201.5458866697244
 20
-332.5436266381556
 30
0.0
 11
93.15026027584506
 21
-332.5436266381555
 31
0.0
  0
LINE
  5
3AF
330
1F
100
AcDbEntity
  8
0-4
  6
Continuous
 62
     7
370
     9
100
AcDbLine
 10
-104.0819463041834
 20
-183.930607843979
 30
0.0
 11
-104.0819463041834
 21
-154.0886524770846
 31
0.0
  0
LINE
  5
3B0
330
1F
100
AcDbEntity
  8
0-4
  6
Continuous
 62
     7
370
     9
100
AcDbLine
 10
-189.1079824230921
 20
-35.28142105534925
 30
0.0
 11
110.8874929924654
 21
-35.28142105534925
 31
0.0
  0
LINE
  5
3B1
330
1F
100
AcDbEntity
  8
0-4
  6
Continuous
 62
     7
370
     9
100
AcDbLine
 10
-189.1079824230921
 20
-178.1095432447467
 30
0.0
 11
-189.1079824230921
 21
-34.68140835343837
 31
0.0
  0
LINE
  5
3B2
330
1F
100
AcDbEntity
  8
0-4
  6
Continuous
 62
     7
370
     9
100
AcDbLine
 10
-189.1079824230921
 20
-35.28142105534925
 30
0.0
 11
-183.1593098375864
 21
-34.49828308950259
 31
0.0
  0
LINE
  5
3B3
330
1F
100
AcDbEntity
  8
0-4
  6
Continuous
 62
     7
370
     9
100
AcDbLine
 10
-189.1079824230921
 20
-35.28142105534925
 30
0.0
 11
-183.1593098375864
 21
-36.06455902119598
 31
0.0
  0
LINE
  5
3B4
330
1F
100
AcDbEntity
  8
0-4
  6
Continuous
 62
     7
370
     9
100
AcDbLine
 10
-63.16385465907148
 20
-36.06455902119598
 30
0.0
 11
-75.06115028320424
 21
-34.49828308950259
 31
0.0
  0
LINE
  5
3B5
330
1F
100
AcDbEntity
  8
0-4
  6
Continuous
 62
     7
370
     9
100
AcDbLine
 10
-63.16385465907148
 20
-34.49828308950259
 30
0.0
 11
-75.06115028320424
 21
-36.06455902119598
 31
0.0
  0
LINE
  5
3B6
330
1F
100
AcDbEntity
  8
0-4
  6
Continuous
 62
     7
370
     9
100
AcDbLine
 10
110.8874929924654
 20
-260.3361063928033
 30
0.0
 11
110.8874929924654
 21
-34.68140835343837
 31
0.0
  0
LINE
  5
3B7
330
1F
100
AcDbEntity
  8
0-4
  6
Continuous
 62
     7
370
     9
100
AcDbLine
 10
110.8874929924654
 20
-35.28142105534925
 30
0.0
 11
104.938845180399
 21
-34.49828308950259
 31
0.0
  0
LINE
  5
3B8
330
1F
100
AcDbEntity
  8
0-4
  6
Continuous
 62
     7
370
     9
100
AcDbLine
 10
110.8874929924654
 20
-35.28142105534925
 30
0.0
 11
104.938845180399
 21
-36.06455902119598
 31
0.0
  0
LINE
  5
3B9
330
1F
100
AcDbEntity
  8
0-4
  6
Continuous
 62
     7
370
     9
100
AcDbLine
 10
-69.11250247113786
 20
-80.28086615937104
 30
0.0
 11
-69.11250247113786
 21
-34.68140835343837
 31
0.0
  0
TEXT
  5
3BA
330
1F
100
AcDbEntity
  8
0-4
  6
Continuous
 62
     2
370
     9
100
AcDbText
 10
11.13752003410315
 20
-33.17021039678558
 30
0.0
 40
9.144
  1
180
 41
1.083333333333333
  7
ＭＳ ゴシック
100
AcDbText
  0
LINE
  5
3BB
330
1F
100
AcDbEntity
  8
0-4
  6
Continuous
 62
     7
370
     9
100
AcDbLine
 10
-104.0819463041834
 20
-59.83545565093529
 30
0.0
 11
-69.11250247113786
 21
-59.83545565093529
 31
0.0
  0
LINE
  5
3BC
330
1F
100
AcDbEntity
  8
0-4
  6
Continuous
 62
     7
370
     9
100
AcDbLine
 10
-104.0819463041834
 20
-59.83545565093529
 30
0.0
 11
-98.13327371867757
 21
-59.05231768508857
 31
0.0
  0
LINE
  5
3BD
330
1F
100
AcDbEntity
  8
0-4
  6
Continuous
 62
     7
370
     9
100
AcDbLine
 10
-104.0819463041834
 20
-59.83545565093529
 30
0.0
 11
-98.13327371867757
 21
-60.61859361678195
 31
0.0
  0
LINE
  5
3BE
330
1F
100
AcDbEntity
  8
0-4
  6
Continuous
 62
     7
370
     9
100
AcDbLine
 10
-69.11250247113786
 20
-59.83545565093529
 30
0.0
 11
-75.06115028320424
 21
-59.05231768508857
 31
0.0
  0
LINE
  5
3BF
330
1F
100
AcDbEntity
  8
0-4
  6
Continuous
 62
     7
370
     9
100
AcDbLine
 10
-69.11250247113786
 20
-59.83545565093529
 30
0.0
 11
-75.06115028320424
 21
-60.61859361678195
 31
0.0
  0
LINE
  5
3C0
330
1F
100
AcDbEntity
  8
0-4
  6
Continuous
 62
     7
370
     9
100
AcDbLine
 10
-66.19121849882849
 20
-59.83545565093529
 30
0.0
 11
71.8090274092238
 21
-59.83545565093529
 31
0.0
  0
LINE
  5
3C1
330
1F
100
AcDbEntity
  8
0-4
  6
Continuous
 62
     7
370
     9
100
AcDbLine
 10
-66.19121849882849
 20
-113.1112225952572
 30
0.0
 11
-66.19121849882849
 21
-59.23544294902435
 31
0.0
  0
LINE
  5
3C2
330
1F
100
AcDbEntity
  8
0-4
  6
Continuous
 62
     7
370
     9
100
AcDbLine
 10
-37.19123216693298
 20
-143.0610969135016
 30
0.0
 11
-37.19123216693298
 21
-59.23544294902435
 31
0.0
  0
LINE
  5
3C3
330
1F
100
AcDbEntity
  8
0-4
  6
Continuous
 62
     7
370
     9
100
AcDbLine
 10
-66.19121849882849
 20
-59.83545565093529
 30
0.0
 11
-60.24257068676211
 21
-59.05231768508857
 31
0.0
  0
LINE
  5
3C4
330
1F
100
AcDbEntity
  8
0-4
  6
Continuous
 62
     7
370
     9
100
AcDbLine
 10
-66.19121849882849
 20
-59.83545565093529
 30
0.0
 11
-60.24257068676211
 21
-60.61859361678195
 31
0.0
  0
LINE
  5
3C5
330
1F
100
AcDbEntity
  8
0-4
  6
Continuous
 62
     7
370
     9
100
AcDbLine
 10
-31.2425843548666
 20
-60.61859361678195
 30
0.0
 11
-43.13987997899936
 21
-59.05231768508857
 31
0.0
  0
LINE
  5
3C6
330
1F
100
AcDbEntity
  8
0-4
  6
Continuous
 62
     7
370
     9
100
AcDbLine
 10
-31.2425843548666
 20
-59.05231768508857
 30
0.0
 11
-43.13987997899936
 21
-60.61859361678195
 31
0.0
  0
LINE
  5
3C7
330
1F
100
AcDbEntity
  8
0-4
  6
Continuous
 62
     7
370
     9
100
AcDbLine
 10
71.8090274092238
 20
-250.4705053060948
 30
0.0
 11
71.8090274092238
 21
-59.23544294902435
 31
0.0
  0
LINE
  5
3C8
330
1F
100
AcDbEntity
  8
0-4
  6
Continuous
 62
     7
370
     9
100
AcDbLine
 10
71.8090274092238
 20
-59.83545565093529
 30
0.0
 11
65.86037959715743
 21
-59.05231768508857
 31
0.0
  0
LINE
  5
3C9
330
1F
100
AcDbEntity
  8
0-4
  6
Continuous
 62
     7
370
     9
100
AcDbLine
 10
71.8090274092238
 20
-59.83545565093529
 30
0.0
 11
65.86037959715743
 21
-60.61859361678195
 31
0.0
  0
TEXT
  5
3CA
330
1F
100
AcDbEntity
  8
0-4
  6
Continuous
 62
     2
370
     9
100
AcDbText
 10
7.558897621145441
 20
-58.43319659699483
 30
0.0
 40
9.144
  1
109
 41
1.083333333333333
  7
ＭＳ ゴシック
100
AcDbText
  0
TEXT
  5
3CB
330
1F
100
AcDbEntity
  8
0-4
  6
Continuous
 62
     2
370
     9
100
AcDbText
 10
-58.06620055944136
 20
-57.7424281161482
 30
0.0
 40
9.144
  1
29
 41
1.0625
  7
ＭＳ ゴシック
100
AcDbText
  0
TEXT
  5
3CC
330
1F
100
AcDbEntity
  8
0-4
  6
Continuous
 62
     2
370
     9
100
AcDbText
 10
-92.9722243876606
 20
-56.93831846549524
 30
0.0
 40
9.144
  1
35
 41
1.0625
  7
ＭＳ ゴシック
100
AcDbText
  0
LINE
  5
3CD
330
1F
100
AcDbEntity
  8
0-4
  6
Continuous
 62
     7
370
     9
100
AcDbLine
 10
-104.0819463041834
 20
-123.9751977178918
 30
0.0
 11
-104.0819463041834
 21
-59.23544294902435
 31
0.0
  0
TEXT
  5
3CE
330
1F
100
AcDbEntity
  8
0-4
  6
Continuous
 62
     2
370
     9
100
AcDbText
 10
-135.1102300603953
 20
-33.08750197557557
 30
0.0
 40
9.144
  1
Ｌ
  7
ＭＳ ゴシック
100
AcDbText
  0
TEXT
  5
3CF
330
1F
100
AcDbEntity
  8
F-5
  6
Continuous
 62
     2
370
     9
100
AcDbText
 10
296.2396392614017
 20
-340.1855233513519
 30
0.0
 40
9.144
  1
※ご注文の際はＬ寸法をご指示ください。
 41
1.118421052631579
  7
ＭＳ ゴシック
100
AcDbText
  0
TEXT
  5
3D0
330
1F
100
AcDbEntity
  8
0-5
  6
Continuous
 62
     7
370
     9
100
AcDbText
 10
-257.4372013343865
 20
-340.4497418318968
 30
0.0
 40
6.858000000000001
  1
硬質ポリ塩化ビニル
 41
1.148148148148148
  7
ＭＳ ゴシック
100
AcDbText
  0
TEXT
  5
3D1
330
1F
100
AcDbEntity
  8
0-5
  6
Continuous
 62
     7
370
     9
100
AcDbText
 10
122.1816888998593
 20
-9.72364969906978
 30
0.0
 40
6.858000000000001
  1
丸小ねじ：ＳＵＳ３０４
 41
1.151515151515151
  7
ＭＳ ゴシック
100
AcDbText
  0
TEXT
  5
3D2
330
1F
100
AcDbEntity
  8
0-5
  6
Continuous
 62
     7
370
     9
100
AcDbText
 10
151.1382697183076
 20
-46.49194303025516
 30
0.0
 40
6.858000000000001
  1
ボルトＭ１０×７０，ばね座金，平座金
 50
359.9999999970179
 41
1.157407407407408
  7
ＭＳ ゴシック
100
AcDbText
  0
LINE
  5
3D3
330
1F
100
AcDbEntity
  8
0-5
  6
Continuous
 62
     7
370
     9
100
AcDbLine
 10
149.6058107589791
 20
-50.04019276456749
 30
0.0
 11
339.024970273484
 21
-50.04019276456749
 31
0.0
  0
TEXT
  5
3D4
330
1F
100
AcDbEntity
  8
0-5
  6
Continuous
 62
     7
370
     9
100
AcDbText
 10
151.0637545157246
 20
-25.45372722210071
 30
0.0
 40
6.858000000000001
  1
Ｍ６×１２
 41
1.133333333333333
  7
ＭＳ ゴシック
100
AcDbText
  0
TEXT
  5
3D5
330
1F
100
AcDbEntity
  8
0-5
  6
Continuous
 62
     7
370
     9
100
AcDbText
 10
213.5653905162315
 20
-59.77696418940636
 30
0.0
 40
6.858000000000001
  1
ＳＵＳ３０４
 41
1.138888888888889
  7
ＭＳ ゴシック
100
AcDbText
  0
TEXT
  5
3D6
330
1F
100
AcDbEntity
  8
0-5
  6
Continuous
 62
     7
370
     9
100
AcDbText
 10
188.1657073023914
 20
-109.487133150985
 30
0.0
 40
6.858000000000001
  1
ナイロンコーティング
 41
1.15
  7
ＭＳ ゴシック
100
AcDbText
  0
TEXT
  5
3D7
330
1F
100
AcDbEntity
  8
0-5
  6
Continuous
 62
     7
370
     9
100
AcDbText
 10
177.6657073023914
 20
-93.20205443212936
 30
0.0
 40
6.858000000000001
  1
ストレーナー：ＦＣ１５０
 41
1.152777777777777
  7
ＭＳ ゴシック
100
AcDbText
  0
TEXT
  5
3D8
330
1F
100
AcDbEntity
  8
0-5
  6
Continuous
 62
     7
370
     9
100
AcDbText
 10
187.3284809085497
 20
-137.3524499405419
 30
0.0
 40
6.858000000000001
  1
防水層押え：ＦＣ１５０
 41
1.151515151515151
  7
ＭＳ ゴシック
100
AcDbText
  0
TEXT
  5
3D9
330
1F
100
AcDbEntity
  8
0-5
  6
Continuous
 62
     7
370
     9
100
AcDbText
 10
192.5784809085497
 20
-155.6680693319059
 30
0.0
 40
6.858000000000001
  1
ナイロンコーティング
 41
1.15
  7
ＭＳ ゴシック
100
AcDbText
  0
TEXT
  5
3DA
330
1F
100
AcDbEntity
  8
0-5
  6
Continuous
 62
     7
370
     9
100
AcDbText
 10
153.781372051611
 20
-300.9309523213001
 30
0.0
 40
6.858000000000001
  1
本体：ＦＣ１５０
 41
1.145833333333333
  7
ＭＳ ゴシック
100
AcDbText
  0
TEXT
  5
3DB
330
1F
100
AcDbEntity
  8
0-5
  6
Continuous
 62
     7
370
     9
100
AcDbText
 10
143.281372051611
 20
-315.6525649128278
 30
0.0
 40
6.858000000000001
  1
ナイロンコーティング
 41
1.15
  7
ＭＳ ゴシック
100
AcDbText
  0
TEXT
  5
3DC
330
1F
100
AcDbEntity
  8
0-5
  6
Continuous
 62
     7
370
     9
100
AcDbText
 10
95.59807347278472
 20
-328.7665407126818
 30
0.0
 40
6.858000000000001
  1
アンカー：ＳＷＲＭ８
 41
1.15
  7
ＭＳ ゴシック
100
AcDbText
  0
TEXT
  5
3DD
330
1F
100
AcDbEntity
  8
0-5
  6
Continuous
 62
     7
370
     9
100
AcDbText
 10
95.59807347278472
 20
-342.9927025828077
 30
0.0
 40
6.858000000000001
  1
ナイロンコーティング
 41
1.15
  7
ＭＳ ゴシック
100
AcDbText
  0
TEXT
  5
3DE
330
1F
100
AcDbEntity
  8
F-4
  6
Continuous
 62
     2
370
     0
100
AcDbText
 10
-257.4578473017604
 20
-398.3621666666666
 30
0.0
 40
9.144
  1
鋳鉄製高耐食性ルーフドレン　防水層張掛け幅１００mm　よこ引き用　打込型　ねじ込み式
 41
0.7743902439024393
  7
ＭＳ ゴシック
100
AcDbText
  0
TEXT
  5
3DF
330
1F
100
AcDbEntity
  8
F-4
  6
Continuous
 62
     2
370
     0
100
AcDbText
 10
-212.0837138186792
 20
-412.9163333333332
 30
0.0
 40
9.144
  1
アスファルト防水用（キャント付入隅用）　　ＷＨＸＡ－Ｒ－７５　Ｌ＝指示
 41
0.7985714285714285
  7
ＭＳ ゴシック
100
AcDbText
  0
TEXT
  5
3E0
330
1F
100
AcDbEntity
  8
F-0
  6
Continuous
 62
     9
370
     5
100
AcDbText
 10
0.0
 20
-2998.731
 30
0.0
 40
6.858000000000001
  1
Printer_Orientation = 0
 41
0.0
  7
ＭＳ ゴシック
100
AcDbText
  0
TEXT
  5
3E1
330
1F
100
AcDbEntity
  8
F-0
  6
Continuous
 62
     9
370
     5
100
AcDbText
 10
0.0
 20
-2998.731
 30
0.0
 40
6.858000000000001
  1
Printer_PaperSize = 0
 41
0.0
  7
ＭＳ ゴシック
100
AcDbText
  0
TEXT
  5
3E2
330
1F
100
AcDbEntity
  8
F-0
  6
Continuous
 62
     9
370
     5
100
AcDbText
 10
0.0
 20
-2998.731
 30
0.0
 40
6.858000000000001
  1
Printer_D2dBMP = 0
 41
0.0
  7
ＭＳ ゴシック
100
AcDbText
  0
TEXT
  5
3E3
330
1F
100
AcDbEntity
  8
F-0
  6
Continuous
 62
     9
370
     5
100
AcDbText
 10
0.0
 20
-2998.731
 30
0.0
 40
6.858000000000001
  1
Printer_BmpZENTAI = 0
 41
0.0
  7
ＭＳ ゴシック
100
AcDbText
  0
TEXT
  5
3E4
330
1F
100
AcDbEntity
  8
F-0
  6
Continuous
 62
     9
370
     5
100
AcDbText
 10
0.0
 20
-2998.731
 30
0.0
 40
6.858000000000001
  1
View_Direct2d = 1
 41
0.0
  7
ＭＳ ゴシック
100
AcDbText
  0
TEXT
  5
3E5
330
1F
100
AcDbEntity
  8
F-0
  6
Continuous
 62
     9
370
     5
100
AcDbText
 10
0.0
 20
-2998.731
 30
0.0
 40
6.858000000000001
  1
Draw_BmpTOUKA = 1
 41
0.0
  7
ＭＳ ゴシック
100
AcDbText
  0
ENDSEC
  0
SECTION
  2
OBJECTS
  0
DICTIONARY
  5
C
330
0
100
AcDbDictionary
281
     1
  3
ACAD_DETAILVIEWSTYLE
350
42B
  3
ACAD_GROUP
350
D
  3
ACAD_LAYOUT
350
1A
  3
ACAD_MATERIAL
350
43
  3
ACAD_MLEADERSTYLE
350
6B
  3
ACAD_MLINESTYLE
350
17
  3
ACAD_PLOTSETTINGS
350
19
  3
ACAD_PLOTSTYLENAME
350
E
  3
ACAD_SCALELIST
350
47
  3
ACAD_SECTIONVIEWSTYLE
350
42C
  3
ACAD_TABLESTYLE
350
69
  3
ACAD_VISUALSTYLE
350
2A
  3
ACDB_RECOMPOSE_DATA
350
428
  3
AcDbVariableDictionary
350
3E8
  0
DICTIONARY
  5
3E6
330
8
100
AcDbDictionary
280
     1
281
     1
  3
ACAD_XREC_ROUNDTRIP
360
3E7
  0
DICTIONARY
  5
42B
102
{ACAD_REACTORS
330
C
102
}
330
C
100
AcDbDictionary
281
     1
  0
DICTIONARY
  5
D
102
{ACAD_REACTORS
330
C
102
}
330
C
100
AcDbDictionary
281
     1
  0
DICTIONARY
  5
1A
102
{ACAD_REACTORS
330
C
102
}
330
C
100
AcDbDictionary
281
     1
  3
Layout1
350
1E
  3
Layout2
350
26
  3
Model
350
22
  0
DICTIONARY
  5
43
102
{ACAD_REACTORS
330
C
102
}
330
C
100
AcDbDictionary
281
     1
  3
ByBlock
350
45
  3
ByLayer
350
44
  3
Global
350
46
  0
DICTIONARY
  5
6B
102
{ACAD_REACTORS
330
C
102
}
330
C
100
AcDbDictionary
281
     1
  3
Standard
350
6C
  0
DICTIONARY
  5
17
102
{ACAD_REACTORS
330
C
102
}
330
C
100
AcDbDictionary
281
     1
  3
Standard
350
18
  0
DICTIONARY
  5
19
102
{ACAD_REACTORS
330
C
102
}
330
C
100
AcDbDictionary
281
     1
  0
ACDBDICTIONARYWDFLT
  5
E
102
{ACAD_REACTORS
330
C
102
}
330
C
100
AcDbDictionary
281
     1
  3
Normal
350
F
100
AcDbDictionaryWithDefault
340
F
  0
DICTIONARY
  5
47
102
{ACAD_REACTORS
330
C
102
}
330
C
100
AcDbDictionary
281
     1
  3
A0
350
48
  3
A1
350
49
  3
A2
350
4A
  3
A3
350
4B
  3
A4
350
4C
  3
A5
350
4D
  3
A6
350
4E
  3
A7
350
4F
  3
A8
350
50
  3
A9
350
51
  3
B0
350
52
  3
B1
350
53
  3
B2
350
54
  3
B3
350
55
  3
B4
350
56
  3
B5
350
57
  3
B6
350
58
  3
B7
350
59
  3
B8
350
5A
  3
B9
350
5B
  3
C0
350
5C
  3
C1
350
5D
  3
C2
350
5E
  3
C3
350
5F
  3
C4
350
60
  3
C5
350
61
  3
C6
350
62
  3
C7
350
63
  3
C8
350
64
  3
C9
350
65
  3
D0
350
66
  3
D1
350
67
  3
D2
350
68
  0
DICTIONARY
  5
42C
102
{ACAD_REACTORS
330
C
102
}
330
C
100
AcDbDictionary
281
     1
  0
DICTIONARY
  5
69
102
{ACAD_REACTORS
330
C
102
}
330
C
100
AcDbDictionary
281
     1
  3
Standard
350
6A
  0
DICTIONARY
  5
2A
102
{ACAD_REACTORS
330
C
102
}
330
C
100
AcDbDictionary
281
     1
  3
2dWireframe
350
2F
  3
Basic
350
32
  3
Brighten
350
36
  3
ColorChange
350
3A
  3
Conceptual
350
34
  3
Dim
350
35
  3
EdgeColorOff
350
3D
  3
Facepattern
350
39
  3
Flat
350
2B
  3
FlatWithEdges
350
2C
  3
Gouraud
350
2D
  3
GouraudWithEdges
350
2E
  3
Hidden
350
31
  3
JitterOff
350
3B
  3
Linepattern
350
38
  3
OverhangOff
350
3C
  3
Realistic
350
33
  3
Shaded
350
42
  3
Shaded with edges
350
41
  3
Shades of Gray
350
3E
  3
Sketchy
350
3F
  3
Thicken
350
37
  3
Wireframe
350
30
  3
X-Ray
350
40
  0
XRECORD
  5
428
102
{ACAD_REACTORS
330
C
102
}
330
C
100
AcDbXrecord
280
     1
 90
        1
330
6A
  0
DICTIONARY
  5
3E8
102
{ACAD_REACTORS
330
C
102
}
330
C
100
AcDbDictionary
281
     1
  3
CANNOSCALE
350
3E9
  3
CENTEREXE
350
42D
  3
CENTERLTYPEFILE
350
42E
  3
CMLEADERSTYLE
350
42A
  3
CTABLESTYLE
350
429
  3
MSLTSCALE
350
3EA
  3
XCLIPFRAME
350
3EB
  0
XRECORD
  5
3E7
102
{ACAD_REACTORS
330
3E6
102
}
330
3E6
100
AcDbXrecord
280
     1
102
VTR_0.000_0.000_1.000_1.000_VISUALSTYLE
340
2F
102
VTR_0.000_0.000_1.000_1.000_GRIDDISPLAY
 70
     3
102
VTR_0.000_0.000_1.000_1.000_GRIDMAJOR
 70
     5
102
VTR_0.000_0.000_1.000_1.000_DEFAULTLIGHTING
280
     1
102
VTR_0.000_0.000_1.000_1.000_DEFAULTLIGHTINGTYPE
 70
     1
102
VTR_0.000_0.000_1.000_1.000_BRIGHTNESS
141
0.0
102
VTR_0.000_0.000_1.000_1.000_CONTRAST
142
0.0
  0
LAYOUT
  5
1E
102
{ACAD_REACTORS
330
1A
102
}
330
1A
100
AcDbPlotSettings
  1

  2
none_device
  4

  6

 40
0.0
 41
0.0
 42
0.0
 43
0.0
 44
0.0
 45
0.0
 46
0.0
 47
0.0
 48
0.0
 49
0.0
140
0.0
141
0.0
142
1.0
143
1.0
 70
   688
 72
     1
 73
     0
 74
     5
  7

 75
    16
 76
     0
 77
     5
 78
   300
147
1.0
148
0.0
149
0.0
100
AcDbLayout
  1
Layout1
 70
     1
 71
     1
 10
0.0
 20
0.0
 11
420.0
 21
297.0
 12
0.0
 22
0.0
 32
0.0
 14
1.000000000000000E+20
 24
1.000000000000000E+20
 34
1.000000000000000E+20
 15
-1.000000000000000E+20
 25
-1.000000000000000E+20
 35
-1.000000000000000E+20
146
0.0
 13
0.0
 23
0.0
 33
0.0
 16
1.0
 26
0.0
 36
0.0
 17
0.0
 27
1.0
 37
0.0
 76
     0
330
1B
  0
LAYOUT
  5
26
102
{ACAD_REACTORS
330
1A
102
}
330
1A
100
AcDbPlotSettings
  1

  2
none_device
  4

  6

 40
0.0
 41
0.0
 42
0.0
 43
0.0
 44
0.0
 45
0.0
 46
0.0
 47
0.0
 48
0.0
 49
0.0
140
0.0
141
0.0
142
1.0
143
1.0
 70
   688
 72
     1
 73
     0
 74
     5
  7

 75
    16
 76
     0
 77
     5
 78
   300
147
1.0
148
0.0
149
0.0
100
AcDbLayout
  1
Layout2
 70
     1
 71
     2
 10
0.0
 20
0.0
 11
0.0
 21
0.0
 12
0.0
 22
0.0
 32
0.0
 14
0.0
 24
0.0
 34
0.0
 15
0.0
 25
0.0
 35
0.0
146
0.0
 13
0.0
 23
0.0
 33
0.0
 16
1.0
 26
0.0
 36
0.0
 17
0.0
 27
1.0
 37
0.0
 76
     0
330
23
  0
LAYOUT
  5
22
102
{ACAD_REACTORS
330
1A
102
}
330
1A
100
AcDbPlotSettings
  1

  2
none_device
  4
Letter_(8.50_x_11.00_Inches)
  6

 40
6.35
 41
6.35
 42
6.35000508
 43
6.35000508
 44
215.9
 45
279.4
 46
0.0
 47
0.0
 48
0.0
 49
0.0
140
0.0
141
0.0
142
1.0
143
1.0
 70
  1712
 72
     1
 73
     0
 74
     0
  7

 75
     0
 76
     0
 77
     5
 78
   300
147
1.0
148
0.0
149
0.0
100
AcDbLayout
  1
Model
 70
     1
 71
     0
 10
-630.0
 20
-445.5
 11
630.0
 21
445.5
 12
0.0
 22
0.0
 32
0.0
 14
-630.0
 24
-445.5
 34
0.0
 15
630.0
 25
445.5
 35
0.0
146
0.0
 13
0.0
 23
0.0
 33
0.0
 16
1.0
 26
0.0
 36
0.0
 17
0.0
 27
1.0
 37
0.0
 76
     0
330
1F
331
29
  0
MATERIAL
  5
45
102
{ACAD_REACTORS
330
43
102
}
102
{ACAD_XDICTIONARY
360
41E
102
}
330
43
100
AcDbMaterial
  1
ByBlock
  0
MATERIAL
  5
44
102
{ACAD_REACTORS
330
43
102
}
102
{ACAD_XDICTIONARY
360
41C
102
}
330
43
100
AcDbMaterial
  1
ByLayer
  0
MATERIAL
  5
46
102
{ACAD_REACTORS
330
43
102
}
102
{ACAD_XDICTIONARY
360
420
102
}
330
43
100
AcDbMaterial
  1
Global
  0
MLEADERSTYLE
  5
6C
102
{ACAD_REACTORS
330
6B
102
}
102
{ACAD_XDICTIONARY
360
426
102
}
330
6B
100
AcDbMLeaderStyle
170
     2
171
     1
172
     0
 90
        2
 40
0.0
 41
0.0
173
     1
 91
-1056964608
340
14
 92
       -2
290
     1
 42
2.0
291
     1
 43
8.0
  3
Standard
341
0
 44
4.0
300

342
11
174
     1
178
     6
175
     1
176
     0
 93
-1056964608
 45
4.0
292
     0
297
     0
 46
4.0
343
0
 94
-1056964608
 47
1.0
 49
1.0
140
1.0
293
     1
141
0.0
294
     1
177
     0
142
1.0
295
     0
296
     0
143
3.75
1001
ACAD_MLEADERVER
1070
     2
  0
MLINESTYLE
  5
18
102
{ACAD_REACTORS
330
17
102
}
330
17
100
AcDbMlineStyle
  2
Standard
 70
     0
  3

 62
   256
 51
90.0
 52
90.0
 71
     2
 49
0.5
 62
   256
  6
BYLAYER
 49
-0.5
 62
   256
  6
BYLAYER
  0
ACDBPLACEHOLDER
  5
F
102
{ACAD_REACTORS
330
E
102
}
330
E
  0
SCALE
  5
48
102
{ACAD_REACTORS
330
47
102
}
330
47
100
AcDbScale
 70
     0
300
1:1
140
1.0
141
1.0
290
     1
  0
SCALE
  5
49
102
{ACAD_REACTORS
330
47
102
}
330
47
100
AcDbScale
 70
     0
300
1:2
140
1.0
141
2.0
290
     0
  0
SCALE
  5
4A
102
{ACAD_REACTORS
330
47
102
}
330
47
100
AcDbScale
 70
     0
300
1:4
140
1.0
141
4.0
290
     0
  0
SCALE
  5
4B
102
{ACAD_REACTORS
330
47
102
}
330
47
100
AcDbScale
 70
     0
300
1:5
140
1.0
141
5.0
290
     0
  0
SCALE
  5
4C
102
{ACAD_REACTORS
330
47
102
}
330
47
100
AcDbScale
 70
     0
300
1:8
140
1.0
141
8.0
290
     0
  0
SCALE
  5
4D
102
{ACAD_REACTORS
330
47
102
}
330
47
100
AcDbScale
 70
     0
300
1:10
140
1.0
141
10.0
290
     0
  0
SCALE
  5
4E
102
{ACAD_REACTORS
330
47
102
}
330
47
100
AcDbScale
 70
     0
300
1:16
140
1.0
141
16.0
290
     0
  0
SCALE
  5
4F
102
{ACAD_REACTORS
330
47
102
}
330
47
100
AcDbScale
 70
     0
300
1:20
140
1.0
141
20.0
290
     0
  0
SCALE
  5
50
102
{ACAD_REACTORS
330
47
102
}
330
47
100
AcDbScale
 70
     0
300
1:30
140
1.0
141
30.0
290
     0
  0
SCALE
  5
51
102
{ACAD_REACTORS
330
47
102
}
330
47
100
AcDbScale
 70
     0
300
1:40
140
1.0
141
40.0
290
     0
  0
SCALE
  5
52
102
{ACAD_REACTORS
330
47
102
}
330
47
100
AcDbScale
 70
     0
300
1:50
140
1.0
141
50.0
290
     0
  0
SCALE
  5
53
102
{ACAD_REACTORS
330
47
102
}
330
47
100
AcDbScale
 70
     0
300
1:100
140
1.0
141
100.0
290
     0
  0
SCALE
  5
54
102
{ACAD_REACTORS
330
47
102
}
330
47
100
AcDbScale
 70
     0
300
2:1
140
2.0
141
1.0
290
     0
  0
SCALE
  5
55
102
{ACAD_REACTORS
330
47
102
}
330
47
100
AcDbScale
 70
     0
300
4:1
140
4.0
141
1.0
290
     0
  0
SCALE
  5
56
102
{ACAD_REACTORS
330
47
102
}
330
47
100
AcDbScale
 70
     0
300
8:1
140
8.0
141
1.0
290
     0
  0
SCALE
  5
57
102
{ACAD_REACTORS
330
47
102
}
330
47
100
AcDbScale
 70
     0
300
10:1
140
10.0
141
1.0
290
     0
  0
SCALE
  5
58
102
{ACAD_REACTORS
330
47
102
}
330
47
100
AcDbScale
 70
     0
300
100:1
140
100.0
141
1.0
290
     0
  0
SCALE
  5
59
102
{ACAD_REACTORS
330
47
102
}
330
47
100
AcDbScale
 70
     0
300
1/128" = 1'-0"
140
0.0078125
141
12.0
290
     0
  0
SCALE
  5
5A
102
{ACAD_REACTORS
330
47
102
}
330
47
100
AcDbScale
 70
     0
300
1/64" = 1'-0"
140
0.015625
141
12.0
290
     0
  0
SCALE
  5
5B
102
{ACAD_REACTORS
330
47
102
}
330
47
100
AcDbScale
 70
     0
300
1/32" = 1'-0"
140
0.03125
141
12.0
290
     0
  0
SCALE
  5
5C
102
{ACAD_REACTORS
330
47
102
}
330
47
100
AcDbScale
 70
     0
300
1/16" = 1'-0"
140
0.0625
141
12.0
290
     0
  0
SCALE
  5
5D
102
{ACAD_REACTORS
330
47
102
}
330
47
100
AcDbScale
 70
     0
300
3/32" = 1'-0"
140
0.09375
141
12.0
290
     0
  0
SCALE
  5
5E
102
{ACAD_REACTORS
330
47
102
}
330
47
100
AcDbScale
 70
     0
300
1/8" = 1'-0"
140
0.125
141
12.0
290
     0
  0
SCALE
  5
5F
102
{ACAD_REACTORS
330
47
102
}
330
47
100
AcDbScale
 70
     0
300
3/16" = 1'-0"
140
0.1875
141
12.0
290
     0
  0
SCALE
  5
60
102
{ACAD_REACTORS
330
47
102
}
330
47
100
AcDbScale
 70
     0
300
1/4" = 1'-0"
140
0.25
141
12.0
290
     0
  0
SCALE
  5
61
102
{ACAD_REACTORS
330
47
102
}
330
47
100
AcDbScale
 70
     0
300
3/8" = 1'-0"
140
0.375
141
12.0
290
     0
  0
SCALE
  5
62
102
{ACAD_REACTORS
330
47
102
}
330
47
100
AcDbScale
 70
     0
300
1/2" = 1'-0"
140
0.5
141
12.0
290
     0
  0
SCALE
  5
63
102
{ACAD_REACTORS
330
47
102
}
330
47
100
AcDbScale
 70
     0
300
3/4" = 1'-0"
140
0.75
141
12.0
290
     0
  0
SCALE
  5
64
102
{ACAD_REACTORS
330
47
102
}
330
47
100
AcDbScale
 70
     0
300
1" = 1'-0"
140
1.0
141
12.0
290
     0
  0
SCALE
  5
65
102
{ACAD_REACTORS
330
47
102
}
330
47
100
AcDbScale
 70
     0
300
1-1/2" = 1'-0"
140
1.5
141
12.0
290
     0
  0
SCALE
  5
66
102
{ACAD_REACTORS
330
47
102
}
330
47
100
AcDbScale
 70
     0
300
3" = 1'-0"
140
3.0
141
12.0
290
     0
  0
SCALE
  5
67
102
{ACAD_REACTORS
330
47
102
}
330
47
100
AcDbScale
 70
     0
300
6" = 1'-0"
140
6.0
141
12.0
290
     0
  0
SCALE
  5
68
102
{ACAD_REACTORS
330
47
102
}
330
47
100
AcDbScale
 70
     0
300
1'-0" = 1'-0"
140
12.0
141
12.0
290
     0
  0
TABLESTYLE
  5
6A
102
{ACAD_REACTORS
330
69
102
}
102
{ACAD_XDICTIONARY
360
422
102
}
330
69
100
AcDbTableStyle
  3
Standard
 70
     0
 71
     0
 40
0.06
 41
0.06
280
     0
281
     0
  7
Standard
140
4.5
170
     2
 62
     0
 63
   257
283
     0
274
    -2
284
     1
 64
     0
275
    -2
285
     1
 65
     0
276
    -2
286
     1
 66
     0
277
    -2
287
     1
 67
     0
278
    -2
288
     1
 68
     0
279
    -2
289
     1
 69
     0
  7
Standard
140
6.0
170
     5
 62
     0
 63
   257
283
     0
274
    -2
284
     1
 64
     0
275
    -2
285
     1
 65
     0
276
    -2
286
     1
 66
     0
277
    -2
287
     1
 67
     0
278
    -2
288
     1
 68
     0
279
    -2
289
     1
 69
     0
  7
Standard
140
4.5
170
     5
 62
     0
 63
   257
283
     0
274
    -2
284
     1
 64
     0
275
    -2
285
     1
 65
     0
276
    -2
286
     1
 66
     0
277
    -2
287
     1
 67
     0
278
    -2
288
     1
 68
     0
279
    -2
289
     1
 69
     0
  0
VISUALSTYLE
  5
2F
102
{ACAD_REACTORS
330
2A
102
}
102
{ACAD_XDICTIONARY
360
3F4
102
}
330
2A
100
AcDbVisualStyle
  2
2dWireframe
 70
     4
 71
     0
 72
     2
 73
     0
 90
        0
 40
0.6
 41
30.0
 62
     5
 63
     7
421
 16777215
 74
     1
 91
        4
 64
     7
 65
   257
 75
     1
175
     1
 42
1.0
 92
        0
 66
   257
 43
1.0
 76
     1
 77
     6
 78
     2
 67
     7
 79
     5
170
     0
171
     0
290
     0
174
     0
 93
        1
 44
0.0
173
     0
291
     0
 45
0.0
1001
ACAD
1000
AcDbSavedByObjectVersion
1070
     0
  0
VISUALSTYLE
  5
32
102
{ACAD_REACTORS
330
2A
102
}
102
{ACAD_XDICTIONARY
360
3FA
102
}
330
2A
100
AcDbVisualStyle
  2
Basic
 70
     7
 71
     1
 72
     0
 73
     1
 90
        0
 40
0.6
 41
30.0
 62
     5
 63
     7
421
 16777215
 74
     0
 91
        4
 64
     7
 65
   257
 75
     1
175
     1
 42
1.0
 92
        8
 66
     7
 43
1.0
 76
     1
 77
     6
 78
     2
 67
     7
 79
     5
170
     0
171
     0
290
     0
174
     0
 93
        1
 44
0.0
173
     0
291
     1
 45
0.0
1001
ACAD
1000
AcDbSavedByObjectVersion
1070
     0
  0
VISUALSTYLE
  5
36
102
{ACAD_REACTORS
330
2A
102
}
102
{ACAD_XDICTIONARY
360
402
102
}
330
2A
100
AcDbVisualStyle
  2
Brighten
 70
    12
 71
     2
 72
     2
 73
     0
 90
        0
 40
0.6
 41
30.0
 62
     5
 63
     7
421
 16777215
 74
     1
 91
        4
 64
     7
 65
   257
 75
     1
175
     1
 42
1.0
 92
        8
 66
     7
 43
1.0
 76
     1
 77
     6
 78
     2
 67
     7
 79
     5
170
     0
171
     0
290
     0
174
     0
 93
        1
 44
50.0
173
     0
291
     1
 45
0.0
1001
ACAD
1000
AcDbSavedByObjectVersion
1070
     0
  0
VISUALSTYLE
  5
3A
102
{ACAD_REACTORS
330
2A
102
}
102
{ACAD_XDICTIONARY
360
40A
102
}
330
2A
100
AcDbVisualStyle
  2
ColorChange
 70
    16
 71
     2
 72
     2
 73
     3
 90
        0
 40
0.6
 41
30.0
 62
     5
 63
     8
421
  8421504
 74
     1
 91
        4
 64
     7
 65
   257
 75
     1
175
     1
 42
1.0
 92
        8
 66
     8
424
  8421504
 43
1.0
 76
     1
 77
     6
 78
     2
 67
     7
 79
     5
170
     0
171
     0
290
     0
174
     0
 93
        1
 44
0.0
173
     0
291
     1
 45
0.0
1001
ACAD
1000
AcDbSavedByObjectVersion
1070
     0
  0
VISUALSTYLE
  5
34
102
{ACAD_REACTORS
330
2A
102
}
102
{ACAD_XDICTIONARY
360
3FE
102
}
330
2A
100
AcDbVisualStyle
  2
Conceptual
 70
     9
 71
     3
 72
     2
 73
     0
 90
        0
 40
0.6
 41
30.0
 62
     5
 63
     7
421
 16777215
 74
     2
 91
        2
 64
     7
 65
   257
 75
     1
175
     1
 42
179.0
 92
        8
 66
     7
 43
1.0
 76
     1
 77
     6
 78
     2
 67
     7
 79
     3
170
     0
171
     0
290
     0
174
     0
 93
        1
 44
0.0
173
     0
291
     0
 45
0.0
1001
ACAD
1000
AcDbSavedByObjectVersion
1070
     0
  0
VISUALSTYLE
  5
35
102
{ACAD_REACTORS
330
2A
102
}
102
{ACAD_XDICTIONARY
360
400
102
}
330
2A
100
AcDbVisualStyle
  2
Dim
 70
    11
 71
     2
 72
     2
 73
     0
 90
        0
 40
0.6
 41
30.0
 62
     5
 63
     7
421
 16777215
 74
     1
 91
        4
 64
     7
 65
   257
 75
     1
175
     1
 42
1.0
 92
        8
 66
     7
 43
1.0
 76
     1
 77
     6
 78
     2
 67
     7
 79
     5
170
     0
171
     0
290
     0
174
     0
 93
        1
 44
-50.0
173
     0
291
     1
 45
0.0
1001
ACAD
1000
AcDbSavedByObjectVersion
1070
     0
  0
VISUALSTYLE
  5
3D
102
{ACAD_REACTORS
330
2A
102
}
102
{ACAD_XDICTIONARY
360
410
102
}
330
2A
100
AcDbVisualStyle
  2
EdgeColorOff
 70
    22
 71
     2
 72
     2
 73
     0
 90
        0
 40
0.6
 41
30.0
 62
     5
 63
     7
421
 16777215
 74
     1
 91
        4
 64
     7
 65
   257
 75
     1
175
     1
 42
1.0
 92
        8
 66
     7
 43
1.0
 76
     1
 77
     6
 78
     2
 67
     7
 79
     5
170
     0
171
     0
290
     0
174
     0
 93
        1
 44
0.0
173
     0
291
     1
 45
0.0
1001
ACAD
1000
AcDbSavedByObjectVersion
1070
     0
  0
VISUALSTYLE
  5
39
102
{ACAD_REACTORS
330
2A
102
}
102
{ACAD_XDICTIONARY
360
408
102
}
330
2A
100
AcDbVisualStyle
  2
Facepattern
 70
    15
 71
     2
 72
     2
 73
     0
 90
        0
 40
0.6
 41
30.0
 62
     5
 63
     7
421
 16777215
 74
     1
 91
        4
 64
     7
 65
   257
 75
     1
175
     1
 42
1.0
 92
        8
 66
     7
 43
1.0
 76
     1
 77
     6
 78
     2
 67
     7
 79
     5
170
     0
171
     0
290
     0
174
     0
 93
        1
 44
0.0
173
     0
291
     1
 45
0.0
1001
ACAD
1000
AcDbSavedByObjectVersion
1070
     0
  0
VISUALSTYLE
  5
2B
102
{ACAD_REACTORS
330
2A
102
}
102
{ACAD_XDICTIONARY
360
3EC
102
}
330
2A
100
AcDbVisualStyle
  2
Flat
 70
     0
 71
     2
 72
     1
 73
     1
 90
        2
 40
0.6
 41
30.0
 62
     5
 63
     7
421
 16777215
 74
     0
 91
        0
 64
     7
 65
   257
 75
     1
175
     1
 42
1.0
 92
        8
 66
     7
 43
1.0
 76
     1
 77
     6
 78
     2
 67
     7
 79
     5
170
     0
171
     0
290
     0
174
     0
 93
       13
 44
0.0
173
     0
291
     1
 45
0.0
1001
ACAD
1000
AcDbSavedByObjectVersion
1070
     0
  0
VISUALSTYLE
  5
2C
102
{ACAD_REACTORS
330
2A
102
}
102
{ACAD_XDICTIONARY
360
3EE
102
}
330
2A
100
AcDbVisualStyle
  2
FlatWithEdges
 70
     1
 71
     2
 72
     1
 73
     1
 90
        2
 40
0.6
 41
30.0
 62
     5
 63
     7
421
 16777215
 74
     1
 91
        0
 64
     7
 65
   257
 75
     1
175
     1
 42
1.0
 92
        0
 66
   257
 43
1.0
 76
     1
 77
     6
 78
     2
 67
     7
 79
     5
170
     0
171
     0
290
     0
174
     0
 93
       13
 44
0.0
173
     0
291
     1
 45
0.0
1001
ACAD
1000
AcDbSavedByObjectVersion
1070
     0
  0
VISUALSTYLE
  5
2D
102
{ACAD_REACTORS
330
2A
102
}
102
{ACAD_XDICTIONARY
360
3F0
102
}
330
2A
100
AcDbVisualStyle
  2
Gouraud
 70
     2
 71
     2
 72
     2
 73
     1
 90
        2
 40
0.6
 41
30.0
 62
     5
 63
     7
421
 16777215
 74
     0
 91
        0
 64
     7
 65
   257
 75
     1
175
     1
 42
1.0
 92
        0
 66
     7
 43
1.0
 76
     1
 77
     6
 78
     2
 67
     7
 79
     5
170
     0
171
     0
290
     0
174
     0
 93
       13
 44
0.0
173
     0
291
     1
 45
0.0
1001
ACAD
1000
AcDbSavedByObjectVersion
1070
     0
  0
VISUALSTYLE
  5
2E
102
{ACAD_REACTORS
330
2A
102
}
102
{ACAD_XDICTIONARY
360
3F2
102
}
330
2A
100
AcDbVisualStyle
  2
GouraudWithEdges
 70
     3
 71
     2
 72
     2
 73
     1
 90
        2
 40
0.6
 41
30.0
 62
     5
 63
     7
421
 16777215
 74
     1
 91
        0
 64
     7
 65
   257
 75
     1
175
     1
 42
1.0
 92
        0
 66
   257
 43
1.0
 76
     1
 77
     6
 78
     2
 67
     7
 79
     5
170
     0
171
     0
290
     0
174
     0
 93
       13
 44
0.0
173
     0
291
     1
 45
0.0
1001
ACAD
1000
AcDbSavedByObjectVersion
1070
     0
  0
VISUALSTYLE
  5
31
102
{ACAD_REACTORS
330
2A
102
}
102
{ACAD_XDICTIONARY
360
3F8
102
}
330
2A
100
AcDbVisualStyle
  2
Hidden
 70
     6
 71
     1
 72
     2
 73
     2
 90
        0
 40
0.6
 41
30.0
 62
     5
 63
     7
421
 16777215
 74
     2
 91
        2
 64
     7
 65
   257
 75
     2
175
     1
 42
40.0
 92
        0
 66
   257
 43
1.0
 76
     1
 77
     6
 78
     2
 67
     7
 79
     3
170
     0
171
     0
290
     0
174
     0
 93
        1
 44
0.0
173
     0
291
     0
 45
0.0
1001
ACAD
1000
AcDbSavedByObjectVersion
1070
     0
  0
VISUALSTYLE
  5
3B
102
{ACAD_REACTORS
330
2A
102
}
102
{ACAD_XDICTIONARY
360
40C
102
}
330
2A
100
AcDbVisualStyle
  2
JitterOff
 70
    20
 71
     2
 72
     2
 73
     0
 90
        0
 40
0.6
 41
30.0
 62
     5
 63
     7
421
 16777215
 74
     1
 91
        4
 64
     7
 65
   257
 75
     1
175
     1
 42
1.0
 92
       10
 66
     7
 43
1.0
 76
     1
 77
     6
 78
     2
 67
     7
 79
     5
170
     0
171
     0
290
     0
174
     0
 93
        1
 44
0.0
173
     0
291
     1
 45
0.0
1001
ACAD
1000
AcDbSavedByObjectVersion
1070
     0
  0
VISUALSTYLE
  5
38
102
{ACAD_REACTORS
330
2A
102
}
102
{ACAD_XDICTIONARY
360
406
102
}
330
2A
100
AcDbVisualStyle
  2
Linepattern
 70
    14
 71
     2
 72
     2
 73
     0
 90
        0
 40
0.6
 41
30.0
 62
     5
 63
     7
421
 16777215
 74
     1
 91
        4
 64
     7
 65
   257
 75
     7
175
     7
 42
1.0
 92
        8
 66
     7
 43
1.0
 76
     1
 77
     6
 78
     2
 67
     7
 79
     5
170
     0
171
     0
290
     0
174
     0
 93
        1
 44
0.0
173
     0
291
     1
 45
0.0
1001
ACAD
1000
AcDbSavedByObjectVersion
1070
     0
  0
VISUALSTYLE
  5
3C
102
{ACAD_REACTORS
330
2A
102
}
102
{ACAD_XDICTIONARY
360
40E
102
}
330
2A
100
AcDbVisualStyle
  2
OverhangOff
 70
    21
 71
     2
 72
     2
 73
     0
 90
        0
 40
0.6
 41
30.0
 62
     5
 63
     7
421
 16777215
 74
     1
 91
        4
 64
     7
 65
   257
 75
     1
175
     1
 42
1.0
 92
        9
 66
     7
 43
1.0
 76
     1
 77
     6
 78
     2
 67
     7
 79
     5
170
     0
171
     0
290
     0
174
     0
 93
        1
 44
0.0
173
     0
291
     1
 45
0.0
1001
ACAD
1000
AcDbSavedByObjectVersion
1070
     0
  0
VISUALSTYLE
  5
33
102
{ACAD_REACTORS
330
2A
102
}
102
{ACAD_XDICTIONARY
360
3FC
102
}
330
2A
100
AcDbVisualStyle
  2
Realistic
 70
     8
 71
     2
 72
     3
 73
     0
 90
        2
 40
0.6
 41
30.0
 62
     5
 63
     7
421
 16777215
 74
     0
 91
        0
 64
     7
 65
   257
 75
     1
175
     1
 42
1.0
 92
        8
 66
   257
 43
1.0
 76
     1
 77
     6
 78
     2
 67
     7
 79
     3
170
     0
171
     0
290
     0
174
     0
 93
       13
 44
0.0
173
     0
291
     0
 45
0.0
1001
ACAD
1000
AcDbSavedByObjectVersion
1070
     0
  0
VISUALSTYLE
  5
42
102
{ACAD_REACTORS
330
2A
102
}
102
{ACAD_XDICTIONARY
360
41A
102
}
330
2A
100
AcDbVisualStyle
  2
Shaded
 70
    27
 71
     2
 72
     2
 73
     1
 90
        2
 40
0.6
 41
30.0
 62
     5
 63
     7
421
 16777215
 74
     0
 91
        4
 64
     7
 65
   257
 75
     1
175
     1
 42
1.0
 92
        8
 66
   257
 43
1.0
 76
     1
 77
     6
 78
     2
 67
     8
425
  7895160
 79
     3
170
     0
171
     0
290
     0
174
     0
 93
        5
 44
0.0
173
     0
291
     0
 45
0.0
1001
ACAD
1000
AcDbSavedByObjectVersion
1070
     0
  0
VISUALSTYLE
  5
41
102
{ACAD_REACTORS
330
2A
102
}
102
{ACAD_XDICTIONARY
360
418
102
}
330
2A
100
AcDbVisualStyle
  2
Shaded with edges
 70
    26
 71
     2
 72
     2
 73
     1
 90
        2
 40
0.6
 41
30.0
 62
     5
 63
     7
421
 16777215
 74
     1
 91
       10
 64
     7
 65
   257
 75
     2
175
     1
 42
1.0
 92
        8
 66
   257
 43
1.0
 76
     1
 77
     6
 78
     2
 67
     7
 79
     3
170
     0
171
     0
290
     0
174
     0
 93
        5
 44
0.0
173
     0
291
     0
 45
0.0
1001
ACAD
1000
AcDbSavedByObjectVersion
1070
     0
  0
VISUALSTYLE
  5
3E
102
{ACAD_REACTORS
330
2A
102
}
102
{ACAD_XDICTIONARY
360
412
102
}
330
2A
100
AcDbVisualStyle
  2
Shades of Gray
 70
    23
 71
     2
 72
     2
 73
     3
 90
        0
 40
0.6
 41
30.0
 62
     5
 63
     7
421
 16777215
 74
     2
 91
        2
 64
     7
 65
     7
 75
     1
175
     1
 42
40.0
 92
        8
 66
     7
 43
1.0
 76
     1
 77
     6
 78
     2
 67
     7
 79
     3
170
     0
171
     0
290
     0
174
     0
 93
        1
 44
0.0
173
     0
291
     0
 45
0.0
1001
ACAD
1000
AcDbSavedByObjectVersion
1070
     0
  0
VISUALSTYLE
  5
3F
102
{ACAD_REACTORS
330
2A
102
}
102
{ACAD_XDICTIONARY
360
414
102
}
330
2A
100
AcDbVisualStyle
  2
Sketchy
 70
    24
 71
     1
 72
     2
 73
     2
 90
        0
 40
0.6
 41
30.0
 62
     5
 63
     7
421
 16777215
 74
     2
 91
        2
 64
     7
 65
     7
 75
     1
175
     1
 42
40.0
 92
       11
 66
     7
 43
1.0
 76
     1
 77
     6
 78
     2
 67
     7
 79
     6
170
     0
171
     0
290
     0
174
     0
 93
        1
 44
0.0
173
     0
291
     0
 45
0.0
1001
ACAD
1000
AcDbSavedByObjectVersion
1070
     0
  0
VISUALSTYLE
  5
37
102
{ACAD_REACTORS
330
2A
102
}
102
{ACAD_XDICTIONARY
360
404
102
}
330
2A
100
AcDbVisualStyle
  2
Thicken
 70
    13
 71
     2
 72
     2
 73
     0
 90
        0
 40
0.6
 41
30.0
 62
     5
 63
     7
421
 16777215
 74
     1
 91
        4
 64
     7
 65
   257
 75
     1
175
     1
 42
1.0
 92
       12
 66
     7
 43
1.0
 76
     1
 77
     6
 78
     2
 67
     7
 79
     5
170
     0
171
     0
290
     0
174
     0
 93
        1
 44
0.0
173
     0
291
     1
 45
0.0
1001
ACAD
1000
AcDbSavedByObjectVersion
1070
     0
  0
VISUALSTYLE
  5
30
102
{ACAD_REACTORS
330
2A
102
}
102
{ACAD_XDICTIONARY
360
3F6
102
}
330
2A
100
AcDbVisualStyle
  2
Wireframe
 70
     5
 71
     0
 72
     2
 73
     0
 90
        0
 40
0.6
 41
30.0
 62
     5
 63
     7
421
 16777215
 74
     1
 91
        4
 64
     7
 65
   257
 75
     1
175
     1
 42
1.0
 92
        0
 66
   257
 43
1.0
 76
     1
 77
     6
 78
     2
 67
     7
 79
     3
170
     0
171
     0
290
     0
174
     0
 93
        1
 44
0.0
173
     0
291
     0
 45
0.0
1001
ACAD
1000
AcDbSavedByObjectVersion
1070
     0
  0
VISUALSTYLE
  5
40
102
{ACAD_REACTORS
330
2A
102
}
102
{ACAD_XDICTIONARY
360
416
102
}
330
2A
100
AcDbVisualStyle
  2
X-Ray
 70
    25
 71
     2
 72
     2
 73
     1
 90
        1
 40
0.5
 41
30.0
 62
     5
 63
     7
421
 16777215
 74
     1
 91
        0
 64
     7
 65
   257
 75
     1
175
     1
 42
1.0
 92
        8
 66
     7
 43
1.0
 76
     1
 77
     6
 78
     2
 67
     7
 79
     3
170
     0
171
     0
290
     0
174
     0
 93
       13
 44
0.0
173
     0
291
     0
 45
0.0
1001
ACAD
1000
AcDbSavedByObjectVersion
1070
     0
  0
DICTIONARYVAR
  5
3E9
102
{ACAD_REACTORS
330
3E8
102
}
330
3E8
100
DictionaryVariables
280
     0
  1
1:1
  0
DICTIONARYVAR
  5
42D
102
{ACAD_REACTORS
330
3E8
102
}
330
3E8
100
DictionaryVariables
280
     0
  1
3.500000
  0
DICTIONARYVAR
  5
42E
102
{ACAD_REACTORS
330
3E8
102
}
330
3E8
100
DictionaryVariables
280
     0
  1
acadiso.lin
  0
DICTIONARYVAR
  5
42A
102
{ACAD_REACTORS
330
3E8
102
}
330
3E8
100
DictionaryVariables
280
     0
  1
Standard
  0
DICTIONARYVAR
  5
429
102
{ACAD_REACTORS
330
3E8
102
}
330
3E8
100
DictionaryVariables
280
     0
  1
Standard
  0
DICTIONARYVAR
  5
3EA
102
{ACAD_REACTORS
330
3E8
102
}
330
3E8
100
DictionaryVariables
280
     0
  1
1
  0
DICTIONARYVAR
  5
3EB
102
{ACAD_REACTORS
330
3E8
102
}
330
3E8
100
DictionaryVariables
280
     0
  1
2
  0
DICTIONARY
  5
41E
330
45
100
AcDbDictionary
280
     1
281
     1
  3
ACAD_XREC_ROUNDTRIP
360
41F
  0
DICTIONARY
  5
41C
330
44
100
AcDbDictionary
280
     1
281
     1
  3
ACAD_XREC_ROUNDTRIP
360
41D
  0
DICTIONARY
  5
420
330
46
100
AcDbDictionary
280
     1
281
     1
  3
ACAD_XREC_ROUNDTRIP
360
421
  0
DICTIONARY
  5
426
330
6C
100
AcDbDictionary
280
     1
281
     1
  3
ACAD_XREC_ROUNDTRIP
360
427
  0
DICTIONARY
  5
422
330
6A
100
AcDbDictionary
280
     1
281
     1
  3
ACAD_ROUNDTRIP_2008_TABLESTYLE_CELLSTYLEMAP
360
424
  3
ACAD_XREC_ROUNDTRIP
360
423
  0
DICTIONARY
  5
3F4
330
2F
100
AcDbDictionary
280
     1
281
     1
  3
ACAD_XREC_ROUNDTRIP
360
3F5
  0
DICTIONARY
  5
3FA
330
32
100
AcDbDictionary
280
     1
281
     1
  3
ACAD_XREC_ROUNDTRIP
360
3FB
  0
DICTIONARY
  5
402
330
36
100
AcDbDictionary
280
     1
281
     1
  3
ACAD_XREC_ROUNDTRIP
360
403
  0
DICTIONARY
  5
40A
330
3A
100
AcDbDictionary
280
     1
281
     1
  3
ACAD_XREC_ROUNDTRIP
360
40B
  0
DICTIONARY
  5
3FE
330
34
100
AcDbDictionary
280
     1
281
     1
  3
ACAD_XREC_ROUNDTRIP
360
3FF
  0
DICTIONARY
  5
400
330
35
100
AcDbDictionary
280
     1
281
     1
  3
ACAD_XREC_ROUNDTRIP
360
401
  0
DICTIONARY
  5
410
330
3D
100
AcDbDictionary
280
     1
281
     1
  3
ACAD_XREC_ROUNDTRIP
360
411
  0
DICTIONARY
  5
408
330
39
100
AcDbDictionary
280
     1
281
     1
  3
ACAD_XREC_ROUNDTRIP
360
409
  0
DICTIONARY
  5
3EC
330
2B
100
AcDbDictionary
280
     1
281
     1
  3
ACAD_XREC_ROUNDTRIP
360
3ED
  0
DICTIONARY
  5
3EE
330
2C
100
AcDbDictionary
280
     1
281
     1
  3
ACAD_XREC_ROUNDTRIP
360
3EF
  0
DICTIONARY
  5
3F0
330
2D
100
AcDbDictionary
280
     1
281
     1
  3
ACAD_XREC_ROUNDTRIP
360
3F1
  0
DICTIONARY
  5
3F2
330
2E
100
AcDbDictionary
280
     1
281
     1
  3
ACAD_XREC_ROUNDTRIP
360
3F3
  0
DICTIONARY
  5
3F8
330
31
100
AcDbDictionary
280
     1
281
     1
  3
ACAD_XREC_ROUNDTRIP
360
3F9
  0
DICTIONARY
  5
40C
330
3B
100
AcDbDictionary
280
     1
281
     1
  3
ACAD_XREC_ROUNDTRIP
360
40D
  0
DICTIONARY
  5
406
330
38
100
AcDbDictionary
280
     1
281
     1
  3
ACAD_XREC_ROUNDTRIP
360
407
  0
DICTIONARY
  5
40E
330
3C
100
AcDbDictionary
280
     1
281
     1
  3
ACAD_XREC_ROUNDTRIP
360
40F
  0
DICTIONARY
  5
3FC
330
33
100
AcDbDictionary
280
     1
281
     1
  3
ACAD_XREC_ROUNDTRIP
360
3FD
  0
DICTIONARY
  5
41A
330
42
100
AcDbDictionary
280
     1
281
     1
  3
ACAD_XREC_ROUNDTRIP
360
41B
  0
DICTIONARY
  5
418
330
41
100
AcDbDictionary
280
     1
281
     1
  3
ACAD_XREC_ROUNDTRIP
360
419
  0
DICTIONARY
  5
412
330
3E
100
AcDbDictionary
280
     1
281
     1
  3
ACAD_XREC_ROUNDTRIP
360
413
  0
DICTIONARY
  5
414
330
3F
100
AcDbDictionary
280
     1
281
     1
  3
ACAD_XREC_ROUNDTRIP
360
415
  0
DICTIONARY
  5
404
330
37
100
AcDbDictionary
280
     1
281
     1
  3
ACAD_XREC_ROUNDTRIP
360
405
  0
DICTIONARY
  5
3F6
330
30
100
AcDbDictionary
280
     1
281
     1
  3
ACAD_XREC_ROUNDTRIP
360
3F7
  0
DICTIONARY
  5
416
330
40
100
AcDbDictionary
280
     1
281
     1
  3
ACAD_XREC_ROUNDTRIP
360
417
  0
XRECORD
  5
41F
102
{ACAD_REACTORS
330
41E
102
}
330
41E
100
AcDbXrecord
280
     1
102
MATERIAL
148
0.0
149
0.0
149
0.0
 93
        0
 94
      127
282
     0
 72
     1
 77
     1
171
     1
175
     1
179
     1
273
     0
  0
XRECORD
  5
41D
102
{ACAD_REACTORS
330
41C
102
}
330
41C
100
AcDbXrecord
280
     1
102
MATERIAL
148
0.0
149
0.0
149
0.0
 93
        0
 94
      127
282
     0
 72
     1
 77
     1
171
     1
175
     1
179
     1
273
     0
  0
XRECORD
  5
421
102
{ACAD_REACTORS
330
420
102
}
330
420
100
AcDbXrecord
280
     1
102
MATERIAL
148
0.0
149
0.0
149
0.0
 93
        0
 94
      127
282
     0
 72
     1
 77
     1
171
     1
175
     1
179
     1
273
     0
  0
XRECORD
  5
427
102
{ACAD_REACTORS
330
426
102
}
330
426
100
AcDbXrecord
280
     1
102
ACAD_ROUNDTRIP_2010_MLEADER_STYLE
  0
CELLSTYLEMAP
  5
424
102
{ACAD_REACTORS
330
422
102
}
330
422
100
AcDbCellStyleMap
 90
        3
300
CELLSTYLE
  1
TABLEFORMAT_BEGIN
 90
        5
170
     1
 91
        0
 92
    32768
 62
   257
 93
        1
300
CONTENTFORMAT
  1
CONTENTFORMAT_BEGIN
 90
        0
 91
        0
 92
        4
 93
        0
300

 40
0.0
140
1.0
 94
        5
 62
     0
340
11
144
6.0
309
CONTENTFORMAT_END
171
     1
301
MARGIN
  1
CELLMARGIN_BEGIN
 40
1.5
 40
1.5
 40
1.5
 40
1.5
 40
1.5
 40
1.5
309
CELLMARGIN_END
 94
        6
 95
        1
302
GRIDFORMAT
  1
GRIDFORMAT_BEGIN
 90
        0
 91
        1
 62
     0
 92
       -2
340
14
 93
        0
 40
0.045
309
GRIDFORMAT_END
 95
        2
302
GRIDFORMAT
  1
GRIDFORMAT_BEGIN
 90
        0
 91
        1
 62
     0
 92
       -2
340
14
 93
        0
 40
0.045
309
GRIDFORMAT_END
 95
        4
302
GRIDFORMAT
  1
GRIDFORMAT_BEGIN
 90
        0
 91
        1
 62
     0
 92
       -2
340
14
 93
        0
 40
0.045
309
GRIDFORMAT_END
 95
        8
302
GRIDFORMAT
  1
GRIDFORMAT_BEGIN
 90
        0
 91
        1
 62
     0
 92
       -2
340
14
 93
        0
 40
0.045
309
GRIDFORMAT_END
 95
       16
302
GRIDFORMAT
  1
GRIDFORMAT_BEGIN
 90
        0
 91
        1
 62
     0
 92
       -2
340
14
 93
        0
 40
0.045
309
GRIDFORMAT_END
 95
       32
302
GRIDFORMAT
  1
GRIDFORMAT_BEGIN
 90
        0
 91
        1
 62
     0
 92
       -2
340
14
 93
        0
 40
0.045
309
GRIDFORMAT_END
309
TABLEFORMAT_END
  1
CELLSTYLE_BEGIN
 90
        1
 91
        1
300
_TITLE
309
CELLSTYLE_END
300
CELLSTYLE
  1
TABLEFORMAT_BEGIN
 90
        5
170
     1
 91
        0
 92
        0
 62
   257
 93
        1
300
CONTENTFORMAT
  1
CONTENTFORMAT_BEGIN
 90
        0
 91
        0
 92
        4
 93
        0
300

 40
0.0
140
1.0
 94
        5
 62
     0
340
11
144
4.5
309
CONTENTFORMAT_END
171
     1
301
MARGIN
  1
CELLMARGIN_BEGIN
 40
1.5
 40
1.5
 40
1.5
 40
1.5
 40
1.5
 40
1.5
309
CELLMARGIN_END
 94
        6
 95
        1
302
GRIDFORMAT
  1
GRIDFORMAT_BEGIN
 90
        0
 91
        1
 62
     0
 92
       -2
340
14
 93
        0
 40
0.045
309
GRIDFORMAT_END
 95
        2
302
GRIDFORMAT
  1
GRIDFORMAT_BEGIN
 90
        0
 91
        1
 62
     0
 92
       -2
340
14
 93
        0
 40
0.045
309
GRIDFORMAT_END
 95
        4
302
GRIDFORMAT
  1
GRIDFORMAT_BEGIN
 90
        0
 91
        1
 62
     0
 92
       -2
340
14
 93
        0
 40
0.045
309
GRIDFORMAT_END
 95
        8
302
GRIDFORMAT
  1
GRIDFORMAT_BEGIN
 90
        0
 91
        1
 62
     0
 92
       -2
340
14
 93
        0
 40
0.045
309
GRIDFORMAT_END
 95
       16
302
GRIDFORMAT
  1
GRIDFORMAT_BEGIN
 90
        0
 91
        1
 62
     0
 92
       -2
340
14
 93
        0
 40
0.045
309
GRIDFORMAT_END
 95
       32
302
GRIDFORMAT
  1
GRIDFORMAT_BEGIN
 90
        0
 91
        1
 62
     0
 92
       -2
340
14
 93
        0
 40
0.045
309
GRIDFORMAT_END
309
TABLEFORMAT_END
  1
CELLSTYLE_BEGIN
 90
        2
 91
        1
300
_HEADER
309
CELLSTYLE_END
300
CELLSTYLE
  1
TABLEFORMAT_BEGIN
 90
        5
170
     1
 91
        0
 92
        0
 62
   257
 93
        1
300
CONTENTFORMAT
  1
CONTENTFORMAT_BEGIN
 90
        0
 91
        0
 92
        4
 93
        0
300

 40
0.0
140
1.0
 94
        2
 62
     0
340
11
144
4.5
309
CONTENTFORMAT_END
171
     1
301
MARGIN
  1
CELLMARGIN_BEGIN
 40
1.5
 40
1.5
 40
1.5
 40
1.5
 40
1.5
 40
1.5
309
CELLMARGIN_END
 94
        6
 95
        1
302
GRIDFORMAT
  1
GRIDFORMAT_BEGIN
 90
        0
 91
        1
 62
     0
 92
       -2
340
14
 93
        0
 40
0.045
309
GRIDFORMAT_END
 95
        2
302
GRIDFORMAT
  1
GRIDFORMAT_BEGIN
 90
        0
 91
        1
 62
     0
 92
       -2
340
14
 93
        0
 40
0.045
309
GRIDFORMAT_END
 95
        4
302
GRIDFORMAT
  1
GRIDFORMAT_BEGIN
 90
        0
 91
        1
 62
     0
 92
       -2
340
14
 93
        0
 40
0.045
309
GRIDFORMAT_END
 95
        8
302
GRIDFORMAT
  1
GRIDFORMAT_BEGIN
 90
        0
 91
        1
 62
     0
 92
       -2
340
14
 93
        0
 40
0.045
309
GRIDFORMAT_END
 95
       16
302
GRIDFORMAT
  1
GRIDFORMAT_BEGIN
 90
        0
 91
        1
 62
     0
 92
       -2
340
14
 93
        0
 40
0.045
309
GRIDFORMAT_END
 95
       32
302
GRIDFORMAT
  1
GRIDFORMAT_BEGIN
 90
        0
 91
        1
 62
     0
 92
       -2
340
14
 93
        0
 40
0.045
309
GRIDFORMAT_END
309
TABLEFORMAT_END
  1
CELLSTYLE_BEGIN
 90
        3
 91
        2
300
_DATA
309
CELLSTYLE_END
  0
XRECORD
  5
423
102
{ACAD_REACTORS
330
422
102
}
330
422
100
AcDbXrecord
280
     1
102
ACAD_ROUNDTRIP_PRE2007_TABLESTYLE
 90
        4
 91
        0
  1

 92
        4
 93
        0
  2

 94
        4
 95
        0
  3

  0
XRECORD
  5
3F5
102
{ACAD_REACTORS
330
3F4
102
}
330
3F4
100
AcDbXrecord
280
     1
102
RTVSPropertyOp0
 70
     1
102
RTVSPropertyOp1
 70
     1
102
RTVSPropertyOp2
 70
     1
102
RTVSPropertyOp3
 70
     1
102
RTVSPropertyOp4
 70
     1
102
RTVSPropertyOp5
 70
     1
102
RTVSPropertyOp6
 70
     1
102
RTVSPropertyOp7
 70
     1
102
RTVSPropertyOp8
 70
     1
102
RTVSPropertyOp9
 70
     1
102
RTVSPropertyOp10
 70
     1
102
RTVSPropertyOp11
 70
     1
102
RTVSPropertyOp12
 70
     1
102
RTVSPropertyOp13
 70
     1
102
RTVSPropertyOp14
 70
     1
102
RTVSPropertyOp15
 70
     1
102
RTVSPropertyOp16
 70
     1
102
RTVSPropertyOp17
 70
     1
102
RTVSPropertyOp18
 70
     1
102
RTVSPropertyOp19
 70
     1
102
RTVSPropertyOp20
 70
     1
102
RTVSPropertyOp21
 70
     1
102
RTVSPropertyOp22
 70
     1
102
RTVSPropertyOp23
 70
     1
102
RTVSPropertyOp24
 70
     1
102
RTVSPropertyOp25
 70
     1
102
RTVSPropertyOp26
 70
     1
102
RTVSPropertyOp27
 70
     1
102
RTVSPropertyOp28
 70
     1
102
RTVSPropertyOp29
 70
     1
102
RTVSPropertyOp30
 70
     1
102
RTVSPropertyOp31
 70
     1
102
RTVSPropertyOp32
 70
     1
102
RTVSPropertyOp33
 70
     1
102
RTVSPropertyOp34
 70
     1
102
RTVSPropertyOp35
 70
     1
102
RTVSPropertyOp36
 70
     1
102
RTVSPropertyOp37
 70
     1
102
RTVSPropertyOp38
 70
     1
102
RTVSPropertyOp39
 70
     1
102
RTVSPropertyOp40
 70
     1
102
RTVSPropertyOp41
 70
     1
102
RTVSPropertyOp42
 70
     1
102
RTVSPropertyOp43
 70
     1
102
RTVSPropertyOp44
 70
     1
102
RTVSPropertyOp45
 70
     1
102
RTVSPropertyOp46
 70
     1
102
RTVSPropertyOp47
 70
     1
102
RTVSPropertyOp48
 70
     1
102
RTVSPropertyOp49
 70
     1
102
RTVSPropertyOp50
 70
     1
102
RTVSPropertyOp51
 70
     0
102
RTVSPropertyOp52
 70
     0
102
RTVSPropertyOp53
 70
     1
102
RTVSPropertyOp54
 70
     1
102
RTVSPropertyOp55
 70
     1
102
RTVSPropertyOp56
 70
     1
102
RTVSPropertyOp57
 70
     1
102
RTVSPost2010Prop28
280
     1
102
RTVSPost2010PropOp28
 70
     1
102
RTVSPost2010Prop29
280
     1
102
RTVSPost2010PropOp29
 70
     1
102
RTVSPost2010Prop30
280
     0
102
RTVSPost2010PropOp30
 70
     1
102
RTVSPost2010Prop31
280
     0
102
RTVSPost2010PropOp31
 70
     1
102
RTVSPost2010Prop32
280
     0
102
RTVSPost2010PropOp32
 70
     1
102
RTVSPost2010Prop33
280
     0
102
RTVSPost2010PropOp33
 70
     1
102
RTVSPost2010Prop34
280
     0
102
RTVSPost2010PropOp34
 70
     1
102
RTVSPost2010Prop35
280
     0
102
RTVSPost2010PropOp35
 70
     1
102
RTVSPost2010Prop36
280
     0
102
RTVSPost2010PropOp36
 70
     1
102
RTVSPost2010Prop37
 90
       50
102
RTVSPost2010PropOp37
 70
     1
102
RTVSPost2010Prop38
140
0.0
102
RTVSPost2010PropOp38
 70
     1
102
RTVSPost2010Prop39
140
1.0
102
RTVSPost2010PropOp39
 70
     1
102
RTVSPost2010Prop40
 90
        0
102
RTVSPost2010PropOp40
 70
     1
102
RTVSPost2010Prop41ColorIndex
 90
       18
102
RTVSPost2010Prop41ColorRGB
 90
        0
102
RTVSPost2010PropOp41
 70
     1
102
RTVSPost2010Prop42
 90
       50
102
RTVSPost2010PropOp42
 70
     1
102
RTVSPost2010Prop43
 90
        3
102
RTVSPost2010PropOp43
 70
     1
102
RTVSPost2010Prop44ColorIndex
 90
        5
102
RTVSPost2010Prop44ColorRGB
 90
      255
102
RTVSPost2010PropOp44
 70
     1
102
RTVSPost2010Prop45
280
     0
102
RTVSPost2010PropOp45
 70
     1
102
RTVSPost2010Prop46
 90
       50
102
RTVSPost2010PropOp46
 70
     1
102
RTVSPost2010Prop47
 90
       50
102
RTVSPost2010PropOp47
 70
     1
102
RTVSPost2010Prop48
 90
       50
102
RTVSPost2010PropOp48
 70
     1
102
RTVSPost2010Prop49
280
     0
102
RTVSPost2010PropOp49
 70
     1
102
RTVSPost2010Prop50
 90
       50
102
RTVSPost2010PropOp50
 70
     1
102
RTVSPost2010Prop51ColorIndex
 90
      256
102
RTVSPost2010Prop51ColorRGB
 90
-16777216
102
RTVSPost2010PropOp51
 70
     0
102
RTVSPost2010Prop52
140
1.0
102
RTVSPost2010PropOp52
 70
     0
102
RTVSPost2010Prop53
 90
        2
102
RTVSPost2010PropOp53
 70
     1
102
RTVSPost2010Prop54
  1
strokes_ogs.tif
102
RTVSPost2010PropOp54
 70
     1
102
RTVSPost2010Prop55
280
     0
102
RTVSPost2010PropOp55
 70
     1
102
RTVSPost2010Prop56
140
1.0
102
RTVSPost2010PropOp56
 70
     1
102
RTVSPost2010Prop57
140
1.0
102
RTVSPost2010PropOp57
 70
     1
  0
XRECORD
  5
3FB
102
{ACAD_REACTORS
330
3FA
102
}
330
3FA
100
AcDbXrecord
280
     1
102
RTVSPropertyOp0
 70
     1
102
RTVSPropertyOp1
 70
     1
102
RTVSPropertyOp2
 70
     1
102
RTVSPropertyOp3
 70
     1
102
RTVSPropertyOp4
 70
     1
102
RTVSPropertyOp5
 70
     1
102
RTVSPropertyOp6
 70
     1
102
RTVSPropertyOp7
 70
     1
102
RTVSPropertyOp8
 70
     1
102
RTVSPropertyOp9
 70
     1
102
RTVSPropertyOp10
 70
     1
102
RTVSPropertyOp11
 70
     1
102
RTVSPropertyOp12
 70
     1
102
RTVSPropertyOp13
 70
     1
102
RTVSPropertyOp14
 70
     1
102
RTVSPropertyOp15
 70
     1
102
RTVSPropertyOp16
 70
     1
102
RTVSPropertyOp17
 70
     1
102
RTVSPropertyOp18
 70
     1
102
RTVSPropertyOp19
 70
     1
102
RTVSPropertyOp20
 70
     1
102
RTVSPropertyOp21
 70
     1
102
RTVSPropertyOp22
 70
     1
102
RTVSPropertyOp23
 70
     1
102
RTVSPropertyOp24
 70
     1
102
RTVSPropertyOp25
 70
     1
102
RTVSPropertyOp26
 70
     1
102
RTVSPropertyOp27
 70
     1
102
RTVSPropertyOp28
 70
     1
102
RTVSPropertyOp29
 70
     1
102
RTVSPropertyOp30
 70
     1
102
RTVSPropertyOp31
 70
     1
102
RTVSPropertyOp32
 70
     1
102
RTVSPropertyOp33
 70
     1
102
RTVSPropertyOp34
 70
     1
102
RTVSPropertyOp35
 70
     1
102
RTVSPropertyOp36
 70
     1
102
RTVSPropertyOp37
 70
     1
102
RTVSPropertyOp38
 70
     1
102
RTVSPropertyOp39
 70
     1
102
RTVSPropertyOp40
 70
     1
102
RTVSPropertyOp41
 70
     1
102
RTVSPropertyOp42
 70
     1
102
RTVSPropertyOp43
 70
     1
102
RTVSPropertyOp44
 70
     1
102
RTVSPropertyOp45
 70
     1
102
RTVSPropertyOp46
 70
     1
102
RTVSPropertyOp47
 70
     1
102
RTVSPropertyOp48
 70
     1
102
RTVSPropertyOp49
 70
     1
102
RTVSPropertyOp50
 70
     1
102
RTVSPropertyOp51
 70
     0
102
RTVSPropertyOp52
 70
     0
102
RTVSPropertyOp53
 70
     1
102
RTVSPropertyOp54
 70
     1
102
RTVSPropertyOp55
 70
     1
102
RTVSPropertyOp56
 70
     1
102
RTVSPropertyOp57
 70
     1
102
RTVSPost2010Prop28
280
     0
102
RTVSPost2010PropOp28
 70
     1
102
RTVSPost2010Prop29
280
     1
102
RTVSPost2010PropOp29
 70
     1
102
RTVSPost2010Prop30
280
     1
102
RTVSPost2010PropOp30
 70
     1
102
RTVSPost2010Prop31
280
     0
102
RTVSPost2010PropOp31
 70
     1
102
RTVSPost2010Prop32
280
     0
102
RTVSPost2010PropOp32
 70
     1
102
RTVSPost2010Prop33
280
     0
102
RTVSPost2010PropOp33
 70
     1
102
RTVSPost2010Prop34
280
     0
102
RTVSPost2010PropOp34
 70
     1
102
RTVSPost2010Prop35
280
     0
102
RTVSPost2010PropOp35
 70
     1
102
RTVSPost2010Prop36
280
     0
102
RTVSPost2010PropOp36
 70
     1
102
RTVSPost2010Prop37
 90
       50
102
RTVSPost2010PropOp37
 70
     1
102
RTVSPost2010Prop38
140
0.0
102
RTVSPost2010PropOp38
 70
     1
102
RTVSPost2010Prop39
140
1.0
102
RTVSPost2010PropOp39
 70
     1
102
RTVSPost2010Prop40
 90
        0
102
RTVSPost2010PropOp40
 70
     1
102
RTVSPost2010Prop41ColorIndex
 90
       18
102
RTVSPost2010Prop41ColorRGB
 90
        0
102
RTVSPost2010PropOp41
 70
     1
102
RTVSPost2010Prop42
 90
       50
102
RTVSPost2010PropOp42
 70
     1
102
RTVSPost2010Prop43
 90
        3
102
RTVSPost2010PropOp43
 70
     1
102
RTVSPost2010Prop44ColorIndex
 90
        5
102
RTVSPost2010Prop44ColorRGB
 90
      255
102
RTVSPost2010PropOp44
 70
     1
102
RTVSPost2010Prop45
280
     0
102
RTVSPost2010PropOp45
 70
     1
102
RTVSPost2010Prop46
 90
       50
102
RTVSPost2010PropOp46
 70
     1
102
RTVSPost2010Prop47
 90
       50
102
RTVSPost2010PropOp47
 70
     1
102
RTVSPost2010Prop48
 90
       50
102
RTVSPost2010PropOp48
 70
     1
102
RTVSPost2010Prop49
280
     0
102
RTVSPost2010PropOp49
 70
     1
102
RTVSPost2010Prop50
 90
       50
102
RTVSPost2010PropOp50
 70
     1
102
RTVSPost2010Prop51ColorIndex
 90
      256
102
RTVSPost2010Prop51ColorRGB
 90
-16777216
102
RTVSPost2010PropOp51
 70
     0
102
RTVSPost2010Prop52
140
1.0
102
RTVSPost2010PropOp52
 70
     0
102
RTVSPost2010Prop53
 90
        2
102
RTVSPost2010PropOp53
 70
     1
102
RTVSPost2010Prop54
  1
strokes_ogs.tif
102
RTVSPost2010PropOp54
 70
     1
102
RTVSPost2010Prop55
280
     0
102
RTVSPost2010PropOp55
 70
     1
102
RTVSPost2010Prop56
140
1.0
102
RTVSPost2010PropOp56
 70
     1
102
RTVSPost2010Prop57
140
1.0
102
RTVSPost2010PropOp57
 70
     1
  0
XRECORD
  5
403
102
{ACAD_REACTORS
330
402
102
}
330
402
100
AcDbXrecord
280
     1
102
RTVSPropertyOp0
 70
     1
102
RTVSPropertyOp1
 70
     1
102
RTVSPropertyOp2
 70
     1
102
RTVSPropertyOp3
 70
     1
102
RTVSPropertyOp4
 70
     1
102
RTVSPropertyOp5
 70
     1
102
RTVSPropertyOp6
 70
     1
102
RTVSPropertyOp7
 70
     1
102
RTVSPropertyOp8
 70
     1
102
RTVSPropertyOp9
 70
     1
102
RTVSPropertyOp10
 70
     1
102
RTVSPropertyOp11
 70
     1
102
RTVSPropertyOp12
 70
     1
102
RTVSPropertyOp13
 70
     1
102
RTVSPropertyOp14
 70
     1
102
RTVSPropertyOp15
 70
     1
102
RTVSPropertyOp16
 70
     1
102
RTVSPropertyOp17
 70
     1
102
RTVSPropertyOp18
 70
     1
102
RTVSPropertyOp19
 70
     1
102
RTVSPropertyOp20
 70
     1
102
RTVSPropertyOp21
 70
     1
102
RTVSPropertyOp22
 70
     1
102
RTVSPropertyOp23
 70
     1
102
RTVSPropertyOp24
 70
     1
102
RTVSPropertyOp25
 70
     1
102
RTVSPropertyOp26
 70
     1
102
RTVSPropertyOp27
 70
     1
102
RTVSPropertyOp28
 70
     1
102
RTVSPropertyOp29
 70
     1
102
RTVSPropertyOp30
 70
     1
102
RTVSPropertyOp31
 70
     1
102
RTVSPropertyOp32
 70
     1
102
RTVSPropertyOp33
 70
     1
102
RTVSPropertyOp34
 70
     1
102
RTVSPropertyOp35
 70
     1
102
RTVSPropertyOp36
 70
     1
102
RTVSPropertyOp37
 70
     1
102
RTVSPropertyOp38
 70
     1
102
RTVSPropertyOp39
 70
     1
102
RTVSPropertyOp40
 70
     1
102
RTVSPropertyOp41
 70
     1
102
RTVSPropertyOp42
 70
     1
102
RTVSPropertyOp43
 70
     1
102
RTVSPropertyOp44
 70
     1
102
RTVSPropertyOp45
 70
     1
102
RTVSPropertyOp46
 70
     1
102
RTVSPropertyOp47
 70
     1
102
RTVSPropertyOp48
 70
     1
102
RTVSPropertyOp49
 70
     1
102
RTVSPropertyOp50
 70
     1
102
RTVSPropertyOp51
 70
     0
102
RTVSPropertyOp52
 70
     0
102
RTVSPropertyOp53
 70
     1
102
RTVSPropertyOp54
 70
     1
102
RTVSPropertyOp55
 70
     1
102
RTVSPropertyOp56
 70
     1
102
RTVSPropertyOp57
 70
     1
102
RTVSPost2010Prop28
280
     0
102
RTVSPost2010PropOp28
 70
     1
102
RTVSPost2010Prop29
280
     1
102
RTVSPost2010PropOp29
 70
     1
102
RTVSPost2010Prop30
280
     1
102
RTVSPost2010PropOp30
 70
     1
102
RTVSPost2010Prop31
280
     0
102
RTVSPost2010PropOp31
 70
     1
102
RTVSPost2010Prop32
280
     0
102
RTVSPost2010PropOp32
 70
     1
102
RTVSPost2010Prop33
280
     0
102
RTVSPost2010PropOp33
 70
     1
102
RTVSPost2010Prop34
280
     0
102
RTVSPost2010PropOp34
 70
     1
102
RTVSPost2010Prop35
280
     0
102
RTVSPost2010PropOp35
 70
     1
102
RTVSPost2010Prop36
280
     0
102
RTVSPost2010PropOp36
 70
     1
102
RTVSPost2010Prop37
 90
       50
102
RTVSPost2010PropOp37
 70
     1
102
RTVSPost2010Prop38
140
0.0
102
RTVSPost2010PropOp38
 70
     1
102
RTVSPost2010Prop39
140
1.0
102
RTVSPost2010PropOp39
 70
     1
102
RTVSPost2010Prop40
 90
        0
102
RTVSPost2010PropOp40
 70
     1
102
RTVSPost2010Prop41ColorIndex
 90
       18
102
RTVSPost2010Prop41ColorRGB
 90
        0
102
RTVSPost2010PropOp41
 70
     1
102
RTVSPost2010Prop42
 90
       50
102
RTVSPost2010PropOp42
 70
     1
102
RTVSPost2010Prop43
 90
        3
102
RTVSPost2010PropOp43
 70
     1
102
RTVSPost2010Prop44ColorIndex
 90
        5
102
RTVSPost2010Prop44ColorRGB
 90
      255
102
RTVSPost2010PropOp44
 70
     1
102
RTVSPost2010Prop45
280
     0
102
RTVSPost2010PropOp45
 70
     1
102
RTVSPost2010Prop46
 90
       50
102
RTVSPost2010PropOp46
 70
     1
102
RTVSPost2010Prop47
 90
       50
102
RTVSPost2010PropOp47
 70
     1
102
RTVSPost2010Prop48
 90
       50
102
RTVSPost2010PropOp48
 70
     1
102
RTVSPost2010Prop49
280
     0
102
RTVSPost2010PropOp49
 70
     1
102
RTVSPost2010Prop50
 90
       50
102
RTVSPost2010PropOp50
 70
     1
102
RTVSPost2010Prop51ColorIndex
 90
      256
102
RTVSPost2010Prop51ColorRGB
 90
-16777216
102
RTVSPost2010PropOp51
 70
     0
102
RTVSPost2010Prop52
140
1.0
102
RTVSPost2010PropOp52
 70
     0
102
RTVSPost2010Prop53
 90
        2
102
RTVSPost2010PropOp53
 70
     1
102
RTVSPost2010Prop54
  1
strokes_ogs.tif
102
RTVSPost2010PropOp54
 70
     1
102
RTVSPost2010Prop55
280
     0
102
RTVSPost2010PropOp55
 70
     1
102
RTVSPost2010Prop56
140
1.0
102
RTVSPost2010PropOp56
 70
     1
102
RTVSPost2010Prop57
140
1.0
102
RTVSPost2010PropOp57
 70
     1
  0
XRECORD
  5
40B
102
{ACAD_REACTORS
330
40A
102
}
330
40A
100
AcDbXrecord
280
     1
102
RTVSPropertyOp0
 70
     1
102
RTVSPropertyOp1
 70
     1
102
RTVSPropertyOp2
 70
     1
102
RTVSPropertyOp3
 70
     1
102
RTVSPropertyOp4
 70
     1
102
RTVSPropertyOp5
 70
     1
102
RTVSPropertyOp6
 70
     1
102
RTVSPropertyOp7
 70
     1
102
RTVSPropertyOp8
 70
     1
102
RTVSPropertyOp9
 70
     1
102
RTVSPropertyOp10
 70
     1
102
RTVSPropertyOp11
 70
     1
102
RTVSPropertyOp12
 70
     1
102
RTVSPropertyOp13
 70
     1
102
RTVSPropertyOp14
 70
     1
102
RTVSPropertyOp15
 70
     1
102
RTVSPropertyOp16
 70
     1
102
RTVSPropertyOp17
 70
     1
102
RTVSPropertyOp18
 70
     1
102
RTVSPropertyOp19
 70
     1
102
RTVSPropertyOp20
 70
     1
102
RTVSPropertyOp21
 70
     1
102
RTVSPropertyOp22
 70
     1
102
RTVSPropertyOp23
 70
     1
102
RTVSPropertyOp24
 70
     1
102
RTVSPropertyOp25
 70
     1
102
RTVSPropertyOp26
 70
     1
102
RTVSPropertyOp27
 70
     1
102
RTVSPropertyOp28
 70
     1
102
RTVSPropertyOp29
 70
     1
102
RTVSPropertyOp30
 70
     1
102
RTVSPropertyOp31
 70
     1
102
RTVSPropertyOp32
 70
     1
102
RTVSPropertyOp33
 70
     1
102
RTVSPropertyOp34
 70
     1
102
RTVSPropertyOp35
 70
     1
102
RTVSPropertyOp36
 70
     1
102
RTVSPropertyOp37
 70
     1
102
RTVSPropertyOp38
 70
     1
102
RTVSPropertyOp39
 70
     1
102
RTVSPropertyOp40
 70
     1
102
RTVSPropertyOp41
 70
     1
102
RTVSPropertyOp42
 70
     1
102
RTVSPropertyOp43
 70
     1
102
RTVSPropertyOp44
 70
     1
102
RTVSPropertyOp45
 70
     1
102
RTVSPropertyOp46
 70
     1
102
RTVSPropertyOp47
 70
     1
102
RTVSPropertyOp48
 70
     1
102
RTVSPropertyOp49
 70
     1
102
RTVSPropertyOp50
 70
     1
102
RTVSPropertyOp51
 70
     0
102
RTVSPropertyOp52
 70
     0
102
RTVSPropertyOp53
 70
     1
102
RTVSPropertyOp54
 70
     1
102
RTVSPropertyOp55
 70
     1
102
RTVSPropertyOp56
 70
     1
102
RTVSPropertyOp57
 70
     1
102
RTVSPost2010Prop28
280
     0
102
RTVSPost2010PropOp28
 70
     1
102
RTVSPost2010Prop29
280
     1
102
RTVSPost2010PropOp29
 70
     1
102
RTVSPost2010Prop30
280
     1
102
RTVSPost2010PropOp30
 70
     1
102
RTVSPost2010Prop31
280
     0
102
RTVSPost2010PropOp31
 70
     1
102
RTVSPost2010Prop32
280
     0
102
RTVSPost2010PropOp32
 70
     1
102
RTVSPost2010Prop33
280
     0
102
RTVSPost2010PropOp33
 70
     1
102
RTVSPost2010Prop34
280
     0
102
RTVSPost2010PropOp34
 70
     1
102
RTVSPost2010Prop35
280
     0
102
RTVSPost2010PropOp35
 70
     1
102
RTVSPost2010Prop36
280
     0
102
RTVSPost2010PropOp36
 70
     1
102
RTVSPost2010Prop37
 90
       50
102
RTVSPost2010PropOp37
 70
     1
102
RTVSPost2010Prop38
140
0.0
102
RTVSPost2010PropOp38
 70
     1
102
RTVSPost2010Prop39
140
1.0
102
RTVSPost2010PropOp39
 70
     1
102
RTVSPost2010Prop40
 90
        0
102
RTVSPost2010PropOp40
 70
     1
102
RTVSPost2010Prop41ColorIndex
 90
       18
102
RTVSPost2010Prop41ColorRGB
 90
        0
102
RTVSPost2010PropOp41
 70
     1
102
RTVSPost2010Prop42
 90
       50
102
RTVSPost2010PropOp42
 70
     1
102
RTVSPost2010Prop43
 90
        3
102
RTVSPost2010PropOp43
 70
     1
102
RTVSPost2010Prop44ColorIndex
 90
        5
102
RTVSPost2010Prop44ColorRGB
 90
      255
102
RTVSPost2010PropOp44
 70
     1
102
RTVSPost2010Prop45
280
     0
102
RTVSPost2010PropOp45
 70
     1
102
RTVSPost2010Prop46
 90
       50
102
RTVSPost2010PropOp46
 70
     1
102
RTVSPost2010Prop47
 90
       50
102
RTVSPost2010PropOp47
 70
     1
102
RTVSPost2010Prop48
 90
       50
102
RTVSPost2010PropOp48
 70
     1
102
RTVSPost2010Prop49
280
     0
102
RTVSPost2010PropOp49
 70
     1
102
RTVSPost2010Prop50
 90
       50
102
RTVSPost2010PropOp50
 70
     1
102
RTVSPost2010Prop51ColorIndex
 90
      256
102
RTVSPost2010Prop51ColorRGB
 90
-16777216
102
RTVSPost2010PropOp51
 70
     0
102
RTVSPost2010Prop52
140
1.0
102
RTVSPost2010PropOp52
 70
     0
102
RTVSPost2010Prop53
 90
        2
102
RTVSPost2010PropOp53
 70
     1
102
RTVSPost2010Prop54
  1
strokes_ogs.tif
102
RTVSPost2010PropOp54
 70
     1
102
RTVSPost2010Prop55
280
     0
102
RTVSPost2010PropOp55
 70
     1
102
RTVSPost2010Prop56
140
1.0
102
RTVSPost2010PropOp56
 70
     1
102
RTVSPost2010Prop57
140
1.0
102
RTVSPost2010PropOp57
 70
     1
  0
XRECORD
  5
3FF
102
{ACAD_REACTORS
330
3FE
102
}
330
3FE
100
AcDbXrecord
280
     1
102
RTVSPropertyOp0
 70
     1
102
RTVSPropertyOp1
 70
     1
102
RTVSPropertyOp2
 70
     1
102
RTVSPropertyOp3
 70
     1
102
RTVSPropertyOp4
 70
     1
102
RTVSPropertyOp5
 70
     1
102
RTVSPropertyOp6
 70
     1
102
RTVSPropertyOp7
 70
     1
102
RTVSPropertyOp8
 70
     1
102
RTVSPropertyOp9
 70
     1
102
RTVSPropertyOp10
 70
     1
102
RTVSPropertyOp11
 70
     1
102
RTVSPropertyOp12
 70
     1
102
RTVSPropertyOp13
 70
     1
102
RTVSPropertyOp14
 70
     1
102
RTVSPropertyOp15
 70
     1
102
RTVSPropertyOp16
 70
     1
102
RTVSPropertyOp17
 70
     1
102
RTVSPropertyOp18
 70
     1
102
RTVSPropertyOp19
 70
     1
102
RTVSPropertyOp20
 70
     1
102
RTVSPropertyOp21
 70
     1
102
RTVSPropertyOp22
 70
     1
102
RTVSPropertyOp23
 70
     1
102
RTVSPropertyOp24
 70
     1
102
RTVSPropertyOp25
 70
     1
102
RTVSPropertyOp26
 70
     1
102
RTVSPropertyOp27
 70
     1
102
RTVSPropertyOp28
 70
     1
102
RTVSPropertyOp29
 70
     1
102
RTVSPropertyOp30
 70
     1
102
RTVSPropertyOp31
 70
     1
102
RTVSPropertyOp32
 70
     1
102
RTVSPropertyOp33
 70
     1
102
RTVSPropertyOp34
 70
     1
102
RTVSPropertyOp35
 70
     1
102
RTVSPropertyOp36
 70
     1
102
RTVSPropertyOp37
 70
     1
102
RTVSPropertyOp38
 70
     1
102
RTVSPropertyOp39
 70
     1
102
RTVSPropertyOp40
 70
     1
102
RTVSPropertyOp41
 70
     1
102
RTVSPropertyOp42
 70
     1
102
RTVSPropertyOp43
 70
     1
102
RTVSPropertyOp44
 70
     1
102
RTVSPropertyOp45
 70
     1
102
RTVSPropertyOp46
 70
     1
102
RTVSPropertyOp47
 70
     1
102
RTVSPropertyOp48
 70
     1
102
RTVSPropertyOp49
 70
     1
102
RTVSPropertyOp50
 70
     1
102
RTVSPropertyOp51
 70
     0
102
RTVSPropertyOp52
 70
     0
102
RTVSPropertyOp53
 70
     1
102
RTVSPropertyOp54
 70
     1
102
RTVSPropertyOp55
 70
     1
102
RTVSPropertyOp56
 70
     1
102
RTVSPropertyOp57
 70
     1
102
RTVSPost2010Prop28
280
     0
102
RTVSPost2010PropOp28
 70
     1
102
RTVSPost2010Prop29
280
     1
102
RTVSPost2010PropOp29
 70
     1
102
RTVSPost2010Prop30
280
     1
102
RTVSPost2010PropOp30
 70
     1
102
RTVSPost2010Prop31
280
     0
102
RTVSPost2010PropOp31
 70
     1
102
RTVSPost2010Prop32
280
     0
102
RTVSPost2010PropOp32
 70
     1
102
RTVSPost2010Prop33
280
     0
102
RTVSPost2010PropOp33
 70
     1
102
RTVSPost2010Prop34
280
     0
102
RTVSPost2010PropOp34
 70
     1
102
RTVSPost2010Prop35
280
     0
102
RTVSPost2010PropOp35
 70
     1
102
RTVSPost2010Prop36
280
     0
102
RTVSPost2010PropOp36
 70
     1
102
RTVSPost2010Prop37
 90
       50
102
RTVSPost2010PropOp37
 70
     1
102
RTVSPost2010Prop38
140
0.0
102
RTVSPost2010PropOp38
 70
     1
102
RTVSPost2010Prop39
140
1.0
102
RTVSPost2010PropOp39
 70
     1
102
RTVSPost2010Prop40
 90
        0
102
RTVSPost2010PropOp40
 70
     1
102
RTVSPost2010Prop41ColorIndex
 90
       18
102
RTVSPost2010Prop41ColorRGB
 90
        0
102
RTVSPost2010PropOp41
 70
     1
102
RTVSPost2010Prop42
 90
       50
102
RTVSPost2010PropOp42
 70
     1
102
RTVSPost2010Prop43
 90
        3
102
RTVSPost2010PropOp43
 70
     1
102
RTVSPost2010Prop44ColorIndex
 90
        5
102
RTVSPost2010Prop44ColorRGB
 90
      255
102
RTVSPost2010PropOp44
 70
     1
102
RTVSPost2010Prop45
280
     0
102
RTVSPost2010PropOp45
 70
     1
102
RTVSPost2010Prop46
 90
       50
102
RTVSPost2010PropOp46
 70
     1
102
RTVSPost2010Prop47
 90
       50
102
RTVSPost2010PropOp47
 70
     1
102
RTVSPost2010Prop48
 90
       50
102
RTVSPost2010PropOp48
 70
     1
102
RTVSPost2010Prop49
280
     0
102
RTVSPost2010PropOp49
 70
     1
102
RTVSPost2010Prop50
 90
       50
102
RTVSPost2010PropOp50
 70
     1
102
RTVSPost2010Prop51ColorIndex
 90
      256
102
RTVSPost2010Prop51ColorRGB
 90
-16777216
102
RTVSPost2010PropOp51
 70
     0
102
RTVSPost2010Prop52
140
1.0
102
RTVSPost2010PropOp52
 70
     0
102
RTVSPost2010Prop53
 90
        2
102
RTVSPost2010PropOp53
 70
     1
102
RTVSPost2010Prop54
  1
strokes_ogs.tif
102
RTVSPost2010PropOp54
 70
     1
102
RTVSPost2010Prop55
280
     0
102
RTVSPost2010PropOp55
 70
     1
102
RTVSPost2010Prop56
140
1.0
102
RTVSPost2010PropOp56
 70
     1
102
RTVSPost2010Prop57
140
1.0
102
RTVSPost2010PropOp57
 70
     1
  0
XRECORD
  5
401
102
{ACAD_REACTORS
330
400
102
}
330
400
100
AcDbXrecord
280
     1
102
RTVSPropertyOp0
 70
     1
102
RTVSPropertyOp1
 70
     1
102
RTVSPropertyOp2
 70
     1
102
RTVSPropertyOp3
 70
     1
102
RTVSPropertyOp4
 70
     1
102
RTVSPropertyOp5
 70
     1
102
RTVSPropertyOp6
 70
     1
102
RTVSPropertyOp7
 70
     1
102
RTVSPropertyOp8
 70
     1
102
RTVSPropertyOp9
 70
     1
102
RTVSPropertyOp10
 70
     1
102
RTVSPropertyOp11
 70
     1
102
RTVSPropertyOp12
 70
     1
102
RTVSPropertyOp13
 70
     1
102
RTVSPropertyOp14
 70
     1
102
RTVSPropertyOp15
 70
     1
102
RTVSPropertyOp16
 70
     1
102
RTVSPropertyOp17
 70
     1
102
RTVSPropertyOp18
 70
     1
102
RTVSPropertyOp19
 70
     1
102
RTVSPropertyOp20
 70
     1
102
RTVSPropertyOp21
 70
     1
102
RTVSPropertyOp22
 70
     1
102
RTVSPropertyOp23
 70
     1
102
RTVSPropertyOp24
 70
     1
102
RTVSPropertyOp25
 70
     1
102
RTVSPropertyOp26
 70
     1
102
RTVSPropertyOp27
 70
     1
102
RTVSPropertyOp28
 70
     1
102
RTVSPropertyOp29
 70
     1
102
RTVSPropertyOp30
 70
     1
102
RTVSPropertyOp31
 70
     1
102
RTVSPropertyOp32
 70
     1
102
RTVSPropertyOp33
 70
     1
102
RTVSPropertyOp34
 70
     1
102
RTVSPropertyOp35
 70
     1
102
RTVSPropertyOp36
 70
     1
102
RTVSPropertyOp37
 70
     1
102
RTVSPropertyOp38
 70
     1
102
RTVSPropertyOp39
 70
     1
102
RTVSPropertyOp40
 70
     1
102
RTVSPropertyOp41
 70
     1
102
RTVSPropertyOp42
 70
     1
102
RTVSPropertyOp43
 70
     1
102
RTVSPropertyOp44
 70
     1
102
RTVSPropertyOp45
 70
     1
102
RTVSPropertyOp46
 70
     1
102
RTVSPropertyOp47
 70
     1
102
RTVSPropertyOp48
 70
     1
102
RTVSPropertyOp49
 70
     1
102
RTVSPropertyOp50
 70
     1
102
RTVSPropertyOp51
 70
     0
102
RTVSPropertyOp52
 70
     0
102
RTVSPropertyOp53
 70
     1
102
RTVSPropertyOp54
 70
     1
102
RTVSPropertyOp55
 70
     1
102
RTVSPropertyOp56
 70
     1
102
RTVSPropertyOp57
 70
     1
102
RTVSPost2010Prop28
280
     0
102
RTVSPost2010PropOp28
 70
     1
102
RTVSPost2010Prop29
280
     1
102
RTVSPost2010PropOp29
 70
     1
102
RTVSPost2010Prop30
280
     1
102
RTVSPost2010PropOp30
 70
     1
102
RTVSPost2010Prop31
280
     0
102
RTVSPost2010PropOp31
 70
     1
102
RTVSPost2010Prop32
280
     0
102
RTVSPost2010PropOp32
 70
     1
102
RTVSPost2010Prop33
280
     0
102
RTVSPost2010PropOp33
 70
     1
102
RTVSPost2010Prop34
280
     0
102
RTVSPost2010PropOp34
 70
     1
102
RTVSPost2010Prop35
280
     0
102
RTVSPost2010PropOp35
 70
     1
102
RTVSPost2010Prop36
280
     0
102
RTVSPost2010PropOp36
 70
     1
102
RTVSPost2010Prop37
 90
       50
102
RTVSPost2010PropOp37
 70
     1
102
RTVSPost2010Prop38
140
0.0
102
RTVSPost2010PropOp38
 70
     1
102
RTVSPost2010Prop39
140
1.0
102
RTVSPost2010PropOp39
 70
     1
102
RTVSPost2010Prop40
 90
        0
102
RTVSPost2010PropOp40
 70
     1
102
RTVSPost2010Prop41ColorIndex
 90
       18
102
RTVSPost2010Prop41ColorRGB
 90
        0
102
RTVSPost2010PropOp41
 70
     1
102
RTVSPost2010Prop42
 90
       50
102
RTVSPost2010PropOp42
 70
     1
102
RTVSPost2010Prop43
 90
        3
102
RTVSPost2010PropOp43
 70
     1
102
RTVSPost2010Prop44ColorIndex
 90
        5
102
RTVSPost2010Prop44ColorRGB
 90
      255
102
RTVSPost2010PropOp44
 70
     1
102
RTVSPost2010Prop45
280
     0
102
RTVSPost2010PropOp45
 70
     1
102
RTVSPost2010Prop46
 90
       50
102
RTVSPost2010PropOp46
 70
     1
102
RTVSPost2010Prop47
 90
       50
102
RTVSPost2010PropOp47
 70
     1
102
RTVSPost2010Prop48
 90
       50
102
RTVSPost2010PropOp48
 70
     1
102
RTVSPost2010Prop49
280
     0
102
RTVSPost2010PropOp49
 70
     1
102
RTVSPost2010Prop50
 90
       50
102
RTVSPost2010PropOp50
 70
     1
102
RTVSPost2010Prop51ColorIndex
 90
      256
102
RTVSPost2010Prop51ColorRGB
 90
-16777216
102
RTVSPost2010PropOp51
 70
     0
102
RTVSPost2010Prop52
140
1.0
102
RTVSPost2010PropOp52
 70
     0
102
RTVSPost2010Prop53
 90
        2
102
RTVSPost2010PropOp53
 70
     1
102
RTVSPost2010Prop54
  1
strokes_ogs.tif
102
RTVSPost2010PropOp54
 70
     1
102
RTVSPost2010Prop55
280
     0
102
RTVSPost2010PropOp55
 70
     1
102
RTVSPost2010Prop56
140
1.0
102
RTVSPost2010PropOp56
 70
     1
102
RTVSPost2010Prop57
140
1.0
102
RTVSPost2010PropOp57
 70
     1
  0
XRECORD
  5
411
102
{ACAD_REACTORS
330
410
102
}
330
410
100
AcDbXrecord
280
     1
102
RTVSPropertyOp0
 70
     0
102
RTVSPropertyOp1
 70
     0
102
RTVSPropertyOp2
 70
     0
102
RTVSPropertyOp3
 70
     0
102
RTVSPropertyOp4
 70
     0
102
RTVSPropertyOp5
 70
     0
102
RTVSPropertyOp6
 70
     0
102
RTVSPropertyOp7
 70
     0
102
RTVSPropertyOp8
 70
     0
102
RTVSPropertyOp9
 70
     0
102
RTVSPropertyOp10
 70
     0
102
RTVSPropertyOp11
 70
     0
102
RTVSPropertyOp12
 70
     0
102
RTVSPropertyOp13
 70
     0
102
RTVSPropertyOp14
 70
     2
102
RTVSPropertyOp15
 70
     0
102
RTVSPropertyOp16
 70
     0
102
RTVSPropertyOp17
 70
     0
102
RTVSPropertyOp18
 70
     0
102
RTVSPropertyOp19
 70
     0
102
RTVSPropertyOp20
 70
     0
102
RTVSPropertyOp21
 70
     0
102
RTVSPropertyOp22
 70
     0
102
RTVSPropertyOp23
 70
     0
102
RTVSPropertyOp24
 70
     0
102
RTVSPropertyOp25
 70
     0
102
RTVSPropertyOp26
 70
     0
102
RTVSPropertyOp27
 70
     0
102
RTVSPropertyOp28
 70
     0
102
RTVSPropertyOp29
 70
     0
102
RTVSPropertyOp30
 70
     0
102
RTVSPropertyOp31
 70
     0
102
RTVSPropertyOp32
 70
     0
102
RTVSPropertyOp33
 70
     0
102
RTVSPropertyOp34
 70
     0
102
RTVSPropertyOp35
 70
     0
102
RTVSPropertyOp36
 70
     0
102
RTVSPropertyOp37
 70
     0
102
RTVSPropertyOp38
 70
     0
102
RTVSPropertyOp39
 70
     0
102
RTVSPropertyOp40
 70
     0
102
RTVSPropertyOp41
 70
     0
102
RTVSPropertyOp42
 70
     0
102
RTVSPropertyOp43
 70
     0
102
RTVSPropertyOp44
 70
     0
102
RTVSPropertyOp45
 70
     0
102
RTVSPropertyOp46
 70
     0
102
RTVSPropertyOp47
 70
     0
102
RTVSPropertyOp48
 70
     0
102
RTVSPropertyOp49
 70
     0
102
RTVSPropertyOp50
 70
     0
102
RTVSPropertyOp51
 70
     0
102
RTVSPropertyOp52
 70
     0
102
RTVSPropertyOp53
 70
     0
102
RTVSPropertyOp54
 70
     0
102
RTVSPropertyOp55
 70
     0
102
RTVSPropertyOp56
 70
     0
102
RTVSPropertyOp57
 70
     0
102
RTVSPost2010Prop28
280
     0
102
RTVSPost2010PropOp28
 70
     0
102
RTVSPost2010Prop29
280
     1
102
RTVSPost2010PropOp29
 70
     0
102
RTVSPost2010Prop30
280
     1
102
RTVSPost2010PropOp30
 70
     0
102
RTVSPost2010Prop31
280
     0
102
RTVSPost2010PropOp31
 70
     0
102
RTVSPost2010Prop32
280
     0
102
RTVSPost2010PropOp32
 70
     0
102
RTVSPost2010Prop33
280
     0
102
RTVSPost2010PropOp33
 70
     0
102
RTVSPost2010Prop34
280
     0
102
RTVSPost2010PropOp34
 70
     0
102
RTVSPost2010Prop35
280
     0
102
RTVSPost2010PropOp35
 70
     0
102
RTVSPost2010Prop36
280
     0
102
RTVSPost2010PropOp36
 70
     0
102
RTVSPost2010Prop37
 90
       50
102
RTVSPost2010PropOp37
 70
     0
102
RTVSPost2010Prop38
140
0.0
102
RTVSPost2010PropOp38
 70
     0
102
RTVSPost2010Prop39
140
1.0
102
RTVSPost2010PropOp39
 70
     0
102
RTVSPost2010Prop40
 90
        0
102
RTVSPost2010PropOp40
 70
     0
102
RTVSPost2010Prop41ColorIndex
 90
       18
102
RTVSPost2010Prop41ColorRGB
 90
        0
102
RTVSPost2010PropOp41
 70
     0
102
RTVSPost2010Prop42
 90
       50
102
RTVSPost2010PropOp42
 70
     0
102
RTVSPost2010Prop43
 90
        3
102
RTVSPost2010PropOp43
 70
     0
102
RTVSPost2010Prop44ColorIndex
 90
        5
102
RTVSPost2010Prop44ColorRGB
 90
      255
102
RTVSPost2010PropOp44
 70
     0
102
RTVSPost2010Prop45
280
     0
102
RTVSPost2010PropOp45
 70
     0
102
RTVSPost2010Prop46
 90
       50
102
RTVSPost2010PropOp46
 70
     0
102
RTVSPost2010Prop47
 90
       50
102
RTVSPost2010PropOp47
 70
     0
102
RTVSPost2010Prop48
 90
       50
102
RTVSPost2010PropOp48
 70
     0
102
RTVSPost2010Prop49
280
     0
102
RTVSPost2010PropOp49
 70
     0
102
RTVSPost2010Prop50
 90
       50
102
RTVSPost2010PropOp50
 70
     0
102
RTVSPost2010Prop51ColorIndex
 90
      256
102
RTVSPost2010Prop51ColorRGB
 90
-16777216
102
RTVSPost2010PropOp51
 70
     0
102
RTVSPost2010Prop52
140
1.0
102
RTVSPost2010PropOp52
 70
     0
102
RTVSPost2010Prop53
 90
        2
102
RTVSPost2010PropOp53
 70
     0
102
RTVSPost2010Prop54
  1
strokes_ogs.tif
102
RTVSPost2010PropOp54
 70
     0
102
RTVSPost2010Prop55
280
     0
102
RTVSPost2010PropOp55
 70
     0
102
RTVSPost2010Prop56
140
1.0
102
RTVSPost2010PropOp56
 70
     0
102
RTVSPost2010Prop57
140
1.0
102
RTVSPost2010PropOp57
 70
     0
  0
XRECORD
  5
409
102
{ACAD_REACTORS
330
408
102
}
330
408
100
AcDbXrecord
280
     1
102
RTVSPropertyOp0
 70
     1
102
RTVSPropertyOp1
 70
     1
102
RTVSPropertyOp2
 70
     1
102
RTVSPropertyOp3
 70
     1
102
RTVSPropertyOp4
 70
     1
102
RTVSPropertyOp5
 70
     1
102
RTVSPropertyOp6
 70
     1
102
RTVSPropertyOp7
 70
     1
102
RTVSPropertyOp8
 70
     1
102
RTVSPropertyOp9
 70
     1
102
RTVSPropertyOp10
 70
     1
102
RTVSPropertyOp11
 70
     1
102
RTVSPropertyOp12
 70
     1
102
RTVSPropertyOp13
 70
     1
102
RTVSPropertyOp14
 70
     1
102
RTVSPropertyOp15
 70
     1
102
RTVSPropertyOp16
 70
     1
102
RTVSPropertyOp17
 70
     1
102
RTVSPropertyOp18
 70
     1
102
RTVSPropertyOp19
 70
     1
102
RTVSPropertyOp20
 70
     1
102
RTVSPropertyOp21
 70
     1
102
RTVSPropertyOp22
 70
     1
102
RTVSPropertyOp23
 70
     1
102
RTVSPropertyOp24
 70
     1
102
RTVSPropertyOp25
 70
     1
102
RTVSPropertyOp26
 70
     1
102
RTVSPropertyOp27
 70
     1
102
RTVSPropertyOp28
 70
     1
102
RTVSPropertyOp29
 70
     1
102
RTVSPropertyOp30
 70
     1
102
RTVSPropertyOp31
 70
     1
102
RTVSPropertyOp32
 70
     1
102
RTVSPropertyOp33
 70
     1
102
RTVSPropertyOp34
 70
     1
102
RTVSPropertyOp35
 70
     1
102
RTVSPropertyOp36
 70
     1
102
RTVSPropertyOp37
 70
     1
102
RTVSPropertyOp38
 70
     1
102
RTVSPropertyOp39
 70
     1
102
RTVSPropertyOp40
 70
     1
102
RTVSPropertyOp41
 70
     1
102
RTVSPropertyOp42
 70
     1
102
RTVSPropertyOp43
 70
     1
102
RTVSPropertyOp44
 70
     1
102
RTVSPropertyOp45
 70
     1
102
RTVSPropertyOp46
 70
     1
102
RTVSPropertyOp47
 70
     1
102
RTVSPropertyOp48
 70
     1
102
RTVSPropertyOp49
 70
     1
102
RTVSPropertyOp50
 70
     1
102
RTVSPropertyOp51
 70
     0
102
RTVSPropertyOp52
 70
     0
102
RTVSPropertyOp53
 70
     1
102
RTVSPropertyOp54
 70
     1
102
RTVSPropertyOp55
 70
     1
102
RTVSPropertyOp56
 70
     1
102
RTVSPropertyOp57
 70
     1
102
RTVSPost2010Prop28
280
     0
102
RTVSPost2010PropOp28
 70
     1
102
RTVSPost2010Prop29
280
     1
102
RTVSPost2010PropOp29
 70
     1
102
RTVSPost2010Prop30
280
     1
102
RTVSPost2010PropOp30
 70
     1
102
RTVSPost2010Prop31
280
     0
102
RTVSPost2010PropOp31
 70
     1
102
RTVSPost2010Prop32
280
     0
102
RTVSPost2010PropOp32
 70
     1
102
RTVSPost2010Prop33
280
     0
102
RTVSPost2010PropOp33
 70
     1
102
RTVSPost2010Prop34
280
     0
102
RTVSPost2010PropOp34
 70
     1
102
RTVSPost2010Prop35
280
     0
102
RTVSPost2010PropOp35
 70
     1
102
RTVSPost2010Prop36
280
     0
102
RTVSPost2010PropOp36
 70
     1
102
RTVSPost2010Prop37
 90
       50
102
RTVSPost2010PropOp37
 70
     1
102
RTVSPost2010Prop38
140
0.0
102
RTVSPost2010PropOp38
 70
     1
102
RTVSPost2010Prop39
140
1.0
102
RTVSPost2010PropOp39
 70
     1
102
RTVSPost2010Prop40
 90
        0
102
RTVSPost2010PropOp40
 70
     1
102
RTVSPost2010Prop41ColorIndex
 90
       18
102
RTVSPost2010Prop41ColorRGB
 90
        0
102
RTVSPost2010PropOp41
 70
     1
102
RTVSPost2010Prop42
 90
       50
102
RTVSPost2010PropOp42
 70
     1
102
RTVSPost2010Prop43
 90
        3
102
RTVSPost2010PropOp43
 70
     1
102
RTVSPost2010Prop44ColorIndex
 90
        5
102
RTVSPost2010Prop44ColorRGB
 90
      255
102
RTVSPost2010PropOp44
 70
     1
102
RTVSPost2010Prop45
280
     0
102
RTVSPost2010PropOp45
 70
     1
102
RTVSPost2010Prop46
 90
       50
102
RTVSPost2010PropOp46
 70
     1
102
RTVSPost2010Prop47
 90
       50
102
RTVSPost2010PropOp47
 70
     1
102
RTVSPost2010Prop48
 90
       50
102
RTVSPost2010PropOp48
 70
     1
102
RTVSPost2010Prop49
280
     0
102
RTVSPost2010PropOp49
 70
     1
102
RTVSPost2010Prop50
 90
       50
102
RTVSPost2010PropOp50
 70
     1
102
RTVSPost2010Prop51ColorIndex
 90
      256
102
RTVSPost2010Prop51ColorRGB
 90
-16777216
102
RTVSPost2010PropOp51
 70
     0
102
RTVSPost2010Prop52
140
1.0
102
RTVSPost2010PropOp52
 70
     0
102
RTVSPost2010Prop53
 90
        2
102
RTVSPost2010PropOp53
 70
     1
102
RTVSPost2010Prop54
  1
strokes_ogs.tif
102
RTVSPost2010PropOp54
 70
     1
102
RTVSPost2010Prop55
280
     0
102
RTVSPost2010PropOp55
 70
     1
102
RTVSPost2010Prop56
140
1.0
102
RTVSPost2010PropOp56
 70
     1
102
RTVSPost2010Prop57
140
1.0
102
RTVSPost2010PropOp57
 70
     1
  0
XRECORD
  5
3ED
102
{ACAD_REACTORS
330
3EC
102
}
330
3EC
100
AcDbXrecord
280
     1
102
RTVSPropertyOp0
 70
     1
102
RTVSPropertyOp1
 70
     1
102
RTVSPropertyOp2
 70
     1
102
RTVSPropertyOp3
 70
     1
102
RTVSPropertyOp4
 70
     1
102
RTVSPropertyOp5
 70
     1
102
RTVSPropertyOp6
 70
     1
102
RTVSPropertyOp7
 70
     1
102
RTVSPropertyOp8
 70
     1
102
RTVSPropertyOp9
 70
     1
102
RTVSPropertyOp10
 70
     1
102
RTVSPropertyOp11
 70
     1
102
RTVSPropertyOp12
 70
     1
102
RTVSPropertyOp13
 70
     1
102
RTVSPropertyOp14
 70
     1
102
RTVSPropertyOp15
 70
     1
102
RTVSPropertyOp16
 70
     1
102
RTVSPropertyOp17
 70
     1
102
RTVSPropertyOp18
 70
     1
102
RTVSPropertyOp19
 70
     1
102
RTVSPropertyOp20
 70
     1
102
RTVSPropertyOp21
 70
     1
102
RTVSPropertyOp22
 70
     1
102
RTVSPropertyOp23
 70
     1
102
RTVSPropertyOp24
 70
     1
102
RTVSPropertyOp25
 70
     1
102
RTVSPropertyOp26
 70
     1
102
RTVSPropertyOp27
 70
     1
102
RTVSPropertyOp28
 70
     1
102
RTVSPropertyOp29
 70
     1
102
RTVSPropertyOp30
 70
     1
102
RTVSPropertyOp31
 70
     1
102
RTVSPropertyOp32
 70
     1
102
RTVSPropertyOp33
 70
     1
102
RTVSPropertyOp34
 70
     1
102
RTVSPropertyOp35
 70
     1
102
RTVSPropertyOp36
 70
     1
102
RTVSPropertyOp37
 70
     1
102
RTVSPropertyOp38
 70
     1
102
RTVSPropertyOp39
 70
     1
102
RTVSPropertyOp40
 70
     1
102
RTVSPropertyOp41
 70
     1
102
RTVSPropertyOp42
 70
     1
102
RTVSPropertyOp43
 70
     1
102
RTVSPropertyOp44
 70
     1
102
RTVSPropertyOp45
 70
     1
102
RTVSPropertyOp46
 70
     1
102
RTVSPropertyOp47
 70
     1
102
RTVSPropertyOp48
 70
     1
102
RTVSPropertyOp49
 70
     1
102
RTVSPropertyOp50
 70
     1
102
RTVSPropertyOp51
 70
     0
102
RTVSPropertyOp52
 70
     0
102
RTVSPropertyOp53
 70
     1
102
RTVSPropertyOp54
 70
     1
102
RTVSPropertyOp55
 70
     1
102
RTVSPropertyOp56
 70
     1
102
RTVSPropertyOp57
 70
     1
102
RTVSPost2010Prop28
280
     0
102
RTVSPost2010PropOp28
 70
     1
102
RTVSPost2010Prop29
280
     1
102
RTVSPost2010PropOp29
 70
     1
102
RTVSPost2010Prop30
280
     1
102
RTVSPost2010PropOp30
 70
     1
102
RTVSPost2010Prop31
280
     0
102
RTVSPost2010PropOp31
 70
     1
102
RTVSPost2010Prop32
280
     0
102
RTVSPost2010PropOp32
 70
     1
102
RTVSPost2010Prop33
280
     0
102
RTVSPost2010PropOp33
 70
     1
102
RTVSPost2010Prop34
280
     0
102
RTVSPost2010PropOp34
 70
     1
102
RTVSPost2010Prop35
280
     0
102
RTVSPost2010PropOp35
 70
     1
102
RTVSPost2010Prop36
280
     0
102
RTVSPost2010PropOp36
 70
     1
102
RTVSPost2010Prop37
 90
       50
102
RTVSPost2010PropOp37
 70
     1
102
RTVSPost2010Prop38
140
0.0
102
RTVSPost2010PropOp38
 70
     1
102
RTVSPost2010Prop39
140
1.0
102
RTVSPost2010PropOp39
 70
     1
102
RTVSPost2010Prop40
 90
        0
102
RTVSPost2010PropOp40
 70
     1
102
RTVSPost2010Prop41ColorIndex
 90
       18
102
RTVSPost2010Prop41ColorRGB
 90
        0
102
RTVSPost2010PropOp41
 70
     1
102
RTVSPost2010Prop42
 90
       50
102
RTVSPost2010PropOp42
 70
     1
102
RTVSPost2010Prop43
 90
        3
102
RTVSPost2010PropOp43
 70
     1
102
RTVSPost2010Prop44ColorIndex
 90
        5
102
RTVSPost2010Prop44ColorRGB
 90
      255
102
RTVSPost2010PropOp44
 70
     1
102
RTVSPost2010Prop45
280
     0
102
RTVSPost2010PropOp45
 70
     1
102
RTVSPost2010Prop46
 90
       50
102
RTVSPost2010PropOp46
 70
     1
102
RTVSPost2010Prop47
 90
       50
102
RTVSPost2010PropOp47
 70
     1
102
RTVSPost2010Prop48
 90
       50
102
RTVSPost2010PropOp48
 70
     1
102
RTVSPost2010Prop49
280
     0
102
RTVSPost2010PropOp49
 70
     1
102
RTVSPost2010Prop50
 90
       50
102
RTVSPost2010PropOp50
 70
     1
102
RTVSPost2010Prop51ColorIndex
 90
      256
102
RTVSPost2010Prop51ColorRGB
 90
-16777216
102
RTVSPost2010PropOp51
 70
     0
102
RTVSPost2010Prop52
140
1.0
102
RTVSPost2010PropOp52
 70
     0
102
RTVSPost2010Prop53
 90
        2
102
RTVSPost2010PropOp53
 70
     1
102
RTVSPost2010Prop54
  1
strokes_ogs.tif
102
RTVSPost2010PropOp54
 70
     1
102
RTVSPost2010Prop55
280
     0
102
RTVSPost2010PropOp55
 70
     1
102
RTVSPost2010Prop56
140
1.0
102
RTVSPost2010PropOp56
 70
     1
102
RTVSPost2010Prop57
140
1.0
102
RTVSPost2010PropOp57
 70
     1
  0
XRECORD
  5
3EF
102
{ACAD_REACTORS
330
3EE
102
}
330
3EE
100
AcDbXrecord
280
     1
102
RTVSPropertyOp0
 70
     1
102
RTVSPropertyOp1
 70
     1
102
RTVSPropertyOp2
 70
     1
102
RTVSPropertyOp3
 70
     1
102
RTVSPropertyOp4
 70
     1
102
RTVSPropertyOp5
 70
     1
102
RTVSPropertyOp6
 70
     1
102
RTVSPropertyOp7
 70
     1
102
RTVSPropertyOp8
 70
     1
102
RTVSPropertyOp9
 70
     1
102
RTVSPropertyOp10
 70
     1
102
RTVSPropertyOp11
 70
     1
102
RTVSPropertyOp12
 70
     1
102
RTVSPropertyOp13
 70
     1
102
RTVSPropertyOp14
 70
     1
102
RTVSPropertyOp15
 70
     1
102
RTVSPropertyOp16
 70
     1
102
RTVSPropertyOp17
 70
     1
102
RTVSPropertyOp18
 70
     1
102
RTVSPropertyOp19
 70
     1
102
RTVSPropertyOp20
 70
     1
102
RTVSPropertyOp21
 70
     1
102
RTVSPropertyOp22
 70
     1
102
RTVSPropertyOp23
 70
     1
102
RTVSPropertyOp24
 70
     1
102
RTVSPropertyOp25
 70
     1
102
RTVSPropertyOp26
 70
     1
102
RTVSPropertyOp27
 70
     1
102
RTVSPropertyOp28
 70
     1
102
RTVSPropertyOp29
 70
     1
102
RTVSPropertyOp30
 70
     1
102
RTVSPropertyOp31
 70
     1
102
RTVSPropertyOp32
 70
     1
102
RTVSPropertyOp33
 70
     1
102
RTVSPropertyOp34
 70
     1
102
RTVSPropertyOp35
 70
     1
102
RTVSPropertyOp36
 70
     1
102
RTVSPropertyOp37
 70
     1
102
RTVSPropertyOp38
 70
     1
102
RTVSPropertyOp39
 70
     1
102
RTVSPropertyOp40
 70
     1
102
RTVSPropertyOp41
 70
     1
102
RTVSPropertyOp42
 70
     1
102
RTVSPropertyOp43
 70
     1
102
RTVSPropertyOp44
 70
     1
102
RTVSPropertyOp45
 70
     1
102
RTVSPropertyOp46
 70
     1
102
RTVSPropertyOp47
 70
     1
102
RTVSPropertyOp48
 70
     1
102
RTVSPropertyOp49
 70
     1
102
RTVSPropertyOp50
 70
     1
102
RTVSPropertyOp51
 70
     0
102
RTVSPropertyOp52
 70
     0
102
RTVSPropertyOp53
 70
     1
102
RTVSPropertyOp54
 70
     1
102
RTVSPropertyOp55
 70
     1
102
RTVSPropertyOp56
 70
     1
102
RTVSPropertyOp57
 70
     1
102
RTVSPost2010Prop28
280
     0
102
RTVSPost2010PropOp28
 70
     1
102
RTVSPost2010Prop29
280
     1
102
RTVSPost2010PropOp29
 70
     1
102
RTVSPost2010Prop30
280
     1
102
RTVSPost2010PropOp30
 70
     1
102
RTVSPost2010Prop31
280
     0
102
RTVSPost2010PropOp31
 70
     1
102
RTVSPost2010Prop32
280
     0
102
RTVSPost2010PropOp32
 70
     1
102
RTVSPost2010Prop33
280
     0
102
RTVSPost2010PropOp33
 70
     1
102
RTVSPost2010Prop34
280
     0
102
RTVSPost2010PropOp34
 70
     1
102
RTVSPost2010Prop35
280
     0
102
RTVSPost2010PropOp35
 70
     1
102
RTVSPost2010Prop36
280
     0
102
RTVSPost2010PropOp36
 70
     1
102
RTVSPost2010Prop37
 90
       50
102
RTVSPost2010PropOp37
 70
     1
102
RTVSPost2010Prop38
140
0.0
102
RTVSPost2010PropOp38
 70
     1
102
RTVSPost2010Prop39
140
1.0
102
RTVSPost2010PropOp39
 70
     1
102
RTVSPost2010Prop40
 90
        0
102
RTVSPost2010PropOp40
 70
     1
102
RTVSPost2010Prop41ColorIndex
 90
       18
102
RTVSPost2010Prop41ColorRGB
 90
        0
102
RTVSPost2010PropOp41
 70
     1
102
RTVSPost2010Prop42
 90
       50
102
RTVSPost2010PropOp42
 70
     1
102
RTVSPost2010Prop43
 90
        3
102
RTVSPost2010PropOp43
 70
     1
102
RTVSPost2010Prop44ColorIndex
 90
        5
102
RTVSPost2010Prop44ColorRGB
 90
      255
102
RTVSPost2010PropOp44
 70
     1
102
RTVSPost2010Prop45
280
     0
102
RTVSPost2010PropOp45
 70
     1
102
RTVSPost2010Prop46
 90
       50
102
RTVSPost2010PropOp46
 70
     1
102
RTVSPost2010Prop47
 90
       50
102
RTVSPost2010PropOp47
 70
     1
102
RTVSPost2010Prop48
 90
       50
102
RTVSPost2010PropOp48
 70
     1
102
RTVSPost2010Prop49
280
     0
102
RTVSPost2010PropOp49
 70
     1
102
RTVSPost2010Prop50
 90
       50
102
RTVSPost2010PropOp50
 70
     1
102
RTVSPost2010Prop51ColorIndex
 90
      256
102
RTVSPost2010Prop51ColorRGB
 90
-16777216
102
RTVSPost2010PropOp51
 70
     0
102
RTVSPost2010Prop52
140
1.0
102
RTVSPost2010PropOp52
 70
     0
102
RTVSPost2010Prop53
 90
        2
102
RTVSPost2010PropOp53
 70
     1
102
RTVSPost2010Prop54
  1
strokes_ogs.tif
102
RTVSPost2010PropOp54
 70
     1
102
RTVSPost2010Prop55
280
     0
102
RTVSPost2010PropOp55
 70
     1
102
RTVSPost2010Prop56
140
1.0
102
RTVSPost2010PropOp56
 70
     1
102
RTVSPost2010Prop57
140
1.0
102
RTVSPost2010PropOp57
 70
     1
  0
XRECORD
  5
3F1
102
{ACAD_REACTORS
330
3F0
102
}
330
3F0
100
AcDbXrecord
280
     1
102
RTVSPropertyOp0
 70
     1
102
RTVSPropertyOp1
 70
     1
102
RTVSPropertyOp2
 70
     1
102
RTVSPropertyOp3
 70
     1
102
RTVSPropertyOp4
 70
     1
102
RTVSPropertyOp5
 70
     1
102
RTVSPropertyOp6
 70
     1
102
RTVSPropertyOp7
 70
     1
102
RTVSPropertyOp8
 70
     1
102
RTVSPropertyOp9
 70
     1
102
RTVSPropertyOp10
 70
     1
102
RTVSPropertyOp11
 70
     1
102
RTVSPropertyOp12
 70
     1
102
RTVSPropertyOp13
 70
     1
102
RTVSPropertyOp14
 70
     1
102
RTVSPropertyOp15
 70
     1
102
RTVSPropertyOp16
 70
     1
102
RTVSPropertyOp17
 70
     1
102
RTVSPropertyOp18
 70
     1
102
RTVSPropertyOp19
 70
     1
102
RTVSPropertyOp20
 70
     1
102
RTVSPropertyOp21
 70
     1
102
RTVSPropertyOp22
 70
     1
102
RTVSPropertyOp23
 70
     1
102
RTVSPropertyOp24
 70
     1
102
RTVSPropertyOp25
 70
     1
102
RTVSPropertyOp26
 70
     1
102
RTVSPropertyOp27
 70
     1
102
RTVSPropertyOp28
 70
     1
102
RTVSPropertyOp29
 70
     1
102
RTVSPropertyOp30
 70
     1
102
RTVSPropertyOp31
 70
     1
102
RTVSPropertyOp32
 70
     1
102
RTVSPropertyOp33
 70
     1
102
RTVSPropertyOp34
 70
     1
102
RTVSPropertyOp35
 70
     1
102
RTVSPropertyOp36
 70
     1
102
RTVSPropertyOp37
 70
     1
102
RTVSPropertyOp38
 70
     1
102
RTVSPropertyOp39
 70
     1
102
RTVSPropertyOp40
 70
     1
102
RTVSPropertyOp41
 70
     1
102
RTVSPropertyOp42
 70
     1
102
RTVSPropertyOp43
 70
     1
102
RTVSPropertyOp44
 70
     1
102
RTVSPropertyOp45
 70
     1
102
RTVSPropertyOp46
 70
     1
102
RTVSPropertyOp47
 70
     1
102
RTVSPropertyOp48
 70
     1
102
RTVSPropertyOp49
 70
     1
102
RTVSPropertyOp50
 70
     1
102
RTVSPropertyOp51
 70
     0
102
RTVSPropertyOp52
 70
     0
102
RTVSPropertyOp53
 70
     1
102
RTVSPropertyOp54
 70
     1
102
RTVSPropertyOp55
 70
     1
102
RTVSPropertyOp56
 70
     1
102
RTVSPropertyOp57
 70
     1
102
RTVSPost2010Prop28
280
     0
102
RTVSPost2010PropOp28
 70
     1
102
RTVSPost2010Prop29
280
     1
102
RTVSPost2010PropOp29
 70
     1
102
RTVSPost2010Prop30
280
     1
102
RTVSPost2010PropOp30
 70
     1
102
RTVSPost2010Prop31
280
     0
102
RTVSPost2010PropOp31
 70
     1
102
RTVSPost2010Prop32
280
     0
102
RTVSPost2010PropOp32
 70
     1
102
RTVSPost2010Prop33
280
     0
102
RTVSPost2010PropOp33
 70
     1
102
RTVSPost2010Prop34
280
     0
102
RTVSPost2010PropOp34
 70
     1
102
RTVSPost2010Prop35
280
     0
102
RTVSPost2010PropOp35
 70
     1
102
RTVSPost2010Prop36
280
     0
102
RTVSPost2010PropOp36
 70
     1
102
RTVSPost2010Prop37
 90
       50
102
RTVSPost2010PropOp37
 70
     1
102
RTVSPost2010Prop38
140
0.0
102
RTVSPost2010PropOp38
 70
     1
102
RTVSPost2010Prop39
140
1.0
102
RTVSPost2010PropOp39
 70
     1
102
RTVSPost2010Prop40
 90
        0
102
RTVSPost2010PropOp40
 70
     1
102
RTVSPost2010Prop41ColorIndex
 90
       18
102
RTVSPost2010Prop41ColorRGB
 90
        0
102
RTVSPost2010PropOp41
 70
     1
102
RTVSPost2010Prop42
 90
       50
102
RTVSPost2010PropOp42
 70
     1
102
RTVSPost2010Prop43
 90
        3
102
RTVSPost2010PropOp43
 70
     1
102
RTVSPost2010Prop44ColorIndex
 90
        5
102
RTVSPost2010Prop44ColorRGB
 90
      255
102
RTVSPost2010PropOp44
 70
     1
102
RTVSPost2010Prop45
280
     0
102
RTVSPost2010PropOp45
 70
     1
102
RTVSPost2010Prop46
 90
       50
102
RTVSPost2010PropOp46
 70
     1
102
RTVSPost2010Prop47
 90
       50
102
RTVSPost2010PropOp47
 70
     1
102
RTVSPost2010Prop48
 90
       50
102
RTVSPost2010PropOp48
 70
     1
102
RTVSPost2010Prop49
280
     0
102
RTVSPost2010PropOp49
 70
     1
102
RTVSPost2010Prop50
 90
       50
102
RTVSPost2010PropOp50
 70
     1
102
RTVSPost2010Prop51ColorIndex
 90
      256
102
RTVSPost2010Prop51ColorRGB
 90
-16777216
102
RTVSPost2010PropOp51
 70
     0
102
RTVSPost2010Prop52
140
1.0
102
RTVSPost2010PropOp52
 70
     0
102
RTVSPost2010Prop53
 90
        2
102
RTVSPost2010PropOp53
 70
     1
102
RTVSPost2010Prop54
  1
strokes_ogs.tif
102
RTVSPost2010PropOp54
 70
     1
102
RTVSPost2010Prop55
280
     0
102
RTVSPost2010PropOp55
 70
     1
102
RTVSPost2010Prop56
140
1.0
102
RTVSPost2010PropOp56
 70
     1
102
RTVSPost2010Prop57
140
1.0
102
RTVSPost2010PropOp57
 70
     1
  0
XRECORD
  5
3F3
102
{ACAD_REACTORS
330
3F2
102
}
330
3F2
100
AcDbXrecord
280
     1
102
RTVSPropertyOp0
 70
     1
102
RTVSPropertyOp1
 70
     1
102
RTVSPropertyOp2
 70
     1
102
RTVSPropertyOp3
 70
     1
102
RTVSPropertyOp4
 70
     1
102
RTVSPropertyOp5
 70
     1
102
RTVSPropertyOp6
 70
     1
102
RTVSPropertyOp7
 70
     1
102
RTVSPropertyOp8
 70
     1
102
RTVSPropertyOp9
 70
     1
102
RTVSPropertyOp10
 70
     1
102
RTVSPropertyOp11
 70
     1
102
RTVSPropertyOp12
 70
     1
102
RTVSPropertyOp13
 70
     1
102
RTVSPropertyOp14
 70
     1
102
RTVSPropertyOp15
 70
     1
102
RTVSPropertyOp16
 70
     1
102
RTVSPropertyOp17
 70
     1
102
RTVSPropertyOp18
 70
     1
102
RTVSPropertyOp19
 70
     1
102
RTVSPropertyOp20
 70
     1
102
RTVSPropertyOp21
 70
     1
102
RTVSPropertyOp22
 70
     1
102
RTVSPropertyOp23
 70
     1
102
RTVSPropertyOp24
 70
     1
102
RTVSPropertyOp25
 70
     1
102
RTVSPropertyOp26
 70
     1
102
RTVSPropertyOp27
 70
     1
102
RTVSPropertyOp28
 70
     1
102
RTVSPropertyOp29
 70
     1
102
RTVSPropertyOp30
 70
     1
102
RTVSPropertyOp31
 70
     1
102
RTVSPropertyOp32
 70
     1
102
RTVSPropertyOp33
 70
     1
102
RTVSPropertyOp34
 70
     1
102
RTVSPropertyOp35
 70
     1
102
RTVSPropertyOp36
 70
     1
102
RTVSPropertyOp37
 70
     1
102
RTVSPropertyOp38
 70
     1
102
RTVSPropertyOp39
 70
     1
102
RTVSPropertyOp40
 70
     1
102
RTVSPropertyOp41
 70
     1
102
RTVSPropertyOp42
 70
     1
102
RTVSPropertyOp43
 70
     1
102
RTVSPropertyOp44
 70
     1
102
RTVSPropertyOp45
 70
     1
102
RTVSPropertyOp46
 70
     1
102
RTVSPropertyOp47
 70
     1
102
RTVSPropertyOp48
 70
     1
102
RTVSPropertyOp49
 70
     1
102
RTVSPropertyOp50
 70
     1
102
RTVSPropertyOp51
 70
     0
102
RTVSPropertyOp52
 70
     0
102
RTVSPropertyOp53
 70
     1
102
RTVSPropertyOp54
 70
     1
102
RTVSPropertyOp55
 70
     1
102
RTVSPropertyOp56
 70
     1
102
RTVSPropertyOp57
 70
     1
102
RTVSPost2010Prop28
280
     0
102
RTVSPost2010PropOp28
 70
     1
102
RTVSPost2010Prop29
280
     1
102
RTVSPost2010PropOp29
 70
     1
102
RTVSPost2010Prop30
280
     1
102
RTVSPost2010PropOp30
 70
     1
102
RTVSPost2010Prop31
280
     0
102
RTVSPost2010PropOp31
 70
     1
102
RTVSPost2010Prop32
280
     0
102
RTVSPost2010PropOp32
 70
     1
102
RTVSPost2010Prop33
280
     0
102
RTVSPost2010PropOp33
 70
     1
102
RTVSPost2010Prop34
280
     0
102
RTVSPost2010PropOp34
 70
     1
102
RTVSPost2010Prop35
280
     0
102
RTVSPost2010PropOp35
 70
     1
102
RTVSPost2010Prop36
280
     0
102
RTVSPost2010PropOp36
 70
     1
102
RTVSPost2010Prop37
 90
       50
102
RTVSPost2010PropOp37
 70
     1
102
RTVSPost2010Prop38
140
0.0
102
RTVSPost2010PropOp38
 70
     1
102
RTVSPost2010Prop39
140
1.0
102
RTVSPost2010PropOp39
 70
     1
102
RTVSPost2010Prop40
 90
        0
102
RTVSPost2010PropOp40
 70
     1
102
RTVSPost2010Prop41ColorIndex
 90
       18
102
RTVSPost2010Prop41ColorRGB
 90
        0
102
RTVSPost2010PropOp41
 70
     1
102
RTVSPost2010Prop42
 90
       50
102
RTVSPost2010PropOp42
 70
     1
102
RTVSPost2010Prop43
 90
        3
102
RTVSPost2010PropOp43
 70
     1
102
RTVSPost2010Prop44ColorIndex
 90
        5
102
RTVSPost2010Prop44ColorRGB
 90
      255
102
RTVSPost2010PropOp44
 70
     1
102
RTVSPost2010Prop45
280
     0
102
RTVSPost2010PropOp45
 70
     1
102
RTVSPost2010Prop46
 90
       50
102
RTVSPost2010PropOp46
 70
     1
102
RTVSPost2010Prop47
 90
       50
102
RTVSPost2010PropOp47
 70
     1
102
RTVSPost2010Prop48
 90
       50
102
RTVSPost2010PropOp48
 70
     1
102
RTVSPost2010Prop49
280
     0
102
RTVSPost2010PropOp49
 70
     1
102
RTVSPost2010Prop50
 90
       50
102
RTVSPost2010PropOp50
 70
     1
102
RTVSPost2010Prop51ColorIndex
 90
      256
102
RTVSPost2010Prop51ColorRGB
 90
-16777216
102
RTVSPost2010PropOp51
 70
     0
102
RTVSPost2010Prop52
140
1.0
102
RTVSPost2010PropOp52
 70
     0
102
RTVSPost2010Prop53
 90
        2
102
RTVSPost2010PropOp53
 70
     1
102
RTVSPost2010Prop54
  1
strokes_ogs.tif
102
RTVSPost2010PropOp54
 70
     1
102
RTVSPost2010Prop55
280
     0
102
RTVSPost2010PropOp55
 70
     1
102
RTVSPost2010Prop56
140
1.0
102
RTVSPost2010PropOp56
 70
     1
102
RTVSPost2010Prop57
140
1.0
102
RTVSPost2010PropOp57
 70
     1
  0
XRECORD
  5
3F9
102
{ACAD_REACTORS
330
3F8
102
}
330
3F8
100
AcDbXrecord
280
     1
102
RTVSPropertyOp0
 70
     1
102
RTVSPropertyOp1
 70
     1
102
RTVSPropertyOp2
 70
     1
102
RTVSPropertyOp3
 70
     1
102
RTVSPropertyOp4
 70
     1
102
RTVSPropertyOp5
 70
     1
102
RTVSPropertyOp6
 70
     1
102
RTVSPropertyOp7
 70
     1
102
RTVSPropertyOp8
 70
     1
102
RTVSPropertyOp9
 70
     1
102
RTVSPropertyOp10
 70
     1
102
RTVSPropertyOp11
 70
     1
102
RTVSPropertyOp12
 70
     1
102
RTVSPropertyOp13
 70
     1
102
RTVSPropertyOp14
 70
     1
102
RTVSPropertyOp15
 70
     1
102
RTVSPropertyOp16
 70
     1
102
RTVSPropertyOp17
 70
     1
102
RTVSPropertyOp18
 70
     1
102
RTVSPropertyOp19
 70
     1
102
RTVSPropertyOp20
 70
     1
102
RTVSPropertyOp21
 70
     1
102
RTVSPropertyOp22
 70
     1
102
RTVSPropertyOp23
 70
     1
102
RTVSPropertyOp24
 70
     1
102
RTVSPropertyOp25
 70
     1
102
RTVSPropertyOp26
 70
     1
102
RTVSPropertyOp27
 70
     1
102
RTVSPropertyOp28
 70
     1
102
RTVSPropertyOp29
 70
     1
102
RTVSPropertyOp30
 70
     1
102
RTVSPropertyOp31
 70
     1
102
RTVSPropertyOp32
 70
     1
102
RTVSPropertyOp33
 70
     1
102
RTVSPropertyOp34
 70
     1
102
RTVSPropertyOp35
 70
     1
102
RTVSPropertyOp36
 70
     1
102
RTVSPropertyOp37
 70
     1
102
RTVSPropertyOp38
 70
     1
102
RTVSPropertyOp39
 70
     1
102
RTVSPropertyOp40
 70
     1
102
RTVSPropertyOp41
 70
     1
102
RTVSPropertyOp42
 70
     1
102
RTVSPropertyOp43
 70
     1
102
RTVSPropertyOp44
 70
     1
102
RTVSPropertyOp45
 70
     1
102
RTVSPropertyOp46
 70
     1
102
RTVSPropertyOp47
 70
     1
102
RTVSPropertyOp48
 70
     1
102
RTVSPropertyOp49
 70
     1
102
RTVSPropertyOp50
 70
     1
102
RTVSPropertyOp51
 70
     0
102
RTVSPropertyOp52
 70
     0
102
RTVSPropertyOp53
 70
     1
102
RTVSPropertyOp54
 70
     1
102
RTVSPropertyOp55
 70
     1
102
RTVSPropertyOp56
 70
     1
102
RTVSPropertyOp57
 70
     1
102
RTVSPost2010Prop28
280
     0
102
RTVSPost2010PropOp28
 70
     1
102
RTVSPost2010Prop29
280
     1
102
RTVSPost2010PropOp29
 70
     1
102
RTVSPost2010Prop30
280
     1
102
RTVSPost2010PropOp30
 70
     1
102
RTVSPost2010Prop31
280
     0
102
RTVSPost2010PropOp31
 70
     1
102
RTVSPost2010Prop32
280
     0
102
RTVSPost2010PropOp32
 70
     1
102
RTVSPost2010Prop33
280
     0
102
RTVSPost2010PropOp33
 70
     1
102
RTVSPost2010Prop34
280
     0
102
RTVSPost2010PropOp34
 70
     1
102
RTVSPost2010Prop35
280
     0
102
RTVSPost2010PropOp35
 70
     1
102
RTVSPost2010Prop36
280
     0
102
RTVSPost2010PropOp36
 70
     1
102
RTVSPost2010Prop37
 90
       50
102
RTVSPost2010PropOp37
 70
     1
102
RTVSPost2010Prop38
140
0.0
102
RTVSPost2010PropOp38
 70
     1
102
RTVSPost2010Prop39
140
1.0
102
RTVSPost2010PropOp39
 70
     1
102
RTVSPost2010Prop40
 90
        0
102
RTVSPost2010PropOp40
 70
     1
102
RTVSPost2010Prop41ColorIndex
 90
       18
102
RTVSPost2010Prop41ColorRGB
 90
        0
102
RTVSPost2010PropOp41
 70
     1
102
RTVSPost2010Prop42
 90
       50
102
RTVSPost2010PropOp42
 70
     1
102
RTVSPost2010Prop43
 90
        3
102
RTVSPost2010PropOp43
 70
     1
102
RTVSPost2010Prop44ColorIndex
 90
        5
102
RTVSPost2010Prop44ColorRGB
 90
      255
102
RTVSPost2010PropOp44
 70
     1
102
RTVSPost2010Prop45
280
     0
102
RTVSPost2010PropOp45
 70
     1
102
RTVSPost2010Prop46
 90
       50
102
RTVSPost2010PropOp46
 70
     1
102
RTVSPost2010Prop47
 90
       50
102
RTVSPost2010PropOp47
 70
     1
102
RTVSPost2010Prop48
 90
       50
102
RTVSPost2010PropOp48
 70
     1
102
RTVSPost2010Prop49
280
     0
102
RTVSPost2010PropOp49
 70
     1
102
RTVSPost2010Prop50
 90
       50
102
RTVSPost2010PropOp50
 70
     1
102
RTVSPost2010Prop51ColorIndex
 90
      256
102
RTVSPost2010Prop51ColorRGB
 90
-16777216
102
RTVSPost2010PropOp51
 70
     0
102
RTVSPost2010Prop52
140
1.0
102
RTVSPost2010PropOp52
 70
     0
102
RTVSPost2010Prop53
 90
        2
102
RTVSPost2010PropOp53
 70
     1
102
RTVSPost2010Prop54
  1
strokes_ogs.tif
102
RTVSPost2010PropOp54
 70
     1
102
RTVSPost2010Prop55
280
     0
102
RTVSPost2010PropOp55
 70
     1
102
RTVSPost2010Prop56
140
1.0
102
RTVSPost2010PropOp56
 70
     1
102
RTVSPost2010Prop57
140
1.0
102
RTVSPost2010PropOp57
 70
     1
  0
XRECORD
  5
40D
102
{ACAD_REACTORS
330
40C
102
}
330
40C
100
AcDbXrecord
280
     1
102
RTVSPropertyOp0
 70
     0
102
RTVSPropertyOp1
 70
     0
102
RTVSPropertyOp2
 70
     0
102
RTVSPropertyOp3
 70
     0
102
RTVSPropertyOp4
 70
     0
102
RTVSPropertyOp5
 70
     0
102
RTVSPropertyOp6
 70
     0
102
RTVSPropertyOp7
 70
     0
102
RTVSPropertyOp8
 70
     0
102
RTVSPropertyOp9
 70
     0
102
RTVSPropertyOp10
 70
     0
102
RTVSPropertyOp11
 70
     0
102
RTVSPropertyOp12
 70
     0
102
RTVSPropertyOp13
 70
     0
102
RTVSPropertyOp14
 70
     2
102
RTVSPropertyOp15
 70
     0
102
RTVSPropertyOp16
 70
     0
102
RTVSPropertyOp17
 70
     0
102
RTVSPropertyOp18
 70
     0
102
RTVSPropertyOp19
 70
     0
102
RTVSPropertyOp20
 70
     0
102
RTVSPropertyOp21
 70
     0
102
RTVSPropertyOp22
 70
     0
102
RTVSPropertyOp23
 70
     0
102
RTVSPropertyOp24
 70
     0
102
RTVSPropertyOp25
 70
     0
102
RTVSPropertyOp26
 70
     0
102
RTVSPropertyOp27
 70
     0
102
RTVSPropertyOp28
 70
     0
102
RTVSPropertyOp29
 70
     0
102
RTVSPropertyOp30
 70
     0
102
RTVSPropertyOp31
 70
     0
102
RTVSPropertyOp32
 70
     0
102
RTVSPropertyOp33
 70
     0
102
RTVSPropertyOp34
 70
     0
102
RTVSPropertyOp35
 70
     0
102
RTVSPropertyOp36
 70
     0
102
RTVSPropertyOp37
 70
     0
102
RTVSPropertyOp38
 70
     0
102
RTVSPropertyOp39
 70
     0
102
RTVSPropertyOp40
 70
     0
102
RTVSPropertyOp41
 70
     0
102
RTVSPropertyOp42
 70
     0
102
RTVSPropertyOp43
 70
     0
102
RTVSPropertyOp44
 70
     0
102
RTVSPropertyOp45
 70
     0
102
RTVSPropertyOp46
 70
     0
102
RTVSPropertyOp47
 70
     0
102
RTVSPropertyOp48
 70
     0
102
RTVSPropertyOp49
 70
     0
102
RTVSPropertyOp50
 70
     0
102
RTVSPropertyOp51
 70
     0
102
RTVSPropertyOp52
 70
     0
102
RTVSPropertyOp53
 70
     0
102
RTVSPropertyOp54
 70
     0
102
RTVSPropertyOp55
 70
     0
102
RTVSPropertyOp56
 70
     0
102
RTVSPropertyOp57
 70
     0
102
RTVSPost2010Prop28
280
     0
102
RTVSPost2010PropOp28
 70
     0
102
RTVSPost2010Prop29
280
     1
102
RTVSPost2010PropOp29
 70
     0
102
RTVSPost2010Prop30
280
     1
102
RTVSPost2010PropOp30
 70
     0
102
RTVSPost2010Prop31
280
     0
102
RTVSPost2010PropOp31
 70
     0
102
RTVSPost2010Prop32
280
     0
102
RTVSPost2010PropOp32
 70
     0
102
RTVSPost2010Prop33
280
     0
102
RTVSPost2010PropOp33
 70
     0
102
RTVSPost2010Prop34
280
     0
102
RTVSPost2010PropOp34
 70
     0
102
RTVSPost2010Prop35
280
     0
102
RTVSPost2010PropOp35
 70
     0
102
RTVSPost2010Prop36
280
     0
102
RTVSPost2010PropOp36
 70
     0
102
RTVSPost2010Prop37
 90
       50
102
RTVSPost2010PropOp37
 70
     0
102
RTVSPost2010Prop38
140
0.0
102
RTVSPost2010PropOp38
 70
     0
102
RTVSPost2010Prop39
140
1.0
102
RTVSPost2010PropOp39
 70
     0
102
RTVSPost2010Prop40
 90
        0
102
RTVSPost2010PropOp40
 70
     0
102
RTVSPost2010Prop41ColorIndex
 90
       18
102
RTVSPost2010Prop41ColorRGB
 90
        0
102
RTVSPost2010PropOp41
 70
     0
102
RTVSPost2010Prop42
 90
       50
102
RTVSPost2010PropOp42
 70
     0
102
RTVSPost2010Prop43
 90
        3
102
RTVSPost2010PropOp43
 70
     0
102
RTVSPost2010Prop44ColorIndex
 90
        5
102
RTVSPost2010Prop44ColorRGB
 90
      255
102
RTVSPost2010PropOp44
 70
     0
102
RTVSPost2010Prop45
280
     0
102
RTVSPost2010PropOp45
 70
     0
102
RTVSPost2010Prop46
 90
       50
102
RTVSPost2010PropOp46
 70
     0
102
RTVSPost2010Prop47
 90
       50
102
RTVSPost2010PropOp47
 70
     0
102
RTVSPost2010Prop48
 90
       50
102
RTVSPost2010PropOp48
 70
     0
102
RTVSPost2010Prop49
280
     0
102
RTVSPost2010PropOp49
 70
     0
102
RTVSPost2010Prop50
 90
       50
102
RTVSPost2010PropOp50
 70
     0
102
RTVSPost2010Prop51ColorIndex
 90
      256
102
RTVSPost2010Prop51ColorRGB
 90
-16777216
102
RTVSPost2010PropOp51
 70
     0
102
RTVSPost2010Prop52
140
1.0
102
RTVSPost2010PropOp52
 70
     0
102
RTVSPost2010Prop53
 90
        2
102
RTVSPost2010PropOp53
 70
     0
102
RTVSPost2010Prop54
  1
strokes_ogs.tif
102
RTVSPost2010PropOp54
 70
     0
102
RTVSPost2010Prop55
280
     0
102
RTVSPost2010PropOp55
 70
     0
102
RTVSPost2010Prop56
140
1.0
102
RTVSPost2010PropOp56
 70
     0
102
RTVSPost2010Prop57
140
1.0
102
RTVSPost2010PropOp57
 70
     0
  0
XRECORD
  5
407
102
{ACAD_REACTORS
330
406
102
}
330
406
100
AcDbXrecord
280
     1
102
RTVSPropertyOp0
 70
     1
102
RTVSPropertyOp1
 70
     1
102
RTVSPropertyOp2
 70
     1
102
RTVSPropertyOp3
 70
     1
102
RTVSPropertyOp4
 70
     1
102
RTVSPropertyOp5
 70
     1
102
RTVSPropertyOp6
 70
     1
102
RTVSPropertyOp7
 70
     1
102
RTVSPropertyOp8
 70
     1
102
RTVSPropertyOp9
 70
     1
102
RTVSPropertyOp10
 70
     1
102
RTVSPropertyOp11
 70
     1
102
RTVSPropertyOp12
 70
     1
102
RTVSPropertyOp13
 70
     1
102
RTVSPropertyOp14
 70
     1
102
RTVSPropertyOp15
 70
     1
102
RTVSPropertyOp16
 70
     1
102
RTVSPropertyOp17
 70
     1
102
RTVSPropertyOp18
 70
     1
102
RTVSPropertyOp19
 70
     1
102
RTVSPropertyOp20
 70
     1
102
RTVSPropertyOp21
 70
     1
102
RTVSPropertyOp22
 70
     1
102
RTVSPropertyOp23
 70
     1
102
RTVSPropertyOp24
 70
     1
102
RTVSPropertyOp25
 70
     1
102
RTVSPropertyOp26
 70
     1
102
RTVSPropertyOp27
 70
     1
102
RTVSPropertyOp28
 70
     1
102
RTVSPropertyOp29
 70
     1
102
RTVSPropertyOp30
 70
     1
102
RTVSPropertyOp31
 70
     1
102
RTVSPropertyOp32
 70
     1
102
RTVSPropertyOp33
 70
     1
102
RTVSPropertyOp34
 70
     1
102
RTVSPropertyOp35
 70
     1
102
RTVSPropertyOp36
 70
     1
102
RTVSPropertyOp37
 70
     1
102
RTVSPropertyOp38
 70
     1
102
RTVSPropertyOp39
 70
     1
102
RTVSPropertyOp40
 70
     1
102
RTVSPropertyOp41
 70
     1
102
RTVSPropertyOp42
 70
     1
102
RTVSPropertyOp43
 70
     1
102
RTVSPropertyOp44
 70
     1
102
RTVSPropertyOp45
 70
     1
102
RTVSPropertyOp46
 70
     1
102
RTVSPropertyOp47
 70
     1
102
RTVSPropertyOp48
 70
     1
102
RTVSPropertyOp49
 70
     1
102
RTVSPropertyOp50
 70
     1
102
RTVSPropertyOp51
 70
     0
102
RTVSPropertyOp52
 70
     0
102
RTVSPropertyOp53
 70
     1
102
RTVSPropertyOp54
 70
     1
102
RTVSPropertyOp55
 70
     1
102
RTVSPropertyOp56
 70
     1
102
RTVSPropertyOp57
 70
     1
102
RTVSPost2010Prop28
280
     0
102
RTVSPost2010PropOp28
 70
     1
102
RTVSPost2010Prop29
280
     1
102
RTVSPost2010PropOp29
 70
     1
102
RTVSPost2010Prop30
280
     1
102
RTVSPost2010PropOp30
 70
     1
102
RTVSPost2010Prop31
280
     0
102
RTVSPost2010PropOp31
 70
     1
102
RTVSPost2010Prop32
280
     0
102
RTVSPost2010PropOp32
 70
     1
102
RTVSPost2010Prop33
280
     0
102
RTVSPost2010PropOp33
 70
     1
102
RTVSPost2010Prop34
280
     0
102
RTVSPost2010PropOp34
 70
     1
102
RTVSPost2010Prop35
280
     0
102
RTVSPost2010PropOp35
 70
     1
102
RTVSPost2010Prop36
280
     0
102
RTVSPost2010PropOp36
 70
     1
102
RTVSPost2010Prop37
 90
       50
102
RTVSPost2010PropOp37
 70
     1
102
RTVSPost2010Prop38
140
0.0
102
RTVSPost2010PropOp38
 70
     1
102
RTVSPost2010Prop39
140
1.0
102
RTVSPost2010PropOp39
 70
     1
102
RTVSPost2010Prop40
 90
        0
102
RTVSPost2010PropOp40
 70
     1
102
RTVSPost2010Prop41ColorIndex
 90
       18
102
RTVSPost2010Prop41ColorRGB
 90
        0
102
RTVSPost2010PropOp41
 70
     1
102
RTVSPost2010Prop42
 90
       50
102
RTVSPost2010PropOp42
 70
     1
102
RTVSPost2010Prop43
 90
        3
102
RTVSPost2010PropOp43
 70
     1
102
RTVSPost2010Prop44ColorIndex
 90
        5
102
RTVSPost2010Prop44ColorRGB
 90
      255
102
RTVSPost2010PropOp44
 70
     1
102
RTVSPost2010Prop45
280
     0
102
RTVSPost2010PropOp45
 70
     1
102
RTVSPost2010Prop46
 90
       50
102
RTVSPost2010PropOp46
 70
     1
102
RTVSPost2010Prop47
 90
       50
102
RTVSPost2010PropOp47
 70
     1
102
RTVSPost2010Prop48
 90
       50
102
RTVSPost2010PropOp48
 70
     1
102
RTVSPost2010Prop49
280
     0
102
RTVSPost2010PropOp49
 70
     1
102
RTVSPost2010Prop50
 90
       50
102
RTVSPost2010PropOp50
 70
     1
102
RTVSPost2010Prop51ColorIndex
 90
      256
102
RTVSPost2010Prop51ColorRGB
 90
-16777216
102
RTVSPost2010PropOp51
 70
     0
102
RTVSPost2010Prop52
140
1.0
102
RTVSPost2010PropOp52
 70
     0
102
RTVSPost2010Prop53
 90
        2
102
RTVSPost2010PropOp53
 70
     1
102
RTVSPost2010Prop54
  1
strokes_ogs.tif
102
RTVSPost2010PropOp54
 70
     1
102
RTVSPost2010Prop55
280
     0
102
RTVSPost2010PropOp55
 70
     1
102
RTVSPost2010Prop56
140
1.0
102
RTVSPost2010PropOp56
 70
     1
102
RTVSPost2010Prop57
140
1.0
102
RTVSPost2010PropOp57
 70
     1
  0
XRECORD
  5
40F
102
{ACAD_REACTORS
330
40E
102
}
330
40E
100
AcDbXrecord
280
     1
102
RTVSPropertyOp0
 70
     0
102
RTVSPropertyOp1
 70
     0
102
RTVSPropertyOp2
 70
     0
102
RTVSPropertyOp3
 70
     0
102
RTVSPropertyOp4
 70
     0
102
RTVSPropertyOp5
 70
     0
102
RTVSPropertyOp6
 70
     0
102
RTVSPropertyOp7
 70
     0
102
RTVSPropertyOp8
 70
     0
102
RTVSPropertyOp9
 70
     0
102
RTVSPropertyOp10
 70
     0
102
RTVSPropertyOp11
 70
     0
102
RTVSPropertyOp12
 70
     0
102
RTVSPropertyOp13
 70
     0
102
RTVSPropertyOp14
 70
     2
102
RTVSPropertyOp15
 70
     0
102
RTVSPropertyOp16
 70
     0
102
RTVSPropertyOp17
 70
     0
102
RTVSPropertyOp18
 70
     0
102
RTVSPropertyOp19
 70
     0
102
RTVSPropertyOp20
 70
     0
102
RTVSPropertyOp21
 70
     0
102
RTVSPropertyOp22
 70
     0
102
RTVSPropertyOp23
 70
     0
102
RTVSPropertyOp24
 70
     0
102
RTVSPropertyOp25
 70
     0
102
RTVSPropertyOp26
 70
     0
102
RTVSPropertyOp27
 70
     0
102
RTVSPropertyOp28
 70
     0
102
RTVSPropertyOp29
 70
     0
102
RTVSPropertyOp30
 70
     0
102
RTVSPropertyOp31
 70
     0
102
RTVSPropertyOp32
 70
     0
102
RTVSPropertyOp33
 70
     0
102
RTVSPropertyOp34
 70
     0
102
RTVSPropertyOp35
 70
     0
102
RTVSPropertyOp36
 70
     0
102
RTVSPropertyOp37
 70
     0
102
RTVSPropertyOp38
 70
     0
102
RTVSPropertyOp39
 70
     0
102
RTVSPropertyOp40
 70
     0
102
RTVSPropertyOp41
 70
     0
102
RTVSPropertyOp42
 70
     0
102
RTVSPropertyOp43
 70
     0
102
RTVSPropertyOp44
 70
     0
102
RTVSPropertyOp45
 70
     0
102
RTVSPropertyOp46
 70
     0
102
RTVSPropertyOp47
 70
     0
102
RTVSPropertyOp48
 70
     0
102
RTVSPropertyOp49
 70
     0
102
RTVSPropertyOp50
 70
     0
102
RTVSPropertyOp51
 70
     0
102
RTVSPropertyOp52
 70
     0
102
RTVSPropertyOp53
 70
     0
102
RTVSPropertyOp54
 70
     0
102
RTVSPropertyOp55
 70
     0
102
RTVSPropertyOp56
 70
     0
102
RTVSPropertyOp57
 70
     0
102
RTVSPost2010Prop28
280
     0
102
RTVSPost2010PropOp28
 70
     0
102
RTVSPost2010Prop29
280
     1
102
RTVSPost2010PropOp29
 70
     0
102
RTVSPost2010Prop30
280
     1
102
RTVSPost2010PropOp30
 70
     0
102
RTVSPost2010Prop31
280
     0
102
RTVSPost2010PropOp31
 70
     0
102
RTVSPost2010Prop32
280
     0
102
RTVSPost2010PropOp32
 70
     0
102
RTVSPost2010Prop33
280
     0
102
RTVSPost2010PropOp33
 70
     0
102
RTVSPost2010Prop34
280
     0
102
RTVSPost2010PropOp34
 70
     0
102
RTVSPost2010Prop35
280
     0
102
RTVSPost2010PropOp35
 70
     0
102
RTVSPost2010Prop36
280
     0
102
RTVSPost2010PropOp36
 70
     0
102
RTVSPost2010Prop37
 90
       50
102
RTVSPost2010PropOp37
 70
     0
102
RTVSPost2010Prop38
140
0.0
102
RTVSPost2010PropOp38
 70
     0
102
RTVSPost2010Prop39
140
1.0
102
RTVSPost2010PropOp39
 70
     0
102
RTVSPost2010Prop40
 90
        0
102
RTVSPost2010PropOp40
 70
     0
102
RTVSPost2010Prop41ColorIndex
 90
       18
102
RTVSPost2010Prop41ColorRGB
 90
        0
102
RTVSPost2010PropOp41
 70
     0
102
RTVSPost2010Prop42
 90
       50
102
RTVSPost2010PropOp42
 70
     0
102
RTVSPost2010Prop43
 90
        3
102
RTVSPost2010PropOp43
 70
     0
102
RTVSPost2010Prop44ColorIndex
 90
        5
102
RTVSPost2010Prop44ColorRGB
 90
      255
102
RTVSPost2010PropOp44
 70
     0
102
RTVSPost2010Prop45
280
     0
102
RTVSPost2010PropOp45
 70
     0
102
RTVSPost2010Prop46
 90
       50
102
RTVSPost2010PropOp46
 70
     0
102
RTVSPost2010Prop47
 90
       50
102
RTVSPost2010PropOp47
 70
     0
102
RTVSPost2010Prop48
 90
       50
102
RTVSPost2010PropOp48
 70
     0
102
RTVSPost2010Prop49
280
     0
102
RTVSPost2010PropOp49
 70
     0
102
RTVSPost2010Prop50
 90
       50
102
RTVSPost2010PropOp50
 70
     0
102
RTVSPost2010Prop51ColorIndex
 90
      256
102
RTVSPost2010Prop51ColorRGB
 90
-16777216
102
RTVSPost2010PropOp51
 70
     0
102
RTVSPost2010Prop52
140
1.0
102
RTVSPost2010PropOp52
 70
     0
102
RTVSPost2010Prop53
 90
        2
102
RTVSPost2010PropOp53
 70
     0
102
RTVSPost2010Prop54
  1
strokes_ogs.tif
102
RTVSPost2010PropOp54
 70
     0
102
RTVSPost2010Prop55
280
     0
102
RTVSPost2010PropOp55
 70
     0
102
RTVSPost2010Prop56
140
1.0
102
RTVSPost2010PropOp56
 70
     0
102
RTVSPost2010Prop57
140
1.0
102
RTVSPost2010PropOp57
 70
     0
  0
XRECORD
  5
3FD
102
{ACAD_REACTORS
330
3FC
102
}
330
3FC
100
AcDbXrecord
280
     1
102
RTVSPropertyOp0
 70
     1
102
RTVSPropertyOp1
 70
     1
102
RTVSPropertyOp2
 70
     1
102
RTVSPropertyOp3
 70
     1
102
RTVSPropertyOp4
 70
     1
102
RTVSPropertyOp5
 70
     1
102
RTVSPropertyOp6
 70
     1
102
RTVSPropertyOp7
 70
     1
102
RTVSPropertyOp8
 70
     1
102
RTVSPropertyOp9
 70
     1
102
RTVSPropertyOp10
 70
     1
102
RTVSPropertyOp11
 70
     1
102
RTVSPropertyOp12
 70
     1
102
RTVSPropertyOp13
 70
     1
102
RTVSPropertyOp14
 70
     1
102
RTVSPropertyOp15
 70
     1
102
RTVSPropertyOp16
 70
     1
102
RTVSPropertyOp17
 70
     1
102
RTVSPropertyOp18
 70
     1
102
RTVSPropertyOp19
 70
     1
102
RTVSPropertyOp20
 70
     1
102
RTVSPropertyOp21
 70
     1
102
RTVSPropertyOp22
 70
     1
102
RTVSPropertyOp23
 70
     1
102
RTVSPropertyOp24
 70
     1
102
RTVSPropertyOp25
 70
     1
102
RTVSPropertyOp26
 70
     1
102
RTVSPropertyOp27
 70
     1
102
RTVSPropertyOp28
 70
     1
102
RTVSPropertyOp29
 70
     1
102
RTVSPropertyOp30
 70
     1
102
RTVSPropertyOp31
 70
     1
102
RTVSPropertyOp32
 70
     1
102
RTVSPropertyOp33
 70
     1
102
RTVSPropertyOp34
 70
     1
102
RTVSPropertyOp35
 70
     1
102
RTVSPropertyOp36
 70
     1
102
RTVSPropertyOp37
 70
     1
102
RTVSPropertyOp38
 70
     1
102
RTVSPropertyOp39
 70
     1
102
RTVSPropertyOp40
 70
     1
102
RTVSPropertyOp41
 70
     1
102
RTVSPropertyOp42
 70
     1
102
RTVSPropertyOp43
 70
     1
102
RTVSPropertyOp44
 70
     1
102
RTVSPropertyOp45
 70
     1
102
RTVSPropertyOp46
 70
     1
102
RTVSPropertyOp47
 70
     1
102
RTVSPropertyOp48
 70
     1
102
RTVSPropertyOp49
 70
     1
102
RTVSPropertyOp50
 70
     1
102
RTVSPropertyOp51
 70
     0
102
RTVSPropertyOp52
 70
     0
102
RTVSPropertyOp53
 70
     1
102
RTVSPropertyOp54
 70
     1
102
RTVSPropertyOp55
 70
     1
102
RTVSPropertyOp56
 70
     1
102
RTVSPropertyOp57
 70
     1
102
RTVSPost2010Prop28
280
     0
102
RTVSPost2010PropOp28
 70
     1
102
RTVSPost2010Prop29
280
     1
102
RTVSPost2010PropOp29
 70
     1
102
RTVSPost2010Prop30
280
     1
102
RTVSPost2010PropOp30
 70
     1
102
RTVSPost2010Prop31
280
     0
102
RTVSPost2010PropOp31
 70
     1
102
RTVSPost2010Prop32
280
     0
102
RTVSPost2010PropOp32
 70
     1
102
RTVSPost2010Prop33
280
     0
102
RTVSPost2010PropOp33
 70
     1
102
RTVSPost2010Prop34
280
     0
102
RTVSPost2010PropOp34
 70
     1
102
RTVSPost2010Prop35
280
     0
102
RTVSPost2010PropOp35
 70
     1
102
RTVSPost2010Prop36
280
     0
102
RTVSPost2010PropOp36
 70
     1
102
RTVSPost2010Prop37
 90
       50
102
RTVSPost2010PropOp37
 70
     1
102
RTVSPost2010Prop38
140
0.0
102
RTVSPost2010PropOp38
 70
     1
102
RTVSPost2010Prop39
140
1.0
102
RTVSPost2010PropOp39
 70
     1
102
RTVSPost2010Prop40
 90
        0
102
RTVSPost2010PropOp40
 70
     1
102
RTVSPost2010Prop41ColorIndex
 90
       18
102
RTVSPost2010Prop41ColorRGB
 90
        0
102
RTVSPost2010PropOp41
 70
     1
102
RTVSPost2010Prop42
 90
       50
102
RTVSPost2010PropOp42
 70
     1
102
RTVSPost2010Prop43
 90
        3
102
RTVSPost2010PropOp43
 70
     1
102
RTVSPost2010Prop44ColorIndex
 90
        5
102
RTVSPost2010Prop44ColorRGB
 90
      255
102
RTVSPost2010PropOp44
 70
     1
102
RTVSPost2010Prop45
280
     0
102
RTVSPost2010PropOp45
 70
     1
102
RTVSPost2010Prop46
 90
       50
102
RTVSPost2010PropOp46
 70
     1
102
RTVSPost2010Prop47
 90
       50
102
RTVSPost2010PropOp47
 70
     1
102
RTVSPost2010Prop48
 90
       50
102
RTVSPost2010PropOp48
 70
     1
102
RTVSPost2010Prop49
280
     0
102
RTVSPost2010PropOp49
 70
     1
102
RTVSPost2010Prop50
 90
       50
102
RTVSPost2010PropOp50
 70
     1
102
RTVSPost2010Prop51ColorIndex
 90
      256
102
RTVSPost2010Prop51ColorRGB
 90
-16777216
102
RTVSPost2010PropOp51
 70
     0
102
RTVSPost2010Prop52
140
1.0
102
RTVSPost2010PropOp52
 70
     0
102
RTVSPost2010Prop53
 90
        2
102
RTVSPost2010PropOp53
 70
     1
102
RTVSPost2010Prop54
  1
strokes_ogs.tif
102
RTVSPost2010PropOp54
 70
     1
102
RTVSPost2010Prop55
280
     0
102
RTVSPost2010PropOp55
 70
     1
102
RTVSPost2010Prop56
140
1.0
102
RTVSPost2010PropOp56
 70
     1
102
RTVSPost2010Prop57
140
1.0
102
RTVSPost2010PropOp57
 70
     1
  0
XRECORD
  5
41B
102
{ACAD_REACTORS
330
41A
102
}
330
41A
100
AcDbXrecord
280
     1
102
RTVSPropertyOp0
 70
     1
102
RTVSPropertyOp1
 70
     1
102
RTVSPropertyOp2
 70
     1
102
RTVSPropertyOp3
 70
     1
102
RTVSPropertyOp4
 70
     1
102
RTVSPropertyOp5
 70
     1
102
RTVSPropertyOp6
 70
     1
102
RTVSPropertyOp7
 70
     1
102
RTVSPropertyOp8
 70
     1
102
RTVSPropertyOp9
 70
     1
102
RTVSPropertyOp10
 70
     1
102
RTVSPropertyOp11
 70
     1
102
RTVSPropertyOp12
 70
     1
102
RTVSPropertyOp13
 70
     1
102
RTVSPropertyOp14
 70
     1
102
RTVSPropertyOp15
 70
     1
102
RTVSPropertyOp16
 70
     1
102
RTVSPropertyOp17
 70
     1
102
RTVSPropertyOp18
 70
     1
102
RTVSPropertyOp19
 70
     1
102
RTVSPropertyOp20
 70
     1
102
RTVSPropertyOp21
 70
     1
102
RTVSPropertyOp22
 70
     1
102
RTVSPropertyOp23
 70
     1
102
RTVSPropertyOp24
 70
     1
102
RTVSPropertyOp25
 70
     1
102
RTVSPropertyOp26
 70
     1
102
RTVSPropertyOp27
 70
     1
102
RTVSPropertyOp28
 70
     1
102
RTVSPropertyOp29
 70
     1
102
RTVSPropertyOp30
 70
     1
102
RTVSPropertyOp31
 70
     1
102
RTVSPropertyOp32
 70
     1
102
RTVSPropertyOp33
 70
     1
102
RTVSPropertyOp34
 70
     1
102
RTVSPropertyOp35
 70
     1
102
RTVSPropertyOp36
 70
     1
102
RTVSPropertyOp37
 70
     1
102
RTVSPropertyOp38
 70
     1
102
RTVSPropertyOp39
 70
     1
102
RTVSPropertyOp40
 70
     1
102
RTVSPropertyOp41
 70
     1
102
RTVSPropertyOp42
 70
     1
102
RTVSPropertyOp43
 70
     1
102
RTVSPropertyOp44
 70
     1
102
RTVSPropertyOp45
 70
     1
102
RTVSPropertyOp46
 70
     1
102
RTVSPropertyOp47
 70
     1
102
RTVSPropertyOp48
 70
     1
102
RTVSPropertyOp49
 70
     1
102
RTVSPropertyOp50
 70
     1
102
RTVSPropertyOp51
 70
     0
102
RTVSPropertyOp52
 70
     0
102
RTVSPropertyOp53
 70
     1
102
RTVSPropertyOp54
 70
     1
102
RTVSPropertyOp55
 70
     1
102
RTVSPropertyOp56
 70
     1
102
RTVSPropertyOp57
 70
     1
102
RTVSPost2010Prop28
280
     0
102
RTVSPost2010PropOp28
 70
     1
102
RTVSPost2010Prop29
280
     1
102
RTVSPost2010PropOp29
 70
     1
102
RTVSPost2010Prop30
280
     1
102
RTVSPost2010PropOp30
 70
     1
102
RTVSPost2010Prop31
280
     0
102
RTVSPost2010PropOp31
 70
     1
102
RTVSPost2010Prop32
280
     0
102
RTVSPost2010PropOp32
 70
     1
102
RTVSPost2010Prop33
280
     0
102
RTVSPost2010PropOp33
 70
     1
102
RTVSPost2010Prop34
280
     0
102
RTVSPost2010PropOp34
 70
     1
102
RTVSPost2010Prop35
280
     0
102
RTVSPost2010PropOp35
 70
     1
102
RTVSPost2010Prop36
280
     0
102
RTVSPost2010PropOp36
 70
     1
102
RTVSPost2010Prop37
 90
       50
102
RTVSPost2010PropOp37
 70
     1
102
RTVSPost2010Prop38
140
0.0
102
RTVSPost2010PropOp38
 70
     1
102
RTVSPost2010Prop39
140
1.0
102
RTVSPost2010PropOp39
 70
     1
102
RTVSPost2010Prop40
 90
        0
102
RTVSPost2010PropOp40
 70
     1
102
RTVSPost2010Prop41ColorIndex
 90
       18
102
RTVSPost2010Prop41ColorRGB
 90
        0
102
RTVSPost2010PropOp41
 70
     1
102
RTVSPost2010Prop42
 90
       50
102
RTVSPost2010PropOp42
 70
     1
102
RTVSPost2010Prop43
 90
        3
102
RTVSPost2010PropOp43
 70
     1
102
RTVSPost2010Prop44ColorIndex
 90
        5
102
RTVSPost2010Prop44ColorRGB
 90
      255
102
RTVSPost2010PropOp44
 70
     1
102
RTVSPost2010Prop45
280
     0
102
RTVSPost2010PropOp45
 70
     1
102
RTVSPost2010Prop46
 90
       50
102
RTVSPost2010PropOp46
 70
     1
102
RTVSPost2010Prop47
 90
       50
102
RTVSPost2010PropOp47
 70
     1
102
RTVSPost2010Prop48
 90
       50
102
RTVSPost2010PropOp48
 70
     1
102
RTVSPost2010Prop49
280
     0
102
RTVSPost2010PropOp49
 70
     1
102
RTVSPost2010Prop50
 90
       50
102
RTVSPost2010PropOp50
 70
     1
102
RTVSPost2010Prop51ColorIndex
 90
      256
102
RTVSPost2010Prop51ColorRGB
 90
-16777216
102
RTVSPost2010PropOp51
 70
     0
102
RTVSPost2010Prop52
140
1.0
102
RTVSPost2010PropOp52
 70
     0
102
RTVSPost2010Prop53
 90
        2
102
RTVSPost2010PropOp53
 70
     1
102
RTVSPost2010Prop54
  1
strokes_ogs.tif
102
RTVSPost2010PropOp54
 70
     1
102
RTVSPost2010Prop55
280
     0
102
RTVSPost2010PropOp55
 70
     1
102
RTVSPost2010Prop56
140
1.0
102
RTVSPost2010PropOp56
 70
     1
102
RTVSPost2010Prop57
140
1.0
102
RTVSPost2010PropOp57
 70
     1
  0
XRECORD
  5
419
102
{ACAD_REACTORS
330
418
102
}
330
418
100
AcDbXrecord
280
     1
102
RTVSPropertyOp0
 70
     1
102
RTVSPropertyOp1
 70
     1
102
RTVSPropertyOp2
 70
     1
102
RTVSPropertyOp3
 70
     1
102
RTVSPropertyOp4
 70
     1
102
RTVSPropertyOp5
 70
     1
102
RTVSPropertyOp6
 70
     1
102
RTVSPropertyOp7
 70
     1
102
RTVSPropertyOp8
 70
     1
102
RTVSPropertyOp9
 70
     1
102
RTVSPropertyOp10
 70
     1
102
RTVSPropertyOp11
 70
     1
102
RTVSPropertyOp12
 70
     1
102
RTVSPropertyOp13
 70
     1
102
RTVSPropertyOp14
 70
     1
102
RTVSPropertyOp15
 70
     1
102
RTVSPropertyOp16
 70
     1
102
RTVSPropertyOp17
 70
     1
102
RTVSPropertyOp18
 70
     1
102
RTVSPropertyOp19
 70
     1
102
RTVSPropertyOp20
 70
     1
102
RTVSPropertyOp21
 70
     1
102
RTVSPropertyOp22
 70
     1
102
RTVSPropertyOp23
 70
     1
102
RTVSPropertyOp24
 70
     1
102
RTVSPropertyOp25
 70
     1
102
RTVSPropertyOp26
 70
     1
102
RTVSPropertyOp27
 70
     1
102
RTVSPropertyOp28
 70
     1
102
RTVSPropertyOp29
 70
     1
102
RTVSPropertyOp30
 70
     1
102
RTVSPropertyOp31
 70
     1
102
RTVSPropertyOp32
 70
     1
102
RTVSPropertyOp33
 70
     1
102
RTVSPropertyOp34
 70
     1
102
RTVSPropertyOp35
 70
     1
102
RTVSPropertyOp36
 70
     1
102
RTVSPropertyOp37
 70
     1
102
RTVSPropertyOp38
 70
     1
102
RTVSPropertyOp39
 70
     1
102
RTVSPropertyOp40
 70
     1
102
RTVSPropertyOp41
 70
     1
102
RTVSPropertyOp42
 70
     1
102
RTVSPropertyOp43
 70
     1
102
RTVSPropertyOp44
 70
     1
102
RTVSPropertyOp45
 70
     1
102
RTVSPropertyOp46
 70
     1
102
RTVSPropertyOp47
 70
     1
102
RTVSPropertyOp48
 70
     1
102
RTVSPropertyOp49
 70
     1
102
RTVSPropertyOp50
 70
     1
102
RTVSPropertyOp51
 70
     0
102
RTVSPropertyOp52
 70
     0
102
RTVSPropertyOp53
 70
     1
102
RTVSPropertyOp54
 70
     1
102
RTVSPropertyOp55
 70
     1
102
RTVSPropertyOp56
 70
     1
102
RTVSPropertyOp57
 70
     1
102
RTVSPost2010Prop28
280
     0
102
RTVSPost2010PropOp28
 70
     1
102
RTVSPost2010Prop29
280
     1
102
RTVSPost2010PropOp29
 70
     1
102
RTVSPost2010Prop30
280
     1
102
RTVSPost2010PropOp30
 70
     1
102
RTVSPost2010Prop31
280
     0
102
RTVSPost2010PropOp31
 70
     1
102
RTVSPost2010Prop32
280
     0
102
RTVSPost2010PropOp32
 70
     1
102
RTVSPost2010Prop33
280
     0
102
RTVSPost2010PropOp33
 70
     1
102
RTVSPost2010Prop34
280
     0
102
RTVSPost2010PropOp34
 70
     1
102
RTVSPost2010Prop35
280
     0
102
RTVSPost2010PropOp35
 70
     1
102
RTVSPost2010Prop36
280
     0
102
RTVSPost2010PropOp36
 70
     1
102
RTVSPost2010Prop37
 90
       50
102
RTVSPost2010PropOp37
 70
     1
102
RTVSPost2010Prop38
140
0.0
102
RTVSPost2010PropOp38
 70
     1
102
RTVSPost2010Prop39
140
1.0
102
RTVSPost2010PropOp39
 70
     1
102
RTVSPost2010Prop40
 90
        0
102
RTVSPost2010PropOp40
 70
     1
102
RTVSPost2010Prop41ColorIndex
 90
       18
102
RTVSPost2010Prop41ColorRGB
 90
        0
102
RTVSPost2010PropOp41
 70
     1
102
RTVSPost2010Prop42
 90
       50
102
RTVSPost2010PropOp42
 70
     1
102
RTVSPost2010Prop43
 90
        3
102
RTVSPost2010PropOp43
 70
     1
102
RTVSPost2010Prop44ColorIndex
 90
        5
102
RTVSPost2010Prop44ColorRGB
 90
      255
102
RTVSPost2010PropOp44
 70
     1
102
RTVSPost2010Prop45
280
     0
102
RTVSPost2010PropOp45
 70
     1
102
RTVSPost2010Prop46
 90
       50
102
RTVSPost2010PropOp46
 70
     1
102
RTVSPost2010Prop47
 90
       50
102
RTVSPost2010PropOp47
 70
     1
102
RTVSPost2010Prop48
 90
       50
102
RTVSPost2010PropOp48
 70
     1
102
RTVSPost2010Prop49
280
     0
102
RTVSPost2010PropOp49
 70
     1
102
RTVSPost2010Prop50
 90
       50
102
RTVSPost2010PropOp50
 70
     1
102
RTVSPost2010Prop51ColorIndex
 90
      256
102
RTVSPost2010Prop51ColorRGB
 90
-16777216
102
RTVSPost2010PropOp51
 70
     0
102
RTVSPost2010Prop52
140
1.0
102
RTVSPost2010PropOp52
 70
     0
102
RTVSPost2010Prop53
 90
        2
102
RTVSPost2010PropOp53
 70
     1
102
RTVSPost2010Prop54
  1
strokes_ogs.tif
102
RTVSPost2010PropOp54
 70
     1
102
RTVSPost2010Prop55
280
     0
102
RTVSPost2010PropOp55
 70
     1
102
RTVSPost2010Prop56
140
1.0
102
RTVSPost2010PropOp56
 70
     1
102
RTVSPost2010Prop57
140
1.0
102
RTVSPost2010PropOp57
 70
     1
  0
XRECORD
  5
413
102
{ACAD_REACTORS
330
412
102
}
330
412
100
AcDbXrecord
280
     1
102
RTVSPropertyOp0
 70
     1
102
RTVSPropertyOp1
 70
     1
102
RTVSPropertyOp2
 70
     1
102
RTVSPropertyOp3
 70
     1
102
RTVSPropertyOp4
 70
     1
102
RTVSPropertyOp5
 70
     1
102
RTVSPropertyOp6
 70
     1
102
RTVSPropertyOp7
 70
     1
102
RTVSPropertyOp8
 70
     1
102
RTVSPropertyOp9
 70
     1
102
RTVSPropertyOp10
 70
     1
102
RTVSPropertyOp11
 70
     1
102
RTVSPropertyOp12
 70
     1
102
RTVSPropertyOp13
 70
     1
102
RTVSPropertyOp14
 70
     1
102
RTVSPropertyOp15
 70
     1
102
RTVSPropertyOp16
 70
     1
102
RTVSPropertyOp17
 70
     1
102
RTVSPropertyOp18
 70
     1
102
RTVSPropertyOp19
 70
     1
102
RTVSPropertyOp20
 70
     1
102
RTVSPropertyOp21
 70
     1
102
RTVSPropertyOp22
 70
     1
102
RTVSPropertyOp23
 70
     1
102
RTVSPropertyOp24
 70
     1
102
RTVSPropertyOp25
 70
     1
102
RTVSPropertyOp26
 70
     1
102
RTVSPropertyOp27
 70
     1
102
RTVSPropertyOp28
 70
     1
102
RTVSPropertyOp29
 70
     1
102
RTVSPropertyOp30
 70
     1
102
RTVSPropertyOp31
 70
     1
102
RTVSPropertyOp32
 70
     1
102
RTVSPropertyOp33
 70
     1
102
RTVSPropertyOp34
 70
     1
102
RTVSPropertyOp35
 70
     1
102
RTVSPropertyOp36
 70
     1
102
RTVSPropertyOp37
 70
     1
102
RTVSPropertyOp38
 70
     1
102
RTVSPropertyOp39
 70
     1
102
RTVSPropertyOp40
 70
     1
102
RTVSPropertyOp41
 70
     1
102
RTVSPropertyOp42
 70
     1
102
RTVSPropertyOp43
 70
     1
102
RTVSPropertyOp44
 70
     1
102
RTVSPropertyOp45
 70
     1
102
RTVSPropertyOp46
 70
     1
102
RTVSPropertyOp47
 70
     1
102
RTVSPropertyOp48
 70
     1
102
RTVSPropertyOp49
 70
     1
102
RTVSPropertyOp50
 70
     1
102
RTVSPropertyOp51
 70
     0
102
RTVSPropertyOp52
 70
     0
102
RTVSPropertyOp53
 70
     1
102
RTVSPropertyOp54
 70
     1
102
RTVSPropertyOp55
 70
     1
102
RTVSPropertyOp56
 70
     1
102
RTVSPropertyOp57
 70
     1
102
RTVSPost2010Prop28
280
     0
102
RTVSPost2010PropOp28
 70
     1
102
RTVSPost2010Prop29
280
     1
102
RTVSPost2010PropOp29
 70
     1
102
RTVSPost2010Prop30
280
     1
102
RTVSPost2010PropOp30
 70
     1
102
RTVSPost2010Prop31
280
     0
102
RTVSPost2010PropOp31
 70
     1
102
RTVSPost2010Prop32
280
     0
102
RTVSPost2010PropOp32
 70
     1
102
RTVSPost2010Prop33
280
     0
102
RTVSPost2010PropOp33
 70
     1
102
RTVSPost2010Prop34
280
     0
102
RTVSPost2010PropOp34
 70
     1
102
RTVSPost2010Prop35
280
     0
102
RTVSPost2010PropOp35
 70
     1
102
RTVSPost2010Prop36
280
     0
102
RTVSPost2010PropOp36
 70
     1
102
RTVSPost2010Prop37
 90
       50
102
RTVSPost2010PropOp37
 70
     1
102
RTVSPost2010Prop38
140
0.0
102
RTVSPost2010PropOp38
 70
     1
102
RTVSPost2010Prop39
140
1.0
102
RTVSPost2010PropOp39
 70
     1
102
RTVSPost2010Prop40
 90
        0
102
RTVSPost2010PropOp40
 70
     1
102
RTVSPost2010Prop41ColorIndex
 90
       18
102
RTVSPost2010Prop41ColorRGB
 90
        0
102
RTVSPost2010PropOp41
 70
     1
102
RTVSPost2010Prop42
 90
       50
102
RTVSPost2010PropOp42
 70
     1
102
RTVSPost2010Prop43
 90
        3
102
RTVSPost2010PropOp43
 70
     1
102
RTVSPost2010Prop44ColorIndex
 90
        5
102
RTVSPost2010Prop44ColorRGB
 90
      255
102
RTVSPost2010PropOp44
 70
     1
102
RTVSPost2010Prop45
280
     0
102
RTVSPost2010PropOp45
 70
     1
102
RTVSPost2010Prop46
 90
       50
102
RTVSPost2010PropOp46
 70
     1
102
RTVSPost2010Prop47
 90
       50
102
RTVSPost2010PropOp47
 70
     1
102
RTVSPost2010Prop48
 90
       50
102
RTVSPost2010PropOp48
 70
     1
102
RTVSPost2010Prop49
280
     0
102
RTVSPost2010PropOp49
 70
     1
102
RTVSPost2010Prop50
 90
       50
102
RTVSPost2010PropOp50
 70
     1
102
RTVSPost2010Prop51ColorIndex
 90
      256
102
RTVSPost2010Prop51ColorRGB
 90
-16777216
102
RTVSPost2010PropOp51
 70
     0
102
RTVSPost2010Prop52
140
1.0
102
RTVSPost2010PropOp52
 70
     0
102
RTVSPost2010Prop53
 90
        2
102
RTVSPost2010PropOp53
 70
     1
102
RTVSPost2010Prop54
  1
strokes_ogs.tif
102
RTVSPost2010PropOp54
 70
     1
102
RTVSPost2010Prop55
280
     0
102
RTVSPost2010PropOp55
 70
     1
102
RTVSPost2010Prop56
140
1.0
102
RTVSPost2010PropOp56
 70
     1
102
RTVSPost2010Prop57
140
1.0
102
RTVSPost2010PropOp57
 70
     1
  0
XRECORD
  5
415
102
{ACAD_REACTORS
330
414
102
}
330
414
100
AcDbXrecord
280
     1
102
RTVSPropertyOp0
 70
     1
102
RTVSPropertyOp1
 70
     1
102
RTVSPropertyOp2
 70
     1
102
RTVSPropertyOp3
 70
     1
102
RTVSPropertyOp4
 70
     1
102
RTVSPropertyOp5
 70
     1
102
RTVSPropertyOp6
 70
     1
102
RTVSPropertyOp7
 70
     1
102
RTVSPropertyOp8
 70
     1
102
RTVSPropertyOp9
 70
     1
102
RTVSPropertyOp10
 70
     1
102
RTVSPropertyOp11
 70
     1
102
RTVSPropertyOp12
 70
     1
102
RTVSPropertyOp13
 70
     1
102
RTVSPropertyOp14
 70
     1
102
RTVSPropertyOp15
 70
     1
102
RTVSPropertyOp16
 70
     1
102
RTVSPropertyOp17
 70
     1
102
RTVSPropertyOp18
 70
     1
102
RTVSPropertyOp19
 70
     1
102
RTVSPropertyOp20
 70
     1
102
RTVSPropertyOp21
 70
     1
102
RTVSPropertyOp22
 70
     1
102
RTVSPropertyOp23
 70
     1
102
RTVSPropertyOp24
 70
     1
102
RTVSPropertyOp25
 70
     1
102
RTVSPropertyOp26
 70
     1
102
RTVSPropertyOp27
 70
     1
102
RTVSPropertyOp28
 70
     1
102
RTVSPropertyOp29
 70
     1
102
RTVSPropertyOp30
 70
     1
102
RTVSPropertyOp31
 70
     1
102
RTVSPropertyOp32
 70
     1
102
RTVSPropertyOp33
 70
     1
102
RTVSPropertyOp34
 70
     1
102
RTVSPropertyOp35
 70
     1
102
RTVSPropertyOp36
 70
     1
102
RTVSPropertyOp37
 70
     1
102
RTVSPropertyOp38
 70
     1
102
RTVSPropertyOp39
 70
     1
102
RTVSPropertyOp40
 70
     1
102
RTVSPropertyOp41
 70
     1
102
RTVSPropertyOp42
 70
     1
102
RTVSPropertyOp43
 70
     1
102
RTVSPropertyOp44
 70
     1
102
RTVSPropertyOp45
 70
     1
102
RTVSPropertyOp46
 70
     1
102
RTVSPropertyOp47
 70
     1
102
RTVSPropertyOp48
 70
     1
102
RTVSPropertyOp49
 70
     1
102
RTVSPropertyOp50
 70
     1
102
RTVSPropertyOp51
 70
     0
102
RTVSPropertyOp52
 70
     0
102
RTVSPropertyOp53
 70
     1
102
RTVSPropertyOp54
 70
     1
102
RTVSPropertyOp55
 70
     1
102
RTVSPropertyOp56
 70
     1
102
RTVSPropertyOp57
 70
     1
102
RTVSPost2010Prop28
280
     0
102
RTVSPost2010PropOp28
 70
     1
102
RTVSPost2010Prop29
280
     1
102
RTVSPost2010PropOp29
 70
     1
102
RTVSPost2010Prop30
280
     1
102
RTVSPost2010PropOp30
 70
     1
102
RTVSPost2010Prop31
280
     0
102
RTVSPost2010PropOp31
 70
     1
102
RTVSPost2010Prop32
280
     0
102
RTVSPost2010PropOp32
 70
     1
102
RTVSPost2010Prop33
280
     0
102
RTVSPost2010PropOp33
 70
     1
102
RTVSPost2010Prop34
280
     0
102
RTVSPost2010PropOp34
 70
     1
102
RTVSPost2010Prop35
280
     0
102
RTVSPost2010PropOp35
 70
     1
102
RTVSPost2010Prop36
280
     0
102
RTVSPost2010PropOp36
 70
     1
102
RTVSPost2010Prop37
 90
       50
102
RTVSPost2010PropOp37
 70
     1
102
RTVSPost2010Prop38
140
0.0
102
RTVSPost2010PropOp38
 70
     1
102
RTVSPost2010Prop39
140
1.0
102
RTVSPost2010PropOp39
 70
     1
102
RTVSPost2010Prop40
 90
        0
102
RTVSPost2010PropOp40
 70
     1
102
RTVSPost2010Prop41ColorIndex
 90
       18
102
RTVSPost2010Prop41ColorRGB
 90
        0
102
RTVSPost2010PropOp41
 70
     1
102
RTVSPost2010Prop42
 90
       50
102
RTVSPost2010PropOp42
 70
     1
102
RTVSPost2010Prop43
 90
        3
102
RTVSPost2010PropOp43
 70
     1
102
RTVSPost2010Prop44ColorIndex
 90
        5
102
RTVSPost2010Prop44ColorRGB
 90
      255
102
RTVSPost2010PropOp44
 70
     1
102
RTVSPost2010Prop45
280
     0
102
RTVSPost2010PropOp45
 70
     1
102
RTVSPost2010Prop46
 90
       50
102
RTVSPost2010PropOp46
 70
     1
102
RTVSPost2010Prop47
 90
       50
102
RTVSPost2010PropOp47
 70
     1
102
RTVSPost2010Prop48
 90
       50
102
RTVSPost2010PropOp48
 70
     1
102
RTVSPost2010Prop49
280
     0
102
RTVSPost2010PropOp49
 70
     1
102
RTVSPost2010Prop50
 90
       50
102
RTVSPost2010PropOp50
 70
     1
102
RTVSPost2010Prop51ColorIndex
 90
      256
102
RTVSPost2010Prop51ColorRGB
 90
-16777216
102
RTVSPost2010PropOp51
 70
     0
102
RTVSPost2010Prop52
140
1.0
102
RTVSPost2010PropOp52
 70
     0
102
RTVSPost2010Prop53
 90
        2
102
RTVSPost2010PropOp53
 70
     1
102
RTVSPost2010Prop54
  1
strokes_ogs.tif
102
RTVSPost2010PropOp54
 70
     1
102
RTVSPost2010Prop55
280
     0
102
RTVSPost2010PropOp55
 70
     1
102
RTVSPost2010Prop56
140
1.0
102
RTVSPost2010PropOp56
 70
     1
102
RTVSPost2010Prop57
140
1.0
102
RTVSPost2010PropOp57
 70
     1
  0
XRECORD
  5
405
102
{ACAD_REACTORS
330
404
102
}
330
404
100
AcDbXrecord
280
     1
102
RTVSPropertyOp0
 70
     1
102
RTVSPropertyOp1
 70
     1
102
RTVSPropertyOp2
 70
     1
102
RTVSPropertyOp3
 70
     1
102
RTVSPropertyOp4
 70
     1
102
RTVSPropertyOp5
 70
     1
102
RTVSPropertyOp6
 70
     1
102
RTVSPropertyOp7
 70
     1
102
RTVSPropertyOp8
 70
     1
102
RTVSPropertyOp9
 70
     1
102
RTVSPropertyOp10
 70
     1
102
RTVSPropertyOp11
 70
     1
102
RTVSPropertyOp12
 70
     1
102
RTVSPropertyOp13
 70
     1
102
RTVSPropertyOp14
 70
     1
102
RTVSPropertyOp15
 70
     1
102
RTVSPropertyOp16
 70
     1
102
RTVSPropertyOp17
 70
     1
102
RTVSPropertyOp18
 70
     1
102
RTVSPropertyOp19
 70
     1
102
RTVSPropertyOp20
 70
     1
102
RTVSPropertyOp21
 70
     1
102
RTVSPropertyOp22
 70
     1
102
RTVSPropertyOp23
 70
     1
102
RTVSPropertyOp24
 70
     1
102
RTVSPropertyOp25
 70
     1
102
RTVSPropertyOp26
 70
     1
102
RTVSPropertyOp27
 70
     1
102
RTVSPropertyOp28
 70
     1
102
RTVSPropertyOp29
 70
     1
102
RTVSPropertyOp30
 70
     1
102
RTVSPropertyOp31
 70
     1
102
RTVSPropertyOp32
 70
     1
102
RTVSPropertyOp33
 70
     1
102
RTVSPropertyOp34
 70
     1
102
RTVSPropertyOp35
 70
     1
102
RTVSPropertyOp36
 70
     1
102
RTVSPropertyOp37
 70
     1
102
RTVSPropertyOp38
 70
     1
102
RTVSPropertyOp39
 70
     1
102
RTVSPropertyOp40
 70
     1
102
RTVSPropertyOp41
 70
     1
102
RTVSPropertyOp42
 70
     1
102
RTVSPropertyOp43
 70
     1
102
RTVSPropertyOp44
 70
     1
102
RTVSPropertyOp45
 70
     1
102
RTVSPropertyOp46
 70
     1
102
RTVSPropertyOp47
 70
     1
102
RTVSPropertyOp48
 70
     1
102
RTVSPropertyOp49
 70
     1
102
RTVSPropertyOp50
 70
     1
102
RTVSPropertyOp51
 70
     0
102
RTVSPropertyOp52
 70
     0
102
RTVSPropertyOp53
 70
     1
102
RTVSPropertyOp54
 70
     1
102
RTVSPropertyOp55
 70
     1
102
RTVSPropertyOp56
 70
     1
102
RTVSPropertyOp57
 70
     1
102
RTVSPost2010Prop28
280
     0
102
RTVSPost2010PropOp28
 70
     1
102
RTVSPost2010Prop29
280
     1
102
RTVSPost2010PropOp29
 70
     1
102
RTVSPost2010Prop30
280
     1
102
RTVSPost2010PropOp30
 70
     1
102
RTVSPost2010Prop31
280
     0
102
RTVSPost2010PropOp31
 70
     1
102
RTVSPost2010Prop32
280
     0
102
RTVSPost2010PropOp32
 70
     1
102
RTVSPost2010Prop33
280
     0
102
RTVSPost2010PropOp33
 70
     1
102
RTVSPost2010Prop34
280
     0
102
RTVSPost2010PropOp34
 70
     1
102
RTVSPost2010Prop35
280
     0
102
RTVSPost2010PropOp35
 70
     1
102
RTVSPost2010Prop36
280
     0
102
RTVSPost2010PropOp36
 70
     1
102
RTVSPost2010Prop37
 90
       50
102
RTVSPost2010PropOp37
 70
     1
102
RTVSPost2010Prop38
140
0.0
102
RTVSPost2010PropOp38
 70
     1
102
RTVSPost2010Prop39
140
1.0
102
RTVSPost2010PropOp39
 70
     1
102
RTVSPost2010Prop40
 90
        0
102
RTVSPost2010PropOp40
 70
     1
102
RTVSPost2010Prop41ColorIndex
 90
       18
102
RTVSPost2010Prop41ColorRGB
 90
        0
102
RTVSPost2010PropOp41
 70
     1
102
RTVSPost2010Prop42
 90
       50
102
RTVSPost2010PropOp42
 70
     1
102
RTVSPost2010Prop43
 90
        3
102
RTVSPost2010PropOp43
 70
     1
102
RTVSPost2010Prop44ColorIndex
 90
        5
102
RTVSPost2010Prop44ColorRGB
 90
      255
102
RTVSPost2010PropOp44
 70
     1
102
RTVSPost2010Prop45
280
     0
102
RTVSPost2010PropOp45
 70
     1
102
RTVSPost2010Prop46
 90
       50
102
RTVSPost2010PropOp46
 70
     1
102
RTVSPost2010Prop47
 90
       50
102
RTVSPost2010PropOp47
 70
     1
102
RTVSPost2010Prop48
 90
       50
102
RTVSPost2010PropOp48
 70
     1
102
RTVSPost2010Prop49
280
     0
102
RTVSPost2010PropOp49
 70
     1
102
RTVSPost2010Prop50
 90
       50
102
RTVSPost2010PropOp50
 70
     1
102
RTVSPost2010Prop51ColorIndex
 90
      256
102
RTVSPost2010Prop51ColorRGB
 90
-16777216
102
RTVSPost2010PropOp51
 70
     0
102
RTVSPost2010Prop52
140
1.0
102
RTVSPost2010PropOp52
 70
     0
102
RTVSPost2010Prop53
 90
        2
102
RTVSPost2010PropOp53
 70
     1
102
RTVSPost2010Prop54
  1
strokes_ogs.tif
102
RTVSPost2010PropOp54
 70
     1
102
RTVSPost2010Prop55
280
     0
102
RTVSPost2010PropOp55
 70
     1
102
RTVSPost2010Prop56
140
1.0
102
RTVSPost2010PropOp56
 70
     1
102
RTVSPost2010Prop57
140
1.0
102
RTVSPost2010PropOp57
 70
     1
  0
XRECORD
  5
3F7
102
{ACAD_REACTORS
330
3F6
102
}
330
3F6
100
AcDbXrecord
280
     1
102
RTVSPropertyOp0
 70
     1
102
RTVSPropertyOp1
 70
     1
102
RTVSPropertyOp2
 70
     1
102
RTVSPropertyOp3
 70
     1
102
RTVSPropertyOp4
 70
     1
102
RTVSPropertyOp5
 70
     1
102
RTVSPropertyOp6
 70
     1
102
RTVSPropertyOp7
 70
     1
102
RTVSPropertyOp8
 70
     1
102
RTVSPropertyOp9
 70
     1
102
RTVSPropertyOp10
 70
     1
102
RTVSPropertyOp11
 70
     1
102
RTVSPropertyOp12
 70
     1
102
RTVSPropertyOp13
 70
     1
102
RTVSPropertyOp14
 70
     1
102
RTVSPropertyOp15
 70
     1
102
RTVSPropertyOp16
 70
     1
102
RTVSPropertyOp17
 70
     1
102
RTVSPropertyOp18
 70
     1
102
RTVSPropertyOp19
 70
     1
102
RTVSPropertyOp20
 70
     1
102
RTVSPropertyOp21
 70
     1
102
RTVSPropertyOp22
 70
     1
102
RTVSPropertyOp23
 70
     1
102
RTVSPropertyOp24
 70
     1
102
RTVSPropertyOp25
 70
     1
102
RTVSPropertyOp26
 70
     1
102
RTVSPropertyOp27
 70
     1
102
RTVSPropertyOp28
 70
     1
102
RTVSPropertyOp29
 70
     1
102
RTVSPropertyOp30
 70
     1
102
RTVSPropertyOp31
 70
     1
102
RTVSPropertyOp32
 70
     1
102
RTVSPropertyOp33
 70
     1
102
RTVSPropertyOp34
 70
     1
102
RTVSPropertyOp35
 70
     1
102
RTVSPropertyOp36
 70
     1
102
RTVSPropertyOp37
 70
     1
102
RTVSPropertyOp38
 70
     1
102
RTVSPropertyOp39
 70
     1
102
RTVSPropertyOp40
 70
     1
102
RTVSPropertyOp41
 70
     1
102
RTVSPropertyOp42
 70
     1
102
RTVSPropertyOp43
 70
     1
102
RTVSPropertyOp44
 70
     1
102
RTVSPropertyOp45
 70
     1
102
RTVSPropertyOp46
 70
     1
102
RTVSPropertyOp47
 70
     1
102
RTVSPropertyOp48
 70
     1
102
RTVSPropertyOp49
 70
     1
102
RTVSPropertyOp50
 70
     1
102
RTVSPropertyOp51
 70
     0
102
RTVSPropertyOp52
 70
     0
102
RTVSPropertyOp53
 70
     1
102
RTVSPropertyOp54
 70
     1
102
RTVSPropertyOp55
 70
     1
102
RTVSPropertyOp56
 70
     1
102
RTVSPropertyOp57
 70
     1
102
RTVSPost2010Prop28
280
     0
102
RTVSPost2010PropOp28
 70
     1
102
RTVSPost2010Prop29
280
     1
102
RTVSPost2010PropOp29
 70
     1
102
RTVSPost2010Prop30
280
     1
102
RTVSPost2010PropOp30
 70
     1
102
RTVSPost2010Prop31
280
     0
102
RTVSPost2010PropOp31
 70
     1
102
RTVSPost2010Prop32
280
     0
102
RTVSPost2010PropOp32
 70
     1
102
RTVSPost2010Prop33
280
     0
102
RTVSPost2010PropOp33
 70
     1
102
RTVSPost2010Prop34
280
     0
102
RTVSPost2010PropOp34
 70
     1
102
RTVSPost2010Prop35
280
     0
102
RTVSPost2010PropOp35
 70
     1
102
RTVSPost2010Prop36
280
     0
102
RTVSPost2010PropOp36
 70
     1
102
RTVSPost2010Prop37
 90
       50
102
RTVSPost2010PropOp37
 70
     1
102
RTVSPost2010Prop38
140
0.0
102
RTVSPost2010PropOp38
 70
     1
102
RTVSPost2010Prop39
140
1.0
102
RTVSPost2010PropOp39
 70
     1
102
RTVSPost2010Prop40
 90
        0
102
RTVSPost2010PropOp40
 70
     1
102
RTVSPost2010Prop41ColorIndex
 90
       18
102
RTVSPost2010Prop41ColorRGB
 90
        0
102
RTVSPost2010PropOp41
 70
     1
102
RTVSPost2010Prop42
 90
       50
102
RTVSPost2010PropOp42
 70
     1
102
RTVSPost2010Prop43
 90
        3
102
RTVSPost2010PropOp43
 70
     1
102
RTVSPost2010Prop44ColorIndex
 90
        5
102
RTVSPost2010Prop44ColorRGB
 90
      255
102
RTVSPost2010PropOp44
 70
     1
102
RTVSPost2010Prop45
280
     0
102
RTVSPost2010PropOp45
 70
     1
102
RTVSPost2010Prop46
 90
       50
102
RTVSPost2010PropOp46
 70
     1
102
RTVSPost2010Prop47
 90
       50
102
RTVSPost2010PropOp47
 70
     1
102
RTVSPost2010Prop48
 90
       50
102
RTVSPost2010PropOp48
 70
     1
102
RTVSPost2010Prop49
280
     0
102
RTVSPost2010PropOp49
 70
     1
102
RTVSPost2010Prop50
 90
       50
102
RTVSPost2010PropOp50
 70
     1
102
RTVSPost2010Prop51ColorIndex
 90
      256
102
RTVSPost2010Prop51ColorRGB
 90
-16777216
102
RTVSPost2010PropOp51
 70
     0
102
RTVSPost2010Prop52
140
1.0
102
RTVSPost2010PropOp52
 70
     0
102
RTVSPost2010Prop53
 90
        2
102
RTVSPost2010PropOp53
 70
     1
102
RTVSPost2010Prop54
  1
strokes_ogs.tif
102
RTVSPost2010PropOp54
 70
     1
102
RTVSPost2010Prop55
280
     0
102
RTVSPost2010PropOp55
 70
     1
102
RTVSPost2010Prop56
140
1.0
102
RTVSPost2010PropOp56
 70
     1
102
RTVSPost2010Prop57
140
1.0
102
RTVSPost2010PropOp57
 70
     1
  0
XRECORD
  5
417
102
{ACAD_REACTORS
330
416
102
}
330
416
100
AcDbXrecord
280
     1
102
RTVSPropertyOp0
 70
     1
102
RTVSPropertyOp1
 70
     1
102
RTVSPropertyOp2
 70
     1
102
RTVSPropertyOp3
 70
     1
102
RTVSPropertyOp4
 70
     1
102
RTVSPropertyOp5
 70
     1
102
RTVSPropertyOp6
 70
     1
102
RTVSPropertyOp7
 70
     1
102
RTVSPropertyOp8
 70
     1
102
RTVSPropertyOp9
 70
     1
102
RTVSPropertyOp10
 70
     1
102
RTVSPropertyOp11
 70
     1
102
RTVSPropertyOp12
 70
     1
102
RTVSPropertyOp13
 70
     1
102
RTVSPropertyOp14
 70
     1
102
RTVSPropertyOp15
 70
     1
102
RTVSPropertyOp16
 70
     1
102
RTVSPropertyOp17
 70
     1
102
RTVSPropertyOp18
 70
     1
102
RTVSPropertyOp19
 70
     1
102
RTVSPropertyOp20
 70
     1
102
RTVSPropertyOp21
 70
     1
102
RTVSPropertyOp22
 70
     1
102
RTVSPropertyOp23
 70
     1
102
RTVSPropertyOp24
 70
     1
102
RTVSPropertyOp25
 70
     1
102
RTVSPropertyOp26
 70
     1
102
RTVSPropertyOp27
 70
     1
102
RTVSPropertyOp28
 70
     1
102
RTVSPropertyOp29
 70
     1
102
RTVSPropertyOp30
 70
     1
102
RTVSPropertyOp31
 70
     1
102
RTVSPropertyOp32
 70
     1
102
RTVSPropertyOp33
 70
     1
102
RTVSPropertyOp34
 70
     1
102
RTVSPropertyOp35
 70
     1
102
RTVSPropertyOp36
 70
     1
102
RTVSPropertyOp37
 70
     1
102
RTVSPropertyOp38
 70
     1
102
RTVSPropertyOp39
 70
     1
102
RTVSPropertyOp40
 70
     1
102
RTVSPropertyOp41
 70
     1
102
RTVSPropertyOp42
 70
     1
102
RTVSPropertyOp43
 70
     1
102
RTVSPropertyOp44
 70
     1
102
RTVSPropertyOp45
 70
     1
102
RTVSPropertyOp46
 70
     1
102
RTVSPropertyOp47
 70
     1
102
RTVSPropertyOp48
 70
     1
102
RTVSPropertyOp49
 70
     1
102
RTVSPropertyOp50
 70
     1
102
RTVSPropertyOp51
 70
     0
102
RTVSPropertyOp52
 70
     0
102
RTVSPropertyOp53
 70
     1
102
RTVSPropertyOp54
 70
     1
102
RTVSPropertyOp55
 70
     1
102
RTVSPropertyOp56
 70
     1
102
RTVSPropertyOp57
 70
     1
102
RTVSPost2010Prop28
280
     0
102
RTVSPost2010PropOp28
 70
     1
102
RTVSPost2010Prop29
280
     1
102
RTVSPost2010PropOp29
 70
     1
102
RTVSPost2010Prop30
280
     1
102
RTVSPost2010PropOp30
 70
     1
102
RTVSPost2010Prop31
280
     0
102
RTVSPost2010PropOp31
 70
     1
102
RTVSPost2010Prop32
280
     0
102
RTVSPost2010PropOp32
 70
     1
102
RTVSPost2010Prop33
280
     0
102
RTVSPost2010PropOp33
 70
     1
102
RTVSPost2010Prop34
280
     0
102
RTVSPost2010PropOp34
 70
     1
102
RTVSPost2010Prop35
280
     0
102
RTVSPost2010PropOp35
 70
     1
102
RTVSPost2010Prop36
280
     0
102
RTVSPost2010PropOp36
 70
     1
102
RTVSPost2010Prop37
 90
       50
102
RTVSPost2010PropOp37
 70
     1
102
RTVSPost2010Prop38
140
0.0
102
RTVSPost2010PropOp38
 70
     1
102
RTVSPost2010Prop39
140
1.0
102
RTVSPost2010PropOp39
 70
     1
102
RTVSPost2010Prop40
 90
        0
102
RTVSPost2010PropOp40
 70
     1
102
RTVSPost2010Prop41ColorIndex
 90
       18
102
RTVSPost2010Prop41ColorRGB
 90
        0
102
RTVSPost2010PropOp41
 70
     1
102
RTVSPost2010Prop42
 90
       50
102
RTVSPost2010PropOp42
 70
     1
102
RTVSPost2010Prop43
 90
        3
102
RTVSPost2010PropOp43
 70
     1
102
RTVSPost2010Prop44ColorIndex
 90
        5
102
RTVSPost2010Prop44ColorRGB
 90
      255
102
RTVSPost2010PropOp44
 70
     1
102
RTVSPost2010Prop45
280
     0
102
RTVSPost2010PropOp45
 70
     1
102
RTVSPost2010Prop46
 90
       50
102
RTVSPost2010PropOp46
 70
     1
102
RTVSPost2010Prop47
 90
       50
102
RTVSPost2010PropOp47
 70
     1
102
RTVSPost2010Prop48
 90
       50
102
RTVSPost2010PropOp48
 70
     1
102
RTVSPost2010Prop49
280
     0
102
RTVSPost2010PropOp49
 70
     1
102
RTVSPost2010Prop50
 90
       50
102
RTVSPost2010PropOp50
 70
     1
102
RTVSPost2010Prop51ColorIndex
 90
      256
102
RTVSPost2010Prop51ColorRGB
 90
-16777216
102
RTVSPost2010PropOp51
 70
     0
102
RTVSPost2010Prop52
140
1.0
102
RTVSPost2010PropOp52
 70
     0
102
RTVSPost2010Prop53
 90
        2
102
RTVSPost2010PropOp53
 70
     1
102
RTVSPost2010Prop54
  1
strokes_ogs.tif
102
RTVSPost2010PropOp54
 70
     1
102
RTVSPost2010Prop55
280
     0
102
RTVSPost2010PropOp55
 70
     1
102
RTVSPost2010Prop56
140
1.0
102
RTVSPost2010PropOp56
 70
     1
102
RTVSPost2010Prop57
140
1.0
102
RTVSPost2010PropOp57
 70
     1
  0
ENDSEC
  0
EOF
