  0
SECTION
  2
HEADER
  9
$ACADVER
  1
AC1018
  9
$ACADMAINTVER
 70
     0
  9
$DWGCODEPAGE
  3
ANSI_932
  9
$INSBASE
 10
0.0
 20
0.0
 30
0.0
  9
$EXTMIN
 10
-420.0
 20
-297.0
 30
0.0
  9
$EXTMAX
 10
420.0
 20
297.0
 30
0.0
  9
$LIMMIN
 10
-420.0
 20
-297.0
  9
$LIMMAX
 10
420.0
 20
297.0
  9
$ORTHOMODE
 70
     0
  9
$REGENMODE
 70
     1
  9
$FILLMODE
 70
     1
  9
$QTEXTMODE
 70
     0
  9
$MIRRTEXT
 70
     1
  9
$LTSCALE
 40
2.0
  9
$ATTMODE
 70
     1
  9
$TEXTSIZE
 40
2.5
  9
$TRACEWID
 40
1.0
  9
$TEXTSTYLE
  7
Standard
  9
$CLAYER
  8
0
  9
$CELTYPE
  6
ByLayer
  9
$CECOLOR
 62
   256
  9
$CELTSCALE
 40
1.0
  9
$DISPSILH
 70
     0
  9
$DIMSCALE
 40
1.0
  9
$DIMASZ
 40
2.5
  9
$DIMEXO
 40
0.625
  9
$DIMDLI
 40
3.75
  9
$DIMRND
 40
0.0
  9
$DIMDLE
 40
0.0
  9
$DIMEXE
 40
1.25
  9
$DIMTP
 40
0.0
  9
$DIMTM
 40
0.0
  9
$DIMTXT
 40
2.5
  9
$DIMCEN
 40
2.5
  9
$DIMTSZ
 40
0.0
  9
$DIMTOL
 70
     0
  9
$DIMLIM
 70
     0
  9
$DIMTIH
 70
     0
  9
$DIMTOH
 70
     0
  9
$DIMSE1
 70
     0
  9
$DIMSE2
 70
     0
  9
$DIMTAD
 70
     1
  9
$DIMZIN
 70
     8
  9
$DIMBLK
  1

  9
$DIMASO
 70
     1
  9
$DIMSHO
 70
     1
  9
$DIMPOST
  1

  9
$DIMAPOST
  1

  9
$DIMALT
 70
     0
  9
$DIMALTD
 70
     3
  9
$DIMALTF
 40
0.03937007874016
  9
$DIMLFAC
 40
1.0
  9
$DIMTOFL
 70
     1
  9
$DIMTVP
 40
0.0
  9
$DIMTIX
 70
     0
  9
$DIMSOXD
 70
     0
  9
$DIMSAH
 70
     0
  9
$DIMBLK1
  1

  9
$DIMBLK2
  1

  9
$DIMSTYLE
  2
ISO-25
  9
$DIMCLRD
 70
     0
  9
$DIMCLRE
 70
     0
  9
$DIMCLRT
 70
     0
  9
$DIMTFAC
 40
1.0
  9
$DIMGAP
 40
0.625
  9
$DIMJUST
 70
     0
  9
$DIMSD1
 70
     0
  9
$DIMSD2
 70
     0
  9
$DIMTOLJ
 70
     0
  9
$DIMTZIN
 70
     8
  9
$DIMALTZ
 70
     0
  9
$DIMALTTZ
 70
     0
  9
$DIMUPT
 70
     0
  9
$DIMDEC
 70
     2
  9
$DIMTDEC
 70
     2
  9
$DIMALTU
 70
     2
  9
$DIMALTTD
 70
     3
  9
$DIMTXSTY
  7
Standard
  9
$DIMAUNIT
 70
     0
  9
$DIMADEC
 70
     0
  9
$DIMALTRND
 40
0.0
  9
$DIMAZIN
 70
     0
  9
$DIMDSEP
 70
    44
  9
$DIMATFIT
 70
     3
  9
$DIMFRAC
 70
     0
  9
$DIMLDRBLK
  1

  9
$DIMLUNIT
 70
     2
  9
$DIMLWD
 70
    -2
  9
$DIMLWE
 70
    -2
  9
$DIMTMOVE
 70
     0
  9
$LUNITS
 70
     2
  9
$LUPREC
 70
     4
  9
$SKETCHINC
 40
1.0
  9
$FILLETRAD
 40
10.0
  9
$AUNITS
 70
     0
  9
$AUPREC
 70
     0
  9
$MENU
  1
.
  9
$ELEVATION
 40
0.0
  9
$PELEVATION
 40
0.0
  9
$THICKNESS
 40
0.0
  9
$LIMCHECK
 70
     0
  9
$CHAMFERA
 40
0.0
  9
$CHAMFERB
 40
0.0
  9
$CHAMFERC
 40
0.0
  9
$CHAMFERD
 40
0.0
  9
$SKPOLY
 70
     0
  9
$TDCREATE
 40
2461033.63597125
  9
$TDUCREATE
 40
2461033.26097125
  9
$TDUPDATE
 40
2461033.63597684
  9
$TDUUPDATE
 40
2461033.26097684
  9
$TDINDWG
 40
0.0000000116
  9
$TDUSRTIMER
 40
0.0000000116
  9
$USRTIMER
 70
     1
  9
$ANGBASE
 50
0.0
  9
$ANGDIR
 70
     0
  9
$PDMODE
 70
     0
  9
$PDSIZE
 40
0.0
  9
$PLINEWID
 40
0.0
  9
$SPLFRAME
 70
     0
  9
$SPLINETYPE
 70
     6
  9
$SPLINESEGS
 70
     8
  9
$HANDSEED
  5
31C
  9
$SURFTAB1
 70
     6
  9
$SURFTAB2
 70
     6
  9
$SURFTYPE
 70
     6
  9
$SURFU
 70
     6
  9
$SURFV
 70
     6
  9
$UCSBASE
  2

  9
$UCSNAME
  2

  9
$UCSORG
 10
0.0
 20
0.0
 30
0.0
  9
$UCSXDIR
 10
1.0
 20
0.0
 30
0.0
  9
$UCSYDIR
 10
0.0
 20
1.0
 30
0.0
  9
$UCSORTHOREF
  2

  9
$UCSORTHOVIEW
 70
     0
  9
$UCSORGTOP
 10
0.0
 20
0.0
 30
0.0
  9
$UCSORGBOTTOM
 10
0.0
 20
0.0
 30
0.0
  9
$UCSORGLEFT
 10
0.0
 20
0.0
 30
0.0
  9
$UCSORGRIGHT
 10
0.0
 20
0.0
 30
0.0
  9
$UCSORGFRONT
 10
0.0
 20
0.0
 30
0.0
  9
$UCSORGBACK
 10
0.0
 20
0.0
 30
0.0
  9
$PUCSBASE
  2

  9
$PUCSNAME
  2

  9
$PUCSORG
 10
0.0
 20
0.0
 30
0.0
  9
$PUCSXDIR
 10
1.0
 20
0.0
 30
0.0
  9
$PUCSYDIR
 10
0.0
 20
1.0
 30
0.0
  9
$PUCSORTHOREF
  2

  9
$PUCSORTHOVIEW
 70
     0
  9
$PUCSORGTOP
 10
0.0
 20
0.0
 30
0.0
  9
$PUCSORGBOTTOM
 10
0.0
 20
0.0
 30
0.0
  9
$PUCSORGLEFT
 10
0.0
 20
0.0
 30
0.0
  9
$PUCSORGRIGHT
 10
0.0
 20
0.0
 30
0.0
  9
$PUCSORGFRONT
 10
0.0
 20
0.0
 30
0.0
  9
$PUCSORGBACK
 10
0.0
 20
0.0
 30
0.0
  9
$USERI1
 70
     0
  9
$USERI2
 70
     0
  9
$USERI3
 70
     0
  9
$USERI4
 70
     0
  9
$USERI5
 70
     0
  9
$USERR1
 40
0.0
  9
$USERR2
 40
0.0
  9
$USERR3
 40
0.0
  9
$USERR4
 40
0.0
  9
$USERR5
 40
0.0
  9
$WORLDVIEW
 70
     1
  9
$SHADEDGE
 70
     3
  9
$SHADEDIF
 70
    70
  9
$TILEMODE
 70
     1
  9
$MAXACTVP
 70
    64
  9
$PINSBASE
 10
0.0
 20
0.0
 30
0.0
  9
$PLIMCHECK
 70
     0
  9
$PEXTMIN
 10
1.000000000000000E+20
 20
1.000000000000000E+20
 30
1.000000000000000E+20
  9
$PEXTMAX
 10
-1.000000000000000E+20
 20
-1.000000000000000E+20
 30
-1.000000000000000E+20
  9
$PLIMMIN
 10
0.0
 20
0.0
  9
$PLIMMAX
 10
420.0
 20
297.0
  9
$UNITMODE
 70
     0
  9
$VISRETAIN
 70
     1
  9
$PLINEGEN
 70
     0
  9
$PSLTSCALE
 70
     1
  9
$TREEDEPTH
 70
  3020
  9
$CMLSTYLE
  2
Standard
  9
$CMLJUST
 70
     0
  9
$CMLSCALE
 40
20.0
  9
$PROXYGRAPHICS
 70
     1
  9
$MEASUREMENT
 70
     1
  9
$CELWEIGHT
370
    -1
  9
$ENDCAPS
280
     0
  9
$JOINSTYLE
280
     0
  9
$LWDISPLAY
290
     0
  9
$INSUNITS
 70
     4
  9
$HYPERLINKBASE
  1

  9
$STYLESHEET
  1

  9
$XEDIT
290
     1
  9
$CEPSNTYPE
380
     0
  9
$PSTYLEMODE
290
     1
  9
$FINGERPRINTGUID
  2
{862F2BFF-6E3F-4BA0-8D3C-04C6A29DFF62}
  9
$VERSIONGUID
  2
{FAEB1C32-E019-11D5-929B-00C0DF256EC4}
  9
$EXTNAMES
290
     1
  9
$PSVPSCALE
 40
0.0
  9
$OLESTARTUP
290
     0
  9
$SORTENTS
280
   127
  9
$INDEXCTL
280
     0
  9
$HIDETEXT
280
     1
  9
$XCLIPFRAME
290
     0
  9
$HALOGAP
280
     0
  9
$OBSCOLOR
 70
   257
  9
$OBSLTYPE
280
     0
  9
$INTERSECTIONDISPLAY
280
     0
  9
$INTERSECTIONCOLOR
 70
   257
  9
$DIMASSOC
280
     2
  9
$PROJECTNAME
  1

  0
ENDSEC
  0
SECTION
  2
CLASSES
  0
CLASS
  1
ACDBDICTIONARYWDFLT
  2
AcDbDictionaryWithDefault
  3
ObjectDBX Classes
 90
        0
 91
        4
280
     0
281
     0
  0
CLASS
  1
VISUALSTYLE
  2
AcDbVisualStyle
  3
ObjectDBX Classes
 90
     4095
 91
        4
280
     0
281
     0
  0
CLASS
  1
MATERIAL
  2
AcDbMaterial
  3
ObjectDBX Classes
 90
     1153
 91
        4
280
     0
281
     0
  0
CLASS
  1
SCALE
  2
AcDbScale
  3
ObjectDBX Classes
 90
     1153
 91
        4
280
     0
281
     0
  0
CLASS
  1
TABLESTYLE
  2
AcDbTableStyle
  3
ObjectDBX Classes
 90
     4095
 91
        4
280
     0
281
     0
  0
CLASS
  1
MLEADERSTYLE
  2
AcDbMLeaderStyle
  3
ACDB_MLEADERSTYLE_CLASS
 90
     4095
 91
        4
280
     0
281
     0
  0
CLASS
  1
SUN
  2
AcDbSun
  3
SCENEOE
 90
     1153
 91
        4
280
     0
281
     0
  0
CLASS
  1
DICTIONARYVAR
  2
AcDbDictionaryVar
  3
ObjectDBX Classes
 90
        0
 91
        4
280
     0
281
     0
  0
CLASS
  1
CELLSTYLEMAP
  2
AcDbCellStyleMap
  3
ObjectDBX Classes
 90
     1152
 91
        4
280
     0
281
     0
  0
ENDSEC
  0
SECTION
  2
TABLES
  0
TABLE
  2
VPORT
  5
8
102
{ACAD_XDICTIONARY
360
2D3
102
}
330
0
100
AcDbSymbolTable
 70
     1
  0
VPORT
  5
29
330
8
100
AcDbSymbolTableRecord
100
AcDbViewportTableRecord
  2
*Active
 70
     0
 10
0.0
 20
0.0
 11
1.0
 21
1.0
 12
0.0
 22
0.0
 13
0.0
 23
0.0
 14
10.0
 24
10.0
 15
10.0
 25
10.0
 16
0.0
 26
0.0
 36
1.0
 17
0.0
 27
0.0
 37
0.0
 40
653.4000000000001
 41
1.414141414141414
 42
50.0
 43
0.0
 44
0.0
 50
0.0
 51
0.0
 71
     0
 72
 10000
 73
     1
 74
     3
 75
     0
 76
     0
 77
     0
 78
     0
281
     0
 65
     1
110
0.0
120
0.0
130
0.0
111
1.0
121
0.0
131
0.0
112
0.0
122
1.0
132
0.0
 79
     0
146
0.0
  0
ENDTAB
  0
TABLE
  2
LTYPE
  5
5
330
0
100
AcDbSymbolTable
 70
     5
  0
LTYPE
  5
14
330
5
100
AcDbSymbolTableRecord
100
AcDbLinetypeTableRecord
  2
ByBlock
 70
     0
  3

 72
    65
 73
     0
 40
0.0
  0
LTYPE
  5
15
330
5
100
AcDbSymbolTableRecord
100
AcDbLinetypeTableRecord
  2
ByLayer
 70
     0
  3

 72
    65
 73
     0
 40
0.0
  0
LTYPE
  5
16
330
5
100
AcDbSymbolTableRecord
100
AcDbLinetypeTableRecord
  2
Continuous
 70
     0
  3
Solid line
 72
    65
 73
     0
 40
0.0
  0
LTYPE
  5
6F
330
5
100
AcDbSymbolTableRecord
100
AcDbLinetypeTableRecord
  2
JWW_CENTER2
 70
     0
  3
-------------  --  -------------
 72
    65
 73
     4
 40
13.54666666666667
 49
11.00666666666667
 74
     0
 49
-0.8466666666666667
 74
     0
 49
0.8466666666666667
 74
     0
 49
-0.8466666666666667
 74
     0
  0
LTYPE
  5
70
330
5
100
AcDbSymbolTableRecord
100
AcDbLinetypeTableRecord
  2
JWW_DASHED1
 70
     0
  3
-  --  --  --  --  --  --  --  -
 72
    65
 73
     2
 40
1.693333333333333
 49
0.8466666666666667
 74
     0
 49
-0.8466666666666667
 74
     0
  0
LTYPE
  5
71
330
5
100
AcDbSymbolTableRecord
100
AcDbLinetypeTableRecord
  2
JWW_CENTER1
 70
     0
  3
-----  --  ----------  --  -----
 72
    65
 73
     4
 40
6.773333333333333
 49
4.233333333333333
 74
     0
 49
-0.8466666666666667
 74
     0
 49
0.8466666666666667
 74
     0
 49
-0.8466666666666667
 74
     0
  0
LTYPE
  5
72
330
5
100
AcDbSymbolTableRecord
100
AcDbLinetypeTableRecord
  2
JWW_PHANTOM2
 70
     0
  3
------------  -  -  ------------
 72
    65
 73
     6
 40
13.54666666666667
 49
10.16
 74
     0
 49
-0.8466666666666667
 74
     0
 49
0.4233333333333333
 74
     0
 49
-0.8466666666666667
 74
     0
 49
0.4233333333333333
 74
     0
 49
-0.8466666666666667
 74
     0
  0
ENDTAB
  0
TABLE
  2
LAYER
  5
2
330
0
100
AcDbSymbolTable
 70
     9
  0
LAYER
  5
10
330
2
100
AcDbSymbolTableRecord
100
AcDbLayerTableRecord
  2
0
 70
     0
 62
     7
  6
Continuous
370
    -3
390
F
  0
LAYER
  5
73
330
2
100
AcDbSymbolTableRecord
100
AcDbLayerTableRecord
  2
2-3
 70
     0
 62
     7
  6
Continuous
370
    -3
390
F
  0
LAYER
  5
74
330
2
100
AcDbSymbolTableRecord
100
AcDbLayerTableRecord
  2
2-1
 70
     0
 62
     7
  6
Continuous
370
    -3
390
F
  0
LAYER
  5
75
330
2
100
AcDbSymbolTableRecord
100
AcDbLayerTableRecord
  2
2-0
 70
     0
 62
     7
  6
Continuous
370
    -3
390
F
  0
LAYER
  5
76
330
2
100
AcDbSymbolTableRecord
100
AcDbLayerTableRecord
  2
2-4
 70
     0
 62
     7
  6
Continuous
370
    -3
390
F
  0
LAYER
  5
77
330
2
100
AcDbSymbolTableRecord
100
AcDbLayerTableRecord
  2
2-5
 70
     0
 62
     7
  6
Continuous
370
    -3
390
F
  0
LAYER
  5
78
330
2
100
AcDbSymbolTableRecord
100
AcDbLayerTableRecord
  2
2-2
 70
     0
 62
     7
  6
Continuous
370
    -3
390
F
  0
LAYER
  5
79
330
2
100
AcDbSymbolTableRecord
100
AcDbLayerTableRecord
  2
F-0
 70
     0
 62
     7
  6
Continuous
370
    -3
390
F
  0
LAYER
  5
7A
330
2
100
AcDbSymbolTableRecord
100
AcDbLayerTableRecord
  2
F-5
 70
     0
 62
     7
  6
Continuous
370
    -3
390
F
  0
ENDTAB
  0
TABLE
  2
STYLE
  5
3
330
0
100
AcDbSymbolTable
 70
     2
  0
STYLE
  5
11
330
3
100
AcDbSymbolTableRecord
100
AcDbTextStyleTableRecord
  2
Standard
 70
     0
 40
0.0
 41
1.0
 50
0.0
 71
     0
 42
2.5
  3
txt
  4

  0
STYLE
  5
6E
330
3
100
AcDbSymbolTableRecord
100
AcDbTextStyleTableRecord
  2
ＭＳ ゴシック
 70
     0
 40
1.0
 41
1.0
 50
0.0
 71
     0
 42
2.5
  3

  4

1001
ACAD
1000
MS Gothic
1071
    32817
  0
ENDTAB
  0
TABLE
  2
VIEW
  5
6
330
0
100
AcDbSymbolTable
 70
     0
  0
ENDTAB
  0
TABLE
  2
UCS
  5
7
330
0
100
AcDbSymbolTable
 70
     0
  0
ENDTAB
  0
TABLE
  2
APPID
  5
9
330
0
100
AcDbSymbolTable
 70
     2
  0
APPID
  5
12
330
9
100
AcDbSymbolTableRecord
100
AcDbRegAppTableRecord
  2
ACAD
 70
     0
  0
APPID
  5
312
330
9
100
AcDbSymbolTableRecord
100
AcDbRegAppTableRecord
  2
ACAD_MLEADERVER
 70
     0
  0
ENDTAB
  0
TABLE
  2
DIMSTYLE
  5
A
330
0
100
AcDbSymbolTable
 70
     1
100
AcDbDimStyleTable
  0
DIMSTYLE
105
27
330
A
100
AcDbSymbolTableRecord
100
AcDbDimStyleTableRecord
  2
ISO-25
 70
     0
 41
2.5
 42
0.625
 43
3.75
 44
1.25
 73
     0
 74
     0
 77
     1
 78
     8
140
2.5
141
2.5
143
0.03937007874016
147
0.625
171
     3
172
     1
178
     0
271
     2
272
     2
274
     3
278
    44
283
     0
284
     8
340
11
  0
ENDTAB
  0
TABLE
  2
BLOCK_RECORD
  5
1
330
0
100
AcDbSymbolTable
 70
     1
  0
BLOCK_RECORD
  5
1F
330
1
100
AcDbSymbolTableRecord
100
AcDbBlockTableRecord
  2
*Model_Space
340
22
  0
BLOCK_RECORD
  5
1B
330
1
100
AcDbSymbolTableRecord
100
AcDbBlockTableRecord
  2
*Paper_Space
340
1E
  0
BLOCK_RECORD
  5
23
330
1
100
AcDbSymbolTableRecord
100
AcDbBlockTableRecord
  2
*Paper_Space0
340
26
  0
ENDTAB
  0
ENDSEC
  0
SECTION
  2
BLOCKS
  0
BLOCK
  5
20
330
1F
100
AcDbEntity
  8
0
100
AcDbBlockBegin
  2
*Model_Space
 70
     0
 10
0.0
 20
0.0
 30
0.0
  3
*Model_Space
  1

  0
ENDBLK
  5
21
330
1F
100
AcDbEntity
  8
0
100
AcDbBlockEnd
  0
BLOCK
  5
1C
330
1B
100
AcDbEntity
 67
     1
  8
0
100
AcDbBlockBegin
  2
*Paper_Space
 70
     0
 10
0.0
 20
0.0
 30
0.0
  3
*Paper_Space
  1

  0
ENDBLK
  5
1D
330
1B
100
AcDbEntity
 67
     1
  8
0
100
AcDbBlockEnd
  0
BLOCK
  5
24
330
23
100
AcDbEntity
  8
0
100
AcDbBlockBegin
  2
*Paper_Space0
 70
     0
 10
0.0
 20
0.0
 30
0.0
  3
*Paper_Space0
  1

  0
ENDBLK
  5
25
330
23
100
AcDbEntity
  8
0
100
AcDbBlockEnd
  0
ENDSEC
  0
SECTION
  2
ENTITIES
  0
LINE
  5
7B
330
1F
100
AcDbEntity
  8
2-3
  6
Continuous
 62
     4
370
     9
100
AcDbLine
 10
26.6290586411954
 20
146.5936615807638
 30
0.0
 11
26.6290586411954
 21
147.7435292829385
 31
0.0
  0
LINE
  5
7C
330
1F
100
AcDbEntity
  8
2-3
  6
Continuous
 62
     4
370
     9
100
AcDbLine
 10
25.42886804183485
 20
147.7435292829385
 30
0.0
 11
26.6290586411954
 21
147.7435292829385
 31
0.0
  0
LINE
  5
7D
330
1F
100
AcDbEntity
  8
2-3
  6
Continuous
 62
     4
370
     9
100
AcDbLine
 10
25.42886804183485
 20
146.5936615807638
 30
0.0
 11
25.42886804183485
 21
147.7435292829385
 31
0.0
  0
LINE
  5
7E
330
1F
100
AcDbEntity
  8
2-3
  6
Continuous
 62
     4
370
     9
100
AcDbLine
 10
30.99280272149218
 20
145.5936427282058
 30
0.0
 11
21.06512396153806
 21
145.5936427282058
 31
0.0
  0
LINE
  5
7F
330
1F
100
AcDbEntity
  8
2-3
  6
Continuous
 62
     4
370
     9
100
AcDbLine
 10
-68.57108435545638
 20
146.5936615807638
 30
0.0
 11
-68.57108435545638
 21
147.7435292829385
 31
0.0
  0
LINE
  5
80
330
1F
100
AcDbEntity
  8
2-3
  6
Continuous
 62
     4
370
     9
100
AcDbLine
 10
-67.37089375609585
 20
147.7435292829385
 30
0.0
 11
-68.57108435545638
 21
147.7435292829385
 31
0.0
  0
LINE
  5
81
330
1F
100
AcDbEntity
  8
2-3
  6
Continuous
 62
     4
370
     9
100
AcDbLine
 10
-67.37089375609585
 20
146.5936615807638
 30
0.0
 11
-67.37089375609585
 21
147.7435292829385
 31
0.0
  0
LINE
  5
82
330
1F
100
AcDbEntity
  8
2-3
  6
Continuous
 62
     4
370
     9
100
AcDbLine
 10
-72.93482843575319
 20
145.5936427282058
 30
0.0
 11
-63.00714967579904
 21
145.5936427282058
 31
0.0
  0
LINE
  5
83
330
1F
100
AcDbEntity
  8
2-1
  6
Continuous
 62
     6
370
     5
100
AcDbLine
 10
-59.14929419196701
 20
161.2622436869526
 30
0.0
 11
-53.47467013553753
 21
158.8442599727348
 31
0.0
  0
LINE
  5
84
330
1F
100
AcDbEntity
  8
2-1
  6
Continuous
 62
     6
370
     5
100
AcDbLine
 10
-62.16870301816905
 20
149.9936241937848
 30
0.0
 11
-56.04530230422267
 21
149.2504340911892
 31
0.0
  0
LINE
  5
85
330
1F
100
AcDbEntity
  8
2-1
  6
Continuous
 62
     6
370
     5
100
AcDbLine
 10
-45.90002425727225
 20
178.1718919783453
 30
0.0
 11
-42.19471224272564
 21
173.2404055319205
 31
0.0
  0
LINE
  5
86
330
1F
100
AcDbEntity
  8
2-1
  6
Continuous
 62
     6
370
     5
100
AcDbLine
 10
-54.14926991929868
 20
169.9226288187886
 30
0.0
 11
-49.21783596546484
 21
166.2172818091813
 31
0.0
  0
LINE
  5
87
330
1F
100
AcDbEntity
  8
2-1
  6
Continuous
 62
     6
370
     5
100
AcDbLine
 10
-25.97107212485942
 20
186.1913075796854
 30
0.0
 11
-25.22788202226382
 21
180.0678718706783
 31
0.0
  0
LINE
  5
88
330
1F
100
AcDbEntity
  8
2-1
  6
Continuous
 62
     6
370
     5
100
AcDbLine
 10
-37.23972661308788
 20
183.1718462608924
 30
0.0
 11
-34.82163791368816
 21
177.4972397019932
 31
0.0
  0
LINE
  5
89
330
1F
100
AcDbEntity
  8
2-1
  6
Continuous
 62
     6
370
     5
100
AcDbLine
 10
-4.702334096233688
 20
183.1718462608924
 30
0.0
 11
-7.120422795633422
 21
177.4972397019932
 31
0.0
  0
LINE
  5
8A
330
1F
100
AcDbEntity
  8
2-1
  6
Continuous
 62
     6
370
     5
100
AcDbLine
 10
-15.97098858446218
 20
186.1913075796854
 30
0.0
 11
-16.71421368211843
 21
180.0678718706783
 31
0.0
  0
LINE
  5
8B
330
1F
100
AcDbEntity
  8
2-1
  6
Continuous
 62
     6
370
     5
100
AcDbLine
 10
12.20720920997707
 20
169.9226288187886
 30
0.0
 11
7.275775256143227
 21
166.2172818091813
 31
0.0
  0
LINE
  5
8C
330
1F
100
AcDbEntity
  8
2-1
  6
Continuous
 62
     6
370
     5
100
AcDbLine
 10
3.95796354795068
 20
178.1718919783453
 30
0.0
 11
0.2526515334039985
 21
173.2404055319205
 31
0.0
  0
LINE
  5
8D
330
1F
100
AcDbEntity
  8
2-1
  6
Continuous
 62
     6
370
     5
100
AcDbLine
 10
20.22664230884744
 20
149.9937291789666
 30
0.0
 11
14.1032765899617
 21
149.2505215788408
 31
0.0
  0
LINE
  5
8E
330
1F
100
AcDbEntity
  8
2-1
  6
Continuous
 62
     6
370
     5
100
AcDbLine
 10
17.2072334826454
 20
161.2623311746042
 30
0.0
 11
11.5325744311553
 21
158.8442599727348
 31
0.0
  0
LINE
  5
8F
330
1F
100
AcDbEntity
  8
2-1
  6
Continuous
 62
     6
370
     5
100
AcDbLine
 10
-33.92397961347248
 20
154.7645707995703
 30
0.0
 11
-38.96613793913911
 21
159.8066941301763
 31
0.0
  0
LINE
  5
90
330
1F
100
AcDbEntity
  8
2-1
  6
Continuous
 62
     6
370
     5
100
AcDbLine
 10
-44.16986845973366
 20
147.2435898467809
 30
0.0
 11
-37.03927490580026
 21
147.2435898467809
 31
0.0
  0
LINE
  5
91
330
1F
100
AcDbEntity
  8
2-1
  6
Continuous
 62
     6
370
     5
100
AcDbLine
 10
-33.21679942826497
 20
155.4716634971262
 30
0.0
 11
-38.25892275887096
 21
160.5137868277322
 31
0.0
  0
LINE
  5
92
330
1F
100
AcDbEntity
  8
2-1
  6
Continuous
 62
     6
370
     5
100
AcDbLine
 10
-44.16986845973366
 20
146.2435359991623
 30
0.0
 11
-37.03927490580026
 21
146.2435359991623
 31
0.0
  0
LINE
  5
93
330
1F
100
AcDbEntity
  8
2-1
  6
Continuous
 62
     6
370
     5
100
AcDbLine
 10
-34.91213514047689
 20
152.9243030437599
 30
0.0
 11
-40.08814957305262
 21
158.1003524713963
 31
0.0
  0
LINE
  5
94
330
1F
100
AcDbEntity
  8
2-1
  6
Continuous
 62
     6
370
     5
100
AcDbLine
 10
-23.22102028032517
 20
161.0618094771953
 30
0.0
 11
-23.22102028032517
 21
168.1924380261893
 31
0.0
  0
LINE
  5
95
330
1F
100
AcDbEntity
  8
2-1
  6
Continuous
 62
     6
370
     5
100
AcDbLine
 10
-35.78410706619027
 20
162.9886725105342
 30
0.0
 11
-30.74198373558428
 21
157.9465491799282
 31
0.0
  0
LINE
  5
96
330
1F
100
AcDbEntity
  8
2-1
  6
Continuous
 62
     6
370
     5
100
AcDbLine
 10
-22.22096643270662
 20
161.0618094771953
 30
0.0
 11
-22.22096643270662
 21
168.1924380261893
 31
0.0
  0
LINE
  5
97
330
1F
100
AcDbEntity
  8
2-1
  6
Continuous
 62
     6
370
     5
100
AcDbLine
 10
-36.49121726127654
 20
162.2815973105085
 30
0.0
 11
-31.44909393067055
 21
157.2394564823722
 31
0.0
  0
LINE
  5
98
330
1F
100
AcDbEntity
  8
2-1
  6
Continuous
 62
     6
370
     5
100
AcDbLine
 10
-25.22102299038036
 20
160.4592470257406
 30
0.0
 11
-25.22102299038036
 21
167.7793213354543
 31
0.0
  0
LINE
  5
99
330
1F
100
AcDbEntity
  8
2-1
  6
Continuous
 62
     6
370
     5
100
AcDbLine
 10
-11.20011196879795
 20
157.9465491799282
 30
0.0
 11
-6.157988638191961
 21
162.9886725105342
 31
0.0
  0
LINE
  5
9A
330
1F
100
AcDbEntity
  8
2-1
  6
Continuous
 62
     6
370
     5
100
AcDbLine
 10
-18.72104042899644
 20
168.1924380261893
 30
0.0
 11
-18.72104042899644
 21
161.0618094771953
 31
0.0
  0
LINE
  5
9B
330
1F
100
AcDbEntity
  8
2-1
  6
Continuous
 62
     6
370
     5
100
AcDbLine
 10
-10.49296677865106
 20
157.2393514971903
 30
0.0
 11
-5.450843448045072
 21
162.2814923253267
 31
0.0
  0
LINE
  5
9C
330
1F
100
AcDbEntity
  8
2-1
  6
Continuous
 62
     6
370
     5
100
AcDbLine
 10
-19.72105928155434
 20
168.1924380261893
 30
0.0
 11
-19.72105928155434
 21
161.0618094771953
 31
0.0
  0
LINE
  5
9D
330
1F
100
AcDbEntity
  8
2-1
  6
Continuous
 62
     6
370
     5
100
AcDbLine
 10
-13.04032723201737
 20
158.934617219281
 30
0.0
 11
-7.864277804381054
 21
164.1106666469174
 31
0.0
  0
LINE
  5
9E
330
1F
100
AcDbEntity
  8
2-1
  6
Continuous
 62
     6
370
     5
100
AcDbLine
 10
-4.90282079858201
 20
147.2435898467809
 30
0.0
 11
2.227842745472689
 21
147.2435898467809
 31
0.0
  0
LINE
  5
9F
330
1F
100
AcDbEntity
  8
2-1
  6
Continuous
 62
     6
370
     5
100
AcDbLine
 10
-2.975957765243145
 20
159.8066941301763
 30
0.0
 11
-8.018081095849135
 21
154.7645707995703
 31
0.0
  0
LINE
  5
A0
330
1F
100
AcDbEntity
  8
2-1
  6
Continuous
 62
     6
370
     5
100
AcDbLine
 10
-4.902855793642626
 20
146.2435359991623
 30
0.0
 11
2.227807750412016
 21
146.2435359991623
 31
0.0
  0
LINE
  5
A1
330
1F
100
AcDbEntity
  8
2-1
  6
Continuous
 62
     6
370
     5
100
AcDbLine
 10
-3.683102955390034
 20
160.5138918129141
 30
0.0
 11
-8.725226285996024
 21
155.4717509847778
 31
0.0
  0
LINE
  5
A2
330
1F
100
AcDbEntity
  8
2-1
  6
Continuous
 62
     6
370
     5
100
AcDbLine
 10
-5.50533075744573
 20
149.243592556836
 30
0.0
 11
1.814691059676935
 21
149.243592556836
 31
0.0
  0
LINE
  5
A3
330
1F
100
AcDbEntity
  8
2-1
  6
Continuous
 62
     6
370
     5
100
AcDbLine
 10
-26.99180805331022
 20
149.4936147675058
 30
0.0
 11
-14.95021766095078
 21
149.4936147675058
 31
0.0
  0
LINE
  5
A4
330
1F
100
AcDbEntity
  8
2-1
  6
Continuous
 62
     6
370
     5
100
AcDbLine
 10
28.77831528483683
 20
149.9936241937848
 30
0.0
 11
29.87184093939761
 21
148.9936753313481
 31
0.0
  0
LINE
  5
A5
330
1F
100
AcDbEntity
  8
2-1
  6
Continuous
 62
     6
370
     5
100
AcDbLine
 10
28.01878248892707
 20
154.9935784763319
 30
0.0
 11
28.82863818202248
 21
155.9935623338291
 31
0.0
  0
LINE
  5
A6
330
1F
100
AcDbEntity
  8
2-1
  6
Continuous
 62
     6
370
     5
100
AcDbLine
 10
19.3061322340405
 20
154.9935784763319
 30
0.0
 11
28.01878248892707
 21
154.9935784763319
 31
0.0
  0
LINE
  5
A7
330
1F
100
AcDbEntity
  8
2-1
  6
Continuous
 62
     6
370
     5
100
AcDbLine
 10
19.04454415583252
 20
155.9935623338291
 30
0.0
 11
28.82863818202248
 21
155.9935623338291
 31
0.0
  0
LINE
  5
A8
330
1F
100
AcDbEntity
  8
2-1
  6
Continuous
 62
     6
370
     5
100
AcDbLine
 10
-70.72037599415842
 20
149.9936241937848
 30
0.0
 11
-71.81390164871922
 21
148.9936753313481
 31
0.0
  0
LINE
  5
A9
330
1F
100
AcDbEntity
  8
2-1
  6
Continuous
 62
     6
370
     5
100
AcDbLine
 10
-69.96084319824868
 20
154.9935784763319
 30
0.0
 11
-70.77066389628348
 21
155.9935623338291
 31
0.0
  0
LINE
  5
AA
330
1F
100
AcDbEntity
  8
2-1
  6
Continuous
 62
     6
370
     5
100
AcDbLine
 10
-61.24815794830146
 20
154.9935784763319
 30
0.0
 11
-69.96084319824868
 21
154.9935784763319
 31
0.0
  0
LINE
  5
AB
330
1F
100
AcDbEntity
  8
2-1
  6
Continuous
 62
     6
370
     5
100
AcDbLine
 10
-60.98663986021477
 20
155.9935623338291
 30
0.0
 11
-70.77066389628348
 21
155.9935623338291
 31
0.0
  0
LINE
  5
AC
330
1F
100
AcDbEntity
  8
2-1
  6
Continuous
 62
     6
370
     5
100
AcDbLine
 10
26.02896334151513
 20
149.9936241937848
 30
0.0
 11
28.77831528483683
 21
149.9936241937848
 31
0.0
  0
LINE
  5
AD
330
1F
100
AcDbEntity
  8
2-1
  6
Continuous
 62
     6
370
     5
100
AcDbLine
 10
29.02880992882513
 20
148.9936753313481
 30
0.0
 11
29.87184093939761
 21
148.9936753313481
 31
0.0
  0
LINE
  5
AE
330
1F
100
AcDbEntity
  8
2-1
  6
Continuous
 62
     6
370
     5
100
AcDbLine
 10
-67.97098905577613
 20
149.9936241937848
 30
0.0
 11
-70.72037599415842
 21
149.9936241937848
 31
0.0
  0
LINE
  5
AF
330
1F
100
AcDbEntity
  8
2-1
  6
Continuous
 62
     6
370
     5
100
AcDbLine
 10
-70.97081814555577
 20
148.9936753313481
 30
0.0
 11
-71.81390164871922
 21
148.9936753313481
 31
0.0
  0
LINE
  5
B0
330
1F
100
AcDbEntity
  8
2-0
  6
Continuous
 62
     3
370
     9
100
AcDbLine
 10
-4.005267483548199
 20
195.7321509394374
 30
0.0
 11
-3.334622141638178
 21
198.6704062200388
 31
0.0
  0
LINE
  5
B1
330
1F
100
AcDbEntity
  8
2-0
  6
Continuous
 62
     3
370
     9
100
AcDbLine
 10
8.120066088898408
 20
189.8929801079265
 30
0.0
 11
9.999125869416911
 21
192.2491275500114
 31
0.0
  0
LINE
  5
B2
330
1F
100
AcDbEntity
  8
2-0
  6
Continuous
 62
     3
370
     9
100
AcDbLine
 10
-3.334622141638178
 20
198.6704062200388
 30
0.0
 11
-5.509635149903191
 21
200.3757680171212
 31
0.0
  0
LINE
  5
B3
330
1F
100
AcDbEntity
  8
2-0
  6
Continuous
 62
     3
370
     9
100
AcDbLine
 10
9.999125869416911
 20
192.2491275500114
 30
0.0
 11
12.68856626894036
 21
191.6119549835938
 31
0.0
  0
LINE
  5
B4
330
1F
100
AcDbEntity
  8
2-0
  6
Continuous
 62
     3
370
     9
100
AcDbLine
 10
16.32931239662492
 20
183.3462791406017
 30
0.0
 11
18.20833718208281
 21
185.7025490653989
 31
0.0
  0
LINE
  5
B5
330
1F
100
AcDbEntity
  8
2-0
  6
Continuous
 62
     3
370
     9
100
AcDbLine
 10
24.72028805420218
 20
172.8242617684409
 30
0.0
 11
27.43565979365224
 21
174.1320796767685
 31
0.0
  0
LINE
  5
B6
330
1F
100
AcDbEntity
  8
2-0
  6
Continuous
 62
     3
370
     9
100
AcDbLine
 10
18.20833718208281
 20
185.7025490653989
 30
0.0
 11
16.98868932901213
 21
188.1827364998862
 31
0.0
  0
LINE
  5
B7
330
1F
100
AcDbEntity
  8
2-0
  6
Continuous
 62
     3
370
     9
100
AcDbLine
 10
27.43565979365224
 20
174.1320796767685
 30
0.0
 11
29.58225681268579
 21
172.3909004351315
 31
0.0
  0
LINE
  5
B8
330
1F
100
AcDbEntity
  8
2-0
  6
JWW_CENTER2
 62
     3
370
     9
100
AcDbLine
 10
26.02899833657574
 20
144.9935474285255
 30
0.0
 11
26.02899833657575
 21
154.8866160735168
 31
0.0
  0
LINE
  5
B9
330
1F
100
AcDbEntity
  8
2-0
  6
Continuous
 62
     3
370
     9
100
AcDbLine
 10
25.09882962503497
 20
170.2317401893318
 30
0.0
 11
29.58225681268579
 21
172.3909004351315
 31
0.0
  0
LINE
  5
BA
330
1F
100
AcDbEntity
  8
2-0
  6
Continuous
 62
     3
370
     9
100
AcDbLine
 10
13.88599225851107
 20
184.2922306244866
 30
0.0
 11
16.98868932901213
 21
188.1827364998862
 31
0.0
  0
LINE
  5
BB
330
1F
100
AcDbEntity
  8
2-0
  6
Continuous
 62
     3
370
     9
100
AcDbLine
 10
9.585939188560598
 20
187.7213441230123
 30
0.0
 11
12.68856626894036
 21
191.6119549835938
 31
0.0
  0
LINE
  5
BC
330
1F
100
AcDbEntity
  8
2-0
  6
Continuous
 62
     3
370
     9
100
AcDbLine
 10
8.120066088898408
 20
189.8929801079265
 30
0.0
 11
9.585939188560598
 21
187.7213441230123
 31
0.0
  0
LINE
  5
BD
330
1F
100
AcDbEntity
  8
2-0
  6
Continuous
 62
     3
370
     9
100
AcDbLine
 10
13.88599225851107
 20
184.2922306244866
 30
0.0
 11
16.3292774015643
 21
183.3463141356624
 31
0.0
  0
LINE
  5
BE
330
1F
100
AcDbEntity
  8
2-0
  6
Continuous
 62
     3
370
     9
100
AcDbLine
 10
-6.617018848473366
 20
195.5242802792962
 30
0.0
 11
-5.509635149903191
 21
200.3757680171212
 31
0.0
  0
LINE
  5
BF
330
1F
100
AcDbEntity
  8
2-0
  6
Continuous
 62
     3
370
     9
100
AcDbLine
 10
-6.617018848473366
 20
195.5242802792962
 30
0.0
 11
-4.005267483548199
 21
195.7321509394374
 31
0.0
  0
LINE
  5
C0
330
1F
100
AcDbEntity
  8
2-0
  6
Continuous
 62
     3
370
     9
100
AcDbLine
 10
24.72028805420218
 20
172.8243317585622
 30
0.0
 11
25.09882962503497
 21
170.2317401893318
 31
0.0
  0
LINE
  5
C1
330
1F
100
AcDbEntity
  8
2-0
  6
Continuous
 62
     3
370
     9
100
AcDbLine
 10
-14.24198762392432
 20
198.068666152509
 30
0.0
 11
-13.57134228201436
 21
201.0067464578073
 31
0.0
  0
LINE
  5
C2
330
1F
100
AcDbEntity
  8
2-0
  6
Continuous
 62
     3
370
     9
100
AcDbLine
 10
-28.37071842730724
 20
201.0068514429892
 30
0.0
 11
-31.07023740429203
 21
201.5996152774675
 31
0.0
  0
LINE
  5
C3
330
1F
100
AcDbEntity
  8
2-0
  6
Continuous
 62
     3
370
     9
100
AcDbLine
 10
-13.57134228201436
 20
201.0067464578073
 30
0.0
 11
-10.87178830996895
 21
201.5995977799372
 31
0.0
  0
LINE
  5
C4
330
1F
100
AcDbEntity
  8
2-0
  6
Continuous
 62
     3
370
     9
100
AcDbLine
 10
-11.9790320282966
 20
196.7481275396425
 30
0.0
 11
-10.87178830996895
 21
201.5995977799372
 31
0.0
  0
LINE
  5
C5
330
1F
100
AcDbEntity
  8
2-0
  6
Continuous
 62
     3
370
     9
100
AcDbLine
 10
-14.24198762392432
 20
198.068666152509
 30
0.0
 11
-11.9790320282966
 21
196.7481275396425
 31
0.0
  0
LINE
  5
C6
330
1F
100
AcDbEntity
  8
2-0
  6
Continuous
 62
     3
370
     9
100
AcDbLine
 10
-29.9629586909037
 20
196.7481275396425
 30
0.0
 11
-31.07023740429203
 21
201.5996152774675
 31
0.0
  0
LINE
  5
C7
330
1F
100
AcDbEntity
  8
2-0
  6
Continuous
 62
     3
370
     9
100
AcDbLine
 10
-29.9629586909037
 20
196.7481275396425
 30
0.0
 11
-27.70000309527599
 21
198.0685961623877
 31
0.0
  0
LINE
  5
C8
330
1F
100
AcDbEntity
  8
2-0
  6
Continuous
 62
     3
370
     9
100
AcDbLine
 10
-50.06205680809875
 20
189.8928751227446
 30
0.0
 11
-51.94118657873854
 21
192.2491625450721
 31
0.0
  0
LINE
  5
C9
330
1F
100
AcDbEntity
  8
2-0
  6
Continuous
 62
     3
370
     9
100
AcDbLine
 10
-37.9367932257734
 20
195.7321509394374
 30
0.0
 11
-38.60736857756213
 21
198.6702662397963
 31
0.0
  0
LINE
  5
CA
330
1F
100
AcDbEntity
  8
2-0
  6
Continuous
 62
     3
370
     9
100
AcDbLine
 10
-51.94118657873854
 20
192.2491625450721
 30
0.0
 11
-54.63059198320131
 21
191.6119199885333
 31
0.0
  0
LINE
  5
CB
330
1F
100
AcDbEntity
  8
2-0
  6
Continuous
 62
     3
370
     9
100
AcDbLine
 10
-38.60736857756213
 20
198.6702662397963
 30
0.0
 11
-36.43239056435779
 21
200.3757155245303
 31
0.0
  0
LINE
  5
CC
330
1F
100
AcDbEntity
  8
2-0
  6
Continuous
 62
     3
370
     9
100
AcDbLine
 10
-35.32500686578759
 20
195.5242802792962
 30
0.0
 11
-36.43239056435779
 21
200.3757155245303
 31
0.0
  0
LINE
  5
CD
330
1F
100
AcDbEntity
  8
2-0
  6
Continuous
 62
     3
370
     9
100
AcDbLine
 10
-37.9367932257734
 20
195.7321509394374
 30
0.0
 11
-35.32500686578759
 21
195.5242802792962
 31
0.0
  0
LINE
  5
CE
330
1F
100
AcDbEntity
  8
2-0
  6
Continuous
 62
     3
370
     9
100
AcDbLine
 10
-51.52796490282155
 20
187.7213091279517
 30
0.0
 11
-54.63059198320131
 21
191.6119199885333
 31
0.0
  0
LINE
  5
CF
330
1F
100
AcDbEntity
  8
2-0
  6
Continuous
 62
     3
370
     9
100
AcDbLine
 10
-51.52796490282155
 20
187.7213091279517
 30
0.0
 11
-50.06205680809875
 21
189.8928751227446
 31
0.0
  0
LINE
  5
D0
330
1F
100
AcDbEntity
  8
2-0
  6
Continuous
 62
     3
370
     9
100
AcDbLine
 10
-66.66224377834189
 20
172.8242617684409
 30
0.0
 11
-69.37765051285263
 21
174.1319047014653
 31
0.0
  0
LINE
  5
D1
330
1F
100
AcDbEntity
  8
2-0
  6
Continuous
 62
     3
370
     9
100
AcDbLine
 10
-58.27133811088591
 20
183.3462441455411
 30
0.0
 11
-60.15029290622254
 21
185.702444080217
 31
0.0
  0
LINE
  5
D2
330
1F
100
AcDbEntity
  8
2-0
  6
Continuous
 62
     3
370
     9
100
AcDbLine
 10
-69.37765051285263
 20
174.1319047014653
 30
0.0
 11
-71.52424753188618
 21
172.3909004351315
 31
0.0
  0
LINE
  5
D3
330
1F
100
AcDbEntity
  8
2-0
  6
Continuous
 62
     3
370
     9
100
AcDbLine
 10
-60.15029290622254
 20
185.702444080217
 30
0.0
 11
-58.93064505315185
 21
188.1827015048256
 31
0.0
  0
LINE
  5
D4
330
1F
100
AcDbEntity
  8
2-0
  6
Continuous
 62
     3
370
     9
100
AcDbLine
 10
-55.82798297771145
 20
184.2921606343653
 30
0.0
 11
-58.93064505315185
 21
188.1827015048256
 31
0.0
  0
LINE
  5
D5
330
1F
100
AcDbEntity
  8
2-0
  6
Continuous
 62
     3
370
     9
100
AcDbLine
 10
-58.27133811088591
 20
183.3462441455411
 30
0.0
 11
-55.82798297771145
 21
184.2921606343653
 31
0.0
  0
LINE
  5
D6
330
1F
100
AcDbEntity
  8
2-0
  6
Continuous
 62
     3
370
     9
100
AcDbLine
 10
-67.04078534917471
 20
170.2317751843925
 30
0.0
 11
-71.52424753188618
 21
172.3909004351315
 31
0.0
  0
LINE
  5
D7
330
1F
100
AcDbEntity
  8
2-0
  6
Continuous
 62
     3
370
     9
100
AcDbLine
 10
-67.04078534917471
 20
170.2317751843925
 30
0.0
 11
-66.66224377834189
 21
172.8242617684409
 31
0.0
  0
LINE
  5
D8
330
1F
100
AcDbEntity
  8
2-0
  6
Continuous
 62
     3
370
     9
100
AcDbLine
 10
-74.21270806971194
 20
150.2434714291514
 30
0.0
 11
-77.22655268127383
 21
150.2434364340908
 31
0.0
  0
LINE
  5
D9
330
1F
100
AcDbEntity
  8
2-0
  6
Continuous
 62
     3
370
     9
100
AcDbLine
 10
-71.21811074149645
 20
163.364099520971
 30
0.0
 11
-73.9333075056434
 21
164.671724956465
 31
0.0
  0
LINE
  5
DA
330
1F
100
AcDbEntity
  8
2-0
  6
Continuous
 62
     3
370
     9
100
AcDbLine
 10
-77.22655268127383
 20
150.2434364340908
 30
0.0
 11
-78.40518632328639
 21
147.7434592928173
 31
0.0
  0
LINE
  5
DB
330
1F
100
AcDbEntity
  8
2-0
  6
Continuous
 62
     3
370
     9
100
AcDbLine
 10
-73.9333075056434
 20
164.671724956465
 30
0.0
 11
-73.91056071623402
 21
167.4355123622965
 31
0.0
  0
LINE
  5
DC
330
1F
100
AcDbEntity
  8
2-0
  6
Continuous
 62
     3
370
     9
100
AcDbLine
 10
-69.4271335285832
 20
165.2764745992091
 30
0.0
 11
-73.91056071623402
 21
167.4355123622965
 31
0.0
  0
LINE
  5
DD
330
1F
100
AcDbEntity
  8
2-0
  6
Continuous
 62
     3
370
     9
100
AcDbLine
 10
-71.21811074149645
 20
163.364099520971
 30
0.0
 11
-69.4271335285832
 21
165.2764745992091
 31
0.0
  0
LINE
  5
DE
330
1F
100
AcDbEntity
  8
2-0
  6
Continuous
 62
     3
370
     9
100
AcDbLine
 10
-73.4288887017251
 20
147.7434592928173
 30
0.0
 11
-78.40518632328639
 21
147.7434592928173
 31
0.0
  0
LINE
  5
DF
330
1F
100
AcDbEntity
  8
2-0
  6
Continuous
 62
     3
370
     9
100
AcDbLine
 10
-73.4288887017251
 20
147.7434592928173
 30
0.0
 11
-74.21270806971194
 21
150.2434714291514
 31
0.0
  0
LINE
  5
E0
330
1F
100
AcDbEntity
  8
2-0
  6
Continuous
 62
     3
370
     9
100
AcDbLine
 10
32.27068235545097
 20
150.2434714291514
 30
0.0
 11
35.28452696701283
 21
150.2434364340908
 31
0.0
  0
LINE
  5
E1
330
1F
100
AcDbEntity
  8
2-0
  6
Continuous
 62
     3
370
     9
100
AcDbLine
 10
29.27608502723547
 20
163.364099520971
 30
0.0
 11
31.9912817913824
 21
164.671724956465
 31
0.0
  0
LINE
  5
E2
330
1F
100
AcDbEntity
  8
2-0
  6
Continuous
 62
     3
370
     9
100
AcDbLine
 10
35.28452696701283
 20
150.2434364340908
 30
0.0
 11
36.46316060902541
 21
147.7434592928173
 31
0.0
  0
LINE
  5
E3
330
1F
100
AcDbEntity
  8
2-0
  6
Continuous
 62
     3
370
     9
100
AcDbLine
 10
31.9912817913824
 20
164.671724956465
 30
0.0
 11
31.96853500197302
 21
167.4355123622965
 31
0.0
  0
LINE
  5
E4
330
1F
100
AcDbEntity
  8
2-0
  6
Continuous
 62
     3
370
     9
100
AcDbLine
 10
27.4851078143222
 20
165.2764745992091
 30
0.0
 11
31.96853500197302
 21
167.4355123622965
 31
0.0
  0
LINE
  5
E5
330
1F
100
AcDbEntity
  8
2-0
  6
Continuous
 62
     3
370
     9
100
AcDbLine
 10
29.27608502723547
 20
163.364099520971
 30
0.0
 11
27.4851078143222
 21
165.2764745992091
 31
0.0
  0
LINE
  5
E6
330
1F
100
AcDbEntity
  8
2-0
  6
Continuous
 62
     3
370
     9
100
AcDbLine
 10
31.48689798252474
 20
147.7434592928173
 30
0.0
 11
36.46316060902541
 21
147.7434592928173
 31
0.0
  0
LINE
  5
E7
330
1F
100
AcDbEntity
  8
2-0
  6
Continuous
 62
     3
370
     9
100
AcDbLine
 10
31.48689798252474
 20
147.7434592928173
 30
0.0
 11
32.27068235545097
 21
150.2434714291514
 31
0.0
  0
LINE
  5
E8
330
1F
100
AcDbEntity
  8
2-0
  6
Continuous
 62
     3
370
     9
100
AcDbLine
 10
-27.70000309527599
 20
198.0685961623877
 30
0.0
 11
-28.37071842730724
 21
201.0068514429892
 31
0.0
  0
LINE
  5
E9
330
1F
100
AcDbEntity
  8
2-0
  6
JWW_CENTER2
 62
     3
370
     9
100
AcDbLine
 10
-67.97102405083675
 20
144.9935474285255
 30
0.0
 11
-67.97102405083675
 21
154.8866160735168
 31
0.0
  0
ARC
  5
EA
330
1F
100
AcDbEntity
  8
2-3
  6
Continuous
 62
     4
370
     9
100
AcDbCircle
 10
24.42891917939824
 20
146.5936615807638
 30
0.0
 40
0.9999999880330442
100
AcDbArc
 50
270.0
 51
0.0
  0
ARC
  5
EB
330
1F
100
AcDbEntity
  8
2-3
  6
Continuous
 62
     4
370
     9
100
AcDbCircle
 10
27.62914748387459
 20
146.5936615807638
 30
0.0
 40
0.9999999880330442
100
AcDbArc
 50
180.0
 51
270.0
  0
ARC
  5
EC
330
1F
100
AcDbEntity
  8
2-3
  6
Continuous
 62
     4
370
     9
100
AcDbCircle
 10
26.02896334151512
 20
144.9935474285255
 30
0.0
 40
5.000000213564133
100
AcDbArc
 50
0.0
 51
180.0
  0
ARC
  5
ED
330
1F
100
AcDbEntity
  8
2-3
  6
Continuous
 62
     4
370
     9
100
AcDbCircle
 10
-66.37094489365921
 20
146.5936615807638
 30
0.0
 40
0.9999999880330442
100
AcDbArc
 50
180.0
 51
270.0
  0
ARC
  5
EE
330
1F
100
AcDbEntity
  8
2-3
  6
Continuous
 62
     4
370
     9
100
AcDbCircle
 10
-69.57117319813557
 20
146.5936615807638
 30
0.0
 40
0.9999999880330442
100
AcDbArc
 50
270.0
 51
0.0
  0
ARC
  5
EF
330
1F
100
AcDbEntity
  8
2-3
  6
Continuous
 62
     4
370
     9
100
AcDbCircle
 10
-67.97098905577613
 20
144.9935474285255
 30
0.0
 40
5.000000213564133
100
AcDbArc
 50
0.0
 51
180.0
  0
ARC
  5
F0
330
1F
100
AcDbEntity
  8
2-1
  6
Continuous
 62
     6
370
     5
100
AcDbCircle
 10
-20.97101285713051
 20
144.9935474285255
 30
0.0
 40
41.49999936667188
100
AcDbArc
 50
0.0
 51
180.0
  0
ARC
  5
F1
330
1F
100
AcDbEntity
  8
2-1
  6
Continuous
 62
     6
370
     5
100
AcDbCircle
 10
-20.97101285713051
 20
144.9935474285255
 30
0.0
 40
33.86347565963921
100
AcDbArc
 50
159.3509979248047
 51
170.6490631103516
  0
ARC
  5
F2
330
1F
100
AcDbEntity
  8
2-1
  6
Continuous
 62
     6
370
     5
100
AcDbCircle
 10
-55.86458781113026
 20
150.7395264135793
 30
0.0
 40
1.499999982049566
100
AcDbArc
 50
263.0798950195312
 51
350.6487731933594
  0
ARC
  5
F3
330
1F
100
AcDbEntity
  8
2-1
  6
Continuous
 62
     6
370
     5
100
AcDbCircle
 10
-54.06265714423986
 20
157.4642472543279
 30
0.0
 40
1.499999982049566
100
AcDbArc
 50
339.3503723144532
 51
66.92005920410156
  0
ARC
  5
F4
330
1F
100
AcDbEntity
  8
2-1
  6
Continuous
 62
     6
370
     5
100
AcDbCircle
 10
-20.97101285713051
 20
144.9935474285255
 30
0.0
 40
33.86347565963921
100
AcDbArc
 50
129.3509979248047
 51
140.6490631103516
  0
ARC
  5
F5
330
1F
100
AcDbEntity
  8
2-1
  6
Continuous
 62
     6
370
     5
100
AcDbCircle
 10
-48.31678314436805
 20
167.4164750493139
 30
0.0
 40
1.499999982049566
100
AcDbArc
 50
233.0798950195312
 51
320.6487731933594
  0
ARC
  5
F6
330
1F
100
AcDbEntity
  8
2-1
  6
Continuous
 62
     6
370
     5
100
AcDbCircle
 10
-43.3939229803885
 20
172.3393352132935
 30
0.0
 40
1.499999982049566
100
AcDbArc
 50
309.3503723144531
 51
36.92005920410156
  0
ARC
  5
F7
330
1F
100
AcDbEntity
  8
2-1
  6
Continuous
 62
     6
370
     5
100
AcDbCircle
 10
-20.97101285713051
 20
144.9935474285255
 30
0.0
 40
33.86347565963921
100
AcDbArc
 50
99.35099792480469
 51
110.6490631103515
  0
ARC
  5
F8
330
1F
100
AcDbEntity
  8
2-1
  6
Continuous
 62
     6
370
     5
100
AcDbCircle
 10
-33.44167768787224
 20
178.0852792032865
 30
0.0
 40
1.499999982049566
100
AcDbArc
 50
203.0798950195312
 51
290.6487731933594
  0
ARC
  5
F9
330
1F
100
AcDbEntity
  8
2-1
  6
Continuous
 62
     6
370
     5
100
AcDbCircle
 10
-26.71695684712355
 20
179.8872448652375
 30
0.0
 40
1.499999982049566
100
AcDbArc
 50
279.3503723144531
 51
6.920059204101557
  0
ARC
  5
FA
330
1F
100
AcDbEntity
  8
2-1
  6
Continuous
 62
     6
370
     5
100
AcDbCircle
 10
-20.97101285713051
 20
144.9935474285255
 30
0.0
 40
33.86347565963921
100
AcDbArc
 50
69.3509979248047
 51
80.64906311035158
  0
ARC
  5
FB
330
1F
100
AcDbEntity
  8
2-1
  6
Continuous
 62
     6
370
     5
100
AcDbCircle
 10
-15.22510386219806
 20
179.8872448652375
 30
0.0
 40
1.499999982049566
100
AcDbArc
 50
173.0798950195313
 51
260.6487731933593
  0
ARC
  5
FC
330
1F
100
AcDbEntity
  8
2-1
  6
Continuous
 62
     6
370
     5
100
AcDbCircle
 10
-8.500348026388727
 20
178.0852792032865
 30
0.0
 40
1.499999982049566
100
AcDbArc
 50
249.3503723144532
 51
336.9200592041016
  0
ARC
  5
FD
330
1F
100
AcDbEntity
  8
2-1
  6
Continuous
 62
     6
370
     5
100
AcDbCircle
 10
-20.97101285713051
 20
144.9935474285255
 30
0.0
 40
33.86347565963921
100
AcDbArc
 50
39.35099792480469
 51
50.64906311035156
  0
ARC
  5
FE
330
1F
100
AcDbEntity
  8
2-1
  6
Continuous
 62
     6
370
     5
100
AcDbCircle
 10
1.451827276006277
 20
172.3393352132935
 30
0.0
 40
1.499999982049566
100
AcDbArc
 50
143.0798950195312
 51
230.6487731933594
  0
ARC
  5
FF
330
1F
100
AcDbEntity
  8
2-1
  6
Continuous
 62
     6
370
     5
100
AcDbCircle
 10
6.374757430107088
 20
167.4165625369654
 30
0.0
 40
1.499999982049566
100
AcDbArc
 50
219.3503723144532
 51
306.9200592041016
  0
ARC
  5
100
330
1F
100
AcDbEntity
  8
2-1
  6
Continuous
 62
     6
370
     5
100
AcDbCircle
 10
-20.97101285713051
 20
144.9935474285255
 30
0.0
 40
33.86347565963921
100
AcDbArc
 50
9.350997924804696
 51
20.64906311035157
  0
ARC
  5
101
330
1F
100
AcDbEntity
  8
2-1
  6
Continuous
 62
     6
370
     5
100
AcDbCircle
 10
12.12059643491825
 20
157.4642472543279
 30
0.0
 40
1.499999982049566
100
AcDbArc
 50
113.0798950195312
 51
200.6487731933594
  0
ARC
  5
102
330
1F
100
AcDbEntity
  8
2-1
  6
Continuous
 62
     6
370
     5
100
AcDbCircle
 10
13.92256209686929
 20
150.7395264135793
 30
0.0
 40
1.499999982049566
100
AcDbArc
 50
189.3503723144531
 51
276.9200592041016
  0
ARC
  5
103
330
1F
100
AcDbEntity
  8
2-1
  6
Continuous
 62
     6
370
     5
100
AcDbCircle
 10
-20.97101285713051
 20
144.9935474285255
 30
0.0
 40
14.99999845350111
100
AcDbArc
 50
148.1364440917969
 51
166.8634796142578
  0
ARC
  5
104
330
1F
100
AcDbEntity
  8
2-1
  6
Continuous
 62
     6
370
     5
100
AcDbCircle
 10
-20.97101285713051
 20
144.9935474285255
 30
0.0
 40
25.00000106782066
100
AcDbArc
 50
144.1820983886719
 51
170.8177795410157
  0
ARC
  5
105
330
1F
100
AcDbEntity
  8
2-1
  6
Continuous
 62
     6
370
     5
100
AcDbCircle
 10
-44.16986845973366
 20
148.7436706182086
 30
0.0
 40
1.499999982049566
100
AcDbArc
 50
170.817367553711
 51
270.0
  0
ARC
  5
106
330
1F
100
AcDbEntity
  8
2-1
  6
Continuous
 62
     6
370
     5
100
AcDbCircle
 10
-37.03927490580026
 20
148.7436706182086
 30
0.0
 40
1.499999982049566
100
AcDbArc
 50
270.0
 51
346.8630676269531
  0
ARC
  5
107
330
1F
100
AcDbEntity
  8
2-1
  6
Continuous
 62
     6
370
     5
100
AcDbCircle
 10
-34.98460991104128
 20
153.7039405020015
 30
0.0
 40
1.499999982049566
100
AcDbArc
 50
328.1362762451172
 51
44.99932861328126
  0
ARC
  5
108
330
1F
100
AcDbEntity
  8
2-1
  6
Continuous
 62
     6
370
     5
100
AcDbCircle
 10
-40.02673324164726
 20
158.7460813301378
 30
0.0
 40
1.499999982049566
100
AcDbArc
 50
44.99932861328126
 51
144.1819305419922
  0
ARC
  5
109
330
1F
100
AcDbEntity
  8
2-1
  6
Continuous
 62
     6
370
     5
100
AcDbCircle
 10
-20.97101285713051
 20
144.9935474285255
 30
0.0
 40
13.9999992856648
100
AcDbArc
 50
148.1366271972656
 51
166.8634033203125
  0
ARC
  5
10A
330
1F
100
AcDbEntity
  8
2-1
  6
Continuous
 62
     6
370
     5
100
AcDbCircle
 10
-20.97101285713051
 20
144.9935474285255
 30
0.0
 40
25.99999804846568
100
AcDbArc
 50
144.1821746826172
 51
170.8178253173828
  0
ARC
  5
10B
330
1F
100
AcDbEntity
  8
2-1
  6
Continuous
 62
     6
370
     5
100
AcDbCircle
 10
-44.16986845973366
 20
148.7436706182086
 30
0.0
 40
2.500000106782066
100
AcDbArc
 50
170.818115234375
 51
270.0
  0
ARC
  5
10C
330
1F
100
AcDbEntity
  8
2-1
  6
Continuous
 62
     6
370
     5
100
AcDbCircle
 10
-37.03927490580026
 20
148.7436706182086
 30
0.0
 40
2.500000106782066
100
AcDbArc
 50
270.0
 51
346.8637084960937
  0
ARC
  5
10D
330
1F
100
AcDbEntity
  8
2-1
  6
Continuous
 62
     6
370
     5
100
AcDbCircle
 10
-34.98460991104128
 20
153.7038530143499
 30
0.0
 40
2.500000106782066
100
AcDbArc
 50
328.1363067626953
 51
44.99960327148438
  0
ARC
  5
10E
330
1F
100
AcDbEntity
  8
2-1
  6
Continuous
 62
     6
370
     5
100
AcDbCircle
 10
-40.02673324164726
 20
158.7459588474256
 30
0.0
 40
2.500000106782066
100
AcDbArc
 50
44.99960327148437
 51
144.1817626953125
  0
ARC
  5
10F
330
1F
100
AcDbEntity
  8
2-1
  6
Continuous
 62
     6
370
     5
100
AcDbCircle
 10
-41.14884986074264
 20
157.0396346861759
 30
0.0
 40
1.499999982049566
100
AcDbArc
 50
45.00067138671877
 51
149.1631622314453
  0
ARC
  5
110
330
1F
100
AcDbEntity
  8
2-1
  6
Continuous
 62
     6
370
     5
100
AcDbCircle
 10
-35.9728004331063
 20
151.8635852585396
 30
0.0
 40
1.499999982049566
100
AcDbArc
 50
335.3949127197266
 51
45.0
  0
ARC
  5
111
330
1F
100
AcDbEntity
  8
2-1
  6
Continuous
 62
     6
370
     5
100
AcDbCircle
 10
-20.97101285713051
 20
144.9935474285255
 30
0.0
 40
14.99999845350111
100
AcDbArc
 50
103.1364440917969
 51
121.8634796142578
  0
ARC
  5
112
330
1F
100
AcDbEntity
  8
2-1
  6
Continuous
 62
     6
370
     5
100
AcDbCircle
 10
-20.97101285713051
 20
144.9935474285255
 30
0.0
 40
25.00000106782066
100
AcDbArc
 50
99.18209838867188
 51
125.8177795410156
  0
ARC
  5
113
330
1F
100
AcDbEntity
  8
2-1
  6
Continuous
 62
     6
370
     5
100
AcDbCircle
 10
-34.72340677850024
 20
164.0494077932848
 30
0.0
 40
1.499999982049566
100
AcDbArc
 50
125.817367553711
 51
225.0000000000001
  0
ARC
  5
114
330
1F
100
AcDbEntity
  8
2-1
  6
Continuous
 62
     6
370
     5
100
AcDbCircle
 10
-29.68128344789425
 20
159.0072494676182
 30
0.0
 40
1.499999982049566
100
AcDbArc
 50
225.0000000000001
 51
301.8630676269532
  0
ARC
  5
115
330
1F
100
AcDbEntity
  8
2-1
  6
Continuous
 62
     6
370
     5
100
AcDbCircle
 10
-24.7210135641014
 20
161.0618094771953
 30
0.0
 40
1.499999982049566
100
AcDbArc
 50
283.1362762451172
 51
359.9993286132812
  0
ARC
  5
116
330
1F
100
AcDbEntity
  8
2-1
  6
Continuous
 62
     6
370
     5
100
AcDbCircle
 10
-24.7210135641014
 20
168.1924380261893
 30
0.0
 40
1.499999982049566
100
AcDbArc
 50
359.9993286132812
 51
99.18193054199217
  0
ARC
  5
117
330
1F
100
AcDbEntity
  8
2-1
  6
Continuous
 62
     6
370
     5
100
AcDbCircle
 10
-20.97101285713051
 20
144.9935474285255
 30
0.0
 40
13.9999992856648
100
AcDbArc
 50
103.1366271972656
 51
121.8634033203126
  0
ARC
  5
118
330
1F
100
AcDbEntity
  8
2-1
  6
Continuous
 62
     6
370
     5
100
AcDbCircle
 10
-20.97101285713051
 20
144.9935474285255
 30
0.0
 40
25.99999804846568
100
AcDbArc
 50
99.18217468261719
 51
125.8178253173828
  0
ARC
  5
119
330
1F
100
AcDbEntity
  8
2-1
  6
Continuous
 62
     6
370
     5
100
AcDbCircle
 10
-34.72340677850024
 20
164.0494077932848
 30
0.0
 40
2.500000106782066
100
AcDbArc
 50
125.8181152343751
 51
225.0000000000001
  0
ARC
  5
11A
330
1F
100
AcDbEntity
  8
2-1
  6
Continuous
 62
     6
370
     5
100
AcDbCircle
 10
-29.68128344789425
 20
159.0072494676182
 30
0.0
 40
2.500000106782066
100
AcDbArc
 50
225.0000000000001
 51
301.8637084960938
  0
ARC
  5
11B
330
1F
100
AcDbEntity
  8
2-1
  6
Continuous
 62
     6
370
     5
100
AcDbCircle
 10
-24.7210135641014
 20
161.0618094771953
 30
0.0
 40
2.500000106782066
100
AcDbArc
 50
283.1363067626953
 51
359.9996032714844
  0
ARC
  5
11C
330
1F
100
AcDbEntity
  8
2-1
  6
Continuous
 62
     6
370
     5
100
AcDbCircle
 10
-24.7210135641014
 20
168.1924380261893
 30
0.0
 40
2.500000106782066
100
AcDbArc
 50
359.9996032714844
 51
99.1817626953125
  0
ARC
  5
11D
330
1F
100
AcDbEntity
  8
2-1
  6
Continuous
 62
     6
370
     5
100
AcDbCircle
 10
-26.72101627415662
 20
167.7793213354543
 30
0.0
 40
1.499999982049566
100
AcDbArc
 50
0.0006713867187526
 51
104.1631622314453
  0
ARC
  5
11E
330
1F
100
AcDbEntity
  8
2-1
  6
Continuous
 62
     6
370
     5
100
AcDbCircle
 10
-26.72101627415662
 20
160.4592470257406
 30
0.0
 40
1.499999982049566
100
AcDbArc
 50
290.3949127197266
 51
0.0
  0
ARC
  5
11F
330
1F
100
AcDbEntity
  8
2-1
  6
Continuous
 62
     6
370
     5
100
AcDbCircle
 10
-20.97101285713051
 20
144.9935474285255
 30
0.0
 40
14.99999845350111
100
AcDbArc
 50
58.13644409179688
 51
76.86347961425781
  0
ARC
  5
120
330
1F
100
AcDbEntity
  8
2-1
  6
Continuous
 62
     6
370
     5
100
AcDbCircle
 10
-20.97101285713051
 20
144.9935474285255
 30
0.0
 40
25.00000106782066
100
AcDbArc
 50
54.18209838867186
 51
80.81777954101562
  0
ARC
  5
121
330
1F
100
AcDbEntity
  8
2-1
  6
Continuous
 62
     6
370
     5
100
AcDbCircle
 10
-17.22101215015959
 20
168.1924380261893
 30
0.0
 40
1.499999982049566
100
AcDbArc
 50
80.81736755371097
 51
180.0
  0
ARC
  5
122
330
1F
100
AcDbEntity
  8
2-1
  6
Continuous
 62
     6
370
     5
100
AcDbCircle
 10
-17.22101215015959
 20
161.0618094771953
 30
0.0
 40
1.499999982049566
100
AcDbArc
 50
180.0
 51
256.8630676269531
  0
ARC
  5
123
330
1F
100
AcDbEntity
  8
2-1
  6
Continuous
 62
     6
370
     5
100
AcDbCircle
 10
-12.26074226636671
 20
159.0072494676182
 30
0.0
 40
1.499999982049566
100
AcDbArc
 50
238.1362762451172
 51
314.9993286132813
  0
ARC
  5
124
330
1F
100
AcDbEntity
  8
2-1
  6
Continuous
 62
     6
370
     5
100
AcDbCircle
 10
-7.218618935760723
 20
164.0494077932848
 30
0.0
 40
1.499999982049566
100
AcDbArc
 50
314.9993286132812
 51
54.18193054199219
  0
ARC
  5
125
330
1F
100
AcDbEntity
  8
2-1
  6
Continuous
 62
     6
370
     5
100
AcDbCircle
 10
-20.97101285713051
 20
144.9935474285255
 30
0.0
 40
13.9999992856648
100
AcDbArc
 50
58.13662719726563
 51
76.8634033203125
  0
ARC
  5
126
330
1F
100
AcDbEntity
  8
2-1
  6
Continuous
 62
     6
370
     5
100
AcDbCircle
 10
-20.97101285713051
 20
144.9935474285255
 30
0.0
 40
25.99999804846568
100
AcDbArc
 50
54.18217468261719
 51
80.81782531738281
  0
ARC
  5
127
330
1F
100
AcDbEntity
  8
2-1
  6
Continuous
 62
     6
370
     5
100
AcDbCircle
 10
-17.22101215015959
 20
168.1924380261893
 30
0.0
 40
2.500000106782066
100
AcDbArc
 50
80.81811523437501
 51
180.0
  0
ARC
  5
128
330
1F
100
AcDbEntity
  8
2-1
  6
Continuous
 62
     6
370
     5
100
AcDbCircle
 10
-17.22101215015959
 20
161.0618094771953
 30
0.0
 40
2.500000106782066
100
AcDbArc
 50
180.0
 51
256.8637084960937
  0
ARC
  5
129
330
1F
100
AcDbEntity
  8
2-1
  6
Continuous
 62
     6
370
     5
100
AcDbCircle
 10
-12.26074226636671
 20
159.0072494676182
 30
0.0
 40
2.500000106782066
100
AcDbArc
 50
238.1363067626953
 51
314.9996032714844
  0
ARC
  5
12A
330
1F
100
AcDbEntity
  8
2-1
  6
Continuous
 62
     6
370
     5
100
AcDbCircle
 10
-7.218618935760723
 20
164.0494077932848
 30
0.0
 40
2.500000106782066
100
AcDbArc
 50
314.9996032714844
 51
54.1817626953125
  0
ARC
  5
12B
330
1F
100
AcDbEntity
  8
2-1
  6
Continuous
 62
     6
370
     5
100
AcDbCircle
 10
-8.924943097010434
 20
165.171401929668
 30
0.0
 40
1.499999982049566
100
AcDbArc
 50
315.0006713867188
 51
59.16316223144531
  0
ARC
  5
12C
330
1F
100
AcDbEntity
  8
2-1
  6
Continuous
 62
     6
370
     5
100
AcDbCircle
 10
-14.10099252464681
 20
159.9954399896832
 30
0.0
 40
1.499999982049566
100
AcDbArc
 50
245.3949127197266
 51
315.0
  0
ARC
  5
12D
330
1F
100
AcDbEntity
  8
2-1
  6
Continuous
 62
     6
370
     5
100
AcDbCircle
 10
-20.97101285713051
 20
144.9935474285255
 30
0.0
 40
14.99999845350111
100
AcDbArc
 50
13.13644409179688
 51
31.86347961425782
  0
ARC
  5
12E
330
1F
100
AcDbEntity
  8
2-1
  6
Continuous
 62
     6
370
     5
100
AcDbCircle
 10
-20.97101285713051
 20
144.9935474285255
 30
0.0
 40
25.00000106782066
100
AcDbArc
 50
9.182098388671877
 51
35.81777954101563
  0
ARC
  5
12F
330
1F
100
AcDbEntity
  8
2-1
  6
Continuous
 62
     6
370
     5
100
AcDbCircle
 10
-1.915292472613707
 20
158.7459588474256
 30
0.0
 40
1.499999982049566
100
AcDbArc
 50
35.81736755371094
 51
135.0
  0
ARC
  5
130
330
1F
100
AcDbEntity
  8
2-1
  6
Continuous
 62
     6
370
     5
100
AcDbCircle
 10
-6.9574158032197
 20
153.7038530143499
 30
0.0
 40
1.499999982049566
100
AcDbArc
 50
135.0
 51
211.8630676269531
  0
ARC
  5
131
330
1F
100
AcDbEntity
  8
2-1
  6
Continuous
 62
     6
370
     5
100
AcDbCircle
 10
-4.90282079858201
 20
148.7435656330268
 30
0.0
 40
1.499999982049566
100
AcDbArc
 50
193.1362762451172
 51
269.9993286132812
  0
ARC
  5
132
330
1F
100
AcDbEntity
  8
2-1
  6
Continuous
 62
     6
370
     5
100
AcDbCircle
 10
2.227842745472689
 20
148.7435656330268
 30
0.0
 40
1.499999982049566
100
AcDbArc
 50
269.9993286132812
 51
9.181930541992191
  0
ARC
  5
133
330
1F
100
AcDbEntity
  8
2-1
  6
Continuous
 62
     6
370
     5
100
AcDbCircle
 10
-20.97101285713051
 20
144.9935474285255
 30
0.0
 40
13.9999992856648
100
AcDbArc
 50
13.13662719726561
 51
31.86340332031249
  0
ARC
  5
134
330
1F
100
AcDbEntity
  8
2-1
  6
Continuous
 62
     6
370
     5
100
AcDbCircle
 10
-20.97101285713051
 20
144.9935474285255
 30
0.0
 40
25.99999804846568
100
AcDbArc
 50
9.182174682617195
 51
35.81782531738282
  0
ARC
  5
135
330
1F
100
AcDbEntity
  8
2-1
  6
Continuous
 62
     6
370
     5
100
AcDbCircle
 10
-1.915292472613707
 20
158.7459588474256
 30
0.0
 40
2.500000106782066
100
AcDbArc
 50
35.81811523437501
 51
135.0
  0
ARC
  5
136
330
1F
100
AcDbEntity
  8
2-1
  6
Continuous
 62
     6
370
     5
100
AcDbCircle
 10
-6.9574158032197
 20
153.7038530143499
 30
0.0
 40
2.500000106782066
100
AcDbArc
 50
135.0
 51
211.8637084960938
  0
ARC
  5
137
330
1F
100
AcDbEntity
  8
2-1
  6
Continuous
 62
     6
370
     5
100
AcDbCircle
 10
-4.902855793642626
 20
148.7436706182086
 30
0.0
 40
2.500000106782066
100
AcDbArc
 50
193.1363067626954
 51
269.9996032714844
  0
ARC
  5
138
330
1F
100
AcDbEntity
  8
2-1
  6
Continuous
 62
     6
370
     5
100
AcDbCircle
 10
2.227807750412016
 20
148.7436706182086
 30
0.0
 40
2.500000106782066
100
AcDbArc
 50
269.9996032714844
 51
9.181762695312468
  0
ARC
  5
139
330
1F
100
AcDbEntity
  8
2-1
  6
Continuous
 62
     6
370
     5
100
AcDbCircle
 10
1.814691059676935
 20
150.743568343082
 30
0.0
 40
1.499999982049566
100
AcDbArc
 50
270.0006713867188
 51
14.16316223144531
  0
ARC
  5
13A
330
1F
100
AcDbEntity
  8
2-1
  6
Continuous
 62
     6
370
     5
100
AcDbCircle
 10
-5.50533075744573
 20
150.743568343082
 30
0.0
 40
1.499999982049566
100
AcDbArc
 50
200.3949127197266
 51
270.0
  0
ARC
  5
13B
330
1F
100
AcDbEntity
  8
2-1
  6
Continuous
 62
     6
370
     5
100
AcDbCircle
 10
-20.97101285713051
 20
144.9935474285255
 30
0.0
 40
10.00000042712827
100
AcDbArc
 50
44.90075683593749
 51
135.0992431640625
  0
ARC
  5
13C
330
1F
100
AcDbEntity
  8
2-1
  6
Continuous
 62
     6
370
     5
100
AcDbCircle
 10
-26.99180805331022
 20
150.9935905537518
 30
0.0
 40
1.499999982049566
100
AcDbArc
 50
135.0989074707031
 51
270.0
  0
ARC
  5
13D
330
1F
100
AcDbEntity
  8
2-1
  6
Continuous
 62
     6
370
     5
100
AcDbCircle
 10
-14.95021766095078
 20
150.9935905537518
 30
0.0
 40
1.499999982049566
100
AcDbArc
 50
270.0
 51
44.90109252929689
  0
ARC
  5
13E
330
1F
100
AcDbEntity
  8
2-1
  6
Continuous
 62
     6
370
     5
100
AcDbCircle
 10
-20.97101285713051
 20
144.9935474285255
 30
0.0
 40
50.00000213564132
100
AcDbArc
 50
5.739196777343748
 51
11.53694152832031
  0
ARC
  5
13F
330
1F
100
AcDbEntity
  8
2-1
  6
Continuous
 62
     6
370
     5
100
AcDbCircle
 10
-20.97101285713051
 20
144.9935474285255
 30
0.0
 40
50.00000213564132
100
AcDbArc
 50
168.4630584716797
 51
174.2608032226563
  0
ARC
  5
140
330
1F
100
AcDbEntity
  8
2-1
  6
Continuous
 62
     6
370
     5
100
AcDbCircle
 10
-20.97101285713051
 20
144.9935474285255
 30
0.0
 40
50.99999911628635
100
AcDbArc
 50
4.498428344726574
 51
175.501449584961
  0
ARC
  5
141
330
1F
100
AcDbEntity
  8
2-0
  6
Continuous
 62
     3
370
     9
100
AcDbCircle
 10
-20.97101285713051
 20
144.9935474285255
 30
0.0
 40
83.00004247716954
100
AcDbArc
 50
0.0
 51
180.0
  0
ARC
  5
142
330
1F
100
AcDbEntity
  8
2-0
  6
Continuous
 62
     3
370
     9
100
AcDbCircle
 10
-20.97101285713051
 20
144.9935474285255
 30
0.0
 40
84.00006132972746
100
AcDbArc
 50
0.0
 51
180.0
  0
ARC
  5
143
330
1F
100
AcDbEntity
  8
2-0
  6
Continuous
 62
     3
370
     9
100
AcDbCircle
 10
-20.97101285713051
 20
144.9935124334649
 30
0.0
 40
56.49999344579041
100
AcDbArc
 50
56.76017761230468
 51
71.81121826171875
  0
ARC
  5
144
330
1F
100
AcDbEntity
  8
2-0
  6
Continuous
 62
     3
370
     9
100
AcDbCircle
 10
-20.97101285713051
 20
144.9935124334649
 30
0.0
 40
53.50000250385534
100
AcDbArc
 50
57.06008911132812
 51
71.51130676269531
  0
ARC
  5
145
330
1F
100
AcDbEntity
  8
2-0
  6
Continuous
 62
     3
370
     9
100
AcDbCircle
 10
-20.97101285713051
 20
144.9935124334649
 30
0.0
 40
56.49999344579041
100
AcDbArc
 50
31.04589843750001
 51
46.09693908691407
  0
ARC
  5
146
330
1F
100
AcDbEntity
  8
2-0
  6
Continuous
 62
     3
370
     9
100
AcDbCircle
 10
-20.97101285713051
 20
144.9935124334649
 30
0.0
 40
53.50000250385534
100
AcDbArc
 50
31.34580993652345
 51
45.79702758789064
  0
ARC
  5
147
330
1F
100
AcDbEntity
  8
2-0
  6
Continuous
 62
     3
370
     9
100
AcDbCircle
 10
-20.97101285713051
 20
144.9935124334649
 30
0.0
 40
57.50000354958317
100
AcDbArc
 50
28.45550537109375
 51
48.68725585937499
  0
ARC
  5
148
330
1F
100
AcDbEntity
  8
2-0
  6
Continuous
 62
     3
370
     9
100
AcDbCircle
 10
-20.97101285713051
 20
144.9935124334649
 30
0.0
 40
57.50000354958317
100
AcDbArc
 50
54.16984558105471
 51
74.40156555175784
  0
ARC
  5
149
330
1F
100
AcDbEntity
  8
2-0
  6
Continuous
 62
     3
370
     9
100
AcDbCircle
 10
-20.97101285713051
 20
144.9935124334649
 30
0.0
 40
52.52996566949204
100
AcDbArc
 50
74.14199829101562
 51
80.14372253417967
  0
ARC
  5
14A
330
1F
100
AcDbEntity
  8
2-0
  6
Continuous
 62
     3
370
     9
100
AcDbCircle
 10
-20.97101285713051
 20
144.9935124334649
 30
0.0
 40
52.52996566949204
100
AcDbArc
 50
22.71334838867187
 51
28.71501159667968
  0
ARC
  5
14B
330
1F
100
AcDbEntity
  8
2-0
  6
Continuous
 62
     3
370
     9
100
AcDbCircle
 10
-20.97101285713051
 20
144.9935124334649
 30
0.0
 40
52.52996566949204
100
AcDbArc
 50
48.42774963378907
 51
54.42938232421876
  0
ARC
  5
14C
330
1F
100
AcDbEntity
  8
2-0
  6
Continuous
 62
     3
370
     9
100
AcDbCircle
 10
-20.97101285713051
 20
144.9935124334649
 30
0.0
 40
56.49999344579041
100
AcDbArc
 50
82.47445678710938
 51
97.52549743652342
  0
ARC
  5
14D
330
1F
100
AcDbEntity
  8
2-0
  6
Continuous
 62
     3
370
     9
100
AcDbCircle
 10
-20.97101285713051
 20
144.9935124334649
 30
0.0
 40
53.50000250385534
100
AcDbArc
 50
82.77436828613281
 51
97.22558593749999
  0
ARC
  5
14E
330
1F
100
AcDbEntity
  8
2-0
  6
Continuous
 62
     3
370
     9
100
AcDbCircle
 10
-20.97101285713051
 20
144.9935124334649
 30
0.0
 40
57.50000354958317
100
AcDbArc
 50
79.8841247558594
 51
100.1158447265625
  0
ARC
  5
14F
330
1F
100
AcDbEntity
  8
2-0
  6
Continuous
 62
     3
370
     9
100
AcDbCircle
 10
-20.97101285713051
 20
144.9935124334649
 30
0.0
 40
52.52996566949204
100
AcDbArc
 50
99.8562774658203
 51
105.8580017089844
  0
ARC
  5
150
330
1F
100
AcDbEntity
  8
2-0
  6
Continuous
 62
     3
370
     9
100
AcDbCircle
 10
-20.97101285713051
 20
144.9934774384043
 30
0.0
 40
56.49999344579041
100
AcDbArc
 50
108.1887359619141
 51
123.2397766113281
  0
ARC
  5
151
330
1F
100
AcDbEntity
  8
2-0
  6
Continuous
 62
     3
370
     9
100
AcDbCircle
 10
-20.97101285713051
 20
144.9934774384043
 30
0.0
 40
53.50000250385534
100
AcDbArc
 50
108.4886474609375
 51
122.9398651123047
  0
ARC
  5
152
330
1F
100
AcDbEntity
  8
2-0
  6
Continuous
 62
     3
370
     9
100
AcDbCircle
 10
-20.97101285713051
 20
144.9934774384043
 30
0.0
 40
57.50000354958317
100
AcDbArc
 50
105.5984039306641
 51
125.8301239013672
  0
ARC
  5
153
330
1F
100
AcDbEntity
  8
2-0
  6
Continuous
 62
     3
370
     9
100
AcDbCircle
 10
-20.97101285713051
 20
144.9934774384043
 30
0.0
 40
52.52996566949204
100
AcDbArc
 50
125.570556640625
 51
131.5722808837891
  0
ARC
  5
154
330
1F
100
AcDbEntity
  8
2-0
  6
Continuous
 62
     3
370
     9
100
AcDbCircle
 10
-20.97101285713051
 20
144.9934774384043
 30
0.0
 40
56.49999344579041
100
AcDbArc
 50
133.9030303955078
 51
148.9540710449219
  0
ARC
  5
155
330
1F
100
AcDbEntity
  8
2-0
  6
Continuous
 62
     3
370
     9
100
AcDbCircle
 10
-20.97101285713051
 20
144.9934774384043
 30
0.0
 40
53.50000250385534
100
AcDbArc
 50
134.2029418945313
 51
148.6541595458985
  0
ARC
  5
156
330
1F
100
AcDbEntity
  8
2-0
  6
Continuous
 62
     3
370
     9
100
AcDbCircle
 10
-20.97101285713051
 20
144.9934774384043
 30
0.0
 40
57.50000354958317
100
AcDbArc
 50
131.3126983642579
 51
151.544418334961
  0
ARC
  5
157
330
1F
100
AcDbEntity
  8
2-0
  6
Continuous
 62
     3
370
     9
100
AcDbCircle
 10
-20.97101285713051
 20
144.9934774384043
 30
0.0
 40
52.52996566949204
100
AcDbArc
 50
151.2848510742188
 51
157.2865753173828
  0
ARC
  5
158
330
1F
100
AcDbEntity
  8
2-0
  6
Continuous
 62
     3
370
     9
100
AcDbCircle
 10
-20.97101285713051
 20
144.9934774384043
 30
0.0
 40
56.49999344579041
100
AcDbArc
 50
159.6173095703125
 51
174.6683502197265
  0
ARC
  5
159
330
1F
100
AcDbEntity
  8
2-0
  6
Continuous
 62
     3
370
     9
100
AcDbCircle
 10
-20.97101285713051
 20
144.9934774384043
 30
0.0
 40
53.50000250385534
100
AcDbArc
 50
159.9172210693359
 51
174.3684387207031
  0
ARC
  5
15A
330
1F
100
AcDbEntity
  8
2-0
  6
Continuous
 62
     3
370
     9
100
AcDbCircle
 10
-20.97101285713051
 20
144.9934774384043
 30
0.0
 40
57.50000354958317
100
AcDbArc
 50
157.0269775390625
 51
177.2586975097656
  0
ARC
  5
15B
330
1F
100
AcDbEntity
  8
2-0
  6
Continuous
 62
     3
370
     9
100
AcDbCircle
 10
-20.97101285713051
 20
144.9934774384043
 30
0.0
 40
52.52996566949204
100
AcDbArc
 50
176.9991302490234
 51
179.9999237060547
  0
ARC
  5
15C
330
1F
100
AcDbEntity
  8
2-0
  6
Continuous
 62
     3
370
     9
100
AcDbCircle
 10
-20.97101285713051
 20
144.9934774384043
 30
0.0
 40
56.49999344579041
100
AcDbArc
 50
5.331649780273476
 51
20.38269042968754
  0
ARC
  5
15D
330
1F
100
AcDbEntity
  8
2-0
  6
Continuous
 62
     3
370
     9
100
AcDbCircle
 10
-20.97101285713051
 20
144.9934774384043
 30
0.0
 40
53.50000250385534
100
AcDbArc
 50
5.631561279296893
 51
20.08277893066408
  0
ARC
  5
15E
330
1F
100
AcDbEntity
  8
2-0
  6
Continuous
 62
     3
370
     9
100
AcDbCircle
 10
-20.97101285713051
 20
144.9934774384043
 30
0.0
 40
57.50000354958317
100
AcDbArc
 50
2.741302490234379
 51
22.97302246093751
  0
ARC
  5
15F
330
1F
100
AcDbEntity
  8
2-0
  6
Continuous
 62
     3
370
     9
100
AcDbCircle
 10
-20.97101285713051
 20
144.9934774384043
 30
0.0
 40
52.52996566949204
100
AcDbArc
 50
0.0000762939453322
 51
3.000869750976582
  0
ARC
  5
160
330
1F
100
AcDbEntity
  8
2-0
  6
Continuous
 62
     3
370
     9
100
AcDbCircle
 10
-20.97104785219113
 20
144.9935474285255
 30
0.0
 40
52.51771302388902
100
AcDbArc
 50
0.0
 51
9.856292724609377
  0
ARC
  5
161
330
1F
100
AcDbEntity
  8
2-0
  6
Continuous
 62
     3
370
     9
100
AcDbCircle
 10
-20.97104785219113
 20
144.9935474285255
 30
0.0
 40
52.51771302388902
100
AcDbArc
 50
84.20469665527345
 51
89.99995422363283
  0
ARC
  5
162
330
1F
100
AcDbEntity
  8
2-0
  6
Continuous
 62
     3
370
     9
100
AcDbCircle
 10
-20.97101285713051
 20
144.9934774384043
 30
0.0
 40
51.90383404470318
100
AcDbArc
 50
11.79934692382812
 51
82.95263671875
  0
ARC
  5
163
330
1F
100
AcDbEntity
  8
2-0
  6
Continuous
 62
     3
370
     9
100
AcDbCircle
 10
-20.97097786206984
 20
144.9935474285255
 30
0.0
 40
52.51771302388902
100
AcDbArc
 50
90.00004577636726
 51
95.79530334472662
  0
ARC
  5
164
330
1F
100
AcDbEntity
  8
2-0
  6
Continuous
 62
     3
370
     9
100
AcDbCircle
 10
-20.97101285713051
 20
144.9934774384043
 30
0.0
 40
51.90383404470318
100
AcDbArc
 50
97.04736328124999
 51
168.2006530761719
  0
ARC
  5
165
330
1F
100
AcDbEntity
  8
2-0
  6
Continuous
 62
     3
370
     9
100
AcDbCircle
 10
-20.97097786206984
 20
144.9935474285255
 30
0.0
 40
52.51771302388902
100
AcDbArc
 50
170.1437072753907
 51
180.0
  0
ARC
  5
166
330
1F
100
AcDbEntity
  8
2-0
  6
Continuous
 62
     3
370
     9
100
AcDbCircle
 10
-20.97101285713051
 20
144.9935474285255
 30
0.0
 40
36.76026398058563
100
AcDbArc
 50
6.920150756835946
 51
23.08021545410157
  0
ARC
  5
167
330
1F
100
AcDbEntity
  8
2-0
  6
Continuous
 62
     3
370
     9
100
AcDbCircle
 10
-20.97101285713051
 20
144.9935474285255
 30
0.0
 40
35.76026043836674
100
AcDbArc
 50
6.920150756835946
 51
23.0802459716797
  0
ARC
  5
168
330
1F
100
AcDbEntity
  8
2-0
  6
Continuous
 62
     3
370
     9
100
AcDbCircle
 10
-20.97101285713051
 20
144.9935474285255
 30
0.0
 40
36.76026398058563
100
AcDbArc
 50
36.92002868652344
 51
53.08013916015626
  0
ARC
  5
169
330
1F
100
AcDbEntity
  8
2-0
  6
Continuous
 62
     3
370
     9
100
AcDbCircle
 10
-20.97101285713051
 20
144.9935474285255
 30
0.0
 40
35.76026043836674
100
AcDbArc
 50
36.92002868652344
 51
53.08010864257813
  0
ARC
  5
16A
330
1F
100
AcDbEntity
  8
2-0
  6
Continuous
 62
     3
370
     9
100
AcDbCircle
 10
-20.97101285713051
 20
144.9935474285255
 30
0.0
 40
36.76026398058563
100
AcDbArc
 50
66.91999816894531
 51
83.08012390136719
  0
ARC
  5
16B
330
1F
100
AcDbEntity
  8
2-0
  6
Continuous
 62
     3
370
     9
100
AcDbCircle
 10
-20.97101285713051
 20
144.9935474285255
 30
0.0
 40
35.76026043836674
100
AcDbArc
 50
66.91998291015625
 51
83.08013916015625
  0
ARC
  5
16C
330
1F
100
AcDbEntity
  8
2-0
  6
Continuous
 62
     3
370
     9
100
AcDbCircle
 10
-20.97101285713051
 20
144.9935474285255
 30
0.0
 40
35.76026043836674
100
AcDbArc
 50
96.9199829101562
 51
113.0800323486328
  0
ARC
  5
16D
330
1F
100
AcDbEntity
  8
2-0
  6
Continuous
 62
     3
370
     9
100
AcDbCircle
 10
-20.97101285713051
 20
144.9935474285255
 30
0.0
 40
36.76026398058563
100
AcDbArc
 50
96.9199829101562
 51
113.0800476074219
  0
ARC
  5
16E
330
1F
100
AcDbEntity
  8
2-0
  6
Continuous
 62
     3
370
     9
100
AcDbCircle
 10
-20.97101285713051
 20
144.9935474285255
 30
0.0
 40
35.76026043836674
100
AcDbArc
 50
126.919921875
 51
143.0800170898438
  0
ARC
  5
16F
330
1F
100
AcDbEntity
  8
2-0
  6
Continuous
 62
     3
370
     9
100
AcDbCircle
 10
-20.97101285713051
 20
144.9935474285255
 30
0.0
 40
36.76026398058563
100
AcDbArc
 50
126.9198913574219
 51
143.0799865722656
  0
ARC
  5
170
330
1F
100
AcDbEntity
  8
2-0
  6
Continuous
 62
     3
370
     9
100
AcDbCircle
 10
-20.97101285713051
 20
144.9935474285255
 30
0.0
 40
35.76026043836674
100
AcDbArc
 50
156.9198150634765
 51
173.0799865722656
  0
ARC
  5
171
330
1F
100
AcDbEntity
  8
2-0
  6
Continuous
 62
     3
370
     9
100
AcDbCircle
 10
-20.97101285713051
 20
144.9935474285255
 30
0.0
 40
36.76026398058563
100
AcDbArc
 50
156.9198455810547
 51
173.0799865722657
  0
ARC
  5
172
330
1F
100
AcDbEntity
  8
2-0
  6
Continuous
 62
     3
370
     9
100
AcDbCircle
 10
-14.9710047269649
 20
193.5278820604859
 30
0.0
 40
2.999999964099133
100
AcDbArc
 50
82.95249938964844
 51
129.8712310791016
  0
ARC
  5
173
330
1F
100
AcDbEntity
  8
2-0
  6
Continuous
 62
     3
370
     9
100
AcDbCircle
 10
-15.97100608199246
 20
194.2581939807698
 30
0.0
 40
2.999999964099133
100
AcDbArc
 50
84.20484924316406
 51
146.0929107666016
  0
ARC
  5
174
330
1F
100
AcDbEntity
  8
2-0
  6
Continuous
 62
     3
370
     9
100
AcDbCircle
 10
-25.9710196322685
 20
194.2581939807698
 30
0.0
 40
2.999999964099133
100
AcDbArc
 50
33.90708923339844
 51
95.79515075683595
  0
ARC
  5
175
330
1F
100
AcDbEntity
  8
2-0
  6
Continuous
 62
     3
370
     9
100
AcDbCircle
 10
-26.97102098729609
 20
193.5278820604859
 30
0.0
 40
2.999999964099133
100
AcDbArc
 50
50.12876892089844
 51
97.04750061035158
  0
ARC
  5
176
330
1F
100
AcDbEntity
  8
2-0
  6
Continuous
 62
     3
370
     9
100
AcDbCircle
 10
-68.84145619388244
 20
154.9935609788015
 30
0.0
 40
2.999999964099133
100
AcDbArc
 50
168.2008209228516
 51
215.1189422607422
  0
ARC
  5
177
330
1F
100
AcDbEntity
  8
2-0
  6
Continuous
 62
     3
370
     9
100
AcDbCircle
 10
-69.66394510386522
 20
153.9935771213043
 30
0.0
 40
2.999999964099133
100
AcDbArc
 50
169.5281219482422
 51
231.4154510498047
  0
ARC
  5
178
330
1F
100
AcDbEntity
  8
2-0
  6
Continuous
 62
     3
370
     9
100
AcDbCircle
 10
26.89943047962146
 20
154.9935609788015
 30
0.0
 40
2.999999964099133
100
AcDbArc
 50
324.8810577392578
 51
11.79917907714844
  0
ARC
  5
179
330
1F
100
AcDbEntity
  8
2-0
  6
Continuous
 62
     3
370
     9
100
AcDbCircle
 10
27.72191938960425
 20
153.9935771213043
 30
0.0
 40
2.999999964099133
100
AcDbArc
 50
308.5845489501953
 51
10.47187805175781
  0
ARC
  5
17A
330
1F
100
AcDbEntity
  8
2-0
  6
Continuous
 62
     3
370
     9
100
AcDbCircle
 10
-20.97101285713051
 20
144.9935474285255
 30
0.0
 40
85.00001019216411
100
AcDbArc
 50
0.0
 51
180.0
  0
LINE
  5
17B
330
1F
100
AcDbEntity
  8
2-0
  6
JWW_CENTER2
 62
     3
370
     9
100
AcDbLine
 10
-20.97101285713051
 20
136.2748338943046
 30
0.0
 11
-20.9710128571305
 21
242.1534225692128
 31
0.0
  0
LINE
  5
17C
330
1F
100
AcDbEntity
  8
2-0
  6
JWW_CENTER2
 62
     3
370
     9
100
AcDbLine
 10
26.02899833657574
 20
144.9935474285255
 30
0.0
 11
26.02899833657574
 21
141.2501056266294
 31
0.0
  0
LINE
  5
17D
330
1F
100
AcDbEntity
  8
2-0
  6
JWW_CENTER2
 62
     3
370
     9
100
AcDbLine
 10
-67.97102405083675
 20
144.9935474285255
 30
0.0
 11
-67.97102405083675
 21
141.2501056266294
 31
0.0
  0
LINE
  5
17E
330
1F
100
AcDbEntity
  8
2-0
  6
JWW_CENTER2
 62
     3
370
     9
100
AcDbLine
 10
76.18885353479158
 20
144.9935474285255
 30
0.0
 11
-118.1308792490526
 21
144.9935474285255
 31
0.0
  0
LINE
  5
17F
330
1F
100
AcDbEntity
  8
2-4
  6
Continuous
 62
     7
370
     9
100
AcDbLine
 10
-71.9709244857653
 20
39.80559006865394
 30
0.0
 11
30.02910874186801
 21
39.80559006865394
 31
0.0
  0
LINE
  5
180
330
1F
100
AcDbEntity
  8
2-4
  6
Continuous
 62
     7
370
     9
100
AcDbLine
 10
-71.9709244857653
 20
39.80559006865394
 30
0.0
 11
-67.01370017889624
 21
40.4582210297542
 31
0.0
  0
LINE
  5
181
330
1F
100
AcDbEntity
  8
2-4
  6
Continuous
 62
     7
370
     9
100
AcDbLine
 10
-71.9709244857653
 20
39.80559006865394
 30
0.0
 11
-67.01370017889624
 21
39.15295910755368
 31
0.0
  0
LINE
  5
182
330
1F
100
AcDbEntity
  8
2-4
  6
Continuous
 62
     7
370
     9
100
AcDbLine
 10
30.02910874186801
 20
39.80559006865394
 30
0.0
 11
25.07188443499896
 21
40.4582210297542
 31
0.0
  0
LINE
  5
183
330
1F
100
AcDbEntity
  8
2-4
  6
Continuous
 62
     7
370
     9
100
AcDbLine
 10
30.02910874186801
 20
39.80559006865394
 30
0.0
 11
25.07188443499896
 21
39.15295910755368
 31
0.0
  0
LINE
  5
184
330
1F
100
AcDbEntity
  8
2-4
  6
Continuous
 62
     7
370
     9
100
AcDbLine
 10
-71.9709244857653
 20
40.40559006865394
 30
0.0
 11
-71.9709244857653
 21
-9.312257898129317
 31
0.0
  0
LINE
  5
185
330
1F
100
AcDbEntity
  8
2-4
  6
Continuous
 62
     7
370
     9
100
AcDbLine
 10
30.02910874186801
 20
40.40559006865394
 30
0.0
 11
30.02910874186801
 21
-9.312257898129346
 31
0.0
  0
LINE
  5
186
330
1F
100
AcDbEntity
  8
2-4
  6
Continuous
 62
     7
370
     9
100
AcDbLine
 10
-74.47090162703881
 20
53.13083570804571
 30
0.0
 11
32.52894590289901
 21
53.13083570804571
 31
0.0
  0
LINE
  5
187
330
1F
100
AcDbEntity
  8
2-4
  6
Continuous
 62
     7
370
     9
100
AcDbLine
 10
-74.47090162703881
 20
53.13083570804571
 30
0.0
 11
-69.51367732016976
 21
53.78346666914597
 31
0.0
  0
LINE
  5
188
330
1F
100
AcDbEntity
  8
2-4
  6
Continuous
 62
     7
370
     9
100
AcDbLine
 10
-74.47090162703881
 20
53.13083570804571
 30
0.0
 11
-69.51367732016976
 21
52.47820474694545
 31
0.0
  0
LINE
  5
189
330
1F
100
AcDbEntity
  8
2-4
  6
Continuous
 62
     7
370
     9
100
AcDbLine
 10
32.52894590289901
 20
53.13083570804571
 30
0.0
 11
27.57172159602996
 21
53.78346666914597
 31
0.0
  0
LINE
  5
18A
330
1F
100
AcDbEntity
  8
2-4
  6
Continuous
 62
     7
370
     9
100
AcDbLine
 10
32.52894590289901
 20
53.13083570804571
 30
0.0
 11
27.57172159602996
 21
52.47820474694545
 31
0.0
  0
LINE
  5
18B
330
1F
100
AcDbEntity
  8
2-4
  6
Continuous
 62
     7
370
     9
100
AcDbLine
 10
-74.47090162703881
 20
53.7308357080457
 30
0.0
 11
-74.47090162703881
 21
-6.312236335516175
 31
0.0
  0
LINE
  5
18C
330
1F
100
AcDbEntity
  8
2-4
  6
Continuous
 62
     7
370
     9
100
AcDbLine
 10
32.52894590289901
 20
53.7308357080457
 30
0.0
 11
32.52894590289901
 21
-6.312236335516204
 31
0.0
  0
LINE
  5
18D
330
1F
100
AcDbEntity
  8
2-4
  6
Continuous
 62
     7
370
     9
100
AcDbLine
 10
-105.9709705567037
 20
65.27161506838043
 30
0.0
 11
64.02904982762453
 21
65.27161506838043
 31
0.0
  0
LINE
  5
18E
330
1F
100
AcDbEntity
  8
2-4
  6
Continuous
 62
     7
370
     9
100
AcDbLine
 10
-105.9709705567037
 20
65.27161506838043
 30
0.0
 11
-101.0137462498347
 21
65.92424602948068
 31
0.0
  0
LINE
  5
18F
330
1F
100
AcDbEntity
  8
2-4
  6
Continuous
 62
     7
370
     9
100
AcDbLine
 10
-105.9709705567037
 20
65.27161506838043
 30
0.0
 11
-101.0137462498347
 21
64.61898410728017
 31
0.0
  0
LINE
  5
190
330
1F
100
AcDbEntity
  8
2-4
  6
Continuous
 62
     7
370
     9
100
AcDbLine
 10
64.02904982762453
 20
65.27161506838043
 30
0.0
 11
59.07182552075548
 21
65.92424602948068
 31
0.0
  0
LINE
  5
191
330
1F
100
AcDbEntity
  8
2-4
  6
Continuous
 62
     7
370
     9
100
AcDbLine
 10
64.02904982762453
 20
65.27161506838043
 30
0.0
 11
59.07182552075548
 21
64.61898410728017
 31
0.0
  0
LINE
  5
192
330
1F
100
AcDbEntity
  8
2-4
  6
Continuous
 62
     7
370
     9
100
AcDbLine
 10
-105.9709705567037
 20
65.87161506838042
 30
0.0
 11
-105.9709705567037
 21
-12.31227946074237
 31
0.0
  0
LINE
  5
193
330
1F
100
AcDbEntity
  8
2-4
  6
Continuous
 62
     7
370
     9
100
AcDbLine
 10
64.02904982762453
 20
65.87161506838042
 30
0.0
 11
64.02904982762453
 21
-12.31227946074243
 31
0.0
  0
LINE
  5
194
330
1F
100
AcDbEntity
  8
2-4
  6
Continuous
 62
     7
370
     9
100
AcDbLine
 10
-50.77796826093351
 20
-106.1132770828647
 30
0.0
 11
8.836047531854263
 21
-106.1132770828647
 31
0.0
  0
LINE
  5
195
330
1F
100
AcDbEntity
  8
2-4
  6
Continuous
 62
     7
370
     9
100
AcDbLine
 10
-50.77796826093351
 20
-106.1132770828647
 30
0.0
 11
-45.82074395406445
 21
-105.4606461217644
 31
0.0
  0
LINE
  5
196
330
1F
100
AcDbEntity
  8
2-4
  6
Continuous
 62
     7
370
     9
100
AcDbLine
 10
-50.77796826093351
 20
-106.1132770828647
 30
0.0
 11
-45.82074395406445
 21
-106.7659080439649
 31
0.0
  0
LINE
  5
197
330
1F
100
AcDbEntity
  8
2-4
  6
Continuous
 62
     7
370
     9
100
AcDbLine
 10
8.836047531854263
 20
-106.1132770828647
 30
0.0
 11
3.878823224985211
 21
-105.4606461217644
 31
0.0
  0
LINE
  5
198
330
1F
100
AcDbEntity
  8
2-4
  6
Continuous
 62
     7
370
     9
100
AcDbLine
 10
8.836047531854263
 20
-106.1132770828647
 30
0.0
 11
3.878823224985211
 21
-106.7659080439649
 31
0.0
  0
LINE
  5
199
330
1F
100
AcDbEntity
  8
2-4
  6
Continuous
 62
     7
370
     9
100
AcDbLine
 10
-50.77796826093351
 20
-106.7132770828647
 30
0.0
 11
-50.77796826093351
 21
-72.31227993205638
 31
0.0
  0
LINE
  5
19A
330
1F
100
AcDbEntity
  8
2-4
  6
Continuous
 62
     7
370
     9
100
AcDbLine
 10
8.836047531854263
 20
-106.7132770828647
 30
0.0
 11
8.836047531854263
 21
-72.31227993205638
 31
0.0
  0
LINE
  5
19B
330
1F
100
AcDbEntity
  8
2-4
  6
Continuous
 62
     7
370
     9
100
AcDbLine
 10
-60.97099706811332
 20
-120.0173702175068
 30
0.0
 11
19.02890136373094
 21
-120.0173702175068
 31
0.0
  0
LINE
  5
19C
330
1F
100
AcDbEntity
  8
2-4
  6
Continuous
 62
     7
370
     9
100
AcDbLine
 10
-60.97099706811332
 20
-120.0173702175068
 30
0.0
 11
-56.01377276124427
 21
-119.3647392564065
 31
0.0
  0
LINE
  5
19D
330
1F
100
AcDbEntity
  8
2-4
  6
Continuous
 62
     7
370
     9
100
AcDbLine
 10
-60.97099706811332
 20
-120.0173702175068
 30
0.0
 11
-56.01377276124427
 21
-120.670001178607
 31
0.0
  0
LINE
  5
19E
330
1F
100
AcDbEntity
  8
2-4
  6
Continuous
 62
     7
370
     9
100
AcDbLine
 10
19.02890136373094
 20
-120.0173702175068
 30
0.0
 11
14.07167705686189
 21
-119.3647392564065
 31
0.0
  0
LINE
  5
19F
330
1F
100
AcDbEntity
  8
2-4
  6
Continuous
 62
     7
370
     9
100
AcDbLine
 10
19.02890136373094
 20
-120.0173702175068
 30
0.0
 11
14.07167705686189
 21
-120.670001178607
 31
0.0
  0
LINE
  5
1A0
330
1F
100
AcDbEntity
  8
2-4
  6
Continuous
 62
     7
370
     9
100
AcDbLine
 10
-60.97099706811332
 20
-120.6173702175067
 30
0.0
 11
-60.97099706811332
 21
-92.3123070326084
 31
0.0
  0
LINE
  5
1A1
330
1F
100
AcDbEntity
  8
2-4
  6
Continuous
 62
     7
370
     9
100
AcDbLine
 10
19.02890136373094
 20
-120.6173702175067
 30
0.0
 11
19.02890136373094
 21
-92.3123070326084
 31
0.0
  0
TEXT
  5
1A2
330
1F
100
AcDbEntity
  8
2-4
  6
Continuous
 62
     2
370
   211
100
AcDbText
 10
-27.47096036453962
 20
-102.9852770828647
 30
0.0
 40
6.096
  1
Rc2
 41
1.083333333333333
  7
ＭＳ ゴシック
100
AcDbText
  0
TEXT
  5
1A3
330
1F
100
AcDbEntity
  8
2-4
  6
Continuous
 62
     2
370
   211
100
AcDbText
 10
-29.72104785219119
 20
-116.8893702175068
 30
0.0
 40
6.096
  1
φ80
 41
1.09375
  7
ＭＳ ゴシック
100
AcDbText
  0
TEXT
  5
1A4
330
1F
100
AcDbEntity
  8
2-4
  6
Continuous
 62
     2
370
   211
100
AcDbText
 10
-31.97096036453959
 20
68.39961506838043
 30
0.0
 40
6.096
  1
φ170
 41
1.1
  7
ＭＳ ゴシック
100
AcDbText
  0
TEXT
  5
1A5
330
1F
100
AcDbEntity
  8
2-4
  6
Continuous
 62
     2
370
   211
100
AcDbText
 10
-31.9709778620699
 20
56.25883570804571
 30
0.0
 40
6.096
  1
φ107
 41
1.1
  7
ＭＳ ゴシック
100
AcDbText
  0
TEXT
  5
1A6
330
1F
100
AcDbEntity
  8
2-4
  6
Continuous
 62
     2
370
   211
100
AcDbText
 10
-31.97090787194864
 20
42.93359006865394
 30
0.0
 40
6.096
  1
φ102
 41
1.1
  7
ＭＳ ゴシック
100
AcDbText
  0
LINE
  5
1A7
330
1F
100
AcDbEntity
  8
2-4
  6
Continuous
 62
     7
370
     9
100
AcDbLine
 10
91.80328426826021
 20
-88.3123070326084
 30
0.0
 11
91.80328426826021
 21
-8.312303615582252
 31
0.0
  0
LINE
  5
1A8
330
1F
100
AcDbEntity
  8
2-4
  6
Continuous
 62
     7
370
     9
100
AcDbLine
 10
91.80328426826021
 20
-88.3123070326084
 30
0.0
 11
91.15065330715996
 21
-83.35508272573935
 31
0.0
  0
LINE
  5
1A9
330
1F
100
AcDbEntity
  8
2-4
  6
Continuous
 62
     7
370
     9
100
AcDbLine
 10
91.80328426826021
 20
-88.3123070326084
 30
0.0
 11
92.45591522936047
 21
-83.35508272573935
 31
0.0
  0
LINE
  5
1AA
330
1F
100
AcDbEntity
  8
2-4
  6
Continuous
 62
     7
370
     9
100
AcDbLine
 10
91.80328426826021
 20
-8.312303615582252
 30
0.0
 11
91.15065330715996
 21
-13.2695279224513
 31
0.0
  0
LINE
  5
1AB
330
1F
100
AcDbEntity
  8
2-4
  6
Continuous
 62
     7
370
     9
100
AcDbLine
 10
91.80328426826021
 20
-8.312303615582252
 30
0.0
 11
92.45591522936047
 21
-13.2695279224513
 31
0.0
  0
LINE
  5
1AC
330
1F
100
AcDbEntity
  8
2-4
  6
Continuous
 62
     7
370
     9
100
AcDbLine
 10
92.40328426826021
 20
-88.3123070326084
 30
0.0
 11
23.02890136373094
 21
-88.3123070326084
 31
0.0
  0
LINE
  5
1AD
330
1F
100
AcDbEntity
  8
2-4
  6
Continuous
 62
     7
370
     9
100
AcDbLine
 10
92.40328426826021
 20
-8.312303615582252
 30
0.0
 11
66.02908211262996
 21
-8.312303615582252
 31
0.0
  0
LINE
  5
1AE
330
1F
100
AcDbEntity
  8
2-4
  6
Continuous
 62
     7
370
     9
100
AcDbLine
 10
91.80328426826021
 20
-8.312303615582252
 30
0.0
 11
91.80328426826021
 21
26.68763882520182
 31
0.0
  0
LINE
  5
1AF
330
1F
100
AcDbEntity
  8
2-4
  6
Continuous
 62
     7
370
     9
100
AcDbLine
 10
91.80328426826021
 20
-8.312303615582252
 30
0.0
 11
91.15065330715996
 21
-3.355079308713201
 31
0.0
  0
LINE
  5
1B0
330
1F
100
AcDbEntity
  8
2-4
  6
Continuous
 62
     7
370
     9
100
AcDbLine
 10
91.80328426826021
 20
-8.312303615582252
 30
0.0
 11
92.45591522936047
 21
-3.355079308713201
 31
0.0
  0
LINE
  5
1B1
330
1F
100
AcDbEntity
  8
2-4
  6
Continuous
 62
     7
370
     9
100
AcDbLine
 10
91.80328426826021
 20
26.68763882520182
 30
0.0
 11
91.15065330715996
 21
21.73041451833277
 31
0.0
  0
LINE
  5
1B2
330
1F
100
AcDbEntity
  8
2-4
  6
Continuous
 62
     7
370
     9
100
AcDbLine
 10
91.80328426826021
 20
26.68763882520182
 30
0.0
 11
92.45591522936047
 21
21.73041451833277
 31
0.0
  0
TEXT
  5
1B3
330
1F
100
AcDbEntity
  8
2-4
  6
Continuous
 62
     2
370
   211
100
AcDbText
 10
88.67528426826021
 20
4.937667604809789
 30
0.0
 40
6.096
  1
35
 50
90.0
 41
1.0625
  7
ＭＳ ゴシック
100
AcDbText
  0
LINE
  5
1B4
330
1F
100
AcDbEntity
  8
2-4
  6
Continuous
 62
     7
370
     9
100
AcDbLine
 10
74.67038797834799
 20
-8.312303615582252
 30
0.0
 11
74.01775701724773
 21
-13.2695279224513
 31
0.0
  0
LINE
  5
1B5
330
1F
100
AcDbEntity
  8
2-4
  6
Continuous
 62
     7
370
     9
100
AcDbLine
 10
74.67038797834799
 20
-8.312303615582252
 30
0.0
 11
75.32301893944825
 21
-13.2695279224513
 31
0.0
  0
LINE
  5
1B6
330
1F
100
AcDbEntity
  8
2-4
  6
Continuous
 62
     7
370
     9
100
AcDbLine
 10
-118.3266496403691
 20
-18.31231716585826
 30
0.0
 11
-118.3266496403691
 21
26.68763882518957
 31
0.0
  0
LINE
  5
1B7
330
1F
100
AcDbEntity
  8
2-4
  6
Continuous
 62
     7
370
     9
100
AcDbLine
 10
-118.3266496403691
 20
-18.31231716585826
 30
0.0
 11
-118.9792806014694
 21
-13.35509285898921
 31
0.0
  0
LINE
  5
1B8
330
1F
100
AcDbEntity
  8
2-4
  6
Continuous
 62
     7
370
     9
100
AcDbLine
 10
-118.3266496403691
 20
-18.31231716585826
 30
0.0
 11
-117.6740186792688
 21
-13.35509285898921
 31
0.0
  0
LINE
  5
1B9
330
1F
100
AcDbEntity
  8
2-4
  6
Continuous
 62
     7
370
     9
100
AcDbLine
 10
-118.3266496403691
 20
26.68763882518957
 30
0.0
 11
-118.9792806014694
 21
21.73041451832052
 31
0.0
  0
LINE
  5
1BA
330
1F
100
AcDbEntity
  8
2-4
  6
Continuous
 62
     7
370
     9
100
AcDbLine
 10
-118.3266496403691
 20
26.68763882518957
 30
0.0
 11
-117.6740186792688
 21
21.73041451832052
 31
0.0
  0
LINE
  5
1BB
330
1F
100
AcDbEntity
  8
2-4
  6
Continuous
 62
     7
370
     9
100
AcDbLine
 10
-118.9266496403691
 20
-18.31231716585826
 30
0.0
 11
-74.15121632807495
 21
-18.31231716585826
 31
0.0
  0
TEXT
  5
1BC
330
1F
100
AcDbEntity
  8
2-4
  6
Continuous
 62
     2
370
   211
100
AcDbText
 10
-121.4546496403691
 20
-0.0623391703343436
 30
0.0
 40
6.096
  1
45
 50
90.0
 41
1.0625
  7
ＭＳ ゴシック
100
AcDbText
  0
LINE
  5
1BD
330
1F
100
AcDbEntity
  8
2-4
  6
Continuous
 62
     7
370
     9
100
AcDbLine
 10
-118.9266496403691
 20
26.68763882518957
 30
0.0
 11
-34.9708918472744
 21
26.68763882518957
 31
0.0
  0
LINE
  5
1BE
330
1F
100
AcDbEntity
  8
2-4
  6
Continuous
 62
     7
370
     9
100
AcDbLine
 10
92.40328426826021
 20
26.68763882520182
 30
0.0
 11
-6.970993886744168
 21
26.68763882520183
 31
0.0
  0
LINE
  5
1BF
330
1F
100
AcDbEntity
  8
2-5
  6
Continuous
 62
     7
370
     9
100
AcDbLine
 10
-99.9709600697633
 20
-17.31226682472573
 30
0.0
 11
-101.8843874742186
 21
-21.93167138553651
 31
0.0
  0
LINE
  5
1C0
330
1F
100
AcDbEntity
  8
2-5
  6
Continuous
 62
     7
370
     9
100
AcDbLine
 10
-99.9709600697633
 20
-17.31226682472573
 30
0.0
 11
-103.0147668159627
 21
-21.27902410935412
 31
0.0
  0
LINE
  5
1C1
330
1F
100
AcDbEntity
  8
2-5
  6
Continuous
 62
     7
370
     9
100
AcDbLine
 10
-99.9709600697633
 20
-17.31226682472573
 30
0.0
 11
-113.8273426975083
 21
-41.31227177352216
 31
0.0
  0
LINE
  5
1C2
330
1F
100
AcDbEntity
  8
2-5
  6
Continuous
 62
     7
370
     9
100
AcDbLine
 10
-82.97088454170324
 20
-59.31218375564246
 30
0.0
 11
-84.88431194615856
 21
-63.93158831645324
 31
0.0
  0
LINE
  5
1C3
330
1F
100
AcDbEntity
  8
2-5
  6
Continuous
 62
     7
370
     9
100
AcDbLine
 10
-82.97088454170324
 20
-59.31218375564246
 30
0.0
 11
-86.01469128790262
 21
-63.27894104027084
 31
0.0
  0
LINE
  5
1C4
330
1F
100
AcDbEntity
  8
2-5
  6
Continuous
 62
     7
370
     9
100
AcDbLine
 10
-82.97088454170324
 20
-59.31218375564246
 30
0.0
 11
-96.82726716944825
 21
-83.31218870443888
 31
0.0
  0
LINE
  5
1C5
330
1F
100
AcDbEntity
  8
2-5
  6
Continuous
 62
     7
370
     9
100
AcDbLine
 10
-74.8274044398405
 20
-112.3122872374226
 30
0.0
 11
-144.6028121053841
 21
-112.3122872374226
 31
0.0
  0
TEXT
  5
1C6
330
1F
100
AcDbEntity
  8
2-5
  6
Continuous
 62
     7
370
     9
100
AcDbText
 10
-126.3274192862299
 20
-109.8528806179125
 30
0.0
 40
4.572
  1
スペーサー
 41
1.133333333333333
  7
ＭＳ ゴシック
100
AcDbText
  0
LINE
  5
1C7
330
1F
100
AcDbEntity
  8
2-5
  6
Continuous
 62
     7
370
     9
100
AcDbLine
 10
-60.97099706811332
 20
-88.3123070326084
 30
0.0
 11
-74.8274044398405
 21
-112.3122872374226
 31
0.0
  0
LINE
  5
1C8
330
1F
100
AcDbEntity
  8
2-5
  6
Continuous
 62
     7
370
     9
100
AcDbLine
 10
-60.97099706811332
 20
-88.3123070326084
 30
0.0
 11
-64.0148038143127
 21
-92.27906431723679
 31
0.0
  0
LINE
  5
1C9
330
1F
100
AcDbEntity
  8
2-5
  6
Continuous
 62
     7
370
     9
100
AcDbLine
 10
-60.97099706811332
 20
-88.3123070326084
 30
0.0
 11
-62.88444921655082
 21
-92.93171159341924
 31
0.0
  0
LINE
  5
1CA
330
1F
100
AcDbEntity
  8
2-5
  6
Continuous
 62
     7
370
     9
100
AcDbLine
 10
-46.97088544607232
 20
24.84011057150724
 30
0.0
 11
-50.01469219227158
 21
28.80686785613563
 31
0.0
  0
LINE
  5
1CB
330
1F
100
AcDbEntity
  8
2-5
  6
Continuous
 62
     7
370
     9
100
AcDbLine
 10
-46.97088544607232
 20
24.84011057150724
 30
0.0
 11
-48.88433759450982
 21
29.45951513231802
 31
0.0
  0
LINE
  5
1CC
330
1F
100
AcDbEntity
  8
2-5
  6
Continuous
 62
     7
370
     9
100
AcDbLine
 10
-173.6597758767319
 20
93.14170554768461
 30
0.0
 11
-86.40486482808922
 21
93.14170554768461
 31
0.0
  0
LINE
  5
1CD
330
1F
100
AcDbEntity
  8
2-5
  6
Continuous
 62
     7
370
     9
100
AcDbLine
 10
-46.97088544607232
 20
24.84011057150724
 30
0.0
 11
-86.40486482808922
 21
93.14170554768461
 31
0.0
  0
LINE
  5
1CE
330
1F
100
AcDbEntity
  8
2-5
  6
Continuous
 62
     7
370
     9
100
AcDbLine
 10
26.02903333163641
 20
-7.902931396334552
 30
0.0
 11
26.68168060781892
 21
-2.945697245680023
 31
0.0
  0
LINE
  5
1CF
330
1F
100
AcDbEntity
  8
2-5
  6
Continuous
 62
     7
370
     9
100
AcDbLine
 10
26.02903333163641
 20
-7.902931396334552
 30
0.0
 11
27.94243599210944
 21
-3.283526835523773
 31
0.0
  0
LINE
  5
1D0
330
1F
100
AcDbEntity
  8
2-5
  6
Continuous
 62
     7
370
     9
100
AcDbLine
 10
26.02903333163641
 20
-7.902931396334552
 30
0.0
 11
49.9044448845703
 21
81.20117339019455
 31
0.0
  0
LINE
  5
1D1
330
1F
100
AcDbEntity
  8
2-2
  6
Continuous
 62
     7
370
     9
100
AcDbLine
 10
10.41560208597241
 20
-75.96720447940643
 30
0.0
 11
24.20257112724443
 21
-73.53616760757367
 31
0.0
  0
LINE
  5
1D2
330
1F
100
AcDbEntity
  8
2-2
  6
Continuous
 62
     7
370
     9
100
AcDbLine
 10
11.11016655182289
 20
-79.90645847426347
 30
0.0
 11
24.89722308074647
 21
-77.4753866073701
 31
0.0
  0
LINE
  5
1D3
330
1F
100
AcDbEntity
  8
2-2
  6
Continuous
 62
     7
370
     9
100
AcDbLine
 10
-67.08435419965892
 20
-75.96720447940642
 30
0.0
 11
-53.29735016332626
 21
-73.53616760757366
 31
0.0
  0
LINE
  5
1D4
330
1F
100
AcDbEntity
  8
2-2
  6
Continuous
 62
     7
370
     9
100
AcDbLine
 10
-66.38978973380841
 20
-79.90645847426346
 30
0.0
 11
-52.60273320488483
 21
-77.47538660737008
 31
0.0
  0
LINE
  5
1D5
330
1F
100
AcDbEntity
  8
2-2
  6
Continuous
 62
     4
370
     9
100
AcDbLine
 10
-60.97099706811329
 20
-88.31230703260839
 30
0.0
 11
19.02890136373094
 21
-88.3123070326084
 31
0.0
  0
LINE
  5
1D6
330
1F
100
AcDbEntity
  8
2-3
  6
Continuous
 62
     4
370
     9
100
AcDbLine
 10
30.84746823469648
 20
-9.728623709392572
 30
0.0
 11
31.02895261912279
 21
-11.80292093316493
 31
0.0
  0
LINE
  5
1D7
330
1F
100
AcDbEntity
  8
2-3
  6
Continuous
 62
     4
370
     9
100
AcDbLine
 10
23.20276224505029
 20
-7.902931396334544
 30
0.0
 11
28.85505945279796
 21
-7.902931396334544
 31
0.0
  0
LINE
  5
1D8
330
1F
100
AcDbEntity
  8
2-3
  6
Continuous
 62
     4
370
     9
100
AcDbLine
 10
21.02897406390743
 20
-11.80292093316493
 30
0.0
 11
31.02895261912279
 21
-11.80292093316493
 31
0.0
  0
LINE
  5
1D9
330
1F
100
AcDbEntity
  8
2-3
  6
Continuous
 62
     4
370
     9
100
AcDbLine
 10
21.21045844833368
 20
-9.728623709392572
 30
0.0
 11
21.02897406390743
 21
-11.80292093316493
 31
0.0
  0
LINE
  5
1DA
330
1F
100
AcDbEntity
  8
2-3
  6
Continuous
 62
     4
370
     9
100
AcDbLine
 10
23.52902119530218
 20
-23.8029371934961
 30
0.0
 11
23.02901176902323
 21
-23.30292776721715
 31
0.0
  0
LINE
  5
1DB
330
1F
100
AcDbEntity
  8
2-3
  6
Continuous
 62
     4
370
     9
100
AcDbLine
 10
23.02901176902323
 20
-23.30292776721715
 30
0.0
 11
29.02898490412822
 21
-23.30292776721715
 31
0.0
  0
LINE
  5
1DC
330
1F
100
AcDbEntity
  8
2-3
  6
Continuous
 62
     4
370
     9
100
AcDbLine
 10
23.52902119530218
 20
-23.8029371934961
 30
0.0
 11
28.52897547784927
 21
-23.8029371934961
 31
0.0
  0
LINE
  5
1DD
330
1F
100
AcDbEntity
  8
2-3
  6
Continuous
 62
     4
370
     9
100
AcDbLine
 10
29.02898490412822
 20
-23.30292776721715
 30
0.0
 11
28.52897547784927
 21
-23.8029371934961
 31
0.0
  0
LINE
  5
1DE
330
1F
100
AcDbEntity
  8
2-3
  6
Continuous
 62
     4
370
     9
100
AcDbLine
 10
23.028941778902
 20
-11.80292093316493
 30
0.0
 11
23.028941778902
 21
-23.30292776721715
 31
0.0
  0
LINE
  5
1DF
330
1F
100
AcDbEntity
  8
2-3
  6
Continuous
 62
     4
370
     9
100
AcDbLine
 10
28.52897547784927
 20
-11.80292093316493
 30
0.0
 11
28.52897547784927
 21
-23.8029371934961
 31
0.0
  0
LINE
  5
1E0
330
1F
100
AcDbEntity
  8
2-3
  6
Continuous
 62
     4
370
     9
100
AcDbLine
 10
23.52902119530218
 20
-11.80292093316493
 30
0.0
 11
23.52902119530218
 21
-23.8029371934961
 31
0.0
  0
LINE
  5
1E1
330
1F
100
AcDbEntity
  8
2-3
  6
Continuous
 62
     4
370
     9
100
AcDbLine
 10
29.02891491400693
 20
-11.80292093316493
 30
0.0
 11
29.02891491400693
 21
-23.30292776721715
 31
0.0
  0
LINE
  5
1E2
330
1F
100
AcDbEntity
  8
2-2
  6
Continuous
 62
     4
370
     9
100
AcDbLine
 10
19.02890136373094
 20
-78.51015555513342
 30
0.0
 11
19.02890136373094
 21
-88.3123070326084
 31
0.0
  0
LINE
  5
1E3
330
1F
100
AcDbEntity
  8
2-2
  6
Continuous
 62
     4
370
     9
100
AcDbLine
 10
16.52899421257865
 20
-78.95095333882668
 30
0.0
 11
16.52899421257865
 21
-88.3123070326084
 31
0.0
  0
LINE
  5
1E4
330
1F
100
AcDbEntity
  8
2-2
  6
Continuous
 62
     4
370
     9
100
AcDbLine
 10
-58.47101992683977
 20
-78.51015555513341
 30
0.0
 11
-58.47101992683977
 21
-88.31230703260839
 31
0.0
  0
LINE
  5
1E5
330
1F
100
AcDbEntity
  8
2-2
  6
Continuous
 62
     4
370
     9
100
AcDbLine
 10
-60.97099706811329
 20
-78.95095333882666
 30
0.0
 11
-60.97099706811329
 21
-88.31230703260839
 31
0.0
  0
LINE
  5
1E6
330
1F
100
AcDbEntity
  8
2-0
  6
JWW_CENTER2
 62
     3
370
     9
100
AcDbLine
 10
-20.97097786206988
 20
33.3747574733038
 30
0.0
 11
-20.9709778620699
 21
-91.35540751485681
 31
0.0
  0
LINE
  5
1E7
330
1F
100
AcDbEntity
  8
2-1
  6
Continuous
 62
     6
370
     5
100
AcDbLine
 10
-71.13170793680145
 20
-17.50844562813052
 30
0.0
 11
-71.97092448576531
 21
-13.31225789812931
 31
0.0
  0
LINE
  5
1E8
330
1F
100
AcDbEntity
  8
2-1
  6
Continuous
 62
     6
370
     5
100
AcDbLine
 10
-59.40633291229311
 20
-16.82996139263943
 30
0.0
 11
-50.57917881902576
 21
16.1134788127026
 31
0.0
  0
LINE
  5
1E9
330
1F
100
AcDbEntity
  8
2-1
  6
Continuous
 62
     6
370
     5
100
AcDbLine
 10
-63.5589517918102
 20
-12.86953538610135
 30
0.0
 11
-71.97092448576531
 21
-13.31225789812931
 31
0.0
  0
LINE
  5
1EA
330
1F
100
AcDbEntity
  8
2-1
  6
Continuous
 62
     6
370
     5
100
AcDbLine
 10
-25.47095771339864
 20
26.63708846012205
 30
0.0
 11
-23.97092943456176
 21
22.66476413296986
 31
0.0
  0
LINE
  5
1EB
330
1F
100
AcDbEntity
  8
2-1
  6
Continuous
 62
     6
370
     5
100
AcDbLine
 10
-32.47087971094025
 20
22.35005355272583
 30
0.0
 11
-30.97095641728527
 21
26.43754662441084
 31
0.0
  0
LINE
  5
1EC
330
1F
100
AcDbEntity
  8
2-1
  6
Continuous
 62
     6
370
     5
100
AcDbLine
 10
-34.97089184727441
 20
26.19709556282326
 30
0.0
 11
-35.97091069983234
 21
25.12155736942621
 31
0.0
  0
LINE
  5
1ED
330
1F
100
AcDbEntity
  8
2-1
  6
Continuous
 62
     6
370
     5
100
AcDbLine
 10
-35.97091069983234
 20
25.12155736942621
 30
0.0
 11
-34.47091741605607
 21
22.2222165962451
 31
0.0
  0
LINE
  5
1EE
330
1F
100
AcDbEntity
  8
2-1
  6
Continuous
 62
     6
370
     5
100
AcDbLine
 10
-46.9709081076056
 20
24.84012709184115
 30
0.0
 11
-45.9708892550477
 21
24.11110998880057
 31
0.0
  0
LINE
  5
1EF
330
1F
100
AcDbEntity
  8
2-1
  6
Continuous
 62
     6
370
     5
100
AcDbLine
 10
-45.9708892550477
 20
24.11110998880057
 30
0.0
 11
-47.47091753388458
 21
20.27285173892123
 31
0.0
  0
LINE
  5
1F0
330
1F
100
AcDbEntity
  8
2-1
  6
Continuous
 62
     6
370
     5
100
AcDbLine
 10
29.18989219290417
 20
-17.50844562813055
 30
0.0
 11
30.02910874186803
 21
-13.31225789812934
 31
0.0
  0
LINE
  5
1F1
330
1F
100
AcDbEntity
  8
2-1
  6
Continuous
 62
     6
370
     5
100
AcDbLine
 10
-63.64680689152136
 20
-17.20052408964865
 30
0.0
 11
-54.44287847798297
 21
17.1487726863754
 31
0.0
  0
LINE
  5
1F2
330
1F
100
AcDbEntity
  8
2-1
  6
Continuous
 62
     6
370
     5
100
AcDbLine
 10
-20.97090787194865
 20
-18.31228217079765
 30
0.0
 11
-70.1511463379537
 21
-18.31228217079764
 31
0.0
  0
LINE
  5
1F3
330
1F
100
AcDbEntity
  8
2-1
  6
Continuous
 62
     6
370
     5
100
AcDbLine
 10
-50.69322772161836
 20
15.68765891495887
 30
0.0
 11
-54.83443821137011
 21
15.68765891495887
 31
0.0
  0
LINE
  5
1F4
330
1F
100
AcDbEntity
  8
2-1
  6
JWW_DASHED1
 62
     6
370
     5
100
AcDbLine
 10
8.751376982660435
 20
15.68765891495887
 30
0.0
 11
12.89262246747281
 21
15.68765891495887
 31
0.0
  0
LINE
  5
1F5
330
1F
100
AcDbEntity
  8
2-1
  6
Continuous
 62
     6
370
     5
100
AcDbLine
 10
29.02915987943136
 20
-12.25824166701958
 30
0.0
 11
30.02910874186803
 21
-13.31225789812934
 31
0.0
  0
LINE
  5
1F6
330
1F
100
AcDbEntity
  8
2-1
  6
Continuous
 62
     6
370
     5
100
AcDbLine
 10
19.77905548339193
 20
-18.31228217079767
 30
0.0
 11
21.27915375235001
 21
-12.81252843233538
 31
0.0
  0
LINE
  5
1F7
330
1F
100
AcDbEntity
  8
2-1
  6
Continuous
 62
     6
370
     5
100
AcDbLine
 10
-20.97090787194865
 20
-18.31228217079765
 30
0.0
 11
23.02915174926575
 21
-18.31228217079767
 31
0.0
  0
LINE
  5
1F8
330
1F
100
AcDbEntity
  8
2-1
  6
Continuous
 62
     6
370
     5
100
AcDbLine
 10
21.61713604791289
 20
-12.86953538610138
 30
0.0
 11
23.02915174926575
 21
-12.94386489487912
 31
0.0
  0
LINE
  5
1F9
330
1F
100
AcDbEntity
  8
2-1
  6
Continuous
 62
     6
370
     5
100
AcDbLine
 10
29.02915987943136
 20
-13.25966032200271
 30
0.0
 11
30.02910874186803
 21
-13.31225789812934
 31
0.0
  0
LINE
  5
1FA
330
1F
100
AcDbEntity
  8
2-1
  6
Continuous
 62
     6
370
     5
100
AcDbLine
 10
21.345049451516
 20
-11.85380375132068
 30
0.0
 11
23.02915174926575
 21
-11.94251623001728
 31
0.0
  0
LINE
  5
1FB
330
1F
100
AcDbEntity
  8
2-1
  6
Continuous
 62
     6
370
     5
100
AcDbLine
 10
20.24711441931585
 20
-11.75984201352961
 30
0.0
 11
12.5010627340857
 21
17.1487726863754
 31
0.0
  0
LINE
  5
1FC
330
1F
100
AcDbEntity
  8
2-1
  6
Continuous
 62
     6
370
     5
100
AcDbLine
 10
17.46441218321395
 20
-16.82996139263943
 30
0.0
 11
8.63736307512848
 21
16.1134788127026
 31
0.0
  0
LINE
  5
1FD
330
1F
100
AcDbEntity
  8
2-1
  6
JWW_DASHED1
 62
     6
370
     5
100
AcDbLine
 10
-16.47092802061989
 20
26.63708846012205
 30
0.0
 11
-17.97095629945679
 21
22.66476413296986
 31
0.0
  0
LINE
  5
1FE
330
1F
100
AcDbEntity
  8
2-1
  6
JWW_DASHED1
 62
     6
370
     5
100
AcDbLine
 10
-9.471006023078283
 20
22.35005355272583
 30
0.0
 11
-10.97092931673328
 21
26.43754662441084
 31
0.0
  0
LINE
  5
1FF
330
1F
100
AcDbEntity
  8
2-1
  6
JWW_DASHED1
 62
     6
370
     5
100
AcDbLine
 10
-6.970993886744147
 20
26.19709556282326
 30
0.0
 11
-5.970975034186189
 21
25.12155736942621
 31
0.0
  0
LINE
  5
200
330
1F
100
AcDbEntity
  8
2-1
  6
JWW_DASHED1
 62
     6
370
     5
100
AcDbLine
 10
-5.970975034186189
 20
25.12155736942621
 30
0.0
 11
-7.470968317962482
 21
22.2222165962451
 31
0.0
  0
LINE
  5
201
330
1F
100
AcDbEntity
  8
2-1
  6
JWW_DASHED1
 62
     6
370
     5
100
AcDbLine
 10
5.029022373587075
 20
24.84012709184115
 30
0.0
 11
4.029003521029175
 21
24.11110998880057
 31
0.0
  0
LINE
  5
202
330
1F
100
AcDbEntity
  8
2-1
  6
JWW_DASHED1
 62
     6
370
     5
100
AcDbLine
 10
4.029003521029175
 20
24.11110998880057
 30
0.0
 11
5.529031799866026
 21
20.27285173892123
 31
0.0
  0
ARC
  5
203
330
1F
100
AcDbEntity
  8
2-3
  6
Continuous
 62
     4
370
     9
100
AcDbCircle
 10
28.85505945279796
 20
-9.902934106389786
 30
0.0
 40
1.999999976066088
100
AcDbArc
 50
5.000015258789066
 51
90.0
  0
ARC
  5
204
330
1F
100
AcDbEntity
  8
2-3
  6
Continuous
 62
     4
370
     9
100
AcDbCircle
 10
23.20276224505029
 20
-9.902934106389786
 30
0.0
 40
1.999999976066088
100
AcDbArc
 50
90.0
 51
174.9999847412109
  0
ARC
  5
205
330
1F
100
AcDbEntity
  8
2-1
  6
Continuous
 62
     6
370
     5
100
AcDbCircle
 10
-70.1511463379537
 20
-17.31229831330035
 30
0.0
 40
0.9999999880330442
100
AcDbArc
 50
191.3099365234376
 51
270.0
  0
ARC
  5
206
330
1F
100
AcDbEntity
  8
2-1
  6
Continuous
 62
     6
370
     5
100
AcDbCircle
 10
-20.97090787194868
 20
-173.3123697173635
 30
0.0
 40
196.0000206199852
100
AcDbArc
 50
90.0
 51
96.9430389404297
  0
ARC
  5
207
330
1F
100
AcDbEntity
  8
2-1
  6
Continuous
 62
     6
370
     5
100
AcDbCircle
 10
-20.97090787194868
 20
-173.3123697173635
 30
0.0
 40
200.0000085425653
100
AcDbArc
 50
90.0
 51
96.94302368164062
  0
ARC
  5
208
330
1F
100
AcDbEntity
  8
2-1
  6
Continuous
 62
     6
370
     5
100
AcDbCircle
 10
-43.81767816955512
 20
14.30174952883588
 30
0.0
 40
6.999999642832399
100
AcDbArc
 50
96.94316101074219
 51
165.0000457763672
  0
ARC
  5
209
330
1F
100
AcDbEntity
  8
2-1
  6
Continuous
 62
     6
370
     5
100
AcDbCircle
 10
-43.81767816955512
 20
14.30174952883588
 30
0.0
 40
11.00000068856022
100
AcDbArc
 50
96.94294738769531
 51
165.0
  0
ARC
  5
20A
330
1F
100
AcDbEntity
  8
2-1
  6
Continuous
 62
     6
370
     5
100
AcDbCircle
 10
-61.33820023930205
 20
-16.31231445580301
 30
0.0
 40
1.999999976066088
100
AcDbArc
 50
270.0
 51
344.9999084472656
  0
ARC
  5
20B
330
1F
100
AcDbEntity
  8
2-1
  6
Continuous
 62
     6
370
     5
100
AcDbCircle
 10
-63.63779566340919
 20
-11.37167680102352
 30
0.0
 40
1.499999982049566
100
AcDbArc
 50
273.0126342773438
 51
344.9995422363281
  0
ARC
  5
20C
330
1F
100
AcDbEntity
  8
2-1
  6
JWW_DASHED1
 62
     6
370
     5
100
AcDbCircle
 10
-20.97090787194868
 20
-173.3123697173635
 30
0.0
 40
198.9999896900074
100
AcDbArc
 50
94.3228759765625
 51
97.21702575683594
  0
ARC
  5
20D
330
1F
100
AcDbEntity
  8
2-1
  6
Continuous
 62
     6
370
     5
100
AcDbCircle
 10
-20.97090787194868
 20
-173.3123697173635
 30
0.0
 40
196.0000206199852
100
AcDbArc
 50
83.05696105957031
 51
90.0
  0
ARC
  5
20E
330
1F
100
AcDbEntity
  8
2-1
  6
Continuous
 62
     6
370
     5
100
AcDbCircle
 10
-20.97090787194868
 20
-173.3123697173635
 30
0.0
 40
200.0000085425653
100
AcDbArc
 50
83.0569763183594
 51
90.00000000000001
  0
ARC
  5
20F
330
1F
100
AcDbEntity
  8
2-1
  6
Continuous
 62
     6
370
     5
100
AcDbCircle
 10
1.875792435536557
 20
14.30174952883588
 30
0.0
 40
6.999999642832399
100
AcDbArc
 50
14.99993896484375
 51
83.05683898925781
  0
ARC
  5
210
330
1F
100
AcDbEntity
  8
2-1
  6
Continuous
 62
     6
370
     5
100
AcDbCircle
 10
1.875792435536557
 20
14.30174952883588
 30
0.0
 40
11.00000068856022
100
AcDbArc
 50
15.00000000000001
 51
83.0570526123047
  0
ARC
  5
211
330
1F
100
AcDbEntity
  8
2-1
  6
Continuous
 62
     6
370
     5
100
AcDbCircle
 10
19.39631450528351
 20
-16.31231445580304
 30
0.0
 40
1.999999976066088
100
AcDbArc
 50
195.0000915527344
 51
270.0
  0
ARC
  5
212
330
1F
100
AcDbEntity
  8
2-1
  6
Continuous
 62
     6
370
     5
100
AcDbCircle
 10
21.69597991951191
 20
-11.37167680102355
 30
0.0
 40
1.499999982049566
100
AcDbArc
 50
195.0004577636719
 51
266.9873657226562
  0
ARC
  5
213
330
1F
100
AcDbEntity
  8
2-1
  6
Continuous
 62
     6
370
     5
100
AcDbCircle
 10
-65.09565489418712
 20
-16.81228888702135
 30
0.0
 40
1.499999982049566
100
AcDbArc
 50
270.0
 51
345.0000305175781
  0
ARC
  5
214
330
1F
100
AcDbEntity
  8
2-1
  6
Continuous
 62
     6
370
     5
100
AcDbCircle
 10
21.42385832805435
 20
-10.35587517612161
 30
0.0
 40
1.499999982049566
100
AcDbArc
 50
195.0004577636719
 51
266.9873657226562
  0
ARC
  5
215
330
1F
100
AcDbEntity
  8
2-1
  6
Continuous
 62
     6
370
     5
100
AcDbCircle
 10
28.2093305940564
 20
-17.31229831330038
 30
0.0
 40
0.9999999880330442
100
AcDbArc
 50
325.0665130615234
 51
348.6900634765626
  0
ARC
  5
216
330
1F
100
AcDbEntity
  8
2-1
  6
JWW_DASHED1
 62
     6
370
     5
100
AcDbCircle
 10
-20.97097786206992
 20
-173.3123697173635
 30
0.0
 40
198.9999896900074
100
AcDbArc
 50
82.78297424316409
 51
85.67712402343753
  0
LINE
  5
217
330
1F
100
AcDbEntity
  8
2-5
  6
Continuous
 62
     7
370
     9
100
AcDbLine
 10
-184.1484644582471
 20
-41.31227177352216
 30
0.0
 11
-113.8273426975083
 21
-41.31227177352216
 31
0.0
  0
LINE
  5
218
330
1F
100
AcDbEntity
  8
2-5
  6
Continuous
 62
     7
370
     9
100
AcDbLine
 10
-167.4169254658385
 20
-83.31218870443888
 30
0.0
 11
-96.82726716944825
 21
-83.31218870443888
 31
0.0
  0
TEXT
  5
219
330
1F
100
AcDbEntity
  8
F-0
  6
Continuous
 62
     2
370
     9
100
AcDbText
 10
-30.96238683127574
 20
-182.5187489711934
 30
0.0
 40
6.096
  1
※ご注文の際はＣ寸法をご指示ください。
 41
1.118421052631579
  7
ＭＳ ゴシック
100
AcDbText
  0
TEXT
  5
21A
330
1F
100
AcDbEntity
  8
F-5
  6
Continuous
 62
     2
370
     9
100
AcDbText
 10
-26.10362139917697
 20
-222.1560594308738
 30
0.0
 40
6.096
  1
鋳鉄製高耐食性ルーフドレン　防水層塗掛け幅25mm　たて引き用　打込型
 41
0.6492424242424244
  7
ＭＳ ゴシック
100
AcDbText
  0
TEXT
  5
21B
330
1F
100
AcDbEntity
  8
F-5
  6
Continuous
 62
     2
370
     9
100
AcDbText
 10
-26.04932647462283
 20
-231.7685625786955
 30
0.0
 40
6.096
  1
ねじ込み式　塗膜・モルタル防水用　　ＷＭＲ－２Ｒ－５０　Ｃ＝指示
 41
0.64921875
  7
ＭＳ ゴシック
100
AcDbText
  0
TEXT
  5
21C
330
1F
100
AcDbEntity
  8
2-4
  6
Continuous
 62
     2
370
   211
100
AcDbText
 10
88.67528426826021
 20
-52.31230532409533
 30
0.0
 40
6.096
  1
Ｃ
 50
90.0
  7
ＭＳ ゴシック
100
AcDbText
  0
TEXT
  5
21D
330
1F
100
AcDbEntity
  8
2-5
  6
Continuous
 62
     7
370
     9
100
AcDbText
 10
-166.6220963176434
 20
-81.2359530710835
 30
0.0
 40
4.572
  1
アンカー：ＳＷＲＭ８
 41
1.15
  7
ＭＳ ゴシック
100
AcDbText
  0
TEXT
  5
21E
330
1F
100
AcDbEntity
  8
2-5
  6
Continuous
 62
     7
370
     9
100
AcDbText
 10
-166.6220963176434
 20
-89.60172256728778
 30
0.0
 40
4.572
  1
ナイロンコーティング
 41
1.15
  7
ＭＳ ゴシック
100
AcDbText
  0
TEXT
  5
21F
330
1F
100
AcDbEntity
  8
2-5
  6
Continuous
 62
     7
370
     9
100
AcDbText
 10
-140.2812107906071
 20
-119.4377483302961
 30
0.0
 40
4.572
  1
硬質ポリ塩化ビニル
 41
1.148148148148148
  7
ＭＳ ゴシック
100
AcDbText
  0
TEXT
  5
220
330
1F
100
AcDbEntity
  8
2-5
  6
Continuous
 62
     7
370
     9
100
AcDbText
 10
-176.4879035778777
 20
-38.74665010351967
 30
0.0
 40
4.572
  1
本体：ＦＣ１５０
 41
1.145833333333333
  7
ＭＳ ゴシック
100
AcDbText
  0
TEXT
  5
221
330
1F
100
AcDbEntity
  8
2-5
  6
Continuous
 62
     7
370
     9
100
AcDbText
 10
-183.4879035778777
 20
-47.5527232574189
 30
0.0
 40
4.572
  1
ナイロンコーティング
 41
1.15
  7
ＭＳ ゴシック
100
AcDbText
  0
TEXT
  5
222
330
1F
100
AcDbEntity
  8
2-5
  6
Continuous
 62
     7
370
     9
100
AcDbText
 10
-171.5323203524106
 20
95.78011013488899
 30
0.0
 40
4.572
  1
ストレーナー：ＦＣ１５０
 41
1.152777777777778
  7
ＭＳ ゴシック
100
AcDbText
  0
TEXT
  5
223
330
1F
100
AcDbEntity
  8
2-5
  6
Continuous
 62
     7
370
     9
100
AcDbText
 10
-164.5323203524106
 20
86.47340352593628
 30
0.0
 40
4.572
  1
ナイロンコーティング
 41
1.15
  7
ＭＳ ゴシック
100
AcDbText
  0
LINE
  5
224
330
1F
100
AcDbEntity
  8
2-5
  6
Continuous
 62
     7
370
     9
100
AcDbLine
 10
49.9044448845703
 20
81.20117339019455
 30
0.0
 11
129.088207776445
 21
81.20117339019455
 31
0.0
  0
TEXT
  5
225
330
1F
100
AcDbEntity
  8
2-5
  6
Continuous
 62
     7
370
     9
100
AcDbText
 10
51.49632633050766
 20
85.20005161021143
 30
0.0
 40
4.572
  1
丸小ねじ：Ｃ２７００Ｗ
 41
1.151515151515152
  7
ＭＳ ゴシック
100
AcDbText
  0
TEXT
  5
226
330
1F
100
AcDbEntity
  8
2-5
  6
Continuous
 62
     7
370
     9
100
AcDbText
 10
72.49632633050766
 20
74.38089382938372
 30
0.0
 40
4.572
  1
Ｍ６×１２
 41
1.133333333333333
  7
ＭＳ ゴシック
100
AcDbText
  0
LINE
  5
227
330
1F
100
AcDbEntity
  8
2-0
  6
Continuous
 62
     3
370
     9
100
AcDbLine
 10
-74.33088638945893
 20
-38.31216929110713
 30
0.0
 11
-76.07773483091806
 21
-38.31216929110713
 31
0.0
  0
LINE
  5
228
330
1F
100
AcDbEntity
  8
2-0
  6
Continuous
 62
     3
370
     9
100
AcDbLine
 10
-63.15712006385034
 20
-38.31216929110713
 30
0.0
 11
-69.61096258207172
 21
-38.31216929110713
 31
0.0
  0
LINE
  5
229
330
1F
100
AcDbEntity
  8
2-0
  6
Continuous
 62
     3
370
     9
100
AcDbLine
 10
-105.0804862439172
 20
-9.188264978207435
 30
0.0
 11
-105.9709705567037
 21
-16.3122794607424
 31
0.0
  0
LINE
  5
22A
330
1F
100
AcDbEntity
  8
2-0
  6
Continuous
 62
     3
370
     9
100
AcDbLine
 10
-82.97085190341735
 20
-56.3119837112401
 30
0.0
 11
-82.97085190341735
 21
-62.31199184140572
 31
0.0
  0
LINE
  5
22B
330
1F
100
AcDbEntity
  8
2-0
  6
Continuous
 62
     3
370
     9
100
AcDbLine
 10
-68.79585762988182
 20
-32.11202440919956
 30
0.0
 11
-75.14578137128504
 21
-32.11202440919956
 31
0.0
  0
LINE
  5
22C
330
1F
100
AcDbEntity
  8
2-0
  6
Continuous
 62
     3
370
     9
100
AcDbLine
 10
-68.79585762988182
 20
-32.11202440919956
 30
0.0
 11
-69.61096258207172
 21
-31.31210731332296
 31
0.0
  0
LINE
  5
22D
330
1F
100
AcDbEntity
  8
2-0
  6
Continuous
 62
     3
370
     9
100
AcDbLine
 10
-74.33088638945893
 20
-31.31210731332296
 30
0.0
 11
-75.14578137128504
 21
-32.11202440919956
 31
0.0
  0
LINE
  5
22E
330
1F
100
AcDbEntity
  8
2-0
  6
Continuous
 62
     3
370
     9
100
AcDbLine
 10
-69.61096258207172
 20
-31.31210731332296
 30
0.0
 11
-74.33088638945893
 21
-31.31210731332296
 31
0.0
  0
LINE
  5
22F
330
1F
100
AcDbEntity
  8
2-0
  6
Continuous
 62
     3
370
     9
100
AcDbLine
 10
-76.97080877819113
 20
-56.31198371124011
 30
0.0
 11
-82.97085190341735
 21
-56.3119837112401
 31
0.0
  0
LINE
  5
230
330
1F
100
AcDbEntity
  8
2-0
  6
Continuous
 62
     3
370
     9
100
AcDbLine
 10
-68.97076294290969
 20
-54.31208598636683
 30
0.0
 11
-68.97076294290969
 21
-41.31205087347771
 31
0.0
  0
LINE
  5
231
330
1F
100
AcDbEntity
  8
2-0
  6
Continuous
 62
     3
370
     9
100
AcDbLine
 10
-76.97080877819113
 20
-62.31199184140572
 30
0.0
 11
-82.97085190341735
 21
-62.31199184140572
 31
0.0
  0
LINE
  5
232
330
1F
100
AcDbEntity
  8
2-0
  6
Continuous
 62
     3
370
     9
100
AcDbLine
 10
-74.97084106319656
 20
-54.31208598636683
 30
0.0
 11
-74.97084106319656
 21
-41.31205087347771
 31
0.0
  0
LINE
  5
233
330
1F
100
AcDbEntity
  8
2-0
  6
Continuous
 62
     3
370
     9
100
AcDbLine
 10
-74.33088638945893
 20
-41.31205087347771
 30
0.0
 11
-74.33088638945893
 21
-30.31205346570444
 31
0.0
  0
LINE
  5
234
330
1F
100
AcDbEntity
  8
2-0
  6
Continuous
 62
     3
370
     9
100
AcDbLine
 10
-69.61096258207172
 20
-41.31205087347771
 30
0.0
 11
-69.61096258207172
 21
-30.31205346570444
 31
0.0
  0
LINE
  5
235
330
1F
100
AcDbEntity
  8
2-0
  6
Continuous
 62
     3
370
     9
100
AcDbLine
 10
-68.79585762988182
 20
-41.31205087347771
 30
0.0
 11
-68.79585762988182
 21
-32.11202440919956
 31
0.0
  0
LINE
  5
236
330
1F
100
AcDbEntity
  8
2-0
  6
Continuous
 62
     3
370
     9
100
AcDbLine
 10
-75.14578137128504
 20
-41.31205087347771
 30
0.0
 11
-75.14578137128504
 21
-32.11202440919956
 31
0.0
  0
LINE
  5
237
330
1F
100
AcDbEntity
  8
2-0
  6
JWW_CENTER1
 62
     3
370
     9
100
AcDbLine
 10
-76.970913763373
 20
-59.31207526397449
 30
0.0
 11
-85.09407222195017
 21
-59.31207526397449
 31
0.0
  0
LINE
  5
238
330
1F
100
AcDbEntity
  8
2-0
  6
Continuous
 62
     3
370
     9
100
AcDbLine
 10
-69.61096258207172
 20
-30.31205346570444
 30
0.0
 11
-74.33088638945893
 21
-30.31205346570444
 31
0.0
  0
LINE
  5
239
330
1F
100
AcDbEntity
  8
2-0
  6
Continuous
 62
     3
370
     9
100
AcDbLine
 10
-74.33088638945893
 20
-30.31205346570444
 30
0.0
 11
-71.97092448576531
 21
-28.94948578502149
 31
0.0
  0
LINE
  5
23A
330
1F
100
AcDbEntity
  8
2-0
  6
Continuous
 62
     3
370
     9
100
AcDbLine
 10
-69.6109275870111
 20
-30.31205346570444
 30
0.0
 11
-71.97092448576531
 21
-28.94948578502149
 31
0.0
  0
LINE
  5
23B
330
1F
100
AcDbEntity
  8
2-0
  6
Continuous
 62
     3
370
     9
100
AcDbLine
 10
5.529014302335685
 20
-46.31228511650979
 30
0.0
 11
-47.47098752400585
 21
-46.31228511650979
 31
0.0
  0
LINE
  5
23C
330
1F
100
AcDbEntity
  8
2-0
  6
Continuous
 62
     3
370
     9
100
AcDbLine
 10
-75.14578137128504
 20
-41.31205087347771
 30
0.0
 11
-68.79585762988182
 21
-41.31205087347771
 31
0.0
  0
LINE
  5
23D
330
1F
100
AcDbEntity
  8
2-0
  6
JWW_CENTER1
 62
     3
370
     9
100
AcDbLine
 10
-71.97092448576532
 20
-54.31208598636683
 30
0.0
 11
-71.97092448576531
 21
-28.64513374272391
 31
0.0
  0
LINE
  5
23E
330
1F
100
AcDbEntity
  8
2-0
  6
Continuous
 62
     3
370
     9
100
AcDbLine
 10
23.02904676408385
 20
-28.31222573095234
 30
0.0
 11
29.02901989918884
 21
-28.31222573095234
 31
0.0
  0
LINE
  5
23F
330
1F
100
AcDbEntity
  8
2-0
  6
Continuous
 62
     3
370
     9
100
AcDbLine
 10
23.5290561903628
 20
-29.31217459338901
 30
0.0
 11
28.52901047290989
 21
-29.31217459338901
 31
0.0
  0
LINE
  5
240
330
1F
100
AcDbEntity
  8
2-0
  6
Continuous
 62
     3
370
     9
100
AcDbLine
 10
28.52901047290989
 20
-29.31217459338901
 30
0.0
 11
26.02903333163637
 21
-30.75551087400557
 31
0.0
  0
LINE
  5
241
330
1F
100
AcDbEntity
  8
2-0
  6
Continuous
 62
     3
370
     9
100
AcDbLine
 10
23.5290561903628
 20
-29.31217459338901
 30
0.0
 11
26.02903333163637
 21
-30.75551087400557
 31
0.0
  0
LINE
  5
242
330
1F
100
AcDbEntity
  8
2-0
  6
Continuous
 62
     3
370
     9
100
AcDbLine
 10
8.836047531854266
 20
-68.31227993205638
 30
0.0
 11
7.258400208540426
 21
-66.73463260874254
 31
0.0
  0
LINE
  5
243
330
1F
100
AcDbEntity
  8
2-0
  6
Continuous
 62
     3
370
     9
100
AcDbLine
 10
-50.77796826093348
 20
-68.31227993205638
 30
0.0
 11
-49.20032093761967
 21
-66.73463260874254
 31
0.0
  0
LINE
  5
244
330
1F
100
AcDbEntity
  8
2-0
  6
Continuous
 62
     3
370
     9
100
AcDbLine
 10
-49.20032093761967
 20
-66.73463260874254
 30
0.0
 11
7.258400208540426
 21
-66.73463260874254
 31
0.0
  0
LINE
  5
245
330
1F
100
AcDbEntity
  8
2-0
  6
Continuous
 62
     3
370
     9
100
AcDbLine
 10
-51.97096737533455
 20
-46.31221512638856
 30
0.0
 11
-51.97096737533455
 21
-53.3122071140514
 31
0.0
  0
LINE
  5
246
330
1F
100
AcDbEntity
  8
2-0
  6
Continuous
 62
     3
370
     9
100
AcDbLine
 10
-49.84043308913012
 20
-53.3122071140514
 30
0.0
 11
-50.77796826093348
 21
-68.31227993205638
 31
0.0
  0
LINE
  5
247
330
1F
100
AcDbEntity
  8
2-0
  6
Continuous
 62
     3
370
     9
100
AcDbLine
 10
-48.36141934420145
 20
-53.3122071140514
 30
0.0
 11
-49.20032093761967
 21
-66.73463260874254
 31
0.0
  0
LINE
  5
248
330
1F
100
AcDbEntity
  8
2-0
  6
Continuous
 62
     3
370
     9
100
AcDbLine
 10
10.0290466462554
 20
-46.31221512638856
 30
0.0
 11
-51.97096737533455
 21
-46.31221512638856
 31
0.0
  0
LINE
  5
249
330
1F
100
AcDbEntity
  8
2-0
  6
Continuous
 62
     3
370
     9
100
AcDbLine
 10
10.0290466462554
 20
-46.31221512638856
 30
0.0
 11
10.0290466462554
 21
-53.3122071140514
 31
0.0
  0
LINE
  5
24A
330
1F
100
AcDbEntity
  8
2-0
  6
Continuous
 62
     3
370
     9
100
AcDbLine
 10
10.0290466462554
 20
-53.3122071140514
 30
0.0
 11
-51.97096737533455
 21
-53.3122071140514
 31
0.0
  0
LINE
  5
24B
330
1F
100
AcDbEntity
  8
2-0
  6
Continuous
 62
     3
370
     9
100
AcDbLine
 10
6.419498615122297
 20
-53.3122071140514
 30
0.0
 11
7.258400208540426
 21
-66.73463260874254
 31
0.0
  0
LINE
  5
24C
330
1F
100
AcDbEntity
  8
2-0
  6
Continuous
 62
     3
370
     9
100
AcDbLine
 10
7.898512360050933
 20
-53.3122071140514
 30
0.0
 11
8.836047531854266
 21
-68.31227993205638
 31
0.0
  0
LINE
  5
24D
330
1F
100
AcDbEntity
  8
2-0
  6
Continuous
 62
     3
370
     9
100
AcDbLine
 10
28.52901047290989
 20
-23.8029371934961
 30
0.0
 11
28.52901047290989
 21
-29.31217459338901
 31
0.0
  0
LINE
  5
24E
330
1F
100
AcDbEntity
  8
2-0
  6
Continuous
 62
     3
370
     9
100
AcDbLine
 10
23.5290561903628
 20
-23.8029371934961
 30
0.0
 11
23.5290561903628
 21
-29.31217459338901
 31
0.0
  0
LINE
  5
24F
330
1F
100
AcDbEntity
  8
2-0
  6
Continuous
 62
     3
370
     9
100
AcDbLine
 10
23.02904676408385
 20
-23.30292776721715
 30
0.0
 11
23.02904676408385
 21
-28.31222573095234
 31
0.0
  0
LINE
  5
250
330
1F
100
AcDbEntity
  8
2-0
  6
Continuous
 62
     3
370
     9
100
AcDbLine
 10
29.02901989918884
 20
-23.30292776721715
 30
0.0
 11
29.02901989918884
 21
-28.31222573095234
 31
0.0
  0
LINE
  5
251
330
1F
100
AcDbEntity
  8
2-0
  6
Continuous
 62
     3
370
     9
100
AcDbLine
 10
-77.47088819459132
 20
-10.31223633551617
 30
0.0
 11
-74.47090162703883
 21
-10.31223633551617
 31
0.0
  0
LINE
  5
252
330
1F
100
AcDbEntity
  8
2-0
  6
Continuous
 62
     3
370
     9
100
AcDbLine
 10
-104.0881663046978
 20
-8.3122686205216
 30
0.0
 11
-61.2651899520972
 21
-8.3122686205216
 31
0.0
  0
LINE
  5
253
330
1F
100
AcDbEntity
  8
2-0
  6
Continuous
 62
     3
370
     9
100
AcDbLine
 10
-78.10321394511165
 20
-14.28690533173057
 30
0.0
 11
-77.47088819459132
 21
-10.31223633551617
 31
0.0
  0
LINE
  5
254
330
1F
100
AcDbEntity
  8
2-0
  6
Continuous
 62
     3
370
     9
100
AcDbLine
 10
-80.69641792790303
 20
-15.87477121274834
 30
0.0
 11
-103.9712128120729
 21
-8.3122686205216
 31
0.0
  0
LINE
  5
255
330
1F
100
AcDbEntity
  8
2-0
  6
Continuous
 62
     3
370
     9
100
AcDbLine
 10
-80.69641792790303
 20
-15.87477121274834
 30
0.0
 11
-73.50087354144067
 21
-18.21272122330573
 31
0.0
  0
LINE
  5
256
330
1F
100
AcDbEntity
  8
2-0
  6
Continuous
 62
     3
370
     9
100
AcDbLine
 10
-53.13094865003141
 20
-37.92970827348372
 30
0.0
 11
-53.62934830352141
 21
-30.95183316413888
 31
0.0
  0
LINE
  5
257
330
1F
100
AcDbEntity
  8
2-0
  6
Continuous
 62
     3
370
     9
100
AcDbLine
 10
11.87594596605512
 20
-28.31222573095234
 30
0.0
 11
-53.81790169019492
 21
-28.31222573095234
 31
0.0
  0
LINE
  5
258
330
1F
100
AcDbEntity
  8
2-0
  6
Continuous
 62
     3
370
     9
100
AcDbLine
 10
-73.6503724404513
 20
-16.9950330936303
 30
0.0
 11
-74.47090162703883
 21
-10.31223633551617
 31
0.0
  0
LINE
  5
259
330
1F
100
AcDbEntity
  8
2-0
  6
Continuous
 62
     3
370
     9
100
AcDbLine
 10
-50.81641033503534
 20
-40.64231540314406
 30
0.0
 11
-50.96244472304362
 21
-40.60060129087335
 31
0.0
  0
LINE
  5
25A
330
1F
100
AcDbEntity
  8
2-0
  6
Continuous
 62
     3
370
     9
100
AcDbLine
 10
-47.99258890269341
 20
-43.70406825270819
 30
0.0
 11
-47.4709525289452
 21
-46.31228511650979
 31
0.0
  0
LINE
  5
25B
330
1F
100
AcDbEntity
  8
2-0
  6
Continuous
 62
     3
370
     9
100
AcDbLine
 10
-73.18105368234471
 20
-20.81736859092309
 30
0.0
 11
-73.6503724404513
 21
-16.99510308375159
 31
0.0
  0
LINE
  5
25C
330
1F
100
AcDbEntity
  8
2-0
  6
JWW_PHANTOM2
 62
     3
370
     9
100
AcDbLine
 10
-63.22845843922211
 20
-18.31224717573696
 30
0.0
 11
-72.16161257113724
 21
-18.31224717573696
 31
0.0
  0
LINE
  5
25D
330
1F
100
AcDbEntity
  8
2-0
  6
JWW_PHANTOM2
 62
     3
370
     9
100
AcDbLine
 10
-61.17876274307257
 20
-22.78143137371143
 30
0.0
 11
-61.7514919053403
 21
-19.55044241094146
 31
0.0
  0
LINE
  5
25E
330
1F
100
AcDbEntity
  8
2-0
  6
Continuous
 62
     3
370
     9
100
AcDbLine
 10
-59.78245982394249
 20
-24.0174219200963
 30
0.0
 11
-58.84116268312142
 21
-24.06812976294892
 31
0.0
  0
LINE
  5
25F
330
1F
100
AcDbEntity
  8
2-0
  6
Continuous
 62
     3
370
     9
100
AcDbLine
 10
-56.81984798114267
 20
-27.82782410171429
 30
0.0
 11
-57.46536686952042
 21
-25.20718399138914
 31
0.0
  0
LINE
  5
260
330
1F
100
AcDbEntity
  8
2-0
  6
Continuous
 62
     3
370
     9
100
AcDbLine
 10
-56.36127270664942
 20
-28.20748551448727
 30
0.0
 11
-56.02441025302672
 21
-28.22564795095419
 31
0.0
  0
LINE
  5
261
330
1F
100
AcDbEntity
  8
2-0
  6
Continuous
 62
     3
370
     9
100
AcDbLine
 10
-59.78245982394249
 20
-24.01745691515692
 30
0.0
 11
-70.3647911830988
 21
-23.44738737749703
 31
0.0
  0
LINE
  5
262
330
1F
100
AcDbEntity
  8
2-0
  6
Continuous
 62
     3
370
     9
100
AcDbLine
 10
35.52893247045149
 20
-10.3122363355162
 30
0.0
 11
32.52894590289903
 21
-10.3122363355162
 31
0.0
  0
LINE
  5
263
330
1F
100
AcDbEntity
  8
2-0
  6
Continuous
 62
     3
370
     9
100
AcDbLine
 10
62.14621058055799
 20
-8.312268620521628
 30
0.0
 11
30.06739333819703
 21
-8.312268620521628
 31
0.0
  0
LINE
  5
264
330
1F
100
AcDbEntity
  8
2-0
  6
Continuous
 62
     3
370
     9
100
AcDbLine
 10
63.13853051977732
 20
-9.188264978207464
 30
0.0
 11
64.02901483256387
 21
-16.31227946074242
 31
0.0
  0
LINE
  5
265
330
1F
100
AcDbEntity
  8
2-0
  6
Continuous
 62
     3
370
     9
100
AcDbLine
 10
36.16125822097185
 20
-14.2869053317306
 30
0.0
 11
35.52893247045149
 21
-10.3122363355162
 31
0.0
  0
LINE
  5
266
330
1F
100
AcDbEntity
  8
2-0
  6
Continuous
 62
     3
370
     9
100
AcDbLine
 10
38.7544622037632
 20
-15.87477121274836
 30
0.0
 11
62.02925708793312
 21
-8.312268620521628
 31
0.0
  0
LINE
  5
267
330
1F
100
AcDbEntity
  8
2-0
  6
JWW_DASHED1
 62
     3
370
     9
100
AcDbLine
 10
38.7544622037632
 20
-15.87477121274836
 30
0.0
 11
31.55891781730084
 21
-18.21272122330576
 31
0.0
  0
LINE
  5
268
330
1F
100
AcDbEntity
  8
2-0
  6
Continuous
 62
     3
370
     9
100
AcDbLine
 10
11.18899292589159
 20
-37.92970827348372
 30
0.0
 11
11.68739257938161
 21
-30.95183316413888
 31
0.0
  0
LINE
  5
269
330
1F
100
AcDbEntity
  8
2-0
  6
Continuous
 62
     3
370
     9
100
AcDbLine
 10
31.70841671631151
 20
-16.99503309363033
 30
0.0
 11
32.52894590289903
 21
-10.3122363355162
 31
0.0
  0
LINE
  5
26A
330
1F
100
AcDbEntity
  8
2-0
  6
Continuous
 62
     3
370
     9
100
AcDbLine
 10
8.874454610895516
 20
-40.64231540314406
 30
0.0
 11
9.02048899890379
 21
-40.60060129087335
 31
0.0
  0
LINE
  5
26B
330
1F
100
AcDbEntity
  8
2-0
  6
JWW_DASHED1
 62
     3
370
     9
100
AcDbLine
 10
31.23909795820488
 20
-20.81736859092312
 30
0.0
 11
31.70841671631151
 21
-16.99510308375162
 31
0.0
  0
LINE
  5
26C
330
1F
100
AcDbEntity
  8
2-0
  6
Continuous
 62
     3
370
     9
100
AcDbLine
 10
19.23680701893274
 20
-22.78143137371146
 30
0.0
 11
19.8095361812005
 21
-19.55044241094149
 31
0.0
  0
LINE
  5
26D
330
1F
100
AcDbEntity
  8
2-0
  6
Continuous
 62
     3
370
     9
100
AcDbLine
 10
17.84050409980269
 20
-24.01742192009633
 30
0.0
 11
16.89920695898163
 21
-24.06812976294892
 31
0.0
  0
LINE
  5
26E
330
1F
100
AcDbEntity
  8
2-0
  6
Continuous
 62
     3
370
     9
100
AcDbLine
 10
14.87789225700284
 20
-27.82782410171429
 30
0.0
 11
15.5234111453806
 21
-25.20718399138914
 31
0.0
  0
LINE
  5
26F
330
1F
100
AcDbEntity
  8
2-0
  6
Continuous
 62
     3
370
     9
100
AcDbLine
 10
14.41931698250962
 20
-28.20748551448727
 30
0.0
 11
14.08245452888692
 21
-28.22564795095419
 31
0.0
  0
LINE
  5
270
330
1F
100
AcDbEntity
  8
2-0
  6
JWW_CENTER2
 62
     3
370
     9
100
AcDbLine
 10
26.02903333163637
 20
-31.16085866128085
 30
0.0
 11
26.02903333163637
 21
-5.168382363659283
 31
0.0
  0
LINE
  5
271
330
1F
100
AcDbEntity
  8
2-0
  6
Continuous
 62
     3
370
     9
100
AcDbLine
 10
6.050633178553557
 20
-43.70406825270819
 30
0.0
 11
5.529014302335685
 21
-46.31221512638856
 31
0.0
  0
LINE
  5
272
330
1F
100
AcDbEntity
  8
2-0
  6
Continuous
 62
     3
370
     9
100
AcDbLine
 10
32.52894590289903
 20
-10.3122363355162
 30
0.0
 11
30.89852602815542
 21
-10.3122363355162
 31
0.0
  0
LINE
  5
273
330
1F
100
AcDbEntity
  8
2-0
  6
JWW_DASHED1
 62
     3
370
     9
100
AcDbLine
 10
17.84050409980269
 20
-24.01745691515695
 30
0.0
 11
23.02904676408385
 21
-23.73795136590653
 31
0.0
  0
ARC
  5
274
330
1F
100
AcDbEntity
  8
2-0
  6
Continuous
 62
     3
370
     9
100
AcDbCircle
 10
-76.97080877819113
 20
-54.31208598636683
 30
0.0
 40
1.999999976066088
100
AcDbArc
 50
270.0
 51
0.0
  0
ARC
  5
275
330
1F
100
AcDbEntity
  8
2-0
  6
Continuous
 62
     3
370
     9
100
AcDbCircle
 10
-76.97080877819113
 20
-54.31208598636683
 30
0.0
 40
7.999999904264354
100
AcDbArc
 50
270.0
 51
0.0
  0
ARC
  5
276
330
1F
100
AcDbEntity
  8
2-0
  6
JWW_CENTER1
 62
     3
370
     9
100
AcDbCircle
 10
-76.970913763373
 20
-54.31208598636683
 30
0.0
 40
5.000000213564133
100
AcDbArc
 50
270.0
 51
0.0
  0
ARC
  5
277
330
1F
100
AcDbEntity
  8
2-0
  6
Continuous
 62
     3
370
     9
100
AcDbCircle
 10
30.21958685687618
 20
-16.81228888702137
 30
0.0
 40
1.499999982049566
100
AcDbArc
 50
270.0
 51
352.9996643066406
  0
ARC
  5
278
330
1F
100
AcDbEntity
  8
2-0
  6
Continuous
 62
     3
370
     9
100
AcDbCircle
 10
-104.0881663046978
 20
-9.3122874730795
 30
0.0
 40
0.9999999880330442
100
AcDbArc
 50
90.0
 51
172.875732421875
  0
ARC
  5
279
330
1F
100
AcDbEntity
  8
2-0
  6
Continuous
 62
     3
370
     9
100
AcDbCircle
 10
-80.07837016211967
 20
-13.97264968727473
 30
0.0
 40
1.999999976066088
100
AcDbArc
 50
251.9996948242188
 51
350.9597778320312
  0
ARC
  5
27A
330
1F
100
AcDbEntity
  8
2-0
  6
Continuous
 62
     3
370
     9
100
AcDbCircle
 10
-50.13859100569623
 20
-37.71595844315677
 30
0.0
 40
2.999999964099133
100
AcDbArc
 50
184.0857849121094
 51
254.0603485107422
  0
ARC
  5
27B
330
1F
100
AcDbEntity
  8
2-0
  6
JWW_PHANTOM2
 62
     3
370
     9
100
AcDbCircle
 10
-72.16161257113724
 20
-16.81225389196073
 30
0.0
 40
1.499999982049566
100
AcDbArc
 50
186.9993286132813
 51
270.0
  0
ARC
  5
27C
330
1F
100
AcDbEntity
  8
2-0
  6
Continuous
 62
     3
370
     9
100
AcDbCircle
 10
-51.9149402832662
 20
-44.48851753178641
 30
0.0
 40
3.999999952132177
100
AcDbArc
 50
11.3096923828125
 51
74.06015014648438
  0
ARC
  5
27D
330
1F
100
AcDbEntity
  8
2-0
  6
Continuous
 62
     3
370
     9
100
AcDbCircle
 10
-56.62174094291721
 20
-31.16558299446589
 30
0.0
 40
2.999999964099133
100
AcDbArc
 50
4.085784912109379
 51
78.46966552734375
  0
ARC
  5
27E
330
1F
100
AcDbEntity
  8
2-0
  6
Continuous
 62
     3
370
     9
100
AcDbCircle
 10
-70.20342895853467
 20
-20.45177519252332
 30
0.0
 40
2.999999964099133
100
AcDbArc
 50
186.999755859375
 51
266.9167175292969
  0
ARC
  5
27F
330
1F
100
AcDbEntity
  8
2-0
  6
Continuous
 62
     3
370
     9
100
AcDbCircle
 10
-58.9218612929338
 20
-25.56598834802676
 30
0.0
 40
1.499999982049566
100
AcDbArc
 50
13.83815002441407
 51
86.91677856445314
  0
ARC
  5
280
330
1F
100
AcDbEntity
  8
2-0
  6
JWW_PHANTOM2
 62
     3
370
     9
100
AcDbCircle
 10
-63.22845843922211
 20
-19.8122404595132
 30
0.0
 40
1.499999982049566
100
AcDbArc
 50
10.05149841308593
 51
90.0
  0
ARC
  5
281
330
1F
100
AcDbEntity
  8
2-0
  6
JWW_PHANTOM2
 62
     3
370
     9
100
AcDbCircle
 10
-59.70176121413012
 20
-22.51956333501847
 30
0.0
 40
1.499999982049566
100
AcDbArc
 50
190.0527038574219
 51
266.9167175292969
  0
ARC
  5
282
330
1F
100
AcDbEntity
  8
2-0
  6
Continuous
 62
     3
370
     9
100
AcDbCircle
 10
-56.33436150502509
 20
-27.70821098448155
 30
0.0
 40
0.4999999940165221
100
AcDbArc
 50
193.8407592773438
 51
266.9167175292969
  0
ARC
  5
283
330
1F
100
AcDbEntity
  8
2-0
  6
Continuous
 62
     3
370
     9
100
AcDbCircle
 10
62.14621058055799
 20
-9.312287473079529
 30
0.0
 40
0.9999999880330442
100
AcDbArc
 50
7.124267578125002
 51
90.00000000000001
  0
ARC
  5
284
330
1F
100
AcDbEntity
  8
2-0
  6
Continuous
 62
     3
370
     9
100
AcDbCircle
 10
38.13641443797987
 20
-13.97264968727476
 30
0.0
 40
1.999999976066088
100
AcDbArc
 50
189.0402221679688
 51
288.0003051757812
  0
ARC
  5
285
330
1F
100
AcDbEntity
  8
2-0
  6
Continuous
 62
     3
370
     9
100
AcDbCircle
 10
8.1966352815564
 20
-37.71595844315677
 30
0.0
 40
2.999999964099133
100
AcDbArc
 50
285.9396514892579
 51
355.9142150878906
  0
ARC
  5
286
330
1F
100
AcDbEntity
  8
2-0
  6
Continuous
 62
     3
370
     9
100
AcDbCircle
 10
30.21965684699741
 20
-16.81225389196076
 30
0.0
 40
1.499999982049566
100
AcDbArc
 50
270.0
 51
353.0006713867188
  0
ARC
  5
287
330
1F
100
AcDbEntity
  8
2-0
  6
Continuous
 62
     3
370
     9
100
AcDbCircle
 10
9.972984559126377
 20
-44.48851753178641
 30
0.0
 40
3.999999952132177
100
AcDbArc
 50
105.9398498535157
 51
168.6903076171875
  0
ARC
  5
288
330
1F
100
AcDbEntity
  8
2-0
  6
Continuous
 62
     3
370
     9
100
AcDbCircle
 10
14.67978521877741
 20
-31.16558299446589
 30
0.0
 40
2.999999964099133
100
AcDbArc
 50
101.5303344726562
 51
175.9142150878907
  0
ARC
  5
289
330
1F
100
AcDbEntity
  8
2-0
  6
Continuous
 62
     3
370
     9
100
AcDbCircle
 10
16.979905568794
 20
-25.56598834802676
 30
0.0
 40
1.499999982049566
100
AcDbArc
 50
93.08322143554688
 51
166.161849975586
  0
ARC
  5
28A
330
1F
100
AcDbEntity
  8
2-0
  6
Continuous
 62
     3
370
     9
100
AcDbCircle
 10
21.28650271508231
 20
-19.81224045951323
 30
0.0
 40
1.499999982049566
100
AcDbArc
 50
90.0
 51
169.9485015869141
  0
ARC
  5
28B
330
1F
100
AcDbEntity
  8
2-0
  6
Continuous
 62
     3
370
     9
100
AcDbCircle
 10
17.75980548999032
 20
-22.5195633350185
 30
0.0
 40
1.499999982049566
100
AcDbArc
 50
273.0832824707031
 51
349.9472961425781
  0
ARC
  5
28C
330
1F
100
AcDbEntity
  8
2-0
  6
Continuous
 62
     3
370
     9
100
AcDbCircle
 10
14.39240578088529
 20
-27.70821098448155
 30
0.0
 40
0.4999999940165221
100
AcDbArc
 50
273.0832824707031
 51
346.1592407226562
  0
ARC
  5
28D
330
1F
100
AcDbEntity
  8
2-0
  6
JWW_DASHED1
 62
     3
370
     9
100
AcDbCircle
 10
28.26147323439485
 20
-20.45177519252335
 30
0.0
 40
2.999999964099133
100
AcDbArc
 50
285.0671539306641
 51
353.000244140625
  0
LINE
  5
28E
330
1F
100
AcDbEntity
  8
2-0
  6
Continuous
 62
     3
370
     9
100
AcDbLine
 10
-48.47093638644249
 20
-41.31219085372023
 30
0.0
 11
6.52898066230269
 21
-41.31219085372023
 31
0.0
  0
LINE
  5
28F
330
1F
100
AcDbEntity
  8
2-0
  6
Continuous
 62
     3
370
     9
100
AcDbLine
 10
-105.9709705567037
 20
-16.3122794607424
 30
0.0
 11
-104.971021694267
 21
-17.31229831330041
 31
0.0
  0
LINE
  5
290
330
1F
100
AcDbEntity
  8
2-0
  6
Continuous
 62
     3
370
     9
100
AcDbLine
 10
-104.9710916843884
 20
-17.31229831330041
 30
0.0
 11
-99.97106741172011
 21
-17.31229831330041
 31
0.0
  0
ARC
  5
291
330
1F
100
AcDbEntity
  8
2-0
  6
Continuous
 62
     3
370
     9
100
AcDbCircle
 10
-94.85031017987886
 20
-27.04771421015426
 30
0.0
 40
10.99999959496458
100
AcDbArc
 50
72.2859344482422
 51
117.7434692382813
  0
LINE
  5
292
330
1F
100
AcDbEntity
  8
2-0
  6
Continuous
 62
     3
370
     9
100
AcDbLine
 10
-80.1954111423962
 20
-20.24348459165459
 30
0.0
 11
-91.50338258124212
 21
-16.56928318600786
 31
0.0
  0
ARC
  5
293
330
1F
100
AcDbEntity
  8
2-0
  6
Continuous
 62
     3
370
     9
100
AcDbCircle
 10
-80.81345890817953
 20
-22.14560611712819
 30
0.0
 40
1.999999976066088
100
AcDbArc
 50
6.456939697265613
 51
71.99969482421875
  0
LINE
  5
294
330
1F
100
AcDbEntity
  8
2-0
  6
Continuous
 62
     3
370
     9
100
AcDbLine
 10
-77.07138458244127
 20
-37.42462456341344
 30
0.0
 11
-78.8261419076026
 21
-21.92069286246033
 31
0.0
  0
ARC
  5
295
330
1F
100
AcDbEntity
  8
2-0
  6
Continuous
 62
     3
370
     9
100
AcDbCircle
 10
-76.07773483091806
 20
-37.31218543360979
 30
0.0
 40
0.9999999880330442
100
AcDbArc
 50
186.4559936523438
 51
270.0000000000001
  0
ARC
  5
296
330
1F
100
AcDbEntity
  8
2-0
  6
Continuous
 62
     3
370
     9
100
AcDbCircle
 10
-63.15712006385034
 20
-40.31216929110713
 30
0.0
 40
2.0
100
AcDbArc
 50
3.756543315204638
 51
90.0
  0
LINE
  5
297
330
1F
100
AcDbEntity
  8
2-0
  6
Continuous
 62
     3
370
     9
100
AcDbLine
 10
-61.16141716877529
 20
-40.18113511774391
 30
0.0
 11
-60.03231679007318
 21
-57.37778570720321
 31
0.0
  0
ARC
  5
298
330
1F
100
AcDbEntity
  8
2-0
  6
Continuous
 62
     3
370
     9
100
AcDbCircle
 10
-59.03446534253554
 20
-57.31226862052166
 30
0.0
 40
1.0
100
AcDbArc
 50
183.7565433152047
 51
270.0
  0
ARC
  5
299
330
1F
100
AcDbEntity
  8
2-0
  6
Continuous
 62
     3
370
     9
100
AcDbCircle
 10
-58.33214792985096
 20
-59.31226862052166
 30
0.0
 40
1.0
100
AcDbArc
 50
8.5307561023322
 51
90.0
  0
LINE
  5
29A
330
1F
100
AcDbEntity
  8
2-0
  6
Continuous
 62
     3
370
     9
100
AcDbLine
 10
-58.33214792985096
 20
-58.31226862052166
 30
0.0
 11
-59.03446534253554
 21
-58.31226862052166
 31
0.0
  0
LINE
  5
29B
330
1F
100
AcDbEntity
  8
2-0
  6
Continuous
 62
     3
370
     9
100
AcDbLine
 10
-56.22645798888458
 20
-66.60896050971019
 30
0.0
 11
-57.34321155236726
 21
-59.16392833169471
 31
0.0
  0
ARC
  5
29C
330
1F
100
AcDbEntity
  8
2-0
  6
Continuous
 62
     3
370
     9
100
AcDbCircle
 10
-54.24858523391696
 20
-66.31227993205641
 30
0.0
 40
2.0
100
AcDbArc
 50
188.5307561023322
 51
270.0
  0
LINE
  5
29D
330
1F
100
AcDbEntity
  8
2-0
  6
JWW_DASHED1
 62
     3
370
     9
100
AcDbLine
 10
-76.94698079507373
 20
-22.96800184944994
 30
0.0
 11
-77.00514258584047
 21
-22.49430870876461
 31
0.0
  0
LINE
  5
29E
330
1F
100
AcDbEntity
  8
2-0
  6
JWW_DASHED1
 62
     3
370
     9
100
AcDbLine
 10
-78.3722246293446
 20
-20.83589278551711
 30
0.0
 11
-80.19541479556767
 21
-20.24349639917546
 31
0.0
  0
ARC
  5
29F
330
1F
100
AcDbEntity
  8
2-0
  6
JWW_DASHED1
 62
     3
370
     9
100
AcDbCircle
 10
-78.99025489759765
 20
-22.73801431099071
 30
0.0
 40
1.999999976066088
100
AcDbArc
 50
6.998992919921863
 51
71.99986267089842
  0
ARC
  5
2A0
330
1F
100
AcDbEntity
  8
2-0
  6
JWW_DASHED1
 62
     3
370
     9
100
AcDbCircle
 10
-71.98424375950646
 20
-22.35877283894525
 30
0.0
 40
5.000000213564133
100
AcDbArc
 50
186.9986572265625
 51
266.9167175292969
  0
LINE
  5
2A1
330
1F
100
AcDbEntity
  8
2-0
  6
JWW_DASHED1
 62
     3
370
     9
100
AcDbLine
 10
-66.3970906181728
 20
-27.66695099544462
 30
0.0
 11
-72.25319829797695
 21
-27.3514831439419
 31
0.0
  0
ARC
  5
2A2
330
1F
100
AcDbEntity
  8
2-0
  6
JWW_DASHED1
 62
     3
370
     9
100
AcDbCircle
 10
-66.66605007410487
 20
-32.65971183600823
 30
0.0
 40
5.0
100
AcDbArc
 50
3.756543315204638
 51
86.91646337175094
  0
LINE
  5
2A3
330
1F
100
AcDbEntity
  8
2-0
  6
JWW_DASHED1
 62
     3
370
     9
100
AcDbLine
 10
-61.1614383194771
 20
-40.18118192032535
 30
0.0
 11
-61.67679283641712
 21
-32.33212640260013
 31
0.0
  0
LINE
  5
2A4
330
1F
100
AcDbEntity
  8
2-0
  6
Continuous
 62
     3
370
     9
100
AcDbLine
 10
64.02901483256387
 20
-16.31227946074244
 30
0.0
 11
63.02906597012721
 21
-17.31229831330045
 31
0.0
  0
LINE
  5
2A5
330
1F
100
AcDbEntity
  8
2-0
  6
Continuous
 62
     3
370
     9
100
AcDbLine
 10
63.0291359602485
 20
-17.31229831330045
 30
0.0
 11
58.02911168758017
 21
-17.31229831330045
 31
0.0
  0
LINE
  5
2A6
330
1F
100
AcDbEntity
  8
2-0
  6
Continuous
 62
     3
370
     9
100
AcDbLine
 10
35.00500392023203
 20
-22.96795504686866
 30
0.0
 11
35.06316571099883
 21
-22.49426190618333
 31
0.0
  0
LINE
  5
2A7
330
1F
100
AcDbEntity
  8
2-0
  6
Continuous
 62
     3
370
     9
100
AcDbLine
 10
38.25345541825625
 20
-20.24348459165474
 30
0.0
 11
49.56142685710235
 21
-16.56928318600801
 31
0.0
  0
LINE
  5
2A8
330
1F
100
AcDbEntity
  8
2-0
  6
Continuous
 62
     3
370
     9
100
AcDbLine
 10
36.4302477545029
 20
-20.83584598293583
 30
0.0
 11
38.25343792072597
 21
-20.24344959659418
 31
0.0
  0
ARC
  5
2A9
330
1F
100
AcDbEntity
  8
2-0
  6
Continuous
 62
     3
370
     9
100
AcDbCircle
 10
52.90835445573892
 20
-27.04771421015442
 30
0.0
 40
10.99999959496458
100
AcDbArc
 50
62.25653076171876
 51
107.7140655517578
  0
ARC
  5
2AA
330
1F
100
AcDbEntity
  8
2-0
  6
Continuous
 62
     3
370
     9
100
AcDbCircle
 10
37.04827802275595
 20
-22.73796750840943
 30
0.0
 40
1.999999976066088
100
AcDbArc
 50
108.0001373291015
 51
173.0010070800781
  0
ARC
  5
2AB
330
1F
100
AcDbEntity
  8
2-0
  6
Continuous
 62
     3
370
     9
100
AcDbCircle
 10
30.04226688466482
 20
-22.35872603636397
 30
0.0
 40
5.000000213564133
100
AcDbArc
 50
300.2598265443123
 51
353.0013427734375
  0
LINE
  5
2AC
330
1F
100
AcDbEntity
  8
2-0
  6
Continuous
 62
     3
370
     9
100
AcDbLine
 10
30.21901758199256
 20
-34.14925064196057
 30
0.0
 11
31.86299503998704
 21
-27.60750453679298
 31
0.0
  0
ARC
  5
2AD
330
1F
100
AcDbEntity
  8
2-0
  6
Continuous
 62
     3
370
     9
100
AcDbCircle
 10
33.31776078672233
 20
-27.97309532185971
 30
0.0
 40
1.5
100
AcDbArc
 50
120.2598265443125
 51
165.8933729048338
  0
ARC
  5
2AE
330
1F
100
AcDbEntity
  8
2-0
  6
Continuous
 62
     3
370
     9
100
AcDbCircle
 10
29.24917375083568
 20
-33.90552345191616
 30
0.0
 40
1.0
100
AcDbArc
 50
270.0
 51
345.8933729048333
  0
LINE
  5
2AF
330
1F
100
AcDbEntity
  8
2-0
  6
Continuous
 62
     3
370
     9
100
AcDbLine
 10
29.24917375083568
 20
-34.90552345191616
 30
0.0
 11
21.43883842595915
 21
-34.90552345191616
 31
0.0
  0
LINE
  5
2B0
330
1F
100
AcDbEntity
  8
2-0
  6
Continuous
 62
     3
370
     9
100
AcDbLine
 10
19.4431355308841
 20
-36.77448927855294
 30
0.0
 11
18.09036106593323
 21
-57.37778570720337
 31
0.0
  0
ARC
  5
2B1
330
1F
100
AcDbEntity
  8
2-0
  6
Continuous
 62
     3
370
     9
100
AcDbCircle
 10
21.43883842595915
 20
-36.90552345191616
 30
0.0
 40
2.0
100
AcDbArc
 50
90.0
 51
176.2434566847954
  0
LINE
  5
2B2
330
1F
100
AcDbEntity
  8
2-0
  6
Continuous
 62
     3
370
     9
100
AcDbLine
 10
16.39019220571101
 20
-58.31226862052181
 30
0.0
 11
17.0925096183957
 21
-58.31226862052181
 31
0.0
  0
ARC
  5
2B3
330
1F
100
AcDbEntity
  8
2-0
  6
Continuous
 62
     3
370
     9
100
AcDbCircle
 10
17.0925096183957
 20
-57.31226862052181
 30
0.0
 40
1.0
100
AcDbArc
 50
270.0
 51
356.2434566847953
  0
ARC
  5
2B4
330
1F
100
AcDbEntity
  8
2-0
  6
Continuous
 62
     3
370
     9
100
AcDbCircle
 10
16.39019220571101
 20
-59.31226862052181
 30
0.0
 40
1.0
100
AcDbArc
 50
90.0
 51
171.4692438976678
  0
LINE
  5
2B5
330
1F
100
AcDbEntity
  8
2-0
  6
Continuous
 62
     3
370
     9
100
AcDbLine
 10
14.28450226474462
 20
-66.60896050971047
 30
0.0
 11
15.40125582822725
 21
-59.16392833169487
 31
0.0
  0
ARC
  5
2B6
330
1F
100
AcDbEntity
  8
2-0
  6
Continuous
 62
     3
370
     9
100
AcDbCircle
 10
12.30662950977706
 20
-66.31227993205658
 30
0.0
 40
2.0
100
AcDbArc
 50
270.0
 51
351.4692438976678
  0
ARC
  5
2B7
330
1F
100
AcDbEntity
  8
2-0
  6
JWW_DASHED1
 62
     3
370
     9
100
AcDbCircle
 10
30.04226688466482
 20
-22.35872603636397
 30
0.0
 40
5.000000213564133
100
AcDbArc
 50
273.0832824707031
 51
300.2598265443122
  0
LINE
  5
2B8
330
1F
100
AcDbEntity
  8
2-0
  6
JWW_DASHED1
 62
     3
370
     9
100
AcDbLine
 10
24.45511356212298
 20
-27.66690082901601
 30
0.0
 11
30.31122142313525
 21
-27.35143634136062
 31
0.0
  0
ARC
  5
2B9
330
1F
100
AcDbEntity
  8
2-0
  6
JWW_DASHED1
 62
     3
370
     9
100
AcDbCircle
 10
24.72407319926318
 20
-32.65966503342695
 30
0.0
 40
5.0
100
AcDbArc
 50
93.08353662824906
 51
176.2434566847954
  0
LINE
  5
2BA
330
1F
100
AcDbEntity
  8
2-0
  6
JWW_DASHED1
 62
     3
370
     9
100
AcDbLine
 10
19.4431355308841
 20
-36.77448927855294
 30
0.0
 11
19.73481596157547
 21
-32.33207960001885
 31
0.0
  0
LINE
  5
2BB
330
1F
100
AcDbEntity
  8
2-0
  6
Continuous
 62
     3
370
     9
100
AcDbLine
 10
28.52897547784928
 20
-18.31231716585828
 30
0.0
 11
30.21958685687618
 21
-18.31231716585828
 31
0.0
  0
LINE
  5
2BC
330
1F
100
AcDbEntity
  8
2-0
  6
Continuous
 62
     3
370
     9
100
AcDbLine
 10
21.25049279769418
 20
-18.31231716585828
 30
0.0
 11
23.52902119530218
 21
-18.31231716585828
 31
0.0
  0
LINE
  5
2BD
330
1F
100
AcDbEntity
  8
2-0
  6
Continuous
 62
     3
370
     9
100
AcDbLine
 10
-74.47090162703883
 20
-10.31223633551617
 30
0.0
 11
-61.80108330089631
 21
-10.31223633551617
 31
0.0
  0
LINE
  5
2BE
330
1F
100
AcDbEntity
  8
2-0
  6
Continuous
 62
     3
370
     9
100
AcDbLine
 10
19.32333851486368
 20
-8.312268620521628
 30
0.0
 11
21.99042835965124
 21
-8.312268620521628
 31
0.0
  0
LINE
  5
2BF
330
1F
100
AcDbEntity
  8
2-0
  6
Continuous
 62
     3
370
     9
100
AcDbLine
 10
21.15940065487475
 20
-10.3122363355162
 30
0.0
 11
19.85922905994713
 21
-10.3122363355162
 31
0.0
  0
LINE
  5
2C0
330
1F
100
AcDbEntity
  8
2-2
  6
Continuous
 62
     4
370
     9
100
AcDbLine
 10
19.02890136373095
 20
-58.31226862052181
 30
0.0
 11
19.02890136373094
 21
-74.44845384313263
 31
0.0
  0
LINE
  5
2C1
330
1F
100
AcDbEntity
  8
2-2
  6
Continuous
 62
     4
370
     9
100
AcDbLine
 10
16.52899421257865
 20
-74.88925162682594
 30
0.0
 11
16.52899421257866
 21
-58.31226862052181
 31
0.0
  0
LINE
  5
2C2
330
1F
100
AcDbEntity
  8
2-2
  6
Continuous
 62
     4
370
     9
100
AcDbLine
 10
19.02890136373095
 20
-58.31226862052181
 30
0.0
 11
16.52899421257866
 21
-58.31226862052181
 31
0.0
  0
LINE
  5
2C3
330
1F
100
AcDbEntity
  8
2-2
  6
Continuous
 62
     4
370
     9
100
AcDbLine
 10
-60.97099706811328
 20
-58.31226862052166
 30
0.0
 11
-60.97099706811329
 21
-74.88925162682592
 31
0.0
  0
LINE
  5
2C4
330
1F
100
AcDbEntity
  8
2-2
  6
Continuous
 62
     4
370
     9
100
AcDbLine
 10
-58.47101992683977
 20
-74.448418848072
 30
0.0
 11
-58.47101992683977
 21
-58.31226862052166
 31
0.0
  0
LINE
  5
2C5
330
1F
100
AcDbEntity
  8
2-2
  6
Continuous
 62
     4
370
     9
100
AcDbLine
 10
-60.97099706811328
 20
-58.31226862052166
 30
0.0
 11
-58.47101992683977
 21
-58.31226862052166
 31
0.0
  0
LINE
  5
2C6
330
1F
100
AcDbEntity
  8
2-0
  6
Continuous
 62
     3
370
     9
100
AcDbLine
 10
-20.9709778620699
 20
-68.31227993205638
 30
0.0
 11
-54.24858523391696
 21
-68.31227993205638
 31
0.0
  0
LINE
  5
2C7
330
1F
100
AcDbEntity
  8
2-0
  6
Continuous
 62
     3
370
     9
100
AcDbLine
 10
-20.9709778620699
 20
-68.31227993205638
 30
0.0
 11
12.30662950977706
 21
-68.31227993205638
 31
0.0
  0
LINE
  5
2C8
330
1F
100
AcDbEntity
  8
2-4
  6
Continuous
 62
     7
370
     9
100
AcDbLine
 10
75.27038797834798
 20
-58.31226862052181
 30
0.0
 11
22.24123253907482
 21
-58.31226862052181
 31
0.0
  0
LINE
  5
2C9
330
1F
100
AcDbEntity
  8
2-4
  6
Continuous
 62
     7
370
     9
100
AcDbLine
 10
74.67038797834799
 20
-58.31226862052181
 30
0.0
 11
74.01775701724773
 21
-53.35504431365277
 31
0.0
  0
LINE
  5
2CA
330
1F
100
AcDbEntity
  8
2-4
  6
Continuous
 62
     7
370
     9
100
AcDbLine
 10
74.67038797834799
 20
-58.31226862052181
 30
0.0
 11
75.32301893944825
 21
-53.35504431365277
 31
0.0
  0
LINE
  5
2CB
330
1F
100
AcDbEntity
  8
2-4
  6
Continuous
 62
     7
370
     9
100
AcDbLine
 10
74.67038797834799
 20
-58.31226862052181
 30
0.0
 11
74.67038797834799
 21
-8.312303615582252
 31
0.0
  0
TEXT
  5
2CC
330
1F
100
AcDbEntity
  8
2-4
  6
Continuous
 62
     2
370
   211
100
AcDbText
 10
71.54238797834799
 20
-37.56228611805203
 30
0.0
 40
6.096
  1
50
 50
90.0
 41
1.0625
  7
ＭＳ ゴシック
100
AcDbText
  0
TEXT
  5
2CD
330
1F
100
AcDbEntity
  8
F-0
  6
Continuous
 62
     9
370
     5
100
AcDbText
 10
0.0
 20
-1999.154
 30
0.0
 40
4.572
  1
Printer_Orientation = 0
 41
0.0
  7
ＭＳ ゴシック
100
AcDbText
  0
TEXT
  5
2CE
330
1F
100
AcDbEntity
  8
F-0
  6
Continuous
 62
     9
370
     5
100
AcDbText
 10
0.0
 20
-1999.154
 30
0.0
 40
4.572
  1
Printer_PaperSize = 0
 41
0.0
  7
ＭＳ ゴシック
100
AcDbText
  0
TEXT
  5
2CF
330
1F
100
AcDbEntity
  8
F-0
  6
Continuous
 62
     9
370
     5
100
AcDbText
 10
0.0
 20
-1999.154
 30
0.0
 40
4.572
  1
Printer_D2dBMP = 0
 41
0.0
  7
ＭＳ ゴシック
100
AcDbText
  0
TEXT
  5
2D0
330
1F
100
AcDbEntity
  8
F-0
  6
Continuous
 62
     9
370
     5
100
AcDbText
 10
0.0
 20
-1999.154
 30
0.0
 40
4.572
  1
Printer_BmpZENTAI = 0
 41
0.0
  7
ＭＳ ゴシック
100
AcDbText
  0
TEXT
  5
2D1
330
1F
100
AcDbEntity
  8
F-0
  6
Continuous
 62
     9
370
     5
100
AcDbText
 10
0.0
 20
-1999.154
 30
0.0
 40
4.572
  1
View_Direct2d = 1
 41
0.0
  7
ＭＳ ゴシック
100
AcDbText
  0
TEXT
  5
2D2
330
1F
100
AcDbEntity
  8
F-0
  6
Continuous
 62
     9
370
     5
100
AcDbText
 10
0.0
 20
-1999.154
 30
0.0
 40
4.572
  1
Draw_BmpTOUKA = 1
 41
0.0
  7
ＭＳ ゴシック
100
AcDbText
  0
ENDSEC
  0
SECTION
  2
OBJECTS
  0
DICTIONARY
  5
C
330
0
100
AcDbDictionary
281
     1
  3
ACAD_DETAILVIEWSTYLE
350
318
  3
ACAD_GROUP
350
D
  3
ACAD_LAYOUT
350
1A
  3
ACAD_MATERIAL
350
43
  3
ACAD_MLEADERSTYLE
350
6B
  3
ACAD_MLINESTYLE
350
17
  3
ACAD_PLOTSETTINGS
350
19
  3
ACAD_PLOTSTYLENAME
350
E
  3
ACAD_SCALELIST
350
47
  3
ACAD_SECTIONVIEWSTYLE
350
319
  3
ACAD_TABLESTYLE
350
69
  3
ACAD_VISUALSTYLE
350
2A
  3
ACDB_RECOMPOSE_DATA
350
315
  3
AcDbVariableDictionary
350
2D5
  0
DICTIONARY
  5
2D3
330
8
100
AcDbDictionary
280
     1
281
     1
  3
ACAD_XREC_ROUNDTRIP
360
2D4
  0
DICTIONARY
  5
318
102
{ACAD_REACTORS
330
C
102
}
330
C
100
AcDbDictionary
281
     1
  0
DICTIONARY
  5
D
102
{ACAD_REACTORS
330
C
102
}
330
C
100
AcDbDictionary
281
     1
  0
DICTIONARY
  5
1A
102
{ACAD_REACTORS
330
C
102
}
330
C
100
AcDbDictionary
281
     1
  3
Layout1
350
1E
  3
Layout2
350
26
  3
Model
350
22
  0
DICTIONARY
  5
43
102
{ACAD_REACTORS
330
C
102
}
330
C
100
AcDbDictionary
281
     1
  3
ByBlock
350
45
  3
ByLayer
350
44
  3
Global
350
46
  0
DICTIONARY
  5
6B
102
{ACAD_REACTORS
330
C
102
}
330
C
100
AcDbDictionary
281
     1
  3
Standard
350
6C
  0
DICTIONARY
  5
17
102
{ACAD_REACTORS
330
C
102
}
330
C
100
AcDbDictionary
281
     1
  3
Standard
350
18
  0
DICTIONARY
  5
19
102
{ACAD_REACTORS
330
C
102
}
330
C
100
AcDbDictionary
281
     1
  0
ACDBDICTIONARYWDFLT
  5
E
102
{ACAD_REACTORS
330
C
102
}
330
C
100
AcDbDictionary
281
     1
  3
Normal
350
F
100
AcDbDictionaryWithDefault
340
F
  0
DICTIONARY
  5
47
102
{ACAD_REACTORS
330
C
102
}
330
C
100
AcDbDictionary
281
     1
  3
A0
350
48
  3
A1
350
49
  3
A2
350
4A
  3
A3
350
4B
  3
A4
350
4C
  3
A5
350
4D
  3
A6
350
4E
  3
A7
350
4F
  3
A8
350
50
  3
A9
350
51
  3
B0
350
52
  3
B1
350
53
  3
B2
350
54
  3
B3
350
55
  3
B4
350
56
  3
B5
350
57
  3
B6
350
58
  3
B7
350
59
  3
B8
350
5A
  3
B9
350
5B
  3
C0
350
5C
  3
C1
350
5D
  3
C2
350
5E
  3
C3
350
5F
  3
C4
350
60
  3
C5
350
61
  3
C6
350
62
  3
C7
350
63
  3
C8
350
64
  3
C9
350
65
  3
D0
350
66
  3
D1
350
67
  3
D2
350
68
  0
DICTIONARY
  5
319
102
{ACAD_REACTORS
330
C
102
}
330
C
100
AcDbDictionary
281
     1
  0
DICTIONARY
  5
69
102
{ACAD_REACTORS
330
C
102
}
330
C
100
AcDbDictionary
281
     1
  3
Standard
350
6A
  0
DICTIONARY
  5
2A
102
{ACAD_REACTORS
330
C
102
}
330
C
100
AcDbDictionary
281
     1
  3
2dWireframe
350
2F
  3
Basic
350
32
  3
Brighten
350
36
  3
ColorChange
350
3A
  3
Conceptual
350
34
  3
Dim
350
35
  3
EdgeColorOff
350
3D
  3
Facepattern
350
39
  3
Flat
350
2B
  3
FlatWithEdges
350
2C
  3
Gouraud
350
2D
  3
GouraudWithEdges
350
2E
  3
Hidden
350
31
  3
JitterOff
350
3B
  3
Linepattern
350
38
  3
OverhangOff
350
3C
  3
Realistic
350
33
  3
Shaded
350
42
  3
Shaded with edges
350
41
  3
Shades of Gray
350
3E
  3
Sketchy
350
3F
  3
Thicken
350
37
  3
Wireframe
350
30
  3
X-Ray
350
40
  0
XRECORD
  5
315
102
{ACAD_REACTORS
330
C
102
}
330
C
100
AcDbXrecord
280
     1
 90
        1
330
6A
  0
DICTIONARY
  5
2D5
102
{ACAD_REACTORS
330
C
102
}
330
C
100
AcDbDictionary
281
     1
  3
CANNOSCALE
350
2D6
  3
CENTEREXE
350
31A
  3
CENTERLTYPEFILE
350
31B
  3
CMLEADERSTYLE
350
317
  3
CTABLESTYLE
350
316
  3
MSLTSCALE
350
2D7
  3
XCLIPFRAME
350
2D8
  0
XRECORD
  5
2D4
102
{ACAD_REACTORS
330
2D3
102
}
330
2D3
100
AcDbXrecord
280
     1
102
VTR_0.000_0.000_1.000_1.000_VISUALSTYLE
340
2F
102
VTR_0.000_0.000_1.000_1.000_GRIDDISPLAY
 70
     3
102
VTR_0.000_0.000_1.000_1.000_GRIDMAJOR
 70
     5
102
VTR_0.000_0.000_1.000_1.000_DEFAULTLIGHTING
280
     1
102
VTR_0.000_0.000_1.000_1.000_DEFAULTLIGHTINGTYPE
 70
     1
102
VTR_0.000_0.000_1.000_1.000_BRIGHTNESS
141
0.0
102
VTR_0.000_0.000_1.000_1.000_CONTRAST
142
0.0
  0
LAYOUT
  5
1E
102
{ACAD_REACTORS
330
1A
102
}
330
1A
100
AcDbPlotSettings
  1

  2
none_device
  4

  6

 40
0.0
 41
0.0
 42
0.0
 43
0.0
 44
0.0
 45
0.0
 46
0.0
 47
0.0
 48
0.0
 49
0.0
140
0.0
141
0.0
142
1.0
143
1.0
 70
   688
 72
     1
 73
     0
 74
     5
  7

 75
    16
 76
     0
 77
     5
 78
   300
147
1.0
148
0.0
149
0.0
100
AcDbLayout
  1
Layout1
 70
     1
 71
     1
 10
0.0
 20
0.0
 11
420.0
 21
297.0
 12
0.0
 22
0.0
 32
0.0
 14
1.000000000000000E+20
 24
1.000000000000000E+20
 34
1.000000000000000E+20
 15
-1.000000000000000E+20
 25
-1.000000000000000E+20
 35
-1.000000000000000E+20
146
0.0
 13
0.0
 23
0.0
 33
0.0
 16
1.0
 26
0.0
 36
0.0
 17
0.0
 27
1.0
 37
0.0
 76
     0
330
1B
  0
LAYOUT
  5
26
102
{ACAD_REACTORS
330
1A
102
}
330
1A
100
AcDbPlotSettings
  1

  2
none_device
  4

  6

 40
0.0
 41
0.0
 42
0.0
 43
0.0
 44
0.0
 45
0.0
 46
0.0
 47
0.0
 48
0.0
 49
0.0
140
0.0
141
0.0
142
1.0
143
1.0
 70
   688
 72
     1
 73
     0
 74
     5
  7

 75
    16
 76
     0
 77
     5
 78
   300
147
1.0
148
0.0
149
0.0
100
AcDbLayout
  1
Layout2
 70
     1
 71
     2
 10
0.0
 20
0.0
 11
0.0
 21
0.0
 12
0.0
 22
0.0
 32
0.0
 14
0.0
 24
0.0
 34
0.0
 15
0.0
 25
0.0
 35
0.0
146
0.0
 13
0.0
 23
0.0
 33
0.0
 16
1.0
 26
0.0
 36
0.0
 17
0.0
 27
1.0
 37
0.0
 76
     0
330
23
  0
LAYOUT
  5
22
102
{ACAD_REACTORS
330
1A
102
}
330
1A
100
AcDbPlotSettings
  1

  2
none_device
  4
Letter_(8.50_x_11.00_Inches)
  6

 40
6.35
 41
6.35
 42
6.35000508
 43
6.35000508
 44
215.9
 45
279.4
 46
0.0
 47
0.0
 48
0.0
 49
0.0
140
0.0
141
0.0
142
1.0
143
1.0
 70
  1712
 72
     1
 73
     0
 74
     0
  7

 75
     0
 76
     0
 77
     5
 78
   300
147
1.0
148
0.0
149
0.0
100
AcDbLayout
  1
Model
 70
     1
 71
     0
 10
-420.0
 20
-297.0
 11
420.0
 21
297.0
 12
0.0
 22
0.0
 32
0.0
 14
-420.0
 24
-297.0
 34
0.0
 15
420.0
 25
297.0
 35
0.0
146
0.0
 13
0.0
 23
0.0
 33
0.0
 16
1.0
 26
0.0
 36
0.0
 17
0.0
 27
1.0
 37
0.0
 76
     0
330
1F
331
29
  0
MATERIAL
  5
45
102
{ACAD_REACTORS
330
43
102
}
102
{ACAD_XDICTIONARY
360
30B
102
}
330
43
100
AcDbMaterial
  1
ByBlock
  0
MATERIAL
  5
44
102
{ACAD_REACTORS
330
43
102
}
102
{ACAD_XDICTIONARY
360
309
102
}
330
43
100
AcDbMaterial
  1
ByLayer
  0
MATERIAL
  5
46
102
{ACAD_REACTORS
330
43
102
}
102
{ACAD_XDICTIONARY
360
30D
102
}
330
43
100
AcDbMaterial
  1
Global
  0
MLEADERSTYLE
  5
6C
102
{ACAD_REACTORS
330
6B
102
}
102
{ACAD_XDICTIONARY
360
313
102
}
330
6B
100
AcDbMLeaderStyle
170
     2
171
     1
172
     0
 90
        2
 40
0.0
 41
0.0
173
     1
 91
-1056964608
340
14
 92
       -2
290
     1
 42
2.0
291
     1
 43
8.0
  3
Standard
341
0
 44
4.0
300

342
11
174
     1
178
     6
175
     1
176
     0
 93
-1056964608
 45
4.0
292
     0
297
     0
 46
4.0
343
0
 94
-1056964608
 47
1.0
 49
1.0
140
1.0
293
     1
141
0.0
294
     1
177
     0
142
1.0
295
     0
296
     0
143
3.75
1001
ACAD_MLEADERVER
1070
     2
  0
MLINESTYLE
  5
18
102
{ACAD_REACTORS
330
17
102
}
330
17
100
AcDbMlineStyle
  2
Standard
 70
     0
  3

 62
   256
 51
90.0
 52
90.0
 71
     2
 49
0.5
 62
   256
  6
BYLAYER
 49
-0.5
 62
   256
  6
BYLAYER
  0
ACDBPLACEHOLDER
  5
F
102
{ACAD_REACTORS
330
E
102
}
330
E
  0
SCALE
  5
48
102
{ACAD_REACTORS
330
47
102
}
330
47
100
AcDbScale
 70
     0
300
1:1
140
1.0
141
1.0
290
     1
  0
SCALE
  5
49
102
{ACAD_REACTORS
330
47
102
}
330
47
100
AcDbScale
 70
     0
300
1:2
140
1.0
141
2.0
290
     0
  0
SCALE
  5
4A
102
{ACAD_REACTORS
330
47
102
}
330
47
100
AcDbScale
 70
     0
300
1:4
140
1.0
141
4.0
290
     0
  0
SCALE
  5
4B
102
{ACAD_REACTORS
330
47
102
}
330
47
100
AcDbScale
 70
     0
300
1:5
140
1.0
141
5.0
290
     0
  0
SCALE
  5
4C
102
{ACAD_REACTORS
330
47
102
}
330
47
100
AcDbScale
 70
     0
300
1:8
140
1.0
141
8.0
290
     0
  0
SCALE
  5
4D
102
{ACAD_REACTORS
330
47
102
}
330
47
100
AcDbScale
 70
     0
300
1:10
140
1.0
141
10.0
290
     0
  0
SCALE
  5
4E
102
{ACAD_REACTORS
330
47
102
}
330
47
100
AcDbScale
 70
     0
300
1:16
140
1.0
141
16.0
290
     0
  0
SCALE
  5
4F
102
{ACAD_REACTORS
330
47
102
}
330
47
100
AcDbScale
 70
     0
300
1:20
140
1.0
141
20.0
290
     0
  0
SCALE
  5
50
102
{ACAD_REACTORS
330
47
102
}
330
47
100
AcDbScale
 70
     0
300
1:30
140
1.0
141
30.0
290
     0
  0
SCALE
  5
51
102
{ACAD_REACTORS
330
47
102
}
330
47
100
AcDbScale
 70
     0
300
1:40
140
1.0
141
40.0
290
     0
  0
SCALE
  5
52
102
{ACAD_REACTORS
330
47
102
}
330
47
100
AcDbScale
 70
     0
300
1:50
140
1.0
141
50.0
290
     0
  0
SCALE
  5
53
102
{ACAD_REACTORS
330
47
102
}
330
47
100
AcDbScale
 70
     0
300
1:100
140
1.0
141
100.0
290
     0
  0
SCALE
  5
54
102
{ACAD_REACTORS
330
47
102
}
330
47
100
AcDbScale
 70
     0
300
2:1
140
2.0
141
1.0
290
     0
  0
SCALE
  5
55
102
{ACAD_REACTORS
330
47
102
}
330
47
100
AcDbScale
 70
     0
300
4:1
140
4.0
141
1.0
290
     0
  0
SCALE
  5
56
102
{ACAD_REACTORS
330
47
102
}
330
47
100
AcDbScale
 70
     0
300
8:1
140
8.0
141
1.0
290
     0
  0
SCALE
  5
57
102
{ACAD_REACTORS
330
47
102
}
330
47
100
AcDbScale
 70
     0
300
10:1
140
10.0
141
1.0
290
     0
  0
SCALE
  5
58
102
{ACAD_REACTORS
330
47
102
}
330
47
100
AcDbScale
 70
     0
300
100:1
140
100.0
141
1.0
290
     0
  0
SCALE
  5
59
102
{ACAD_REACTORS
330
47
102
}
330
47
100
AcDbScale
 70
     0
300
1/128" = 1'-0"
140
0.0078125
141
12.0
290
     0
  0
SCALE
  5
5A
102
{ACAD_REACTORS
330
47
102
}
330
47
100
AcDbScale
 70
     0
300
1/64" = 1'-0"
140
0.015625
141
12.0
290
     0
  0
SCALE
  5
5B
102
{ACAD_REACTORS
330
47
102
}
330
47
100
AcDbScale
 70
     0
300
1/32" = 1'-0"
140
0.03125
141
12.0
290
     0
  0
SCALE
  5
5C
102
{ACAD_REACTORS
330
47
102
}
330
47
100
AcDbScale
 70
     0
300
1/16" = 1'-0"
140
0.0625
141
12.0
290
     0
  0
SCALE
  5
5D
102
{ACAD_REACTORS
330
47
102
}
330
47
100
AcDbScale
 70
     0
300
3/32" = 1'-0"
140
0.09375
141
12.0
290
     0
  0
SCALE
  5
5E
102
{ACAD_REACTORS
330
47
102
}
330
47
100
AcDbScale
 70
     0
300
1/8" = 1'-0"
140
0.125
141
12.0
290
     0
  0
SCALE
  5
5F
102
{ACAD_REACTORS
330
47
102
}
330
47
100
AcDbScale
 70
     0
300
3/16" = 1'-0"
140
0.1875
141
12.0
290
     0
  0
SCALE
  5
60
102
{ACAD_REACTORS
330
47
102
}
330
47
100
AcDbScale
 70
     0
300
1/4" = 1'-0"
140
0.25
141
12.0
290
     0
  0
SCALE
  5
61
102
{ACAD_REACTORS
330
47
102
}
330
47
100
AcDbScale
 70
     0
300
3/8" = 1'-0"
140
0.375
141
12.0
290
     0
  0
SCALE
  5
62
102
{ACAD_REACTORS
330
47
102
}
330
47
100
AcDbScale
 70
     0
300
1/2" = 1'-0"
140
0.5
141
12.0
290
     0
  0
SCALE
  5
63
102
{ACAD_REACTORS
330
47
102
}
330
47
100
AcDbScale
 70
     0
300
3/4" = 1'-0"
140
0.75
141
12.0
290
     0
  0
SCALE
  5
64
102
{ACAD_REACTORS
330
47
102
}
330
47
100
AcDbScale
 70
     0
300
1" = 1'-0"
140
1.0
141
12.0
290
     0
  0
SCALE
  5
65
102
{ACAD_REACTORS
330
47
102
}
330
47
100
AcDbScale
 70
     0
300
1-1/2" = 1'-0"
140
1.5
141
12.0
290
     0
  0
SCALE
  5
66
102
{ACAD_REACTORS
330
47
102
}
330
47
100
AcDbScale
 70
     0
300
3" = 1'-0"
140
3.0
141
12.0
290
     0
  0
SCALE
  5
67
102
{ACAD_REACTORS
330
47
102
}
330
47
100
AcDbScale
 70
     0
300
6" = 1'-0"
140
6.0
141
12.0
290
     0
  0
SCALE
  5
68
102
{ACAD_REACTORS
330
47
102
}
330
47
100
AcDbScale
 70
     0
300
1'-0" = 1'-0"
140
12.0
141
12.0
290
     0
  0
TABLESTYLE
  5
6A
102
{ACAD_REACTORS
330
69
102
}
102
{ACAD_XDICTIONARY
360
30F
102
}
330
69
100
AcDbTableStyle
  3
Standard
 70
     0
 71
     0
 40
0.06
 41
0.06
280
     0
281
     0
  7
Standard
140
4.5
170
     2
 62
     0
 63
   257
283
     0
274
    -2
284
     1
 64
     0
275
    -2
285
     1
 65
     0
276
    -2
286
     1
 66
     0
277
    -2
287
     1
 67
     0
278
    -2
288
     1
 68
     0
279
    -2
289
     1
 69
     0
  7
Standard
140
6.0
170
     5
 62
     0
 63
   257
283
     0
274
    -2
284
     1
 64
     0
275
    -2
285
     1
 65
     0
276
    -2
286
     1
 66
     0
277
    -2
287
     1
 67
     0
278
    -2
288
     1
 68
     0
279
    -2
289
     1
 69
     0
  7
Standard
140
4.5
170
     5
 62
     0
 63
   257
283
     0
274
    -2
284
     1
 64
     0
275
    -2
285
     1
 65
     0
276
    -2
286
     1
 66
     0
277
    -2
287
     1
 67
     0
278
    -2
288
     1
 68
     0
279
    -2
289
     1
 69
     0
  0
VISUALSTYLE
  5
2F
102
{ACAD_REACTORS
330
2A
102
}
102
{ACAD_XDICTIONARY
360
2E1
102
}
330
2A
100
AcDbVisualStyle
  2
2dWireframe
 70
     4
 71
     0
 72
     2
 73
     0
 90
        0
 40
0.6
 41
30.0
 62
     5
 63
     7
421
 16777215
 74
     1
 91
        4
 64
     7
 65
   257
 75
     1
175
     1
 42
1.0
 92
        0
 66
   257
 43
1.0
 76
     1
 77
     6
 78
     2
 67
     7
 79
     5
170
     0
171
     0
290
     0
174
     0
 93
        1
 44
0.0
173
     0
291
     0
 45
0.0
1001
ACAD
1000
AcDbSavedByObjectVersion
1070
     0
  0
VISUALSTYLE
  5
32
102
{ACAD_REACTORS
330
2A
102
}
102
{ACAD_XDICTIONARY
360
2E7
102
}
330
2A
100
AcDbVisualStyle
  2
Basic
 70
     7
 71
     1
 72
     0
 73
     1
 90
        0
 40
0.6
 41
30.0
 62
     5
 63
     7
421
 16777215
 74
     0
 91
        4
 64
     7
 65
   257
 75
     1
175
     1
 42
1.0
 92
        8
 66
     7
 43
1.0
 76
     1
 77
     6
 78
     2
 67
     7
 79
     5
170
     0
171
     0
290
     0
174
     0
 93
        1
 44
0.0
173
     0
291
     1
 45
0.0
1001
ACAD
1000
AcDbSavedByObjectVersion
1070
     0
  0
VISUALSTYLE
  5
36
102
{ACAD_REACTORS
330
2A
102
}
102
{ACAD_XDICTIONARY
360
2EF
102
}
330
2A
100
AcDbVisualStyle
  2
Brighten
 70
    12
 71
     2
 72
     2
 73
     0
 90
        0
 40
0.6
 41
30.0
 62
     5
 63
     7
421
 16777215
 74
     1
 91
        4
 64
     7
 65
   257
 75
     1
175
     1
 42
1.0
 92
        8
 66
     7
 43
1.0
 76
     1
 77
     6
 78
     2
 67
     7
 79
     5
170
     0
171
     0
290
     0
174
     0
 93
        1
 44
50.0
173
     0
291
     1
 45
0.0
1001
ACAD
1000
AcDbSavedByObjectVersion
1070
     0
  0
VISUALSTYLE
  5
3A
102
{ACAD_REACTORS
330
2A
102
}
102
{ACAD_XDICTIONARY
360
2F7
102
}
330
2A
100
AcDbVisualStyle
  2
ColorChange
 70
    16
 71
     2
 72
     2
 73
     3
 90
        0
 40
0.6
 41
30.0
 62
     5
 63
     8
421
  8421504
 74
     1
 91
        4
 64
     7
 65
   257
 75
     1
175
     1
 42
1.0
 92
        8
 66
     8
424
  8421504
 43
1.0
 76
     1
 77
     6
 78
     2
 67
     7
 79
     5
170
     0
171
     0
290
     0
174
     0
 93
        1
 44
0.0
173
     0
291
     1
 45
0.0
1001
ACAD
1000
AcDbSavedByObjectVersion
1070
     0
  0
VISUALSTYLE
  5
34
102
{ACAD_REACTORS
330
2A
102
}
102
{ACAD_XDICTIONARY
360
2EB
102
}
330
2A
100
AcDbVisualStyle
  2
Conceptual
 70
     9
 71
     3
 72
     2
 73
     0
 90
        0
 40
0.6
 41
30.0
 62
     5
 63
     7
421
 16777215
 74
     2
 91
        2
 64
     7
 65
   257
 75
     1
175
     1
 42
179.0
 92
        8
 66
     7
 43
1.0
 76
     1
 77
     6
 78
     2
 67
     7
 79
     3
170
     0
171
     0
290
     0
174
     0
 93
        1
 44
0.0
173
     0
291
     0
 45
0.0
1001
ACAD
1000
AcDbSavedByObjectVersion
1070
     0
  0
VISUALSTYLE
  5
35
102
{ACAD_REACTORS
330
2A
102
}
102
{ACAD_XDICTIONARY
360
2ED
102
}
330
2A
100
AcDbVisualStyle
  2
Dim
 70
    11
 71
     2
 72
     2
 73
     0
 90
        0
 40
0.6
 41
30.0
 62
     5
 63
     7
421
 16777215
 74
     1
 91
        4
 64
     7
 65
   257
 75
     1
175
     1
 42
1.0
 92
        8
 66
     7
 43
1.0
 76
     1
 77
     6
 78
     2
 67
     7
 79
     5
170
     0
171
     0
290
     0
174
     0
 93
        1
 44
-50.0
173
     0
291
     1
 45
0.0
1001
ACAD
1000
AcDbSavedByObjectVersion
1070
     0
  0
VISUALSTYLE
  5
3D
102
{ACAD_REACTORS
330
2A
102
}
102
{ACAD_XDICTIONARY
360
2FD
102
}
330
2A
100
AcDbVisualStyle
  2
EdgeColorOff
 70
    22
 71
     2
 72
     2
 73
     0
 90
        0
 40
0.6
 41
30.0
 62
     5
 63
     7
421
 16777215
 74
     1
 91
        4
 64
     7
 65
   257
 75
     1
175
     1
 42
1.0
 92
        8
 66
     7
 43
1.0
 76
     1
 77
     6
 78
     2
 67
     7
 79
     5
170
     0
171
     0
290
     0
174
     0
 93
        1
 44
0.0
173
     0
291
     1
 45
0.0
1001
ACAD
1000
AcDbSavedByObjectVersion
1070
     0
  0
VISUALSTYLE
  5
39
102
{ACAD_REACTORS
330
2A
102
}
102
{ACAD_XDICTIONARY
360
2F5
102
}
330
2A
100
AcDbVisualStyle
  2
Facepattern
 70
    15
 71
     2
 72
     2
 73
     0
 90
        0
 40
0.6
 41
30.0
 62
     5
 63
     7
421
 16777215
 74
     1
 91
        4
 64
     7
 65
   257
 75
     1
175
     1
 42
1.0
 92
        8
 66
     7
 43
1.0
 76
     1
 77
     6
 78
     2
 67
     7
 79
     5
170
     0
171
     0
290
     0
174
     0
 93
        1
 44
0.0
173
     0
291
     1
 45
0.0
1001
ACAD
1000
AcDbSavedByObjectVersion
1070
     0
  0
VISUALSTYLE
  5
2B
102
{ACAD_REACTORS
330
2A
102
}
102
{ACAD_XDICTIONARY
360
2D9
102
}
330
2A
100
AcDbVisualStyle
  2
Flat
 70
     0
 71
     2
 72
     1
 73
     1
 90
        2
 40
0.6
 41
30.0
 62
     5
 63
     7
421
 16777215
 74
     0
 91
        0
 64
     7
 65
   257
 75
     1
175
     1
 42
1.0
 92
        8
 66
     7
 43
1.0
 76
     1
 77
     6
 78
     2
 67
     7
 79
     5
170
     0
171
     0
290
     0
174
     0
 93
       13
 44
0.0
173
     0
291
     1
 45
0.0
1001
ACAD
1000
AcDbSavedByObjectVersion
1070
     0
  0
VISUALSTYLE
  5
2C
102
{ACAD_REACTORS
330
2A
102
}
102
{ACAD_XDICTIONARY
360
2DB
102
}
330
2A
100
AcDbVisualStyle
  2
FlatWithEdges
 70
     1
 71
     2
 72
     1
 73
     1
 90
        2
 40
0.6
 41
30.0
 62
     5
 63
     7
421
 16777215
 74
     1
 91
        0
 64
     7
 65
   257
 75
     1
175
     1
 42
1.0
 92
        0
 66
   257
 43
1.0
 76
     1
 77
     6
 78
     2
 67
     7
 79
     5
170
     0
171
     0
290
     0
174
     0
 93
       13
 44
0.0
173
     0
291
     1
 45
0.0
1001
ACAD
1000
AcDbSavedByObjectVersion
1070
     0
  0
VISUALSTYLE
  5
2D
102
{ACAD_REACTORS
330
2A
102
}
102
{ACAD_XDICTIONARY
360
2DD
102
}
330
2A
100
AcDbVisualStyle
  2
Gouraud
 70
     2
 71
     2
 72
     2
 73
     1
 90
        2
 40
0.6
 41
30.0
 62
     5
 63
     7
421
 16777215
 74
     0
 91
        0
 64
     7
 65
   257
 75
     1
175
     1
 42
1.0
 92
        0
 66
     7
 43
1.0
 76
     1
 77
     6
 78
     2
 67
     7
 79
     5
170
     0
171
     0
290
     0
174
     0
 93
       13
 44
0.0
173
     0
291
     1
 45
0.0
1001
ACAD
1000
AcDbSavedByObjectVersion
1070
     0
  0
VISUALSTYLE
  5
2E
102
{ACAD_REACTORS
330
2A
102
}
102
{ACAD_XDICTIONARY
360
2DF
102
}
330
2A
100
AcDbVisualStyle
  2
GouraudWithEdges
 70
     3
 71
     2
 72
     2
 73
     1
 90
        2
 40
0.6
 41
30.0
 62
     5
 63
     7
421
 16777215
 74
     1
 91
        0
 64
     7
 65
   257
 75
     1
175
     1
 42
1.0
 92
        0
 66
   257
 43
1.0
 76
     1
 77
     6
 78
     2
 67
     7
 79
     5
170
     0
171
     0
290
     0
174
     0
 93
       13
 44
0.0
173
     0
291
     1
 45
0.0
1001
ACAD
1000
AcDbSavedByObjectVersion
1070
     0
  0
VISUALSTYLE
  5
31
102
{ACAD_REACTORS
330
2A
102
}
102
{ACAD_XDICTIONARY
360
2E5
102
}
330
2A
100
AcDbVisualStyle
  2
Hidden
 70
     6
 71
     1
 72
     2
 73
     2
 90
        0
 40
0.6
 41
30.0
 62
     5
 63
     7
421
 16777215
 74
     2
 91
        2
 64
     7
 65
   257
 75
     2
175
     1
 42
40.0
 92
        0
 66
   257
 43
1.0
 76
     1
 77
     6
 78
     2
 67
     7
 79
     3
170
     0
171
     0
290
     0
174
     0
 93
        1
 44
0.0
173
     0
291
     0
 45
0.0
1001
ACAD
1000
AcDbSavedByObjectVersion
1070
     0
  0
VISUALSTYLE
  5
3B
102
{ACAD_REACTORS
330
2A
102
}
102
{ACAD_XDICTIONARY
360
2F9
102
}
330
2A
100
AcDbVisualStyle
  2
JitterOff
 70
    20
 71
     2
 72
     2
 73
     0
 90
        0
 40
0.6
 41
30.0
 62
     5
 63
     7
421
 16777215
 74
     1
 91
        4
 64
     7
 65
   257
 75
     1
175
     1
 42
1.0
 92
       10
 66
     7
 43
1.0
 76
     1
 77
     6
 78
     2
 67
     7
 79
     5
170
     0
171
     0
290
     0
174
     0
 93
        1
 44
0.0
173
     0
291
     1
 45
0.0
1001
ACAD
1000
AcDbSavedByObjectVersion
1070
     0
  0
VISUALSTYLE
  5
38
102
{ACAD_REACTORS
330
2A
102
}
102
{ACAD_XDICTIONARY
360
2F3
102
}
330
2A
100
AcDbVisualStyle
  2
Linepattern
 70
    14
 71
     2
 72
     2
 73
     0
 90
        0
 40
0.6
 41
30.0
 62
     5
 63
     7
421
 16777215
 74
     1
 91
        4
 64
     7
 65
   257
 75
     7
175
     7
 42
1.0
 92
        8
 66
     7
 43
1.0
 76
     1
 77
     6
 78
     2
 67
     7
 79
     5
170
     0
171
     0
290
     0
174
     0
 93
        1
 44
0.0
173
     0
291
     1
 45
0.0
1001
ACAD
1000
AcDbSavedByObjectVersion
1070
     0
  0
VISUALSTYLE
  5
3C
102
{ACAD_REACTORS
330
2A
102
}
102
{ACAD_XDICTIONARY
360
2FB
102
}
330
2A
100
AcDbVisualStyle
  2
OverhangOff
 70
    21
 71
     2
 72
     2
 73
     0
 90
        0
 40
0.6
 41
30.0
 62
     5
 63
     7
421
 16777215
 74
     1
 91
        4
 64
     7
 65
   257
 75
     1
175
     1
 42
1.0
 92
        9
 66
     7
 43
1.0
 76
     1
 77
     6
 78
     2
 67
     7
 79
     5
170
     0
171
     0
290
     0
174
     0
 93
        1
 44
0.0
173
     0
291
     1
 45
0.0
1001
ACAD
1000
AcDbSavedByObjectVersion
1070
     0
  0
VISUALSTYLE
  5
33
102
{ACAD_REACTORS
330
2A
102
}
102
{ACAD_XDICTIONARY
360
2E9
102
}
330
2A
100
AcDbVisualStyle
  2
Realistic
 70
     8
 71
     2
 72
     3
 73
     0
 90
        2
 40
0.6
 41
30.0
 62
     5
 63
     7
421
 16777215
 74
     0
 91
        0
 64
     7
 65
   257
 75
     1
175
     1
 42
1.0
 92
        8
 66
   257
 43
1.0
 76
     1
 77
     6
 78
     2
 67
     7
 79
     3
170
     0
171
     0
290
     0
174
     0
 93
       13
 44
0.0
173
     0
291
     0
 45
0.0
1001
ACAD
1000
AcDbSavedByObjectVersion
1070
     0
  0
VISUALSTYLE
  5
42
102
{ACAD_REACTORS
330
2A
102
}
102
{ACAD_XDICTIONARY
360
307
102
}
330
2A
100
AcDbVisualStyle
  2
Shaded
 70
    27
 71
     2
 72
     2
 73
     1
 90
        2
 40
0.6
 41
30.0
 62
     5
 63
     7
421
 16777215
 74
     0
 91
        4
 64
     7
 65
   257
 75
     1
175
     1
 42
1.0
 92
        8
 66
   257
 43
1.0
 76
     1
 77
     6
 78
     2
 67
     8
425
  7895160
 79
     3
170
     0
171
     0
290
     0
174
     0
 93
        5
 44
0.0
173
     0
291
     0
 45
0.0
1001
ACAD
1000
AcDbSavedByObjectVersion
1070
     0
  0
VISUALSTYLE
  5
41
102
{ACAD_REACTORS
330
2A
102
}
102
{ACAD_XDICTIONARY
360
305
102
}
330
2A
100
AcDbVisualStyle
  2
Shaded with edges
 70
    26
 71
     2
 72
     2
 73
     1
 90
        2
 40
0.6
 41
30.0
 62
     5
 63
     7
421
 16777215
 74
     1
 91
       10
 64
     7
 65
   257
 75
     2
175
     1
 42
1.0
 92
        8
 66
   257
 43
1.0
 76
     1
 77
     6
 78
     2
 67
     7
 79
     3
170
     0
171
     0
290
     0
174
     0
 93
        5
 44
0.0
173
     0
291
     0
 45
0.0
1001
ACAD
1000
AcDbSavedByObjectVersion
1070
     0
  0
VISUALSTYLE
  5
3E
102
{ACAD_REACTORS
330
2A
102
}
102
{ACAD_XDICTIONARY
360
2FF
102
}
330
2A
100
AcDbVisualStyle
  2
Shades of Gray
 70
    23
 71
     2
 72
     2
 73
     3
 90
        0
 40
0.6
 41
30.0
 62
     5
 63
     7
421
 16777215
 74
     2
 91
        2
 64
     7
 65
     7
 75
     1
175
     1
 42
40.0
 92
        8
 66
     7
 43
1.0
 76
     1
 77
     6
 78
     2
 67
     7
 79
     3
170
     0
171
     0
290
     0
174
     0
 93
        1
 44
0.0
173
     0
291
     0
 45
0.0
1001
ACAD
1000
AcDbSavedByObjectVersion
1070
     0
  0
VISUALSTYLE
  5
3F
102
{ACAD_REACTORS
330
2A
102
}
102
{ACAD_XDICTIONARY
360
301
102
}
330
2A
100
AcDbVisualStyle
  2
Sketchy
 70
    24
 71
     1
 72
     2
 73
     2
 90
        0
 40
0.6
 41
30.0
 62
     5
 63
     7
421
 16777215
 74
     2
 91
        2
 64
     7
 65
     7
 75
     1
175
     1
 42
40.0
 92
       11
 66
     7
 43
1.0
 76
     1
 77
     6
 78
     2
 67
     7
 79
     6
170
     0
171
     0
290
     0
174
     0
 93
        1
 44
0.0
173
     0
291
     0
 45
0.0
1001
ACAD
1000
AcDbSavedByObjectVersion
1070
     0
  0
VISUALSTYLE
  5
37
102
{ACAD_REACTORS
330
2A
102
}
102
{ACAD_XDICTIONARY
360
2F1
102
}
330
2A
100
AcDbVisualStyle
  2
Thicken
 70
    13
 71
     2
 72
     2
 73
     0
 90
        0
 40
0.6
 41
30.0
 62
     5
 63
     7
421
 16777215
 74
     1
 91
        4
 64
     7
 65
   257
 75
     1
175
     1
 42
1.0
 92
       12
 66
     7
 43
1.0
 76
     1
 77
     6
 78
     2
 67
     7
 79
     5
170
     0
171
     0
290
     0
174
     0
 93
        1
 44
0.0
173
     0
291
     1
 45
0.0
1001
ACAD
1000
AcDbSavedByObjectVersion
1070
     0
  0
VISUALSTYLE
  5
30
102
{ACAD_REACTORS
330
2A
102
}
102
{ACAD_XDICTIONARY
360
2E3
102
}
330
2A
100
AcDbVisualStyle
  2
Wireframe
 70
     5
 71
     0
 72
     2
 73
     0
 90
        0
 40
0.6
 41
30.0
 62
     5
 63
     7
421
 16777215
 74
     1
 91
        4
 64
     7
 65
   257
 75
     1
175
     1
 42
1.0
 92
        0
 66
   257
 43
1.0
 76
     1
 77
     6
 78
     2
 67
     7
 79
     3
170
     0
171
     0
290
     0
174
     0
 93
        1
 44
0.0
173
     0
291
     0
 45
0.0
1001
ACAD
1000
AcDbSavedByObjectVersion
1070
     0
  0
VISUALSTYLE
  5
40
102
{ACAD_REACTORS
330
2A
102
}
102
{ACAD_XDICTIONARY
360
303
102
}
330
2A
100
AcDbVisualStyle
  2
X-Ray
 70
    25
 71
     2
 72
     2
 73
     1
 90
        1
 40
0.5
 41
30.0
 62
     5
 63
     7
421
 16777215
 74
     1
 91
        0
 64
     7
 65
   257
 75
     1
175
     1
 42
1.0
 92
        8
 66
     7
 43
1.0
 76
     1
 77
     6
 78
     2
 67
     7
 79
     3
170
     0
171
     0
290
     0
174
     0
 93
       13
 44
0.0
173
     0
291
     0
 45
0.0
1001
ACAD
1000
AcDbSavedByObjectVersion
1070
     0
  0
DICTIONARYVAR
  5
2D6
102
{ACAD_REACTORS
330
2D5
102
}
330
2D5
100
DictionaryVariables
280
     0
  1
1:1
  0
DICTIONARYVAR
  5
31A
102
{ACAD_REACTORS
330
2D5
102
}
330
2D5
100
DictionaryVariables
280
     0
  1
3.500000
  0
DICTIONARYVAR
  5
31B
102
{ACAD_REACTORS
330
2D5
102
}
330
2D5
100
DictionaryVariables
280
     0
  1
acadiso.lin
  0
DICTIONARYVAR
  5
317
102
{ACAD_REACTORS
330
2D5
102
}
330
2D5
100
DictionaryVariables
280
     0
  1
Standard
  0
DICTIONARYVAR
  5
316
102
{ACAD_REACTORS
330
2D5
102
}
330
2D5
100
DictionaryVariables
280
     0
  1
Standard
  0
DICTIONARYVAR
  5
2D7
102
{ACAD_REACTORS
330
2D5
102
}
330
2D5
100
DictionaryVariables
280
     0
  1
1
  0
DICTIONARYVAR
  5
2D8
102
{ACAD_REACTORS
330
2D5
102
}
330
2D5
100
DictionaryVariables
280
     0
  1
2
  0
DICTIONARY
  5
30B
330
45
100
AcDbDictionary
280
     1
281
     1
  3
ACAD_XREC_ROUNDTRIP
360
30C
  0
DICTIONARY
  5
309
330
44
100
AcDbDictionary
280
     1
281
     1
  3
ACAD_XREC_ROUNDTRIP
360
30A
  0
DICTIONARY
  5
30D
330
46
100
AcDbDictionary
280
     1
281
     1
  3
ACAD_XREC_ROUNDTRIP
360
30E
  0
DICTIONARY
  5
313
330
6C
100
AcDbDictionary
280
     1
281
     1
  3
ACAD_XREC_ROUNDTRIP
360
314
  0
DICTIONARY
  5
30F
330
6A
100
AcDbDictionary
280
     1
281
     1
  3
ACAD_ROUNDTRIP_2008_TABLESTYLE_CELLSTYLEMAP
360
311
  3
ACAD_XREC_ROUNDTRIP
360
310
  0
DICTIONARY
  5
2E1
330
2F
100
AcDbDictionary
280
     1
281
     1
  3
ACAD_XREC_ROUNDTRIP
360
2E2
  0
DICTIONARY
  5
2E7
330
32
100
AcDbDictionary
280
     1
281
     1
  3
ACAD_XREC_ROUNDTRIP
360
2E8
  0
DICTIONARY
  5
2EF
330
36
100
AcDbDictionary
280
     1
281
     1
  3
ACAD_XREC_ROUNDTRIP
360
2F0
  0
DICTIONARY
  5
2F7
330
3A
100
AcDbDictionary
280
     1
281
     1
  3
ACAD_XREC_ROUNDTRIP
360
2F8
  0
DICTIONARY
  5
2EB
330
34
100
AcDbDictionary
280
     1
281
     1
  3
ACAD_XREC_ROUNDTRIP
360
2EC
  0
DICTIONARY
  5
2ED
330
35
100
AcDbDictionary
280
     1
281
     1
  3
ACAD_XREC_ROUNDTRIP
360
2EE
  0
DICTIONARY
  5
2FD
330
3D
100
AcDbDictionary
280
     1
281
     1
  3
ACAD_XREC_ROUNDTRIP
360
2FE
  0
DICTIONARY
  5
2F5
330
39
100
AcDbDictionary
280
     1
281
     1
  3
ACAD_XREC_ROUNDTRIP
360
2F6
  0
DICTIONARY
  5
2D9
330
2B
100
AcDbDictionary
280
     1
281
     1
  3
ACAD_XREC_ROUNDTRIP
360
2DA
  0
DICTIONARY
  5
2DB
330
2C
100
AcDbDictionary
280
     1
281
     1
  3
ACAD_XREC_ROUNDTRIP
360
2DC
  0
DICTIONARY
  5
2DD
330
2D
100
AcDbDictionary
280
     1
281
     1
  3
ACAD_XREC_ROUNDTRIP
360
2DE
  0
DICTIONARY
  5
2DF
330
2E
100
AcDbDictionary
280
     1
281
     1
  3
ACAD_XREC_ROUNDTRIP
360
2E0
  0
DICTIONARY
  5
2E5
330
31
100
AcDbDictionary
280
     1
281
     1
  3
ACAD_XREC_ROUNDTRIP
360
2E6
  0
DICTIONARY
  5
2F9
330
3B
100
AcDbDictionary
280
     1
281
     1
  3
ACAD_XREC_ROUNDTRIP
360
2FA
  0
DICTIONARY
  5
2F3
330
38
100
AcDbDictionary
280
     1
281
     1
  3
ACAD_XREC_ROUNDTRIP
360
2F4
  0
DICTIONARY
  5
2FB
330
3C
100
AcDbDictionary
280
     1
281
     1
  3
ACAD_XREC_ROUNDTRIP
360
2FC
  0
DICTIONARY
  5
2E9
330
33
100
AcDbDictionary
280
     1
281
     1
  3
ACAD_XREC_ROUNDTRIP
360
2EA
  0
DICTIONARY
  5
307
330
42
100
AcDbDictionary
280
     1
281
     1
  3
ACAD_XREC_ROUNDTRIP
360
308
  0
DICTIONARY
  5
305
330
41
100
AcDbDictionary
280
     1
281
     1
  3
ACAD_XREC_ROUNDTRIP
360
306
  0
DICTIONARY
  5
2FF
330
3E
100
AcDbDictionary
280
     1
281
     1
  3
ACAD_XREC_ROUNDTRIP
360
300
  0
DICTIONARY
  5
301
330
3F
100
AcDbDictionary
280
     1
281
     1
  3
ACAD_XREC_ROUNDTRIP
360
302
  0
DICTIONARY
  5
2F1
330
37
100
AcDbDictionary
280
     1
281
     1
  3
ACAD_XREC_ROUNDTRIP
360
2F2
  0
DICTIONARY
  5
2E3
330
30
100
AcDbDictionary
280
     1
281
     1
  3
ACAD_XREC_ROUNDTRIP
360
2E4
  0
DICTIONARY
  5
303
330
40
100
AcDbDictionary
280
     1
281
     1
  3
ACAD_XREC_ROUNDTRIP
360
304
  0
XRECORD
  5
30C
102
{ACAD_REACTORS
330
30B
102
}
330
30B
100
AcDbXrecord
280
     1
102
MATERIAL
148
0.0
149
0.0
149
0.0
 93
        0
 94
      127
282
     0
 72
     1
 77
     1
171
     1
175
     1
179
     1
273
     0
  0
XRECORD
  5
30A
102
{ACAD_REACTORS
330
309
102
}
330
309
100
AcDbXrecord
280
     1
102
MATERIAL
148
0.0
149
0.0
149
0.0
 93
        0
 94
      127
282
     0
 72
     1
 77
     1
171
     1
175
     1
179
     1
273
     0
  0
XRECORD
  5
30E
102
{ACAD_REACTORS
330
30D
102
}
330
30D
100
AcDbXrecord
280
     1
102
MATERIAL
148
0.0
149
0.0
149
0.0
 93
        0
 94
      127
282
     0
 72
     1
 77
     1
171
     1
175
     1
179
     1
273
     0
  0
XRECORD
  5
314
102
{ACAD_REACTORS
330
313
102
}
330
313
100
AcDbXrecord
280
     1
102
ACAD_ROUNDTRIP_2010_MLEADER_STYLE
  0
CELLSTYLEMAP
  5
311
102
{ACAD_REACTORS
330
30F
102
}
330
30F
100
AcDbCellStyleMap
 90
        3
300
CELLSTYLE
  1
TABLEFORMAT_BEGIN
 90
        5
170
     1
 91
        0
 92
    32768
 62
   257
 93
        1
300
CONTENTFORMAT
  1
CONTENTFORMAT_BEGIN
 90
        0
 91
        0
 92
        4
 93
        0
300

 40
0.0
140
1.0
 94
        5
 62
     0
340
11
144
6.0
309
CONTENTFORMAT_END
171
     1
301
MARGIN
  1
CELLMARGIN_BEGIN
 40
1.5
 40
1.5
 40
1.5
 40
1.5
 40
1.5
 40
1.5
309
CELLMARGIN_END
 94
        6
 95
        1
302
GRIDFORMAT
  1
GRIDFORMAT_BEGIN
 90
        0
 91
        1
 62
     0
 92
       -2
340
14
 93
        0
 40
0.045
309
GRIDFORMAT_END
 95
        2
302
GRIDFORMAT
  1
GRIDFORMAT_BEGIN
 90
        0
 91
        1
 62
     0
 92
       -2
340
14
 93
        0
 40
0.045
309
GRIDFORMAT_END
 95
        4
302
GRIDFORMAT
  1
GRIDFORMAT_BEGIN
 90
        0
 91
        1
 62
     0
 92
       -2
340
14
 93
        0
 40
0.045
309
GRIDFORMAT_END
 95
        8
302
GRIDFORMAT
  1
GRIDFORMAT_BEGIN
 90
        0
 91
        1
 62
     0
 92
       -2
340
14
 93
        0
 40
0.045
309
GRIDFORMAT_END
 95
       16
302
GRIDFORMAT
  1
GRIDFORMAT_BEGIN
 90
        0
 91
        1
 62
     0
 92
       -2
340
14
 93
        0
 40
0.045
309
GRIDFORMAT_END
 95
       32
302
GRIDFORMAT
  1
GRIDFORMAT_BEGIN
 90
        0
 91
        1
 62
     0
 92
       -2
340
14
 93
        0
 40
0.045
309
GRIDFORMAT_END
309
TABLEFORMAT_END
  1
CELLSTYLE_BEGIN
 90
        1
 91
        1
300
_TITLE
309
CELLSTYLE_END
300
CELLSTYLE
  1
TABLEFORMAT_BEGIN
 90
        5
170
     1
 91
        0
 92
        0
 62
   257
 93
        1
300
CONTENTFORMAT
  1
CONTENTFORMAT_BEGIN
 90
        0
 91
        0
 92
        4
 93
        0
300

 40
0.0
140
1.0
 94
        5
 62
     0
340
11
144
4.5
309
CONTENTFORMAT_END
171
     1
301
MARGIN
  1
CELLMARGIN_BEGIN
 40
1.5
 40
1.5
 40
1.5
 40
1.5
 40
1.5
 40
1.5
309
CELLMARGIN_END
 94
        6
 95
        1
302
GRIDFORMAT
  1
GRIDFORMAT_BEGIN
 90
        0
 91
        1
 62
     0
 92
       -2
340
14
 93
        0
 40
0.045
309
GRIDFORMAT_END
 95
        2
302
GRIDFORMAT
  1
GRIDFORMAT_BEGIN
 90
        0
 91
        1
 62
     0
 92
       -2
340
14
 93
        0
 40
0.045
309
GRIDFORMAT_END
 95
        4
302
GRIDFORMAT
  1
GRIDFORMAT_BEGIN
 90
        0
 91
        1
 62
     0
 92
       -2
340
14
 93
        0
 40
0.045
309
GRIDFORMAT_END
 95
        8
302
GRIDFORMAT
  1
GRIDFORMAT_BEGIN
 90
        0
 91
        1
 62
     0
 92
       -2
340
14
 93
        0
 40
0.045
309
GRIDFORMAT_END
 95
       16
302
GRIDFORMAT
  1
GRIDFORMAT_BEGIN
 90
        0
 91
        1
 62
     0
 92
       -2
340
14
 93
        0
 40
0.045
309
GRIDFORMAT_END
 95
       32
302
GRIDFORMAT
  1
GRIDFORMAT_BEGIN
 90
        0
 91
        1
 62
     0
 92
       -2
340
14
 93
        0
 40
0.045
309
GRIDFORMAT_END
309
TABLEFORMAT_END
  1
CELLSTYLE_BEGIN
 90
        2
 91
        1
300
_HEADER
309
CELLSTYLE_END
300
CELLSTYLE
  1
TABLEFORMAT_BEGIN
 90
        5
170
     1
 91
        0
 92
        0
 62
   257
 93
        1
300
CONTENTFORMAT
  1
CONTENTFORMAT_BEGIN
 90
        0
 91
        0
 92
        4
 93
        0
300

 40
0.0
140
1.0
 94
        2
 62
     0
340
11
144
4.5
309
CONTENTFORMAT_END
171
     1
301
MARGIN
  1
CELLMARGIN_BEGIN
 40
1.5
 40
1.5
 40
1.5
 40
1.5
 40
1.5
 40
1.5
309
CELLMARGIN_END
 94
        6
 95
        1
302
GRIDFORMAT
  1
GRIDFORMAT_BEGIN
 90
        0
 91
        1
 62
     0
 92
       -2
340
14
 93
        0
 40
0.045
309
GRIDFORMAT_END
 95
        2
302
GRIDFORMAT
  1
GRIDFORMAT_BEGIN
 90
        0
 91
        1
 62
     0
 92
       -2
340
14
 93
        0
 40
0.045
309
GRIDFORMAT_END
 95
        4
302
GRIDFORMAT
  1
GRIDFORMAT_BEGIN
 90
        0
 91
        1
 62
     0
 92
       -2
340
14
 93
        0
 40
0.045
309
GRIDFORMAT_END
 95
        8
302
GRIDFORMAT
  1
GRIDFORMAT_BEGIN
 90
        0
 91
        1
 62
     0
 92
       -2
340
14
 93
        0
 40
0.045
309
GRIDFORMAT_END
 95
       16
302
GRIDFORMAT
  1
GRIDFORMAT_BEGIN
 90
        0
 91
        1
 62
     0
 92
       -2
340
14
 93
        0
 40
0.045
309
GRIDFORMAT_END
 95
       32
302
GRIDFORMAT
  1
GRIDFORMAT_BEGIN
 90
        0
 91
        1
 62
     0
 92
       -2
340
14
 93
        0
 40
0.045
309
GRIDFORMAT_END
309
TABLEFORMAT_END
  1
CELLSTYLE_BEGIN
 90
        3
 91
        2
300
_DATA
309
CELLSTYLE_END
  0
XRECORD
  5
310
102
{ACAD_REACTORS
330
30F
102
}
330
30F
100
AcDbXrecord
280
     1
102
ACAD_ROUNDTRIP_PRE2007_TABLESTYLE
 90
        4
 91
        0
  1

 92
        4
 93
        0
  2

 94
        4
 95
        0
  3

  0
XRECORD
  5
2E2
102
{ACAD_REACTORS
330
2E1
102
}
330
2E1
100
AcDbXrecord
280
     1
102
RTVSPropertyOp0
 70
     1
102
RTVSPropertyOp1
 70
     1
102
RTVSPropertyOp2
 70
     1
102
RTVSPropertyOp3
 70
     1
102
RTVSPropertyOp4
 70
     1
102
RTVSPropertyOp5
 70
     1
102
RTVSPropertyOp6
 70
     1
102
RTVSPropertyOp7
 70
     1
102
RTVSPropertyOp8
 70
     1
102
RTVSPropertyOp9
 70
     1
102
RTVSPropertyOp10
 70
     1
102
RTVSPropertyOp11
 70
     1
102
RTVSPropertyOp12
 70
     1
102
RTVSPropertyOp13
 70
     1
102
RTVSPropertyOp14
 70
     1
102
RTVSPropertyOp15
 70
     1
102
RTVSPropertyOp16
 70
     1
102
RTVSPropertyOp17
 70
     1
102
RTVSPropertyOp18
 70
     1
102
RTVSPropertyOp19
 70
     1
102
RTVSPropertyOp20
 70
     1
102
RTVSPropertyOp21
 70
     1
102
RTVSPropertyOp22
 70
     1
102
RTVSPropertyOp23
 70
     1
102
RTVSPropertyOp24
 70
     1
102
RTVSPropertyOp25
 70
     1
102
RTVSPropertyOp26
 70
     1
102
RTVSPropertyOp27
 70
     1
102
RTVSPropertyOp28
 70
     1
102
RTVSPropertyOp29
 70
     1
102
RTVSPropertyOp30
 70
     1
102
RTVSPropertyOp31
 70
     1
102
RTVSPropertyOp32
 70
     1
102
RTVSPropertyOp33
 70
     1
102
RTVSPropertyOp34
 70
     1
102
RTVSPropertyOp35
 70
     1
102
RTVSPropertyOp36
 70
     1
102
RTVSPropertyOp37
 70
     1
102
RTVSPropertyOp38
 70
     1
102
RTVSPropertyOp39
 70
     1
102
RTVSPropertyOp40
 70
     1
102
RTVSPropertyOp41
 70
     1
102
RTVSPropertyOp42
 70
     1
102
RTVSPropertyOp43
 70
     1
102
RTVSPropertyOp44
 70
     1
102
RTVSPropertyOp45
 70
     1
102
RTVSPropertyOp46
 70
     1
102
RTVSPropertyOp47
 70
     1
102
RTVSPropertyOp48
 70
     1
102
RTVSPropertyOp49
 70
     1
102
RTVSPropertyOp50
 70
     1
102
RTVSPropertyOp51
 70
     0
102
RTVSPropertyOp52
 70
     0
102
RTVSPropertyOp53
 70
     1
102
RTVSPropertyOp54
 70
     1
102
RTVSPropertyOp55
 70
     1
102
RTVSPropertyOp56
 70
     1
102
RTVSPropertyOp57
 70
     1
102
RTVSPost2010Prop28
280
     1
102
RTVSPost2010PropOp28
 70
     1
102
RTVSPost2010Prop29
280
     1
102
RTVSPost2010PropOp29
 70
     1
102
RTVSPost2010Prop30
280
     0
102
RTVSPost2010PropOp30
 70
     1
102
RTVSPost2010Prop31
280
     0
102
RTVSPost2010PropOp31
 70
     1
102
RTVSPost2010Prop32
280
     0
102
RTVSPost2010PropOp32
 70
     1
102
RTVSPost2010Prop33
280
     0
102
RTVSPost2010PropOp33
 70
     1
102
RTVSPost2010Prop34
280
     0
102
RTVSPost2010PropOp34
 70
     1
102
RTVSPost2010Prop35
280
     0
102
RTVSPost2010PropOp35
 70
     1
102
RTVSPost2010Prop36
280
     0
102
RTVSPost2010PropOp36
 70
     1
102
RTVSPost2010Prop37
 90
       50
102
RTVSPost2010PropOp37
 70
     1
102
RTVSPost2010Prop38
140
0.0
102
RTVSPost2010PropOp38
 70
     1
102
RTVSPost2010Prop39
140
1.0
102
RTVSPost2010PropOp39
 70
     1
102
RTVSPost2010Prop40
 90
        0
102
RTVSPost2010PropOp40
 70
     1
102
RTVSPost2010Prop41ColorIndex
 90
       18
102
RTVSPost2010Prop41ColorRGB
 90
        0
102
RTVSPost2010PropOp41
 70
     1
102
RTVSPost2010Prop42
 90
       50
102
RTVSPost2010PropOp42
 70
     1
102
RTVSPost2010Prop43
 90
        3
102
RTVSPost2010PropOp43
 70
     1
102
RTVSPost2010Prop44ColorIndex
 90
        5
102
RTVSPost2010Prop44ColorRGB
 90
      255
102
RTVSPost2010PropOp44
 70
     1
102
RTVSPost2010Prop45
280
     0
102
RTVSPost2010PropOp45
 70
     1
102
RTVSPost2010Prop46
 90
       50
102
RTVSPost2010PropOp46
 70
     1
102
RTVSPost2010Prop47
 90
       50
102
RTVSPost2010PropOp47
 70
     1
102
RTVSPost2010Prop48
 90
       50
102
RTVSPost2010PropOp48
 70
     1
102
RTVSPost2010Prop49
280
     0
102
RTVSPost2010PropOp49
 70
     1
102
RTVSPost2010Prop50
 90
       50
102
RTVSPost2010PropOp50
 70
     1
102
RTVSPost2010Prop51ColorIndex
 90
      256
102
RTVSPost2010Prop51ColorRGB
 90
-16777216
102
RTVSPost2010PropOp51
 70
     0
102
RTVSPost2010Prop52
140
1.0
102
RTVSPost2010PropOp52
 70
     0
102
RTVSPost2010Prop53
 90
        2
102
RTVSPost2010PropOp53
 70
     1
102
RTVSPost2010Prop54
  1
strokes_ogs.tif
102
RTVSPost2010PropOp54
 70
     1
102
RTVSPost2010Prop55
280
     0
102
RTVSPost2010PropOp55
 70
     1
102
RTVSPost2010Prop56
140
1.0
102
RTVSPost2010PropOp56
 70
     1
102
RTVSPost2010Prop57
140
1.0
102
RTVSPost2010PropOp57
 70
     1
  0
XRECORD
  5
2E8
102
{ACAD_REACTORS
330
2E7
102
}
330
2E7
100
AcDbXrecord
280
     1
102
RTVSPropertyOp0
 70
     1
102
RTVSPropertyOp1
 70
     1
102
RTVSPropertyOp2
 70
     1
102
RTVSPropertyOp3
 70
     1
102
RTVSPropertyOp4
 70
     1
102
RTVSPropertyOp5
 70
     1
102
RTVSPropertyOp6
 70
     1
102
RTVSPropertyOp7
 70
     1
102
RTVSPropertyOp8
 70
     1
102
RTVSPropertyOp9
 70
     1
102
RTVSPropertyOp10
 70
     1
102
RTVSPropertyOp11
 70
     1
102
RTVSPropertyOp12
 70
     1
102
RTVSPropertyOp13
 70
     1
102
RTVSPropertyOp14
 70
     1
102
RTVSPropertyOp15
 70
     1
102
RTVSPropertyOp16
 70
     1
102
RTVSPropertyOp17
 70
     1
102
RTVSPropertyOp18
 70
     1
102
RTVSPropertyOp19
 70
     1
102
RTVSPropertyOp20
 70
     1
102
RTVSPropertyOp21
 70
     1
102
RTVSPropertyOp22
 70
     1
102
RTVSPropertyOp23
 70
     1
102
RTVSPropertyOp24
 70
     1
102
RTVSPropertyOp25
 70
     1
102
RTVSPropertyOp26
 70
     1
102
RTVSPropertyOp27
 70
     1
102
RTVSPropertyOp28
 70
     1
102
RTVSPropertyOp29
 70
     1
102
RTVSPropertyOp30
 70
     1
102
RTVSPropertyOp31
 70
     1
102
RTVSPropertyOp32
 70
     1
102
RTVSPropertyOp33
 70
     1
102
RTVSPropertyOp34
 70
     1
102
RTVSPropertyOp35
 70
     1
102
RTVSPropertyOp36
 70
     1
102
RTVSPropertyOp37
 70
     1
102
RTVSPropertyOp38
 70
     1
102
RTVSPropertyOp39
 70
     1
102
RTVSPropertyOp40
 70
     1
102
RTVSPropertyOp41
 70
     1
102
RTVSPropertyOp42
 70
     1
102
RTVSPropertyOp43
 70
     1
102
RTVSPropertyOp44
 70
     1
102
RTVSPropertyOp45
 70
     1
102
RTVSPropertyOp46
 70
     1
102
RTVSPropertyOp47
 70
     1
102
RTVSPropertyOp48
 70
     1
102
RTVSPropertyOp49
 70
     1
102
RTVSPropertyOp50
 70
     1
102
RTVSPropertyOp51
 70
     0
102
RTVSPropertyOp52
 70
     0
102
RTVSPropertyOp53
 70
     1
102
RTVSPropertyOp54
 70
     1
102
RTVSPropertyOp55
 70
     1
102
RTVSPropertyOp56
 70
     1
102
RTVSPropertyOp57
 70
     1
102
RTVSPost2010Prop28
280
     0
102
RTVSPost2010PropOp28
 70
     1
102
RTVSPost2010Prop29
280
     1
102
RTVSPost2010PropOp29
 70
     1
102
RTVSPost2010Prop30
280
     1
102
RTVSPost2010PropOp30
 70
     1
102
RTVSPost2010Prop31
280
     0
102
RTVSPost2010PropOp31
 70
     1
102
RTVSPost2010Prop32
280
     0
102
RTVSPost2010PropOp32
 70
     1
102
RTVSPost2010Prop33
280
     0
102
RTVSPost2010PropOp33
 70
     1
102
RTVSPost2010Prop34
280
     0
102
RTVSPost2010PropOp34
 70
     1
102
RTVSPost2010Prop35
280
     0
102
RTVSPost2010PropOp35
 70
     1
102
RTVSPost2010Prop36
280
     0
102
RTVSPost2010PropOp36
 70
     1
102
RTVSPost2010Prop37
 90
       50
102
RTVSPost2010PropOp37
 70
     1
102
RTVSPost2010Prop38
140
0.0
102
RTVSPost2010PropOp38
 70
     1
102
RTVSPost2010Prop39
140
1.0
102
RTVSPost2010PropOp39
 70
     1
102
RTVSPost2010Prop40
 90
        0
102
RTVSPost2010PropOp40
 70
     1
102
RTVSPost2010Prop41ColorIndex
 90
       18
102
RTVSPost2010Prop41ColorRGB
 90
        0
102
RTVSPost2010PropOp41
 70
     1
102
RTVSPost2010Prop42
 90
       50
102
RTVSPost2010PropOp42
 70
     1
102
RTVSPost2010Prop43
 90
        3
102
RTVSPost2010PropOp43
 70
     1
102
RTVSPost2010Prop44ColorIndex
 90
        5
102
RTVSPost2010Prop44ColorRGB
 90
      255
102
RTVSPost2010PropOp44
 70
     1
102
RTVSPost2010Prop45
280
     0
102
RTVSPost2010PropOp45
 70
     1
102
RTVSPost2010Prop46
 90
       50
102
RTVSPost2010PropOp46
 70
     1
102
RTVSPost2010Prop47
 90
       50
102
RTVSPost2010PropOp47
 70
     1
102
RTVSPost2010Prop48
 90
       50
102
RTVSPost2010PropOp48
 70
     1
102
RTVSPost2010Prop49
280
     0
102
RTVSPost2010PropOp49
 70
     1
102
RTVSPost2010Prop50
 90
       50
102
RTVSPost2010PropOp50
 70
     1
102
RTVSPost2010Prop51ColorIndex
 90
      256
102
RTVSPost2010Prop51ColorRGB
 90
-16777216
102
RTVSPost2010PropOp51
 70
     0
102
RTVSPost2010Prop52
140
1.0
102
RTVSPost2010PropOp52
 70
     0
102
RTVSPost2010Prop53
 90
        2
102
RTVSPost2010PropOp53
 70
     1
102
RTVSPost2010Prop54
  1
strokes_ogs.tif
102
RTVSPost2010PropOp54
 70
     1
102
RTVSPost2010Prop55
280
     0
102
RTVSPost2010PropOp55
 70
     1
102
RTVSPost2010Prop56
140
1.0
102
RTVSPost2010PropOp56
 70
     1
102
RTVSPost2010Prop57
140
1.0
102
RTVSPost2010PropOp57
 70
     1
  0
XRECORD
  5
2F0
102
{ACAD_REACTORS
330
2EF
102
}
330
2EF
100
AcDbXrecord
280
     1
102
RTVSPropertyOp0
 70
     1
102
RTVSPropertyOp1
 70
     1
102
RTVSPropertyOp2
 70
     1
102
RTVSPropertyOp3
 70
     1
102
RTVSPropertyOp4
 70
     1
102
RTVSPropertyOp5
 70
     1
102
RTVSPropertyOp6
 70
     1
102
RTVSPropertyOp7
 70
     1
102
RTVSPropertyOp8
 70
     1
102
RTVSPropertyOp9
 70
     1
102
RTVSPropertyOp10
 70
     1
102
RTVSPropertyOp11
 70
     1
102
RTVSPropertyOp12
 70
     1
102
RTVSPropertyOp13
 70
     1
102
RTVSPropertyOp14
 70
     1
102
RTVSPropertyOp15
 70
     1
102
RTVSPropertyOp16
 70
     1
102
RTVSPropertyOp17
 70
     1
102
RTVSPropertyOp18
 70
     1
102
RTVSPropertyOp19
 70
     1
102
RTVSPropertyOp20
 70
     1
102
RTVSPropertyOp21
 70
     1
102
RTVSPropertyOp22
 70
     1
102
RTVSPropertyOp23
 70
     1
102
RTVSPropertyOp24
 70
     1
102
RTVSPropertyOp25
 70
     1
102
RTVSPropertyOp26
 70
     1
102
RTVSPropertyOp27
 70
     1
102
RTVSPropertyOp28
 70
     1
102
RTVSPropertyOp29
 70
     1
102
RTVSPropertyOp30
 70
     1
102
RTVSPropertyOp31
 70
     1
102
RTVSPropertyOp32
 70
     1
102
RTVSPropertyOp33
 70
     1
102
RTVSPropertyOp34
 70
     1
102
RTVSPropertyOp35
 70
     1
102
RTVSPropertyOp36
 70
     1
102
RTVSPropertyOp37
 70
     1
102
RTVSPropertyOp38
 70
     1
102
RTVSPropertyOp39
 70
     1
102
RTVSPropertyOp40
 70
     1
102
RTVSPropertyOp41
 70
     1
102
RTVSPropertyOp42
 70
     1
102
RTVSPropertyOp43
 70
     1
102
RTVSPropertyOp44
 70
     1
102
RTVSPropertyOp45
 70
     1
102
RTVSPropertyOp46
 70
     1
102
RTVSPropertyOp47
 70
     1
102
RTVSPropertyOp48
 70
     1
102
RTVSPropertyOp49
 70
     1
102
RTVSPropertyOp50
 70
     1
102
RTVSPropertyOp51
 70
     0
102
RTVSPropertyOp52
 70
     0
102
RTVSPropertyOp53
 70
     1
102
RTVSPropertyOp54
 70
     1
102
RTVSPropertyOp55
 70
     1
102
RTVSPropertyOp56
 70
     1
102
RTVSPropertyOp57
 70
     1
102
RTVSPost2010Prop28
280
     0
102
RTVSPost2010PropOp28
 70
     1
102
RTVSPost2010Prop29
280
     1
102
RTVSPost2010PropOp29
 70
     1
102
RTVSPost2010Prop30
280
     1
102
RTVSPost2010PropOp30
 70
     1
102
RTVSPost2010Prop31
280
     0
102
RTVSPost2010PropOp31
 70
     1
102
RTVSPost2010Prop32
280
     0
102
RTVSPost2010PropOp32
 70
     1
102
RTVSPost2010Prop33
280
     0
102
RTVSPost2010PropOp33
 70
     1
102
RTVSPost2010Prop34
280
     0
102
RTVSPost2010PropOp34
 70
     1
102
RTVSPost2010Prop35
280
     0
102
RTVSPost2010PropOp35
 70
     1
102
RTVSPost2010Prop36
280
     0
102
RTVSPost2010PropOp36
 70
     1
102
RTVSPost2010Prop37
 90
       50
102
RTVSPost2010PropOp37
 70
     1
102
RTVSPost2010Prop38
140
0.0
102
RTVSPost2010PropOp38
 70
     1
102
RTVSPost2010Prop39
140
1.0
102
RTVSPost2010PropOp39
 70
     1
102
RTVSPost2010Prop40
 90
        0
102
RTVSPost2010PropOp40
 70
     1
102
RTVSPost2010Prop41ColorIndex
 90
       18
102
RTVSPost2010Prop41ColorRGB
 90
        0
102
RTVSPost2010PropOp41
 70
     1
102
RTVSPost2010Prop42
 90
       50
102
RTVSPost2010PropOp42
 70
     1
102
RTVSPost2010Prop43
 90
        3
102
RTVSPost2010PropOp43
 70
     1
102
RTVSPost2010Prop44ColorIndex
 90
        5
102
RTVSPost2010Prop44ColorRGB
 90
      255
102
RTVSPost2010PropOp44
 70
     1
102
RTVSPost2010Prop45
280
     0
102
RTVSPost2010PropOp45
 70
     1
102
RTVSPost2010Prop46
 90
       50
102
RTVSPost2010PropOp46
 70
     1
102
RTVSPost2010Prop47
 90
       50
102
RTVSPost2010PropOp47
 70
     1
102
RTVSPost2010Prop48
 90
       50
102
RTVSPost2010PropOp48
 70
     1
102
RTVSPost2010Prop49
280
     0
102
RTVSPost2010PropOp49
 70
     1
102
RTVSPost2010Prop50
 90
       50
102
RTVSPost2010PropOp50
 70
     1
102
RTVSPost2010Prop51ColorIndex
 90
      256
102
RTVSPost2010Prop51ColorRGB
 90
-16777216
102
RTVSPost2010PropOp51
 70
     0
102
RTVSPost2010Prop52
140
1.0
102
RTVSPost2010PropOp52
 70
     0
102
RTVSPost2010Prop53
 90
        2
102
RTVSPost2010PropOp53
 70
     1
102
RTVSPost2010Prop54
  1
strokes_ogs.tif
102
RTVSPost2010PropOp54
 70
     1
102
RTVSPost2010Prop55
280
     0
102
RTVSPost2010PropOp55
 70
     1
102
RTVSPost2010Prop56
140
1.0
102
RTVSPost2010PropOp56
 70
     1
102
RTVSPost2010Prop57
140
1.0
102
RTVSPost2010PropOp57
 70
     1
  0
XRECORD
  5
2F8
102
{ACAD_REACTORS
330
2F7
102
}
330
2F7
100
AcDbXrecord
280
     1
102
RTVSPropertyOp0
 70
     1
102
RTVSPropertyOp1
 70
     1
102
RTVSPropertyOp2
 70
     1
102
RTVSPropertyOp3
 70
     1
102
RTVSPropertyOp4
 70
     1
102
RTVSPropertyOp5
 70
     1
102
RTVSPropertyOp6
 70
     1
102
RTVSPropertyOp7
 70
     1
102
RTVSPropertyOp8
 70
     1
102
RTVSPropertyOp9
 70
     1
102
RTVSPropertyOp10
 70
     1
102
RTVSPropertyOp11
 70
     1
102
RTVSPropertyOp12
 70
     1
102
RTVSPropertyOp13
 70
     1
102
RTVSPropertyOp14
 70
     1
102
RTVSPropertyOp15
 70
     1
102
RTVSPropertyOp16
 70
     1
102
RTVSPropertyOp17
 70
     1
102
RTVSPropertyOp18
 70
     1
102
RTVSPropertyOp19
 70
     1
102
RTVSPropertyOp20
 70
     1
102
RTVSPropertyOp21
 70
     1
102
RTVSPropertyOp22
 70
     1
102
RTVSPropertyOp23
 70
     1
102
RTVSPropertyOp24
 70
     1
102
RTVSPropertyOp25
 70
     1
102
RTVSPropertyOp26
 70
     1
102
RTVSPropertyOp27
 70
     1
102
RTVSPropertyOp28
 70
     1
102
RTVSPropertyOp29
 70
     1
102
RTVSPropertyOp30
 70
     1
102
RTVSPropertyOp31
 70
     1
102
RTVSPropertyOp32
 70
     1
102
RTVSPropertyOp33
 70
     1
102
RTVSPropertyOp34
 70
     1
102
RTVSPropertyOp35
 70
     1
102
RTVSPropertyOp36
 70
     1
102
RTVSPropertyOp37
 70
     1
102
RTVSPropertyOp38
 70
     1
102
RTVSPropertyOp39
 70
     1
102
RTVSPropertyOp40
 70
     1
102
RTVSPropertyOp41
 70
     1
102
RTVSPropertyOp42
 70
     1
102
RTVSPropertyOp43
 70
     1
102
RTVSPropertyOp44
 70
     1
102
RTVSPropertyOp45
 70
     1
102
RTVSPropertyOp46
 70
     1
102
RTVSPropertyOp47
 70
     1
102
RTVSPropertyOp48
 70
     1
102
RTVSPropertyOp49
 70
     1
102
RTVSPropertyOp50
 70
     1
102
RTVSPropertyOp51
 70
     0
102
RTVSPropertyOp52
 70
     0
102
RTVSPropertyOp53
 70
     1
102
RTVSPropertyOp54
 70
     1
102
RTVSPropertyOp55
 70
     1
102
RTVSPropertyOp56
 70
     1
102
RTVSPropertyOp57
 70
     1
102
RTVSPost2010Prop28
280
     0
102
RTVSPost2010PropOp28
 70
     1
102
RTVSPost2010Prop29
280
     1
102
RTVSPost2010PropOp29
 70
     1
102
RTVSPost2010Prop30
280
     1
102
RTVSPost2010PropOp30
 70
     1
102
RTVSPost2010Prop31
280
     0
102
RTVSPost2010PropOp31
 70
     1
102
RTVSPost2010Prop32
280
     0
102
RTVSPost2010PropOp32
 70
     1
102
RTVSPost2010Prop33
280
     0
102
RTVSPost2010PropOp33
 70
     1
102
RTVSPost2010Prop34
280
     0
102
RTVSPost2010PropOp34
 70
     1
102
RTVSPost2010Prop35
280
     0
102
RTVSPost2010PropOp35
 70
     1
102
RTVSPost2010Prop36
280
     0
102
RTVSPost2010PropOp36
 70
     1
102
RTVSPost2010Prop37
 90
       50
102
RTVSPost2010PropOp37
 70
     1
102
RTVSPost2010Prop38
140
0.0
102
RTVSPost2010PropOp38
 70
     1
102
RTVSPost2010Prop39
140
1.0
102
RTVSPost2010PropOp39
 70
     1
102
RTVSPost2010Prop40
 90
        0
102
RTVSPost2010PropOp40
 70
     1
102
RTVSPost2010Prop41ColorIndex
 90
       18
102
RTVSPost2010Prop41ColorRGB
 90
        0
102
RTVSPost2010PropOp41
 70
     1
102
RTVSPost2010Prop42
 90
       50
102
RTVSPost2010PropOp42
 70
     1
102
RTVSPost2010Prop43
 90
        3
102
RTVSPost2010PropOp43
 70
     1
102
RTVSPost2010Prop44ColorIndex
 90
        5
102
RTVSPost2010Prop44ColorRGB
 90
      255
102
RTVSPost2010PropOp44
 70
     1
102
RTVSPost2010Prop45
280
     0
102
RTVSPost2010PropOp45
 70
     1
102
RTVSPost2010Prop46
 90
       50
102
RTVSPost2010PropOp46
 70
     1
102
RTVSPost2010Prop47
 90
       50
102
RTVSPost2010PropOp47
 70
     1
102
RTVSPost2010Prop48
 90
       50
102
RTVSPost2010PropOp48
 70
     1
102
RTVSPost2010Prop49
280
     0
102
RTVSPost2010PropOp49
 70
     1
102
RTVSPost2010Prop50
 90
       50
102
RTVSPost2010PropOp50
 70
     1
102
RTVSPost2010Prop51ColorIndex
 90
      256
102
RTVSPost2010Prop51ColorRGB
 90
-16777216
102
RTVSPost2010PropOp51
 70
     0
102
RTVSPost2010Prop52
140
1.0
102
RTVSPost2010PropOp52
 70
     0
102
RTVSPost2010Prop53
 90
        2
102
RTVSPost2010PropOp53
 70
     1
102
RTVSPost2010Prop54
  1
strokes_ogs.tif
102
RTVSPost2010PropOp54
 70
     1
102
RTVSPost2010Prop55
280
     0
102
RTVSPost2010PropOp55
 70
     1
102
RTVSPost2010Prop56
140
1.0
102
RTVSPost2010PropOp56
 70
     1
102
RTVSPost2010Prop57
140
1.0
102
RTVSPost2010PropOp57
 70
     1
  0
XRECORD
  5
2EC
102
{ACAD_REACTORS
330
2EB
102
}
330
2EB
100
AcDbXrecord
280
     1
102
RTVSPropertyOp0
 70
     1
102
RTVSPropertyOp1
 70
     1
102
RTVSPropertyOp2
 70
     1
102
RTVSPropertyOp3
 70
     1
102
RTVSPropertyOp4
 70
     1
102
RTVSPropertyOp5
 70
     1
102
RTVSPropertyOp6
 70
     1
102
RTVSPropertyOp7
 70
     1
102
RTVSPropertyOp8
 70
     1
102
RTVSPropertyOp9
 70
     1
102
RTVSPropertyOp10
 70
     1
102
RTVSPropertyOp11
 70
     1
102
RTVSPropertyOp12
 70
     1
102
RTVSPropertyOp13
 70
     1
102
RTVSPropertyOp14
 70
     1
102
RTVSPropertyOp15
 70
     1
102
RTVSPropertyOp16
 70
     1
102
RTVSPropertyOp17
 70
     1
102
RTVSPropertyOp18
 70
     1
102
RTVSPropertyOp19
 70
     1
102
RTVSPropertyOp20
 70
     1
102
RTVSPropertyOp21
 70
     1
102
RTVSPropertyOp22
 70
     1
102
RTVSPropertyOp23
 70
     1
102
RTVSPropertyOp24
 70
     1
102
RTVSPropertyOp25
 70
     1
102
RTVSPropertyOp26
 70
     1
102
RTVSPropertyOp27
 70
     1
102
RTVSPropertyOp28
 70
     1
102
RTVSPropertyOp29
 70
     1
102
RTVSPropertyOp30
 70
     1
102
RTVSPropertyOp31
 70
     1
102
RTVSPropertyOp32
 70
     1
102
RTVSPropertyOp33
 70
     1
102
RTVSPropertyOp34
 70
     1
102
RTVSPropertyOp35
 70
     1
102
RTVSPropertyOp36
 70
     1
102
RTVSPropertyOp37
 70
     1
102
RTVSPropertyOp38
 70
     1
102
RTVSPropertyOp39
 70
     1
102
RTVSPropertyOp40
 70
     1
102
RTVSPropertyOp41
 70
     1
102
RTVSPropertyOp42
 70
     1
102
RTVSPropertyOp43
 70
     1
102
RTVSPropertyOp44
 70
     1
102
RTVSPropertyOp45
 70
     1
102
RTVSPropertyOp46
 70
     1
102
RTVSPropertyOp47
 70
     1
102
RTVSPropertyOp48
 70
     1
102
RTVSPropertyOp49
 70
     1
102
RTVSPropertyOp50
 70
     1
102
RTVSPropertyOp51
 70
     0
102
RTVSPropertyOp52
 70
     0
102
RTVSPropertyOp53
 70
     1
102
RTVSPropertyOp54
 70
     1
102
RTVSPropertyOp55
 70
     1
102
RTVSPropertyOp56
 70
     1
102
RTVSPropertyOp57
 70
     1
102
RTVSPost2010Prop28
280
     0
102
RTVSPost2010PropOp28
 70
     1
102
RTVSPost2010Prop29
280
     1
102
RTVSPost2010PropOp29
 70
     1
102
RTVSPost2010Prop30
280
     1
102
RTVSPost2010PropOp30
 70
     1
102
RTVSPost2010Prop31
280
     0
102
RTVSPost2010PropOp31
 70
     1
102
RTVSPost2010Prop32
280
     0
102
RTVSPost2010PropOp32
 70
     1
102
RTVSPost2010Prop33
280
     0
102
RTVSPost2010PropOp33
 70
     1
102
RTVSPost2010Prop34
280
     0
102
RTVSPost2010PropOp34
 70
     1
102
RTVSPost2010Prop35
280
     0
102
RTVSPost2010PropOp35
 70
     1
102
RTVSPost2010Prop36
280
     0
102
RTVSPost2010PropOp36
 70
     1
102
RTVSPost2010Prop37
 90
       50
102
RTVSPost2010PropOp37
 70
     1
102
RTVSPost2010Prop38
140
0.0
102
RTVSPost2010PropOp38
 70
     1
102
RTVSPost2010Prop39
140
1.0
102
RTVSPost2010PropOp39
 70
     1
102
RTVSPost2010Prop40
 90
        0
102
RTVSPost2010PropOp40
 70
     1
102
RTVSPost2010Prop41ColorIndex
 90
       18
102
RTVSPost2010Prop41ColorRGB
 90
        0
102
RTVSPost2010PropOp41
 70
     1
102
RTVSPost2010Prop42
 90
       50
102
RTVSPost2010PropOp42
 70
     1
102
RTVSPost2010Prop43
 90
        3
102
RTVSPost2010PropOp43
 70
     1
102
RTVSPost2010Prop44ColorIndex
 90
        5
102
RTVSPost2010Prop44ColorRGB
 90
      255
102
RTVSPost2010PropOp44
 70
     1
102
RTVSPost2010Prop45
280
     0
102
RTVSPost2010PropOp45
 70
     1
102
RTVSPost2010Prop46
 90
       50
102
RTVSPost2010PropOp46
 70
     1
102
RTVSPost2010Prop47
 90
       50
102
RTVSPost2010PropOp47
 70
     1
102
RTVSPost2010Prop48
 90
       50
102
RTVSPost2010PropOp48
 70
     1
102
RTVSPost2010Prop49
280
     0
102
RTVSPost2010PropOp49
 70
     1
102
RTVSPost2010Prop50
 90
       50
102
RTVSPost2010PropOp50
 70
     1
102
RTVSPost2010Prop51ColorIndex
 90
      256
102
RTVSPost2010Prop51ColorRGB
 90
-16777216
102
RTVSPost2010PropOp51
 70
     0
102
RTVSPost2010Prop52
140
1.0
102
RTVSPost2010PropOp52
 70
     0
102
RTVSPost2010Prop53
 90
        2
102
RTVSPost2010PropOp53
 70
     1
102
RTVSPost2010Prop54
  1
strokes_ogs.tif
102
RTVSPost2010PropOp54
 70
     1
102
RTVSPost2010Prop55
280
     0
102
RTVSPost2010PropOp55
 70
     1
102
RTVSPost2010Prop56
140
1.0
102
RTVSPost2010PropOp56
 70
     1
102
RTVSPost2010Prop57
140
1.0
102
RTVSPost2010PropOp57
 70
     1
  0
XRECORD
  5
2EE
102
{ACAD_REACTORS
330
2ED
102
}
330
2ED
100
AcDbXrecord
280
     1
102
RTVSPropertyOp0
 70
     1
102
RTVSPropertyOp1
 70
     1
102
RTVSPropertyOp2
 70
     1
102
RTVSPropertyOp3
 70
     1
102
RTVSPropertyOp4
 70
     1
102
RTVSPropertyOp5
 70
     1
102
RTVSPropertyOp6
 70
     1
102
RTVSPropertyOp7
 70
     1
102
RTVSPropertyOp8
 70
     1
102
RTVSPropertyOp9
 70
     1
102
RTVSPropertyOp10
 70
     1
102
RTVSPropertyOp11
 70
     1
102
RTVSPropertyOp12
 70
     1
102
RTVSPropertyOp13
 70
     1
102
RTVSPropertyOp14
 70
     1
102
RTVSPropertyOp15
 70
     1
102
RTVSPropertyOp16
 70
     1
102
RTVSPropertyOp17
 70
     1
102
RTVSPropertyOp18
 70
     1
102
RTVSPropertyOp19
 70
     1
102
RTVSPropertyOp20
 70
     1
102
RTVSPropertyOp21
 70
     1
102
RTVSPropertyOp22
 70
     1
102
RTVSPropertyOp23
 70
     1
102
RTVSPropertyOp24
 70
     1
102
RTVSPropertyOp25
 70
     1
102
RTVSPropertyOp26
 70
     1
102
RTVSPropertyOp27
 70
     1
102
RTVSPropertyOp28
 70
     1
102
RTVSPropertyOp29
 70
     1
102
RTVSPropertyOp30
 70
     1
102
RTVSPropertyOp31
 70
     1
102
RTVSPropertyOp32
 70
     1
102
RTVSPropertyOp33
 70
     1
102
RTVSPropertyOp34
 70
     1
102
RTVSPropertyOp35
 70
     1
102
RTVSPropertyOp36
 70
     1
102
RTVSPropertyOp37
 70
     1
102
RTVSPropertyOp38
 70
     1
102
RTVSPropertyOp39
 70
     1
102
RTVSPropertyOp40
 70
     1
102
RTVSPropertyOp41
 70
     1
102
RTVSPropertyOp42
 70
     1
102
RTVSPropertyOp43
 70
     1
102
RTVSPropertyOp44
 70
     1
102
RTVSPropertyOp45
 70
     1
102
RTVSPropertyOp46
 70
     1
102
RTVSPropertyOp47
 70
     1
102
RTVSPropertyOp48
 70
     1
102
RTVSPropertyOp49
 70
     1
102
RTVSPropertyOp50
 70
     1
102
RTVSPropertyOp51
 70
     0
102
RTVSPropertyOp52
 70
     0
102
RTVSPropertyOp53
 70
     1
102
RTVSPropertyOp54
 70
     1
102
RTVSPropertyOp55
 70
     1
102
RTVSPropertyOp56
 70
     1
102
RTVSPropertyOp57
 70
     1
102
RTVSPost2010Prop28
280
     0
102
RTVSPost2010PropOp28
 70
     1
102
RTVSPost2010Prop29
280
     1
102
RTVSPost2010PropOp29
 70
     1
102
RTVSPost2010Prop30
280
     1
102
RTVSPost2010PropOp30
 70
     1
102
RTVSPost2010Prop31
280
     0
102
RTVSPost2010PropOp31
 70
     1
102
RTVSPost2010Prop32
280
     0
102
RTVSPost2010PropOp32
 70
     1
102
RTVSPost2010Prop33
280
     0
102
RTVSPost2010PropOp33
 70
     1
102
RTVSPost2010Prop34
280
     0
102
RTVSPost2010PropOp34
 70
     1
102
RTVSPost2010Prop35
280
     0
102
RTVSPost2010PropOp35
 70
     1
102
RTVSPost2010Prop36
280
     0
102
RTVSPost2010PropOp36
 70
     1
102
RTVSPost2010Prop37
 90
       50
102
RTVSPost2010PropOp37
 70
     1
102
RTVSPost2010Prop38
140
0.0
102
RTVSPost2010PropOp38
 70
     1
102
RTVSPost2010Prop39
140
1.0
102
RTVSPost2010PropOp39
 70
     1
102
RTVSPost2010Prop40
 90
        0
102
RTVSPost2010PropOp40
 70
     1
102
RTVSPost2010Prop41ColorIndex
 90
       18
102
RTVSPost2010Prop41ColorRGB
 90
        0
102
RTVSPost2010PropOp41
 70
     1
102
RTVSPost2010Prop42
 90
       50
102
RTVSPost2010PropOp42
 70
     1
102
RTVSPost2010Prop43
 90
        3
102
RTVSPost2010PropOp43
 70
     1
102
RTVSPost2010Prop44ColorIndex
 90
        5
102
RTVSPost2010Prop44ColorRGB
 90
      255
102
RTVSPost2010PropOp44
 70
     1
102
RTVSPost2010Prop45
280
     0
102
RTVSPost2010PropOp45
 70
     1
102
RTVSPost2010Prop46
 90
       50
102
RTVSPost2010PropOp46
 70
     1
102
RTVSPost2010Prop47
 90
       50
102
RTVSPost2010PropOp47
 70
     1
102
RTVSPost2010Prop48
 90
       50
102
RTVSPost2010PropOp48
 70
     1
102
RTVSPost2010Prop49
280
     0
102
RTVSPost2010PropOp49
 70
     1
102
RTVSPost2010Prop50
 90
       50
102
RTVSPost2010PropOp50
 70
     1
102
RTVSPost2010Prop51ColorIndex
 90
      256
102
RTVSPost2010Prop51ColorRGB
 90
-16777216
102
RTVSPost2010PropOp51
 70
     0
102
RTVSPost2010Prop52
140
1.0
102
RTVSPost2010PropOp52
 70
     0
102
RTVSPost2010Prop53
 90
        2
102
RTVSPost2010PropOp53
 70
     1
102
RTVSPost2010Prop54
  1
strokes_ogs.tif
102
RTVSPost2010PropOp54
 70
     1
102
RTVSPost2010Prop55
280
     0
102
RTVSPost2010PropOp55
 70
     1
102
RTVSPost2010Prop56
140
1.0
102
RTVSPost2010PropOp56
 70
     1
102
RTVSPost2010Prop57
140
1.0
102
RTVSPost2010PropOp57
 70
     1
  0
XRECORD
  5
2FE
102
{ACAD_REACTORS
330
2FD
102
}
330
2FD
100
AcDbXrecord
280
     1
102
RTVSPropertyOp0
 70
     0
102
RTVSPropertyOp1
 70
     0
102
RTVSPropertyOp2
 70
     0
102
RTVSPropertyOp3
 70
     0
102
RTVSPropertyOp4
 70
     0
102
RTVSPropertyOp5
 70
     0
102
RTVSPropertyOp6
 70
     0
102
RTVSPropertyOp7
 70
     0
102
RTVSPropertyOp8
 70
     0
102
RTVSPropertyOp9
 70
     0
102
RTVSPropertyOp10
 70
     0
102
RTVSPropertyOp11
 70
     0
102
RTVSPropertyOp12
 70
     0
102
RTVSPropertyOp13
 70
     0
102
RTVSPropertyOp14
 70
     2
102
RTVSPropertyOp15
 70
     0
102
RTVSPropertyOp16
 70
     0
102
RTVSPropertyOp17
 70
     0
102
RTVSPropertyOp18
 70
     0
102
RTVSPropertyOp19
 70
     0
102
RTVSPropertyOp20
 70
     0
102
RTVSPropertyOp21
 70
     0
102
RTVSPropertyOp22
 70
     0
102
RTVSPropertyOp23
 70
     0
102
RTVSPropertyOp24
 70
     0
102
RTVSPropertyOp25
 70
     0
102
RTVSPropertyOp26
 70
     0
102
RTVSPropertyOp27
 70
     0
102
RTVSPropertyOp28
 70
     0
102
RTVSPropertyOp29
 70
     0
102
RTVSPropertyOp30
 70
     0
102
RTVSPropertyOp31
 70
     0
102
RTVSPropertyOp32
 70
     0
102
RTVSPropertyOp33
 70
     0
102
RTVSPropertyOp34
 70
     0
102
RTVSPropertyOp35
 70
     0
102
RTVSPropertyOp36
 70
     0
102
RTVSPropertyOp37
 70
     0
102
RTVSPropertyOp38
 70
     0
102
RTVSPropertyOp39
 70
     0
102
RTVSPropertyOp40
 70
     0
102
RTVSPropertyOp41
 70
     0
102
RTVSPropertyOp42
 70
     0
102
RTVSPropertyOp43
 70
     0
102
RTVSPropertyOp44
 70
     0
102
RTVSPropertyOp45
 70
     0
102
RTVSPropertyOp46
 70
     0
102
RTVSPropertyOp47
 70
     0
102
RTVSPropertyOp48
 70
     0
102
RTVSPropertyOp49
 70
     0
102
RTVSPropertyOp50
 70
     0
102
RTVSPropertyOp51
 70
     0
102
RTVSPropertyOp52
 70
     0
102
RTVSPropertyOp53
 70
     0
102
RTVSPropertyOp54
 70
     0
102
RTVSPropertyOp55
 70
     0
102
RTVSPropertyOp56
 70
     0
102
RTVSPropertyOp57
 70
     0
102
RTVSPost2010Prop28
280
     0
102
RTVSPost2010PropOp28
 70
     0
102
RTVSPost2010Prop29
280
     1
102
RTVSPost2010PropOp29
 70
     0
102
RTVSPost2010Prop30
280
     1
102
RTVSPost2010PropOp30
 70
     0
102
RTVSPost2010Prop31
280
     0
102
RTVSPost2010PropOp31
 70
     0
102
RTVSPost2010Prop32
280
     0
102
RTVSPost2010PropOp32
 70
     0
102
RTVSPost2010Prop33
280
     0
102
RTVSPost2010PropOp33
 70
     0
102
RTVSPost2010Prop34
280
     0
102
RTVSPost2010PropOp34
 70
     0
102
RTVSPost2010Prop35
280
     0
102
RTVSPost2010PropOp35
 70
     0
102
RTVSPost2010Prop36
280
     0
102
RTVSPost2010PropOp36
 70
     0
102
RTVSPost2010Prop37
 90
       50
102
RTVSPost2010PropOp37
 70
     0
102
RTVSPost2010Prop38
140
0.0
102
RTVSPost2010PropOp38
 70
     0
102
RTVSPost2010Prop39
140
1.0
102
RTVSPost2010PropOp39
 70
     0
102
RTVSPost2010Prop40
 90
        0
102
RTVSPost2010PropOp40
 70
     0
102
RTVSPost2010Prop41ColorIndex
 90
       18
102
RTVSPost2010Prop41ColorRGB
 90
        0
102
RTVSPost2010PropOp41
 70
     0
102
RTVSPost2010Prop42
 90
       50
102
RTVSPost2010PropOp42
 70
     0
102
RTVSPost2010Prop43
 90
        3
102
RTVSPost2010PropOp43
 70
     0
102
RTVSPost2010Prop44ColorIndex
 90
        5
102
RTVSPost2010Prop44ColorRGB
 90
      255
102
RTVSPost2010PropOp44
 70
     0
102
RTVSPost2010Prop45
280
     0
102
RTVSPost2010PropOp45
 70
     0
102
RTVSPost2010Prop46
 90
       50
102
RTVSPost2010PropOp46
 70
     0
102
RTVSPost2010Prop47
 90
       50
102
RTVSPost2010PropOp47
 70
     0
102
RTVSPost2010Prop48
 90
       50
102
RTVSPost2010PropOp48
 70
     0
102
RTVSPost2010Prop49
280
     0
102
RTVSPost2010PropOp49
 70
     0
102
RTVSPost2010Prop50
 90
       50
102
RTVSPost2010PropOp50
 70
     0
102
RTVSPost2010Prop51ColorIndex
 90
      256
102
RTVSPost2010Prop51ColorRGB
 90
-16777216
102
RTVSPost2010PropOp51
 70
     0
102
RTVSPost2010Prop52
140
1.0
102
RTVSPost2010PropOp52
 70
     0
102
RTVSPost2010Prop53
 90
        2
102
RTVSPost2010PropOp53
 70
     0
102
RTVSPost2010Prop54
  1
strokes_ogs.tif
102
RTVSPost2010PropOp54
 70
     0
102
RTVSPost2010Prop55
280
     0
102
RTVSPost2010PropOp55
 70
     0
102
RTVSPost2010Prop56
140
1.0
102
RTVSPost2010PropOp56
 70
     0
102
RTVSPost2010Prop57
140
1.0
102
RTVSPost2010PropOp57
 70
     0
  0
XRECORD
  5
2F6
102
{ACAD_REACTORS
330
2F5
102
}
330
2F5
100
AcDbXrecord
280
     1
102
RTVSPropertyOp0
 70
     1
102
RTVSPropertyOp1
 70
     1
102
RTVSPropertyOp2
 70
     1
102
RTVSPropertyOp3
 70
     1
102
RTVSPropertyOp4
 70
     1
102
RTVSPropertyOp5
 70
     1
102
RTVSPropertyOp6
 70
     1
102
RTVSPropertyOp7
 70
     1
102
RTVSPropertyOp8
 70
     1
102
RTVSPropertyOp9
 70
     1
102
RTVSPropertyOp10
 70
     1
102
RTVSPropertyOp11
 70
     1
102
RTVSPropertyOp12
 70
     1
102
RTVSPropertyOp13
 70
     1
102
RTVSPropertyOp14
 70
     1
102
RTVSPropertyOp15
 70
     1
102
RTVSPropertyOp16
 70
     1
102
RTVSPropertyOp17
 70
     1
102
RTVSPropertyOp18
 70
     1
102
RTVSPropertyOp19
 70
     1
102
RTVSPropertyOp20
 70
     1
102
RTVSPropertyOp21
 70
     1
102
RTVSPropertyOp22
 70
     1
102
RTVSPropertyOp23
 70
     1
102
RTVSPropertyOp24
 70
     1
102
RTVSPropertyOp25
 70
     1
102
RTVSPropertyOp26
 70
     1
102
RTVSPropertyOp27
 70
     1
102
RTVSPropertyOp28
 70
     1
102
RTVSPropertyOp29
 70
     1
102
RTVSPropertyOp30
 70
     1
102
RTVSPropertyOp31
 70
     1
102
RTVSPropertyOp32
 70
     1
102
RTVSPropertyOp33
 70
     1
102
RTVSPropertyOp34
 70
     1
102
RTVSPropertyOp35
 70
     1
102
RTVSPropertyOp36
 70
     1
102
RTVSPropertyOp37
 70
     1
102
RTVSPropertyOp38
 70
     1
102
RTVSPropertyOp39
 70
     1
102
RTVSPropertyOp40
 70
     1
102
RTVSPropertyOp41
 70
     1
102
RTVSPropertyOp42
 70
     1
102
RTVSPropertyOp43
 70
     1
102
RTVSPropertyOp44
 70
     1
102
RTVSPropertyOp45
 70
     1
102
RTVSPropertyOp46
 70
     1
102
RTVSPropertyOp47
 70
     1
102
RTVSPropertyOp48
 70
     1
102
RTVSPropertyOp49
 70
     1
102
RTVSPropertyOp50
 70
     1
102
RTVSPropertyOp51
 70
     0
102
RTVSPropertyOp52
 70
     0
102
RTVSPropertyOp53
 70
     1
102
RTVSPropertyOp54
 70
     1
102
RTVSPropertyOp55
 70
     1
102
RTVSPropertyOp56
 70
     1
102
RTVSPropertyOp57
 70
     1
102
RTVSPost2010Prop28
280
     0
102
RTVSPost2010PropOp28
 70
     1
102
RTVSPost2010Prop29
280
     1
102
RTVSPost2010PropOp29
 70
     1
102
RTVSPost2010Prop30
280
     1
102
RTVSPost2010PropOp30
 70
     1
102
RTVSPost2010Prop31
280
     0
102
RTVSPost2010PropOp31
 70
     1
102
RTVSPost2010Prop32
280
     0
102
RTVSPost2010PropOp32
 70
     1
102
RTVSPost2010Prop33
280
     0
102
RTVSPost2010PropOp33
 70
     1
102
RTVSPost2010Prop34
280
     0
102
RTVSPost2010PropOp34
 70
     1
102
RTVSPost2010Prop35
280
     0
102
RTVSPost2010PropOp35
 70
     1
102
RTVSPost2010Prop36
280
     0
102
RTVSPost2010PropOp36
 70
     1
102
RTVSPost2010Prop37
 90
       50
102
RTVSPost2010PropOp37
 70
     1
102
RTVSPost2010Prop38
140
0.0
102
RTVSPost2010PropOp38
 70
     1
102
RTVSPost2010Prop39
140
1.0
102
RTVSPost2010PropOp39
 70
     1
102
RTVSPost2010Prop40
 90
        0
102
RTVSPost2010PropOp40
 70
     1
102
RTVSPost2010Prop41ColorIndex
 90
       18
102
RTVSPost2010Prop41ColorRGB
 90
        0
102
RTVSPost2010PropOp41
 70
     1
102
RTVSPost2010Prop42
 90
       50
102
RTVSPost2010PropOp42
 70
     1
102
RTVSPost2010Prop43
 90
        3
102
RTVSPost2010PropOp43
 70
     1
102
RTVSPost2010Prop44ColorIndex
 90
        5
102
RTVSPost2010Prop44ColorRGB
 90
      255
102
RTVSPost2010PropOp44
 70
     1
102
RTVSPost2010Prop45
280
     0
102
RTVSPost2010PropOp45
 70
     1
102
RTVSPost2010Prop46
 90
       50
102
RTVSPost2010PropOp46
 70
     1
102
RTVSPost2010Prop47
 90
       50
102
RTVSPost2010PropOp47
 70
     1
102
RTVSPost2010Prop48
 90
       50
102
RTVSPost2010PropOp48
 70
     1
102
RTVSPost2010Prop49
280
     0
102
RTVSPost2010PropOp49
 70
     1
102
RTVSPost2010Prop50
 90
       50
102
RTVSPost2010PropOp50
 70
     1
102
RTVSPost2010Prop51ColorIndex
 90
      256
102
RTVSPost2010Prop51ColorRGB
 90
-16777216
102
RTVSPost2010PropOp51
 70
     0
102
RTVSPost2010Prop52
140
1.0
102
RTVSPost2010PropOp52
 70
     0
102
RTVSPost2010Prop53
 90
        2
102
RTVSPost2010PropOp53
 70
     1
102
RTVSPost2010Prop54
  1
strokes_ogs.tif
102
RTVSPost2010PropOp54
 70
     1
102
RTVSPost2010Prop55
280
     0
102
RTVSPost2010PropOp55
 70
     1
102
RTVSPost2010Prop56
140
1.0
102
RTVSPost2010PropOp56
 70
     1
102
RTVSPost2010Prop57
140
1.0
102
RTVSPost2010PropOp57
 70
     1
  0
XRECORD
  5
2DA
102
{ACAD_REACTORS
330
2D9
102
}
330
2D9
100
AcDbXrecord
280
     1
102
RTVSPropertyOp0
 70
     1
102
RTVSPropertyOp1
 70
     1
102
RTVSPropertyOp2
 70
     1
102
RTVSPropertyOp3
 70
     1
102
RTVSPropertyOp4
 70
     1
102
RTVSPropertyOp5
 70
     1
102
RTVSPropertyOp6
 70
     1
102
RTVSPropertyOp7
 70
     1
102
RTVSPropertyOp8
 70
     1
102
RTVSPropertyOp9
 70
     1
102
RTVSPropertyOp10
 70
     1
102
RTVSPropertyOp11
 70
     1
102
RTVSPropertyOp12
 70
     1
102
RTVSPropertyOp13
 70
     1
102
RTVSPropertyOp14
 70
     1
102
RTVSPropertyOp15
 70
     1
102
RTVSPropertyOp16
 70
     1
102
RTVSPropertyOp17
 70
     1
102
RTVSPropertyOp18
 70
     1
102
RTVSPropertyOp19
 70
     1
102
RTVSPropertyOp20
 70
     1
102
RTVSPropertyOp21
 70
     1
102
RTVSPropertyOp22
 70
     1
102
RTVSPropertyOp23
 70
     1
102
RTVSPropertyOp24
 70
     1
102
RTVSPropertyOp25
 70
     1
102
RTVSPropertyOp26
 70
     1
102
RTVSPropertyOp27
 70
     1
102
RTVSPropertyOp28
 70
     1
102
RTVSPropertyOp29
 70
     1
102
RTVSPropertyOp30
 70
     1
102
RTVSPropertyOp31
 70
     1
102
RTVSPropertyOp32
 70
     1
102
RTVSPropertyOp33
 70
     1
102
RTVSPropertyOp34
 70
     1
102
RTVSPropertyOp35
 70
     1
102
RTVSPropertyOp36
 70
     1
102
RTVSPropertyOp37
 70
     1
102
RTVSPropertyOp38
 70
     1
102
RTVSPropertyOp39
 70
     1
102
RTVSPropertyOp40
 70
     1
102
RTVSPropertyOp41
 70
     1
102
RTVSPropertyOp42
 70
     1
102
RTVSPropertyOp43
 70
     1
102
RTVSPropertyOp44
 70
     1
102
RTVSPropertyOp45
 70
     1
102
RTVSPropertyOp46
 70
     1
102
RTVSPropertyOp47
 70
     1
102
RTVSPropertyOp48
 70
     1
102
RTVSPropertyOp49
 70
     1
102
RTVSPropertyOp50
 70
     1
102
RTVSPropertyOp51
 70
     0
102
RTVSPropertyOp52
 70
     0
102
RTVSPropertyOp53
 70
     1
102
RTVSPropertyOp54
 70
     1
102
RTVSPropertyOp55
 70
     1
102
RTVSPropertyOp56
 70
     1
102
RTVSPropertyOp57
 70
     1
102
RTVSPost2010Prop28
280
     0
102
RTVSPost2010PropOp28
 70
     1
102
RTVSPost2010Prop29
280
     1
102
RTVSPost2010PropOp29
 70
     1
102
RTVSPost2010Prop30
280
     1
102
RTVSPost2010PropOp30
 70
     1
102
RTVSPost2010Prop31
280
     0
102
RTVSPost2010PropOp31
 70
     1
102
RTVSPost2010Prop32
280
     0
102
RTVSPost2010PropOp32
 70
     1
102
RTVSPost2010Prop33
280
     0
102
RTVSPost2010PropOp33
 70
     1
102
RTVSPost2010Prop34
280
     0
102
RTVSPost2010PropOp34
 70
     1
102
RTVSPost2010Prop35
280
     0
102
RTVSPost2010PropOp35
 70
     1
102
RTVSPost2010Prop36
280
     0
102
RTVSPost2010PropOp36
 70
     1
102
RTVSPost2010Prop37
 90
       50
102
RTVSPost2010PropOp37
 70
     1
102
RTVSPost2010Prop38
140
0.0
102
RTVSPost2010PropOp38
 70
     1
102
RTVSPost2010Prop39
140
1.0
102
RTVSPost2010PropOp39
 70
     1
102
RTVSPost2010Prop40
 90
        0
102
RTVSPost2010PropOp40
 70
     1
102
RTVSPost2010Prop41ColorIndex
 90
       18
102
RTVSPost2010Prop41ColorRGB
 90
        0
102
RTVSPost2010PropOp41
 70
     1
102
RTVSPost2010Prop42
 90
       50
102
RTVSPost2010PropOp42
 70
     1
102
RTVSPost2010Prop43
 90
        3
102
RTVSPost2010PropOp43
 70
     1
102
RTVSPost2010Prop44ColorIndex
 90
        5
102
RTVSPost2010Prop44ColorRGB
 90
      255
102
RTVSPost2010PropOp44
 70
     1
102
RTVSPost2010Prop45
280
     0
102
RTVSPost2010PropOp45
 70
     1
102
RTVSPost2010Prop46
 90
       50
102
RTVSPost2010PropOp46
 70
     1
102
RTVSPost2010Prop47
 90
       50
102
RTVSPost2010PropOp47
 70
     1
102
RTVSPost2010Prop48
 90
       50
102
RTVSPost2010PropOp48
 70
     1
102
RTVSPost2010Prop49
280
     0
102
RTVSPost2010PropOp49
 70
     1
102
RTVSPost2010Prop50
 90
       50
102
RTVSPost2010PropOp50
 70
     1
102
RTVSPost2010Prop51ColorIndex
 90
      256
102
RTVSPost2010Prop51ColorRGB
 90
-16777216
102
RTVSPost2010PropOp51
 70
     0
102
RTVSPost2010Prop52
140
1.0
102
RTVSPost2010PropOp52
 70
     0
102
RTVSPost2010Prop53
 90
        2
102
RTVSPost2010PropOp53
 70
     1
102
RTVSPost2010Prop54
  1
strokes_ogs.tif
102
RTVSPost2010PropOp54
 70
     1
102
RTVSPost2010Prop55
280
     0
102
RTVSPost2010PropOp55
 70
     1
102
RTVSPost2010Prop56
140
1.0
102
RTVSPost2010PropOp56
 70
     1
102
RTVSPost2010Prop57
140
1.0
102
RTVSPost2010PropOp57
 70
     1
  0
XRECORD
  5
2DC
102
{ACAD_REACTORS
330
2DB
102
}
330
2DB
100
AcDbXrecord
280
     1
102
RTVSPropertyOp0
 70
     1
102
RTVSPropertyOp1
 70
     1
102
RTVSPropertyOp2
 70
     1
102
RTVSPropertyOp3
 70
     1
102
RTVSPropertyOp4
 70
     1
102
RTVSPropertyOp5
 70
     1
102
RTVSPropertyOp6
 70
     1
102
RTVSPropertyOp7
 70
     1
102
RTVSPropertyOp8
 70
     1
102
RTVSPropertyOp9
 70
     1
102
RTVSPropertyOp10
 70
     1
102
RTVSPropertyOp11
 70
     1
102
RTVSPropertyOp12
 70
     1
102
RTVSPropertyOp13
 70
     1
102
RTVSPropertyOp14
 70
     1
102
RTVSPropertyOp15
 70
     1
102
RTVSPropertyOp16
 70
     1
102
RTVSPropertyOp17
 70
     1
102
RTVSPropertyOp18
 70
     1
102
RTVSPropertyOp19
 70
     1
102
RTVSPropertyOp20
 70
     1
102
RTVSPropertyOp21
 70
     1
102
RTVSPropertyOp22
 70
     1
102
RTVSPropertyOp23
 70
     1
102
RTVSPropertyOp24
 70
     1
102
RTVSPropertyOp25
 70
     1
102
RTVSPropertyOp26
 70
     1
102
RTVSPropertyOp27
 70
     1
102
RTVSPropertyOp28
 70
     1
102
RTVSPropertyOp29
 70
     1
102
RTVSPropertyOp30
 70
     1
102
RTVSPropertyOp31
 70
     1
102
RTVSPropertyOp32
 70
     1
102
RTVSPropertyOp33
 70
     1
102
RTVSPropertyOp34
 70
     1
102
RTVSPropertyOp35
 70
     1
102
RTVSPropertyOp36
 70
     1
102
RTVSPropertyOp37
 70
     1
102
RTVSPropertyOp38
 70
     1
102
RTVSPropertyOp39
 70
     1
102
RTVSPropertyOp40
 70
     1
102
RTVSPropertyOp41
 70
     1
102
RTVSPropertyOp42
 70
     1
102
RTVSPropertyOp43
 70
     1
102
RTVSPropertyOp44
 70
     1
102
RTVSPropertyOp45
 70
     1
102
RTVSPropertyOp46
 70
     1
102
RTVSPropertyOp47
 70
     1
102
RTVSPropertyOp48
 70
     1
102
RTVSPropertyOp49
 70
     1
102
RTVSPropertyOp50
 70
     1
102
RTVSPropertyOp51
 70
     0
102
RTVSPropertyOp52
 70
     0
102
RTVSPropertyOp53
 70
     1
102
RTVSPropertyOp54
 70
     1
102
RTVSPropertyOp55
 70
     1
102
RTVSPropertyOp56
 70
     1
102
RTVSPropertyOp57
 70
     1
102
RTVSPost2010Prop28
280
     0
102
RTVSPost2010PropOp28
 70
     1
102
RTVSPost2010Prop29
280
     1
102
RTVSPost2010PropOp29
 70
     1
102
RTVSPost2010Prop30
280
     1
102
RTVSPost2010PropOp30
 70
     1
102
RTVSPost2010Prop31
280
     0
102
RTVSPost2010PropOp31
 70
     1
102
RTVSPost2010Prop32
280
     0
102
RTVSPost2010PropOp32
 70
     1
102
RTVSPost2010Prop33
280
     0
102
RTVSPost2010PropOp33
 70
     1
102
RTVSPost2010Prop34
280
     0
102
RTVSPost2010PropOp34
 70
     1
102
RTVSPost2010Prop35
280
     0
102
RTVSPost2010PropOp35
 70
     1
102
RTVSPost2010Prop36
280
     0
102
RTVSPost2010PropOp36
 70
     1
102
RTVSPost2010Prop37
 90
       50
102
RTVSPost2010PropOp37
 70
     1
102
RTVSPost2010Prop38
140
0.0
102
RTVSPost2010PropOp38
 70
     1
102
RTVSPost2010Prop39
140
1.0
102
RTVSPost2010PropOp39
 70
     1
102
RTVSPost2010Prop40
 90
        0
102
RTVSPost2010PropOp40
 70
     1
102
RTVSPost2010Prop41ColorIndex
 90
       18
102
RTVSPost2010Prop41ColorRGB
 90
        0
102
RTVSPost2010PropOp41
 70
     1
102
RTVSPost2010Prop42
 90
       50
102
RTVSPost2010PropOp42
 70
     1
102
RTVSPost2010Prop43
 90
        3
102
RTVSPost2010PropOp43
 70
     1
102
RTVSPost2010Prop44ColorIndex
 90
        5
102
RTVSPost2010Prop44ColorRGB
 90
      255
102
RTVSPost2010PropOp44
 70
     1
102
RTVSPost2010Prop45
280
     0
102
RTVSPost2010PropOp45
 70
     1
102
RTVSPost2010Prop46
 90
       50
102
RTVSPost2010PropOp46
 70
     1
102
RTVSPost2010Prop47
 90
       50
102
RTVSPost2010PropOp47
 70
     1
102
RTVSPost2010Prop48
 90
       50
102
RTVSPost2010PropOp48
 70
     1
102
RTVSPost2010Prop49
280
     0
102
RTVSPost2010PropOp49
 70
     1
102
RTVSPost2010Prop50
 90
       50
102
RTVSPost2010PropOp50
 70
     1
102
RTVSPost2010Prop51ColorIndex
 90
      256
102
RTVSPost2010Prop51ColorRGB
 90
-16777216
102
RTVSPost2010PropOp51
 70
     0
102
RTVSPost2010Prop52
140
1.0
102
RTVSPost2010PropOp52
 70
     0
102
RTVSPost2010Prop53
 90
        2
102
RTVSPost2010PropOp53
 70
     1
102
RTVSPost2010Prop54
  1
strokes_ogs.tif
102
RTVSPost2010PropOp54
 70
     1
102
RTVSPost2010Prop55
280
     0
102
RTVSPost2010PropOp55
 70
     1
102
RTVSPost2010Prop56
140
1.0
102
RTVSPost2010PropOp56
 70
     1
102
RTVSPost2010Prop57
140
1.0
102
RTVSPost2010PropOp57
 70
     1
  0
XRECORD
  5
2DE
102
{ACAD_REACTORS
330
2DD
102
}
330
2DD
100
AcDbXrecord
280
     1
102
RTVSPropertyOp0
 70
     1
102
RTVSPropertyOp1
 70
     1
102
RTVSPropertyOp2
 70
     1
102
RTVSPropertyOp3
 70
     1
102
RTVSPropertyOp4
 70
     1
102
RTVSPropertyOp5
 70
     1
102
RTVSPropertyOp6
 70
     1
102
RTVSPropertyOp7
 70
     1
102
RTVSPropertyOp8
 70
     1
102
RTVSPropertyOp9
 70
     1
102
RTVSPropertyOp10
 70
     1
102
RTVSPropertyOp11
 70
     1
102
RTVSPropertyOp12
 70
     1
102
RTVSPropertyOp13
 70
     1
102
RTVSPropertyOp14
 70
     1
102
RTVSPropertyOp15
 70
     1
102
RTVSPropertyOp16
 70
     1
102
RTVSPropertyOp17
 70
     1
102
RTVSPropertyOp18
 70
     1
102
RTVSPropertyOp19
 70
     1
102
RTVSPropertyOp20
 70
     1
102
RTVSPropertyOp21
 70
     1
102
RTVSPropertyOp22
 70
     1
102
RTVSPropertyOp23
 70
     1
102
RTVSPropertyOp24
 70
     1
102
RTVSPropertyOp25
 70
     1
102
RTVSPropertyOp26
 70
     1
102
RTVSPropertyOp27
 70
     1
102
RTVSPropertyOp28
 70
     1
102
RTVSPropertyOp29
 70
     1
102
RTVSPropertyOp30
 70
     1
102
RTVSPropertyOp31
 70
     1
102
RTVSPropertyOp32
 70
     1
102
RTVSPropertyOp33
 70
     1
102
RTVSPropertyOp34
 70
     1
102
RTVSPropertyOp35
 70
     1
102
RTVSPropertyOp36
 70
     1
102
RTVSPropertyOp37
 70
     1
102
RTVSPropertyOp38
 70
     1
102
RTVSPropertyOp39
 70
     1
102
RTVSPropertyOp40
 70
     1
102
RTVSPropertyOp41
 70
     1
102
RTVSPropertyOp42
 70
     1
102
RTVSPropertyOp43
 70
     1
102
RTVSPropertyOp44
 70
     1
102
RTVSPropertyOp45
 70
     1
102
RTVSPropertyOp46
 70
     1
102
RTVSPropertyOp47
 70
     1
102
RTVSPropertyOp48
 70
     1
102
RTVSPropertyOp49
 70
     1
102
RTVSPropertyOp50
 70
     1
102
RTVSPropertyOp51
 70
     0
102
RTVSPropertyOp52
 70
     0
102
RTVSPropertyOp53
 70
     1
102
RTVSPropertyOp54
 70
     1
102
RTVSPropertyOp55
 70
     1
102
RTVSPropertyOp56
 70
     1
102
RTVSPropertyOp57
 70
     1
102
RTVSPost2010Prop28
280
     0
102
RTVSPost2010PropOp28
 70
     1
102
RTVSPost2010Prop29
280
     1
102
RTVSPost2010PropOp29
 70
     1
102
RTVSPost2010Prop30
280
     1
102
RTVSPost2010PropOp30
 70
     1
102
RTVSPost2010Prop31
280
     0
102
RTVSPost2010PropOp31
 70
     1
102
RTVSPost2010Prop32
280
     0
102
RTVSPost2010PropOp32
 70
     1
102
RTVSPost2010Prop33
280
     0
102
RTVSPost2010PropOp33
 70
     1
102
RTVSPost2010Prop34
280
     0
102
RTVSPost2010PropOp34
 70
     1
102
RTVSPost2010Prop35
280
     0
102
RTVSPost2010PropOp35
 70
     1
102
RTVSPost2010Prop36
280
     0
102
RTVSPost2010PropOp36
 70
     1
102
RTVSPost2010Prop37
 90
       50
102
RTVSPost2010PropOp37
 70
     1
102
RTVSPost2010Prop38
140
0.0
102
RTVSPost2010PropOp38
 70
     1
102
RTVSPost2010Prop39
140
1.0
102
RTVSPost2010PropOp39
 70
     1
102
RTVSPost2010Prop40
 90
        0
102
RTVSPost2010PropOp40
 70
     1
102
RTVSPost2010Prop41ColorIndex
 90
       18
102
RTVSPost2010Prop41ColorRGB
 90
        0
102
RTVSPost2010PropOp41
 70
     1
102
RTVSPost2010Prop42
 90
       50
102
RTVSPost2010PropOp42
 70
     1
102
RTVSPost2010Prop43
 90
        3
102
RTVSPost2010PropOp43
 70
     1
102
RTVSPost2010Prop44ColorIndex
 90
        5
102
RTVSPost2010Prop44ColorRGB
 90
      255
102
RTVSPost2010PropOp44
 70
     1
102
RTVSPost2010Prop45
280
     0
102
RTVSPost2010PropOp45
 70
     1
102
RTVSPost2010Prop46
 90
       50
102
RTVSPost2010PropOp46
 70
     1
102
RTVSPost2010Prop47
 90
       50
102
RTVSPost2010PropOp47
 70
     1
102
RTVSPost2010Prop48
 90
       50
102
RTVSPost2010PropOp48
 70
     1
102
RTVSPost2010Prop49
280
     0
102
RTVSPost2010PropOp49
 70
     1
102
RTVSPost2010Prop50
 90
       50
102
RTVSPost2010PropOp50
 70
     1
102
RTVSPost2010Prop51ColorIndex
 90
      256
102
RTVSPost2010Prop51ColorRGB
 90
-16777216
102
RTVSPost2010PropOp51
 70
     0
102
RTVSPost2010Prop52
140
1.0
102
RTVSPost2010PropOp52
 70
     0
102
RTVSPost2010Prop53
 90
        2
102
RTVSPost2010PropOp53
 70
     1
102
RTVSPost2010Prop54
  1
strokes_ogs.tif
102
RTVSPost2010PropOp54
 70
     1
102
RTVSPost2010Prop55
280
     0
102
RTVSPost2010PropOp55
 70
     1
102
RTVSPost2010Prop56
140
1.0
102
RTVSPost2010PropOp56
 70
     1
102
RTVSPost2010Prop57
140
1.0
102
RTVSPost2010PropOp57
 70
     1
  0
XRECORD
  5
2E0
102
{ACAD_REACTORS
330
2DF
102
}
330
2DF
100
AcDbXrecord
280
     1
102
RTVSPropertyOp0
 70
     1
102
RTVSPropertyOp1
 70
     1
102
RTVSPropertyOp2
 70
     1
102
RTVSPropertyOp3
 70
     1
102
RTVSPropertyOp4
 70
     1
102
RTVSPropertyOp5
 70
     1
102
RTVSPropertyOp6
 70
     1
102
RTVSPropertyOp7
 70
     1
102
RTVSPropertyOp8
 70
     1
102
RTVSPropertyOp9
 70
     1
102
RTVSPropertyOp10
 70
     1
102
RTVSPropertyOp11
 70
     1
102
RTVSPropertyOp12
 70
     1
102
RTVSPropertyOp13
 70
     1
102
RTVSPropertyOp14
 70
     1
102
RTVSPropertyOp15
 70
     1
102
RTVSPropertyOp16
 70
     1
102
RTVSPropertyOp17
 70
     1
102
RTVSPropertyOp18
 70
     1
102
RTVSPropertyOp19
 70
     1
102
RTVSPropertyOp20
 70
     1
102
RTVSPropertyOp21
 70
     1
102
RTVSPropertyOp22
 70
     1
102
RTVSPropertyOp23
 70
     1
102
RTVSPropertyOp24
 70
     1
102
RTVSPropertyOp25
 70
     1
102
RTVSPropertyOp26
 70
     1
102
RTVSPropertyOp27
 70
     1
102
RTVSPropertyOp28
 70
     1
102
RTVSPropertyOp29
 70
     1
102
RTVSPropertyOp30
 70
     1
102
RTVSPropertyOp31
 70
     1
102
RTVSPropertyOp32
 70
     1
102
RTVSPropertyOp33
 70
     1
102
RTVSPropertyOp34
 70
     1
102
RTVSPropertyOp35
 70
     1
102
RTVSPropertyOp36
 70
     1
102
RTVSPropertyOp37
 70
     1
102
RTVSPropertyOp38
 70
     1
102
RTVSPropertyOp39
 70
     1
102
RTVSPropertyOp40
 70
     1
102
RTVSPropertyOp41
 70
     1
102
RTVSPropertyOp42
 70
     1
102
RTVSPropertyOp43
 70
     1
102
RTVSPropertyOp44
 70
     1
102
RTVSPropertyOp45
 70
     1
102
RTVSPropertyOp46
 70
     1
102
RTVSPropertyOp47
 70
     1
102
RTVSPropertyOp48
 70
     1
102
RTVSPropertyOp49
 70
     1
102
RTVSPropertyOp50
 70
     1
102
RTVSPropertyOp51
 70
     0
102
RTVSPropertyOp52
 70
     0
102
RTVSPropertyOp53
 70
     1
102
RTVSPropertyOp54
 70
     1
102
RTVSPropertyOp55
 70
     1
102
RTVSPropertyOp56
 70
     1
102
RTVSPropertyOp57
 70
     1
102
RTVSPost2010Prop28
280
     0
102
RTVSPost2010PropOp28
 70
     1
102
RTVSPost2010Prop29
280
     1
102
RTVSPost2010PropOp29
 70
     1
102
RTVSPost2010Prop30
280
     1
102
RTVSPost2010PropOp30
 70
     1
102
RTVSPost2010Prop31
280
     0
102
RTVSPost2010PropOp31
 70
     1
102
RTVSPost2010Prop32
280
     0
102
RTVSPost2010PropOp32
 70
     1
102
RTVSPost2010Prop33
280
     0
102
RTVSPost2010PropOp33
 70
     1
102
RTVSPost2010Prop34
280
     0
102
RTVSPost2010PropOp34
 70
     1
102
RTVSPost2010Prop35
280
     0
102
RTVSPost2010PropOp35
 70
     1
102
RTVSPost2010Prop36
280
     0
102
RTVSPost2010PropOp36
 70
     1
102
RTVSPost2010Prop37
 90
       50
102
RTVSPost2010PropOp37
 70
     1
102
RTVSPost2010Prop38
140
0.0
102
RTVSPost2010PropOp38
 70
     1
102
RTVSPost2010Prop39
140
1.0
102
RTVSPost2010PropOp39
 70
     1
102
RTVSPost2010Prop40
 90
        0
102
RTVSPost2010PropOp40
 70
     1
102
RTVSPost2010Prop41ColorIndex
 90
       18
102
RTVSPost2010Prop41ColorRGB
 90
        0
102
RTVSPost2010PropOp41
 70
     1
102
RTVSPost2010Prop42
 90
       50
102
RTVSPost2010PropOp42
 70
     1
102
RTVSPost2010Prop43
 90
        3
102
RTVSPost2010PropOp43
 70
     1
102
RTVSPost2010Prop44ColorIndex
 90
        5
102
RTVSPost2010Prop44ColorRGB
 90
      255
102
RTVSPost2010PropOp44
 70
     1
102
RTVSPost2010Prop45
280
     0
102
RTVSPost2010PropOp45
 70
     1
102
RTVSPost2010Prop46
 90
       50
102
RTVSPost2010PropOp46
 70
     1
102
RTVSPost2010Prop47
 90
       50
102
RTVSPost2010PropOp47
 70
     1
102
RTVSPost2010Prop48
 90
       50
102
RTVSPost2010PropOp48
 70
     1
102
RTVSPost2010Prop49
280
     0
102
RTVSPost2010PropOp49
 70
     1
102
RTVSPost2010Prop50
 90
       50
102
RTVSPost2010PropOp50
 70
     1
102
RTVSPost2010Prop51ColorIndex
 90
      256
102
RTVSPost2010Prop51ColorRGB
 90
-16777216
102
RTVSPost2010PropOp51
 70
     0
102
RTVSPost2010Prop52
140
1.0
102
RTVSPost2010PropOp52
 70
     0
102
RTVSPost2010Prop53
 90
        2
102
RTVSPost2010PropOp53
 70
     1
102
RTVSPost2010Prop54
  1
strokes_ogs.tif
102
RTVSPost2010PropOp54
 70
     1
102
RTVSPost2010Prop55
280
     0
102
RTVSPost2010PropOp55
 70
     1
102
RTVSPost2010Prop56
140
1.0
102
RTVSPost2010PropOp56
 70
     1
102
RTVSPost2010Prop57
140
1.0
102
RTVSPost2010PropOp57
 70
     1
  0
XRECORD
  5
2E6
102
{ACAD_REACTORS
330
2E5
102
}
330
2E5
100
AcDbXrecord
280
     1
102
RTVSPropertyOp0
 70
     1
102
RTVSPropertyOp1
 70
     1
102
RTVSPropertyOp2
 70
     1
102
RTVSPropertyOp3
 70
     1
102
RTVSPropertyOp4
 70
     1
102
RTVSPropertyOp5
 70
     1
102
RTVSPropertyOp6
 70
     1
102
RTVSPropertyOp7
 70
     1
102
RTVSPropertyOp8
 70
     1
102
RTVSPropertyOp9
 70
     1
102
RTVSPropertyOp10
 70
     1
102
RTVSPropertyOp11
 70
     1
102
RTVSPropertyOp12
 70
     1
102
RTVSPropertyOp13
 70
     1
102
RTVSPropertyOp14
 70
     1
102
RTVSPropertyOp15
 70
     1
102
RTVSPropertyOp16
 70
     1
102
RTVSPropertyOp17
 70
     1
102
RTVSPropertyOp18
 70
     1
102
RTVSPropertyOp19
 70
     1
102
RTVSPropertyOp20
 70
     1
102
RTVSPropertyOp21
 70
     1
102
RTVSPropertyOp22
 70
     1
102
RTVSPropertyOp23
 70
     1
102
RTVSPropertyOp24
 70
     1
102
RTVSPropertyOp25
 70
     1
102
RTVSPropertyOp26
 70
     1
102
RTVSPropertyOp27
 70
     1
102
RTVSPropertyOp28
 70
     1
102
RTVSPropertyOp29
 70
     1
102
RTVSPropertyOp30
 70
     1
102
RTVSPropertyOp31
 70
     1
102
RTVSPropertyOp32
 70
     1
102
RTVSPropertyOp33
 70
     1
102
RTVSPropertyOp34
 70
     1
102
RTVSPropertyOp35
 70
     1
102
RTVSPropertyOp36
 70
     1
102
RTVSPropertyOp37
 70
     1
102
RTVSPropertyOp38
 70
     1
102
RTVSPropertyOp39
 70
     1
102
RTVSPropertyOp40
 70
     1
102
RTVSPropertyOp41
 70
     1
102
RTVSPropertyOp42
 70
     1
102
RTVSPropertyOp43
 70
     1
102
RTVSPropertyOp44
 70
     1
102
RTVSPropertyOp45
 70
     1
102
RTVSPropertyOp46
 70
     1
102
RTVSPropertyOp47
 70
     1
102
RTVSPropertyOp48
 70
     1
102
RTVSPropertyOp49
 70
     1
102
RTVSPropertyOp50
 70
     1
102
RTVSPropertyOp51
 70
     0
102
RTVSPropertyOp52
 70
     0
102
RTVSPropertyOp53
 70
     1
102
RTVSPropertyOp54
 70
     1
102
RTVSPropertyOp55
 70
     1
102
RTVSPropertyOp56
 70
     1
102
RTVSPropertyOp57
 70
     1
102
RTVSPost2010Prop28
280
     0
102
RTVSPost2010PropOp28
 70
     1
102
RTVSPost2010Prop29
280
     1
102
RTVSPost2010PropOp29
 70
     1
102
RTVSPost2010Prop30
280
     1
102
RTVSPost2010PropOp30
 70
     1
102
RTVSPost2010Prop31
280
     0
102
RTVSPost2010PropOp31
 70
     1
102
RTVSPost2010Prop32
280
     0
102
RTVSPost2010PropOp32
 70
     1
102
RTVSPost2010Prop33
280
     0
102
RTVSPost2010PropOp33
 70
     1
102
RTVSPost2010Prop34
280
     0
102
RTVSPost2010PropOp34
 70
     1
102
RTVSPost2010Prop35
280
     0
102
RTVSPost2010PropOp35
 70
     1
102
RTVSPost2010Prop36
280
     0
102
RTVSPost2010PropOp36
 70
     1
102
RTVSPost2010Prop37
 90
       50
102
RTVSPost2010PropOp37
 70
     1
102
RTVSPost2010Prop38
140
0.0
102
RTVSPost2010PropOp38
 70
     1
102
RTVSPost2010Prop39
140
1.0
102
RTVSPost2010PropOp39
 70
     1
102
RTVSPost2010Prop40
 90
        0
102
RTVSPost2010PropOp40
 70
     1
102
RTVSPost2010Prop41ColorIndex
 90
       18
102
RTVSPost2010Prop41ColorRGB
 90
        0
102
RTVSPost2010PropOp41
 70
     1
102
RTVSPost2010Prop42
 90
       50
102
RTVSPost2010PropOp42
 70
     1
102
RTVSPost2010Prop43
 90
        3
102
RTVSPost2010PropOp43
 70
     1
102
RTVSPost2010Prop44ColorIndex
 90
        5
102
RTVSPost2010Prop44ColorRGB
 90
      255
102
RTVSPost2010PropOp44
 70
     1
102
RTVSPost2010Prop45
280
     0
102
RTVSPost2010PropOp45
 70
     1
102
RTVSPost2010Prop46
 90
       50
102
RTVSPost2010PropOp46
 70
     1
102
RTVSPost2010Prop47
 90
       50
102
RTVSPost2010PropOp47
 70
     1
102
RTVSPost2010Prop48
 90
       50
102
RTVSPost2010PropOp48
 70
     1
102
RTVSPost2010Prop49
280
     0
102
RTVSPost2010PropOp49
 70
     1
102
RTVSPost2010Prop50
 90
       50
102
RTVSPost2010PropOp50
 70
     1
102
RTVSPost2010Prop51ColorIndex
 90
      256
102
RTVSPost2010Prop51ColorRGB
 90
-16777216
102
RTVSPost2010PropOp51
 70
     0
102
RTVSPost2010Prop52
140
1.0
102
RTVSPost2010PropOp52
 70
     0
102
RTVSPost2010Prop53
 90
        2
102
RTVSPost2010PropOp53
 70
     1
102
RTVSPost2010Prop54
  1
strokes_ogs.tif
102
RTVSPost2010PropOp54
 70
     1
102
RTVSPost2010Prop55
280
     0
102
RTVSPost2010PropOp55
 70
     1
102
RTVSPost2010Prop56
140
1.0
102
RTVSPost2010PropOp56
 70
     1
102
RTVSPost2010Prop57
140
1.0
102
RTVSPost2010PropOp57
 70
     1
  0
XRECORD
  5
2FA
102
{ACAD_REACTORS
330
2F9
102
}
330
2F9
100
AcDbXrecord
280
     1
102
RTVSPropertyOp0
 70
     0
102
RTVSPropertyOp1
 70
     0
102
RTVSPropertyOp2
 70
     0
102
RTVSPropertyOp3
 70
     0
102
RTVSPropertyOp4
 70
     0
102
RTVSPropertyOp5
 70
     0
102
RTVSPropertyOp6
 70
     0
102
RTVSPropertyOp7
 70
     0
102
RTVSPropertyOp8
 70
     0
102
RTVSPropertyOp9
 70
     0
102
RTVSPropertyOp10
 70
     0
102
RTVSPropertyOp11
 70
     0
102
RTVSPropertyOp12
 70
     0
102
RTVSPropertyOp13
 70
     0
102
RTVSPropertyOp14
 70
     2
102
RTVSPropertyOp15
 70
     0
102
RTVSPropertyOp16
 70
     0
102
RTVSPropertyOp17
 70
     0
102
RTVSPropertyOp18
 70
     0
102
RTVSPropertyOp19
 70
     0
102
RTVSPropertyOp20
 70
     0
102
RTVSPropertyOp21
 70
     0
102
RTVSPropertyOp22
 70
     0
102
RTVSPropertyOp23
 70
     0
102
RTVSPropertyOp24
 70
     0
102
RTVSPropertyOp25
 70
     0
102
RTVSPropertyOp26
 70
     0
102
RTVSPropertyOp27
 70
     0
102
RTVSPropertyOp28
 70
     0
102
RTVSPropertyOp29
 70
     0
102
RTVSPropertyOp30
 70
     0
102
RTVSPropertyOp31
 70
     0
102
RTVSPropertyOp32
 70
     0
102
RTVSPropertyOp33
 70
     0
102
RTVSPropertyOp34
 70
     0
102
RTVSPropertyOp35
 70
     0
102
RTVSPropertyOp36
 70
     0
102
RTVSPropertyOp37
 70
     0
102
RTVSPropertyOp38
 70
     0
102
RTVSPropertyOp39
 70
     0
102
RTVSPropertyOp40
 70
     0
102
RTVSPropertyOp41
 70
     0
102
RTVSPropertyOp42
 70
     0
102
RTVSPropertyOp43
 70
     0
102
RTVSPropertyOp44
 70
     0
102
RTVSPropertyOp45
 70
     0
102
RTVSPropertyOp46
 70
     0
102
RTVSPropertyOp47
 70
     0
102
RTVSPropertyOp48
 70
     0
102
RTVSPropertyOp49
 70
     0
102
RTVSPropertyOp50
 70
     0
102
RTVSPropertyOp51
 70
     0
102
RTVSPropertyOp52
 70
     0
102
RTVSPropertyOp53
 70
     0
102
RTVSPropertyOp54
 70
     0
102
RTVSPropertyOp55
 70
     0
102
RTVSPropertyOp56
 70
     0
102
RTVSPropertyOp57
 70
     0
102
RTVSPost2010Prop28
280
     0
102
RTVSPost2010PropOp28
 70
     0
102
RTVSPost2010Prop29
280
     1
102
RTVSPost2010PropOp29
 70
     0
102
RTVSPost2010Prop30
280
     1
102
RTVSPost2010PropOp30
 70
     0
102
RTVSPost2010Prop31
280
     0
102
RTVSPost2010PropOp31
 70
     0
102
RTVSPost2010Prop32
280
     0
102
RTVSPost2010PropOp32
 70
     0
102
RTVSPost2010Prop33
280
     0
102
RTVSPost2010PropOp33
 70
     0
102
RTVSPost2010Prop34
280
     0
102
RTVSPost2010PropOp34
 70
     0
102
RTVSPost2010Prop35
280
     0
102
RTVSPost2010PropOp35
 70
     0
102
RTVSPost2010Prop36
280
     0
102
RTVSPost2010PropOp36
 70
     0
102
RTVSPost2010Prop37
 90
       50
102
RTVSPost2010PropOp37
 70
     0
102
RTVSPost2010Prop38
140
0.0
102
RTVSPost2010PropOp38
 70
     0
102
RTVSPost2010Prop39
140
1.0
102
RTVSPost2010PropOp39
 70
     0
102
RTVSPost2010Prop40
 90
        0
102
RTVSPost2010PropOp40
 70
     0
102
RTVSPost2010Prop41ColorIndex
 90
       18
102
RTVSPost2010Prop41ColorRGB
 90
        0
102
RTVSPost2010PropOp41
 70
     0
102
RTVSPost2010Prop42
 90
       50
102
RTVSPost2010PropOp42
 70
     0
102
RTVSPost2010Prop43
 90
        3
102
RTVSPost2010PropOp43
 70
     0
102
RTVSPost2010Prop44ColorIndex
 90
        5
102
RTVSPost2010Prop44ColorRGB
 90
      255
102
RTVSPost2010PropOp44
 70
     0
102
RTVSPost2010Prop45
280
     0
102
RTVSPost2010PropOp45
 70
     0
102
RTVSPost2010Prop46
 90
       50
102
RTVSPost2010PropOp46
 70
     0
102
RTVSPost2010Prop47
 90
       50
102
RTVSPost2010PropOp47
 70
     0
102
RTVSPost2010Prop48
 90
       50
102
RTVSPost2010PropOp48
 70
     0
102
RTVSPost2010Prop49
280
     0
102
RTVSPost2010PropOp49
 70
     0
102
RTVSPost2010Prop50
 90
       50
102
RTVSPost2010PropOp50
 70
     0
102
RTVSPost2010Prop51ColorIndex
 90
      256
102
RTVSPost2010Prop51ColorRGB
 90
-16777216
102
RTVSPost2010PropOp51
 70
     0
102
RTVSPost2010Prop52
140
1.0
102
RTVSPost2010PropOp52
 70
     0
102
RTVSPost2010Prop53
 90
        2
102
RTVSPost2010PropOp53
 70
     0
102
RTVSPost2010Prop54
  1
strokes_ogs.tif
102
RTVSPost2010PropOp54
 70
     0
102
RTVSPost2010Prop55
280
     0
102
RTVSPost2010PropOp55
 70
     0
102
RTVSPost2010Prop56
140
1.0
102
RTVSPost2010PropOp56
 70
     0
102
RTVSPost2010Prop57
140
1.0
102
RTVSPost2010PropOp57
 70
     0
  0
XRECORD
  5
2F4
102
{ACAD_REACTORS
330
2F3
102
}
330
2F3
100
AcDbXrecord
280
     1
102
RTVSPropertyOp0
 70
     1
102
RTVSPropertyOp1
 70
     1
102
RTVSPropertyOp2
 70
     1
102
RTVSPropertyOp3
 70
     1
102
RTVSPropertyOp4
 70
     1
102
RTVSPropertyOp5
 70
     1
102
RTVSPropertyOp6
 70
     1
102
RTVSPropertyOp7
 70
     1
102
RTVSPropertyOp8
 70
     1
102
RTVSPropertyOp9
 70
     1
102
RTVSPropertyOp10
 70
     1
102
RTVSPropertyOp11
 70
     1
102
RTVSPropertyOp12
 70
     1
102
RTVSPropertyOp13
 70
     1
102
RTVSPropertyOp14
 70
     1
102
RTVSPropertyOp15
 70
     1
102
RTVSPropertyOp16
 70
     1
102
RTVSPropertyOp17
 70
     1
102
RTVSPropertyOp18
 70
     1
102
RTVSPropertyOp19
 70
     1
102
RTVSPropertyOp20
 70
     1
102
RTVSPropertyOp21
 70
     1
102
RTVSPropertyOp22
 70
     1
102
RTVSPropertyOp23
 70
     1
102
RTVSPropertyOp24
 70
     1
102
RTVSPropertyOp25
 70
     1
102
RTVSPropertyOp26
 70
     1
102
RTVSPropertyOp27
 70
     1
102
RTVSPropertyOp28
 70
     1
102
RTVSPropertyOp29
 70
     1
102
RTVSPropertyOp30
 70
     1
102
RTVSPropertyOp31
 70
     1
102
RTVSPropertyOp32
 70
     1
102
RTVSPropertyOp33
 70
     1
102
RTVSPropertyOp34
 70
     1
102
RTVSPropertyOp35
 70
     1
102
RTVSPropertyOp36
 70
     1
102
RTVSPropertyOp37
 70
     1
102
RTVSPropertyOp38
 70
     1
102
RTVSPropertyOp39
 70
     1
102
RTVSPropertyOp40
 70
     1
102
RTVSPropertyOp41
 70
     1
102
RTVSPropertyOp42
 70
     1
102
RTVSPropertyOp43
 70
     1
102
RTVSPropertyOp44
 70
     1
102
RTVSPropertyOp45
 70
     1
102
RTVSPropertyOp46
 70
     1
102
RTVSPropertyOp47
 70
     1
102
RTVSPropertyOp48
 70
     1
102
RTVSPropertyOp49
 70
     1
102
RTVSPropertyOp50
 70
     1
102
RTVSPropertyOp51
 70
     0
102
RTVSPropertyOp52
 70
     0
102
RTVSPropertyOp53
 70
     1
102
RTVSPropertyOp54
 70
     1
102
RTVSPropertyOp55
 70
     1
102
RTVSPropertyOp56
 70
     1
102
RTVSPropertyOp57
 70
     1
102
RTVSPost2010Prop28
280
     0
102
RTVSPost2010PropOp28
 70
     1
102
RTVSPost2010Prop29
280
     1
102
RTVSPost2010PropOp29
 70
     1
102
RTVSPost2010Prop30
280
     1
102
RTVSPost2010PropOp30
 70
     1
102
RTVSPost2010Prop31
280
     0
102
RTVSPost2010PropOp31
 70
     1
102
RTVSPost2010Prop32
280
     0
102
RTVSPost2010PropOp32
 70
     1
102
RTVSPost2010Prop33
280
     0
102
RTVSPost2010PropOp33
 70
     1
102
RTVSPost2010Prop34
280
     0
102
RTVSPost2010PropOp34
 70
     1
102
RTVSPost2010Prop35
280
     0
102
RTVSPost2010PropOp35
 70
     1
102
RTVSPost2010Prop36
280
     0
102
RTVSPost2010PropOp36
 70
     1
102
RTVSPost2010Prop37
 90
       50
102
RTVSPost2010PropOp37
 70
     1
102
RTVSPost2010Prop38
140
0.0
102
RTVSPost2010PropOp38
 70
     1
102
RTVSPost2010Prop39
140
1.0
102
RTVSPost2010PropOp39
 70
     1
102
RTVSPost2010Prop40
 90
        0
102
RTVSPost2010PropOp40
 70
     1
102
RTVSPost2010Prop41ColorIndex
 90
       18
102
RTVSPost2010Prop41ColorRGB
 90
        0
102
RTVSPost2010PropOp41
 70
     1
102
RTVSPost2010Prop42
 90
       50
102
RTVSPost2010PropOp42
 70
     1
102
RTVSPost2010Prop43
 90
        3
102
RTVSPost2010PropOp43
 70
     1
102
RTVSPost2010Prop44ColorIndex
 90
        5
102
RTVSPost2010Prop44ColorRGB
 90
      255
102
RTVSPost2010PropOp44
 70
     1
102
RTVSPost2010Prop45
280
     0
102
RTVSPost2010PropOp45
 70
     1
102
RTVSPost2010Prop46
 90
       50
102
RTVSPost2010PropOp46
 70
     1
102
RTVSPost2010Prop47
 90
       50
102
RTVSPost2010PropOp47
 70
     1
102
RTVSPost2010Prop48
 90
       50
102
RTVSPost2010PropOp48
 70
     1
102
RTVSPost2010Prop49
280
     0
102
RTVSPost2010PropOp49
 70
     1
102
RTVSPost2010Prop50
 90
       50
102
RTVSPost2010PropOp50
 70
     1
102
RTVSPost2010Prop51ColorIndex
 90
      256
102
RTVSPost2010Prop51ColorRGB
 90
-16777216
102
RTVSPost2010PropOp51
 70
     0
102
RTVSPost2010Prop52
140
1.0
102
RTVSPost2010PropOp52
 70
     0
102
RTVSPost2010Prop53
 90
        2
102
RTVSPost2010PropOp53
 70
     1
102
RTVSPost2010Prop54
  1
strokes_ogs.tif
102
RTVSPost2010PropOp54
 70
     1
102
RTVSPost2010Prop55
280
     0
102
RTVSPost2010PropOp55
 70
     1
102
RTVSPost2010Prop56
140
1.0
102
RTVSPost2010PropOp56
 70
     1
102
RTVSPost2010Prop57
140
1.0
102
RTVSPost2010PropOp57
 70
     1
  0
XRECORD
  5
2FC
102
{ACAD_REACTORS
330
2FB
102
}
330
2FB
100
AcDbXrecord
280
     1
102
RTVSPropertyOp0
 70
     0
102
RTVSPropertyOp1
 70
     0
102
RTVSPropertyOp2
 70
     0
102
RTVSPropertyOp3
 70
     0
102
RTVSPropertyOp4
 70
     0
102
RTVSPropertyOp5
 70
     0
102
RTVSPropertyOp6
 70
     0
102
RTVSPropertyOp7
 70
     0
102
RTVSPropertyOp8
 70
     0
102
RTVSPropertyOp9
 70
     0
102
RTVSPropertyOp10
 70
     0
102
RTVSPropertyOp11
 70
     0
102
RTVSPropertyOp12
 70
     0
102
RTVSPropertyOp13
 70
     0
102
RTVSPropertyOp14
 70
     2
102
RTVSPropertyOp15
 70
     0
102
RTVSPropertyOp16
 70
     0
102
RTVSPropertyOp17
 70
     0
102
RTVSPropertyOp18
 70
     0
102
RTVSPropertyOp19
 70
     0
102
RTVSPropertyOp20
 70
     0
102
RTVSPropertyOp21
 70
     0
102
RTVSPropertyOp22
 70
     0
102
RTVSPropertyOp23
 70
     0
102
RTVSPropertyOp24
 70
     0
102
RTVSPropertyOp25
 70
     0
102
RTVSPropertyOp26
 70
     0
102
RTVSPropertyOp27
 70
     0
102
RTVSPropertyOp28
 70
     0
102
RTVSPropertyOp29
 70
     0
102
RTVSPropertyOp30
 70
     0
102
RTVSPropertyOp31
 70
     0
102
RTVSPropertyOp32
 70
     0
102
RTVSPropertyOp33
 70
     0
102
RTVSPropertyOp34
 70
     0
102
RTVSPropertyOp35
 70
     0
102
RTVSPropertyOp36
 70
     0
102
RTVSPropertyOp37
 70
     0
102
RTVSPropertyOp38
 70
     0
102
RTVSPropertyOp39
 70
     0
102
RTVSPropertyOp40
 70
     0
102
RTVSPropertyOp41
 70
     0
102
RTVSPropertyOp42
 70
     0
102
RTVSPropertyOp43
 70
     0
102
RTVSPropertyOp44
 70
     0
102
RTVSPropertyOp45
 70
     0
102
RTVSPropertyOp46
 70
     0
102
RTVSPropertyOp47
 70
     0
102
RTVSPropertyOp48
 70
     0
102
RTVSPropertyOp49
 70
     0
102
RTVSPropertyOp50
 70
     0
102
RTVSPropertyOp51
 70
     0
102
RTVSPropertyOp52
 70
     0
102
RTVSPropertyOp53
 70
     0
102
RTVSPropertyOp54
 70
     0
102
RTVSPropertyOp55
 70
     0
102
RTVSPropertyOp56
 70
     0
102
RTVSPropertyOp57
 70
     0
102
RTVSPost2010Prop28
280
     0
102
RTVSPost2010PropOp28
 70
     0
102
RTVSPost2010Prop29
280
     1
102
RTVSPost2010PropOp29
 70
     0
102
RTVSPost2010Prop30
280
     1
102
RTVSPost2010PropOp30
 70
     0
102
RTVSPost2010Prop31
280
     0
102
RTVSPost2010PropOp31
 70
     0
102
RTVSPost2010Prop32
280
     0
102
RTVSPost2010PropOp32
 70
     0
102
RTVSPost2010Prop33
280
     0
102
RTVSPost2010PropOp33
 70
     0
102
RTVSPost2010Prop34
280
     0
102
RTVSPost2010PropOp34
 70
     0
102
RTVSPost2010Prop35
280
     0
102
RTVSPost2010PropOp35
 70
     0
102
RTVSPost2010Prop36
280
     0
102
RTVSPost2010PropOp36
 70
     0
102
RTVSPost2010Prop37
 90
       50
102
RTVSPost2010PropOp37
 70
     0
102
RTVSPost2010Prop38
140
0.0
102
RTVSPost2010PropOp38
 70
     0
102
RTVSPost2010Prop39
140
1.0
102
RTVSPost2010PropOp39
 70
     0
102
RTVSPost2010Prop40
 90
        0
102
RTVSPost2010PropOp40
 70
     0
102
RTVSPost2010Prop41ColorIndex
 90
       18
102
RTVSPost2010Prop41ColorRGB
 90
        0
102
RTVSPost2010PropOp41
 70
     0
102
RTVSPost2010Prop42
 90
       50
102
RTVSPost2010PropOp42
 70
     0
102
RTVSPost2010Prop43
 90
        3
102
RTVSPost2010PropOp43
 70
     0
102
RTVSPost2010Prop44ColorIndex
 90
        5
102
RTVSPost2010Prop44ColorRGB
 90
      255
102
RTVSPost2010PropOp44
 70
     0
102
RTVSPost2010Prop45
280
     0
102
RTVSPost2010PropOp45
 70
     0
102
RTVSPost2010Prop46
 90
       50
102
RTVSPost2010PropOp46
 70
     0
102
RTVSPost2010Prop47
 90
       50
102
RTVSPost2010PropOp47
 70
     0
102
RTVSPost2010Prop48
 90
       50
102
RTVSPost2010PropOp48
 70
     0
102
RTVSPost2010Prop49
280
     0
102
RTVSPost2010PropOp49
 70
     0
102
RTVSPost2010Prop50
 90
       50
102
RTVSPost2010PropOp50
 70
     0
102
RTVSPost2010Prop51ColorIndex
 90
      256
102
RTVSPost2010Prop51ColorRGB
 90
-16777216
102
RTVSPost2010PropOp51
 70
     0
102
RTVSPost2010Prop52
140
1.0
102
RTVSPost2010PropOp52
 70
     0
102
RTVSPost2010Prop53
 90
        2
102
RTVSPost2010PropOp53
 70
     0
102
RTVSPost2010Prop54
  1
strokes_ogs.tif
102
RTVSPost2010PropOp54
 70
     0
102
RTVSPost2010Prop55
280
     0
102
RTVSPost2010PropOp55
 70
     0
102
RTVSPost2010Prop56
140
1.0
102
RTVSPost2010PropOp56
 70
     0
102
RTVSPost2010Prop57
140
1.0
102
RTVSPost2010PropOp57
 70
     0
  0
XRECORD
  5
2EA
102
{ACAD_REACTORS
330
2E9
102
}
330
2E9
100
AcDbXrecord
280
     1
102
RTVSPropertyOp0
 70
     1
102
RTVSPropertyOp1
 70
     1
102
RTVSPropertyOp2
 70
     1
102
RTVSPropertyOp3
 70
     1
102
RTVSPropertyOp4
 70
     1
102
RTVSPropertyOp5
 70
     1
102
RTVSPropertyOp6
 70
     1
102
RTVSPropertyOp7
 70
     1
102
RTVSPropertyOp8
 70
     1
102
RTVSPropertyOp9
 70
     1
102
RTVSPropertyOp10
 70
     1
102
RTVSPropertyOp11
 70
     1
102
RTVSPropertyOp12
 70
     1
102
RTVSPropertyOp13
 70
     1
102
RTVSPropertyOp14
 70
     1
102
RTVSPropertyOp15
 70
     1
102
RTVSPropertyOp16
 70
     1
102
RTVSPropertyOp17
 70
     1
102
RTVSPropertyOp18
 70
     1
102
RTVSPropertyOp19
 70
     1
102
RTVSPropertyOp20
 70
     1
102
RTVSPropertyOp21
 70
     1
102
RTVSPropertyOp22
 70
     1
102
RTVSPropertyOp23
 70
     1
102
RTVSPropertyOp24
 70
     1
102
RTVSPropertyOp25
 70
     1
102
RTVSPropertyOp26
 70
     1
102
RTVSPropertyOp27
 70
     1
102
RTVSPropertyOp28
 70
     1
102
RTVSPropertyOp29
 70
     1
102
RTVSPropertyOp30
 70
     1
102
RTVSPropertyOp31
 70
     1
102
RTVSPropertyOp32
 70
     1
102
RTVSPropertyOp33
 70
     1
102
RTVSPropertyOp34
 70
     1
102
RTVSPropertyOp35
 70
     1
102
RTVSPropertyOp36
 70
     1
102
RTVSPropertyOp37
 70
     1
102
RTVSPropertyOp38
 70
     1
102
RTVSPropertyOp39
 70
     1
102
RTVSPropertyOp40
 70
     1
102
RTVSPropertyOp41
 70
     1
102
RTVSPropertyOp42
 70
     1
102
RTVSPropertyOp43
 70
     1
102
RTVSPropertyOp44
 70
     1
102
RTVSPropertyOp45
 70
     1
102
RTVSPropertyOp46
 70
     1
102
RTVSPropertyOp47
 70
     1
102
RTVSPropertyOp48
 70
     1
102
RTVSPropertyOp49
 70
     1
102
RTVSPropertyOp50
 70
     1
102
RTVSPropertyOp51
 70
     0
102
RTVSPropertyOp52
 70
     0
102
RTVSPropertyOp53
 70
     1
102
RTVSPropertyOp54
 70
     1
102
RTVSPropertyOp55
 70
     1
102
RTVSPropertyOp56
 70
     1
102
RTVSPropertyOp57
 70
     1
102
RTVSPost2010Prop28
280
     0
102
RTVSPost2010PropOp28
 70
     1
102
RTVSPost2010Prop29
280
     1
102
RTVSPost2010PropOp29
 70
     1
102
RTVSPost2010Prop30
280
     1
102
RTVSPost2010PropOp30
 70
     1
102
RTVSPost2010Prop31
280
     0
102
RTVSPost2010PropOp31
 70
     1
102
RTVSPost2010Prop32
280
     0
102
RTVSPost2010PropOp32
 70
     1
102
RTVSPost2010Prop33
280
     0
102
RTVSPost2010PropOp33
 70
     1
102
RTVSPost2010Prop34
280
     0
102
RTVSPost2010PropOp34
 70
     1
102
RTVSPost2010Prop35
280
     0
102
RTVSPost2010PropOp35
 70
     1
102
RTVSPost2010Prop36
280
     0
102
RTVSPost2010PropOp36
 70
     1
102
RTVSPost2010Prop37
 90
       50
102
RTVSPost2010PropOp37
 70
     1
102
RTVSPost2010Prop38
140
0.0
102
RTVSPost2010PropOp38
 70
     1
102
RTVSPost2010Prop39
140
1.0
102
RTVSPost2010PropOp39
 70
     1
102
RTVSPost2010Prop40
 90
        0
102
RTVSPost2010PropOp40
 70
     1
102
RTVSPost2010Prop41ColorIndex
 90
       18
102
RTVSPost2010Prop41ColorRGB
 90
        0
102
RTVSPost2010PropOp41
 70
     1
102
RTVSPost2010Prop42
 90
       50
102
RTVSPost2010PropOp42
 70
     1
102
RTVSPost2010Prop43
 90
        3
102
RTVSPost2010PropOp43
 70
     1
102
RTVSPost2010Prop44ColorIndex
 90
        5
102
RTVSPost2010Prop44ColorRGB
 90
      255
102
RTVSPost2010PropOp44
 70
     1
102
RTVSPost2010Prop45
280
     0
102
RTVSPost2010PropOp45
 70
     1
102
RTVSPost2010Prop46
 90
       50
102
RTVSPost2010PropOp46
 70
     1
102
RTVSPost2010Prop47
 90
       50
102
RTVSPost2010PropOp47
 70
     1
102
RTVSPost2010Prop48
 90
       50
102
RTVSPost2010PropOp48
 70
     1
102
RTVSPost2010Prop49
280
     0
102
RTVSPost2010PropOp49
 70
     1
102
RTVSPost2010Prop50
 90
       50
102
RTVSPost2010PropOp50
 70
     1
102
RTVSPost2010Prop51ColorIndex
 90
      256
102
RTVSPost2010Prop51ColorRGB
 90
-16777216
102
RTVSPost2010PropOp51
 70
     0
102
RTVSPost2010Prop52
140
1.0
102
RTVSPost2010PropOp52
 70
     0
102
RTVSPost2010Prop53
 90
        2
102
RTVSPost2010PropOp53
 70
     1
102
RTVSPost2010Prop54
  1
strokes_ogs.tif
102
RTVSPost2010PropOp54
 70
     1
102
RTVSPost2010Prop55
280
     0
102
RTVSPost2010PropOp55
 70
     1
102
RTVSPost2010Prop56
140
1.0
102
RTVSPost2010PropOp56
 70
     1
102
RTVSPost2010Prop57
140
1.0
102
RTVSPost2010PropOp57
 70
     1
  0
XRECORD
  5
308
102
{ACAD_REACTORS
330
307
102
}
330
307
100
AcDbXrecord
280
     1
102
RTVSPropertyOp0
 70
     1
102
RTVSPropertyOp1
 70
     1
102
RTVSPropertyOp2
 70
     1
102
RTVSPropertyOp3
 70
     1
102
RTVSPropertyOp4
 70
     1
102
RTVSPropertyOp5
 70
     1
102
RTVSPropertyOp6
 70
     1
102
RTVSPropertyOp7
 70
     1
102
RTVSPropertyOp8
 70
     1
102
RTVSPropertyOp9
 70
     1
102
RTVSPropertyOp10
 70
     1
102
RTVSPropertyOp11
 70
     1
102
RTVSPropertyOp12
 70
     1
102
RTVSPropertyOp13
 70
     1
102
RTVSPropertyOp14
 70
     1
102
RTVSPropertyOp15
 70
     1
102
RTVSPropertyOp16
 70
     1
102
RTVSPropertyOp17
 70
     1
102
RTVSPropertyOp18
 70
     1
102
RTVSPropertyOp19
 70
     1
102
RTVSPropertyOp20
 70
     1
102
RTVSPropertyOp21
 70
     1
102
RTVSPropertyOp22
 70
     1
102
RTVSPropertyOp23
 70
     1
102
RTVSPropertyOp24
 70
     1
102
RTVSPropertyOp25
 70
     1
102
RTVSPropertyOp26
 70
     1
102
RTVSPropertyOp27
 70
     1
102
RTVSPropertyOp28
 70
     1
102
RTVSPropertyOp29
 70
     1
102
RTVSPropertyOp30
 70
     1
102
RTVSPropertyOp31
 70
     1
102
RTVSPropertyOp32
 70
     1
102
RTVSPropertyOp33
 70
     1
102
RTVSPropertyOp34
 70
     1
102
RTVSPropertyOp35
 70
     1
102
RTVSPropertyOp36
 70
     1
102
RTVSPropertyOp37
 70
     1
102
RTVSPropertyOp38
 70
     1
102
RTVSPropertyOp39
 70
     1
102
RTVSPropertyOp40
 70
     1
102
RTVSPropertyOp41
 70
     1
102
RTVSPropertyOp42
 70
     1
102
RTVSPropertyOp43
 70
     1
102
RTVSPropertyOp44
 70
     1
102
RTVSPropertyOp45
 70
     1
102
RTVSPropertyOp46
 70
     1
102
RTVSPropertyOp47
 70
     1
102
RTVSPropertyOp48
 70
     1
102
RTVSPropertyOp49
 70
     1
102
RTVSPropertyOp50
 70
     1
102
RTVSPropertyOp51
 70
     0
102
RTVSPropertyOp52
 70
     0
102
RTVSPropertyOp53
 70
     1
102
RTVSPropertyOp54
 70
     1
102
RTVSPropertyOp55
 70
     1
102
RTVSPropertyOp56
 70
     1
102
RTVSPropertyOp57
 70
     1
102
RTVSPost2010Prop28
280
     0
102
RTVSPost2010PropOp28
 70
     1
102
RTVSPost2010Prop29
280
     1
102
RTVSPost2010PropOp29
 70
     1
102
RTVSPost2010Prop30
280
     1
102
RTVSPost2010PropOp30
 70
     1
102
RTVSPost2010Prop31
280
     0
102
RTVSPost2010PropOp31
 70
     1
102
RTVSPost2010Prop32
280
     0
102
RTVSPost2010PropOp32
 70
     1
102
RTVSPost2010Prop33
280
     0
102
RTVSPost2010PropOp33
 70
     1
102
RTVSPost2010Prop34
280
     0
102
RTVSPost2010PropOp34
 70
     1
102
RTVSPost2010Prop35
280
     0
102
RTVSPost2010PropOp35
 70
     1
102
RTVSPost2010Prop36
280
     0
102
RTVSPost2010PropOp36
 70
     1
102
RTVSPost2010Prop37
 90
       50
102
RTVSPost2010PropOp37
 70
     1
102
RTVSPost2010Prop38
140
0.0
102
RTVSPost2010PropOp38
 70
     1
102
RTVSPost2010Prop39
140
1.0
102
RTVSPost2010PropOp39
 70
     1
102
RTVSPost2010Prop40
 90
        0
102
RTVSPost2010PropOp40
 70
     1
102
RTVSPost2010Prop41ColorIndex
 90
       18
102
RTVSPost2010Prop41ColorRGB
 90
        0
102
RTVSPost2010PropOp41
 70
     1
102
RTVSPost2010Prop42
 90
       50
102
RTVSPost2010PropOp42
 70
     1
102
RTVSPost2010Prop43
 90
        3
102
RTVSPost2010PropOp43
 70
     1
102
RTVSPost2010Prop44ColorIndex
 90
        5
102
RTVSPost2010Prop44ColorRGB
 90
      255
102
RTVSPost2010PropOp44
 70
     1
102
RTVSPost2010Prop45
280
     0
102
RTVSPost2010PropOp45
 70
     1
102
RTVSPost2010Prop46
 90
       50
102
RTVSPost2010PropOp46
 70
     1
102
RTVSPost2010Prop47
 90
       50
102
RTVSPost2010PropOp47
 70
     1
102
RTVSPost2010Prop48
 90
       50
102
RTVSPost2010PropOp48
 70
     1
102
RTVSPost2010Prop49
280
     0
102
RTVSPost2010PropOp49
 70
     1
102
RTVSPost2010Prop50
 90
       50
102
RTVSPost2010PropOp50
 70
     1
102
RTVSPost2010Prop51ColorIndex
 90
      256
102
RTVSPost2010Prop51ColorRGB
 90
-16777216
102
RTVSPost2010PropOp51
 70
     0
102
RTVSPost2010Prop52
140
1.0
102
RTVSPost2010PropOp52
 70
     0
102
RTVSPost2010Prop53
 90
        2
102
RTVSPost2010PropOp53
 70
     1
102
RTVSPost2010Prop54
  1
strokes_ogs.tif
102
RTVSPost2010PropOp54
 70
     1
102
RTVSPost2010Prop55
280
     0
102
RTVSPost2010PropOp55
 70
     1
102
RTVSPost2010Prop56
140
1.0
102
RTVSPost2010PropOp56
 70
     1
102
RTVSPost2010Prop57
140
1.0
102
RTVSPost2010PropOp57
 70
     1
  0
XRECORD
  5
306
102
{ACAD_REACTORS
330
305
102
}
330
305
100
AcDbXrecord
280
     1
102
RTVSPropertyOp0
 70
     1
102
RTVSPropertyOp1
 70
     1
102
RTVSPropertyOp2
 70
     1
102
RTVSPropertyOp3
 70
     1
102
RTVSPropertyOp4
 70
     1
102
RTVSPropertyOp5
 70
     1
102
RTVSPropertyOp6
 70
     1
102
RTVSPropertyOp7
 70
     1
102
RTVSPropertyOp8
 70
     1
102
RTVSPropertyOp9
 70
     1
102
RTVSPropertyOp10
 70
     1
102
RTVSPropertyOp11
 70
     1
102
RTVSPropertyOp12
 70
     1
102
RTVSPropertyOp13
 70
     1
102
RTVSPropertyOp14
 70
     1
102
RTVSPropertyOp15
 70
     1
102
RTVSPropertyOp16
 70
     1
102
RTVSPropertyOp17
 70
     1
102
RTVSPropertyOp18
 70
     1
102
RTVSPropertyOp19
 70
     1
102
RTVSPropertyOp20
 70
     1
102
RTVSPropertyOp21
 70
     1
102
RTVSPropertyOp22
 70
     1
102
RTVSPropertyOp23
 70
     1
102
RTVSPropertyOp24
 70
     1
102
RTVSPropertyOp25
 70
     1
102
RTVSPropertyOp26
 70
     1
102
RTVSPropertyOp27
 70
     1
102
RTVSPropertyOp28
 70
     1
102
RTVSPropertyOp29
 70
     1
102
RTVSPropertyOp30
 70
     1
102
RTVSPropertyOp31
 70
     1
102
RTVSPropertyOp32
 70
     1
102
RTVSPropertyOp33
 70
     1
102
RTVSPropertyOp34
 70
     1
102
RTVSPropertyOp35
 70
     1
102
RTVSPropertyOp36
 70
     1
102
RTVSPropertyOp37
 70
     1
102
RTVSPropertyOp38
 70
     1
102
RTVSPropertyOp39
 70
     1
102
RTVSPropertyOp40
 70
     1
102
RTVSPropertyOp41
 70
     1
102
RTVSPropertyOp42
 70
     1
102
RTVSPropertyOp43
 70
     1
102
RTVSPropertyOp44
 70
     1
102
RTVSPropertyOp45
 70
     1
102
RTVSPropertyOp46
 70
     1
102
RTVSPropertyOp47
 70
     1
102
RTVSPropertyOp48
 70
     1
102
RTVSPropertyOp49
 70
     1
102
RTVSPropertyOp50
 70
     1
102
RTVSPropertyOp51
 70
     0
102
RTVSPropertyOp52
 70
     0
102
RTVSPropertyOp53
 70
     1
102
RTVSPropertyOp54
 70
     1
102
RTVSPropertyOp55
 70
     1
102
RTVSPropertyOp56
 70
     1
102
RTVSPropertyOp57
 70
     1
102
RTVSPost2010Prop28
280
     0
102
RTVSPost2010PropOp28
 70
     1
102
RTVSPost2010Prop29
280
     1
102
RTVSPost2010PropOp29
 70
     1
102
RTVSPost2010Prop30
280
     1
102
RTVSPost2010PropOp30
 70
     1
102
RTVSPost2010Prop31
280
     0
102
RTVSPost2010PropOp31
 70
     1
102
RTVSPost2010Prop32
280
     0
102
RTVSPost2010PropOp32
 70
     1
102
RTVSPost2010Prop33
280
     0
102
RTVSPost2010PropOp33
 70
     1
102
RTVSPost2010Prop34
280
     0
102
RTVSPost2010PropOp34
 70
     1
102
RTVSPost2010Prop35
280
     0
102
RTVSPost2010PropOp35
 70
     1
102
RTVSPost2010Prop36
280
     0
102
RTVSPost2010PropOp36
 70
     1
102
RTVSPost2010Prop37
 90
       50
102
RTVSPost2010PropOp37
 70
     1
102
RTVSPost2010Prop38
140
0.0
102
RTVSPost2010PropOp38
 70
     1
102
RTVSPost2010Prop39
140
1.0
102
RTVSPost2010PropOp39
 70
     1
102
RTVSPost2010Prop40
 90
        0
102
RTVSPost2010PropOp40
 70
     1
102
RTVSPost2010Prop41ColorIndex
 90
       18
102
RTVSPost2010Prop41ColorRGB
 90
        0
102
RTVSPost2010PropOp41
 70
     1
102
RTVSPost2010Prop42
 90
       50
102
RTVSPost2010PropOp42
 70
     1
102
RTVSPost2010Prop43
 90
        3
102
RTVSPost2010PropOp43
 70
     1
102
RTVSPost2010Prop44ColorIndex
 90
        5
102
RTVSPost2010Prop44ColorRGB
 90
      255
102
RTVSPost2010PropOp44
 70
     1
102
RTVSPost2010Prop45
280
     0
102
RTVSPost2010PropOp45
 70
     1
102
RTVSPost2010Prop46
 90
       50
102
RTVSPost2010PropOp46
 70
     1
102
RTVSPost2010Prop47
 90
       50
102
RTVSPost2010PropOp47
 70
     1
102
RTVSPost2010Prop48
 90
       50
102
RTVSPost2010PropOp48
 70
     1
102
RTVSPost2010Prop49
280
     0
102
RTVSPost2010PropOp49
 70
     1
102
RTVSPost2010Prop50
 90
       50
102
RTVSPost2010PropOp50
 70
     1
102
RTVSPost2010Prop51ColorIndex
 90
      256
102
RTVSPost2010Prop51ColorRGB
 90
-16777216
102
RTVSPost2010PropOp51
 70
     0
102
RTVSPost2010Prop52
140
1.0
102
RTVSPost2010PropOp52
 70
     0
102
RTVSPost2010Prop53
 90
        2
102
RTVSPost2010PropOp53
 70
     1
102
RTVSPost2010Prop54
  1
strokes_ogs.tif
102
RTVSPost2010PropOp54
 70
     1
102
RTVSPost2010Prop55
280
     0
102
RTVSPost2010PropOp55
 70
     1
102
RTVSPost2010Prop56
140
1.0
102
RTVSPost2010PropOp56
 70
     1
102
RTVSPost2010Prop57
140
1.0
102
RTVSPost2010PropOp57
 70
     1
  0
XRECORD
  5
300
102
{ACAD_REACTORS
330
2FF
102
}
330
2FF
100
AcDbXrecord
280
     1
102
RTVSPropertyOp0
 70
     1
102
RTVSPropertyOp1
 70
     1
102
RTVSPropertyOp2
 70
     1
102
RTVSPropertyOp3
 70
     1
102
RTVSPropertyOp4
 70
     1
102
RTVSPropertyOp5
 70
     1
102
RTVSPropertyOp6
 70
     1
102
RTVSPropertyOp7
 70
     1
102
RTVSPropertyOp8
 70
     1
102
RTVSPropertyOp9
 70
     1
102
RTVSPropertyOp10
 70
     1
102
RTVSPropertyOp11
 70
     1
102
RTVSPropertyOp12
 70
     1
102
RTVSPropertyOp13
 70
     1
102
RTVSPropertyOp14
 70
     1
102
RTVSPropertyOp15
 70
     1
102
RTVSPropertyOp16
 70
     1
102
RTVSPropertyOp17
 70
     1
102
RTVSPropertyOp18
 70
     1
102
RTVSPropertyOp19
 70
     1
102
RTVSPropertyOp20
 70
     1
102
RTVSPropertyOp21
 70
     1
102
RTVSPropertyOp22
 70
     1
102
RTVSPropertyOp23
 70
     1
102
RTVSPropertyOp24
 70
     1
102
RTVSPropertyOp25
 70
     1
102
RTVSPropertyOp26
 70
     1
102
RTVSPropertyOp27
 70
     1
102
RTVSPropertyOp28
 70
     1
102
RTVSPropertyOp29
 70
     1
102
RTVSPropertyOp30
 70
     1
102
RTVSPropertyOp31
 70
     1
102
RTVSPropertyOp32
 70
     1
102
RTVSPropertyOp33
 70
     1
102
RTVSPropertyOp34
 70
     1
102
RTVSPropertyOp35
 70
     1
102
RTVSPropertyOp36
 70
     1
102
RTVSPropertyOp37
 70
     1
102
RTVSPropertyOp38
 70
     1
102
RTVSPropertyOp39
 70
     1
102
RTVSPropertyOp40
 70
     1
102
RTVSPropertyOp41
 70
     1
102
RTVSPropertyOp42
 70
     1
102
RTVSPropertyOp43
 70
     1
102
RTVSPropertyOp44
 70
     1
102
RTVSPropertyOp45
 70
     1
102
RTVSPropertyOp46
 70
     1
102
RTVSPropertyOp47
 70
     1
102
RTVSPropertyOp48
 70
     1
102
RTVSPropertyOp49
 70
     1
102
RTVSPropertyOp50
 70
     1
102
RTVSPropertyOp51
 70
     0
102
RTVSPropertyOp52
 70
     0
102
RTVSPropertyOp53
 70
     1
102
RTVSPropertyOp54
 70
     1
102
RTVSPropertyOp55
 70
     1
102
RTVSPropertyOp56
 70
     1
102
RTVSPropertyOp57
 70
     1
102
RTVSPost2010Prop28
280
     0
102
RTVSPost2010PropOp28
 70
     1
102
RTVSPost2010Prop29
280
     1
102
RTVSPost2010PropOp29
 70
     1
102
RTVSPost2010Prop30
280
     1
102
RTVSPost2010PropOp30
 70
     1
102
RTVSPost2010Prop31
280
     0
102
RTVSPost2010PropOp31
 70
     1
102
RTVSPost2010Prop32
280
     0
102
RTVSPost2010PropOp32
 70
     1
102
RTVSPost2010Prop33
280
     0
102
RTVSPost2010PropOp33
 70
     1
102
RTVSPost2010Prop34
280
     0
102
RTVSPost2010PropOp34
 70
     1
102
RTVSPost2010Prop35
280
     0
102
RTVSPost2010PropOp35
 70
     1
102
RTVSPost2010Prop36
280
     0
102
RTVSPost2010PropOp36
 70
     1
102
RTVSPost2010Prop37
 90
       50
102
RTVSPost2010PropOp37
 70
     1
102
RTVSPost2010Prop38
140
0.0
102
RTVSPost2010PropOp38
 70
     1
102
RTVSPost2010Prop39
140
1.0
102
RTVSPost2010PropOp39
 70
     1
102
RTVSPost2010Prop40
 90
        0
102
RTVSPost2010PropOp40
 70
     1
102
RTVSPost2010Prop41ColorIndex
 90
       18
102
RTVSPost2010Prop41ColorRGB
 90
        0
102
RTVSPost2010PropOp41
 70
     1
102
RTVSPost2010Prop42
 90
       50
102
RTVSPost2010PropOp42
 70
     1
102
RTVSPost2010Prop43
 90
        3
102
RTVSPost2010PropOp43
 70
     1
102
RTVSPost2010Prop44ColorIndex
 90
        5
102
RTVSPost2010Prop44ColorRGB
 90
      255
102
RTVSPost2010PropOp44
 70
     1
102
RTVSPost2010Prop45
280
     0
102
RTVSPost2010PropOp45
 70
     1
102
RTVSPost2010Prop46
 90
       50
102
RTVSPost2010PropOp46
 70
     1
102
RTVSPost2010Prop47
 90
       50
102
RTVSPost2010PropOp47
 70
     1
102
RTVSPost2010Prop48
 90
       50
102
RTVSPost2010PropOp48
 70
     1
102
RTVSPost2010Prop49
280
     0
102
RTVSPost2010PropOp49
 70
     1
102
RTVSPost2010Prop50
 90
       50
102
RTVSPost2010PropOp50
 70
     1
102
RTVSPost2010Prop51ColorIndex
 90
      256
102
RTVSPost2010Prop51ColorRGB
 90
-16777216
102
RTVSPost2010PropOp51
 70
     0
102
RTVSPost2010Prop52
140
1.0
102
RTVSPost2010PropOp52
 70
     0
102
RTVSPost2010Prop53
 90
        2
102
RTVSPost2010PropOp53
 70
     1
102
RTVSPost2010Prop54
  1
strokes_ogs.tif
102
RTVSPost2010PropOp54
 70
     1
102
RTVSPost2010Prop55
280
     0
102
RTVSPost2010PropOp55
 70
     1
102
RTVSPost2010Prop56
140
1.0
102
RTVSPost2010PropOp56
 70
     1
102
RTVSPost2010Prop57
140
1.0
102
RTVSPost2010PropOp57
 70
     1
  0
XRECORD
  5
302
102
{ACAD_REACTORS
330
301
102
}
330
301
100
AcDbXrecord
280
     1
102
RTVSPropertyOp0
 70
     1
102
RTVSPropertyOp1
 70
     1
102
RTVSPropertyOp2
 70
     1
102
RTVSPropertyOp3
 70
     1
102
RTVSPropertyOp4
 70
     1
102
RTVSPropertyOp5
 70
     1
102
RTVSPropertyOp6
 70
     1
102
RTVSPropertyOp7
 70
     1
102
RTVSPropertyOp8
 70
     1
102
RTVSPropertyOp9
 70
     1
102
RTVSPropertyOp10
 70
     1
102
RTVSPropertyOp11
 70
     1
102
RTVSPropertyOp12
 70
     1
102
RTVSPropertyOp13
 70
     1
102
RTVSPropertyOp14
 70
     1
102
RTVSPropertyOp15
 70
     1
102
RTVSPropertyOp16
 70
     1
102
RTVSPropertyOp17
 70
     1
102
RTVSPropertyOp18
 70
     1
102
RTVSPropertyOp19
 70
     1
102
RTVSPropertyOp20
 70
     1
102
RTVSPropertyOp21
 70
     1
102
RTVSPropertyOp22
 70
     1
102
RTVSPropertyOp23
 70
     1
102
RTVSPropertyOp24
 70
     1
102
RTVSPropertyOp25
 70
     1
102
RTVSPropertyOp26
 70
     1
102
RTVSPropertyOp27
 70
     1
102
RTVSPropertyOp28
 70
     1
102
RTVSPropertyOp29
 70
     1
102
RTVSPropertyOp30
 70
     1
102
RTVSPropertyOp31
 70
     1
102
RTVSPropertyOp32
 70
     1
102
RTVSPropertyOp33
 70
     1
102
RTVSPropertyOp34
 70
     1
102
RTVSPropertyOp35
 70
     1
102
RTVSPropertyOp36
 70
     1
102
RTVSPropertyOp37
 70
     1
102
RTVSPropertyOp38
 70
     1
102
RTVSPropertyOp39
 70
     1
102
RTVSPropertyOp40
 70
     1
102
RTVSPropertyOp41
 70
     1
102
RTVSPropertyOp42
 70
     1
102
RTVSPropertyOp43
 70
     1
102
RTVSPropertyOp44
 70
     1
102
RTVSPropertyOp45
 70
     1
102
RTVSPropertyOp46
 70
     1
102
RTVSPropertyOp47
 70
     1
102
RTVSPropertyOp48
 70
     1
102
RTVSPropertyOp49
 70
     1
102
RTVSPropertyOp50
 70
     1
102
RTVSPropertyOp51
 70
     0
102
RTVSPropertyOp52
 70
     0
102
RTVSPropertyOp53
 70
     1
102
RTVSPropertyOp54
 70
     1
102
RTVSPropertyOp55
 70
     1
102
RTVSPropertyOp56
 70
     1
102
RTVSPropertyOp57
 70
     1
102
RTVSPost2010Prop28
280
     0
102
RTVSPost2010PropOp28
 70
     1
102
RTVSPost2010Prop29
280
     1
102
RTVSPost2010PropOp29
 70
     1
102
RTVSPost2010Prop30
280
     1
102
RTVSPost2010PropOp30
 70
     1
102
RTVSPost2010Prop31
280
     0
102
RTVSPost2010PropOp31
 70
     1
102
RTVSPost2010Prop32
280
     0
102
RTVSPost2010PropOp32
 70
     1
102
RTVSPost2010Prop33
280
     0
102
RTVSPost2010PropOp33
 70
     1
102
RTVSPost2010Prop34
280
     0
102
RTVSPost2010PropOp34
 70
     1
102
RTVSPost2010Prop35
280
     0
102
RTVSPost2010PropOp35
 70
     1
102
RTVSPost2010Prop36
280
     0
102
RTVSPost2010PropOp36
 70
     1
102
RTVSPost2010Prop37
 90
       50
102
RTVSPost2010PropOp37
 70
     1
102
RTVSPost2010Prop38
140
0.0
102
RTVSPost2010PropOp38
 70
     1
102
RTVSPost2010Prop39
140
1.0
102
RTVSPost2010PropOp39
 70
     1
102
RTVSPost2010Prop40
 90
        0
102
RTVSPost2010PropOp40
 70
     1
102
RTVSPost2010Prop41ColorIndex
 90
       18
102
RTVSPost2010Prop41ColorRGB
 90
        0
102
RTVSPost2010PropOp41
 70
     1
102
RTVSPost2010Prop42
 90
       50
102
RTVSPost2010PropOp42
 70
     1
102
RTVSPost2010Prop43
 90
        3
102
RTVSPost2010PropOp43
 70
     1
102
RTVSPost2010Prop44ColorIndex
 90
        5
102
RTVSPost2010Prop44ColorRGB
 90
      255
102
RTVSPost2010PropOp44
 70
     1
102
RTVSPost2010Prop45
280
     0
102
RTVSPost2010PropOp45
 70
     1
102
RTVSPost2010Prop46
 90
       50
102
RTVSPost2010PropOp46
 70
     1
102
RTVSPost2010Prop47
 90
       50
102
RTVSPost2010PropOp47
 70
     1
102
RTVSPost2010Prop48
 90
       50
102
RTVSPost2010PropOp48
 70
     1
102
RTVSPost2010Prop49
280
     0
102
RTVSPost2010PropOp49
 70
     1
102
RTVSPost2010Prop50
 90
       50
102
RTVSPost2010PropOp50
 70
     1
102
RTVSPost2010Prop51ColorIndex
 90
      256
102
RTVSPost2010Prop51ColorRGB
 90
-16777216
102
RTVSPost2010PropOp51
 70
     0
102
RTVSPost2010Prop52
140
1.0
102
RTVSPost2010PropOp52
 70
     0
102
RTVSPost2010Prop53
 90
        2
102
RTVSPost2010PropOp53
 70
     1
102
RTVSPost2010Prop54
  1
strokes_ogs.tif
102
RTVSPost2010PropOp54
 70
     1
102
RTVSPost2010Prop55
280
     0
102
RTVSPost2010PropOp55
 70
     1
102
RTVSPost2010Prop56
140
1.0
102
RTVSPost2010PropOp56
 70
     1
102
RTVSPost2010Prop57
140
1.0
102
RTVSPost2010PropOp57
 70
     1
  0
XRECORD
  5
2F2
102
{ACAD_REACTORS
330
2F1
102
}
330
2F1
100
AcDbXrecord
280
     1
102
RTVSPropertyOp0
 70
     1
102
RTVSPropertyOp1
 70
     1
102
RTVSPropertyOp2
 70
     1
102
RTVSPropertyOp3
 70
     1
102
RTVSPropertyOp4
 70
     1
102
RTVSPropertyOp5
 70
     1
102
RTVSPropertyOp6
 70
     1
102
RTVSPropertyOp7
 70
     1
102
RTVSPropertyOp8
 70
     1
102
RTVSPropertyOp9
 70
     1
102
RTVSPropertyOp10
 70
     1
102
RTVSPropertyOp11
 70
     1
102
RTVSPropertyOp12
 70
     1
102
RTVSPropertyOp13
 70
     1
102
RTVSPropertyOp14
 70
     1
102
RTVSPropertyOp15
 70
     1
102
RTVSPropertyOp16
 70
     1
102
RTVSPropertyOp17
 70
     1
102
RTVSPropertyOp18
 70
     1
102
RTVSPropertyOp19
 70
     1
102
RTVSPropertyOp20
 70
     1
102
RTVSPropertyOp21
 70
     1
102
RTVSPropertyOp22
 70
     1
102
RTVSPropertyOp23
 70
     1
102
RTVSPropertyOp24
 70
     1
102
RTVSPropertyOp25
 70
     1
102
RTVSPropertyOp26
 70
     1
102
RTVSPropertyOp27
 70
     1
102
RTVSPropertyOp28
 70
     1
102
RTVSPropertyOp29
 70
     1
102
RTVSPropertyOp30
 70
     1
102
RTVSPropertyOp31
 70
     1
102
RTVSPropertyOp32
 70
     1
102
RTVSPropertyOp33
 70
     1
102
RTVSPropertyOp34
 70
     1
102
RTVSPropertyOp35
 70
     1
102
RTVSPropertyOp36
 70
     1
102
RTVSPropertyOp37
 70
     1
102
RTVSPropertyOp38
 70
     1
102
RTVSPropertyOp39
 70
     1
102
RTVSPropertyOp40
 70
     1
102
RTVSPropertyOp41
 70
     1
102
RTVSPropertyOp42
 70
     1
102
RTVSPropertyOp43
 70
     1
102
RTVSPropertyOp44
 70
     1
102
RTVSPropertyOp45
 70
     1
102
RTVSPropertyOp46
 70
     1
102
RTVSPropertyOp47
 70
     1
102
RTVSPropertyOp48
 70
     1
102
RTVSPropertyOp49
 70
     1
102
RTVSPropertyOp50
 70
     1
102
RTVSPropertyOp51
 70
     0
102
RTVSPropertyOp52
 70
     0
102
RTVSPropertyOp53
 70
     1
102
RTVSPropertyOp54
 70
     1
102
RTVSPropertyOp55
 70
     1
102
RTVSPropertyOp56
 70
     1
102
RTVSPropertyOp57
 70
     1
102
RTVSPost2010Prop28
280
     0
102
RTVSPost2010PropOp28
 70
     1
102
RTVSPost2010Prop29
280
     1
102
RTVSPost2010PropOp29
 70
     1
102
RTVSPost2010Prop30
280
     1
102
RTVSPost2010PropOp30
 70
     1
102
RTVSPost2010Prop31
280
     0
102
RTVSPost2010PropOp31
 70
     1
102
RTVSPost2010Prop32
280
     0
102
RTVSPost2010PropOp32
 70
     1
102
RTVSPost2010Prop33
280
     0
102
RTVSPost2010PropOp33
 70
     1
102
RTVSPost2010Prop34
280
     0
102
RTVSPost2010PropOp34
 70
     1
102
RTVSPost2010Prop35
280
     0
102
RTVSPost2010PropOp35
 70
     1
102
RTVSPost2010Prop36
280
     0
102
RTVSPost2010PropOp36
 70
     1
102
RTVSPost2010Prop37
 90
       50
102
RTVSPost2010PropOp37
 70
     1
102
RTVSPost2010Prop38
140
0.0
102
RTVSPost2010PropOp38
 70
     1
102
RTVSPost2010Prop39
140
1.0
102
RTVSPost2010PropOp39
 70
     1
102
RTVSPost2010Prop40
 90
        0
102
RTVSPost2010PropOp40
 70
     1
102
RTVSPost2010Prop41ColorIndex
 90
       18
102
RTVSPost2010Prop41ColorRGB
 90
        0
102
RTVSPost2010PropOp41
 70
     1
102
RTVSPost2010Prop42
 90
       50
102
RTVSPost2010PropOp42
 70
     1
102
RTVSPost2010Prop43
 90
        3
102
RTVSPost2010PropOp43
 70
     1
102
RTVSPost2010Prop44ColorIndex
 90
        5
102
RTVSPost2010Prop44ColorRGB
 90
      255
102
RTVSPost2010PropOp44
 70
     1
102
RTVSPost2010Prop45
280
     0
102
RTVSPost2010PropOp45
 70
     1
102
RTVSPost2010Prop46
 90
       50
102
RTVSPost2010PropOp46
 70
     1
102
RTVSPost2010Prop47
 90
       50
102
RTVSPost2010PropOp47
 70
     1
102
RTVSPost2010Prop48
 90
       50
102
RTVSPost2010PropOp48
 70
     1
102
RTVSPost2010Prop49
280
     0
102
RTVSPost2010PropOp49
 70
     1
102
RTVSPost2010Prop50
 90
       50
102
RTVSPost2010PropOp50
 70
     1
102
RTVSPost2010Prop51ColorIndex
 90
      256
102
RTVSPost2010Prop51ColorRGB
 90
-16777216
102
RTVSPost2010PropOp51
 70
     0
102
RTVSPost2010Prop52
140
1.0
102
RTVSPost2010PropOp52
 70
     0
102
RTVSPost2010Prop53
 90
        2
102
RTVSPost2010PropOp53
 70
     1
102
RTVSPost2010Prop54
  1
strokes_ogs.tif
102
RTVSPost2010PropOp54
 70
     1
102
RTVSPost2010Prop55
280
     0
102
RTVSPost2010PropOp55
 70
     1
102
RTVSPost2010Prop56
140
1.0
102
RTVSPost2010PropOp56
 70
     1
102
RTVSPost2010Prop57
140
1.0
102
RTVSPost2010PropOp57
 70
     1
  0
XRECORD
  5
2E4
102
{ACAD_REACTORS
330
2E3
102
}
330
2E3
100
AcDbXrecord
280
     1
102
RTVSPropertyOp0
 70
     1
102
RTVSPropertyOp1
 70
     1
102
RTVSPropertyOp2
 70
     1
102
RTVSPropertyOp3
 70
     1
102
RTVSPropertyOp4
 70
     1
102
RTVSPropertyOp5
 70
     1
102
RTVSPropertyOp6
 70
     1
102
RTVSPropertyOp7
 70
     1
102
RTVSPropertyOp8
 70
     1
102
RTVSPropertyOp9
 70
     1
102
RTVSPropertyOp10
 70
     1
102
RTVSPropertyOp11
 70
     1
102
RTVSPropertyOp12
 70
     1
102
RTVSPropertyOp13
 70
     1
102
RTVSPropertyOp14
 70
     1
102
RTVSPropertyOp15
 70
     1
102
RTVSPropertyOp16
 70
     1
102
RTVSPropertyOp17
 70
     1
102
RTVSPropertyOp18
 70
     1
102
RTVSPropertyOp19
 70
     1
102
RTVSPropertyOp20
 70
     1
102
RTVSPropertyOp21
 70
     1
102
RTVSPropertyOp22
 70
     1
102
RTVSPropertyOp23
 70
     1
102
RTVSPropertyOp24
 70
     1
102
RTVSPropertyOp25
 70
     1
102
RTVSPropertyOp26
 70
     1
102
RTVSPropertyOp27
 70
     1
102
RTVSPropertyOp28
 70
     1
102
RTVSPropertyOp29
 70
     1
102
RTVSPropertyOp30
 70
     1
102
RTVSPropertyOp31
 70
     1
102
RTVSPropertyOp32
 70
     1
102
RTVSPropertyOp33
 70
     1
102
RTVSPropertyOp34
 70
     1
102
RTVSPropertyOp35
 70
     1
102
RTVSPropertyOp36
 70
     1
102
RTVSPropertyOp37
 70
     1
102
RTVSPropertyOp38
 70
     1
102
RTVSPropertyOp39
 70
     1
102
RTVSPropertyOp40
 70
     1
102
RTVSPropertyOp41
 70
     1
102
RTVSPropertyOp42
 70
     1
102
RTVSPropertyOp43
 70
     1
102
RTVSPropertyOp44
 70
     1
102
RTVSPropertyOp45
 70
     1
102
RTVSPropertyOp46
 70
     1
102
RTVSPropertyOp47
 70
     1
102
RTVSPropertyOp48
 70
     1
102
RTVSPropertyOp49
 70
     1
102
RTVSPropertyOp50
 70
     1
102
RTVSPropertyOp51
 70
     0
102
RTVSPropertyOp52
 70
     0
102
RTVSPropertyOp53
 70
     1
102
RTVSPropertyOp54
 70
     1
102
RTVSPropertyOp55
 70
     1
102
RTVSPropertyOp56
 70
     1
102
RTVSPropertyOp57
 70
     1
102
RTVSPost2010Prop28
280
     0
102
RTVSPost2010PropOp28
 70
     1
102
RTVSPost2010Prop29
280
     1
102
RTVSPost2010PropOp29
 70
     1
102
RTVSPost2010Prop30
280
     1
102
RTVSPost2010PropOp30
 70
     1
102
RTVSPost2010Prop31
280
     0
102
RTVSPost2010PropOp31
 70
     1
102
RTVSPost2010Prop32
280
     0
102
RTVSPost2010PropOp32
 70
     1
102
RTVSPost2010Prop33
280
     0
102
RTVSPost2010PropOp33
 70
     1
102
RTVSPost2010Prop34
280
     0
102
RTVSPost2010PropOp34
 70
     1
102
RTVSPost2010Prop35
280
     0
102
RTVSPost2010PropOp35
 70
     1
102
RTVSPost2010Prop36
280
     0
102
RTVSPost2010PropOp36
 70
     1
102
RTVSPost2010Prop37
 90
       50
102
RTVSPost2010PropOp37
 70
     1
102
RTVSPost2010Prop38
140
0.0
102
RTVSPost2010PropOp38
 70
     1
102
RTVSPost2010Prop39
140
1.0
102
RTVSPost2010PropOp39
 70
     1
102
RTVSPost2010Prop40
 90
        0
102
RTVSPost2010PropOp40
 70
     1
102
RTVSPost2010Prop41ColorIndex
 90
       18
102
RTVSPost2010Prop41ColorRGB
 90
        0
102
RTVSPost2010PropOp41
 70
     1
102
RTVSPost2010Prop42
 90
       50
102
RTVSPost2010PropOp42
 70
     1
102
RTVSPost2010Prop43
 90
        3
102
RTVSPost2010PropOp43
 70
     1
102
RTVSPost2010Prop44ColorIndex
 90
        5
102
RTVSPost2010Prop44ColorRGB
 90
      255
102
RTVSPost2010PropOp44
 70
     1
102
RTVSPost2010Prop45
280
     0
102
RTVSPost2010PropOp45
 70
     1
102
RTVSPost2010Prop46
 90
       50
102
RTVSPost2010PropOp46
 70
     1
102
RTVSPost2010Prop47
 90
       50
102
RTVSPost2010PropOp47
 70
     1
102
RTVSPost2010Prop48
 90
       50
102
RTVSPost2010PropOp48
 70
     1
102
RTVSPost2010Prop49
280
     0
102
RTVSPost2010PropOp49
 70
     1
102
RTVSPost2010Prop50
 90
       50
102
RTVSPost2010PropOp50
 70
     1
102
RTVSPost2010Prop51ColorIndex
 90
      256
102
RTVSPost2010Prop51ColorRGB
 90
-16777216
102
RTVSPost2010PropOp51
 70
     0
102
RTVSPost2010Prop52
140
1.0
102
RTVSPost2010PropOp52
 70
     0
102
RTVSPost2010Prop53
 90
        2
102
RTVSPost2010PropOp53
 70
     1
102
RTVSPost2010Prop54
  1
strokes_ogs.tif
102
RTVSPost2010PropOp54
 70
     1
102
RTVSPost2010Prop55
280
     0
102
RTVSPost2010PropOp55
 70
     1
102
RTVSPost2010Prop56
140
1.0
102
RTVSPost2010PropOp56
 70
     1
102
RTVSPost2010Prop57
140
1.0
102
RTVSPost2010PropOp57
 70
     1
  0
XRECORD
  5
304
102
{ACAD_REACTORS
330
303
102
}
330
303
100
AcDbXrecord
280
     1
102
RTVSPropertyOp0
 70
     1
102
RTVSPropertyOp1
 70
     1
102
RTVSPropertyOp2
 70
     1
102
RTVSPropertyOp3
 70
     1
102
RTVSPropertyOp4
 70
     1
102
RTVSPropertyOp5
 70
     1
102
RTVSPropertyOp6
 70
     1
102
RTVSPropertyOp7
 70
     1
102
RTVSPropertyOp8
 70
     1
102
RTVSPropertyOp9
 70
     1
102
RTVSPropertyOp10
 70
     1
102
RTVSPropertyOp11
 70
     1
102
RTVSPropertyOp12
 70
     1
102
RTVSPropertyOp13
 70
     1
102
RTVSPropertyOp14
 70
     1
102
RTVSPropertyOp15
 70
     1
102
RTVSPropertyOp16
 70
     1
102
RTVSPropertyOp17
 70
     1
102
RTVSPropertyOp18
 70
     1
102
RTVSPropertyOp19
 70
     1
102
RTVSPropertyOp20
 70
     1
102
RTVSPropertyOp21
 70
     1
102
RTVSPropertyOp22
 70
     1
102
RTVSPropertyOp23
 70
     1
102
RTVSPropertyOp24
 70
     1
102
RTVSPropertyOp25
 70
     1
102
RTVSPropertyOp26
 70
     1
102
RTVSPropertyOp27
 70
     1
102
RTVSPropertyOp28
 70
     1
102
RTVSPropertyOp29
 70
     1
102
RTVSPropertyOp30
 70
     1
102
RTVSPropertyOp31
 70
     1
102
RTVSPropertyOp32
 70
     1
102
RTVSPropertyOp33
 70
     1
102
RTVSPropertyOp34
 70
     1
102
RTVSPropertyOp35
 70
     1
102
RTVSPropertyOp36
 70
     1
102
RTVSPropertyOp37
 70
     1
102
RTVSPropertyOp38
 70
     1
102
RTVSPropertyOp39
 70
     1
102
RTVSPropertyOp40
 70
     1
102
RTVSPropertyOp41
 70
     1
102
RTVSPropertyOp42
 70
     1
102
RTVSPropertyOp43
 70
     1
102
RTVSPropertyOp44
 70
     1
102
RTVSPropertyOp45
 70
     1
102
RTVSPropertyOp46
 70
     1
102
RTVSPropertyOp47
 70
     1
102
RTVSPropertyOp48
 70
     1
102
RTVSPropertyOp49
 70
     1
102
RTVSPropertyOp50
 70
     1
102
RTVSPropertyOp51
 70
     0
102
RTVSPropertyOp52
 70
     0
102
RTVSPropertyOp53
 70
     1
102
RTVSPropertyOp54
 70
     1
102
RTVSPropertyOp55
 70
     1
102
RTVSPropertyOp56
 70
     1
102
RTVSPropertyOp57
 70
     1
102
RTVSPost2010Prop28
280
     0
102
RTVSPost2010PropOp28
 70
     1
102
RTVSPost2010Prop29
280
     1
102
RTVSPost2010PropOp29
 70
     1
102
RTVSPost2010Prop30
280
     1
102
RTVSPost2010PropOp30
 70
     1
102
RTVSPost2010Prop31
280
     0
102
RTVSPost2010PropOp31
 70
     1
102
RTVSPost2010Prop32
280
     0
102
RTVSPost2010PropOp32
 70
     1
102
RTVSPost2010Prop33
280
     0
102
RTVSPost2010PropOp33
 70
     1
102
RTVSPost2010Prop34
280
     0
102
RTVSPost2010PropOp34
 70
     1
102
RTVSPost2010Prop35
280
     0
102
RTVSPost2010PropOp35
 70
     1
102
RTVSPost2010Prop36
280
     0
102
RTVSPost2010PropOp36
 70
     1
102
RTVSPost2010Prop37
 90
       50
102
RTVSPost2010PropOp37
 70
     1
102
RTVSPost2010Prop38
140
0.0
102
RTVSPost2010PropOp38
 70
     1
102
RTVSPost2010Prop39
140
1.0
102
RTVSPost2010PropOp39
 70
     1
102
RTVSPost2010Prop40
 90
        0
102
RTVSPost2010PropOp40
 70
     1
102
RTVSPost2010Prop41ColorIndex
 90
       18
102
RTVSPost2010Prop41ColorRGB
 90
        0
102
RTVSPost2010PropOp41
 70
     1
102
RTVSPost2010Prop42
 90
       50
102
RTVSPost2010PropOp42
 70
     1
102
RTVSPost2010Prop43
 90
        3
102
RTVSPost2010PropOp43
 70
     1
102
RTVSPost2010Prop44ColorIndex
 90
        5
102
RTVSPost2010Prop44ColorRGB
 90
      255
102
RTVSPost2010PropOp44
 70
     1
102
RTVSPost2010Prop45
280
     0
102
RTVSPost2010PropOp45
 70
     1
102
RTVSPost2010Prop46
 90
       50
102
RTVSPost2010PropOp46
 70
     1
102
RTVSPost2010Prop47
 90
       50
102
RTVSPost2010PropOp47
 70
     1
102
RTVSPost2010Prop48
 90
       50
102
RTVSPost2010PropOp48
 70
     1
102
RTVSPost2010Prop49
280
     0
102
RTVSPost2010PropOp49
 70
     1
102
RTVSPost2010Prop50
 90
       50
102
RTVSPost2010PropOp50
 70
     1
102
RTVSPost2010Prop51ColorIndex
 90
      256
102
RTVSPost2010Prop51ColorRGB
 90
-16777216
102
RTVSPost2010PropOp51
 70
     0
102
RTVSPost2010Prop52
140
1.0
102
RTVSPost2010PropOp52
 70
     0
102
RTVSPost2010Prop53
 90
        2
102
RTVSPost2010PropOp53
 70
     1
102
RTVSPost2010Prop54
  1
strokes_ogs.tif
102
RTVSPost2010PropOp54
 70
     1
102
RTVSPost2010Prop55
280
     0
102
RTVSPost2010PropOp55
 70
     1
102
RTVSPost2010Prop56
140
1.0
102
RTVSPost2010PropOp56
 70
     1
102
RTVSPost2010Prop57
140
1.0
102
RTVSPost2010PropOp57
 70
     1
  0
ENDSEC
  0
EOF
