  0
SECTION
  2
HEADER
  9
$ACADVER
  1
AC1018
  9
$ACADMAINTVER
 70
     0
  9
$DWGCODEPAGE
  3
ANSI_932
  9
$INSBASE
 10
0.0
 20
0.0
 30
0.0
  9
$EXTMIN
 10
-420.0
 20
-297.0
 30
0.0
  9
$EXTMAX
 10
420.0
 20
297.0
 30
0.0
  9
$LIMMIN
 10
-420.0
 20
-297.0
  9
$LIMMAX
 10
420.0
 20
297.0
  9
$ORTHOMODE
 70
     0
  9
$REGENMODE
 70
     1
  9
$FILLMODE
 70
     1
  9
$QTEXTMODE
 70
     0
  9
$MIRRTEXT
 70
     1
  9
$LTSCALE
 40
2.0
  9
$ATTMODE
 70
     1
  9
$TEXTSIZE
 40
2.5
  9
$TRACEWID
 40
1.0
  9
$TEXTSTYLE
  7
Standard
  9
$CLAYER
  8
0
  9
$CELTYPE
  6
ByLayer
  9
$CECOLOR
 62
   256
  9
$CELTSCALE
 40
1.0
  9
$DISPSILH
 70
     0
  9
$DIMSCALE
 40
1.0
  9
$DIMASZ
 40
2.5
  9
$DIMEXO
 40
0.625
  9
$DIMDLI
 40
3.75
  9
$DIMRND
 40
0.0
  9
$DIMDLE
 40
0.0
  9
$DIMEXE
 40
1.25
  9
$DIMTP
 40
0.0
  9
$DIMTM
 40
0.0
  9
$DIMTXT
 40
2.5
  9
$DIMCEN
 40
2.5
  9
$DIMTSZ
 40
0.0
  9
$DIMTOL
 70
     0
  9
$DIMLIM
 70
     0
  9
$DIMTIH
 70
     0
  9
$DIMTOH
 70
     0
  9
$DIMSE1
 70
     0
  9
$DIMSE2
 70
     0
  9
$DIMTAD
 70
     1
  9
$DIMZIN
 70
     8
  9
$DIMBLK
  1

  9
$DIMASO
 70
     1
  9
$DIMSHO
 70
     1
  9
$DIMPOST
  1

  9
$DIMAPOST
  1

  9
$DIMALT
 70
     0
  9
$DIMALTD
 70
     3
  9
$DIMALTF
 40
0.03937007874016
  9
$DIMLFAC
 40
1.0
  9
$DIMTOFL
 70
     1
  9
$DIMTVP
 40
0.0
  9
$DIMTIX
 70
     0
  9
$DIMSOXD
 70
     0
  9
$DIMSAH
 70
     0
  9
$DIMBLK1
  1

  9
$DIMBLK2
  1

  9
$DIMSTYLE
  2
ISO-25
  9
$DIMCLRD
 70
     0
  9
$DIMCLRE
 70
     0
  9
$DIMCLRT
 70
     0
  9
$DIMTFAC
 40
1.0
  9
$DIMGAP
 40
0.625
  9
$DIMJUST
 70
     0
  9
$DIMSD1
 70
     0
  9
$DIMSD2
 70
     0
  9
$DIMTOLJ
 70
     0
  9
$DIMTZIN
 70
     8
  9
$DIMALTZ
 70
     0
  9
$DIMALTTZ
 70
     0
  9
$DIMUPT
 70
     0
  9
$DIMDEC
 70
     2
  9
$DIMTDEC
 70
     2
  9
$DIMALTU
 70
     2
  9
$DIMALTTD
 70
     3
  9
$DIMTXSTY
  7
Standard
  9
$DIMAUNIT
 70
     0
  9
$DIMADEC
 70
     0
  9
$DIMALTRND
 40
0.0
  9
$DIMAZIN
 70
     0
  9
$DIMDSEP
 70
    44
  9
$DIMATFIT
 70
     3
  9
$DIMFRAC
 70
     0
  9
$DIMLDRBLK
  1

  9
$DIMLUNIT
 70
     2
  9
$DIMLWD
 70
    -2
  9
$DIMLWE
 70
    -2
  9
$DIMTMOVE
 70
     0
  9
$LUNITS
 70
     2
  9
$LUPREC
 70
     4
  9
$SKETCHINC
 40
1.0
  9
$FILLETRAD
 40
10.0
  9
$AUNITS
 70
     0
  9
$AUPREC
 70
     0
  9
$MENU
  1
.
  9
$ELEVATION
 40
0.0
  9
$PELEVATION
 40
0.0
  9
$THICKNESS
 40
0.0
  9
$LIMCHECK
 70
     0
  9
$CHAMFERA
 40
0.0
  9
$CHAMFERB
 40
0.0
  9
$CHAMFERC
 40
0.0
  9
$CHAMFERD
 40
0.0
  9
$SKPOLY
 70
     0
  9
$TDCREATE
 40
2461033.635997246
  9
$TDUCREATE
 40
2461033.260997246
  9
$TDUPDATE
 40
2461033.636001991
  9
$TDUUPDATE
 40
2461033.261001991
  9
$TDINDWG
 40
0.0000000116
  9
$TDUSRTIMER
 40
0.0000000116
  9
$USRTIMER
 70
     1
  9
$ANGBASE
 50
0.0
  9
$ANGDIR
 70
     0
  9
$PDMODE
 70
     0
  9
$PDSIZE
 40
0.0
  9
$PLINEWID
 40
0.0
  9
$SPLFRAME
 70
     0
  9
$SPLINETYPE
 70
     6
  9
$SPLINESEGS
 70
     8
  9
$HANDSEED
  5
34F
  9
$SURFTAB1
 70
     6
  9
$SURFTAB2
 70
     6
  9
$SURFTYPE
 70
     6
  9
$SURFU
 70
     6
  9
$SURFV
 70
     6
  9
$UCSBASE
  2

  9
$UCSNAME
  2

  9
$UCSORG
 10
0.0
 20
0.0
 30
0.0
  9
$UCSXDIR
 10
1.0
 20
0.0
 30
0.0
  9
$UCSYDIR
 10
0.0
 20
1.0
 30
0.0
  9
$UCSORTHOREF
  2

  9
$UCSORTHOVIEW
 70
     0
  9
$UCSORGTOP
 10
0.0
 20
0.0
 30
0.0
  9
$UCSORGBOTTOM
 10
0.0
 20
0.0
 30
0.0
  9
$UCSORGLEFT
 10
0.0
 20
0.0
 30
0.0
  9
$UCSORGRIGHT
 10
0.0
 20
0.0
 30
0.0
  9
$UCSORGFRONT
 10
0.0
 20
0.0
 30
0.0
  9
$UCSORGBACK
 10
0.0
 20
0.0
 30
0.0
  9
$PUCSBASE
  2

  9
$PUCSNAME
  2

  9
$PUCSORG
 10
0.0
 20
0.0
 30
0.0
  9
$PUCSXDIR
 10
1.0
 20
0.0
 30
0.0
  9
$PUCSYDIR
 10
0.0
 20
1.0
 30
0.0
  9
$PUCSORTHOREF
  2

  9
$PUCSORTHOVIEW
 70
     0
  9
$PUCSORGTOP
 10
0.0
 20
0.0
 30
0.0
  9
$PUCSORGBOTTOM
 10
0.0
 20
0.0
 30
0.0
  9
$PUCSORGLEFT
 10
0.0
 20
0.0
 30
0.0
  9
$PUCSORGRIGHT
 10
0.0
 20
0.0
 30
0.0
  9
$PUCSORGFRONT
 10
0.0
 20
0.0
 30
0.0
  9
$PUCSORGBACK
 10
0.0
 20
0.0
 30
0.0
  9
$USERI1
 70
     0
  9
$USERI2
 70
     0
  9
$USERI3
 70
     0
  9
$USERI4
 70
     0
  9
$USERI5
 70
     0
  9
$USERR1
 40
0.0
  9
$USERR2
 40
0.0
  9
$USERR3
 40
0.0
  9
$USERR4
 40
0.0
  9
$USERR5
 40
0.0
  9
$WORLDVIEW
 70
     1
  9
$SHADEDGE
 70
     3
  9
$SHADEDIF
 70
    70
  9
$TILEMODE
 70
     1
  9
$MAXACTVP
 70
    64
  9
$PINSBASE
 10
0.0
 20
0.0
 30
0.0
  9
$PLIMCHECK
 70
     0
  9
$PEXTMIN
 10
1.000000000000000E+20
 20
1.000000000000000E+20
 30
1.000000000000000E+20
  9
$PEXTMAX
 10
-1.000000000000000E+20
 20
-1.000000000000000E+20
 30
-1.000000000000000E+20
  9
$PLIMMIN
 10
0.0
 20
0.0
  9
$PLIMMAX
 10
420.0
 20
297.0
  9
$UNITMODE
 70
     0
  9
$VISRETAIN
 70
     1
  9
$PLINEGEN
 70
     0
  9
$PSLTSCALE
 70
     1
  9
$TREEDEPTH
 70
  3020
  9
$CMLSTYLE
  2
Standard
  9
$CMLJUST
 70
     0
  9
$CMLSCALE
 40
20.0
  9
$PROXYGRAPHICS
 70
     1
  9
$MEASUREMENT
 70
     1
  9
$CELWEIGHT
370
    -1
  9
$ENDCAPS
280
     0
  9
$JOINSTYLE
280
     0
  9
$LWDISPLAY
290
     0
  9
$INSUNITS
 70
     4
  9
$HYPERLINKBASE
  1

  9
$STYLESHEET
  1

  9
$XEDIT
290
     1
  9
$CEPSNTYPE
380
     0
  9
$PSTYLEMODE
290
     1
  9
$FINGERPRINTGUID
  2
{EB20C694-7428-4B31-9020-5923259659CF}
  9
$VERSIONGUID
  2
{FAEB1C32-E019-11D5-929B-00C0DF256EC4}
  9
$EXTNAMES
290
     1
  9
$PSVPSCALE
 40
0.0
  9
$OLESTARTUP
290
     0
  9
$SORTENTS
280
   127
  9
$INDEXCTL
280
     0
  9
$HIDETEXT
280
     1
  9
$XCLIPFRAME
290
     0
  9
$HALOGAP
280
     0
  9
$OBSCOLOR
 70
   257
  9
$OBSLTYPE
280
     0
  9
$INTERSECTIONDISPLAY
280
     0
  9
$INTERSECTIONCOLOR
 70
   257
  9
$DIMASSOC
280
     2
  9
$PROJECTNAME
  1

  0
ENDSEC
  0
SECTION
  2
CLASSES
  0
CLASS
  1
ACDBDICTIONARYWDFLT
  2
AcDbDictionaryWithDefault
  3
ObjectDBX Classes
 90
        0
 91
        4
280
     0
281
     0
  0
CLASS
  1
VISUALSTYLE
  2
AcDbVisualStyle
  3
ObjectDBX Classes
 90
     4095
 91
        4
280
     0
281
     0
  0
CLASS
  1
MATERIAL
  2
AcDbMaterial
  3
ObjectDBX Classes
 90
     1153
 91
        4
280
     0
281
     0
  0
CLASS
  1
SCALE
  2
AcDbScale
  3
ObjectDBX Classes
 90
     1153
 91
        4
280
     0
281
     0
  0
CLASS
  1
TABLESTYLE
  2
AcDbTableStyle
  3
ObjectDBX Classes
 90
     4095
 91
        4
280
     0
281
     0
  0
CLASS
  1
MLEADERSTYLE
  2
AcDbMLeaderStyle
  3
ACDB_MLEADERSTYLE_CLASS
 90
     4095
 91
        4
280
     0
281
     0
  0
CLASS
  1
SUN
  2
AcDbSun
  3
SCENEOE
 90
     1153
 91
        4
280
     0
281
     0
  0
CLASS
  1
DICTIONARYVAR
  2
AcDbDictionaryVar
  3
ObjectDBX Classes
 90
        0
 91
        4
280
     0
281
     0
  0
CLASS
  1
CELLSTYLEMAP
  2
AcDbCellStyleMap
  3
ObjectDBX Classes
 90
     1152
 91
        4
280
     0
281
     0
  0
ENDSEC
  0
SECTION
  2
TABLES
  0
TABLE
  2
VPORT
  5
8
102
{ACAD_XDICTIONARY
360
306
102
}
330
0
100
AcDbSymbolTable
 70
     1
  0
VPORT
  5
29
330
8
100
AcDbSymbolTableRecord
100
AcDbViewportTableRecord
  2
*Active
 70
     0
 10
0.0
 20
0.0
 11
1.0
 21
1.0
 12
0.0
 22
0.0
 13
0.0
 23
0.0
 14
10.0
 24
10.0
 15
10.0
 25
10.0
 16
0.0
 26
0.0
 36
1.0
 17
0.0
 27
0.0
 37
0.0
 40
653.4000000000001
 41
1.414141414141414
 42
50.0
 43
0.0
 44
0.0
 50
0.0
 51
0.0
 71
     0
 72
 10000
 73
     1
 74
     3
 75
     0
 76
     0
 77
     0
 78
     0
281
     0
 65
     1
110
0.0
120
0.0
130
0.0
111
1.0
121
0.0
131
0.0
112
0.0
122
1.0
132
0.0
 79
     0
146
0.0
  0
ENDTAB
  0
TABLE
  2
LTYPE
  5
5
330
0
100
AcDbSymbolTable
 70
     6
  0
LTYPE
  5
14
330
5
100
AcDbSymbolTableRecord
100
AcDbLinetypeTableRecord
  2
ByBlock
 70
     0
  3

 72
    65
 73
     0
 40
0.0
  0
LTYPE
  5
15
330
5
100
AcDbSymbolTableRecord
100
AcDbLinetypeTableRecord
  2
ByLayer
 70
     0
  3

 72
    65
 73
     0
 40
0.0
  0
LTYPE
  5
16
330
5
100
AcDbSymbolTableRecord
100
AcDbLinetypeTableRecord
  2
Continuous
 70
     0
  3
Solid line
 72
    65
 73
     0
 40
0.0
  0
LTYPE
  5
6F
330
5
100
AcDbSymbolTableRecord
100
AcDbLinetypeTableRecord
  2
JWW_DASHED1
 70
     0
  3
-  --  --  --  --  --  --  --  -
 72
    65
 73
     2
 40
1.693333333333333
 49
0.8466666666666667
 74
     0
 49
-0.8466666666666667
 74
     0
  0
LTYPE
  5
70
330
5
100
AcDbSymbolTableRecord
100
AcDbLinetypeTableRecord
  2
JWW_CENTER1
 70
     0
  3
-----  --  ----------  --  -----
 72
    65
 73
     4
 40
6.773333333333333
 49
4.233333333333333
 74
     0
 49
-0.8466666666666667
 74
     0
 49
0.8466666666666667
 74
     0
 49
-0.8466666666666667
 74
     0
  0
LTYPE
  5
71
330
5
100
AcDbSymbolTableRecord
100
AcDbLinetypeTableRecord
  2
JWW_CENTER2
 70
     0
  3
-------------  --  -------------
 72
    65
 73
     4
 40
13.54666666666667
 49
11.00666666666667
 74
     0
 49
-0.8466666666666667
 74
     0
 49
0.8466666666666667
 74
     0
 49
-0.8466666666666667
 74
     0
  0
LTYPE
  5
72
330
5
100
AcDbSymbolTableRecord
100
AcDbLinetypeTableRecord
  2
JWW_HOJO
 70
     0
  3
  -   -   -   -   -   -   -   - 
 72
    65
 73
     2
 40
1.693333333333333
 49
-1.27
 74
     0
 49
0.4233333333333333
 74
     0
  0
LTYPE
  5
73
330
5
100
AcDbSymbolTableRecord
100
AcDbLinetypeTableRecord
  2
JWW_PHANTOM2
 70
     0
  3
------------  -  -  ------------
 72
    65
 73
     6
 40
13.54666666666667
 49
10.16
 74
     0
 49
-0.8466666666666667
 74
     0
 49
0.4233333333333333
 74
     0
 49
-0.8466666666666667
 74
     0
 49
0.4233333333333333
 74
     0
 49
-0.8466666666666667
 74
     0
  0
ENDTAB
  0
TABLE
  2
LAYER
  5
2
330
0
100
AcDbSymbolTable
 70
     9
  0
LAYER
  5
10
330
2
100
AcDbSymbolTableRecord
100
AcDbLayerTableRecord
  2
0
 70
     0
 62
     7
  6
Continuous
370
    -3
390
F
  0
LAYER
  5
74
330
2
100
AcDbSymbolTableRecord
100
AcDbLayerTableRecord
  2
2-0
 70
     0
 62
     7
  6
Continuous
370
    -3
390
F
  0
LAYER
  5
75
330
2
100
AcDbSymbolTableRecord
100
AcDbLayerTableRecord
  2
2-4
 70
     0
 62
     7
  6
Continuous
370
    -3
390
F
  0
LAYER
  5
76
330
2
100
AcDbSymbolTableRecord
100
AcDbLayerTableRecord
  2
2-5
 70
     0
 62
     7
  6
Continuous
370
    -3
390
F
  0
LAYER
  5
77
330
2
100
AcDbSymbolTableRecord
100
AcDbLayerTableRecord
  2
2-2
 70
     0
 62
     7
  6
Continuous
370
    -3
390
F
  0
LAYER
  5
78
330
2
100
AcDbSymbolTableRecord
100
AcDbLayerTableRecord
  2
2-8
 70
     0
 62
     7
  6
Continuous
370
    -3
390
F
  0
LAYER
  5
79
330
2
100
AcDbSymbolTableRecord
100
AcDbLayerTableRecord
  2
2-1
 70
     0
 62
     7
  6
Continuous
370
    -3
390
F
  0
LAYER
  5
7A
330
2
100
AcDbSymbolTableRecord
100
AcDbLayerTableRecord
  2
F-5
 70
     0
 62
     7
  6
Continuous
370
    -3
390
F
  0
LAYER
  5
7B
330
2
100
AcDbSymbolTableRecord
100
AcDbLayerTableRecord
  2
F-0
 70
     0
 62
     7
  6
Continuous
370
    -3
390
F
  0
ENDTAB
  0
TABLE
  2
STYLE
  5
3
330
0
100
AcDbSymbolTable
 70
     2
  0
STYLE
  5
11
330
3
100
AcDbSymbolTableRecord
100
AcDbTextStyleTableRecord
  2
Standard
 70
     0
 40
0.0
 41
1.0
 50
0.0
 71
     0
 42
2.5
  3
txt
  4

  0
STYLE
  5
6E
330
3
100
AcDbSymbolTableRecord
100
AcDbTextStyleTableRecord
  2
ＭＳ ゴシック
 70
     0
 40
1.0
 41
1.0
 50
0.0
 71
     0
 42
2.5
  3

  4

1001
ACAD
1000
MS Gothic
1071
    32817
  0
ENDTAB
  0
TABLE
  2
VIEW
  5
6
330
0
100
AcDbSymbolTable
 70
     0
  0
ENDTAB
  0
TABLE
  2
UCS
  5
7
330
0
100
AcDbSymbolTable
 70
     0
  0
ENDTAB
  0
TABLE
  2
APPID
  5
9
330
0
100
AcDbSymbolTable
 70
     2
  0
APPID
  5
12
330
9
100
AcDbSymbolTableRecord
100
AcDbRegAppTableRecord
  2
ACAD
 70
     0
  0
APPID
  5
345
330
9
100
AcDbSymbolTableRecord
100
AcDbRegAppTableRecord
  2
ACAD_MLEADERVER
 70
     0
  0
ENDTAB
  0
TABLE
  2
DIMSTYLE
  5
A
330
0
100
AcDbSymbolTable
 70
     1
100
AcDbDimStyleTable
  0
DIMSTYLE
105
27
330
A
100
AcDbSymbolTableRecord
100
AcDbDimStyleTableRecord
  2
ISO-25
 70
     0
 41
2.5
 42
0.625
 43
3.75
 44
1.25
 73
     0
 74
     0
 77
     1
 78
     8
140
2.5
141
2.5
143
0.03937007874016
147
0.625
171
     3
172
     1
178
     0
271
     2
272
     2
274
     3
278
    44
283
     0
284
     8
340
11
  0
ENDTAB
  0
TABLE
  2
BLOCK_RECORD
  5
1
330
0
100
AcDbSymbolTable
 70
     1
  0
BLOCK_RECORD
  5
1F
330
1
100
AcDbSymbolTableRecord
100
AcDbBlockTableRecord
  2
*Model_Space
340
22
  0
BLOCK_RECORD
  5
1B
330
1
100
AcDbSymbolTableRecord
100
AcDbBlockTableRecord
  2
*Paper_Space
340
1E
  0
BLOCK_RECORD
  5
23
330
1
100
AcDbSymbolTableRecord
100
AcDbBlockTableRecord
  2
*Paper_Space0
340
26
  0
ENDTAB
  0
ENDSEC
  0
SECTION
  2
BLOCKS
  0
BLOCK
  5
20
330
1F
100
AcDbEntity
  8
0
100
AcDbBlockBegin
  2
*Model_Space
 70
     0
 10
0.0
 20
0.0
 30
0.0
  3
*Model_Space
  1

  0
ENDBLK
  5
21
330
1F
100
AcDbEntity
  8
0
100
AcDbBlockEnd
  0
BLOCK
  5
1C
330
1B
100
AcDbEntity
 67
     1
  8
0
100
AcDbBlockBegin
  2
*Paper_Space
 70
     0
 10
0.0
 20
0.0
 30
0.0
  3
*Paper_Space
  1

  0
ENDBLK
  5
1D
330
1B
100
AcDbEntity
 67
     1
  8
0
100
AcDbBlockEnd
  0
BLOCK
  5
24
330
23
100
AcDbEntity
  8
0
100
AcDbBlockBegin
  2
*Paper_Space0
 70
     0
 10
0.0
 20
0.0
 30
0.0
  3
*Paper_Space0
  1

  0
ENDBLK
  5
25
330
23
100
AcDbEntity
  8
0
100
AcDbBlockEnd
  0
ENDSEC
  0
SECTION
  2
ENTITIES
  0
LINE
  5
7C
330
1F
100
AcDbEntity
  8
2-0
  6
Continuous
 62
     3
370
     9
100
AcDbLine
 10
28.20817511188339
 20
-81.42594538896526
 30
0.0
 11
-70.34709462676776
 21
-81.42594538896522
 31
0.0
  0
LINE
  5
7D
330
1F
100
AcDbEntity
  8
2-4
  6
Continuous
 62
     7
370
     9
100
AcDbLine
 10
-89.56938635029474
 20
34.89388873747488
 30
0.0
 11
47.43039684528924
 21
34.89388873747488
 31
0.0
  0
LINE
  5
7E
330
1F
100
AcDbEntity
  8
2-4
  6
Continuous
 62
     7
370
     9
100
AcDbLine
 10
-89.56938635029474
 20
34.89388873747488
 30
0.0
 11
-84.61216204342568
 21
35.54651969857514
 31
0.0
  0
LINE
  5
7F
330
1F
100
AcDbEntity
  8
2-4
  6
Continuous
 62
     7
370
     9
100
AcDbLine
 10
-89.56938635029474
 20
34.89388873747488
 30
0.0
 11
-84.61216204342568
 21
34.24125777637462
 31
0.0
  0
LINE
  5
80
330
1F
100
AcDbEntity
  8
2-4
  6
Continuous
 62
     7
370
     9
100
AcDbLine
 10
47.43039684528924
 20
34.89388873747488
 30
0.0
 11
42.47317253842019
 21
35.54651969857514
 31
0.0
  0
LINE
  5
81
330
1F
100
AcDbEntity
  8
2-4
  6
Continuous
 62
     7
370
     9
100
AcDbLine
 10
47.43039684528924
 20
34.89388873747488
 30
0.0
 11
42.47317253842019
 21
34.24125777637462
 31
0.0
  0
LINE
  5
82
330
1F
100
AcDbEntity
  8
2-4
  6
Continuous
 62
     7
370
     9
100
AcDbLine
 10
-89.56938635029474
 20
35.49388873747489
 30
0.0
 11
-89.56938635029474
 21
-21.92591392875922
 31
0.0
  0
LINE
  5
83
330
1F
100
AcDbEntity
  8
2-4
  6
Continuous
 62
     7
370
     9
100
AcDbLine
 10
47.43039684528924
 20
35.49388873747489
 30
0.0
 11
47.43039684528924
 21
-21.92591392875925
 31
0.0
  0
LINE
  5
84
330
1F
100
AcDbEntity
  8
2-4
  6
Continuous
 62
     7
370
     9
100
AcDbLine
 10
-92.0694684767501
 20
51.35899110798769
 30
0.0
 11
49.93054896186596
 21
51.35899110798769
 31
0.0
  0
LINE
  5
85
330
1F
100
AcDbEntity
  8
2-4
  6
Continuous
 62
     7
370
     9
100
AcDbLine
 10
-92.0694684767501
 20
51.35899110798769
 30
0.0
 11
-87.11224416988105
 21
52.01162206908795
 31
0.0
  0
LINE
  5
86
330
1F
100
AcDbEntity
  8
2-4
  6
Continuous
 62
     7
370
     9
100
AcDbLine
 10
-92.0694684767501
 20
51.35899110798769
 30
0.0
 11
-87.11224416988105
 21
50.70636014688743
 31
0.0
  0
LINE
  5
87
330
1F
100
AcDbEntity
  8
2-4
  6
Continuous
 62
     7
370
     9
100
AcDbLine
 10
49.93054896186596
 20
51.35899110798769
 30
0.0
 11
44.97332465499691
 21
52.01162206908795
 31
0.0
  0
LINE
  5
88
330
1F
100
AcDbEntity
  8
2-4
  6
Continuous
 62
     7
370
     9
100
AcDbLine
 10
49.93054896186596
 20
51.35899110798769
 30
0.0
 11
44.97332465499691
 21
50.70636014688743
 31
0.0
  0
LINE
  5
89
330
1F
100
AcDbEntity
  8
2-4
  6
Continuous
 62
     7
370
     9
100
AcDbLine
 10
-92.0694684767501
 20
51.95899110798769
 30
0.0
 11
-92.0694684767501
 21
-19.42600677760693
 31
0.0
  0
LINE
  5
8A
330
1F
100
AcDbEntity
  8
2-4
  6
Continuous
 62
     7
370
     9
100
AcDbLine
 10
49.93054896186596
 20
51.95899110798769
 30
0.0
 11
49.93054896186596
 21
-19.42600677760696
 31
0.0
  0
LINE
  5
8B
330
1F
100
AcDbEntity
  8
2-4
  6
Continuous
 62
     7
370
     9
100
AcDbLine
 10
-121.0695252700808
 20
65.52663733377778
 30
0.0
 11
78.93057076013599
 21
65.52663733377778
 31
0.0
  0
LINE
  5
8C
330
1F
100
AcDbEntity
  8
2-4
  6
Continuous
 62
     7
370
     9
100
AcDbLine
 10
-121.0695252700808
 20
65.52663733377778
 30
0.0
 11
-116.1123009632118
 21
66.17926829487804
 31
0.0
  0
LINE
  5
8D
330
1F
100
AcDbEntity
  8
2-4
  6
Continuous
 62
     7
370
     9
100
AcDbLine
 10
-121.0695252700808
 20
65.52663733377778
 30
0.0
 11
-116.1123009632118
 21
64.87400637267753
 31
0.0
  0
LINE
  5
8E
330
1F
100
AcDbEntity
  8
2-4
  6
Continuous
 62
     7
370
     9
100
AcDbLine
 10
78.93057076013599
 20
65.52663733377778
 30
0.0
 11
73.97334645326694
 21
66.17926829487804
 31
0.0
  0
LINE
  5
8F
330
1F
100
AcDbEntity
  8
2-4
  6
Continuous
 62
     7
370
     9
100
AcDbLine
 10
78.93057076013599
 20
65.52663733377778
 30
0.0
 11
73.97334645326694
 21
64.87400637267753
 31
0.0
  0
LINE
  5
90
330
1F
100
AcDbEntity
  8
2-4
  6
Continuous
 62
     7
370
     9
100
AcDbLine
 10
-121.0695252700808
 20
66.12663733377778
 30
0.0
 11
-121.0695252700808
 21
-25.42597991271193
 31
0.0
  0
LINE
  5
91
330
1F
100
AcDbEntity
  8
2-4
  6
Continuous
 62
     7
370
     9
100
AcDbLine
 10
78.93057076013599
 20
66.12663733377778
 30
0.0
 11
78.93057076013599
 21
-25.42597991271197
 31
0.0
  0
LINE
  5
92
330
1F
100
AcDbEntity
  8
2-4
  6
Continuous
 62
     7
370
     9
100
AcDbLine
 10
-64.83519245267922
 20
-135.4078559920513
 30
0.0
 11
22.69627293779496
 21
-135.4078559920513
 31
0.0
  0
LINE
  5
93
330
1F
100
AcDbEntity
  8
2-4
  6
Continuous
 62
     7
370
     9
100
AcDbLine
 10
-64.83519245267922
 20
-135.4078559920513
 30
0.0
 11
-59.87796814581017
 21
-134.7552250309511
 31
0.0
  0
LINE
  5
94
330
1F
100
AcDbEntity
  8
2-4
  6
Continuous
 62
     7
370
     9
100
AcDbLine
 10
-64.83519245267922
 20
-135.4078559920513
 30
0.0
 11
-59.87796814581017
 21
-136.0604869531516
 31
0.0
  0
LINE
  5
95
330
1F
100
AcDbEntity
  8
2-4
  6
Continuous
 62
     7
370
     9
100
AcDbLine
 10
22.69627293779496
 20
-135.4078559920513
 30
0.0
 11
17.73904863092591
 21
-134.7552250309511
 31
0.0
  0
LINE
  5
96
330
1F
100
AcDbEntity
  8
2-4
  6
Continuous
 62
     7
370
     9
100
AcDbLine
 10
22.69627293779496
 20
-135.4078559920513
 30
0.0
 11
17.73904863092591
 21
-136.0604869531516
 31
0.0
  0
LINE
  5
97
330
1F
100
AcDbEntity
  8
2-4
  6
Continuous
 62
     7
370
     9
100
AcDbLine
 10
-64.83519245267922
 20
-136.0078559920513
 30
0.0
 11
-64.83519245267922
 21
-85.42594538896525
 31
0.0
  0
LINE
  5
98
330
1F
100
AcDbEntity
  8
2-4
  6
Continuous
 62
     7
370
     9
100
AcDbLine
 10
22.69627293779496
 20
-136.0078559920513
 30
0.0
 11
22.69627293779496
 21
-85.42594538896525
 31
0.0
  0
LINE
  5
99
330
1F
100
AcDbEntity
  8
2-4
  6
Continuous
 62
     7
370
     9
100
AcDbLine
 10
-78.0695019989547
 20
-149.3151238547728
 30
0.0
 11
35.93056498654016
 21
-149.3151238547728
 31
0.0
  0
LINE
  5
9A
330
1F
100
AcDbEntity
  8
2-4
  6
Continuous
 62
     7
370
     9
100
AcDbLine
 10
-78.0695019989547
 20
-149.3151238547728
 30
0.0
 11
-73.11227769208566
 21
-148.6624928936726
 31
0.0
  0
LINE
  5
9B
330
1F
100
AcDbEntity
  8
2-4
  6
Continuous
 62
     7
370
     9
100
AcDbLine
 10
-78.0695019989547
 20
-149.3151238547728
 30
0.0
 11
-73.11227769208566
 21
-149.9677548158731
 31
0.0
  0
LINE
  5
9C
330
1F
100
AcDbEntity
  8
2-4
  6
Continuous
 62
     7
370
     9
100
AcDbLine
 10
35.93056498654016
 20
-149.3151238547728
 30
0.0
 11
30.97334067967111
 21
-148.6624928936726
 31
0.0
  0
LINE
  5
9D
330
1F
100
AcDbEntity
  8
2-4
  6
Continuous
 62
     7
370
     9
100
AcDbLine
 10
35.93056498654016
 20
-149.3151238547728
 30
0.0
 11
30.97334067967111
 21
-149.9677548158731
 31
0.0
  0
LINE
  5
9E
330
1F
100
AcDbEntity
  8
2-4
  6
Continuous
 62
     7
370
     9
100
AcDbLine
 10
-78.0695019989547
 20
-149.9151238547728
 30
0.0
 11
-78.0695019989547
 21
-115.4260210348539
 31
0.0
  0
LINE
  5
9F
330
1F
100
AcDbEntity
  8
2-4
  6
Continuous
 62
     7
370
     9
100
AcDbLine
 10
35.93056498654016
 20
-149.9151238547728
 30
0.0
 11
35.93056498654016
 21
-115.4260210348539
 31
0.0
  0
TEXT
  5
A0
330
1F
100
AcDbEntity
  8
2-4
  6
Continuous
 62
     2
370
   211
100
AcDbText
 10
-27.56945975744213
 20
-132.2798559920513
 30
0.0
 40
6.096
  1
Rc3
 41
1.083333333333333
  7
ＭＳ ゴシック
100
AcDbText
  0
TEXT
  5
A1
330
1F
100
AcDbEntity
  8
2-4
  6
Continuous
 62
     2
370
   211
100
AcDbText
 10
-32.06946850620727
 20
-146.1871238547728
 30
0.0
 40
6.096
  1
φ114
 41
1.1
  7
ＭＳ ゴシック
100
AcDbText
  0
TEXT
  5
A2
330
1F
100
AcDbEntity
  8
2-4
  6
Continuous
 62
     2
370
   211
100
AcDbText
 10
-32.06947725497241
 20
68.65463733377779
 30
0.0
 40
6.096
  1
φ200
 41
1.1
  7
ＭＳ ゴシック
100
AcDbText
  0
TEXT
  5
A3
330
1F
100
AcDbEntity
  8
2-4
  6
Continuous
 62
     2
370
   211
100
AcDbText
 10
-32.06945975744208
 20
54.48699110798769
 30
0.0
 40
6.096
  1
φ142
 41
1.1
  7
ＭＳ ゴシック
100
AcDbText
  0
TEXT
  5
A4
330
1F
100
AcDbEntity
  8
2-4
  6
Continuous
 62
     2
370
   211
100
AcDbText
 10
-32.06949475250275
 20
38.02188873747488
 30
0.0
 40
6.096
  1
φ137
 41
1.1
  7
ＭＳ ゴシック
100
AcDbText
  0
LINE
  5
A5
330
1F
100
AcDbEntity
  8
2-4
  6
Continuous
 62
     7
370
     9
100
AcDbLine
 10
103.7265711135612
 20
-111.4260210348539
 30
0.0
 11
103.7265711135612
 21
-21.42603906261242
 31
0.0
  0
LINE
  5
A6
330
1F
100
AcDbEntity
  8
2-4
  6
Continuous
 62
     7
370
     9
100
AcDbLine
 10
103.7265711135612
 20
-111.4260210348539
 30
0.0
 11
103.0739401524609
 21
-106.4687967279848
 31
0.0
  0
LINE
  5
A7
330
1F
100
AcDbEntity
  8
2-4
  6
Continuous
 62
     7
370
     9
100
AcDbLine
 10
103.7265711135612
 20
-111.4260210348539
 30
0.0
 11
104.3792020746614
 21
-106.4687967279848
 31
0.0
  0
LINE
  5
A8
330
1F
100
AcDbEntity
  8
2-4
  6
Continuous
 62
     7
370
     9
100
AcDbLine
 10
103.7265711135612
 20
-21.42603906261242
 30
0.0
 11
103.0739401524609
 21
-26.38326336948147
 31
0.0
  0
LINE
  5
A9
330
1F
100
AcDbEntity
  8
2-4
  6
Continuous
 62
     7
370
     9
100
AcDbLine
 10
103.7265711135612
 20
-21.42603906261242
 30
0.0
 11
104.3792020746614
 21
-26.38326336948147
 31
0.0
  0
LINE
  5
AA
330
1F
100
AcDbEntity
  8
2-4
  6
Continuous
 62
     7
370
     9
100
AcDbLine
 10
104.3265711135612
 20
-111.4260210348539
 30
0.0
 11
39.93056498654016
 21
-111.4260210348539
 31
0.0
  0
LINE
  5
AB
330
1F
100
AcDbEntity
  8
2-4
  6
Continuous
 62
     7
370
     9
100
AcDbLine
 10
104.3265711135612
 20
-21.42603906261242
 30
0.0
 11
80.93060304514142
 21
-21.42603906261242
 31
0.0
  0
LINE
  5
AC
330
1F
100
AcDbEntity
  8
2-4
  6
Continuous
 62
     7
370
     9
100
AcDbLine
 10
103.7265711135612
 20
-21.42603906261242
 30
0.0
 11
103.7265711135612
 21
13.57413084606325
 31
0.0
  0
LINE
  5
AD
330
1F
100
AcDbEntity
  8
2-4
  6
Continuous
 62
     7
370
     9
100
AcDbLine
 10
103.7265711135612
 20
-21.42603906261242
 30
0.0
 11
103.0739401524609
 21
-16.46881475574337
 31
0.0
  0
LINE
  5
AE
330
1F
100
AcDbEntity
  8
2-4
  6
Continuous
 62
     7
370
     9
100
AcDbLine
 10
103.7265711135612
 20
-21.42603906261242
 30
0.0
 11
104.3792020746614
 21
-16.46881475574337
 31
0.0
  0
LINE
  5
AF
330
1F
100
AcDbEntity
  8
2-4
  6
Continuous
 62
     7
370
     9
100
AcDbLine
 10
103.7265711135612
 20
13.57413084606325
 30
0.0
 11
103.0739401524609
 21
8.6169065391942
 31
0.0
  0
LINE
  5
B0
330
1F
100
AcDbEntity
  8
2-4
  6
Continuous
 62
     7
370
     9
100
AcDbLine
 10
103.7265711135612
 20
13.57413084606325
 30
0.0
 11
104.3792020746614
 21
8.6169065391942
 31
0.0
  0
TEXT
  5
B1
330
1F
100
AcDbEntity
  8
2-4
  6
Continuous
 62
     2
370
   211
100
AcDbText
 10
100.5985711135612
 20
-8.175954108274585
 30
0.0
 40
6.096
  1
35
 50
90.0
 41
1.0625
  7
ＭＳ ゴシック
100
AcDbText
  0
LINE
  5
B2
330
1F
100
AcDbEntity
  8
2-4
  6
Continuous
 62
     7
370
     9
100
AcDbLine
 10
90.29546251374751
 20
-21.42603906261242
 30
0.0
 11
89.64283155264725
 21
-26.38326336948147
 31
0.0
  0
LINE
  5
B3
330
1F
100
AcDbEntity
  8
2-4
  6
Continuous
 62
     7
370
     9
100
AcDbLine
 10
90.29546251374751
 20
-21.42603906261242
 30
0.0
 11
90.94809347484777
 21
-26.38326336948147
 31
0.0
  0
LINE
  5
B4
330
1F
100
AcDbEntity
  8
2-4
  6
Continuous
 62
     7
370
     9
100
AcDbLine
 10
-128.4271956236402
 20
-31.42594762770649
 30
0.0
 11
-128.4271956236402
 21
13.57413084606327
 31
0.0
  0
LINE
  5
B5
330
1F
100
AcDbEntity
  8
2-4
  6
Continuous
 62
     7
370
     9
100
AcDbLine
 10
-128.4271956236402
 20
-31.42594762770649
 30
0.0
 11
-129.0798265847405
 21
-26.46872332083744
 31
0.0
  0
LINE
  5
B6
330
1F
100
AcDbEntity
  8
2-4
  6
Continuous
 62
     7
370
     9
100
AcDbLine
 10
-128.4271956236402
 20
-31.42594762770649
 30
0.0
 11
-127.7745646625399
 21
-26.46872332083744
 31
0.0
  0
LINE
  5
B7
330
1F
100
AcDbEntity
  8
2-4
  6
Continuous
 62
     7
370
     9
100
AcDbLine
 10
-128.4271956236402
 20
13.57413084606327
 30
0.0
 11
-129.0798265847405
 21
8.616906539194215
 31
0.0
  0
LINE
  5
B8
330
1F
100
AcDbEntity
  8
2-4
  6
Continuous
 62
     7
370
     9
100
AcDbLine
 10
-128.4271956236402
 20
13.57413084606327
 30
0.0
 11
-127.7745646625399
 21
8.616906539194215
 31
0.0
  0
LINE
  5
B9
330
1F
100
AcDbEntity
  8
2-4
  6
Continuous
 62
     7
370
     9
100
AcDbLine
 10
-129.0271956236402
 20
-31.42594762770649
 30
0.0
 11
-91.73480529183672
 21
-31.42594762770649
 31
0.0
  0
TEXT
  5
BA
330
1F
100
AcDbEntity
  8
2-4
  6
Continuous
 62
     2
370
   211
100
AcDbText
 10
-131.5551956236402
 20
-13.17590839082161
 30
0.0
 40
6.096
  1
45
 50
90.0
 41
1.0625
  7
ＭＳ ゴシック
100
AcDbText
  0
LINE
  5
BB
330
1F
100
AcDbEntity
  8
2-4
  6
Continuous
 62
     7
370
     9
100
AcDbLine
 10
-129.0271956236402
 20
13.57413084606327
 30
0.0
 11
-40.06957299061804
 21
13.57413084606326
 31
0.0
  0
LINE
  5
BC
330
1F
100
AcDbEntity
  8
2-4
  6
Continuous
 62
     7
370
     9
100
AcDbLine
 10
104.3265711135612
 20
13.57413084606325
 30
0.0
 11
-2.069486504508632
 21
13.57413084606326
 31
0.0
  0
LINE
  5
BD
330
1F
100
AcDbEntity
  8
2-5
  6
Continuous
 62
     7
370
     9
100
AcDbLine
 10
-120.0695064175229
 20
-30.42599876526983
 30
0.0
 11
-123.1133131637223
 21
-34.39275604989822
 31
0.0
  0
LINE
  5
BE
330
1F
100
AcDbEntity
  8
2-5
  6
Continuous
 62
     7
370
     9
100
AcDbLine
 10
-120.0695064175229
 20
-30.42599876526983
 30
0.0
 11
-121.9829338219782
 21
-35.04540332608061
 31
0.0
  0
TEXT
  5
BF
330
1F
100
AcDbEntity
  8
2-5
  6
Continuous
 62
     7
370
     9
100
AcDbText
 10
-143.4259242170713
 20
-132.9665946201579
 30
0.0
 40
4.572
  1
スペーサー
 41
1.133333333333333
  7
ＭＳ ゴシック
100
AcDbText
  0
LINE
  5
C0
330
1F
100
AcDbEntity
  8
2-5
  6
Continuous
 62
     7
370
     9
100
AcDbLine
 10
-91.9259093706819
 20
-135.4260012396681
 30
0.0
 11
-161.7013170362255
 21
-135.4260012396681
 31
0.0
  0
LINE
  5
C1
330
1F
100
AcDbEntity
  8
2-5
  6
Continuous
 62
     7
370
     9
100
AcDbLine
 10
-78.0695019989547
 20
-111.4260210348539
 30
0.0
 11
-91.9259093706819
 21
-135.4260012396681
 31
0.0
  0
LINE
  5
C2
330
1F
100
AcDbEntity
  8
2-5
  6
Continuous
 62
     7
370
     9
100
AcDbLine
 10
-78.0695019989547
 20
-111.4260210348539
 30
0.0
 11
-81.11330874515409
 21
-115.3927783194823
 31
0.0
  0
LINE
  5
C3
330
1F
100
AcDbEntity
  8
2-5
  6
Continuous
 62
     7
370
     9
100
AcDbLine
 10
-78.0695019989547
 20
-111.4260210348539
 30
0.0
 11
-79.9829541473922
 21
-116.0454255956647
 31
0.0
  0
LINE
  5
C4
330
1F
100
AcDbEntity
  8
2-5
  6
Continuous
 62
     7
370
     9
100
AcDbLine
 10
-100.0694093268497
 20
-72.42591569618652
 30
0.0
 11
-113.9257919545947
 21
-96.42592064498295
 31
0.0
  0
LINE
  5
C5
330
1F
100
AcDbEntity
  8
2-5
  6
Continuous
 62
     7
370
     9
100
AcDbLine
 10
-100.0694093268497
 20
-72.42591569618652
 30
0.0
 11
-103.113216073049
 21
-76.39267298081491
 31
0.0
  0
LINE
  5
C6
330
1F
100
AcDbEntity
  8
2-5
  6
Continuous
 62
     7
370
     9
100
AcDbLine
 10
-100.0694093268497
 20
-72.42591569618652
 30
0.0
 11
-101.982836731305
 21
-77.0453202569973
 31
0.0
  0
LINE
  5
C7
330
1F
100
AcDbEntity
  8
2-5
  6
Continuous
 62
     7
370
     9
100
AcDbLine
 10
-40.06955032908473
 20
12.8510113879378
 30
0.0
 11
-43.113357075284
 21
16.81776867256619
 31
0.0
  0
LINE
  5
C8
330
1F
100
AcDbEntity
  8
2-5
  6
Continuous
 62
     7
370
     9
100
AcDbLine
 10
-40.06955032908473
 20
12.8510113879378
 30
0.0
 11
-41.98300247752223
 21
17.47041594874858
 31
0.0
  0
LINE
  5
C9
330
1F
100
AcDbEntity
  8
2-5
  6
Continuous
 62
     7
370
     9
100
AcDbLine
 10
-166.7584407597443
 20
81.15260636411517
 30
0.0
 11
-79.50352971110163
 21
81.15260636411517
 31
0.0
  0
LINE
  5
CA
330
1F
100
AcDbEntity
  8
2-5
  6
Continuous
 62
     7
370
     9
100
AcDbLine
 10
-40.06955032908473
 20
12.8510113879378
 30
0.0
 11
-79.50352971110163
 21
81.15260636411517
 31
0.0
  0
LINE
  5
CB
330
1F
100
AcDbEntity
  8
2-5
  6
Continuous
 62
     7
370
     9
100
AcDbLine
 10
42.43054754792411
 20
-20.56113613914623
 30
0.0
 11
43.08319482410661
 21
-15.6039019884917
 31
0.0
  0
LINE
  5
CC
330
1F
100
AcDbEntity
  8
2-5
  6
Continuous
 62
     7
370
     9
100
AcDbLine
 10
42.43054754792411
 20
-20.56113613914623
 30
0.0
 11
44.34395020839713
 21
-15.94173157833545
 31
0.0
  0
LINE
  5
CD
330
1F
100
AcDbEntity
  8
2-5
  6
Continuous
 62
     7
370
     9
100
AcDbLine
 10
42.43054754792411
 20
-20.56113613914623
 30
0.0
 11
68.9497227931736
 21
78.40961310495095
 31
0.0
  0
LINE
  5
CE
330
1F
100
AcDbEntity
  8
2-2
  6
Continuous
 62
     7
370
     9
100
AcDbLine
 10
41.76214188989437
 20
-84.7805719009404
 30
0.0
 11
24.26531147619384
 21
-87.86573644606591
 31
0.0
  0
LINE
  5
CF
330
1F
100
AcDbEntity
  8
2-2
  6
Continuous
 62
     7
370
     9
100
AcDbLine
 10
42.63043933424164
 20
-89.7046218969814
 30
0.0
 11
25.13346894029857
 21
-92.78982143716746
 31
0.0
  0
LINE
  5
D0
330
1F
100
AcDbEntity
  8
2-2
  6
Continuous
 62
     4
370
     9
100
AcDbLine
 10
32.43049900258743
 20
-91.50315804299066
 30
0.0
 11
32.43049900258742
 21
-111.4260210348539
 31
0.0
  0
LINE
  5
D1
330
1F
100
AcDbEntity
  8
2-2
  6
Continuous
 62
     7
370
     9
100
AcDbLine
 10
-68.7377891215265
 20
-84.78057190094037
 30
0.0
 11
-86.2346895253483
 21
-87.86573644606588
 31
0.0
  0
LINE
  5
D2
330
1F
100
AcDbEntity
  8
2-2
  6
Continuous
 62
     7
370
     9
100
AcDbLine
 10
-67.8695616673005
 20
-89.70462189698137
 30
0.0
 11
-85.36649706618294
 21
-92.78982143716743
 31
0.0
  0
LINE
  5
D3
330
1F
100
AcDbEntity
  8
2-2
  6
Continuous
 62
     4
370
     9
100
AcDbLine
 10
-78.0695019989547
 20
-91.50315804299063
 30
0.0
 11
-78.0695019989547
 21
-111.4260210348538
 31
0.0
  0
LINE
  5
D4
330
1F
100
AcDbEntity
  8
2-2
  6
Continuous
 62
     4
370
     9
100
AcDbLine
 10
-74.569436015002
 20
-90.88595015866238
 30
0.0
 11
-74.569436015002
 21
-111.4260210348538
 31
0.0
  0
LINE
  5
D5
330
1F
100
AcDbEntity
  8
2-2
  6
Continuous
 62
     4
370
     9
100
AcDbLine
 10
-78.0695019989547
 20
-111.4260210348538
 30
0.0
 11
35.93056498654013
 21
-111.4260210348539
 31
0.0
  0
LINE
  5
D6
330
1F
100
AcDbEntity
  8
2-2
  6
Continuous
 62
     4
370
     9
100
AcDbLine
 10
35.93056498654014
 20
-90.88595015866241
 30
0.0
 11
35.93056498654013
 21
-111.4260210348539
 31
0.0
  0
LINE
  5
D7
330
1F
100
AcDbEntity
  8
2-8
  6
Continuous
 62
     4
370
     9
100
AcDbLine
 10
47.24901744604482
 20
-22.38686344726494
 30
0.0
 11
47.43050183047113
 21
-24.46112567597663
 31
0.0
  0
LINE
  5
D8
330
1F
100
AcDbEntity
  8
2-8
  6
Continuous
 62
     4
370
     9
100
AcDbLine
 10
39.60427646133802
 20
-20.56113613914624
 30
0.0
 11
45.2566086641463
 21
-20.56113613914624
 31
0.0
  0
LINE
  5
D9
330
1F
100
AcDbEntity
  8
2-8
  6
Continuous
 62
     4
370
     9
100
AcDbLine
 10
37.43052327525577
 20
-24.46112567597663
 30
0.0
 11
47.43050183047113
 21
-24.46112567597663
 31
0.0
  0
LINE
  5
DA
330
1F
100
AcDbEntity
  8
2-8
  6
Continuous
 62
     4
370
     9
100
AcDbLine
 10
37.61200765968202
 20
-22.38686344726494
 30
0.0
 11
37.43052327525577
 21
-24.46112567597663
 31
0.0
  0
LINE
  5
DB
330
1F
100
AcDbEntity
  8
2-8
  6
Continuous
 62
     4
370
     9
100
AcDbLine
 10
39.93057040665052
 20
-36.4611419363078
 30
0.0
 11
39.43056098037157
 21
-35.96113251002885
 31
0.0
  0
LINE
  5
DC
330
1F
100
AcDbEntity
  8
2-8
  6
Continuous
 62
     4
370
     9
100
AcDbLine
 10
39.43056098037157
 20
-35.96113251002885
 30
0.0
 11
45.43053411547656
 21
-35.96113251002885
 31
0.0
  0
LINE
  5
DD
330
1F
100
AcDbEntity
  8
2-8
  6
Continuous
 62
     4
370
     9
100
AcDbLine
 10
39.93057040665052
 20
-36.4611419363078
 30
0.0
 11
44.93052468919761
 21
-36.4611419363078
 31
0.0
  0
LINE
  5
DE
330
1F
100
AcDbEntity
  8
2-8
  6
Continuous
 62
     4
370
     9
100
AcDbLine
 10
45.43053411547656
 20
-35.96113251002885
 30
0.0
 11
44.93052468919761
 21
-36.4611419363078
 31
0.0
  0
LINE
  5
DF
330
1F
100
AcDbEntity
  8
2-8
  6
Continuous
 62
     4
370
     9
100
AcDbLine
 10
39.43049099025033
 20
-24.46112567597663
 30
0.0
 11
39.43049099025033
 21
-35.96113251002885
 31
0.0
  0
LINE
  5
E0
330
1F
100
AcDbEntity
  8
2-8
  6
Continuous
 62
     4
370
     9
100
AcDbLine
 10
44.93052468919761
 20
-24.46112567597663
 30
0.0
 11
44.93052468919761
 21
-36.4611419363078
 31
0.0
  0
LINE
  5
E1
330
1F
100
AcDbEntity
  8
2-8
  6
Continuous
 62
     4
370
     9
100
AcDbLine
 10
39.93057040665052
 20
-24.46112567597663
 30
0.0
 11
39.93057040665052
 21
-36.4611419363078
 31
0.0
  0
LINE
  5
E2
330
1F
100
AcDbEntity
  8
2-8
  6
Continuous
 62
     4
370
     9
100
AcDbLine
 10
45.43046412535527
 20
-24.46112567597663
 30
0.0
 11
45.43046412535527
 21
-35.96113251002885
 31
0.0
  0
LINE
  5
E3
330
1F
100
AcDbEntity
  8
2-1
  6
Continuous
 62
     6
370
     5
100
AcDbLine
 10
-27.06953787772898
 20
13.50207601622903
 30
0.0
 11
-25.5695095988921
 21
9.032856823193882
 31
0.0
  0
LINE
  5
E4
330
1F
100
AcDbEntity
  8
2-1
  6
Continuous
 62
     6
370
     5
100
AcDbLine
 10
-34.56946930154957
 20
13.20930733899986
 30
0.0
 11
-36.06949758038642
 21
8.615435740001331
 31
0.0
  0
LINE
  5
E5
330
1F
100
AcDbEntity
  8
2-1
  6
Continuous
 62
     6
370
     5
100
AcDbLine
 10
-41.06952185305475
 20
11.76961054468883
 30
0.0
 11
-40.06957299061808
 21
12.85102790827172
 31
0.0
  0
LINE
  5
E6
330
1F
100
AcDbEntity
  8
2-1
  6
Continuous
 62
     6
370
     5
100
AcDbLine
 10
-41.06952185305475
 20
11.76961054468883
 30
0.0
 11
-39.56949357421787
 21
8.376069525293317
 31
0.0
  0
LINE
  5
E7
330
1F
100
AcDbEntity
  8
2-1
  6
Continuous
 62
     6
370
     5
100
AcDbLine
 10
-62.0694978160434
 20
10.11966342611376
 30
0.0
 11
-61.06954895360673
 21
9.3402534357663
 31
0.0
  0
LINE
  5
E8
330
1F
100
AcDbEntity
  8
2-1
  6
Continuous
 62
     6
370
     5
100
AcDbLine
 10
-61.06954895360673
 20
9.3402534357663
 30
0.0
 11
-62.56957723244361
 21
5.141861016945398
 31
0.0
  0
LINE
  5
E9
330
1F
100
AcDbEntity
  8
2-1
  6
Continuous
 62
     6
370
     5
100
AcDbLine
 10
46.57966692137818
 20
-30.60478853002763
 30
0.0
 11
47.43039684528922
 21
-25.92591392875926
 31
0.0
  0
LINE
  5
EA
330
1F
100
AcDbEntity
  8
2-1
  6
JWW_DASHED1
 62
     6
370
     5
100
AcDbLine
 10
-15.06952161739776
 20
13.50207601622903
 30
0.0
 11
-16.56951490117402
 21
9.032856823193882
 31
0.0
  0
LINE
  5
EB
330
1F
100
AcDbEntity
  8
2-1
  6
JWW_DASHED1
 62
     6
370
     5
100
AcDbLine
 10
-7.569520203455914
 20
13.20930733899986
 30
0.0
 11
-6.069561914740326
 21
8.615435740001331
 31
0.0
  0
LINE
  5
EC
330
1F
100
AcDbEntity
  8
2-1
  6
Continuous
 62
     6
370
     5
100
AcDbLine
 10
46.43044798285256
 20
-24.87945663074555
 30
0.0
 11
47.43039684528922
 21
-25.92591392875926
 31
0.0
  0
LINE
  5
ED
330
1F
100
AcDbEntity
  8
2-1
  6
Continuous
 62
     6
370
     5
100
AcDbLine
 10
37.46786300494777
 20
-30.29564216442378
 30
0.0
 11
38.68037186564997
 21
-25.52819506470126
 31
0.0
  0
LINE
  5
EE
330
1F
100
AcDbEntity
  8
2-1
  6
Continuous
 62
     6
370
     5
100
AcDbLine
 10
45.43042913029466
 20
-31.42591263264592
 30
0.0
 11
45.59581578683121
 21
-31.42591263264592
 31
0.0
  0
LINE
  5
EF
330
1F
100
AcDbEntity
  8
2-1
  6
Continuous
 62
     6
370
     5
100
AcDbLine
 10
32.78349417916051
 20
-29.20236147528738
 30
0.0
 11
25.11628636552933
 21
-0.587285343945382
 31
0.0
  0
LINE
  5
F0
330
1F
100
AcDbEntity
  8
2-1
  6
Continuous
 62
     6
370
     5
100
AcDbLine
 10
-88.71865642638365
 20
-30.60478853002761
 30
0.0
 11
-89.56938635029472
 21
-25.92591392875923
 31
0.0
  0
LINE
  5
F1
330
1F
100
AcDbEntity
  8
2-1
  6
Continuous
 62
     6
370
     5
100
AcDbLine
 10
-87.56941863530015
 20
-31.42591263264589
 30
0.0
 11
-87.73480529183674
 21
-31.42591263264589
 31
0.0
  0
LINE
  5
F2
330
1F
100
AcDbEntity
  8
2-1
  6
Continuous
 62
     6
370
     5
100
AcDbLine
 10
-74.9226236644085
 20
-29.20232648022673
 30
0.0
 11
-67.25527587053483
 21
-0.5872853439453536
 31
0.0
  0
LINE
  5
F3
330
1F
100
AcDbEntity
  8
2-1
  6
Continuous
 62
     6
370
     5
100
AcDbLine
 10
-65.69299137883749
 20
2.574098443231918
 30
0.0
 11
-70.89490215627927
 21
2.574098443231918
 31
0.0
  0
LINE
  5
F4
330
1F
100
AcDbEntity
  8
2-1
  6
Continuous
 62
     6
370
     5
100
AcDbLine
 10
38.68037186564997
 20
-25.52819506470126
 30
0.0
 11
37.68042300321336
 21
-24.48170277162694
 31
0.0
  0
LINE
  5
F5
330
1F
100
AcDbEntity
  8
2-1
  6
JWW_DASHED1
 62
     6
370
     5
100
AcDbLine
 10
-1.069467651950738
 20
11.76961054468883
 30
0.0
 11
-2.069486504508639
 21
12.85102790827172
 31
0.0
  0
LINE
  5
F6
330
1F
100
AcDbEntity
  8
2-1
  6
JWW_DASHED1
 62
     6
370
     5
100
AcDbLine
 10
-1.069467651950738
 20
11.76961054468883
 30
0.0
 11
-2.569495930787589
 21
8.376069525293317
 31
0.0
  0
LINE
  5
F7
330
1F
100
AcDbEntity
  8
2-1
  6
JWW_DASHED1
 62
     6
370
     5
100
AcDbLine
 10
19.93050831103789
 20
10.11966342611373
 30
0.0
 11
18.93048945847999
 21
9.340253435766272
 31
0.0
  0
LINE
  5
F8
330
1F
100
AcDbEntity
  8
2-1
  6
JWW_DASHED1
 62
     6
370
     5
100
AcDbLine
 10
18.93048945847999
 20
9.340253435766272
 30
0.0
 11
20.4305177373169
 21
5.14186101694537
 31
0.0
  0
LINE
  5
F9
330
1F
100
AcDbEntity
  8
2-1
  6
JWW_DASHED1
 62
     6
370
     5
100
AcDbLine
 10
23.5539668787714
 20
2.57409844323189
 30
0.0
 11
28.75584266115253
 21
2.57409844323189
 31
0.0
  0
LINE
  5
FA
330
1F
100
AcDbEntity
  8
2-1
  6
Continuous
 62
     6
370
     5
100
AcDbLine
 10
-80.03144758057495
 20
-25.4918701917675
 30
0.0
 11
-89.56938635029472
 21
-25.92591392875923
 31
0.0
  0
LINE
  5
FB
330
1F
100
AcDbEntity
  8
2-1
  6
Continuous
 62
     6
370
     5
100
AcDbLine
 10
35.7801212208925
 20
-22.99868209225616
 30
0.0
 11
29.46281287599628
 21
0.5774202639365171
 31
0.0
  0
LINE
  5
FC
330
1F
100
AcDbEntity
  8
2-1
  6
Continuous
 62
     6
370
     5
100
AcDbLine
 10
45.43046412535527
 20
-24.83396305192679
 30
0.0
 11
46.43044798285256
 21
-24.87945663074555
 31
0.0
  0
LINE
  5
FD
330
1F
100
AcDbEntity
  8
2-1
  6
Continuous
 62
     6
370
     5
100
AcDbLine
 10
37.62107138038515
 20
-24.47900815195845
 30
0.0
 11
39.43052598531095
 21
-24.56128153949919
 31
0.0
  0
LINE
  5
FE
330
1F
100
AcDbEntity
  8
2-1
  6
Continuous
 62
     6
370
     5
100
AcDbLine
 10
-87.73480529183674
 20
-31.42594762770651
 30
0.0
 11
39.43049099025033
 21
-31.42594762770653
 31
0.0
  0
LINE
  5
FF
330
1F
100
AcDbEntity
  8
2-1
  6
Continuous
 62
     6
370
     5
100
AcDbLine
 10
-79.77999057241935
 20
-29.94359185448766
 30
0.0
 11
-71.60194236124428
 21
0.5774202639365456
 31
0.0
  0
LINE
  5
100
330
1F
100
AcDbEntity
  8
2-8
  6
JWW_CENTER1
 62
     4
370
     9
100
AcDbLine
 10
42.43054754792409
 20
-19.10873613782655
 30
0.0
 11
42.43054754792409
 21
-44.8423189769087
 31
0.0
  0
LINE
  5
101
330
1F
100
AcDbEntity
  8
2-0
  6
JWW_CENTER2
 62
     3
370
     9
100
AcDbLine
 10
-21.06945975744211
 20
18.2159456781272
 30
0.0
 11
-21.06945975744213
 21
-116.5831731297501
 31
0.0
  0
ARC
  5
102
330
1F
100
AcDbEntity
  8
2-8
  6
Continuous
 62
     4
370
     9
100
AcDbCircle
 10
45.2566086641463
 20
-22.56113884920143
 30
0.0
 40
1.999999976066088
100
AcDbArc
 50
5.000015258789066
 51
90.0
  0
ARC
  5
103
330
1F
100
AcDbEntity
  8
2-8
  6
Continuous
 62
     4
370
     9
100
AcDbCircle
 10
39.60427646133802
 20
-22.56113884920143
 30
0.0
 40
1.999999976066088
100
AcDbArc
 50
90.0
 51
174.9999847412109
  0
ARC
  5
104
330
1F
100
AcDbEntity
  8
2-1
  6
Continuous
 62
     6
370
     5
100
AcDbCircle
 10
-21.0694947525028
 20
-236.425857960228
 30
0.0
 40
245.4999739599044
100
AcDbArc
 50
80.8783874511719
 51
99.12161254882814
  0
ARC
  5
105
330
1F
100
AcDbEntity
  8
2-1
  6
Continuous
 62
     6
370
     5
100
AcDbCircle
 10
-21.0694947525028
 20
-236.425857960228
 30
0.0
 40
249.9999888062937
100
AcDbArc
 50
80.87840270996095
 51
99.12159729003906
  0
ARC
  5
106
330
1F
100
AcDbEntity
  8
2-1
  6
Continuous
 62
     6
370
     5
100
AcDbCircle
 10
-58.5619428891159
 20
-2.916696559709109
 30
0.0
 40
13.49999970174664
100
AcDbArc
 50
99.12167358398439
 51
165.0000152587891
  0
ARC
  5
107
330
1F
100
AcDbEntity
  8
2-1
  6
Continuous
 62
     6
370
     5
100
AcDbCircle
 10
-58.56201287923717
 20
-2.91662656958782
 30
0.0
 40
9.00000016569631
100
AcDbArc
 50
99.12141418457033
 51
165.0000152587891
  0
ARC
  5
108
330
1F
100
AcDbEntity
  8
2-1
  6
JWW_DASHED1
 62
     6
370
     5
100
AcDbCircle
 10
-21.0694947525028
 20
-236.425857960228
 30
0.0
 40
249.0000049487964
100
AcDbArc
 50
94.6070404052735
 51
99.24420166015626
  0
ARC
  5
109
330
1F
100
AcDbEntity
  8
2-1
  6
Continuous
 62
     6
370
     5
100
AcDbCircle
 10
45.59581578683121
 20
-30.42589378008796
 30
0.0
 40
0.9999999880330442
100
AcDbArc
 50
270.0
 51
349.6943969726562
  0
ARC
  5
10A
330
1F
100
AcDbEntity
  8
2-1
  6
Continuous
 62
     6
370
     5
100
AcDbCircle
 10
16.42288339398919
 20
-2.916696559709109
 30
0.0
 40
13.49999970174664
100
AcDbArc
 50
14.99998474121094
 51
80.87832641601562
  0
ARC
  5
10B
330
1F
100
AcDbEntity
  8
2-1
  6
Continuous
 62
     6
370
     5
100
AcDbCircle
 10
16.42295338411042
 20
-2.91662656958782
 30
0.0
 40
9.00000016569631
100
AcDbArc
 50
14.99998474121094
 51
80.87858581542969
  0
ARC
  5
10C
330
1F
100
AcDbEntity
  8
2-1
  6
Continuous
 62
     6
370
     5
100
AcDbCircle
 10
35.68136515979516
 20
-28.42589107003278
 30
0.0
 40
2.999999964099133
100
AcDbArc
 50
194.9997253417968
 51
270.0
  0
ARC
  5
10D
330
1F
100
AcDbEntity
  8
2-1
  6
Continuous
 62
     6
370
     5
100
AcDbCircle
 10
37.71191855778021
 20
-22.48103515541976
 30
0.0
 40
1.999999976066088
100
AcDbArc
 50
194.9997711181641
 51
267.3983001708984
  0
ARC
  5
10E
330
1F
100
AcDbEntity
  8
2-1
  6
Continuous
 62
     6
370
     5
100
AcDbCircle
 10
36.01409819626353
 20
-29.92588435380901
 30
0.0
 40
1.499999982049566
100
AcDbArc
 50
270.0
 51
345.7299499511719
  0
ARC
  5
10F
330
1F
100
AcDbEntity
  8
2-1
  6
Continuous
 62
     6
370
     5
100
AcDbCircle
 10
-87.73480529183674
 20
-30.42589378008793
 30
0.0
 40
0.9999999880330442
100
AcDbArc
 50
190.3056030273438
 51
270.0
  0
ARC
  5
110
330
1F
100
AcDbEntity
  8
2-1
  6
Continuous
 62
     6
370
     5
100
AcDbCircle
 10
-77.82035466480066
 20
-28.42589107003275
 30
0.0
 40
2.999999964099133
100
AcDbArc
 50
270.0
 51
345.0002746582031
  0
ARC
  5
111
330
1F
100
AcDbEntity
  8
2-1
  6
JWW_DASHED1
 62
     6
370
     5
100
AcDbCircle
 10
-21.0694947525028
 20
-236.425857960228
 30
0.0
 40
249.0000049487964
100
AcDbArc
 50
80.75579833984376
 51
85.39295959472656
  0
ARC
  5
112
330
1F
100
AcDbEntity
  8
2-1
  6
Continuous
 62
     6
370
     5
100
AcDbCircle
 10
-80.12238224562155
 20
-23.49393219028943
 30
0.0
 40
1.999999976066088
100
AcDbArc
 50
272.6059722900391
 51
345.0008392333984
  0
ARC
  5
113
330
1F
100
AcDbEntity
  8
2-1
  6
Continuous
 62
     6
370
     5
100
AcDbCircle
 10
-81.71184040189796
 20
-29.42594491765132
 30
0.0
 40
1.999999976066088
100
AcDbArc
 50
274.0734405517578
 51
344.9997406005859
  0
LINE
  5
114
330
1F
100
AcDbEntity
  8
2-0
  6
JWW_CENTER2
 62
     3
370
     9
100
AcDbLine
 10
-138.2834818599453
 20
143.4536954754708
 30
0.0
 11
96.14457109382633
 21
143.4536954754708
 31
0.0
  0
LINE
  5
115
330
1F
100
AcDbEntity
  8
2-8
  6
Continuous
 62
     4
370
     9
100
AcDbLine
 10
43.03064284760435
 20
145.0539671054818
 30
0.0
 11
43.03064284760435
 21
146.2038348076566
 31
0.0
  0
LINE
  5
116
330
1F
100
AcDbEntity
  8
2-8
  6
Continuous
 62
     4
370
     9
100
AcDbLine
 10
41.83045224824387
 20
146.2038348076566
 30
0.0
 11
43.03064284760435
 21
146.2038348076566
 31
0.0
  0
LINE
  5
117
330
1F
100
AcDbEntity
  8
2-8
  6
Continuous
 62
     4
370
     9
100
AcDbLine
 10
41.83045224824387
 20
145.0539671054818
 30
0.0
 11
41.83045224824387
 21
146.2038348076566
 31
0.0
  0
LINE
  5
118
330
1F
100
AcDbEntity
  8
2-8
  6
Continuous
 62
     4
370
     9
100
AcDbLine
 10
47.39431693777991
 20
144.0539832479845
 30
0.0
 11
37.46663817782579
 21
144.0539832479845
 31
0.0
  0
LINE
  5
119
330
1F
100
AcDbEntity
  8
2-8
  6
Continuous
 62
     4
370
     9
100
AcDbLine
 10
-85.16949237236727
 20
145.0539671054818
 30
0.0
 11
-85.16949237236727
 21
146.2038348076566
 31
0.0
  0
LINE
  5
11A
330
1F
100
AcDbEntity
  8
2-8
  6
Continuous
 62
     4
370
     9
100
AcDbLine
 10
-83.96930177300675
 20
146.2038348076566
 30
0.0
 11
-85.16949237236727
 21
146.2038348076566
 31
0.0
  0
LINE
  5
11B
330
1F
100
AcDbEntity
  8
2-8
  6
Continuous
 62
     4
370
     9
100
AcDbLine
 10
-83.96930177300675
 20
145.0539671054818
 30
0.0
 11
-83.96930177300675
 21
146.2038348076566
 31
0.0
  0
LINE
  5
11C
330
1F
100
AcDbEntity
  8
2-8
  6
Continuous
 62
     4
370
     9
100
AcDbLine
 10
-89.53320145760344
 20
144.0539832479845
 30
0.0
 11
-79.60552269764929
 21
144.0539832479845
 31
0.0
  0
LINE
  5
11D
330
1F
100
AcDbEntity
  8
2-8
  6
JWW_CENTER2
 62
     4
370
     9
100
AcDbLine
 10
-84.569397072687
 20
143.4538529532436
 30
0.0
 11
-84.569397072687
 21
150.3742311779737
 31
0.0
  0
LINE
  5
11E
330
1F
100
AcDbEntity
  8
2-1
  6
Continuous
 62
     6
370
     5
100
AcDbLine
 10
-40.61392115871501
 20
151.8509877414917
 30
0.0
 11
-55.48101274632659
 21
160.4344712275936
 31
0.0
  0
LINE
  5
11F
330
1F
100
AcDbEntity
  8
2-1
  6
Continuous
 62
     6
370
     5
100
AcDbLine
 10
-59.36112508871923
 20
145.9536901142746
 30
0.0
 11
-42.19408812639417
 21
145.9536901142746
 31
0.0
  0
LINE
  5
120
330
1F
100
AcDbEntity
  8
2-1
  6
Continuous
 62
     6
370
     5
100
AcDbLine
 10
-40.11391173243603
 20
152.716958014307
 30
0.0
 11
-54.98103831510829
 21
161.3004939929999
 31
0.0
  0
LINE
  5
121
330
1F
100
AcDbEntity
  8
2-1
  6
Continuous
 62
     6
370
     5
100
AcDbLine
 10
-59.36112508871923
 20
144.9537237543076
 30
0.0
 11
-42.19408812639417
 21
144.9537237543076
 31
0.0
  0
LINE
  5
122
330
1F
100
AcDbEntity
  8
2-1
  6
Continuous
 62
     6
370
     5
100
AcDbLine
 10
-41.19931853293073
 20
149.8795235033801
 30
0.0
 11
-56.25405363563947
 21
158.5714041897829
 31
0.0
  0
LINE
  5
123
330
1F
100
AcDbEntity
  8
2-1
  6
Continuous
 62
     6
370
     5
100
AcDbLine
 10
-33.79681335790359
 20
160.4981622379399
 30
0.0
 11
-42.3803318390661
 21
175.3652888206121
 31
0.0
  0
LINE
  5
124
330
1F
100
AcDbEntity
  8
2-1
  6
Continuous
 62
     6
370
     5
100
AcDbLine
 10
-52.98103560505307
 20
164.7645850546251
 30
0.0
 11
-38.11394401744146
 21
156.1810665734626
 31
0.0
  0
LINE
  5
125
330
1F
100
AcDbEntity
  8
2-1
  6
Continuous
 62
     6
370
     5
100
AcDbLine
 10
-32.9308255875579
 20
160.9981366691582
 30
0.0
 11
-41.5143440687204
 21
175.8652282567698
 31
0.0
  0
LINE
  5
126
330
1F
100
AcDbEntity
  8
2-1
  6
Continuous
 62
     6
370
     5
100
AcDbLine
 10
-53.48104503133202
 20
163.8985972842794
 30
0.0
 11
-38.6139184486598
 21
155.3150788031169
 31
0.0
  0
LINE
  5
127
330
1F
100
AcDbEntity
  8
2-1
  6
Continuous
 62
     6
370
     5
100
AcDbLine
 10
-35.28949267400818
 20
159.0835569021004
 30
0.0
 11
-43.98142585300191
 21
174.1382745072788
 31
0.0
  0
LINE
  5
128
330
1F
100
AcDbEntity
  8
2-1
  6
Continuous
 62
     6
370
     5
100
AcDbLine
 10
-23.56943689871558
 20
164.5783413419532
 30
0.0
 11
-23.56943689871558
 21
181.7453608067479
 31
0.0
  0
LINE
  5
129
330
1F
100
AcDbEntity
  8
2-1
  6
Continuous
 62
     6
370
     5
100
AcDbLine
 10
-38.05025300709518
 20
177.8652659618856
 30
0.0
 11
-29.46673452593267
 21
162.998174374274
 31
0.0
  0
LINE
  5
12A
330
1F
100
AcDbEntity
  8
2-1
  6
Continuous
 62
     6
370
     5
100
AcDbLine
 10
-22.5694530412183
 20
164.5783413419532
 30
0.0
 11
-22.5695580264002
 21
181.7453608067479
 31
0.0
  0
LINE
  5
12B
330
1F
100
AcDbEntity
  8
2-1
  6
Continuous
 62
     6
370
     5
100
AcDbLine
 10
-38.91624077744085
 20
177.3652390380763
 30
0.0
 11
-30.33272229627834
 21
162.498217440586
 31
0.0
  0
LINE
  5
12C
330
1F
100
AcDbEntity
  8
2-1
  6
Continuous
 62
     6
370
     5
100
AcDbLine
 10
-25.56947460383141
 20
164.0995389224159
 30
0.0
 11
-25.56947460383141
 21
181.4833352902821
 31
0.0
  0
LINE
  5
12D
330
1F
100
AcDbEntity
  8
2-1
  6
Continuous
 62
     6
370
     5
100
AcDbLine
 10
-12.67221998401211
 20
162.998174374274
 30
0.0
 11
-4.088666507788947
 21
177.8652659618856
 31
0.0
  0
LINE
  5
12E
330
1F
100
AcDbEntity
  8
2-1
  6
Continuous
 62
     6
370
     5
100
AcDbLine
 10
-18.56948261616854
 20
181.7453608067479
 30
0.0
 11
-18.56948261616855
 21
164.5783413419532
 31
0.0
  0
LINE
  5
12F
330
1F
100
AcDbEntity
  8
2-1
  6
Continuous
 62
     6
370
     5
100
AcDbLine
 10
-11.80619721860579
 20
162.498217440586
 30
0.0
 11
-3.22267873744325
 21
177.3652390380763
 31
0.0
  0
LINE
  5
130
330
1F
100
AcDbEntity
  8
2-1
  6
Continuous
 62
     6
370
     5
100
AcDbLine
 10
-19.56950146872644
 20
181.7453608067479
 30
0.0
 11
-19.56950146872645
 21
164.5783413419532
 31
0.0
  0
LINE
  5
131
330
1F
100
AcDbEntity
  8
2-1
  6
Continuous
 62
     6
370
     5
100
AcDbLine
 10
-14.64366672459336
 20
163.5834842608382
 30
0.0
 11
-5.951803535720915
 21
178.6383068511985
 31
0.0
  0
LINE
  5
132
330
1F
100
AcDbEntity
  8
2-1
  6
Continuous
 62
     6
370
     5
100
AcDbLine
 10
-4.025010492503291
 20
156.1810665734626
 30
0.0
 11
10.84211609016891
 21
164.7645850546251
 31
0.0
  0
LINE
  5
133
330
1F
100
AcDbEntity
  8
2-1
  6
Continuous
 62
     6
370
     5
100
AcDbLine
 10
0.2414123241819475
 20
175.3652888206121
 30
0.0
 11
-8.342106156980568
 21
160.4981622379399
 31
0.0
  0
LINE
  5
134
330
1F
100
AcDbEntity
  8
2-1
  6
Continuous
 62
     6
370
     5
100
AcDbLine
 10
-3.525001066224341
 20
155.3150788031169
 30
0.0
 11
11.34205552632663
 21
163.8985972842794
 31
0.0
  0
LINE
  5
135
330
1F
100
AcDbEntity
  8
2-1
  6
Continuous
 62
     6
370
     5
100
AcDbLine
 10
-0.6245754461637212
 20
175.8652282567698
 30
0.0
 11
-9.208093927326237
 21
160.9982066592794
 31
0.0
  0
LINE
  5
136
330
1F
100
AcDbEntity
  8
2-1
  6
Continuous
 62
     6
370
     5
100
AcDbLine
 10
-5.439615828342758
 20
157.6737283920369
 30
0.0
 11
9.615189264487224
 21
166.3656090784397
 31
0.0
  0
LINE
  5
137
330
1F
100
AcDbEntity
  8
2-1
  6
Continuous
 62
     6
370
     5
100
AcDbLine
 10
0.0551686115100338
 20
145.9536901142746
 30
0.0
 11
17.22220557383506
 21
145.9536901142746
 31
0.0
  0
LINE
  5
138
330
1F
100
AcDbEntity
  8
2-1
  6
Continuous
 62
     6
370
     5
100
AcDbLine
 10
13.34209323144248
 20
160.4344712275936
 30
0.0
 11
-1.524998356169156
 21
151.8509877414917
 31
0.0
  0
LINE
  5
139
330
1F
100
AcDbEntity
  8
2-1
  6
Continuous
 62
     6
370
     5
100
AcDbLine
 10
0.0551686115100338
 20
144.9537237543076
 30
0.0
 11
17.22220557383506
 21
144.9537237543076
 31
0.0
  0
LINE
  5
13A
330
1F
100
AcDbEntity
  8
2-1
  6
Continuous
 62
     6
370
     5
100
AcDbLine
 10
12.84208380516348
 20
161.3004939929999
 30
0.0
 11
-2.025042777508723
 21
152.716958014307
 31
0.0
  0
LINE
  5
13B
330
1F
100
AcDbEntity
  8
2-1
  6
Continuous
 62
     6
370
     5
100
AcDbLine
 10
-29.33081371044641
 20
149.453738600697
 30
0.0
 11
-12.80810580443772
 21
149.453738600697
 31
0.0
  0
LINE
  5
13C
330
1F
100
AcDbEntity
  8
2-1
  6
Continuous
 62
     6
370
     5
100
AcDbLine
 10
46.24507914669644
 20
148.4536672555481
 30
0.0
 11
47.3135483378463
 21
147.4536833980509
 31
0.0
  0
LINE
  5
13D
330
1F
100
AcDbEntity
  8
2-1
  6
Continuous
 62
     6
370
     5
100
AcDbLine
 10
45.68564810746805
 20
153.4537265232771
 30
0.0
 11
46.54155730035232
 21
154.453692883244
 31
0.0
  0
LINE
  5
13E
330
1F
100
AcDbEntity
  8
2-1
  6
Continuous
 62
     6
370
     5
100
AcDbLine
 10
35.5541581144058
 20
153.4537265232771
 30
0.0
 11
45.68564810746805
 21
153.4537265232771
 31
0.0
  0
LINE
  5
13F
330
1F
100
AcDbEntity
  8
2-1
  6
Continuous
 62
     6
370
     5
100
AcDbLine
 10
35.36847432270392
 20
154.453692883244
 30
0.0
 11
46.54155730035232
 21
154.453692883244
 31
0.0
  0
LINE
  5
140
330
1F
100
AcDbEntity
  8
2-1
  6
Continuous
 62
     6
370
     5
100
AcDbLine
 10
-88.38403365664121
 20
148.4536672555481
 30
0.0
 11
-89.45260783297297
 21
147.4536833980509
 31
0.0
  0
LINE
  5
141
330
1F
100
AcDbEntity
  8
2-1
  6
Continuous
 62
     6
370
     5
100
AcDbLine
 10
-87.82456762235218
 20
153.4537265232771
 30
0.0
 11
-88.68051181029709
 21
154.453692883244
 31
0.0
  0
LINE
  5
142
330
1F
100
AcDbEntity
  8
2-1
  6
Continuous
 62
     6
370
     5
100
AcDbLine
 10
-77.69321760953244
 20
153.4537265232771
 30
0.0
 11
-87.82456762235218
 21
153.4537265232771
 31
0.0
  0
LINE
  5
143
330
1F
100
AcDbEntity
  8
2-1
  6
Continuous
 62
     6
370
     5
100
AcDbLine
 10
-77.50746382770933
 20
154.453692883244
 30
0.0
 11
-88.68051181029709
 21
154.453692883244
 31
0.0
  0
LINE
  5
144
330
1F
100
AcDbEntity
  8
2-1
  6
Continuous
 62
     6
370
     5
100
AcDbLine
 10
36.06193644414456
 20
149.9537130319153
 30
0.0
 11
29.45276929359554
 21
149.0852756073256
 31
0.0
  0
LINE
  5
145
330
1F
100
AcDbEntity
  8
2-1
  6
Continuous
 62
     6
370
     5
100
AcDbLine
 10
27.60621992440216
 20
157.6626874504082
 30
0.0
 11
33.91477950414092
 21
160.2757861251676
 31
0.0
  0
LINE
  5
146
330
1F
100
AcDbEntity
  8
2-1
  6
Continuous
 62
     6
370
     5
100
AcDbLine
 10
-69.7451394392863
 20
157.6626524553476
 30
0.0
 11
-76.05369901902509
 21
160.275751130107
 31
0.0
  0
LINE
  5
147
330
1F
100
AcDbEntity
  8
2-1
  6
Continuous
 62
     6
370
     5
100
AcDbLine
 10
-78.20087345655901
 20
149.9537130319153
 30
0.0
 11
-71.59175879860098
 21
149.0852756073256
 31
0.0
  0
LINE
  5
148
330
1F
100
AcDbEntity
  8
2-1
  6
Continuous
 62
     6
370
     5
100
AcDbLine
 10
23.39666408124035
 20
167.8253405449613
 30
0.0
 11
29.70522366097917
 21
170.4384392197208
 31
0.0
  0
LINE
  5
149
330
1F
100
AcDbEntity
  8
2-1
  6
Continuous
 62
     6
370
     5
100
AcDbLine
 10
18.46341038425378
 20
175.2084409588692
 30
0.0
 11
23.29181887959338
 21
180.0368319566785
 31
0.0
  0
LINE
  5
14A
330
1F
100
AcDbEntity
  8
2-1
  6
Continuous
 62
     6
370
     5
100
AcDbLine
 10
-60.60236489419852
 20
175.2084409588692
 30
0.0
 11
-65.43077338953817
 21
180.0367969616179
 31
0.0
  0
LINE
  5
14B
330
1F
100
AcDbEntity
  8
2-1
  6
Continuous
 62
     6
370
     5
100
AcDbLine
 10
-65.53561859118514
 20
167.8253405449613
 30
0.0
 11
-71.84421316598453
 21
170.4384392197208
 31
0.0
  0
LINE
  5
14C
330
1F
100
AcDbEntity
  8
2-1
  6
Continuous
 62
     6
370
     5
100
AcDbLine
 10
-45.44113982199322
 20
187.9198543092138
 30
0.0
 11
-48.05422099922235
 21
194.2284313864829
 31
0.0
  0
LINE
  5
14D
330
1F
100
AcDbEntity
  8
2-1
  6
Continuous
 62
     6
370
     5
100
AcDbLine
 10
-52.82418774331019
 20
182.9866006122272
 30
0.0
 11
-57.65259623864982
 21
187.8150091075669
 31
0.0
  0
LINE
  5
14E
330
1F
100
AcDbEntity
  8
2-1
  6
Continuous
 62
     6
370
     5
100
AcDbLine
 10
-26.56949345638934
 20
193.861665653552
 30
0.0
 11
-26.56949345638934
 21
200.6900418638863
 31
0.0
  0
LINE
  5
14F
330
1F
100
AcDbEntity
  8
2-1
  6
Continuous
 62
     6
370
     5
100
AcDbLine
 10
-35.27843423484917
 20
192.1293576597847
 30
0.0
 11
-37.89155040713892
 21
198.4379522345841
 31
0.0
  0
LINE
  5
150
330
1F
100
AcDbEntity
  8
2-1
  6
Continuous
 62
     6
370
     5
100
AcDbLine
 10
-6.860520275095595
 20
192.1293576597847
 30
0.0
 11
-4.247404102805845
 21
198.4379522345841
 31
0.0
  0
LINE
  5
151
330
1F
100
AcDbEntity
  8
2-1
  6
Continuous
 62
     6
370
     5
100
AcDbLine
 10
-15.56949604861605
 20
193.8617006486127
 30
0.0
 11
-15.56949604861604
 21
200.6900418638863
 31
0.0
  0
LINE
  5
152
330
1F
100
AcDbEntity
  8
2-1
  6
Continuous
 62
     6
370
     5
100
AcDbLine
 10
10.68526822842607
 20
182.9866006122272
 30
0.0
 11
15.51360673364444
 21
187.8150091075669
 31
0.0
  0
LINE
  5
153
330
1F
100
AcDbEntity
  8
2-1
  6
Continuous
 62
     6
370
     5
100
AcDbLine
 10
3.302150316987806
 20
187.9198543092138
 30
0.0
 11
5.915231494216968
 21
194.2284488840133
 31
0.0
  0
LINE
  5
154
330
1F
100
AcDbEntity
  8
2-1
  6
Continuous
 62
     6
370
     5
100
AcDbLine
 10
-0.423633808027283
 20
147.9537278193905
 30
0.0
 11
16.96016255983896
 21
147.9537278193905
 31
0.0
  0
LINE
  5
155
330
1F
100
AcDbEntity
  8
2-1
  6
Continuous
 62
     6
370
     5
100
AcDbLine
 10
42.47159675404291
 20
148.4536672555481
 30
0.0
 11
46.24507914669644
 21
148.4536672555481
 31
0.0
  0
LINE
  5
156
330
1F
100
AcDbEntity
  8
2-1
  6
Continuous
 62
     6
370
     5
100
AcDbLine
 10
45.43074408584036
 20
147.4536833980509
 30
0.0
 11
47.3135483378463
 21
147.4536833980509
 31
0.0
  0
LINE
  5
157
330
1F
100
AcDbEntity
  8
2-1
  6
Continuous
 62
     6
370
     5
100
AcDbLine
 10
-84.61042878127549
 20
148.4536672555481
 30
0.0
 11
-88.38403365664121
 21
148.4536672555481
 31
0.0
  0
LINE
  5
158
330
1F
100
AcDbEntity
  8
2-1
  6
Continuous
 62
     6
370
     5
100
AcDbLine
 10
-87.56959361060328
 20
147.4536833980509
 30
0.0
 11
-89.45260783297297
 21
147.4536833980509
 31
0.0
  0
LINE
  5
159
330
1F
100
AcDbEntity
  8
2-0
  6
Continuous
 62
     3
370
     9
100
AcDbLine
 10
40.7199889843382
 20
178.4260093158877
 30
0.0
 11
43.22094598730938
 21
180.0970934510831
 31
0.0
  0
LINE
  5
15A
330
1F
100
AcDbEntity
  8
2-0
  6
Continuous
 62
     3
370
     9
100
AcDbLine
 10
47.35141299344779
 20
162.4162940036516
 30
0.0
 11
50.30142661442089
 21
163.0030911802925
 31
0.0
  0
LINE
  5
15B
330
1F
100
AcDbEntity
  8
2-0
  6
Continuous
 62
     3
370
     9
100
AcDbLine
 10
50.30142661442089
 20
163.0030911802925
 30
0.0
 11
51.90343049993304
 21
160.7727684787021
 31
0.0
  0
LINE
  5
15C
330
1F
100
AcDbEntity
  8
2-0
  6
Continuous
 62
     3
370
     9
100
AcDbLine
 10
43.22094598730938
 20
180.0970934510831
 30
0.0
 11
42.77650871731059
 21
182.8068659808324
 31
0.0
  0
LINE
  5
15D
330
1F
100
AcDbEntity
  8
2-0
  6
Continuous
 62
     3
370
     9
100
AcDbLine
 10
49.39981387235404
 20
152.1180350491579
 30
0.0
 11
52.34989748344837
 21
152.7048847183898
 31
0.0
  0
LINE
  5
15E
330
1F
100
AcDbEntity
  8
2-0
  6
Continuous
 62
     3
370
     9
100
AcDbLine
 10
52.34989748344837
 20
152.7048847183898
 30
0.0
 11
52.9764490489648
 21
155.3784723554478
 31
0.0
  0
LINE
  5
15F
330
1F
100
AcDbEntity
  8
2-0
  6
Continuous
 62
     3
370
     9
100
AcDbLine
 10
22.63328182866131
 20
199.4096775806228
 30
0.0
 11
24.30427847620523
 21
201.910634583594
 31
0.0
  0
LINE
  5
160
330
1F
100
AcDbEntity
  8
2-0
  6
Continuous
 62
     3
370
     9
100
AcDbLine
 10
34.88655734277062
 20
187.1563495739226
 30
0.0
 11
37.38740936055989
 21
188.8274512066484
 31
0.0
  0
LINE
  5
161
330
1F
100
AcDbEntity
  8
2-0
  6
Continuous
 62
     3
370
     9
100
AcDbLine
 10
37.38740936055989
 20
188.8274512066484
 30
0.0
 11
39.72101998359919
 21
187.3799505138169
 31
0.0
  0
LINE
  5
162
330
1F
100
AcDbEntity
  8
2-0
  6
Continuous
 62
     3
370
     9
100
AcDbLine
 10
24.30427847620523
 20
201.910634583594
 30
0.0
 11
22.85672529078276
 21
204.2440702313301
 31
0.0
  0
LINE
  5
163
330
1F
100
AcDbEntity
  8
2-0
  6
Continuous
 62
     3
370
     9
100
AcDbLine
 10
-2.10684373173093
 20
211.8745682263606
 30
0.0
 11
-1.520081550150632
 21
214.824651837455
 31
0.0
  0
LINE
  5
164
330
1F
100
AcDbEntity
  8
2-0
  6
Continuous
 62
     3
370
     9
100
AcDbLine
 10
13.90285408297483
 20
205.2430742271298
 30
0.0
 11
15.57385073051869
 21
207.7440487276313
 31
0.0
  0
LINE
  5
165
330
1F
100
AcDbEntity
  8
2-0
  6
Continuous
 62
     3
370
     9
100
AcDbLine
 10
15.57385073051869
 20
207.7440487276313
 30
0.0
 11
18.28379823557115
 21
207.2997339403447
 31
0.0
  0
LINE
  5
166
330
1F
100
AcDbEntity
  8
2-0
  6
Continuous
 62
     3
370
     9
100
AcDbLine
 10
-1.520081550150632
 20
214.824651837455
 30
0.0
 11
-3.750421749271379
 21
216.426480747664
 31
0.0
  0
LINE
  5
167
330
1F
100
AcDbEntity
  8
2-0
  6
Continuous
 62
     3
370
     9
100
AcDbLine
 10
-29.73378183359885
 20
213.9230041003275
 30
0.0
 11
-30.32068399542167
 21
216.8730352188309
 31
0.0
  0
LINE
  5
168
330
1F
100
AcDbEntity
  8
2-0
  6
Continuous
 62
     3
370
     9
100
AcDbLine
 10
-11.8182880120534
 20
216.8729652287097
 30
0.0
 11
-9.144647882404351
 21
217.4995605380518
 31
0.0
  0
LINE
  5
169
330
1F
100
AcDbEntity
  8
2-0
  6
Continuous
 62
     3
370
     9
100
AcDbLine
 10
-30.32068399542167
 20
216.8730352188309
 30
0.0
 11
-32.99423663741914
 21
217.4994643016351
 31
0.0
  0
LINE
  5
16A
330
1F
100
AcDbEntity
  8
2-0
  6
Continuous
 62
     3
370
     9
100
AcDbLine
 10
-56.041721105268
 20
205.2431092221904
 30
0.0
 11
-57.71284023552407
 21
207.7440137325707
 31
0.0
  0
LINE
  5
16B
330
1F
100
AcDbEntity
  8
2-0
  6
Continuous
 62
     3
370
     9
100
AcDbLine
 10
-40.03198829550162
 20
211.8745332313
 30
0.0
 11
-40.6188554622638
 21
214.8245468522731
 31
0.0
  0
LINE
  5
16C
330
1F
100
AcDbEntity
  8
2-0
  6
Continuous
 62
     3
370
     9
100
AcDbLine
 10
-40.6188554622638
 20
214.8245468522731
 30
0.0
 11
-38.38848026808246
 21
216.4265507377853
 31
0.0
  0
LINE
  5
16D
330
1F
100
AcDbEntity
  8
2-0
  6
Continuous
 62
     3
370
     9
100
AcDbLine
 10
-57.71284023552407
 20
207.7440137325707
 30
0.0
 11
-60.42263026280374
 21
207.2996639502234
 31
0.0
  0
LINE
  5
16E
330
1F
100
AcDbEntity
  8
2-0
  6
Continuous
 62
     3
370
     9
100
AcDbLine
 10
-77.02544186259409
 20
187.1563495739226
 30
0.0
 11
-79.52639886556524
 21
188.8273812165271
 31
0.0
  0
LINE
  5
16F
330
1F
100
AcDbEntity
  8
2-0
  6
Continuous
 62
     3
370
     9
100
AcDbLine
 10
-64.77211385589389
 20
199.4096075905016
 30
0.0
 11
-66.44319799108935
 21
201.9104946033515
 31
0.0
  0
LINE
  5
170
330
1F
100
AcDbEntity
  8
2-0
  6
Continuous
 62
     3
370
     9
100
AcDbLine
 10
-66.44319799108935
 20
201.9104946033515
 30
0.0
 11
-64.99569729825784
 21
204.2441052263908
 31
0.0
  0
LINE
  5
171
330
1F
100
AcDbEntity
  8
2-0
  6
Continuous
 62
     3
370
     9
100
AcDbLine
 10
-79.52639886556524
 20
188.8273812165271
 30
0.0
 11
-81.85983451330144
 21
187.3798105335743
 31
0.0
  0
LINE
  5
172
330
1F
100
AcDbEntity
  8
2-0
  6
Continuous
 62
     3
370
     9
100
AcDbLine
 10
-89.49035000586223
 20
162.4162240135303
 30
0.0
 11
-92.44041611942625
 21
163.0029861951106
 31
0.0
  0
LINE
  5
173
330
1F
100
AcDbEntity
  8
2-0
  6
Continuous
 62
     3
370
     9
100
AcDbLine
 10
-82.8588735041617
 20
178.4259393257664
 30
0.0
 11
-85.35979551207224
 21
180.0969534708406
 31
0.0
  0
LINE
  5
174
330
1F
100
AcDbEntity
  8
2-0
  6
Continuous
 62
     3
370
     9
100
AcDbLine
 10
-85.35979551207224
 20
180.0969534708406
 30
0.0
 11
-84.91551571984628
 21
182.8068659808324
 31
0.0
  0
LINE
  5
175
330
1F
100
AcDbEntity
  8
2-0
  6
Continuous
 62
     3
370
     9
100
AcDbLine
 10
-92.44041611942625
 20
163.0029861951106
 30
0.0
 11
-94.04228002469593
 21
160.7726634935202
 31
0.0
  0
LINE
  5
176
330
1F
100
AcDbEntity
  8
2-0
  6
Continuous
 62
     3
370
     9
100
AcDbLine
 10
-91.53875088476848
 20
152.1180350491579
 30
0.0
 11
-94.48878200327188
 21
152.7047447381472
 31
0.0
  0
LINE
  5
177
330
1F
100
AcDbEntity
  8
2-0
  6
Continuous
 62
     3
370
     9
100
AcDbLine
 10
-94.48878200327188
 20
152.7047447381472
 30
0.0
 11
-95.11535106631861
 21
155.3784023653266
 31
0.0
  0
LINE
  5
178
330
1F
100
AcDbEntity
  8
2-0
  6
Continuous
 62
     3
370
     9
100
AcDbLine
 10
48.20039316432734
 20
154.4284789420603
 30
0.0
 11
49.39981387235404
 21
152.1180350491579
 31
0.0
  0
LINE
  5
179
330
1F
100
AcDbEntity
  8
2-0
  6
Continuous
 62
     3
370
     9
100
AcDbLine
 10
48.20039316432734
 20
154.4284789420603
 30
0.0
 11
52.9764490489648
 21
155.3784723554478
 31
0.0
  0
LINE
  5
17A
330
1F
100
AcDbEntity
  8
2-0
  6
Continuous
 62
     3
370
     9
100
AcDbLine
 10
47.35144798850841
 20
162.4162940036516
 30
0.0
 11
47.12737461529564
 21
159.8227575677842
 31
0.0
  0
LINE
  5
17B
330
1F
100
AcDbEntity
  8
2-0
  6
Continuous
 62
     3
370
     9
100
AcDbLine
 10
38.72772018268221
 20
180.1015028287225
 30
0.0
 11
40.7199889843382
 21
178.425974320827
 31
0.0
  0
LINE
  5
17C
330
1F
100
AcDbEntity
  8
2-0
  6
Continuous
 62
     3
370
     9
100
AcDbLine
 10
38.72772018268221
 20
180.1015028287225
 30
0.0
 11
42.77671868767435
 21
182.807005961075
 31
0.0
  0
LINE
  5
17D
330
1F
100
AcDbEntity
  8
2-0
  6
Continuous
 62
     3
370
     9
100
AcDbLine
 10
-12.40505019363369
 20
213.9229691052668
 30
0.0
 11
-11.8182880120534
 21
216.8729652287097
 31
0.0
  0
LINE
  5
17E
330
1F
100
AcDbEntity
  8
2-0
  6
Continuous
 62
     3
370
     9
100
AcDbLine
 10
38.72772018268221
 20
180.1016253114347
 30
0.0
 11
40.72005897445949
 21
178.4260793060089
 31
0.0
  0
LINE
  5
17F
330
1F
100
AcDbEntity
  8
2-0
  6
Continuous
 62
     3
370
     9
100
AcDbLine
 10
34.88662733289185
 20
187.1565245492258
 30
0.0
 11
35.67212646378896
 21
184.6746748493585
 31
0.0
  0
LINE
  5
180
330
1F
100
AcDbEntity
  8
2-0
  6
Continuous
 62
     3
370
     9
100
AcDbLine
 10
35.67212646378896
 20
184.6746748493585
 30
0.0
 11
39.72101998359919
 21
187.3800904940594
 31
0.0
  0
LINE
  5
181
330
1F
100
AcDbEntity
  8
2-0
  6
Continuous
 62
     3
370
     9
100
AcDbLine
 10
20.15148462138499
 20
200.1954741695352
 30
0.0
 11
22.63336931631294
 21
199.4098875509866
 31
0.0
  0
LINE
  5
182
330
1F
100
AcDbEntity
  8
2-0
  6
Continuous
 62
     3
370
     9
100
AcDbLine
 10
20.15148462138499
 20
200.1954741695352
 30
0.0
 11
22.85695275867685
 21
204.2444201819365
 31
0.0
  0
LINE
  5
183
330
1F
100
AcDbEntity
  8
2-0
  6
Continuous
 62
     3
370
     9
100
AcDbLine
 10
13.90297656568701
 20
205.2434241777361
 30
0.0
 11
15.57845258099154
 21
203.2510853859588
 31
0.0
  0
LINE
  5
184
330
1F
100
AcDbEntity
  8
2-0
  6
Continuous
 62
     3
370
     9
100
AcDbLine
 10
15.57845258099154
 20
203.2510853859588
 30
0.0
 11
18.28388572322272
 21
207.3000488958903
 31
0.0
  0
LINE
  5
185
330
1F
100
AcDbEntity
  8
2-0
  6
Continuous
 62
     3
370
     9
100
AcDbLine
 10
-4.700240187355785
 20
211.650949788936
 30
0.0
 11
-2.106668756427791
 21
211.8749181769669
 31
0.0
  0
LINE
  5
186
330
1F
100
AcDbEntity
  8
2-0
  6
Continuous
 62
     3
370
     9
100
AcDbLine
 10
-4.700240187355785
 20
211.650949788936
 30
0.0
 11
-3.750194281377286
 21
216.4270056735735
 31
0.0
  0
LINE
  5
187
330
1F
100
AcDbEntity
  8
2-0
  6
Continuous
 62
     3
370
     9
100
AcDbLine
 10
-12.40489271586086
 20
213.9234415385854
 30
0.0
 11
-10.09451881307974
 21
212.7239333429071
 31
0.0
  0
LINE
  5
188
330
1F
100
AcDbEntity
  8
2-0
  6
Continuous
 62
     3
370
     9
100
AcDbLine
 10
-10.09451881307974
 20
212.7239333429071
 30
0.0
 11
-9.14449040463152
 21
217.4999892275445
 31
0.0
  0
LINE
  5
189
330
1F
100
AcDbEntity
  8
2-0
  6
Continuous
 62
     3
370
     9
100
AcDbLine
 10
-32.04403325366779
 20
212.724038328089
 30
0.0
 11
-29.73357186323506
 21
213.9234940311763
 31
0.0
  0
LINE
  5
18A
330
1F
100
AcDbEntity
  8
2-0
  6
Continuous
 62
     3
370
     9
100
AcDbLine
 10
-32.04403325366779
 20
212.724038328089
 30
0.0
 11
-32.99400916952505
 21
217.5001292077871
 31
0.0
  0
LINE
  5
18B
330
1F
100
AcDbEntity
  8
2-0
  6
Continuous
 62
     3
370
     9
100
AcDbLine
 10
-40.03183081772876
 20
211.8751281473307
 30
0.0
 11
-37.43829438186141
 21
211.6510547741179
 31
0.0
  0
LINE
  5
18C
330
1F
100
AcDbEntity
  8
2-0
  6
Continuous
 62
     3
370
     9
100
AcDbLine
 10
-37.43829438186141
 20
211.6510547741179
 30
0.0
 11
-38.38830529277929
 21
216.4271106587553
 31
0.0
  0
LINE
  5
18D
330
1F
100
AcDbEntity
  8
2-0
  6
Continuous
 62
     3
370
     9
100
AcDbLine
 10
-57.71700464773902
 20
203.2514178390348
 30
0.0
 11
-56.04144114478295
 21
205.2437391332818
 31
0.0
  0
LINE
  5
18E
330
1F
100
AcDbEntity
  8
2-0
  6
Continuous
 62
     3
370
     9
100
AcDbLine
 10
-57.71700464773902
 20
203.2514178390348
 30
0.0
 11
-60.42240279490964
 21
207.3003988464966
 31
0.0
  0
LINE
  5
18F
330
1F
100
AcDbEntity
  8
2-0
  6
Continuous
 62
     3
370
     9
100
AcDbLine
 10
-64.77190388553011
 20
199.4103074917141
 30
0.0
 11
-62.29003668813253
 21
200.1958241201416
 31
0.0
  0
LINE
  5
190
330
1F
100
AcDbEntity
  8
2-0
  6
Continuous
 62
     3
370
     9
100
AcDbLine
 10
-62.29003668813253
 20
200.1958241201416
 30
0.0
 11
-64.99545233283344
 21
204.2447701325428
 31
0.0
  0
LINE
  5
191
330
1F
100
AcDbEntity
  8
2-0
  6
Continuous
 62
     3
370
     9
100
AcDbLine
 10
-77.81066103300613
 20
184.6752172727982
 30
0.0
 11
-77.02509191198779
 21
187.1570844701958
 31
0.0
  0
LINE
  5
192
330
1F
100
AcDbEntity
  8
2-0
  6
Continuous
 62
     3
370
     9
100
AcDbLine
 10
-77.81066103300613
 20
184.6752172727982
 30
0.0
 11
-81.85962454293765
 21
187.3806854100901
 31
0.0
  0
LINE
  5
193
330
1F
100
AcDbEntity
  8
2-0
  6
Continuous
 62
     3
370
     9
100
AcDbLine
 10
-82.8586285387373
 20
178.4267092171002
 30
0.0
 11
-80.86628974696005
 21
180.1021852324048
 31
0.0
  0
LINE
  5
194
330
1F
100
AcDbEntity
  8
2-0
  6
Continuous
 62
     3
370
     9
100
AcDbLine
 10
-80.86628974696005
 20
180.1021852324048
 30
0.0
 11
-84.91523575936124
 21
182.8076008771057
 31
0.0
  0
LINE
  5
195
330
1F
100
AcDbEntity
  8
2-0
  6
Continuous
 62
     3
370
     9
100
AcDbLine
 10
-89.26596167710376
 20
159.8235274591181
 30
0.0
 11
-89.48994756266497
 21
162.4170988900461
 31
0.0
  0
LINE
  5
196
330
1F
100
AcDbEntity
  8
2-0
  6
Continuous
 62
     3
370
     9
100
AcDbLine
 10
-89.26596167710376
 20
159.8235274591181
 30
0.0
 11
-94.0420350592715
 21
160.7735733650966
 31
0.0
  0
LINE
  5
197
330
1F
100
AcDbEntity
  8
2-0
  6
Continuous
 62
     3
370
     9
100
AcDbLine
 10
-91.53845342675312
 20
152.118874930613
 30
0.0
 11
-90.33896272860518
 21
154.4292488333942
 31
0.0
  0
LINE
  5
198
330
1F
100
AcDbEntity
  8
2-0
  6
Continuous
 62
     3
370
     9
100
AcDbLine
 10
47.12733962023502
 20
159.8227750653145
 30
0.0
 11
51.90343049993304
 21
160.7727684787021
 31
0.0
  0
LINE
  5
199
330
1F
100
AcDbEntity
  8
2-0
  6
Continuous
 62
     3
370
     9
100
AcDbLine
 10
-90.33896272860518
 20
154.4292488333942
 30
0.0
 11
-95.1150011157123
 21
155.3792772418423
 31
0.0
  0
ARC
  5
19A
330
1F
100
AcDbEntity
  8
2-8
  6
Continuous
 62
     4
370
     9
100
AcDbCircle
 10
40.8305033858072
 20
145.0539671054818
 30
0.0
 40
0.9999999880330442
100
AcDbArc
 50
270.0
 51
0.0
  0
ARC
  5
19B
330
1F
100
AcDbEntity
  8
2-8
  6
Continuous
 62
     4
370
     9
100
AcDbCircle
 10
44.03066170016231
 20
145.0539671054818
 30
0.0
 40
0.9999999880330442
100
AcDbArc
 50
180.0
 51
270.0
  0
ARC
  5
19C
330
1F
100
AcDbEntity
  8
2-8
  6
Continuous
 62
     4
370
     9
100
AcDbCircle
 10
42.43054754792414
 20
143.4538529532436
 30
0.0
 40
5.000000213564133
100
AcDbArc
 50
0.0
 51
180.0
  0
ARC
  5
19D
330
1F
100
AcDbEntity
  8
2-8
  6
Continuous
 62
     4
370
     9
100
AcDbCircle
 10
-82.96935291057008
 20
145.0539671054818
 30
0.0
 40
0.9999999880330442
100
AcDbArc
 50
180.0
 51
270.0
  0
ARC
  5
19E
330
1F
100
AcDbEntity
  8
2-8
  6
Continuous
 62
     4
370
     9
100
AcDbCircle
 10
-86.16954621998582
 20
145.0539671054818
 30
0.0
 40
0.9999999880330442
100
AcDbArc
 50
270.0
 51
0.0
  0
ARC
  5
19F
330
1F
100
AcDbEntity
  8
2-8
  6
Continuous
 62
     4
370
     9
100
AcDbCircle
 10
-84.569397072687
 20
143.4538529532436
 30
0.0
 40
5.000000213564133
100
AcDbArc
 50
0.0
 51
180.0
  0
ARC
  5
1A0
330
1F
100
AcDbEntity
  8
2-1
  6
Continuous
 62
     6
370
     5
100
AcDbCircle
 10
-21.06945975744207
 20
143.4537129730011
 30
0.0
 40
40.00000170851306
100
AcDbArc
 50
155.9635314941407
 51
174.0364990234375
  0
ARC
  5
1A1
330
1F
100
AcDbEntity
  8
2-1
  6
Continuous
 62
     6
370
     5
100
AcDbCircle
 10
-21.06945975744207
 20
143.4537129730011
 30
0.0
 40
20.00000085425653
100
AcDbArc
 50
160.7220916748047
 51
169.2778015136718
  0
ARC
  5
1A2
330
1F
100
AcDbEntity
  8
2-1
  6
Continuous
 62
     6
370
     5
100
AcDbCircle
 10
-56.2309918906844
 20
159.1354370794841
 30
0.0
 40
1.499999982049566
100
AcDbArc
 50
60.00032043457031
 51
155.9629516601562
  0
ARC
  5
1A3
330
1F
100
AcDbEntity
  8
2-1
  6
Continuous
 62
     6
370
     5
100
AcDbCircle
 10
-59.36112508871923
 20
147.4536833980509
 30
0.0
 40
1.499999982049566
100
AcDbArc
 50
174.03759765625
 51
270.0
  0
ARC
  5
1A4
330
1F
100
AcDbEntity
  8
2-1
  6
Continuous
 62
     6
370
     5
100
AcDbCircle
 10
-42.19408812639417
 20
147.4536833980509
 30
0.0
 40
1.499999982049566
100
AcDbArc
 50
270.0
 51
349.2789764404296
  0
ARC
  5
1A5
330
1F
100
AcDbEntity
  8
2-1
  6
Continuous
 62
     6
370
     5
100
AcDbCircle
 10
-41.36393529813343
 20
150.5519185983216
 30
0.0
 40
1.499999982049566
100
AcDbArc
 50
340.7230682373047
 51
60.00032043457033
  0
ARC
  5
1A6
330
1F
100
AcDbEntity
  8
2-1
  6
Continuous
 62
     6
370
     5
100
AcDbCircle
 10
-21.06945975744207
 20
143.4537129730011
 30
0.0
 40
18.99999949922893
100
AcDbArc
 50
160.7222137451172
 51
169.2779541015625
  0
ARC
  5
1A7
330
1F
100
AcDbEntity
  8
2-1
  6
Continuous
 62
     6
370
     5
100
AcDbCircle
 10
-21.06945975744207
 20
143.4537129730011
 30
0.0
 40
41.00000306354066
100
AcDbArc
 50
155.9635467529297
 51
174.0364532470703
  0
ARC
  5
1A8
330
1F
100
AcDbEntity
  8
2-1
  6
Continuous
 62
     6
370
     5
100
AcDbCircle
 10
-59.36112508871923
 20
147.4536833980509
 30
0.0
 40
2.500000106782066
100
AcDbArc
 50
174.0364990234375
 51
270.0
  0
ARC
  5
1A9
330
1F
100
AcDbEntity
  8
2-1
  6
Continuous
 62
     6
370
     5
100
AcDbCircle
 10
-56.23102688574505
 20
159.1354370794841
 30
0.0
 40
2.500000106782066
100
AcDbArc
 50
60.00000000000001
 51
155.962890625
  0
ARC
  5
1AA
330
1F
100
AcDbEntity
  8
2-1
  6
Continuous
 62
     6
370
     5
100
AcDbCircle
 10
-41.36393529813343
 20
150.5519185983216
 30
0.0
 40
2.500000106782066
100
AcDbArc
 50
340.7217102050781
 51
60.00000000000001
  0
ARC
  5
1AB
330
1F
100
AcDbEntity
  8
2-1
  6
Continuous
 62
     6
370
     5
100
AcDbCircle
 10
-42.19408812639417
 20
147.4536833980509
 30
0.0
 40
2.500000106782066
100
AcDbArc
 50
270.0
 51
349.2772979736329
  0
ARC
  5
1AC
330
1F
100
AcDbEntity
  8
2-1
  6
Continuous
 62
     6
370
     5
100
AcDbCircle
 10
-57.0040677750579
 20
157.2723525441431
 30
0.0
 40
1.499999982049566
100
AcDbArc
 50
60.00032043457031
 51
158.9652404785156
  0
ARC
  5
1AD
330
1F
100
AcDbEntity
  8
2-1
  6
Continuous
 62
     6
370
     5
100
AcDbCircle
 10
-41.94926268222792
 20
148.5804718577403
 30
0.0
 40
1.499999982049566
100
AcDbArc
 50
346.205825805664
 51
60.00032043457033
  0
ARC
  5
1AE
330
1F
100
AcDbEntity
  8
2-1
  6
Continuous
 62
     6
370
     5
100
AcDbCircle
 10
-21.06945975744207
 20
143.4537129730011
 30
0.0
 40
40.00000170851306
100
AcDbArc
 50
125.9635314941407
 51
144.0364990234375
  0
ARC
  5
1AF
330
1F
100
AcDbEntity
  8
2-1
  6
Continuous
 62
     6
370
     5
100
AcDbCircle
 10
-21.06945975744207
 20
143.4537129730011
 30
0.0
 40
20.00000085425653
100
AcDbArc
 50
130.7220916748047
 51
139.2778015136718
  0
ARC
  5
1B0
330
1F
100
AcDbEntity
  8
2-1
  6
Continuous
 62
     6
370
     5
100
AcDbCircle
 10
-43.67934848964525
 20
174.615239686133
 30
0.0
 40
1.499999982049566
100
AcDbArc
 50
30.00032043457032
 51
125.9629516601563
  0
ARC
  5
1B1
330
1F
100
AcDbEntity
  8
2-1
  6
Continuous
 62
     6
370
     5
100
AcDbCircle
 10
-52.23105646069526
 20
166.0636367002649
 30
0.0
 40
1.499999982049566
100
AcDbArc
 50
144.03759765625
 51
240.0
  0
ARC
  5
1B2
330
1F
100
AcDbEntity
  8
2-1
  6
Continuous
 62
     6
370
     5
100
AcDbCircle
 10
-37.36392987802304
 20
157.4801357166327
 30
0.0
 40
1.499999982049566
100
AcDbArc
 50
240.0
 51
319.2789764404297
  0
ARC
  5
1B3
330
1F
100
AcDbEntity
  8
2-1
  6
Continuous
 62
     6
370
     5
100
AcDbCircle
 10
-35.095899998604
 20
159.7481306009911
 30
0.0
 40
1.499999982049566
100
AcDbArc
 50
310.7230682373047
 51
30.00032043457032
  0
ARC
  5
1B4
330
1F
100
AcDbEntity
  8
2-1
  6
Continuous
 62
     6
370
     5
100
AcDbCircle
 10
-21.06945975744207
 20
143.4537129730011
 30
0.0
 40
18.99999949922893
100
AcDbArc
 50
130.7222137451172
 51
139.2779541015625
  0
ARC
  5
1B5
330
1F
100
AcDbEntity
  8
2-1
  6
Continuous
 62
     6
370
     5
100
AcDbCircle
 10
-21.06945975744207
 20
143.4537129730011
 30
0.0
 40
41.00000306354066
100
AcDbArc
 50
125.9635467529297
 51
144.0364532470703
  0
ARC
  5
1B6
330
1F
100
AcDbEntity
  8
2-1
  6
Continuous
 62
     6
370
     5
100
AcDbCircle
 10
-52.23105646069526
 20
166.0636367002649
 30
0.0
 40
2.500000106782066
100
AcDbArc
 50
144.0364990234375
 51
240.0
  0
ARC
  5
1B7
330
1F
100
AcDbEntity
  8
2-1
  6
Continuous
 62
     6
370
     5
100
AcDbCircle
 10
-43.67941847976651
 20
174.615239686133
 30
0.0
 40
2.500000106782066
100
AcDbArc
 50
29.99999999999999
 51
125.962890625
  0
ARC
  5
1B8
330
1F
100
AcDbEntity
  8
2-1
  6
Continuous
 62
     6
370
     5
100
AcDbCircle
 10
-35.095899998604
 20
159.7481306009911
 30
0.0
 40
2.500000106782066
100
AcDbArc
 50
310.7217102050781
 51
30.00000000000001
  0
ARC
  5
1B9
330
1F
100
AcDbEntity
  8
2-1
  6
Continuous
 62
     6
370
     5
100
AcDbCircle
 10
-37.36392987802304
 20
157.4801357166327
 30
0.0
 40
2.500000106782066
100
AcDbArc
 50
240.0
 51
319.2772979736329
  0
ARC
  5
1BA
330
1F
100
AcDbEntity
  8
2-1
  6
Continuous
 62
     6
370
     5
100
AcDbCircle
 10
-45.28044250358106
 20
173.3883303579816
 30
0.0
 40
1.499999982049566
100
AcDbArc
 50
30.00032043457032
 51
128.9652404785157
  0
ARC
  5
1BB
330
1F
100
AcDbEntity
  8
2-1
  6
Continuous
 62
     6
370
     5
100
AcDbCircle
 10
-36.58857931470859
 20
158.333490270091
 30
0.0
 40
1.499999982049566
100
AcDbArc
 50
316.205825805664
 51
30.00032043457032
  0
ARC
  5
1BC
330
1F
100
AcDbEntity
  8
2-1
  6
Continuous
 62
     6
370
     5
100
AcDbCircle
 10
-21.06945975744207
 20
143.4537129730011
 30
0.0
 40
20.00000085425653
100
AcDbArc
 50
100.7220916748047
 51
109.2778015136719
  0
ARC
  5
1BD
330
1F
100
AcDbEntity
  8
2-1
  6
Continuous
 62
     6
370
     5
100
AcDbCircle
 10
-25.06946517755246
 20
181.7453608067479
 30
0.0
 40
1.499999982049566
100
AcDbArc
 50
0.0003204345703111
 51
95.96295166015626
  0
ARC
  5
1BE
330
1F
100
AcDbEntity
  8
2-1
  6
Continuous
 62
     6
370
     5
100
AcDbCircle
 10
-36.75116636639477
 20
178.6152276087131
 30
0.0
 40
1.499999982049566
100
AcDbArc
 50
114.03759765625
 51
210.0
  0
ARC
  5
1BF
330
1F
100
AcDbEntity
  8
2-1
  6
Continuous
 62
     6
370
     5
100
AcDbCircle
 10
-28.16768288029288
 20
163.7482060112228
 30
0.0
 40
1.499999982049566
100
AcDbArc
 50
210.0
 51
289.2789764404297
  0
ARC
  5
1C0
330
1F
100
AcDbEntity
  8
2-1
  6
Continuous
 62
     6
370
     5
100
AcDbCircle
 10
-25.06946517755246
 20
164.5783413419532
 30
0.0
 40
1.499999982049566
100
AcDbArc
 50
280.7230682373047
 51
0.0003204345703111
  0
ARC
  5
1C1
330
1F
100
AcDbEntity
  8
2-1
  6
Continuous
 62
     6
370
     5
100
AcDbCircle
 10
-21.06945975744207
 20
143.4537129730011
 30
0.0
 40
18.99999949922893
100
AcDbArc
 50
100.7222137451172
 51
109.2779541015625
  0
ARC
  5
1C2
330
1F
100
AcDbEntity
  8
2-1
  6
Continuous
 62
     6
370
     5
100
AcDbCircle
 10
-21.06945975744207
 20
143.4537129730011
 30
0.0
 40
41.00000306354066
100
AcDbArc
 50
95.96354675292963
 51
114.0364532470703
  0
ARC
  5
1C3
330
1F
100
AcDbEntity
  8
2-1
  6
Continuous
 62
     6
370
     5
100
AcDbCircle
 10
-36.75116636639477
 20
178.6152276087131
 30
0.0
 40
2.500000106782066
100
AcDbArc
 50
114.0364990234375
 51
210.0
  0
ARC
  5
1C4
330
1F
100
AcDbEntity
  8
2-1
  6
Continuous
 62
     6
370
     5
100
AcDbCircle
 10
-25.0695001726131
 20
181.7453608067479
 30
0.0
 40
2.500000106782066
100
AcDbArc
 50
0.0
 51
95.96289062500001
  0
ARC
  5
1C5
330
1F
100
AcDbEntity
  8
2-1
  6
Continuous
 62
     6
370
     5
100
AcDbCircle
 10
-25.06946517755246
 20
164.5783413419532
 30
0.0
 40
2.500000106782066
100
AcDbArc
 50
280.7217102050781
 51
0.0
  0
ARC
  5
1C6
330
1F
100
AcDbEntity
  8
2-1
  6
Continuous
 62
     6
370
     5
100
AcDbCircle
 10
-28.16768288029288
 20
163.7482060112228
 30
0.0
 40
2.500000106782066
100
AcDbArc
 50
210.0
 51
289.2772979736328
  0
ARC
  5
1C7
330
1F
100
AcDbEntity
  8
2-1
  6
Continuous
 62
     6
370
     5
100
AcDbCircle
 10
-27.06950288266829
 20
181.4833352902821
 30
0.0
 40
1.499999982049566
100
AcDbArc
 50
0.0003204345703111
 51
98.96524047851564
  0
ARC
  5
1C8
330
1F
100
AcDbEntity
  8
2-1
  6
Continuous
 62
     6
370
     5
100
AcDbCircle
 10
-27.06950288266829
 20
164.0995389224159
 30
0.0
 40
1.499999982049566
100
AcDbArc
 50
286.2058258056641
 51
0.0003204345703111
  0
ARC
  5
1C9
330
1F
100
AcDbEntity
  8
2-1
  6
Continuous
 62
     6
370
     5
100
AcDbCircle
 10
-21.06945975744207
 20
143.4537129730011
 30
0.0
 40
40.00000170851306
100
AcDbArc
 50
65.96353149414062
 51
84.03649902343751
  0
ARC
  5
1CA
330
1F
100
AcDbEntity
  8
2-1
  6
Continuous
 62
     6
370
     5
100
AcDbCircle
 10
-21.06945975744207
 20
143.4537129730011
 30
0.0
 40
20.00000085425653
100
AcDbArc
 50
70.72209167480467
 51
79.27780151367186
  0
ARC
  5
1CB
330
1F
100
AcDbEntity
  8
2-1
  6
Continuous
 62
     6
370
     5
100
AcDbCircle
 10
-5.387753148489354
 20
178.6152276087131
 30
0.0
 40
1.499999982049566
100
AcDbArc
 50
330.0003204345703
 51
65.96295166015626
  0
ARC
  5
1CC
330
1F
100
AcDbEntity
  8
2-1
  6
Continuous
 62
     6
370
     5
100
AcDbCircle
 10
-17.06945433733166
 20
181.7453608067479
 30
0.0
 40
1.499999982049566
100
AcDbArc
 50
84.03759765625003
 51
180.0
  0
ARC
  5
1CD
330
1F
100
AcDbEntity
  8
2-1
  6
Continuous
 62
     6
370
     5
100
AcDbCircle
 10
-17.06945433733167
 20
164.5783413419532
 30
0.0
 40
1.499999982049566
100
AcDbArc
 50
180.0
 51
259.2789764404296
  0
ARC
  5
1CE
330
1F
100
AcDbEntity
  8
2-1
  6
Continuous
 62
     6
370
     5
100
AcDbCircle
 10
-13.9712716296519
 20
163.7481360211015
 30
0.0
 40
1.499999982049566
100
AcDbArc
 50
250.7230682373047
 51
330.0003204345703
  0
ARC
  5
1CF
330
1F
100
AcDbEntity
  8
2-1
  6
Continuous
 62
     6
370
     5
100
AcDbCircle
 10
-21.06945975744207
 20
143.4537129730011
 30
0.0
 40
18.99999949922893
100
AcDbArc
 50
70.7222137451172
 51
79.27795410156251
  0
ARC
  5
1D0
330
1F
100
AcDbEntity
  8
2-1
  6
Continuous
 62
     6
370
     5
100
AcDbCircle
 10
-21.06945975744207
 20
143.4537129730011
 30
0.0
 40
41.00000306354066
100
AcDbArc
 50
65.9635467529297
 51
84.03645324707033
  0
ARC
  5
1D1
330
1F
100
AcDbEntity
  8
2-1
  6
Continuous
 62
     6
370
     5
100
AcDbCircle
 10
-17.06945433733166
 20
181.7453608067479
 30
0.0
 40
2.500000106782066
100
AcDbArc
 50
84.0364990234375
 51
180.0
  0
ARC
  5
1D2
330
1F
100
AcDbEntity
  8
2-1
  6
Continuous
 62
     6
370
     5
100
AcDbCircle
 10
-5.387753148489354
 20
178.615332593895
 30
0.0
 40
2.500000106782066
100
AcDbArc
 50
330.0
 51
65.962890625
  0
ARC
  5
1D3
330
1F
100
AcDbEntity
  8
2-1
  6
Continuous
 62
     6
370
     5
100
AcDbCircle
 10
-13.9712716296519
 20
163.7481360211015
 30
0.0
 40
2.500000106782066
100
AcDbArc
 50
250.7217102050782
 51
330.0
  0
ARC
  5
1D4
330
1F
100
AcDbEntity
  8
2-1
  6
Continuous
 62
     6
370
     5
100
AcDbCircle
 10
-17.06945433733167
 20
164.5783413419532
 30
0.0
 40
2.500000106782066
100
AcDbArc
 50
180.0
 51
259.2772979736328
  0
ARC
  5
1D5
330
1F
100
AcDbEntity
  8
2-1
  6
Continuous
 62
     6
370
     5
100
AcDbCircle
 10
-7.250855181360679
 20
179.3883734832079
 30
0.0
 40
1.499999982049566
100
AcDbArc
 50
330.0003204345703
 51
68.96524047851564
  0
ARC
  5
1D6
330
1F
100
AcDbEntity
  8
2-1
  6
Continuous
 62
     6
370
     5
100
AcDbCircle
 10
-15.94275336529377
 20
164.333515897787
 30
0.0
 40
1.499999982049566
100
AcDbArc
 50
256.2058258056641
 51
330.0003204345703
  0
ARC
  5
1D7
330
1F
100
AcDbEntity
  8
2-1
  6
Continuous
 62
     6
370
     5
100
AcDbCircle
 10
-21.06945975744207
 20
143.4537129730011
 30
0.0
 40
40.00000170851306
100
AcDbArc
 50
35.96353149414064
 51
54.03649902343751
  0
ARC
  5
1D8
330
1F
100
AcDbEntity
  8
2-1
  6
Continuous
 62
     6
370
     5
100
AcDbCircle
 10
-21.06945975744207
 20
143.4537129730011
 30
0.0
 40
20.00000085425653
100
AcDbArc
 50
40.72209167480469
 51
49.27780151367188
  0
ARC
  5
1D9
330
1F
100
AcDbEntity
  8
2-1
  6
Continuous
 62
     6
370
     5
100
AcDbCircle
 10
10.09203196062922
 20
166.0636367002649
 30
0.0
 40
1.499999982049566
100
AcDbArc
 50
300.0003204345703
 51
35.96295166015626
  0
ARC
  5
1DA
330
1F
100
AcDbEntity
  8
2-1
  6
Continuous
 62
     6
370
     5
100
AcDbCircle
 10
1.540428974761124
 20
174.615239686133
 30
0.0
 40
1.499999982049566
100
AcDbArc
 50
54.03759765624999
 51
150.0
  0
ARC
  5
1DB
330
1F
100
AcDbEntity
  8
2-1
  6
Continuous
 62
     6
370
     5
100
AcDbCircle
 10
-7.043089506401421
 20
159.7482180886427
 30
0.0
 40
1.499999982049566
100
AcDbArc
 50
150.0
 51
229.2789764404297
  0
ARC
  5
1DC
330
1F
100
AcDbEntity
  8
2-1
  6
Continuous
 62
     6
370
     5
100
AcDbCircle
 10
-4.7749896368611
 20
157.4801357166327
 30
0.0
 40
1.499999982049566
100
AcDbArc
 50
220.7230682373048
 51
300.0003204345703
  0
ARC
  5
1DD
330
1F
100
AcDbEntity
  8
2-1
  6
Continuous
 62
     6
370
     5
100
AcDbCircle
 10
-21.06945975744207
 20
143.4537129730011
 30
0.0
 40
18.99999949922893
100
AcDbArc
 50
40.72221374511718
 51
49.27795410156249
  0
ARC
  5
1DE
330
1F
100
AcDbEntity
  8
2-1
  6
Continuous
 62
     6
370
     5
100
AcDbCircle
 10
-21.06945975744207
 20
143.4537129730011
 30
0.0
 40
41.00000306354066
100
AcDbArc
 50
35.96354675292969
 51
54.03645324707032
  0
ARC
  5
1DF
330
1F
100
AcDbEntity
  8
2-1
  6
Continuous
 62
     6
370
     5
100
AcDbCircle
 10
1.540428974761124
 20
174.615239686133
 30
0.0
 40
2.500000106782066
100
AcDbArc
 50
54.03649902343751
 51
150.0
  0
ARC
  5
1E0
330
1F
100
AcDbEntity
  8
2-1
  6
Continuous
 62
     6
370
     5
100
AcDbCircle
 10
10.09203196062922
 20
166.0636367002649
 30
0.0
 40
2.500000106782066
100
AcDbArc
 50
300.0
 51
35.962890625
  0
ARC
  5
1E1
330
1F
100
AcDbEntity
  8
2-1
  6
Continuous
 62
     6
370
     5
100
AcDbCircle
 10
-4.7749896368611
 20
157.4801357166327
 30
0.0
 40
2.500000106782066
100
AcDbArc
 50
220.7217102050781
 51
300.0
  0
ARC
  5
1E2
330
1F
100
AcDbEntity
  8
2-1
  6
Continuous
 62
     6
370
     5
100
AcDbCircle
 10
-7.043089506401421
 20
159.7482180886427
 30
0.0
 40
2.500000106782066
100
AcDbArc
 50
150.0
 51
229.2772979736328
  0
ARC
  5
1E3
330
1F
100
AcDbEntity
  8
2-1
  6
Continuous
 62
     6
370
     5
100
AcDbCircle
 10
8.86517512506877
 20
167.6646957191401
 30
0.0
 40
1.499999982049566
100
AcDbArc
 50
300.0003204345703
 51
38.96524047851564
  0
ARC
  5
1E4
330
1F
100
AcDbEntity
  8
2-1
  6
Continuous
 62
     6
370
     5
100
AcDbCircle
 10
-6.189699957882473
 20
158.9727800376767
 30
0.0
 40
1.499999982049566
100
AcDbArc
 50
226.2058258056641
 51
300.0003204345703
  0
ARC
  5
1E5
330
1F
100
AcDbEntity
  8
2-1
  6
Continuous
 62
     6
370
     5
100
AcDbCircle
 10
-21.06945975744207
 20
143.4537129730011
 30
0.0
 40
40.00000170851306
100
AcDbArc
 50
5.963531494140622
 51
24.0364990234375
  0
ARC
  5
1E6
330
1F
100
AcDbEntity
  8
2-1
  6
Continuous
 62
     6
370
     5
100
AcDbCircle
 10
-21.06945975744207
 20
143.4537129730011
 30
0.0
 40
20.00000085425653
100
AcDbArc
 50
10.72209167480469
 51
19.27780151367188
  0
ARC
  5
1E7
330
1F
100
AcDbEntity
  8
2-1
  6
Continuous
 62
     6
370
     5
100
AcDbCircle
 10
17.22220557383506
 20
147.4536833980509
 30
0.0
 40
1.499999982049566
100
AcDbArc
 50
270.0003204345703
 51
5.962951660156261
  0
ARC
  5
1E8
330
1F
100
AcDbEntity
  8
2-1
  6
Continuous
 62
     6
370
     5
100
AcDbCircle
 10
14.09210737086088
 20
159.1354370794841
 30
0.0
 40
1.499999982049566
100
AcDbArc
 50
24.03759765625001
 51
120.0
  0
ARC
  5
1E9
330
1F
100
AcDbEntity
  8
2-1
  6
Continuous
 62
     6
370
     5
100
AcDbCircle
 10
-0.7750542068719923
 20
150.5519185983216
 30
0.0
 40
1.499999982049566
100
AcDbArc
 50
120.0
 51
199.2789764404297
  0
ARC
  5
1EA
330
1F
100
AcDbEntity
  8
2-1
  6
Continuous
 62
     6
370
     5
100
AcDbCircle
 10
0.0551686115100338
 20
147.4536833980509
 30
0.0
 40
1.499999982049566
100
AcDbArc
 50
190.7230682373047
 51
270.0003204345703
  0
ARC
  5
1EB
330
1F
100
AcDbEntity
  8
2-1
  6
Continuous
 62
     6
370
     5
100
AcDbCircle
 10
-21.06945975744207
 20
143.4537129730011
 30
0.0
 40
18.99999949922893
100
AcDbArc
 50
10.72221374511719
 51
19.2779541015625
  0
ARC
  5
1EC
330
1F
100
AcDbEntity
  8
2-1
  6
Continuous
 62
     6
370
     5
100
AcDbCircle
 10
-21.06945975744207
 20
143.4537129730011
 30
0.0
 40
41.00000306354066
100
AcDbArc
 50
5.963546752929694
 51
24.03645324707032
  0
ARC
  5
1ED
330
1F
100
AcDbEntity
  8
2-1
  6
Continuous
 62
     6
370
     5
100
AcDbCircle
 10
14.09210737086088
 20
159.1354370794841
 30
0.0
 40
2.500000106782066
100
AcDbArc
 50
24.0364990234375
 51
120.0
  0
ARC
  5
1EE
330
1F
100
AcDbEntity
  8
2-1
  6
Continuous
 62
     6
370
     5
100
AcDbCircle
 10
17.22220557383506
 20
147.4536833980509
 30
0.0
 40
2.500000106782066
100
AcDbArc
 50
270.0
 51
5.962890625000012
  0
ARC
  5
1EF
330
1F
100
AcDbEntity
  8
2-1
  6
Continuous
 62
     6
370
     5
100
AcDbCircle
 10
0.0551686115100338
 20
147.4536833980509
 30
0.0
 40
2.500000106782066
100
AcDbArc
 50
190.7217102050781
 51
270.0
  0
ARC
  5
1F0
330
1F
100
AcDbEntity
  8
2-1
  6
Continuous
 62
     6
370
     5
100
AcDbCircle
 10
-0.7750542068719923
 20
150.5519185983216
 30
0.0
 40
2.500000106782066
100
AcDbArc
 50
120.0
 51
199.2772979736328
  0
ARC
  5
1F1
330
1F
100
AcDbEntity
  8
2-1
  6
Continuous
 62
     6
370
     5
100
AcDbCircle
 10
16.96016255983896
 20
149.453738600697
 30
0.0
 40
1.499999982049566
100
AcDbArc
 50
270.0003204345703
 51
8.965240478515632
  0
ARC
  5
1F2
330
1F
100
AcDbEntity
  8
2-1
  6
Continuous
 62
     6
370
     5
100
AcDbCircle
 10
-0.423633808027283
 20
149.453738600697
 30
0.0
 40
1.499999982049566
100
AcDbArc
 50
196.2058258056641
 51
270.0003204345703
  0
ARC
  5
1F3
330
1F
100
AcDbEntity
  8
2-1
  6
Continuous
 62
     6
370
     5
100
AcDbCircle
 10
-21.06945975744207
 20
143.4537129730011
 30
0.0
 40
13.49999970174664
100
AcDbArc
 50
44.07934570312501
 51
135.920654296875
  0
ARC
  5
1F4
330
1F
100
AcDbEntity
  8
2-1
  6
Continuous
 62
     6
370
     5
100
AcDbCircle
 10
-12.80810580443772
 20
151.4537588082825
 30
0.0
 40
1.999999976066088
100
AcDbArc
 50
270.0
 51
44.07815551757812
  0
ARC
  5
1F5
330
1F
100
AcDbEntity
  8
2-1
  6
Continuous
 62
     6
370
     5
100
AcDbCircle
 10
-29.33081371044641
 20
151.4537588082825
 30
0.0
 40
1.999999976066088
100
AcDbArc
 50
135.9218444824219
 51
270.0
  0
ARC
  5
1F6
330
1F
100
AcDbEntity
  8
2-1
  6
Continuous
 62
     6
370
     5
100
AcDbCircle
 10
-21.06945975744207
 20
143.4537129730011
 30
0.0
 40
67.49999960232886
100
AcDbArc
 50
4.248001098632804
 51
8.51963806152343
  0
ARC
  5
1F7
330
1F
100
AcDbEntity
  8
2-1
  6
Continuous
 62
     6
370
     5
100
AcDbCircle
 10
-21.06945975744207
 20
143.4537129730011
 30
0.0
 40
67.49999960232886
100
AcDbArc
 50
171.4803619384766
 51
175.7519989013672
  0
ARC
  5
1F8
330
1F
100
AcDbEntity
  8
2-1
  6
Continuous
 62
     6
370
     5
100
AcDbCircle
 10
-21.06945975744207
 20
143.4537129730011
 30
0.0
 40
68.50000095735645
100
AcDbArc
 50
3.347640991210937
 51
176.6523590087891
  0
ARC
  5
1F9
330
1F
100
AcDbEntity
  8
2-1
  6
Continuous
 62
     6
370
     5
100
AcDbCircle
 10
-21.06945975744207
 20
143.4537129730011
 30
0.0
 40
57.2285074948344
100
AcDbArc
 50
0.0
 51
6.486083984375
  0
ARC
  5
1FA
330
1F
100
AcDbEntity
  8
2-1
  6
Continuous
 62
     6
370
     5
100
AcDbCircle
 10
-21.06945975744207
 20
143.4537129730011
 30
0.0
 40
57.49999917520059
100
AcDbArc
 50
6.49079895019532
 51
173.5092010498047
  0
ARC
  5
1FB
330
1F
100
AcDbEntity
  8
2-1
  6
Continuous
 62
     6
370
     5
100
AcDbCircle
 10
-21.06945975744207
 20
143.4537129730011
 30
0.0
 40
57.2285074948344
100
AcDbArc
 50
173.513916015625
 51
180.0
  0
ARC
  5
1FC
330
1F
100
AcDbEntity
  8
2-1
  6
Continuous
 62
     6
370
     5
100
AcDbCircle
 10
27.98885591732867
 20
156.7388003522505
 30
0.0
 40
0.9999999880330442
100
AcDbArc
 50
112.4991760253906
 51
195.1528625488281
  0
ARC
  5
1FD
330
1F
100
AcDbEntity
  8
2-1
  6
Continuous
 62
     6
370
     5
100
AcDbCircle
 10
29.32251767793137
 20
150.0767731626201
 30
0.0
 40
0.9999999880330442
100
AcDbArc
 50
187.4871215820313
 51
277.4861297607422
  0
ARC
  5
1FE
330
1F
100
AcDbEntity
  8
2-1
  6
Continuous
 62
     6
370
     5
100
AcDbCircle
 10
-21.06945975744207
 20
143.4537129730011
 30
0.0
 40
49.82533741365528
100
AcDbArc
 50
7.487518310546891
 51
15.15237426757814
  0
ARC
  5
1FF
330
1F
100
AcDbEntity
  8
2-1
  6
Continuous
 62
     6
370
     5
100
AcDbCircle
 10
-70.12784542233408
 20
156.7388003522505
 30
0.0
 40
0.9999999880330442
100
AcDbArc
 50
344.8471374511719
 51
67.50082397460939
  0
ARC
  5
200
330
1F
100
AcDbEntity
  8
2-1
  6
Continuous
 62
     6
370
     5
100
AcDbCircle
 10
-71.46143719281551
 20
150.0767731626201
 30
0.0
 40
0.9999999880330442
100
AcDbArc
 50
262.5138702392579
 51
352.5128784179688
  0
ARC
  5
201
330
1F
100
AcDbEntity
  8
2-1
  6
Continuous
 62
     6
370
     5
100
AcDbCircle
 10
-21.06945975744207
 20
143.4537129730011
 30
0.0
 40
49.82533741365528
100
AcDbArc
 50
164.847625732422
 51
172.5124816894532
  0
ARC
  5
202
330
1F
100
AcDbEntity
  8
2-1
  6
Continuous
 62
     6
370
     5
100
AcDbCircle
 10
19.17052057934005
 20
174.5013482613133
 30
0.0
 40
0.9999999880330442
100
AcDbArc
 50
135.0003509521484
 51
217.6522979736328
  0
ARC
  5
203
330
1F
100
AcDbEntity
  8
2-1
  6
Continuous
 62
     6
370
     5
100
AcDbCircle
 10
23.01395809819255
 20
168.749227643119
 30
0.0
 40
0.9999999880330442
100
AcDbArc
 50
209.847412109375
 51
292.5001068115234
  0
ARC
  5
204
330
1F
100
AcDbEntity
  8
2-1
  6
Continuous
 62
     6
370
     5
100
AcDbCircle
 10
-21.06945975744207
 20
143.4537129730011
 30
0.0
 40
49.82533741365528
100
AcDbArc
 50
29.84764099121094
 51
37.65238952636719
  0
ARC
  5
205
330
1F
100
AcDbEntity
  8
2-1
  6
Continuous
 62
     6
370
     5
100
AcDbCircle
 10
4.226019917615233
 20
187.5371658236964
 30
0.0
 40
0.9999999880330442
100
AcDbArc
 50
157.5003509521484
 51
240.1522979736328
  0
ARC
  5
206
330
1F
100
AcDbEntity
  8
2-1
  6
Continuous
 62
     6
370
     5
100
AcDbCircle
 10
9.978158033339795
 20
183.6937283048438
 30
0.0
 40
0.9999999880330442
100
AcDbArc
 50
232.347412109375
 51
315.0001068115234
  0
ARC
  5
207
330
1F
100
AcDbEntity
  8
2-1
  6
Continuous
 62
     6
370
     5
100
AcDbCircle
 10
-14.56947719605814
 20
193.8617006486127
 30
0.0
 40
0.9999999880330442
100
AcDbArc
 50
180.0003509521484
 51
262.6522979736328
  0
ARC
  5
208
330
1F
100
AcDbEntity
  8
2-1
  6
Continuous
 62
     6
370
     5
100
AcDbCircle
 10
-7.784424870783639
 20
192.5120636428325
 30
0.0
 40
0.9999999880330442
100
AcDbArc
 50
254.847412109375
 51
337.5001068115234
  0
ARC
  5
209
330
1F
100
AcDbEntity
  8
2-1
  6
Continuous
 62
     6
370
     5
100
AcDbCircle
 10
-34.35456463422175
 20
192.5120636428325
 30
0.0
 40
0.9999999880330442
100
AcDbArc
 50
202.5003509521484
 51
285.1522979736328
  0
ARC
  5
20A
330
1F
100
AcDbEntity
  8
2-1
  6
Continuous
 62
     6
370
     5
100
AcDbCircle
 10
-27.56947731388662
 20
193.861665653552
 30
0.0
 40
0.9999999880330442
100
AcDbArc
 50
277.347412109375
 51
0.0001068115234243
  0
ARC
  5
20B
330
1F
100
AcDbEntity
  8
2-1
  6
Continuous
 62
     6
370
     5
100
AcDbCircle
 10
-52.11711254328453
 20
183.6937283048438
 30
0.0
 40
0.9999999880330442
100
AcDbArc
 50
225.0003509521485
 51
307.6522979736328
  0
ARC
  5
20C
330
1F
100
AcDbEntity
  8
2-1
  6
Continuous
 62
     6
370
     5
100
AcDbCircle
 10
-46.36500942262064
 20
187.5371658236964
 30
0.0
 40
0.9999999880330442
100
AcDbArc
 50
299.8474121093751
 51
22.50010681152343
  0
ARC
  5
20D
330
1F
100
AcDbEntity
  8
2-1
  6
Continuous
 62
     6
370
     5
100
AcDbCircle
 10
-65.15294760319799
 20
168.749227643119
 30
0.0
 40
0.9999999880330442
100
AcDbArc
 50
247.5003509521485
 51
330.1522979736328
  0
ARC
  5
20E
330
1F
100
AcDbEntity
  8
2-1
  6
Continuous
 62
     6
370
     5
100
AcDbCircle
 10
-61.3095100843454
 20
174.5013132662527
 30
0.0
 40
0.9999999880330442
100
AcDbArc
 50
322.347412109375
 51
45.00010681152342
  0
ARC
  5
20F
330
1F
100
AcDbEntity
  8
2-1
  6
Continuous
 62
     6
370
     5
100
AcDbCircle
 10
-21.06945975744207
 20
143.4537129730011
 30
0.0
 40
49.82533741365528
100
AcDbArc
 50
142.3476257324219
 51
150.1523742675782
  0
ARC
  5
210
330
1F
100
AcDbEntity
  8
2-1
  6
Continuous
 62
     6
370
     5
100
AcDbCircle
 10
-21.06945975744207
 20
143.4537129730011
 30
0.0
 40
49.82533741365528
100
AcDbArc
 50
119.8476257324219
 51
127.6523742675781
  0
ARC
  5
211
330
1F
100
AcDbEntity
  8
2-1
  6
Continuous
 62
     6
370
     5
100
AcDbCircle
 10
-21.06945975744207
 20
143.4537129730011
 30
0.0
 40
49.82533741365528
100
AcDbArc
 50
97.34764099121094
 51
105.1523895263671
  0
ARC
  5
212
330
1F
100
AcDbEntity
  8
2-1
  6
Continuous
 62
     6
370
     5
100
AcDbCircle
 10
-21.06945975744207
 20
143.4537129730011
 30
0.0
 40
49.82533741365528
100
AcDbArc
 50
74.84762573242186
 51
82.65237426757814
  0
ARC
  5
213
330
1F
100
AcDbEntity
  8
2-1
  6
Continuous
 62
     6
370
     5
100
AcDbCircle
 10
-21.06945975744207
 20
143.4537129730011
 30
0.0
 40
49.82533741365528
100
AcDbArc
 50
52.34762573242187
 51
60.15238952636719
  0
ARC
  5
214
330
1F
100
AcDbEntity
  8
2-1
  6
Continuous
 62
     6
370
     5
100
AcDbCircle
 10
-21.06945975744207
 20
143.4537129730011
 30
0.0
 40
40.00000170851306
100
AcDbArc
 50
95.96353149414061
 51
114.0364990234375
  0
ARC
  5
215
330
1F
100
AcDbEntity
  8
2-0
  6
Continuous
 62
     3
370
     9
100
AcDbCircle
 10
-21.06945975744207
 20
143.4537129730011
 30
0.0
 40
74.00000403562568
100
AcDbArc
 50
15.31829833984375
 51
29.68168640136718
  0
ARC
  5
216
330
1F
100
AcDbEntity
  8
2-0
  6
Continuous
 62
     3
370
     9
100
AcDbCircle
 10
-21.06945975744207
 20
143.4537129730011
 30
0.0
 40
70.99999997054287
100
AcDbArc
 50
15.49050903320311
 51
29.50944519042968
  0
ARC
  5
217
330
1F
100
AcDbEntity
  8
2-0
  6
Continuous
 62
     3
370
     9
100
AcDbCircle
 10
-21.06945975744207
 20
143.4537129730011
 30
0.0
 40
74.99999664188812
100
AcDbArc
 50
13.35130310058594
 51
31.64866638183594
  0
ARC
  5
218
330
1F
100
AcDbEntity
  8
2-0
  6
Continuous
 62
     3
370
     9
100
AcDbCircle
 10
-21.06945975744207
 20
143.4537129730011
 30
0.0
 40
74.99999664188812
100
AcDbArc
 50
0.0
 51
9.148666381835938
  0
ARC
  5
219
330
1F
100
AcDbEntity
  8
2-0
  6
Continuous
 62
     3
370
     9
100
AcDbCircle
 10
-21.06945975744207
 20
143.4537129730011
 30
0.0
 40
74.00000403562568
100
AcDbArc
 50
0.0
 51
7.181686401367188
  0
ARC
  5
21A
330
1F
100
AcDbEntity
  8
2-0
  6
Continuous
 62
     3
370
     9
100
AcDbCircle
 10
-21.06945975744207
 20
143.4537129730011
 30
0.0
 40
70.99999997054287
100
AcDbArc
 50
0.0
 51
7.009445190429688
  0
ARC
  5
21B
330
1F
100
AcDbEntity
  8
2-0
  6
Continuous
 62
     3
370
     9
100
AcDbCircle
 10
-21.06945975744207
 20
143.4536779779404
 30
0.0
 40
74.00000403562568
100
AcDbArc
 50
37.81829833984374
 51
52.18168640136719
  0
ARC
  5
21C
330
1F
100
AcDbEntity
  8
2-0
  6
Continuous
 62
     3
370
     9
100
AcDbCircle
 10
-21.06945975744207
 20
143.4536779779404
 30
0.0
 40
70.99999997054287
100
AcDbArc
 50
37.99050903320314
 51
52.0094451904297
  0
ARC
  5
21D
330
1F
100
AcDbEntity
  8
2-0
  6
Continuous
 62
     3
370
     9
100
AcDbCircle
 10
-21.06945975744207
 20
143.4536779779404
 30
0.0
 40
74.99999664188812
100
AcDbArc
 50
35.85130310058593
 51
54.14866638183593
  0
ARC
  5
21E
330
1F
100
AcDbEntity
  8
2-0
  6
Continuous
 62
     3
370
     9
100
AcDbCircle
 10
-21.06945975744207
 20
143.4536779779404
 30
0.0
 40
74.00000403562568
100
AcDbArc
 50
60.31829833984377
 51
74.6816864013672
  0
ARC
  5
21F
330
1F
100
AcDbEntity
  8
2-0
  6
Continuous
 62
     3
370
     9
100
AcDbCircle
 10
-21.06945975744207
 20
143.4536779779404
 30
0.0
 40
70.99999997054287
100
AcDbArc
 50
60.49050903320314
 51
74.5094451904297
  0
ARC
  5
220
330
1F
100
AcDbEntity
  8
2-0
  6
Continuous
 62
     3
370
     9
100
AcDbCircle
 10
-21.06945975744207
 20
143.4536779779404
 30
0.0
 40
74.99999664188812
100
AcDbArc
 50
58.35130310058592
 51
76.64866638183594
  0
ARC
  5
221
330
1F
100
AcDbEntity
  8
2-0
  6
Continuous
 62
     3
370
     9
100
AcDbCircle
 10
-21.06944225991176
 20
143.4536779779404
 30
0.0
 40
74.00000403562568
100
AcDbArc
 50
82.81829833984376
 51
97.1816864013672
  0
ARC
  5
222
330
1F
100
AcDbEntity
  8
2-0
  6
Continuous
 62
     3
370
     9
100
AcDbCircle
 10
-21.06944225991176
 20
143.4536779779404
 30
0.0
 40
70.99999997054287
100
AcDbArc
 50
82.99050903320314
 51
97.0094451904297
  0
ARC
  5
223
330
1F
100
AcDbEntity
  8
2-0
  6
Continuous
 62
     3
370
     9
100
AcDbCircle
 10
-21.06944225991176
 20
143.4536779779404
 30
0.0
 40
74.99999664188812
100
AcDbArc
 50
80.85130310058595
 51
99.14866638183595
  0
ARC
  5
224
330
1F
100
AcDbEntity
  8
2-0
  6
Continuous
 62
     3
370
     9
100
AcDbCircle
 10
-21.06944225991176
 20
143.4536779779404
 30
0.0
 40
74.00000403562568
100
AcDbArc
 50
105.3182983398437
 51
119.6816864013672
  0
ARC
  5
225
330
1F
100
AcDbEntity
  8
2-0
  6
Continuous
 62
     3
370
     9
100
AcDbCircle
 10
-21.06944225991176
 20
143.4536779779404
 30
0.0
 40
70.99999997054287
100
AcDbArc
 50
105.4905090332031
 51
119.5094451904297
  0
ARC
  5
226
330
1F
100
AcDbEntity
  8
2-0
  6
Continuous
 62
     3
370
     9
100
AcDbCircle
 10
-21.06944225991176
 20
143.4536779779404
 30
0.0
 40
74.99999664188812
100
AcDbArc
 50
103.351303100586
 51
121.6486663818359
  0
ARC
  5
227
330
1F
100
AcDbEntity
  8
2-0
  6
Continuous
 62
     3
370
     9
100
AcDbCircle
 10
-21.06944225991176
 20
143.4536429828799
 30
0.0
 40
74.00000403562568
100
AcDbArc
 50
127.8182983398438
 51
142.1816864013672
  0
ARC
  5
228
330
1F
100
AcDbEntity
  8
2-0
  6
Continuous
 62
     3
370
     9
100
AcDbCircle
 10
-21.06944225991176
 20
143.4536429828799
 30
0.0
 40
70.99999997054287
100
AcDbArc
 50
127.9905090332032
 51
142.0094451904297
  0
ARC
  5
229
330
1F
100
AcDbEntity
  8
2-0
  6
Continuous
 62
     3
370
     9
100
AcDbCircle
 10
-21.06944225991176
 20
143.4536429828799
 30
0.0
 40
74.99999664188812
100
AcDbArc
 50
125.851303100586
 51
144.148666381836
  0
ARC
  5
22A
330
1F
100
AcDbEntity
  8
2-0
  6
Continuous
 62
     3
370
     9
100
AcDbCircle
 10
-21.06944225991176
 20
143.4536079878192
 30
0.0
 40
74.00000403562568
100
AcDbArc
 50
150.3182983398437
 51
164.6816864013672
  0
ARC
  5
22B
330
1F
100
AcDbEntity
  8
2-0
  6
Continuous
 62
     3
370
     9
100
AcDbCircle
 10
-21.06944225991176
 20
143.4536079878192
 30
0.0
 40
70.99999997054287
100
AcDbArc
 50
150.4905090332031
 51
164.5094451904297
  0
ARC
  5
22C
330
1F
100
AcDbEntity
  8
2-0
  6
Continuous
 62
     3
370
     9
100
AcDbCircle
 10
-21.06944225991176
 20
143.4536079878192
 30
0.0
 40
74.99999664188812
100
AcDbArc
 50
148.3513031005859
 51
166.648666381836
  0
ARC
  5
22D
330
1F
100
AcDbEntity
  8
2-0
  6
Continuous
 62
     3
370
     9
100
AcDbCircle
 10
-21.06944225991176
 20
143.4536079878192
 30
0.0
 40
70.99999997054287
100
AcDbArc
 50
172.9905090332032
 51
179.9999237060547
  0
ARC
  5
22E
330
1F
100
AcDbEntity
  8
2-0
  6
Continuous
 62
     3
370
     9
100
AcDbCircle
 10
-21.06944225991176
 20
143.4536079878192
 30
0.0
 40
74.00000403562568
100
AcDbArc
 50
172.8182983398438
 51
179.9999389648438
  0
ARC
  5
22F
330
1F
100
AcDbEntity
  8
2-0
  6
Continuous
 62
     3
370
     9
100
AcDbCircle
 10
-21.06944225991176
 20
143.4536079878192
 30
0.0
 40
74.99999664188812
100
AcDbArc
 50
170.8513031005859
 51
179.9999389648438
  0
ARC
  5
230
330
1F
100
AcDbEntity
  8
2-0
  6
Continuous
 62
     3
370
     9
100
AcDbCircle
 10
-21.06945975744207
 20
143.4537129730011
 30
0.0
 40
70.13385034804178
100
AcDbArc
 50
9.002838134765637
 51
13.49716186523439
  0
ARC
  5
231
330
1F
100
AcDbEntity
  8
2-0
  6
Continuous
 62
     3
370
     9
100
AcDbCircle
 10
-21.06938976732081
 20
143.4538529532436
 30
0.0
 40
70.13385034804178
100
AcDbArc
 50
31.50283813476562
 51
35.99716186523438
  0
ARC
  5
232
330
1F
100
AcDbEntity
  8
2-0
  6
Continuous
 62
     3
370
     9
100
AcDbCircle
 10
-21.06933727472985
 20
143.4539754359558
 30
0.0
 40
70.13385034804178
100
AcDbArc
 50
54.00283813476562
 51
58.49716186523438
  0
ARC
  5
233
330
1F
100
AcDbEntity
  8
2-0
  6
Continuous
 62
     3
370
     9
100
AcDbCircle
 10
-21.06928478213893
 20
143.4540979186681
 30
0.0
 40
70.13385034804178
100
AcDbArc
 50
76.50283813476565
 51
80.9971618652344
  0
ARC
  5
234
330
1F
100
AcDbEntity
  8
2-0
  6
Continuous
 62
     3
370
     9
100
AcDbCircle
 10
-21.06924978707828
 20
143.4542029038499
 30
0.0
 40
70.13385034804178
100
AcDbArc
 50
99.00283813476562
 51
103.4971618652343
  0
ARC
  5
235
330
1F
100
AcDbEntity
  8
2-0
  6
Continuous
 62
     3
370
     9
100
AcDbCircle
 10
-21.06921479201767
 20
143.4543078890318
 30
0.0
 40
70.13385034804178
100
AcDbArc
 50
121.5028381347656
 51
125.9971618652344
  0
ARC
  5
236
330
1F
100
AcDbEntity
  8
2-0
  6
Continuous
 62
     3
370
     9
100
AcDbCircle
 10
-21.06916229942671
 20
143.4543953766834
 30
0.0
 40
70.13385034804178
100
AcDbArc
 50
144.0028381347656
 51
148.4971618652344
  0
ARC
  5
237
330
1F
100
AcDbEntity
  8
2-0
  6
Continuous
 62
     3
370
     9
100
AcDbCircle
 10
-21.06910980683576
 20
143.4544828643349
 30
0.0
 40
70.13385034804178
100
AcDbArc
 50
166.5028381347657
 51
170.9971618652343
  0
ARC
  5
238
330
1F
100
AcDbEntity
  8
2-0
  6
Continuous
 62
     3
370
     9
100
AcDbCircle
 10
-21.06931977719955
 20
143.4537129730011
 30
0.0
 40
70.01758363348176
100
AcDbArc
 50
0.0000152587890715
 51
7.716461181640633
  0
ARC
  5
239
330
1F
100
AcDbEntity
  8
2-0
  6
Continuous
 62
     3
370
     9
100
AcDbCircle
 10
-21.06945975744207
 20
143.4537129730011
 30
0.0
 40
70.01772361372429
100
AcDbArc
 50
85.72134399414064
 51
90.00000000000001
  0
ARC
  5
23A
330
1F
100
AcDbEntity
  8
2-0
  6
Continuous
 62
     3
370
     9
100
AcDbCircle
 10
-21.06945975744207
 20
143.4536954754708
 30
0.0
 40
39.50000977976442
100
AcDbArc
 50
7.323043823242178
 51
25.67918395996093
  0
ARC
  5
23B
330
1F
100
AcDbEntity
  8
2-0
  6
Continuous
 62
     3
370
     9
100
AcDbCircle
 10
-21.06945975744207
 20
143.4536954754708
 30
0.0
 40
39.50000977976442
100
AcDbArc
 50
37.32298278808593
 51
55.67916870117187
  0
ARC
  5
23C
330
1F
100
AcDbEntity
  8
2-0
  6
Continuous
 62
     3
370
     9
100
AcDbCircle
 10
-21.06945975744207
 20
143.4536954754708
 30
0.0
 40
39.50000977976442
100
AcDbArc
 50
67.32308959960938
 51
85.67913818359375
  0
ARC
  5
23D
330
1F
100
AcDbEntity
  8
2-0
  6
Continuous
 62
     3
370
     9
100
AcDbCircle
 10
-21.06945975744207
 20
143.4536954754708
 30
0.0
 40
39.50000977976442
100
AcDbArc
 50
97.32304382324219
 51
115.6791229248047
  0
ARC
  5
23E
330
1F
100
AcDbEntity
  8
2-0
  6
Continuous
 62
     3
370
     9
100
AcDbCircle
 10
-21.06945975744207
 20
143.4536954754708
 30
0.0
 40
39.50000977976442
100
AcDbArc
 50
127.3230285644531
 51
145.6792602539062
  0
ARC
  5
23F
330
1F
100
AcDbEntity
  8
2-0
  6
Continuous
 62
     3
370
     9
100
AcDbCircle
 10
-21.06945975744207
 20
143.4536954754708
 30
0.0
 40
39.50000977976442
100
AcDbArc
 50
157.3230285644531
 51
175.6791992187501
  0
ARC
  5
240
330
1F
100
AcDbEntity
  8
2-0
  6
Continuous
 62
     3
370
     9
100
AcDbCircle
 10
-21.06947725497238
 20
143.4536079878192
 30
0.0
 40
69.40377901879977
100
AcDbArc
 50
8.660140991210938
 51
84.81588745117189
  0
ARC
  5
241
330
1F
100
AcDbEntity
  8
2-0
  6
Continuous
 62
     3
370
     9
100
AcDbCircle
 10
-21.06945975744207
 20
143.4537129730011
 30
0.0
 40
70.01772361372429
100
AcDbArc
 50
90.0
 51
94.27865600585939
  0
ARC
  5
242
330
1F
100
AcDbEntity
  8
2-0
  6
Continuous
 62
     3
370
     9
100
AcDbCircle
 10
-21.06959973768459
 20
143.4537129730011
 30
0.0
 40
70.01758363348176
100
AcDbArc
 50
172.2835388183594
 51
179.9999847412109
  0
ARC
  5
243
330
1F
100
AcDbEntity
  8
2-0
  6
Continuous
 62
     3
370
     9
100
AcDbCircle
 10
-21.06944225991176
 20
143.4536079878192
 30
0.0
 40
69.40377901879977
100
AcDbArc
 50
95.18411254882811
 51
171.3398590087891
  0
ARC
  5
244
330
1F
100
AcDbEntity
  8
2-0
  6
Continuous
 62
     3
370
     9
100
AcDbCircle
 10
-15.06945162727645
 20
209.5858387685791
 30
0.0
 40
2.999999964099133
100
AcDbArc
 50
84.81582641601564
 51
131.4079132080078
  0
ARC
  5
245
330
1F
100
AcDbEntity
  8
2-0
  6
Continuous
 62
     3
370
     9
100
AcDbCircle
 10
-16.06945298230407
 20
210.2846551342961
 30
0.0
 40
2.999999964099133
100
AcDbArc
 50
85.72122192382812
 51
147.2200012207031
  0
ARC
  5
246
330
1F
100
AcDbEntity
  8
2-0
  6
Continuous
 62
     3
370
     9
100
AcDbCircle
 10
-26.06946653258005
 20
210.2846551342961
 30
0.0
 40
2.999999964099133
100
AcDbArc
 50
32.77999877929688
 51
94.27877807617188
  0
ARC
  5
247
330
1F
100
AcDbEntity
  8
2-0
  6
Continuous
 62
     3
370
     9
100
AcDbCircle
 10
-27.06946788760767
 20
209.5858387685791
 30
0.0
 40
2.999999964099133
100
AcDbArc
 50
48.59208679199219
 51
95.18417358398438
  0
ARC
  5
248
330
1F
100
AcDbEntity
  8
2-0
  6
Continuous
 62
     3
370
     9
100
AcDbCircle
 10
-86.71609907690244
 20
153.45222173567
 30
0.0
 40
2.999999964099133
100
AcDbArc
 50
171.3399200439453
 51
217.9309692382813
  0
ARC
  5
249
330
1F
100
AcDbEntity
  8
2-0
  6
Continuous
 62
     3
370
     9
100
AcDbCircle
 10
-87.48032121093657
 20
152.4522203806424
 30
0.0
 40
2.999999964099133
100
AcDbArc
 50
172.2835693359375
 51
233.7822418212891
  0
ARC
  5
24A
330
1F
100
AcDbEntity
  8
2-0
  6
Continuous
 62
     3
370
     9
100
AcDbCircle
 10
44.57717956201832
 20
153.45222173567
 30
0.0
 40
2.999999964099133
100
AcDbArc
 50
322.068832397461
 51
8.660079956054743
  0
ARC
  5
24B
330
1F
100
AcDbEntity
  8
2-0
  6
Continuous
 62
     3
370
     9
100
AcDbCircle
 10
45.34140169605244
 20
152.4522203806424
 30
0.0
 40
2.999999964099133
100
AcDbArc
 50
306.2174987792969
 51
7.716430664062444
  0
LINE
  5
24C
330
1F
100
AcDbEntity
  8
2-0
  6
JWW_CENTER2
 62
     3
370
     9
100
AcDbLine
 10
-21.06945975744205
 20
260.667717577974
 30
0.0
 11
-21.06945975744207
 21
130.2592665605322
 31
0.0
  0
ARC
  5
24D
330
1F
100
AcDbEntity
  8
2-0
  6
Continuous
 62
     3
370
     9
100
AcDbCircle
 10
-21.06945975744207
 20
143.4536954754708
 30
0.0
 40
98.00000156122745
100
AcDbArc
 50
0.0
 51
180.0
  0
ARC
  5
24E
330
1F
100
AcDbEntity
  8
2-0
  6
Continuous
 62
     3
370
     9
100
AcDbCircle
 10
-21.06945975744207
 20
143.4536954754708
 30
0.0
 40
100.0000042712826
100
AcDbArc
 50
0.0
 51
180.0
  0
ARC
  5
24F
330
1F
100
AcDbEntity
  8
2-0
  6
Continuous
 62
     3
370
     9
100
AcDbCircle
 10
-21.06945975744207
 20
143.4536954754708
 30
0.0
 40
99.00000291625504
100
AcDbArc
 50
0.0
 51
180.0
  0
LINE
  5
250
330
1F
100
AcDbEntity
  8
2-0
  6
JWW_CENTER2
 62
     3
370
     9
100
AcDbLine
 10
42.43047755780285
 20
140.7820657268737
 30
0.0
 11
42.43047755780285
 21
152.3708918597387
 31
0.0
  0
LINE
  5
251
330
1F
100
AcDbEntity
  8
2-0
  6
JWW_CENTER2
 62
     3
370
     9
100
AcDbLine
 10
-84.5695020578689
 20
140.7820657268737
 30
0.0
 11
-84.5695020578689
 21
143.4537129730011
 31
0.0
  0
LINE
  5
252
330
1F
100
AcDbEntity
  8
2-5
  6
Continuous
 62
     7
370
     9
100
AcDbLine
 10
-120.0695064175229
 20
-30.42599876526983
 30
0.0
 11
-129.3970368265591
 21
-46.58178646188527
 31
0.0
  0
LINE
  5
253
330
1F
100
AcDbEntity
  8
2-5
  6
Continuous
 62
     7
370
     9
100
AcDbLine
 10
-194.781322337963
 20
-46.58178646188527
 30
0.0
 11
-129.3970368265591
 21
-46.58178646188527
 31
0.0
  0
LINE
  5
254
330
1F
100
AcDbEntity
  8
2-5
  6
Continuous
 62
     7
370
     9
100
AcDbLine
 10
-186.0443431712963
 20
-96.42592064498295
 30
0.0
 11
-113.9257919545947
 21
-96.42592064498295
 31
0.0
  0
TEXT
  5
255
330
1F
100
AcDbEntity
  8
F-5
  6
Continuous
 62
     2
370
     9
100
AcDbText
 10
-26.10362139917697
 20
-222.1560594308738
 30
0.0
 40
6.096
  1
鋳鉄製高耐食性ルーフドレン　防水層塗掛け幅25mm　たて引き用　打込型
 41
0.6492424242424244
  7
ＭＳ ゴシック
100
AcDbText
  0
TEXT
  5
256
330
1F
100
AcDbEntity
  8
F-0
  6
Continuous
 62
     2
370
     9
100
AcDbText
 10
-30.96238683127574
 20
-182.5187489711934
 30
0.0
 40
6.096
  1
※ご注文の際はＣ寸法をご指示ください。
 41
1.118421052631579
  7
ＭＳ ゴシック
100
AcDbText
  0
TEXT
  5
257
330
1F
100
AcDbEntity
  8
F-5
  6
Continuous
 62
     2
370
     9
100
AcDbText
 10
-26.04932647462282
 20
-231.7685625786955
 30
0.0
 40
6.096
  1
ねじ込み式　塗膜・モルタル防水用　　ＷＭＲ－２Ｒ－７５　Ｃ＝指示
 41
0.6492187500000002
  7
ＭＳ ゴシック
100
AcDbText
  0
TEXT
  5
258
330
1F
100
AcDbEntity
  8
2-4
  6
Continuous
 62
     2
370
   211
100
AcDbText
 10
100.5985711135612
 20
-70.42603004873315
 30
0.0
 40
6.096
  1
Ｃ
 50
90.0
  7
ＭＳ ゴシック
100
AcDbText
  0
TEXT
  5
259
330
1F
100
AcDbEntity
  8
2-5
  6
Continuous
 62
     7
370
     9
100
AcDbText
 10
-157.3797157214485
 20
-142.5514623325416
 30
0.0
 40
4.572
  1
硬質ポリ塩化ビニル
 41
1.148148148148148
  7
ＭＳ ゴシック
100
AcDbText
  0
LINE
  5
25A
330
1F
100
AcDbEntity
  8
2-5
  6
Continuous
 62
     7
370
     9
100
AcDbLine
 10
68.9497227931736
 20
78.40961310495095
 30
0.0
 11
146.2736819829458
 21
78.40961310495095
 31
0.0
  0
TEXT
  5
25B
330
1F
100
AcDbEntity
  8
2-5
  6
Continuous
 62
     7
370
     9
100
AcDbText
 10
-189.5891795822611
 20
-44.12806978485605
 30
0.0
 40
4.572
  1
本体：ＦＣ１５０
 41
1.145833333333333
  7
ＭＳ ゴシック
100
AcDbText
  0
TEXT
  5
25C
330
1F
100
AcDbEntity
  8
2-5
  6
Continuous
 62
     7
370
     9
100
AcDbText
 10
-193.8891795822611
 20
-52.68451528103647
 30
0.0
 40
4.572
  1
ナイロンコーティング
 41
1.06
  7
ＭＳ ゴシック
100
AcDbText
  0
TEXT
  5
25D
330
1F
100
AcDbEntity
  8
2-5
  6
Continuous
 62
     7
370
     9
100
AcDbText
 10
-184.4850675629455
 20
-92.98755034722222
 30
0.0
 40
4.572
  1
アンカー：ＳＷＲＭ８
 41
1.15
  7
ＭＳ ゴシック
100
AcDbText
  0
TEXT
  5
25E
330
1F
100
AcDbEntity
  8
2-5
  6
Continuous
 62
     7
370
     9
100
AcDbText
 10
-184.4850675629455
 20
-103.1806927083333
 30
0.0
 40
4.572
  1
ナイロンコーティング
 41
1.15
  7
ＭＳ ゴシック
100
AcDbText
  0
TEXT
  5
25F
330
1F
100
AcDbEntity
  8
2-5
  6
Continuous
 62
     7
370
     9
100
AcDbText
 10
-164.630985235423
 20
83.79101095131955
 30
0.0
 40
4.572
  1
ストレーナー：ＦＣ１５０
 41
1.152777777777778
  7
ＭＳ ゴシック
100
AcDbText
  0
TEXT
  5
260
330
1F
100
AcDbEntity
  8
2-5
  6
Continuous
 62
     7
370
     9
100
AcDbText
 10
-157.630985235423
 20
74.48430434236684
 30
0.0
 40
4.572
  1
ナイロンコーティング
 41
1.15
  7
ＭＳ ゴシック
100
AcDbText
  0
TEXT
  5
261
330
1F
100
AcDbEntity
  8
2-5
  6
Continuous
 62
     7
370
     9
100
AcDbText
 10
69.61170238805973
 20
82.40849132496783
 30
0.0
 40
4.572
  1
丸小ねじ：Ｃ２７００Ｗ
 41
1.151515151515152
  7
ＭＳ ゴシック
100
AcDbText
  0
TEXT
  5
262
330
1F
100
AcDbEntity
  8
2-5
  6
Continuous
 62
     7
370
     9
100
AcDbText
 10
90.61170238805973
 20
71.58933354414012
 30
0.0
 40
4.572
  1
Ｍ６×１２
 41
1.133333333333333
  7
ＭＳ ゴシック
100
AcDbText
  0
LINE
  5
263
330
1F
100
AcDbEntity
  8
2-0
  6
Continuous
 62
     3
370
     9
100
AcDbLine
 10
39.4305609803715
 20
-41.4259611779825
 30
0.0
 11
45.43053411547655
 21
-41.4259611779825
 31
0.0
  0
LINE
  5
264
330
1F
100
AcDbEntity
  8
2-0
  6
Continuous
 62
     3
370
     9
100
AcDbLine
 10
39.93057040665054
 20
-42.42594503547977
 30
0.0
 11
44.93052468919755
 21
-42.42594503547977
 31
0.0
  0
LINE
  5
265
330
1F
100
AcDbEntity
  8
2-0
  6
Continuous
 62
     3
370
     9
100
AcDbLine
 10
44.93052468919755
 20
-42.42594503547977
 30
0.0
 11
42.43054754792411
 21
-43.86928131609633
 31
0.0
  0
LINE
  5
266
330
1F
100
AcDbEntity
  8
2-0
  6
Continuous
 62
     3
370
     9
100
AcDbLine
 10
39.93057040665054
 20
-42.42594503547977
 30
0.0
 11
42.43054754792411
 21
-43.86928131609633
 31
0.0
  0
LINE
  5
267
330
1F
100
AcDbEntity
  8
2-0
  6
Continuous
 62
     3
370
     9
100
AcDbLine
 10
-85.89448504343545
 20
-45.22586484141152
 30
0.0
 11
-92.24447877495993
 21
-45.22586484141152
 31
0.0
  0
LINE
  5
268
330
1F
100
AcDbEntity
  8
2-0
  6
Continuous
 62
     3
370
     9
100
AcDbLine
 10
-85.89448504343545
 20
-45.22586484141152
 30
0.0
 11
-86.70958999562538
 21
-44.4258777554137
 31
0.0
  0
LINE
  5
269
330
1F
100
AcDbEntity
  8
2-0
  6
Continuous
 62
     3
370
     9
100
AcDbLine
 10
-91.42951380301247
 20
-44.4258777554137
 30
0.0
 11
-92.24447877495993
 21
-45.22586484141152
 31
0.0
  0
LINE
  5
26A
330
1F
100
AcDbEntity
  8
2-0
  6
Continuous
 62
     3
370
     9
100
AcDbLine
 10
-86.70958999562538
 20
-44.4258777554137
 30
0.0
 11
-91.42951380301247
 21
-44.4258777554137
 31
0.0
  0
LINE
  5
26B
330
1F
100
AcDbEntity
  8
2-0
  6
Continuous
 62
     3
370
     9
100
AcDbLine
 10
-94.06943619174467
 20
-69.42589413357338
 30
0.0
 11
-100.0694093268497
 21
-69.42589413357338
 31
0.0
  0
LINE
  5
26C
330
1F
100
AcDbEntity
  8
2-0
  6
Continuous
 62
     3
370
     9
100
AcDbLine
 10
-86.06939035646326
 20
-67.4258914235182
 30
0.0
 11
-86.06939035646326
 21
-54.42592630075035
 31
0.0
  0
LINE
  5
26D
330
1F
100
AcDbEntity
  8
2-0
  6
Continuous
 62
     3
370
     9
100
AcDbLine
 10
-94.06943619174467
 20
-75.42590226373899
 30
0.0
 11
-100.0694093268497
 21
-75.42590226373899
 31
0.0
  0
LINE
  5
26E
330
1F
100
AcDbEntity
  8
2-0
  6
Continuous
 62
     3
370
     9
100
AcDbLine
 10
-92.06943348168954
 20
-67.4258914235182
 30
0.0
 11
-92.06943348168954
 21
-54.42592630075035
 31
0.0
  0
LINE
  5
26F
330
1F
100
AcDbEntity
  8
2-0
  6
Continuous
 62
     3
370
     9
100
AcDbLine
 10
-91.42951380301247
 20
-54.42592630075035
 30
0.0
 11
-91.42951380301247
 21
-43.42589389791641
 31
0.0
  0
LINE
  5
270
330
1F
100
AcDbEntity
  8
2-0
  6
Continuous
 62
     3
370
     9
100
AcDbLine
 10
-86.70958999562538
 20
-54.42592630075035
 30
0.0
 11
-86.70958999562538
 21
-43.42589389791641
 31
0.0
  0
LINE
  5
271
330
1F
100
AcDbEntity
  8
2-0
  6
Continuous
 62
     3
370
     9
100
AcDbLine
 10
-85.89448504343545
 20
-54.42592630075035
 30
0.0
 11
-85.89448504343545
 21
-45.22586484141152
 31
0.0
  0
LINE
  5
272
330
1F
100
AcDbEntity
  8
2-0
  6
Continuous
 62
     3
370
     9
100
AcDbLine
 10
-92.24447877495993
 20
-54.42592630075035
 30
0.0
 11
-92.24447877495993
 21
-45.22586484141152
 31
0.0
  0
LINE
  5
273
330
1F
100
AcDbEntity
  8
2-0
  6
Continuous
 62
     3
370
     9
100
AcDbLine
 10
-85.89448504343545
 20
-54.42592630075035
 30
0.0
 11
-92.24447877495993
 21
-54.42592630075035
 31
0.0
  0
LINE
  5
274
330
1F
100
AcDbEntity
  8
2-0
  6
JWW_CENTER1
 62
     3
370
     9
100
AcDbLine
 10
-94.06954117692658
 20
-72.42591569618652
 30
0.0
 11
-100.7862481487911
 21
-72.42591569618652
 31
0.0
  0
LINE
  5
275
330
1F
100
AcDbEntity
  8
2-0
  6
Continuous
 62
     3
370
     9
100
AcDbLine
 10
-86.70958999562538
 20
-43.42589389791641
 30
0.0
 11
-91.42951380301247
 21
-43.42589389791641
 31
0.0
  0
LINE
  5
276
330
1F
100
AcDbEntity
  8
2-0
  6
Continuous
 62
     3
370
     9
100
AcDbLine
 10
-86.70958999562538
 20
-43.42589389791641
 30
0.0
 11
-89.06955189931898
 21
-42.06336121229414
 31
0.0
  0
LINE
  5
277
330
1F
100
AcDbEntity
  8
2-0
  6
Continuous
 62
     3
370
     9
100
AcDbLine
 10
-91.42951380301247
 20
-43.42589389791641
 30
0.0
 11
-89.06955189931898
 21
-42.06336121229414
 31
0.0
  0
LINE
  5
278
330
1F
100
AcDbEntity
  8
2-0
  6
Continuous
 62
     3
370
     9
100
AcDbLine
 10
-100.0694093268497
 20
-69.42589413357338
 30
0.0
 11
-100.0694093268497
 21
-75.42590226373899
 31
0.0
  0
LINE
  5
279
330
1F
100
AcDbEntity
  8
2-0
  6
Continuous
 62
     3
370
     9
100
AcDbLine
 10
22.69627293779491
 20
-81.42594538896526
 30
0.0
 11
21.16957842275813
 21
-79.89925087392845
 31
0.0
  0
LINE
  5
27A
330
1F
100
AcDbEntity
  8
2-0
  6
Continuous
 62
     3
370
     9
100
AcDbLine
 10
-64.83519245267917
 20
-81.42594538896522
 30
0.0
 11
-63.30849793764242
 21
-79.89925087392841
 31
0.0
  0
LINE
  5
27B
330
1F
100
AcDbEntity
  8
2-0
  6
Continuous
 62
     3
370
     9
100
AcDbLine
 10
21.16957842275813
 20
-79.89925087392845
 30
0.0
 11
-63.30849793764242
 21
-79.89925087392841
 31
0.0
  0
LINE
  5
27C
330
1F
100
AcDbEntity
  8
2-0
  6
Continuous
 62
     3
370
     9
100
AcDbLine
 10
-66.0694682410932
 20
-53.42597743831369
 30
0.0
 11
-66.0694682410932
 21
-63.42595599352904
 31
0.0
  0
LINE
  5
27D
330
1F
100
AcDbEntity
  8
2-0
  6
Continuous
 62
     3
370
     9
100
AcDbLine
 10
23.93054872620892
 20
-53.42597743831372
 30
0.0
 11
-66.0694682410932
 21
-53.42597743831369
 31
0.0
  0
LINE
  5
27E
330
1F
100
AcDbEntity
  8
2-0
  6
Continuous
 62
     3
370
     9
100
AcDbLine
 10
23.93054872620892
 20
-53.42597743831372
 30
0.0
 11
23.93054872620892
 21
-63.42595599352909
 31
0.0
  0
LINE
  5
27F
330
1F
100
AcDbEntity
  8
2-0
  6
Continuous
 62
     3
370
     9
100
AcDbLine
 10
23.93054872620892
 20
-63.42595599352909
 30
0.0
 11
-66.0694682410932
 21
-63.42595599352904
 31
0.0
  0
LINE
  5
280
330
1F
100
AcDbEntity
  8
2-0
  6
Continuous
 62
     3
370
     9
100
AcDbLine
 10
21.16957842275813
 20
-79.89925087392845
 30
0.0
 11
20.65480108089344
 21
-63.42595599352909
 31
0.0
  0
LINE
  5
281
330
1F
100
AcDbEntity
  8
2-0
  6
Continuous
 62
     3
370
     9
100
AcDbLine
 10
22.69627293779491
 20
-81.42594538896526
 30
0.0
 11
22.13379732829174
 21
-63.42595599352909
 31
0.0
  0
LINE
  5
282
330
1F
100
AcDbEntity
  8
2-0
  6
Continuous
 62
     3
370
     9
100
AcDbLine
 10
-64.83519245267917
 20
-81.42594538896522
 30
0.0
 11
-64.272716843176
 21
-63.42595599352904
 31
0.0
  0
LINE
  5
283
330
1F
100
AcDbEntity
  8
2-0
  6
Continuous
 62
     3
370
     9
100
AcDbLine
 10
-63.30849793764242
 20
-79.89925087392841
 30
0.0
 11
-62.79368560071703
 21
-63.42595599352904
 31
0.0
  0
LINE
  5
284
330
1F
100
AcDbEntity
  8
2-0
  6
JWW_HOJO
 62
     3
370
     9
100
AcDbLine
 10
26.594582711715
 20
-81.425875398844
 30
0.0
 11
28.43049358247695
 21
-81.425875398844
 31
0.0
  0
LINE
  5
285
330
1F
100
AcDbEntity
  8
2-0
  6
Continuous
 62
     3
370
     9
100
AcDbLine
 10
-120.1790409572943
 20
-22.30193043511628
 30
0.0
 11
-121.0694902750203
 21
-29.42594491765131
 31
0.0
  0
LINE
  5
286
330
1F
100
AcDbEntity
  8
2-0
  6
Continuous
 62
     3
370
     9
100
AcDbLine
 10
-95.06952503442392
 20
-23.4259717825463
 30
0.0
 11
-95.65852689988446
 21
-26.64992673812969
 31
0.0
  0
LINE
  5
287
330
1F
100
AcDbEntity
  8
2-0
  6
Continuous
 62
     3
370
     9
100
AcDbLine
 10
-91.20362068664701
 20
-30.48006613394291
 30
0.0
 11
-119.0695925501469
 21
-21.42600406755174
 31
0.0
  0
LINE
  5
288
330
1F
100
AcDbEntity
  8
2-0
  6
JWW_PHANTOM2
 62
     3
370
     9
100
AcDbLine
 10
-79.8388872594594
 20
-31.42598262276711
 30
0.0
 11
-89.76007443566664
 21
-31.42598262276711
 31
0.0
  0
LINE
  5
289
330
1F
100
AcDbEntity
  8
2-0
  6
Continuous
 62
     3
370
     9
100
AcDbLine
 10
78.04012144241005
 20
-22.30193043511632
 30
0.0
 11
78.93057076013599
 21
-29.42594491765133
 31
0.0
  0
LINE
  5
28A
330
1F
100
AcDbEntity
  8
2-0
  6
Continuous
 62
     3
370
     9
100
AcDbLine
 10
52.93060551953963
 20
-23.42597178254634
 30
0.0
 11
53.51960738500018
 21
-26.64992673812974
 31
0.0
  0
LINE
  5
28B
330
1F
100
AcDbEntity
  8
2-0
  6
Continuous
 62
     3
370
     9
100
AcDbLine
 10
49.06470117176273
 20
-30.48006613394293
 30
0.0
 11
76.93067303526263
 21
-21.42600406755176
 31
0.0
  0
LINE
  5
28C
330
1F
100
AcDbEntity
  8
2-0
  6
Continuous
 62
     3
370
     9
100
AcDbLine
 10
36.22060404904014
 20
-32.6779659118598
 30
0.0
 11
35.62502311218112
 21
-36.23059447687852
 31
0.0
  0
LINE
  5
28D
330
1F
100
AcDbEntity
  8
2-0
  6
Continuous
 62
     3
370
     9
100
AcDbLine
 10
-88.01961259277255
 20
-36.60938101313571
 30
0.0
 11
-76.39640564777301
 21
-37.47844834881681
 31
0.0
  0
LINE
  5
28E
330
1F
100
AcDbEntity
  8
2-0
  6
Continuous
 62
     3
370
     9
100
AcDbLine
 10
-91.24918425558701
 20
-30.1086985505392
 30
0.0
 11
-90.77358388409732
 21
-33.98328167335228
 31
0.0
  0
LINE
  5
28F
330
1F
100
AcDbEntity
  8
2-0
  6
Continuous
 62
     3
370
     9
100
AcDbLine
 10
-92.0694684767501
 20
-23.4259717825463
 30
0.0
 11
-91.24916675805673
 21
-30.1086985505392
 31
0.0
  0
LINE
  5
290
330
1F
100
AcDbEntity
  8
2-0
  6
Continuous
 62
     3
370
     9
100
AcDbLine
 10
-66.78907167282432
 20
-47.72199252601577
 30
0.0
 11
-66.68930075496871
 21
-47.73543062929764
 31
0.0
  0
LINE
  5
291
330
1F
100
AcDbEntity
  8
2-0
  6
Continuous
 62
     3
370
     9
100
AcDbLine
 10
-69.71199911686995
 20
-43.05400138860324
 30
0.0
 11
-69.34733308757677
 21
-45.24203255942252
 31
0.0
  0
LINE
  5
292
330
1F
100
AcDbEntity
  8
2-0
  6
Continuous
 62
     3
370
     9
100
AcDbLine
 10
-72.98029281427125
 20
-40.15990987451659
 30
0.0
 11
-71.50369372852606
 21
-40.78373182530392
 31
0.0
  0
LINE
  5
293
330
1F
100
AcDbEntity
  8
2-0
  6
JWW_PHANTOM2
 62
     3
370
     9
100
AcDbLine
 10
-78.35952356392443
 20
-32.67796591185976
 30
0.0
 11
-77.7639251295351
 21
-36.23059447687849
 31
0.0
  0
LINE
  5
294
330
1F
100
AcDbEntity
  8
2-0
  6
Continuous
 62
     3
370
     9
100
AcDbLine
 10
18.43044503714041
 20
-48.42588317552415
 30
0.0
 11
-61.56955837988573
 21
-48.42588317552413
 31
0.0
  0
LINE
  5
295
330
1F
100
AcDbEntity
  8
2-0
  6
Continuous
 62
     3
370
     9
100
AcDbLine
 10
-74.1735893866877
 20
-38.44963127141574
 30
0.0
 11
-73.77294843506718
 21
-39.37441074361953
 31
0.0
  0
LINE
  5
296
330
1F
100
AcDbEntity
  8
2-0
  6
Continuous
 62
     3
370
     9
100
AcDbLine
 10
-75.43813590254649
 20
-37.55004824286546
 30
0.0
 11
-76.39640564777301
 21
-37.47844834881681
 31
0.0
  0
LINE
  5
297
330
1F
100
AcDbEntity
  8
2-0
  6
Continuous
 62
     3
370
     9
100
AcDbLine
 10
24.65015215794003
 20
-47.72199252601579
 30
0.0
 11
24.55038124008443
 21
-47.73543062929768
 31
0.0
  0
LINE
  5
298
330
1F
100
AcDbEntity
  8
2-0
  6
Continuous
 62
     3
370
     9
100
AcDbLine
 10
27.57307960198566
 20
-43.05400138860328
 30
0.0
 11
27.20841357269249
 21
-45.24203255942254
 31
0.0
  0
LINE
  5
299
330
1F
100
AcDbEntity
  8
2-0
  6
Continuous
 62
     3
370
     9
100
AcDbLine
 10
30.84137329938697
 20
-40.15990987451663
 30
0.0
 11
29.36477421364177
 21
-40.78373182530394
 31
0.0
  0
LINE
  5
29A
330
1F
100
AcDbEntity
  8
2-0
  6
Continuous
 62
     3
370
     9
100
AcDbLine
 10
32.03466987180344
 20
-38.44963127141578
 30
0.0
 11
31.63402892018289
 21
-39.37441074361958
 31
0.0
  0
LINE
  5
29B
330
1F
100
AcDbEntity
  8
2-0
  6
Continuous
 62
     3
370
     9
100
AcDbLine
 10
33.29921638766223
 20
-37.55004824286548
 30
0.0
 11
34.25748613288875
 21
-37.47844834881685
 31
0.0
  0
LINE
  5
29C
330
1F
100
AcDbEntity
  8
2-0
  6
Continuous
 62
     3
370
     9
100
AcDbLine
 10
49.93054896186593
 20
-23.42597178254634
 30
0.0
 11
49.06470117176273
 21
-30.48006613394293
 31
0.0
  0
LINE
  5
29D
330
1F
100
AcDbEntity
  8
2-0
  6
JWW_DASHED1
 62
     3
370
     9
100
AcDbLine
 10
49.06466617670205
 20
-30.48006613394293
 30
0.0
 11
48.63468186674343
 21
-33.98328167335232
 31
0.0
  0
LINE
  5
29E
330
1F
100
AcDbEntity
  8
2-0
  6
JWW_CENTER1
 62
     3
370
     9
100
AcDbLine
 10
-89.06955189931898
 20
-67.4258914235182
 30
0.0
 11
-89.06955189931898
 21
-41.87071340352691
 31
0.0
  0
LINE
  5
29F
330
1F
100
AcDbEntity
  8
2-0
  6
Continuous
 62
     3
370
     9
100
AcDbLine
 10
77.04780150319073
 20
-21.42600406755176
 30
0.0
 11
46.90326624702218
 21
-21.42600406755176
 31
0.0
  0
LINE
  5
2A0
330
1F
100
AcDbEntity
  8
2-0
  6
Continuous
 62
     3
370
     9
100
AcDbLine
 10
52.93060551953963
 20
-23.42597178254634
 30
0.0
 11
47.33993461356111
 21
-23.42597178254634
 31
0.0
  0
LINE
  5
2A1
330
1F
100
AcDbEntity
  8
2-0
  6
JWW_DASHED1
 62
     3
370
     9
100
AcDbLine
 10
45.88071057541865
 20
-36.60938101313573
 30
0.0
 11
45.43053411547655
 21
-36.64304626146165
 31
0.0
  0
LINE
  5
2A2
330
1F
100
AcDbEntity
  8
2-0
  6
JWW_DASHED1
 62
     3
370
     9
100
AcDbLine
 10
39.4305609803715
 20
-37.09164794367539
 30
0.0
 11
33.45186484212955
 21
-37.53863985310014
 31
0.0
  0
ARC
  5
2A3
330
1F
100
AcDbEntity
  8
2-0
  6
Continuous
 62
     3
370
     9
100
AcDbCircle
 10
-94.06943619174467
 20
-67.4258914235182
 30
0.0
 40
1.999999976066088
100
AcDbArc
 50
270.0
 51
0.0
  0
ARC
  5
2A4
330
1F
100
AcDbEntity
  8
2-0
  6
Continuous
 62
     3
370
     9
100
AcDbCircle
 10
-94.06943619174467
 20
-67.4258914235182
 30
0.0
 40
7.999999904264353
100
AcDbArc
 50
270.0
 51
0.0
  0
ARC
  5
2A5
330
1F
100
AcDbEntity
  8
2-0
  6
JWW_CENTER1
 62
     3
370
     9
100
AcDbCircle
 10
-94.06954117692658
 20
-67.4258914235182
 30
0.0
 40
5.000000213564133
100
AcDbArc
 50
270.0
 51
0.0
  0
ARC
  5
2A6
330
1F
100
AcDbEntity
  8
2-0
  6
Continuous
 62
     3
370
     9
100
AcDbCircle
 10
47.6214348812674
 20
-29.92595434393028
 30
0.0
 40
1.499999982049566
100
AcDbArc
 50
270.0
 51
353.0023193359375
  0
ARC
  5
2A7
330
1F
100
AcDbEntity
  8
2-0
  6
Continuous
 62
     3
370
     9
100
AcDbCircle
 10
-119.186721018075
 20
-22.4259529299884
 30
0.0
 40
0.9999999880330441
100
AcDbArc
 50
90.0
 51
172.875732421875
  0
ARC
  5
2A8
330
1F
100
AcDbEntity
  8
2-0
  6
Continuous
 62
     3
370
     9
100
AcDbCircle
 10
-97.62598420355391
 20
-26.29045747534008
 30
0.0
 40
1.999999976066088
100
AcDbArc
 50
252.0006561279297
 51
349.6458435058594
  0
ARC
  5
2A9
330
1F
100
AcDbEntity
  8
2-0
  6
Continuous
 62
     3
370
     9
100
AcDbCircle
 10
-87.79592416522667
 20
-33.61772327001313
 30
0.0
 40
2.999999964099133
100
AcDbArc
 50
186.9983520507812
 51
265.7238616943359
  0
ARC
  5
2AA
330
1F
100
AcDbEntity
  8
2-0
  6
JWW_PHANTOM2
 62
     3
370
     9
100
AcDbCircle
 10
-79.8388872594594
 20
-32.92594091148272
 30
0.0
 40
1.499999982049566
100
AcDbArc
 50
9.516937255859384
 51
90.00000000000001
  0
ARC
  5
2AB
330
1F
100
AcDbEntity
  8
2-0
  6
JWW_PHANTOM2
 62
     3
370
     9
100
AcDbCircle
 10
-76.28456143400012
 20
-35.98258448219492
 30
0.0
 40
1.499999982049566
100
AcDbArc
 50
189.5169372558594
 51
265.7239074707031
  0
ARC
  5
2AC
330
1F
100
AcDbEntity
  8
2-0
  6
Continuous
 62
     3
370
     9
100
AcDbCircle
 10
77.04780150319073
 20
-22.42595292998844
 30
0.0
 40
0.9999999880330441
100
AcDbArc
 50
7.124267578125002
 51
90.00000000000001
  0
ARC
  5
2AD
330
1F
100
AcDbEntity
  8
2-0
  6
Continuous
 62
     3
370
     9
100
AcDbCircle
 10
55.48706468866974
 20
-26.29045747534011
 30
0.0
 40
1.999999976066088
100
AcDbArc
 50
190.3541564941407
 51
287.9993438720703
  0
ARC
  5
2AE
330
1F
100
AcDbEntity
  8
2-0
  6
Continuous
 62
     3
370
     9
100
AcDbCircle
 10
47.62115492078235
 20
-29.92595434393028
 30
0.0
 40
1.500000118749022
100
AcDbArc
 50
270.0
 51
353.0004272460938
  0
ARC
  5
2AF
330
1F
100
AcDbEntity
  8
2-0
  6
JWW_DASHED1
 62
     3
370
     9
100
AcDbCircle
 10
45.65702214787277
 20
-33.61772327001317
 30
0.0
 40
2.999999964099133
100
AcDbArc
 50
274.2761383056641
 51
353.0016479492188
  0
ARC
  5
2B0
330
1F
100
AcDbEntity
  8
2-0
  6
Continuous
 62
     3
370
     9
100
AcDbCircle
 10
37.69998524210539
 20
-32.92594091148274
 30
0.0
 40
1.499999982049566
100
AcDbArc
 50
90.0
 51
170.4830627441406
  0
ARC
  5
2B1
330
1F
100
AcDbEntity
  8
2-0
  6
JWW_PHANTOM2
 62
     3
370
     9
100
AcDbCircle
 10
-89.76035439615168
 20
-29.92595434393026
 30
0.0
 40
1.499999982049566
100
AcDbArc
 50
187.0003356933594
 51
270.0106964111328
  0
ARC
  5
2B2
330
1F
100
AcDbEntity
  8
2-0
  6
Continuous
 62
     3
370
     9
100
AcDbCircle
 10
-66.38815076071864
 20
-44.74888216502701
 30
0.0
 40
2.999999964099133
100
AcDbArc
 50
189.4620971679688
 51
262.3200531005859
  0
ARC
  5
2B3
330
1F
100
AcDbEntity
  8
2-0
  6
Continuous
 62
     3
370
     9
100
AcDbCircle
 10
-72.67118144372796
 20
-43.54722177311999
 30
0.0
 40
2.999999964099133
100
AcDbArc
 50
9.462768554687502
 51
67.09773254394533
  0
ARC
  5
2B4
330
1F
100
AcDbEntity
  8
2-0
  6
Continuous
 62
     3
370
     9
100
AcDbCircle
 10
-72.3965577054355
 20
-38.77816490060856
 30
0.0
 40
1.499999982049566
100
AcDbArc
 50
203.4232482910156
 51
247.0977783203125
  0
ARC
  5
2B5
330
1F
100
AcDbEntity
  8
2-0
  6
Continuous
 62
     3
370
     9
100
AcDbCircle
 10
-75.54998011631938
 20
-39.04587711442674
 30
0.0
 40
1.499999982049566
100
AcDbArc
 50
23.42324829101562
 51
85.72390747070312
  0
ARC
  5
2B6
330
1F
100
AcDbEntity
  8
2-0
  6
Continuous
 62
     3
370
     9
100
AcDbCircle
 10
34.14564191911584
 20
-35.98258448219494
 30
0.0
 40
1.499999982049566
100
AcDbArc
 50
274.2760925292969
 51
350.4830627441406
  0
ARC
  5
2B7
330
1F
100
AcDbEntity
  8
2-0
  6
Continuous
 62
     3
370
     9
100
AcDbCircle
 10
24.24923124583436
 20
-44.74888216502703
 30
0.0
 40
2.999999964099133
100
AcDbArc
 50
277.6799468994141
 51
350.5379028320312
  0
ARC
  5
2B8
330
1F
100
AcDbEntity
  8
2-0
  6
Continuous
 62
     3
370
     9
100
AcDbCircle
 10
30.53226192884379
 20
-43.54722177312001
 30
0.0
 40
2.999999964099133
100
AcDbArc
 50
112.9022674560547
 51
170.5372314453125
  0
ARC
  5
2B9
330
1F
100
AcDbEntity
  8
2-0
  6
Continuous
 62
     3
370
     9
100
AcDbCircle
 10
30.25763819055121
 20
-38.77816490060858
 30
0.0
 40
1.499999982049566
100
AcDbArc
 50
292.9022216796875
 51
336.5767517089844
  0
ARC
  5
2BA
330
1F
100
AcDbEntity
  8
2-0
  6
Continuous
 62
     3
370
     9
100
AcDbCircle
 10
33.41106060143509
 20
-39.04587711442676
 30
0.0
 40
1.499999982049566
100
AcDbArc
 50
94.27609252929688
 51
156.5767517089844
  0
ARC
  5
2BB
330
1F
100
AcDbEntity
  8
2-0
  6
Continuous
 62
     3
370
     9
100
AcDbCircle
 10
25.4859041959015
 20
-54.67264147819063
 30
0.0
 40
6.999999642832398
100
AcDbArc
 50
97.68032836914062
 51
169.741195678711
  0
ARC
  5
2BC
330
1F
100
AcDbEntity
  8
2-0
  6
Continuous
 62
     3
370
     9
100
AcDbCircle
 10
-67.62482371078579
 20
-54.67264147819061
 30
0.0
 40
6.999999642832398
100
AcDbArc
 50
10.25880432128908
 51
82.31967163085939
  0
LINE
  5
2BD
330
1F
100
AcDbEntity
  8
2-0
  6
Continuous
 62
     3
370
     9
100
AcDbLine
 10
-69.9833508169936
 20
-41.42596117798246
 30
0.0
 11
27.84443130210932
 21
-41.4259611779825
 31
0.0
  0
LINE
  5
2BE
330
1F
100
AcDbEntity
  8
2-0
  6
Continuous
 62
     3
370
     9
100
AcDbLine
 10
39.93057040665054
 20
-36.42593054257589
 30
0.0
 11
39.93057040665054
 21
-42.42594503547977
 31
0.0
  0
LINE
  5
2BF
330
1F
100
AcDbEntity
  8
2-0
  6
Continuous
 62
     3
370
     9
100
AcDbLine
 10
39.4305609803715
 20
-35.92592111629694
 30
0.0
 11
39.4305609803715
 21
-41.4259611779825
 31
0.0
  0
LINE
  5
2C0
330
1F
100
AcDbEntity
  8
2-0
  6
Continuous
 62
     3
370
     9
100
AcDbLine
 10
44.93052468919755
 20
-36.42593054257589
 30
0.0
 11
44.93052468919755
 21
-42.42594503547977
 31
0.0
  0
LINE
  5
2C1
330
1F
100
AcDbEntity
  8
2-0
  6
Continuous
 62
     3
370
     9
100
AcDbLine
 10
45.43053411547655
 20
-35.92592111629694
 30
0.0
 11
45.43053411547655
 21
-41.4259611779825
 31
0.0
  0
LINE
  5
2C2
330
1F
100
AcDbEntity
  8
2-0
  6
Continuous
 62
     3
370
     9
100
AcDbLine
 10
37.64777261164566
 20
-31.42591263264589
 30
0.0
 11
39.93057040665054
 21
-31.42591263264589
 31
0.0
  0
LINE
  5
2C3
330
1F
100
AcDbEntity
  8
2-0
  6
Continuous
 62
     3
370
     9
100
AcDbLine
 10
44.93052468919755
 20
-31.42591263264589
 30
0.0
 11
47.6214348812674
 21
-31.42591263264589
 31
0.0
  0
LINE
  5
2C4
330
1F
100
AcDbEntity
  8
2-0
  6
Continuous
 62
     3
370
     9
100
AcDbLine
 10
-121.0694902750203
 20
-29.42594491765129
 30
0.0
 11
-120.0695414125836
 21
-30.42596377020926
 31
0.0
  0
LINE
  5
2C5
330
1F
100
AcDbEntity
  8
2-0
  6
Continuous
 62
     3
370
     9
100
AcDbLine
 10
-120.0696114027049
 20
-30.42592877514859
 30
0.0
 11
-115.0695871300368
 21
-30.42592877514859
 31
0.0
  0
ARC
  5
2C6
330
1F
100
AcDbEntity
  8
2-0
  6
Continuous
 62
     3
370
     9
100
AcDbCircle
 10
-109.948864893256
 20
-40.1613796670631
 30
0.0
 40
10.99999959496458
100
AcDbArc
 50
72.00007629394531
 51
117.7434692382813
  0
LINE
  5
2C7
330
1F
100
AcDbEntity
  8
2-0
  6
Continuous
 62
     3
370
     9
100
AcDbLine
 10
-97.30201742977349
 20
-32.70452716287788
 30
0.0
 11
-106.5497246641598
 21
-29.69971127695845
 31
0.0
  0
ARC
  5
2C8
330
1F
100
AcDbEntity
  8
2-0
  6
Continuous
 62
     3
370
     9
100
AcDbCircle
 10
-97.92004769802642
 20
-34.6066136932908
 30
0.0
 40
1.999999976066088
100
AcDbArc
 50
6.239059448242175
 51
72.00018310546874
  0
LINE
  5
2C9
330
1F
100
AcDbEntity
  8
2-0
  6
Continuous
 62
     3
370
     9
100
AcDbLine
 10
-95.93189081599454
 20
-34.38925937171895
 30
0.0
 11
-94.16693243065956
 21
-50.53465053401681
 31
0.0
  0
ARC
  5
2CA
330
1F
100
AcDbEntity
  8
2-0
  6
Continuous
 62
     3
370
     9
100
AcDbCircle
 10
-93.17284524087827
 20
-50.42599087076121
 30
0.0
 40
0.9999999880330441
100
AcDbArc
 50
186.2380065917969
 51
270.2526550292969
  0
ARC
  5
2CB
330
1F
100
AcDbEntity
  8
2-0
  6
Continuous
 62
     3
370
     9
100
AcDbCircle
 10
-80.26843730799592
 20
-53.42593973319788
 30
0.0
 40
2.0
100
AcDbArc
 50
3.796886024309229
 51
90.0
  0
LINE
  5
2CC
330
1F
100
AcDbEntity
  8
2-0
  6
Continuous
 62
     3
370
     9
100
AcDbLine
 10
-77.13143040463174
 20
-70.49218874315295
 30
0.0
 11
-78.27282717050159
 21
-53.29350039187432
 31
0.0
  0
ARC
  5
2CD
330
1F
100
AcDbEntity
  8
2-0
  6
Continuous
 62
     3
370
     9
100
AcDbCircle
 10
-76.13362533588466
 20
-70.42596907249117
 30
0.0
 40
1.0
100
AcDbArc
 50
183.7968860243093
 51
270.0
  0
LINE
  5
2CE
330
1F
100
AcDbEntity
  8
2-0
  6
Continuous
 62
     3
370
     9
100
AcDbLine
 10
-74.43064727157585
 20
-71.42596907249117
 30
0.0
 11
-76.13362533588466
 21
-71.42596907249117
 31
0.0
  0
ARC
  5
2CF
330
1F
100
AcDbEntity
  8
2-0
  6
Continuous
 62
     3
370
     9
100
AcDbCircle
 10
-74.43064727157585
 20
-72.42596907249117
 30
0.0
 40
1.0
100
AcDbArc
 50
8.530759469569869
 51
90.0
  0
LINE
  5
2D0
330
1F
100
AcDbEntity
  8
2-0
  6
Continuous
 62
     3
370
     9
100
AcDbLine
 10
-72.32496736429968
 20
-79.7225910877969
 30
0.0
 11
-73.44171090280989
 21
-72.27762872554501
 31
0.0
  0
ARC
  5
2D1
330
1F
100
AcDbEntity
  8
2-0
  6
Continuous
 62
     3
370
     9
100
AcDbCircle
 10
-70.34709462676776
 20
-79.42591039390466
 30
0.0
 40
2.0
100
AcDbArc
 50
188.53075946957
 51
270.0000000000001
  0
LINE
  5
2D2
330
1F
100
AcDbEntity
  8
2-0
  6
Continuous
 62
     3
370
     9
100
AcDbLine
 10
78.93057076013599
 20
-29.42594491765133
 30
0.0
 11
77.93062189769933
 21
-30.42596377020928
 31
0.0
  0
LINE
  5
2D3
330
1F
100
AcDbEntity
  8
2-0
  6
Continuous
 62
     3
370
     9
100
AcDbLine
 10
77.93069188782067
 20
-30.42592877514861
 30
0.0
 11
72.93066761515217
 21
-30.42592877514861
 31
0.0
  0
LINE
  5
2D4
330
1F
100
AcDbEntity
  8
2-0
  6
JWW_DASHED1
 62
     3
370
     9
100
AcDbLine
 10
54.54212806154317
 20
-32.90627368740881
 30
0.0
 11
55.16315040747995
 21
-32.70449216781722
 31
0.0
  0
LINE
  5
2D5
330
1F
100
AcDbEntity
  8
2-0
  6
Continuous
 62
     3
370
     9
100
AcDbLine
 10
52.38065814174193
 20
-36.29705009701459
 30
0.0
 11
52.49152249381709
 21
-35.39393256734068
 31
0.0
  0
LINE
  5
2D6
330
1F
100
AcDbEntity
  8
2-0
  6
Continuous
 62
     3
370
     9
100
AcDbLine
 10
54.54212806154317
 20
-32.90630868246948
 30
0.0
 11
64.41080514927543
 21
-29.6997112769585
 31
0.0
  0
ARC
  5
2D7
330
1F
100
AcDbEntity
  8
2-0
  6
Continuous
 62
     3
370
     9
100
AcDbCircle
 10
67.80994537837168
 20
-40.16137966706314
 30
0.0
 40
10.99999959496458
100
AcDbArc
 50
62.25653076171877
 51
107.9999237060547
  0
ARC
  5
2D8
330
1F
100
AcDbEntity
  8
2-0
  6
Continuous
 62
     3
370
     9
100
AcDbCircle
 10
55.46918221268775
 20
-35.75942098055859
 30
0.0
 40
2.999999964099133
100
AcDbArc
 50
108.0001831054688
 51
173.0023193359375
  0
ARC
  5
2D9
330
1F
100
AcDbEntity
  8
2-0
  6
Continuous
 62
     3
370
     9
100
AcDbCircle
 10
47.44631959787566
 20
-35.48950407792073
 30
0.0
 40
5.000000213564133
100
AcDbArc
 50
289.8851354267082
 51
350.7054901123047
  0
ARC
  5
2DA
330
1F
100
AcDbEntity
  8
2-0
  6
Continuous
 62
     3
370
     9
100
AcDbCircle
 10
49.65720103417684
 20
-41.60195089167317
 30
0.0
 40
1.5
100
AcDbArc
 50
109.8851354267087
 51
164.8722420674511
  0
LINE
  5
2DB
330
1F
100
AcDbEntity
  8
2-0
  6
Continuous
 62
     3
370
     9
100
AcDbLine
 10
46.63032939293462
 20
-47.05072772206096
 30
0.0
 11
48.20918156668458
 21
-41.21049256469165
 31
0.0
  0
ARC
  5
2DC
330
1F
100
AcDbEntity
  8
2-0
  6
Continuous
 62
     3
370
     9
100
AcDbCircle
 10
45.66498308127311
 20
-46.78975550407328
 30
0.0
 40
1.0
100
AcDbArc
 50
270.0000000000001
 51
344.872242067451
  0
LINE
  5
2DD
330
1F
100
AcDbEntity
  8
2-0
  6
Continuous
 62
     3
370
     9
100
AcDbLine
 10
45.66498308127311
 20
-47.78975550407328
 30
0.0
 11
38.37083438856698
 21
-47.78975550407328
 31
0.0
  0
ARC
  5
2DE
330
1F
100
AcDbEntity
  8
2-0
  6
Continuous
 62
     3
370
     9
100
AcDbCircle
 10
38.37083438856698
 20
-49.78975550407328
 30
0.0
 40
2.0
100
AcDbArc
 50
90.0
 51
176.2031139756908
  0
LINE
  5
2DF
330
1F
100
AcDbEntity
  8
2-0
  6
Continuous
 62
     3
370
     9
100
AcDbLine
 10
36.37522425107259
 20
-49.65731616274966
 30
0.0
 11
34.99251088974743
 21
-70.49218874315298
 31
0.0
  0
ARC
  5
2E0
330
1F
100
AcDbEntity
  8
2-0
  6
Continuous
 62
     3
370
     9
100
AcDbCircle
 10
33.99470582100012
 20
-70.42596907249121
 30
0.0
 40
1.0
100
AcDbArc
 50
270.0
 51
356.2031139756908
  0
ARC
  5
2E1
330
1F
100
AcDbEntity
  8
2-0
  6
Continuous
 62
     3
370
     9
100
AcDbCircle
 10
32.29172775669154
 20
-72.4259690724912
 30
0.0
 40
1.0
100
AcDbArc
 50
90.0
 51
171.4692405304301
  0
LINE
  5
2E2
330
1F
100
AcDbEntity
  8
2-0
  6
Continuous
 62
     3
370
     9
100
AcDbLine
 10
32.29172775669154
 20
-71.42596907249121
 30
0.0
 11
33.99470582100012
 21
-71.42596907249121
 31
0.0
  0
LINE
  5
2E3
330
1F
100
AcDbEntity
  8
2-0
  6
Continuous
 62
     3
370
     9
100
AcDbLine
 10
30.18604784941531
 20
-79.72259108779693
 30
0.0
 11
31.30279138792557
 21
-72.27762872554504
 31
0.0
  0
ARC
  5
2E4
330
1F
100
AcDbEntity
  8
2-0
  6
Continuous
 62
     3
370
     9
100
AcDbCircle
 10
28.20817511188339
 20
-79.42591039390467
 30
0.0
 40
2.0
100
AcDbArc
 50
269.9999999999999
 51
351.4692405304301
  0
LINE
  5
2E5
330
1F
100
AcDbEntity
  8
2-0
  6
JWW_DASHED1
 62
     3
370
     9
100
AcDbLine
 10
41.25929903574858
 20
-40.96607792061863
 30
0.0
 11
47.8191219787652
 21
-40.47560031645835
 31
0.0
  0
ARC
  5
2E6
330
1F
100
AcDbEntity
  8
2-0
  6
JWW_DASHED1
 62
     3
370
     9
100
AcDbCircle
 10
47.44631959787566
 20
-35.48950407792071
 30
0.0
 40
5.000000213564133
100
AcDbArc
 50
274.2761535644531
 51
289.8851354267082
  0
ARC
  5
2E7
330
1F
100
AcDbEntity
  8
2-0
  6
JWW_DASHED1
 62
     3
370
     9
100
AcDbCircle
 10
41.63211637781851
 20
-45.95216922571737
 30
0.0
 40
5.0
100
AcDbArc
 50
94.27613215075526
 51
176.2031139756908
  0
LINE
  5
2E8
330
1F
100
AcDbEntity
  8
2-0
  6
JWW_DASHED1
 62
     3
370
     9
100
AcDbLine
 10
36.64309103408292
 20
-45.62107087240841
 30
0.0
 11
36.3801874804195
 21
-49.58252969295685
 31
0.0
  0
LINE
  5
2E9
330
1F
100
AcDbEntity
  8
2-0
  6
JWW_DASHED1
 62
     3
370
     9
100
AcDbLine
 10
-78.7820105489674
 20
-45.62107087240837
 30
0.0
 11
-78.2728271705017
 21
-53.29350039187425
 31
0.0
  0
ARC
  5
2EA
330
1F
100
AcDbEntity
  8
2-0
  6
JWW_DASHED1
 62
     3
370
     9
100
AcDbCircle
 10
-83.771035892703
 20
-45.9521692257173
 30
0.0
 40
5.0
100
AcDbArc
 50
3.796886024309229
 51
85.72386784924474
  0
LINE
  5
2EB
330
1F
100
AcDbEntity
  8
2-0
  6
JWW_DASHED1
 62
     3
370
     9
100
AcDbLine
 10
-83.39821929083232
 20
-40.96608782030789
 30
0.0
 11
-89.95804149364966
 21
-40.47560031645831
 31
0.0
  0
ARC
  5
2EC
330
1F
100
AcDbEntity
  8
2-0
  6
JWW_DASHED1
 62
     3
370
     9
100
AcDbCircle
 10
-89.58522161522984
 20
-35.48950407792064
 30
0.0
 40
5.000000213564133
100
AcDbArc
 50
189.2945098876953
 51
265.7238464355469
  0
ARC
  5
2ED
330
1F
100
AcDbEntity
  8
2-0
  6
JWW_DASHED1
 62
     3
370
     9
100
AcDbCircle
 10
-97.6081017275722
 20
-35.75942098055849
 30
0.0
 40
2.999999964099133
100
AcDbArc
 50
6.997680664062474
 51
78.8849145852281
  0
LINE
  5
2EE
330
1F
100
AcDbEntity
  8
2-0
  6
JWW_DASHED1
 62
     3
370
     9
100
AcDbLine
 10
-94.51957765662627
 20
-36.29705009701449
 30
0.0
 11
-94.63044200870155
 21
-35.3939325673406
 31
0.0
  0
LINE
  5
2EF
330
1F
100
AcDbEntity
  8
2-0
  6
Continuous
 62
     3
370
     9
100
AcDbLine
 10
-80.26843730799592
 20
-51.42593973319788
 30
0.0
 11
-86.70958999562538
 21
-51.42593973319788
 31
0.0
  0
LINE
  5
2F0
330
1F
100
AcDbEntity
  8
2-0
  6
Continuous
 62
     3
370
     9
100
AcDbLine
 10
-91.42951380301247
 20
-51.42593973319788
 30
0.0
 11
-93.17284524087827
 21
-51.42593973319788
 31
0.0
  0
LINE
  5
2F1
330
1F
100
AcDbEntity
  8
2-0
  6
Continuous
 62
     3
370
     9
100
AcDbLine
 10
-77.49771882814687
 20
-21.42600406755174
 30
0.0
 11
-119.186721018075
 21
-21.42600406755174
 31
0.0
  0
LINE
  5
2F2
330
1F
100
AcDbEntity
  8
2-0
  6
Continuous
 62
     3
370
     9
100
AcDbLine
 10
-78.03360644322848
 20
-23.4259717825463
 30
0.0
 11
-95.06952503442392
 21
-23.4259717825463
 31
0.0
  0
LINE
  5
2F3
330
1F
100
AcDbEntity
  8
2-0
  6
Continuous
 62
     3
370
     9
100
AcDbLine
 10
37.95761887846218
 20
-21.42600406755176
 30
0.0
 11
35.35871602595405
 21
-21.42600406755176
 31
0.0
  0
LINE
  5
2F4
330
1F
100
AcDbEntity
  8
2-0
  6
Continuous
 62
     3
370
     9
100
AcDbLine
 10
37.52109049216572
 20
-23.42597178254634
 30
0.0
 11
35.94922327073284
 21
-23.42597178254634
 31
0.0
  0
LINE
  5
2F5
330
1F
100
AcDbEntity
  8
2-2
  6
Continuous
 62
     4
370
     9
100
AcDbLine
 10
35.93056498654015
 20
-71.42596907249121
 30
0.0
 11
35.93056498654014
 21
-85.80886676248724
 31
0.0
  0
LINE
  5
2F6
330
1F
100
AcDbEntity
  8
2-2
  6
Continuous
 62
     4
370
     9
100
AcDbLine
 10
32.43049900258743
 20
-86.42596966163359
 30
0.0
 11
32.43049900258744
 21
-71.42596907249121
 31
0.0
  0
LINE
  5
2F7
330
1F
100
AcDbEntity
  8
2-2
  6
Continuous
 62
     4
370
     9
100
AcDbLine
 10
35.93056498654015
 20
-71.42596907249121
 30
0.0
 11
32.43049900258744
 21
-71.42596907249121
 31
0.0
  0
LINE
  5
2F8
330
1F
100
AcDbEntity
  8
2-2
  6
Continuous
 62
     4
370
     9
100
AcDbLine
 10
-78.06950199895469
 20
-71.42596907249117
 30
0.0
 11
-78.0695019989547
 21
-86.42596966163356
 31
0.0
  0
LINE
  5
2F9
330
1F
100
AcDbEntity
  8
2-2
  6
Continuous
 62
     4
370
     9
100
AcDbLine
 10
-74.569436015002
 20
-85.80886676248721
 30
0.0
 11
-74.56943601500198
 21
-71.42596907249117
 31
0.0
  0
LINE
  5
2FA
330
1F
100
AcDbEntity
  8
2-2
  6
Continuous
 62
     4
370
     9
100
AcDbLine
 10
-78.06948450142438
 20
-71.42596907249117
 30
0.0
 11
-74.56943601500198
 21
-71.42596907249117
 31
0.0
  0
LINE
  5
2FB
330
1F
100
AcDbEntity
  8
2-4
  6
Continuous
 62
     7
370
     9
100
AcDbLine
 10
90.8954625137475
 20
-71.42596907249123
 30
0.0
 11
39.93056498654016
 21
-71.42596907249121
 31
0.0
  0
LINE
  5
2FC
330
1F
100
AcDbEntity
  8
2-4
  6
Continuous
 62
     7
370
     9
100
AcDbLine
 10
90.29546251374751
 20
-71.42596907249123
 30
0.0
 11
89.64283155264725
 21
-66.46874476562218
 31
0.0
  0
LINE
  5
2FD
330
1F
100
AcDbEntity
  8
2-4
  6
Continuous
 62
     7
370
     9
100
AcDbLine
 10
90.29546251374751
 20
-71.42596907249123
 30
0.0
 11
90.94809347484777
 21
-66.46874476562218
 31
0.0
  0
LINE
  5
2FE
330
1F
100
AcDbEntity
  8
2-4
  6
Continuous
 62
     7
370
     9
100
AcDbLine
 10
90.29546251374751
 20
-71.42596907249123
 30
0.0
 11
90.29546251374751
 21
-21.42603906261242
 31
0.0
  0
TEXT
  5
2FF
330
1F
100
AcDbEntity
  8
2-4
  6
Continuous
 62
     2
370
   211
100
AcDbText
 10
87.16746251374751
 20
-50.67600406755182
 30
0.0
 40
6.096
  1
50
 50
90.0
 41
1.0625
  7
ＭＳ ゴシック
100
AcDbText
  0
TEXT
  5
300
330
1F
100
AcDbEntity
  8
F-0
  6
Continuous
 62
     9
370
     5
100
AcDbText
 10
0.0
 20
-1999.154
 30
0.0
 40
4.572
  1
Printer_Orientation = 0
 41
0.0
  7
ＭＳ ゴシック
100
AcDbText
  0
TEXT
  5
301
330
1F
100
AcDbEntity
  8
F-0
  6
Continuous
 62
     9
370
     5
100
AcDbText
 10
0.0
 20
-1999.154
 30
0.0
 40
4.572
  1
Printer_PaperSize = 0
 41
0.0
  7
ＭＳ ゴシック
100
AcDbText
  0
TEXT
  5
302
330
1F
100
AcDbEntity
  8
F-0
  6
Continuous
 62
     9
370
     5
100
AcDbText
 10
0.0
 20
-1999.154
 30
0.0
 40
4.572
  1
Printer_D2dBMP = 0
 41
0.0
  7
ＭＳ ゴシック
100
AcDbText
  0
TEXT
  5
303
330
1F
100
AcDbEntity
  8
F-0
  6
Continuous
 62
     9
370
     5
100
AcDbText
 10
0.0
 20
-1999.154
 30
0.0
 40
4.572
  1
Printer_BmpZENTAI = 0
 41
0.0
  7
ＭＳ ゴシック
100
AcDbText
  0
TEXT
  5
304
330
1F
100
AcDbEntity
  8
F-0
  6
Continuous
 62
     9
370
     5
100
AcDbText
 10
0.0
 20
-1999.154
 30
0.0
 40
4.572
  1
View_Direct2d = 1
 41
0.0
  7
ＭＳ ゴシック
100
AcDbText
  0
TEXT
  5
305
330
1F
100
AcDbEntity
  8
F-0
  6
Continuous
 62
     9
370
     5
100
AcDbText
 10
0.0
 20
-1999.154
 30
0.0
 40
4.572
  1
Draw_BmpTOUKA = 1
 41
0.0
  7
ＭＳ ゴシック
100
AcDbText
  0
ENDSEC
  0
SECTION
  2
OBJECTS
  0
DICTIONARY
  5
C
330
0
100
AcDbDictionary
281
     1
  3
ACAD_DETAILVIEWSTYLE
350
34B
  3
ACAD_GROUP
350
D
  3
ACAD_LAYOUT
350
1A
  3
ACAD_MATERIAL
350
43
  3
ACAD_MLEADERSTYLE
350
6B
  3
ACAD_MLINESTYLE
350
17
  3
ACAD_PLOTSETTINGS
350
19
  3
ACAD_PLOTSTYLENAME
350
E
  3
ACAD_SCALELIST
350
47
  3
ACAD_SECTIONVIEWSTYLE
350
34C
  3
ACAD_TABLESTYLE
350
69
  3
ACAD_VISUALSTYLE
350
2A
  3
ACDB_RECOMPOSE_DATA
350
348
  3
AcDbVariableDictionary
350
308
  0
DICTIONARY
  5
306
330
8
100
AcDbDictionary
280
     1
281
     1
  3
ACAD_XREC_ROUNDTRIP
360
307
  0
DICTIONARY
  5
34B
102
{ACAD_REACTORS
330
C
102
}
330
C
100
AcDbDictionary
281
     1
  0
DICTIONARY
  5
D
102
{ACAD_REACTORS
330
C
102
}
330
C
100
AcDbDictionary
281
     1
  0
DICTIONARY
  5
1A
102
{ACAD_REACTORS
330
C
102
}
330
C
100
AcDbDictionary
281
     1
  3
Layout1
350
1E
  3
Layout2
350
26
  3
Model
350
22
  0
DICTIONARY
  5
43
102
{ACAD_REACTORS
330
C
102
}
330
C
100
AcDbDictionary
281
     1
  3
ByBlock
350
45
  3
ByLayer
350
44
  3
Global
350
46
  0
DICTIONARY
  5
6B
102
{ACAD_REACTORS
330
C
102
}
330
C
100
AcDbDictionary
281
     1
  3
Standard
350
6C
  0
DICTIONARY
  5
17
102
{ACAD_REACTORS
330
C
102
}
330
C
100
AcDbDictionary
281
     1
  3
Standard
350
18
  0
DICTIONARY
  5
19
102
{ACAD_REACTORS
330
C
102
}
330
C
100
AcDbDictionary
281
     1
  0
ACDBDICTIONARYWDFLT
  5
E
102
{ACAD_REACTORS
330
C
102
}
330
C
100
AcDbDictionary
281
     1
  3
Normal
350
F
100
AcDbDictionaryWithDefault
340
F
  0
DICTIONARY
  5
47
102
{ACAD_REACTORS
330
C
102
}
330
C
100
AcDbDictionary
281
     1
  3
A0
350
48
  3
A1
350
49
  3
A2
350
4A
  3
A3
350
4B
  3
A4
350
4C
  3
A5
350
4D
  3
A6
350
4E
  3
A7
350
4F
  3
A8
350
50
  3
A9
350
51
  3
B0
350
52
  3
B1
350
53
  3
B2
350
54
  3
B3
350
55
  3
B4
350
56
  3
B5
350
57
  3
B6
350
58
  3
B7
350
59
  3
B8
350
5A
  3
B9
350
5B
  3
C0
350
5C
  3
C1
350
5D
  3
C2
350
5E
  3
C3
350
5F
  3
C4
350
60
  3
C5
350
61
  3
C6
350
62
  3
C7
350
63
  3
C8
350
64
  3
C9
350
65
  3
D0
350
66
  3
D1
350
67
  3
D2
350
68
  0
DICTIONARY
  5
34C
102
{ACAD_REACTORS
330
C
102
}
330
C
100
AcDbDictionary
281
     1
  0
DICTIONARY
  5
69
102
{ACAD_REACTORS
330
C
102
}
330
C
100
AcDbDictionary
281
     1
  3
Standard
350
6A
  0
DICTIONARY
  5
2A
102
{ACAD_REACTORS
330
C
102
}
330
C
100
AcDbDictionary
281
     1
  3
2dWireframe
350
2F
  3
Basic
350
32
  3
Brighten
350
36
  3
ColorChange
350
3A
  3
Conceptual
350
34
  3
Dim
350
35
  3
EdgeColorOff
350
3D
  3
Facepattern
350
39
  3
Flat
350
2B
  3
FlatWithEdges
350
2C
  3
Gouraud
350
2D
  3
GouraudWithEdges
350
2E
  3
Hidden
350
31
  3
JitterOff
350
3B
  3
Linepattern
350
38
  3
OverhangOff
350
3C
  3
Realistic
350
33
  3
Shaded
350
42
  3
Shaded with edges
350
41
  3
Shades of Gray
350
3E
  3
Sketchy
350
3F
  3
Thicken
350
37
  3
Wireframe
350
30
  3
X-Ray
350
40
  0
XRECORD
  5
348
102
{ACAD_REACTORS
330
C
102
}
330
C
100
AcDbXrecord
280
     1
 90
        1
330
6A
  0
DICTIONARY
  5
308
102
{ACAD_REACTORS
330
C
102
}
330
C
100
AcDbDictionary
281
     1
  3
CANNOSCALE
350
309
  3
CENTEREXE
350
34D
  3
CENTERLTYPEFILE
350
34E
  3
CMLEADERSTYLE
350
34A
  3
CTABLESTYLE
350
349
  3
MSLTSCALE
350
30A
  3
XCLIPFRAME
350
30B
  0
XRECORD
  5
307
102
{ACAD_REACTORS
330
306
102
}
330
306
100
AcDbXrecord
280
     1
102
VTR_0.000_0.000_1.000_1.000_VISUALSTYLE
340
2F
102
VTR_0.000_0.000_1.000_1.000_GRIDDISPLAY
 70
     3
102
VTR_0.000_0.000_1.000_1.000_GRIDMAJOR
 70
     5
102
VTR_0.000_0.000_1.000_1.000_DEFAULTLIGHTING
280
     1
102
VTR_0.000_0.000_1.000_1.000_DEFAULTLIGHTINGTYPE
 70
     1
102
VTR_0.000_0.000_1.000_1.000_BRIGHTNESS
141
0.0
102
VTR_0.000_0.000_1.000_1.000_CONTRAST
142
0.0
  0
LAYOUT
  5
1E
102
{ACAD_REACTORS
330
1A
102
}
330
1A
100
AcDbPlotSettings
  1

  2
none_device
  4

  6

 40
0.0
 41
0.0
 42
0.0
 43
0.0
 44
0.0
 45
0.0
 46
0.0
 47
0.0
 48
0.0
 49
0.0
140
0.0
141
0.0
142
1.0
143
1.0
 70
   688
 72
     1
 73
     0
 74
     5
  7

 75
    16
 76
     0
 77
     5
 78
   300
147
1.0
148
0.0
149
0.0
100
AcDbLayout
  1
Layout1
 70
     1
 71
     1
 10
0.0
 20
0.0
 11
420.0
 21
297.0
 12
0.0
 22
0.0
 32
0.0
 14
1.000000000000000E+20
 24
1.000000000000000E+20
 34
1.000000000000000E+20
 15
-1.000000000000000E+20
 25
-1.000000000000000E+20
 35
-1.000000000000000E+20
146
0.0
 13
0.0
 23
0.0
 33
0.0
 16
1.0
 26
0.0
 36
0.0
 17
0.0
 27
1.0
 37
0.0
 76
     0
330
1B
  0
LAYOUT
  5
26
102
{ACAD_REACTORS
330
1A
102
}
330
1A
100
AcDbPlotSettings
  1

  2
none_device
  4

  6

 40
0.0
 41
0.0
 42
0.0
 43
0.0
 44
0.0
 45
0.0
 46
0.0
 47
0.0
 48
0.0
 49
0.0
140
0.0
141
0.0
142
1.0
143
1.0
 70
   688
 72
     1
 73
     0
 74
     5
  7

 75
    16
 76
     0
 77
     5
 78
   300
147
1.0
148
0.0
149
0.0
100
AcDbLayout
  1
Layout2
 70
     1
 71
     2
 10
0.0
 20
0.0
 11
0.0
 21
0.0
 12
0.0
 22
0.0
 32
0.0
 14
0.0
 24
0.0
 34
0.0
 15
0.0
 25
0.0
 35
0.0
146
0.0
 13
0.0
 23
0.0
 33
0.0
 16
1.0
 26
0.0
 36
0.0
 17
0.0
 27
1.0
 37
0.0
 76
     0
330
23
  0
LAYOUT
  5
22
102
{ACAD_REACTORS
330
1A
102
}
330
1A
100
AcDbPlotSettings
  1

  2
none_device
  4
Letter_(8.50_x_11.00_Inches)
  6

 40
6.35
 41
6.35
 42
6.35000508
 43
6.35000508
 44
215.9
 45
279.4
 46
0.0
 47
0.0
 48
0.0
 49
0.0
140
0.0
141
0.0
142
1.0
143
1.0
 70
  1712
 72
     1
 73
     0
 74
     0
  7

 75
     0
 76
     0
 77
     5
 78
   300
147
1.0
148
0.0
149
0.0
100
AcDbLayout
  1
Model
 70
     1
 71
     0
 10
-420.0
 20
-297.0
 11
420.0
 21
297.0
 12
0.0
 22
0.0
 32
0.0
 14
-420.0
 24
-297.0
 34
0.0
 15
420.0
 25
297.0
 35
0.0
146
0.0
 13
0.0
 23
0.0
 33
0.0
 16
1.0
 26
0.0
 36
0.0
 17
0.0
 27
1.0
 37
0.0
 76
     0
330
1F
331
29
  0
MATERIAL
  5
45
102
{ACAD_REACTORS
330
43
102
}
102
{ACAD_XDICTIONARY
360
33E
102
}
330
43
100
AcDbMaterial
  1
ByBlock
  0
MATERIAL
  5
44
102
{ACAD_REACTORS
330
43
102
}
102
{ACAD_XDICTIONARY
360
33C
102
}
330
43
100
AcDbMaterial
  1
ByLayer
  0
MATERIAL
  5
46
102
{ACAD_REACTORS
330
43
102
}
102
{ACAD_XDICTIONARY
360
340
102
}
330
43
100
AcDbMaterial
  1
Global
  0
MLEADERSTYLE
  5
6C
102
{ACAD_REACTORS
330
6B
102
}
102
{ACAD_XDICTIONARY
360
346
102
}
330
6B
100
AcDbMLeaderStyle
170
     2
171
     1
172
     0
 90
        2
 40
0.0
 41
0.0
173
     1
 91
-1056964608
340
14
 92
       -2
290
     1
 42
2.0
291
     1
 43
8.0
  3
Standard
341
0
 44
4.0
300

342
11
174
     1
178
     6
175
     1
176
     0
 93
-1056964608
 45
4.0
292
     0
297
     0
 46
4.0
343
0
 94
-1056964608
 47
1.0
 49
1.0
140
1.0
293
     1
141
0.0
294
     1
177
     0
142
1.0
295
     0
296
     0
143
3.75
1001
ACAD_MLEADERVER
1070
     2
  0
MLINESTYLE
  5
18
102
{ACAD_REACTORS
330
17
102
}
330
17
100
AcDbMlineStyle
  2
Standard
 70
     0
  3

 62
   256
 51
90.0
 52
90.0
 71
     2
 49
0.5
 62
   256
  6
BYLAYER
 49
-0.5
 62
   256
  6
BYLAYER
  0
ACDBPLACEHOLDER
  5
F
102
{ACAD_REACTORS
330
E
102
}
330
E
  0
SCALE
  5
48
102
{ACAD_REACTORS
330
47
102
}
330
47
100
AcDbScale
 70
     0
300
1:1
140
1.0
141
1.0
290
     1
  0
SCALE
  5
49
102
{ACAD_REACTORS
330
47
102
}
330
47
100
AcDbScale
 70
     0
300
1:2
140
1.0
141
2.0
290
     0
  0
SCALE
  5
4A
102
{ACAD_REACTORS
330
47
102
}
330
47
100
AcDbScale
 70
     0
300
1:4
140
1.0
141
4.0
290
     0
  0
SCALE
  5
4B
102
{ACAD_REACTORS
330
47
102
}
330
47
100
AcDbScale
 70
     0
300
1:5
140
1.0
141
5.0
290
     0
  0
SCALE
  5
4C
102
{ACAD_REACTORS
330
47
102
}
330
47
100
AcDbScale
 70
     0
300
1:8
140
1.0
141
8.0
290
     0
  0
SCALE
  5
4D
102
{ACAD_REACTORS
330
47
102
}
330
47
100
AcDbScale
 70
     0
300
1:10
140
1.0
141
10.0
290
     0
  0
SCALE
  5
4E
102
{ACAD_REACTORS
330
47
102
}
330
47
100
AcDbScale
 70
     0
300
1:16
140
1.0
141
16.0
290
     0
  0
SCALE
  5
4F
102
{ACAD_REACTORS
330
47
102
}
330
47
100
AcDbScale
 70
     0
300
1:20
140
1.0
141
20.0
290
     0
  0
SCALE
  5
50
102
{ACAD_REACTORS
330
47
102
}
330
47
100
AcDbScale
 70
     0
300
1:30
140
1.0
141
30.0
290
     0
  0
SCALE
  5
51
102
{ACAD_REACTORS
330
47
102
}
330
47
100
AcDbScale
 70
     0
300
1:40
140
1.0
141
40.0
290
     0
  0
SCALE
  5
52
102
{ACAD_REACTORS
330
47
102
}
330
47
100
AcDbScale
 70
     0
300
1:50
140
1.0
141
50.0
290
     0
  0
SCALE
  5
53
102
{ACAD_REACTORS
330
47
102
}
330
47
100
AcDbScale
 70
     0
300
1:100
140
1.0
141
100.0
290
     0
  0
SCALE
  5
54
102
{ACAD_REACTORS
330
47
102
}
330
47
100
AcDbScale
 70
     0
300
2:1
140
2.0
141
1.0
290
     0
  0
SCALE
  5
55
102
{ACAD_REACTORS
330
47
102
}
330
47
100
AcDbScale
 70
     0
300
4:1
140
4.0
141
1.0
290
     0
  0
SCALE
  5
56
102
{ACAD_REACTORS
330
47
102
}
330
47
100
AcDbScale
 70
     0
300
8:1
140
8.0
141
1.0
290
     0
  0
SCALE
  5
57
102
{ACAD_REACTORS
330
47
102
}
330
47
100
AcDbScale
 70
     0
300
10:1
140
10.0
141
1.0
290
     0
  0
SCALE
  5
58
102
{ACAD_REACTORS
330
47
102
}
330
47
100
AcDbScale
 70
     0
300
100:1
140
100.0
141
1.0
290
     0
  0
SCALE
  5
59
102
{ACAD_REACTORS
330
47
102
}
330
47
100
AcDbScale
 70
     0
300
1/128" = 1'-0"
140
0.0078125
141
12.0
290
     0
  0
SCALE
  5
5A
102
{ACAD_REACTORS
330
47
102
}
330
47
100
AcDbScale
 70
     0
300
1/64" = 1'-0"
140
0.015625
141
12.0
290
     0
  0
SCALE
  5
5B
102
{ACAD_REACTORS
330
47
102
}
330
47
100
AcDbScale
 70
     0
300
1/32" = 1'-0"
140
0.03125
141
12.0
290
     0
  0
SCALE
  5
5C
102
{ACAD_REACTORS
330
47
102
}
330
47
100
AcDbScale
 70
     0
300
1/16" = 1'-0"
140
0.0625
141
12.0
290
     0
  0
SCALE
  5
5D
102
{ACAD_REACTORS
330
47
102
}
330
47
100
AcDbScale
 70
     0
300
3/32" = 1'-0"
140
0.09375
141
12.0
290
     0
  0
SCALE
  5
5E
102
{ACAD_REACTORS
330
47
102
}
330
47
100
AcDbScale
 70
     0
300
1/8" = 1'-0"
140
0.125
141
12.0
290
     0
  0
SCALE
  5
5F
102
{ACAD_REACTORS
330
47
102
}
330
47
100
AcDbScale
 70
     0
300
3/16" = 1'-0"
140
0.1875
141
12.0
290
     0
  0
SCALE
  5
60
102
{ACAD_REACTORS
330
47
102
}
330
47
100
AcDbScale
 70
     0
300
1/4" = 1'-0"
140
0.25
141
12.0
290
     0
  0
SCALE
  5
61
102
{ACAD_REACTORS
330
47
102
}
330
47
100
AcDbScale
 70
     0
300
3/8" = 1'-0"
140
0.375
141
12.0
290
     0
  0
SCALE
  5
62
102
{ACAD_REACTORS
330
47
102
}
330
47
100
AcDbScale
 70
     0
300
1/2" = 1'-0"
140
0.5
141
12.0
290
     0
  0
SCALE
  5
63
102
{ACAD_REACTORS
330
47
102
}
330
47
100
AcDbScale
 70
     0
300
3/4" = 1'-0"
140
0.75
141
12.0
290
     0
  0
SCALE
  5
64
102
{ACAD_REACTORS
330
47
102
}
330
47
100
AcDbScale
 70
     0
300
1" = 1'-0"
140
1.0
141
12.0
290
     0
  0
SCALE
  5
65
102
{ACAD_REACTORS
330
47
102
}
330
47
100
AcDbScale
 70
     0
300
1-1/2" = 1'-0"
140
1.5
141
12.0
290
     0
  0
SCALE
  5
66
102
{ACAD_REACTORS
330
47
102
}
330
47
100
AcDbScale
 70
     0
300
3" = 1'-0"
140
3.0
141
12.0
290
     0
  0
SCALE
  5
67
102
{ACAD_REACTORS
330
47
102
}
330
47
100
AcDbScale
 70
     0
300
6" = 1'-0"
140
6.0
141
12.0
290
     0
  0
SCALE
  5
68
102
{ACAD_REACTORS
330
47
102
}
330
47
100
AcDbScale
 70
     0
300
1'-0" = 1'-0"
140
12.0
141
12.0
290
     0
  0
TABLESTYLE
  5
6A
102
{ACAD_REACTORS
330
69
102
}
102
{ACAD_XDICTIONARY
360
342
102
}
330
69
100
AcDbTableStyle
  3
Standard
 70
     0
 71
     0
 40
0.06
 41
0.06
280
     0
281
     0
  7
Standard
140
4.5
170
     2
 62
     0
 63
   257
283
     0
274
    -2
284
     1
 64
     0
275
    -2
285
     1
 65
     0
276
    -2
286
     1
 66
     0
277
    -2
287
     1
 67
     0
278
    -2
288
     1
 68
     0
279
    -2
289
     1
 69
     0
  7
Standard
140
6.0
170
     5
 62
     0
 63
   257
283
     0
274
    -2
284
     1
 64
     0
275
    -2
285
     1
 65
     0
276
    -2
286
     1
 66
     0
277
    -2
287
     1
 67
     0
278
    -2
288
     1
 68
     0
279
    -2
289
     1
 69
     0
  7
Standard
140
4.5
170
     5
 62
     0
 63
   257
283
     0
274
    -2
284
     1
 64
     0
275
    -2
285
     1
 65
     0
276
    -2
286
     1
 66
     0
277
    -2
287
     1
 67
     0
278
    -2
288
     1
 68
     0
279
    -2
289
     1
 69
     0
  0
VISUALSTYLE
  5
2F
102
{ACAD_REACTORS
330
2A
102
}
102
{ACAD_XDICTIONARY
360
314
102
}
330
2A
100
AcDbVisualStyle
  2
2dWireframe
 70
     4
 71
     0
 72
     2
 73
     0
 90
        0
 40
0.6
 41
30.0
 62
     5
 63
     7
421
 16777215
 74
     1
 91
        4
 64
     7
 65
   257
 75
     1
175
     1
 42
1.0
 92
        0
 66
   257
 43
1.0
 76
     1
 77
     6
 78
     2
 67
     7
 79
     5
170
     0
171
     0
290
     0
174
     0
 93
        1
 44
0.0
173
     0
291
     0
 45
0.0
1001
ACAD
1000
AcDbSavedByObjectVersion
1070
     0
  0
VISUALSTYLE
  5
32
102
{ACAD_REACTORS
330
2A
102
}
102
{ACAD_XDICTIONARY
360
31A
102
}
330
2A
100
AcDbVisualStyle
  2
Basic
 70
     7
 71
     1
 72
     0
 73
     1
 90
        0
 40
0.6
 41
30.0
 62
     5
 63
     7
421
 16777215
 74
     0
 91
        4
 64
     7
 65
   257
 75
     1
175
     1
 42
1.0
 92
        8
 66
     7
 43
1.0
 76
     1
 77
     6
 78
     2
 67
     7
 79
     5
170
     0
171
     0
290
     0
174
     0
 93
        1
 44
0.0
173
     0
291
     1
 45
0.0
1001
ACAD
1000
AcDbSavedByObjectVersion
1070
     0
  0
VISUALSTYLE
  5
36
102
{ACAD_REACTORS
330
2A
102
}
102
{ACAD_XDICTIONARY
360
322
102
}
330
2A
100
AcDbVisualStyle
  2
Brighten
 70
    12
 71
     2
 72
     2
 73
     0
 90
        0
 40
0.6
 41
30.0
 62
     5
 63
     7
421
 16777215
 74
     1
 91
        4
 64
     7
 65
   257
 75
     1
175
     1
 42
1.0
 92
        8
 66
     7
 43
1.0
 76
     1
 77
     6
 78
     2
 67
     7
 79
     5
170
     0
171
     0
290
     0
174
     0
 93
        1
 44
50.0
173
     0
291
     1
 45
0.0
1001
ACAD
1000
AcDbSavedByObjectVersion
1070
     0
  0
VISUALSTYLE
  5
3A
102
{ACAD_REACTORS
330
2A
102
}
102
{ACAD_XDICTIONARY
360
32A
102
}
330
2A
100
AcDbVisualStyle
  2
ColorChange
 70
    16
 71
     2
 72
     2
 73
     3
 90
        0
 40
0.6
 41
30.0
 62
     5
 63
     8
421
  8421504
 74
     1
 91
        4
 64
     7
 65
   257
 75
     1
175
     1
 42
1.0
 92
        8
 66
     8
424
  8421504
 43
1.0
 76
     1
 77
     6
 78
     2
 67
     7
 79
     5
170
     0
171
     0
290
     0
174
     0
 93
        1
 44
0.0
173
     0
291
     1
 45
0.0
1001
ACAD
1000
AcDbSavedByObjectVersion
1070
     0
  0
VISUALSTYLE
  5
34
102
{ACAD_REACTORS
330
2A
102
}
102
{ACAD_XDICTIONARY
360
31E
102
}
330
2A
100
AcDbVisualStyle
  2
Conceptual
 70
     9
 71
     3
 72
     2
 73
     0
 90
        0
 40
0.6
 41
30.0
 62
     5
 63
     7
421
 16777215
 74
     2
 91
        2
 64
     7
 65
   257
 75
     1
175
     1
 42
179.0
 92
        8
 66
     7
 43
1.0
 76
     1
 77
     6
 78
     2
 67
     7
 79
     3
170
     0
171
     0
290
     0
174
     0
 93
        1
 44
0.0
173
     0
291
     0
 45
0.0
1001
ACAD
1000
AcDbSavedByObjectVersion
1070
     0
  0
VISUALSTYLE
  5
35
102
{ACAD_REACTORS
330
2A
102
}
102
{ACAD_XDICTIONARY
360
320
102
}
330
2A
100
AcDbVisualStyle
  2
Dim
 70
    11
 71
     2
 72
     2
 73
     0
 90
        0
 40
0.6
 41
30.0
 62
     5
 63
     7
421
 16777215
 74
     1
 91
        4
 64
     7
 65
   257
 75
     1
175
     1
 42
1.0
 92
        8
 66
     7
 43
1.0
 76
     1
 77
     6
 78
     2
 67
     7
 79
     5
170
     0
171
     0
290
     0
174
     0
 93
        1
 44
-50.0
173
     0
291
     1
 45
0.0
1001
ACAD
1000
AcDbSavedByObjectVersion
1070
     0
  0
VISUALSTYLE
  5
3D
102
{ACAD_REACTORS
330
2A
102
}
102
{ACAD_XDICTIONARY
360
330
102
}
330
2A
100
AcDbVisualStyle
  2
EdgeColorOff
 70
    22
 71
     2
 72
     2
 73
     0
 90
        0
 40
0.6
 41
30.0
 62
     5
 63
     7
421
 16777215
 74
     1
 91
        4
 64
     7
 65
   257
 75
     1
175
     1
 42
1.0
 92
        8
 66
     7
 43
1.0
 76
     1
 77
     6
 78
     2
 67
     7
 79
     5
170
     0
171
     0
290
     0
174
     0
 93
        1
 44
0.0
173
     0
291
     1
 45
0.0
1001
ACAD
1000
AcDbSavedByObjectVersion
1070
     0
  0
VISUALSTYLE
  5
39
102
{ACAD_REACTORS
330
2A
102
}
102
{ACAD_XDICTIONARY
360
328
102
}
330
2A
100
AcDbVisualStyle
  2
Facepattern
 70
    15
 71
     2
 72
     2
 73
     0
 90
        0
 40
0.6
 41
30.0
 62
     5
 63
     7
421
 16777215
 74
     1
 91
        4
 64
     7
 65
   257
 75
     1
175
     1
 42
1.0
 92
        8
 66
     7
 43
1.0
 76
     1
 77
     6
 78
     2
 67
     7
 79
     5
170
     0
171
     0
290
     0
174
     0
 93
        1
 44
0.0
173
     0
291
     1
 45
0.0
1001
ACAD
1000
AcDbSavedByObjectVersion
1070
     0
  0
VISUALSTYLE
  5
2B
102
{ACAD_REACTORS
330
2A
102
}
102
{ACAD_XDICTIONARY
360
30C
102
}
330
2A
100
AcDbVisualStyle
  2
Flat
 70
     0
 71
     2
 72
     1
 73
     1
 90
        2
 40
0.6
 41
30.0
 62
     5
 63
     7
421
 16777215
 74
     0
 91
        0
 64
     7
 65
   257
 75
     1
175
     1
 42
1.0
 92
        8
 66
     7
 43
1.0
 76
     1
 77
     6
 78
     2
 67
     7
 79
     5
170
     0
171
     0
290
     0
174
     0
 93
       13
 44
0.0
173
     0
291
     1
 45
0.0
1001
ACAD
1000
AcDbSavedByObjectVersion
1070
     0
  0
VISUALSTYLE
  5
2C
102
{ACAD_REACTORS
330
2A
102
}
102
{ACAD_XDICTIONARY
360
30E
102
}
330
2A
100
AcDbVisualStyle
  2
FlatWithEdges
 70
     1
 71
     2
 72
     1
 73
     1
 90
        2
 40
0.6
 41
30.0
 62
     5
 63
     7
421
 16777215
 74
     1
 91
        0
 64
     7
 65
   257
 75
     1
175
     1
 42
1.0
 92
        0
 66
   257
 43
1.0
 76
     1
 77
     6
 78
     2
 67
     7
 79
     5
170
     0
171
     0
290
     0
174
     0
 93
       13
 44
0.0
173
     0
291
     1
 45
0.0
1001
ACAD
1000
AcDbSavedByObjectVersion
1070
     0
  0
VISUALSTYLE
  5
2D
102
{ACAD_REACTORS
330
2A
102
}
102
{ACAD_XDICTIONARY
360
310
102
}
330
2A
100
AcDbVisualStyle
  2
Gouraud
 70
     2
 71
     2
 72
     2
 73
     1
 90
        2
 40
0.6
 41
30.0
 62
     5
 63
     7
421
 16777215
 74
     0
 91
        0
 64
     7
 65
   257
 75
     1
175
     1
 42
1.0
 92
        0
 66
     7
 43
1.0
 76
     1
 77
     6
 78
     2
 67
     7
 79
     5
170
     0
171
     0
290
     0
174
     0
 93
       13
 44
0.0
173
     0
291
     1
 45
0.0
1001
ACAD
1000
AcDbSavedByObjectVersion
1070
     0
  0
VISUALSTYLE
  5
2E
102
{ACAD_REACTORS
330
2A
102
}
102
{ACAD_XDICTIONARY
360
312
102
}
330
2A
100
AcDbVisualStyle
  2
GouraudWithEdges
 70
     3
 71
     2
 72
     2
 73
     1
 90
        2
 40
0.6
 41
30.0
 62
     5
 63
     7
421
 16777215
 74
     1
 91
        0
 64
     7
 65
   257
 75
     1
175
     1
 42
1.0
 92
        0
 66
   257
 43
1.0
 76
     1
 77
     6
 78
     2
 67
     7
 79
     5
170
     0
171
     0
290
     0
174
     0
 93
       13
 44
0.0
173
     0
291
     1
 45
0.0
1001
ACAD
1000
AcDbSavedByObjectVersion
1070
     0
  0
VISUALSTYLE
  5
31
102
{ACAD_REACTORS
330
2A
102
}
102
{ACAD_XDICTIONARY
360
318
102
}
330
2A
100
AcDbVisualStyle
  2
Hidden
 70
     6
 71
     1
 72
     2
 73
     2
 90
        0
 40
0.6
 41
30.0
 62
     5
 63
     7
421
 16777215
 74
     2
 91
        2
 64
     7
 65
   257
 75
     2
175
     1
 42
40.0
 92
        0
 66
   257
 43
1.0
 76
     1
 77
     6
 78
     2
 67
     7
 79
     3
170
     0
171
     0
290
     0
174
     0
 93
        1
 44
0.0
173
     0
291
     0
 45
0.0
1001
ACAD
1000
AcDbSavedByObjectVersion
1070
     0
  0
VISUALSTYLE
  5
3B
102
{ACAD_REACTORS
330
2A
102
}
102
{ACAD_XDICTIONARY
360
32C
102
}
330
2A
100
AcDbVisualStyle
  2
JitterOff
 70
    20
 71
     2
 72
     2
 73
     0
 90
        0
 40
0.6
 41
30.0
 62
     5
 63
     7
421
 16777215
 74
     1
 91
        4
 64
     7
 65
   257
 75
     1
175
     1
 42
1.0
 92
       10
 66
     7
 43
1.0
 76
     1
 77
     6
 78
     2
 67
     7
 79
     5
170
     0
171
     0
290
     0
174
     0
 93
        1
 44
0.0
173
     0
291
     1
 45
0.0
1001
ACAD
1000
AcDbSavedByObjectVersion
1070
     0
  0
VISUALSTYLE
  5
38
102
{ACAD_REACTORS
330
2A
102
}
102
{ACAD_XDICTIONARY
360
326
102
}
330
2A
100
AcDbVisualStyle
  2
Linepattern
 70
    14
 71
     2
 72
     2
 73
     0
 90
        0
 40
0.6
 41
30.0
 62
     5
 63
     7
421
 16777215
 74
     1
 91
        4
 64
     7
 65
   257
 75
     7
175
     7
 42
1.0
 92
        8
 66
     7
 43
1.0
 76
     1
 77
     6
 78
     2
 67
     7
 79
     5
170
     0
171
     0
290
     0
174
     0
 93
        1
 44
0.0
173
     0
291
     1
 45
0.0
1001
ACAD
1000
AcDbSavedByObjectVersion
1070
     0
  0
VISUALSTYLE
  5
3C
102
{ACAD_REACTORS
330
2A
102
}
102
{ACAD_XDICTIONARY
360
32E
102
}
330
2A
100
AcDbVisualStyle
  2
OverhangOff
 70
    21
 71
     2
 72
     2
 73
     0
 90
        0
 40
0.6
 41
30.0
 62
     5
 63
     7
421
 16777215
 74
     1
 91
        4
 64
     7
 65
   257
 75
     1
175
     1
 42
1.0
 92
        9
 66
     7
 43
1.0
 76
     1
 77
     6
 78
     2
 67
     7
 79
     5
170
     0
171
     0
290
     0
174
     0
 93
        1
 44
0.0
173
     0
291
     1
 45
0.0
1001
ACAD
1000
AcDbSavedByObjectVersion
1070
     0
  0
VISUALSTYLE
  5
33
102
{ACAD_REACTORS
330
2A
102
}
102
{ACAD_XDICTIONARY
360
31C
102
}
330
2A
100
AcDbVisualStyle
  2
Realistic
 70
     8
 71
     2
 72
     3
 73
     0
 90
        2
 40
0.6
 41
30.0
 62
     5
 63
     7
421
 16777215
 74
     0
 91
        0
 64
     7
 65
   257
 75
     1
175
     1
 42
1.0
 92
        8
 66
   257
 43
1.0
 76
     1
 77
     6
 78
     2
 67
     7
 79
     3
170
     0
171
     0
290
     0
174
     0
 93
       13
 44
0.0
173
     0
291
     0
 45
0.0
1001
ACAD
1000
AcDbSavedByObjectVersion
1070
     0
  0
VISUALSTYLE
  5
42
102
{ACAD_REACTORS
330
2A
102
}
102
{ACAD_XDICTIONARY
360
33A
102
}
330
2A
100
AcDbVisualStyle
  2
Shaded
 70
    27
 71
     2
 72
     2
 73
     1
 90
        2
 40
0.6
 41
30.0
 62
     5
 63
     7
421
 16777215
 74
     0
 91
        4
 64
     7
 65
   257
 75
     1
175
     1
 42
1.0
 92
        8
 66
   257
 43
1.0
 76
     1
 77
     6
 78
     2
 67
     8
425
  7895160
 79
     3
170
     0
171
     0
290
     0
174
     0
 93
        5
 44
0.0
173
     0
291
     0
 45
0.0
1001
ACAD
1000
AcDbSavedByObjectVersion
1070
     0
  0
VISUALSTYLE
  5
41
102
{ACAD_REACTORS
330
2A
102
}
102
{ACAD_XDICTIONARY
360
338
102
}
330
2A
100
AcDbVisualStyle
  2
Shaded with edges
 70
    26
 71
     2
 72
     2
 73
     1
 90
        2
 40
0.6
 41
30.0
 62
     5
 63
     7
421
 16777215
 74
     1
 91
       10
 64
     7
 65
   257
 75
     2
175
     1
 42
1.0
 92
        8
 66
   257
 43
1.0
 76
     1
 77
     6
 78
     2
 67
     7
 79
     3
170
     0
171
     0
290
     0
174
     0
 93
        5
 44
0.0
173
     0
291
     0
 45
0.0
1001
ACAD
1000
AcDbSavedByObjectVersion
1070
     0
  0
VISUALSTYLE
  5
3E
102
{ACAD_REACTORS
330
2A
102
}
102
{ACAD_XDICTIONARY
360
332
102
}
330
2A
100
AcDbVisualStyle
  2
Shades of Gray
 70
    23
 71
     2
 72
     2
 73
     3
 90
        0
 40
0.6
 41
30.0
 62
     5
 63
     7
421
 16777215
 74
     2
 91
        2
 64
     7
 65
     7
 75
     1
175
     1
 42
40.0
 92
        8
 66
     7
 43
1.0
 76
     1
 77
     6
 78
     2
 67
     7
 79
     3
170
     0
171
     0
290
     0
174
     0
 93
        1
 44
0.0
173
     0
291
     0
 45
0.0
1001
ACAD
1000
AcDbSavedByObjectVersion
1070
     0
  0
VISUALSTYLE
  5
3F
102
{ACAD_REACTORS
330
2A
102
}
102
{ACAD_XDICTIONARY
360
334
102
}
330
2A
100
AcDbVisualStyle
  2
Sketchy
 70
    24
 71
     1
 72
     2
 73
     2
 90
        0
 40
0.6
 41
30.0
 62
     5
 63
     7
421
 16777215
 74
     2
 91
        2
 64
     7
 65
     7
 75
     1
175
     1
 42
40.0
 92
       11
 66
     7
 43
1.0
 76
     1
 77
     6
 78
     2
 67
     7
 79
     6
170
     0
171
     0
290
     0
174
     0
 93
        1
 44
0.0
173
     0
291
     0
 45
0.0
1001
ACAD
1000
AcDbSavedByObjectVersion
1070
     0
  0
VISUALSTYLE
  5
37
102
{ACAD_REACTORS
330
2A
102
}
102
{ACAD_XDICTIONARY
360
324
102
}
330
2A
100
AcDbVisualStyle
  2
Thicken
 70
    13
 71
     2
 72
     2
 73
     0
 90
        0
 40
0.6
 41
30.0
 62
     5
 63
     7
421
 16777215
 74
     1
 91
        4
 64
     7
 65
   257
 75
     1
175
     1
 42
1.0
 92
       12
 66
     7
 43
1.0
 76
     1
 77
     6
 78
     2
 67
     7
 79
     5
170
     0
171
     0
290
     0
174
     0
 93
        1
 44
0.0
173
     0
291
     1
 45
0.0
1001
ACAD
1000
AcDbSavedByObjectVersion
1070
     0
  0
VISUALSTYLE
  5
30
102
{ACAD_REACTORS
330
2A
102
}
102
{ACAD_XDICTIONARY
360
316
102
}
330
2A
100
AcDbVisualStyle
  2
Wireframe
 70
     5
 71
     0
 72
     2
 73
     0
 90
        0
 40
0.6
 41
30.0
 62
     5
 63
     7
421
 16777215
 74
     1
 91
        4
 64
     7
 65
   257
 75
     1
175
     1
 42
1.0
 92
        0
 66
   257
 43
1.0
 76
     1
 77
     6
 78
     2
 67
     7
 79
     3
170
     0
171
     0
290
     0
174
     0
 93
        1
 44
0.0
173
     0
291
     0
 45
0.0
1001
ACAD
1000
AcDbSavedByObjectVersion
1070
     0
  0
VISUALSTYLE
  5
40
102
{ACAD_REACTORS
330
2A
102
}
102
{ACAD_XDICTIONARY
360
336
102
}
330
2A
100
AcDbVisualStyle
  2
X-Ray
 70
    25
 71
     2
 72
     2
 73
     1
 90
        1
 40
0.5
 41
30.0
 62
     5
 63
     7
421
 16777215
 74
     1
 91
        0
 64
     7
 65
   257
 75
     1
175
     1
 42
1.0
 92
        8
 66
     7
 43
1.0
 76
     1
 77
     6
 78
     2
 67
     7
 79
     3
170
     0
171
     0
290
     0
174
     0
 93
       13
 44
0.0
173
     0
291
     0
 45
0.0
1001
ACAD
1000
AcDbSavedByObjectVersion
1070
     0
  0
DICTIONARYVAR
  5
309
102
{ACAD_REACTORS
330
308
102
}
330
308
100
DictionaryVariables
280
     0
  1
1:1
  0
DICTIONARYVAR
  5
34D
102
{ACAD_REACTORS
330
308
102
}
330
308
100
DictionaryVariables
280
     0
  1
3.500000
  0
DICTIONARYVAR
  5
34E
102
{ACAD_REACTORS
330
308
102
}
330
308
100
DictionaryVariables
280
     0
  1
acadiso.lin
  0
DICTIONARYVAR
  5
34A
102
{ACAD_REACTORS
330
308
102
}
330
308
100
DictionaryVariables
280
     0
  1
Standard
  0
DICTIONARYVAR
  5
349
102
{ACAD_REACTORS
330
308
102
}
330
308
100
DictionaryVariables
280
     0
  1
Standard
  0
DICTIONARYVAR
  5
30A
102
{ACAD_REACTORS
330
308
102
}
330
308
100
DictionaryVariables
280
     0
  1
1
  0
DICTIONARYVAR
  5
30B
102
{ACAD_REACTORS
330
308
102
}
330
308
100
DictionaryVariables
280
     0
  1
2
  0
DICTIONARY
  5
33E
330
45
100
AcDbDictionary
280
     1
281
     1
  3
ACAD_XREC_ROUNDTRIP
360
33F
  0
DICTIONARY
  5
33C
330
44
100
AcDbDictionary
280
     1
281
     1
  3
ACAD_XREC_ROUNDTRIP
360
33D
  0
DICTIONARY
  5
340
330
46
100
AcDbDictionary
280
     1
281
     1
  3
ACAD_XREC_ROUNDTRIP
360
341
  0
DICTIONARY
  5
346
330
6C
100
AcDbDictionary
280
     1
281
     1
  3
ACAD_XREC_ROUNDTRIP
360
347
  0
DICTIONARY
  5
342
330
6A
100
AcDbDictionary
280
     1
281
     1
  3
ACAD_ROUNDTRIP_2008_TABLESTYLE_CELLSTYLEMAP
360
344
  3
ACAD_XREC_ROUNDTRIP
360
343
  0
DICTIONARY
  5
314
330
2F
100
AcDbDictionary
280
     1
281
     1
  3
ACAD_XREC_ROUNDTRIP
360
315
  0
DICTIONARY
  5
31A
330
32
100
AcDbDictionary
280
     1
281
     1
  3
ACAD_XREC_ROUNDTRIP
360
31B
  0
DICTIONARY
  5
322
330
36
100
AcDbDictionary
280
     1
281
     1
  3
ACAD_XREC_ROUNDTRIP
360
323
  0
DICTIONARY
  5
32A
330
3A
100
AcDbDictionary
280
     1
281
     1
  3
ACAD_XREC_ROUNDTRIP
360
32B
  0
DICTIONARY
  5
31E
330
34
100
AcDbDictionary
280
     1
281
     1
  3
ACAD_XREC_ROUNDTRIP
360
31F
  0
DICTIONARY
  5
320
330
35
100
AcDbDictionary
280
     1
281
     1
  3
ACAD_XREC_ROUNDTRIP
360
321
  0
DICTIONARY
  5
330
330
3D
100
AcDbDictionary
280
     1
281
     1
  3
ACAD_XREC_ROUNDTRIP
360
331
  0
DICTIONARY
  5
328
330
39
100
AcDbDictionary
280
     1
281
     1
  3
ACAD_XREC_ROUNDTRIP
360
329
  0
DICTIONARY
  5
30C
330
2B
100
AcDbDictionary
280
     1
281
     1
  3
ACAD_XREC_ROUNDTRIP
360
30D
  0
DICTIONARY
  5
30E
330
2C
100
AcDbDictionary
280
     1
281
     1
  3
ACAD_XREC_ROUNDTRIP
360
30F
  0
DICTIONARY
  5
310
330
2D
100
AcDbDictionary
280
     1
281
     1
  3
ACAD_XREC_ROUNDTRIP
360
311
  0
DICTIONARY
  5
312
330
2E
100
AcDbDictionary
280
     1
281
     1
  3
ACAD_XREC_ROUNDTRIP
360
313
  0
DICTIONARY
  5
318
330
31
100
AcDbDictionary
280
     1
281
     1
  3
ACAD_XREC_ROUNDTRIP
360
319
  0
DICTIONARY
  5
32C
330
3B
100
AcDbDictionary
280
     1
281
     1
  3
ACAD_XREC_ROUNDTRIP
360
32D
  0
DICTIONARY
  5
326
330
38
100
AcDbDictionary
280
     1
281
     1
  3
ACAD_XREC_ROUNDTRIP
360
327
  0
DICTIONARY
  5
32E
330
3C
100
AcDbDictionary
280
     1
281
     1
  3
ACAD_XREC_ROUNDTRIP
360
32F
  0
DICTIONARY
  5
31C
330
33
100
AcDbDictionary
280
     1
281
     1
  3
ACAD_XREC_ROUNDTRIP
360
31D
  0
DICTIONARY
  5
33A
330
42
100
AcDbDictionary
280
     1
281
     1
  3
ACAD_XREC_ROUNDTRIP
360
33B
  0
DICTIONARY
  5
338
330
41
100
AcDbDictionary
280
     1
281
     1
  3
ACAD_XREC_ROUNDTRIP
360
339
  0
DICTIONARY
  5
332
330
3E
100
AcDbDictionary
280
     1
281
     1
  3
ACAD_XREC_ROUNDTRIP
360
333
  0
DICTIONARY
  5
334
330
3F
100
AcDbDictionary
280
     1
281
     1
  3
ACAD_XREC_ROUNDTRIP
360
335
  0
DICTIONARY
  5
324
330
37
100
AcDbDictionary
280
     1
281
     1
  3
ACAD_XREC_ROUNDTRIP
360
325
  0
DICTIONARY
  5
316
330
30
100
AcDbDictionary
280
     1
281
     1
  3
ACAD_XREC_ROUNDTRIP
360
317
  0
DICTIONARY
  5
336
330
40
100
AcDbDictionary
280
     1
281
     1
  3
ACAD_XREC_ROUNDTRIP
360
337
  0
XRECORD
  5
33F
102
{ACAD_REACTORS
330
33E
102
}
330
33E
100
AcDbXrecord
280
     1
102
MATERIAL
148
0.0
149
0.0
149
0.0
 93
        0
 94
      127
282
     0
 72
     1
 77
     1
171
     1
175
     1
179
     1
273
     0
  0
XRECORD
  5
33D
102
{ACAD_REACTORS
330
33C
102
}
330
33C
100
AcDbXrecord
280
     1
102
MATERIAL
148
0.0
149
0.0
149
0.0
 93
        0
 94
      127
282
     0
 72
     1
 77
     1
171
     1
175
     1
179
     1
273
     0
  0
XRECORD
  5
341
102
{ACAD_REACTORS
330
340
102
}
330
340
100
AcDbXrecord
280
     1
102
MATERIAL
148
0.0
149
0.0
149
0.0
 93
        0
 94
      127
282
     0
 72
     1
 77
     1
171
     1
175
     1
179
     1
273
     0
  0
XRECORD
  5
347
102
{ACAD_REACTORS
330
346
102
}
330
346
100
AcDbXrecord
280
     1
102
ACAD_ROUNDTRIP_2010_MLEADER_STYLE
  0
CELLSTYLEMAP
  5
344
102
{ACAD_REACTORS
330
342
102
}
330
342
100
AcDbCellStyleMap
 90
        3
300
CELLSTYLE
  1
TABLEFORMAT_BEGIN
 90
        5
170
     1
 91
        0
 92
    32768
 62
   257
 93
        1
300
CONTENTFORMAT
  1
CONTENTFORMAT_BEGIN
 90
        0
 91
        0
 92
        4
 93
        0
300

 40
0.0
140
1.0
 94
        5
 62
     0
340
11
144
6.0
309
CONTENTFORMAT_END
171
     1
301
MARGIN
  1
CELLMARGIN_BEGIN
 40
1.5
 40
1.5
 40
1.5
 40
1.5
 40
1.5
 40
1.5
309
CELLMARGIN_END
 94
        6
 95
        1
302
GRIDFORMAT
  1
GRIDFORMAT_BEGIN
 90
        0
 91
        1
 62
     0
 92
       -2
340
14
 93
        0
 40
0.045
309
GRIDFORMAT_END
 95
        2
302
GRIDFORMAT
  1
GRIDFORMAT_BEGIN
 90
        0
 91
        1
 62
     0
 92
       -2
340
14
 93
        0
 40
0.045
309
GRIDFORMAT_END
 95
        4
302
GRIDFORMAT
  1
GRIDFORMAT_BEGIN
 90
        0
 91
        1
 62
     0
 92
       -2
340
14
 93
        0
 40
0.045
309
GRIDFORMAT_END
 95
        8
302
GRIDFORMAT
  1
GRIDFORMAT_BEGIN
 90
        0
 91
        1
 62
     0
 92
       -2
340
14
 93
        0
 40
0.045
309
GRIDFORMAT_END
 95
       16
302
GRIDFORMAT
  1
GRIDFORMAT_BEGIN
 90
        0
 91
        1
 62
     0
 92
       -2
340
14
 93
        0
 40
0.045
309
GRIDFORMAT_END
 95
       32
302
GRIDFORMAT
  1
GRIDFORMAT_BEGIN
 90
        0
 91
        1
 62
     0
 92
       -2
340
14
 93
        0
 40
0.045
309
GRIDFORMAT_END
309
TABLEFORMAT_END
  1
CELLSTYLE_BEGIN
 90
        1
 91
        1
300
_TITLE
309
CELLSTYLE_END
300
CELLSTYLE
  1
TABLEFORMAT_BEGIN
 90
        5
170
     1
 91
        0
 92
        0
 62
   257
 93
        1
300
CONTENTFORMAT
  1
CONTENTFORMAT_BEGIN
 90
        0
 91
        0
 92
        4
 93
        0
300

 40
0.0
140
1.0
 94
        5
 62
     0
340
11
144
4.5
309
CONTENTFORMAT_END
171
     1
301
MARGIN
  1
CELLMARGIN_BEGIN
 40
1.5
 40
1.5
 40
1.5
 40
1.5
 40
1.5
 40
1.5
309
CELLMARGIN_END
 94
        6
 95
        1
302
GRIDFORMAT
  1
GRIDFORMAT_BEGIN
 90
        0
 91
        1
 62
     0
 92
       -2
340
14
 93
        0
 40
0.045
309
GRIDFORMAT_END
 95
        2
302
GRIDFORMAT
  1
GRIDFORMAT_BEGIN
 90
        0
 91
        1
 62
     0
 92
       -2
340
14
 93
        0
 40
0.045
309
GRIDFORMAT_END
 95
        4
302
GRIDFORMAT
  1
GRIDFORMAT_BEGIN
 90
        0
 91
        1
 62
     0
 92
       -2
340
14
 93
        0
 40
0.045
309
GRIDFORMAT_END
 95
        8
302
GRIDFORMAT
  1
GRIDFORMAT_BEGIN
 90
        0
 91
        1
 62
     0
 92
       -2
340
14
 93
        0
 40
0.045
309
GRIDFORMAT_END
 95
       16
302
GRIDFORMAT
  1
GRIDFORMAT_BEGIN
 90
        0
 91
        1
 62
     0
 92
       -2
340
14
 93
        0
 40
0.045
309
GRIDFORMAT_END
 95
       32
302
GRIDFORMAT
  1
GRIDFORMAT_BEGIN
 90
        0
 91
        1
 62
     0
 92
       -2
340
14
 93
        0
 40
0.045
309
GRIDFORMAT_END
309
TABLEFORMAT_END
  1
CELLSTYLE_BEGIN
 90
        2
 91
        1
300
_HEADER
309
CELLSTYLE_END
300
CELLSTYLE
  1
TABLEFORMAT_BEGIN
 90
        5
170
     1
 91
        0
 92
        0
 62
   257
 93
        1
300
CONTENTFORMAT
  1
CONTENTFORMAT_BEGIN
 90
        0
 91
        0
 92
        4
 93
        0
300

 40
0.0
140
1.0
 94
        2
 62
     0
340
11
144
4.5
309
CONTENTFORMAT_END
171
     1
301
MARGIN
  1
CELLMARGIN_BEGIN
 40
1.5
 40
1.5
 40
1.5
 40
1.5
 40
1.5
 40
1.5
309
CELLMARGIN_END
 94
        6
 95
        1
302
GRIDFORMAT
  1
GRIDFORMAT_BEGIN
 90
        0
 91
        1
 62
     0
 92
       -2
340
14
 93
        0
 40
0.045
309
GRIDFORMAT_END
 95
        2
302
GRIDFORMAT
  1
GRIDFORMAT_BEGIN
 90
        0
 91
        1
 62
     0
 92
       -2
340
14
 93
        0
 40
0.045
309
GRIDFORMAT_END
 95
        4
302
GRIDFORMAT
  1
GRIDFORMAT_BEGIN
 90
        0
 91
        1
 62
     0
 92
       -2
340
14
 93
        0
 40
0.045
309
GRIDFORMAT_END
 95
        8
302
GRIDFORMAT
  1
GRIDFORMAT_BEGIN
 90
        0
 91
        1
 62
     0
 92
       -2
340
14
 93
        0
 40
0.045
309
GRIDFORMAT_END
 95
       16
302
GRIDFORMAT
  1
GRIDFORMAT_BEGIN
 90
        0
 91
        1
 62
     0
 92
       -2
340
14
 93
        0
 40
0.045
309
GRIDFORMAT_END
 95
       32
302
GRIDFORMAT
  1
GRIDFORMAT_BEGIN
 90
        0
 91
        1
 62
     0
 92
       -2
340
14
 93
        0
 40
0.045
309
GRIDFORMAT_END
309
TABLEFORMAT_END
  1
CELLSTYLE_BEGIN
 90
        3
 91
        2
300
_DATA
309
CELLSTYLE_END
  0
XRECORD
  5
343
102
{ACAD_REACTORS
330
342
102
}
330
342
100
AcDbXrecord
280
     1
102
ACAD_ROUNDTRIP_PRE2007_TABLESTYLE
 90
        4
 91
        0
  1

 92
        4
 93
        0
  2

 94
        4
 95
        0
  3

  0
XRECORD
  5
315
102
{ACAD_REACTORS
330
314
102
}
330
314
100
AcDbXrecord
280
     1
102
RTVSPropertyOp0
 70
     1
102
RTVSPropertyOp1
 70
     1
102
RTVSPropertyOp2
 70
     1
102
RTVSPropertyOp3
 70
     1
102
RTVSPropertyOp4
 70
     1
102
RTVSPropertyOp5
 70
     1
102
RTVSPropertyOp6
 70
     1
102
RTVSPropertyOp7
 70
     1
102
RTVSPropertyOp8
 70
     1
102
RTVSPropertyOp9
 70
     1
102
RTVSPropertyOp10
 70
     1
102
RTVSPropertyOp11
 70
     1
102
RTVSPropertyOp12
 70
     1
102
RTVSPropertyOp13
 70
     1
102
RTVSPropertyOp14
 70
     1
102
RTVSPropertyOp15
 70
     1
102
RTVSPropertyOp16
 70
     1
102
RTVSPropertyOp17
 70
     1
102
RTVSPropertyOp18
 70
     1
102
RTVSPropertyOp19
 70
     1
102
RTVSPropertyOp20
 70
     1
102
RTVSPropertyOp21
 70
     1
102
RTVSPropertyOp22
 70
     1
102
RTVSPropertyOp23
 70
     1
102
RTVSPropertyOp24
 70
     1
102
RTVSPropertyOp25
 70
     1
102
RTVSPropertyOp26
 70
     1
102
RTVSPropertyOp27
 70
     1
102
RTVSPropertyOp28
 70
     1
102
RTVSPropertyOp29
 70
     1
102
RTVSPropertyOp30
 70
     1
102
RTVSPropertyOp31
 70
     1
102
RTVSPropertyOp32
 70
     1
102
RTVSPropertyOp33
 70
     1
102
RTVSPropertyOp34
 70
     1
102
RTVSPropertyOp35
 70
     1
102
RTVSPropertyOp36
 70
     1
102
RTVSPropertyOp37
 70
     1
102
RTVSPropertyOp38
 70
     1
102
RTVSPropertyOp39
 70
     1
102
RTVSPropertyOp40
 70
     1
102
RTVSPropertyOp41
 70
     1
102
RTVSPropertyOp42
 70
     1
102
RTVSPropertyOp43
 70
     1
102
RTVSPropertyOp44
 70
     1
102
RTVSPropertyOp45
 70
     1
102
RTVSPropertyOp46
 70
     1
102
RTVSPropertyOp47
 70
     1
102
RTVSPropertyOp48
 70
     1
102
RTVSPropertyOp49
 70
     1
102
RTVSPropertyOp50
 70
     1
102
RTVSPropertyOp51
 70
     0
102
RTVSPropertyOp52
 70
     0
102
RTVSPropertyOp53
 70
     1
102
RTVSPropertyOp54
 70
     1
102
RTVSPropertyOp55
 70
     1
102
RTVSPropertyOp56
 70
     1
102
RTVSPropertyOp57
 70
     1
102
RTVSPost2010Prop28
280
     1
102
RTVSPost2010PropOp28
 70
     1
102
RTVSPost2010Prop29
280
     1
102
RTVSPost2010PropOp29
 70
     1
102
RTVSPost2010Prop30
280
     0
102
RTVSPost2010PropOp30
 70
     1
102
RTVSPost2010Prop31
280
     0
102
RTVSPost2010PropOp31
 70
     1
102
RTVSPost2010Prop32
280
     0
102
RTVSPost2010PropOp32
 70
     1
102
RTVSPost2010Prop33
280
     0
102
RTVSPost2010PropOp33
 70
     1
102
RTVSPost2010Prop34
280
     0
102
RTVSPost2010PropOp34
 70
     1
102
RTVSPost2010Prop35
280
     0
102
RTVSPost2010PropOp35
 70
     1
102
RTVSPost2010Prop36
280
     0
102
RTVSPost2010PropOp36
 70
     1
102
RTVSPost2010Prop37
 90
       50
102
RTVSPost2010PropOp37
 70
     1
102
RTVSPost2010Prop38
140
0.0
102
RTVSPost2010PropOp38
 70
     1
102
RTVSPost2010Prop39
140
1.0
102
RTVSPost2010PropOp39
 70
     1
102
RTVSPost2010Prop40
 90
        0
102
RTVSPost2010PropOp40
 70
     1
102
RTVSPost2010Prop41ColorIndex
 90
       18
102
RTVSPost2010Prop41ColorRGB
 90
        0
102
RTVSPost2010PropOp41
 70
     1
102
RTVSPost2010Prop42
 90
       50
102
RTVSPost2010PropOp42
 70
     1
102
RTVSPost2010Prop43
 90
        3
102
RTVSPost2010PropOp43
 70
     1
102
RTVSPost2010Prop44ColorIndex
 90
        5
102
RTVSPost2010Prop44ColorRGB
 90
      255
102
RTVSPost2010PropOp44
 70
     1
102
RTVSPost2010Prop45
280
     0
102
RTVSPost2010PropOp45
 70
     1
102
RTVSPost2010Prop46
 90
       50
102
RTVSPost2010PropOp46
 70
     1
102
RTVSPost2010Prop47
 90
       50
102
RTVSPost2010PropOp47
 70
     1
102
RTVSPost2010Prop48
 90
       50
102
RTVSPost2010PropOp48
 70
     1
102
RTVSPost2010Prop49
280
     0
102
RTVSPost2010PropOp49
 70
     1
102
RTVSPost2010Prop50
 90
       50
102
RTVSPost2010PropOp50
 70
     1
102
RTVSPost2010Prop51ColorIndex
 90
      256
102
RTVSPost2010Prop51ColorRGB
 90
-16777216
102
RTVSPost2010PropOp51
 70
     0
102
RTVSPost2010Prop52
140
1.0
102
RTVSPost2010PropOp52
 70
     0
102
RTVSPost2010Prop53
 90
        2
102
RTVSPost2010PropOp53
 70
     1
102
RTVSPost2010Prop54
  1
strokes_ogs.tif
102
RTVSPost2010PropOp54
 70
     1
102
RTVSPost2010Prop55
280
     0
102
RTVSPost2010PropOp55
 70
     1
102
RTVSPost2010Prop56
140
1.0
102
RTVSPost2010PropOp56
 70
     1
102
RTVSPost2010Prop57
140
1.0
102
RTVSPost2010PropOp57
 70
     1
  0
XRECORD
  5
31B
102
{ACAD_REACTORS
330
31A
102
}
330
31A
100
AcDbXrecord
280
     1
102
RTVSPropertyOp0
 70
     1
102
RTVSPropertyOp1
 70
     1
102
RTVSPropertyOp2
 70
     1
102
RTVSPropertyOp3
 70
     1
102
RTVSPropertyOp4
 70
     1
102
RTVSPropertyOp5
 70
     1
102
RTVSPropertyOp6
 70
     1
102
RTVSPropertyOp7
 70
     1
102
RTVSPropertyOp8
 70
     1
102
RTVSPropertyOp9
 70
     1
102
RTVSPropertyOp10
 70
     1
102
RTVSPropertyOp11
 70
     1
102
RTVSPropertyOp12
 70
     1
102
RTVSPropertyOp13
 70
     1
102
RTVSPropertyOp14
 70
     1
102
RTVSPropertyOp15
 70
     1
102
RTVSPropertyOp16
 70
     1
102
RTVSPropertyOp17
 70
     1
102
RTVSPropertyOp18
 70
     1
102
RTVSPropertyOp19
 70
     1
102
RTVSPropertyOp20
 70
     1
102
RTVSPropertyOp21
 70
     1
102
RTVSPropertyOp22
 70
     1
102
RTVSPropertyOp23
 70
     1
102
RTVSPropertyOp24
 70
     1
102
RTVSPropertyOp25
 70
     1
102
RTVSPropertyOp26
 70
     1
102
RTVSPropertyOp27
 70
     1
102
RTVSPropertyOp28
 70
     1
102
RTVSPropertyOp29
 70
     1
102
RTVSPropertyOp30
 70
     1
102
RTVSPropertyOp31
 70
     1
102
RTVSPropertyOp32
 70
     1
102
RTVSPropertyOp33
 70
     1
102
RTVSPropertyOp34
 70
     1
102
RTVSPropertyOp35
 70
     1
102
RTVSPropertyOp36
 70
     1
102
RTVSPropertyOp37
 70
     1
102
RTVSPropertyOp38
 70
     1
102
RTVSPropertyOp39
 70
     1
102
RTVSPropertyOp40
 70
     1
102
RTVSPropertyOp41
 70
     1
102
RTVSPropertyOp42
 70
     1
102
RTVSPropertyOp43
 70
     1
102
RTVSPropertyOp44
 70
     1
102
RTVSPropertyOp45
 70
     1
102
RTVSPropertyOp46
 70
     1
102
RTVSPropertyOp47
 70
     1
102
RTVSPropertyOp48
 70
     1
102
RTVSPropertyOp49
 70
     1
102
RTVSPropertyOp50
 70
     1
102
RTVSPropertyOp51
 70
     0
102
RTVSPropertyOp52
 70
     0
102
RTVSPropertyOp53
 70
     1
102
RTVSPropertyOp54
 70
     1
102
RTVSPropertyOp55
 70
     1
102
RTVSPropertyOp56
 70
     1
102
RTVSPropertyOp57
 70
     1
102
RTVSPost2010Prop28
280
     0
102
RTVSPost2010PropOp28
 70
     1
102
RTVSPost2010Prop29
280
     1
102
RTVSPost2010PropOp29
 70
     1
102
RTVSPost2010Prop30
280
     1
102
RTVSPost2010PropOp30
 70
     1
102
RTVSPost2010Prop31
280
     0
102
RTVSPost2010PropOp31
 70
     1
102
RTVSPost2010Prop32
280
     0
102
RTVSPost2010PropOp32
 70
     1
102
RTVSPost2010Prop33
280
     0
102
RTVSPost2010PropOp33
 70
     1
102
RTVSPost2010Prop34
280
     0
102
RTVSPost2010PropOp34
 70
     1
102
RTVSPost2010Prop35
280
     0
102
RTVSPost2010PropOp35
 70
     1
102
RTVSPost2010Prop36
280
     0
102
RTVSPost2010PropOp36
 70
     1
102
RTVSPost2010Prop37
 90
       50
102
RTVSPost2010PropOp37
 70
     1
102
RTVSPost2010Prop38
140
0.0
102
RTVSPost2010PropOp38
 70
     1
102
RTVSPost2010Prop39
140
1.0
102
RTVSPost2010PropOp39
 70
     1
102
RTVSPost2010Prop40
 90
        0
102
RTVSPost2010PropOp40
 70
     1
102
RTVSPost2010Prop41ColorIndex
 90
       18
102
RTVSPost2010Prop41ColorRGB
 90
        0
102
RTVSPost2010PropOp41
 70
     1
102
RTVSPost2010Prop42
 90
       50
102
RTVSPost2010PropOp42
 70
     1
102
RTVSPost2010Prop43
 90
        3
102
RTVSPost2010PropOp43
 70
     1
102
RTVSPost2010Prop44ColorIndex
 90
        5
102
RTVSPost2010Prop44ColorRGB
 90
      255
102
RTVSPost2010PropOp44
 70
     1
102
RTVSPost2010Prop45
280
     0
102
RTVSPost2010PropOp45
 70
     1
102
RTVSPost2010Prop46
 90
       50
102
RTVSPost2010PropOp46
 70
     1
102
RTVSPost2010Prop47
 90
       50
102
RTVSPost2010PropOp47
 70
     1
102
RTVSPost2010Prop48
 90
       50
102
RTVSPost2010PropOp48
 70
     1
102
RTVSPost2010Prop49
280
     0
102
RTVSPost2010PropOp49
 70
     1
102
RTVSPost2010Prop50
 90
       50
102
RTVSPost2010PropOp50
 70
     1
102
RTVSPost2010Prop51ColorIndex
 90
      256
102
RTVSPost2010Prop51ColorRGB
 90
-16777216
102
RTVSPost2010PropOp51
 70
     0
102
RTVSPost2010Prop52
140
1.0
102
RTVSPost2010PropOp52
 70
     0
102
RTVSPost2010Prop53
 90
        2
102
RTVSPost2010PropOp53
 70
     1
102
RTVSPost2010Prop54
  1
strokes_ogs.tif
102
RTVSPost2010PropOp54
 70
     1
102
RTVSPost2010Prop55
280
     0
102
RTVSPost2010PropOp55
 70
     1
102
RTVSPost2010Prop56
140
1.0
102
RTVSPost2010PropOp56
 70
     1
102
RTVSPost2010Prop57
140
1.0
102
RTVSPost2010PropOp57
 70
     1
  0
XRECORD
  5
323
102
{ACAD_REACTORS
330
322
102
}
330
322
100
AcDbXrecord
280
     1
102
RTVSPropertyOp0
 70
     1
102
RTVSPropertyOp1
 70
     1
102
RTVSPropertyOp2
 70
     1
102
RTVSPropertyOp3
 70
     1
102
RTVSPropertyOp4
 70
     1
102
RTVSPropertyOp5
 70
     1
102
RTVSPropertyOp6
 70
     1
102
RTVSPropertyOp7
 70
     1
102
RTVSPropertyOp8
 70
     1
102
RTVSPropertyOp9
 70
     1
102
RTVSPropertyOp10
 70
     1
102
RTVSPropertyOp11
 70
     1
102
RTVSPropertyOp12
 70
     1
102
RTVSPropertyOp13
 70
     1
102
RTVSPropertyOp14
 70
     1
102
RTVSPropertyOp15
 70
     1
102
RTVSPropertyOp16
 70
     1
102
RTVSPropertyOp17
 70
     1
102
RTVSPropertyOp18
 70
     1
102
RTVSPropertyOp19
 70
     1
102
RTVSPropertyOp20
 70
     1
102
RTVSPropertyOp21
 70
     1
102
RTVSPropertyOp22
 70
     1
102
RTVSPropertyOp23
 70
     1
102
RTVSPropertyOp24
 70
     1
102
RTVSPropertyOp25
 70
     1
102
RTVSPropertyOp26
 70
     1
102
RTVSPropertyOp27
 70
     1
102
RTVSPropertyOp28
 70
     1
102
RTVSPropertyOp29
 70
     1
102
RTVSPropertyOp30
 70
     1
102
RTVSPropertyOp31
 70
     1
102
RTVSPropertyOp32
 70
     1
102
RTVSPropertyOp33
 70
     1
102
RTVSPropertyOp34
 70
     1
102
RTVSPropertyOp35
 70
     1
102
RTVSPropertyOp36
 70
     1
102
RTVSPropertyOp37
 70
     1
102
RTVSPropertyOp38
 70
     1
102
RTVSPropertyOp39
 70
     1
102
RTVSPropertyOp40
 70
     1
102
RTVSPropertyOp41
 70
     1
102
RTVSPropertyOp42
 70
     1
102
RTVSPropertyOp43
 70
     1
102
RTVSPropertyOp44
 70
     1
102
RTVSPropertyOp45
 70
     1
102
RTVSPropertyOp46
 70
     1
102
RTVSPropertyOp47
 70
     1
102
RTVSPropertyOp48
 70
     1
102
RTVSPropertyOp49
 70
     1
102
RTVSPropertyOp50
 70
     1
102
RTVSPropertyOp51
 70
     0
102
RTVSPropertyOp52
 70
     0
102
RTVSPropertyOp53
 70
     1
102
RTVSPropertyOp54
 70
     1
102
RTVSPropertyOp55
 70
     1
102
RTVSPropertyOp56
 70
     1
102
RTVSPropertyOp57
 70
     1
102
RTVSPost2010Prop28
280
     0
102
RTVSPost2010PropOp28
 70
     1
102
RTVSPost2010Prop29
280
     1
102
RTVSPost2010PropOp29
 70
     1
102
RTVSPost2010Prop30
280
     1
102
RTVSPost2010PropOp30
 70
     1
102
RTVSPost2010Prop31
280
     0
102
RTVSPost2010PropOp31
 70
     1
102
RTVSPost2010Prop32
280
     0
102
RTVSPost2010PropOp32
 70
     1
102
RTVSPost2010Prop33
280
     0
102
RTVSPost2010PropOp33
 70
     1
102
RTVSPost2010Prop34
280
     0
102
RTVSPost2010PropOp34
 70
     1
102
RTVSPost2010Prop35
280
     0
102
RTVSPost2010PropOp35
 70
     1
102
RTVSPost2010Prop36
280
     0
102
RTVSPost2010PropOp36
 70
     1
102
RTVSPost2010Prop37
 90
       50
102
RTVSPost2010PropOp37
 70
     1
102
RTVSPost2010Prop38
140
0.0
102
RTVSPost2010PropOp38
 70
     1
102
RTVSPost2010Prop39
140
1.0
102
RTVSPost2010PropOp39
 70
     1
102
RTVSPost2010Prop40
 90
        0
102
RTVSPost2010PropOp40
 70
     1
102
RTVSPost2010Prop41ColorIndex
 90
       18
102
RTVSPost2010Prop41ColorRGB
 90
        0
102
RTVSPost2010PropOp41
 70
     1
102
RTVSPost2010Prop42
 90
       50
102
RTVSPost2010PropOp42
 70
     1
102
RTVSPost2010Prop43
 90
        3
102
RTVSPost2010PropOp43
 70
     1
102
RTVSPost2010Prop44ColorIndex
 90
        5
102
RTVSPost2010Prop44ColorRGB
 90
      255
102
RTVSPost2010PropOp44
 70
     1
102
RTVSPost2010Prop45
280
     0
102
RTVSPost2010PropOp45
 70
     1
102
RTVSPost2010Prop46
 90
       50
102
RTVSPost2010PropOp46
 70
     1
102
RTVSPost2010Prop47
 90
       50
102
RTVSPost2010PropOp47
 70
     1
102
RTVSPost2010Prop48
 90
       50
102
RTVSPost2010PropOp48
 70
     1
102
RTVSPost2010Prop49
280
     0
102
RTVSPost2010PropOp49
 70
     1
102
RTVSPost2010Prop50
 90
       50
102
RTVSPost2010PropOp50
 70
     1
102
RTVSPost2010Prop51ColorIndex
 90
      256
102
RTVSPost2010Prop51ColorRGB
 90
-16777216
102
RTVSPost2010PropOp51
 70
     0
102
RTVSPost2010Prop52
140
1.0
102
RTVSPost2010PropOp52
 70
     0
102
RTVSPost2010Prop53
 90
        2
102
RTVSPost2010PropOp53
 70
     1
102
RTVSPost2010Prop54
  1
strokes_ogs.tif
102
RTVSPost2010PropOp54
 70
     1
102
RTVSPost2010Prop55
280
     0
102
RTVSPost2010PropOp55
 70
     1
102
RTVSPost2010Prop56
140
1.0
102
RTVSPost2010PropOp56
 70
     1
102
RTVSPost2010Prop57
140
1.0
102
RTVSPost2010PropOp57
 70
     1
  0
XRECORD
  5
32B
102
{ACAD_REACTORS
330
32A
102
}
330
32A
100
AcDbXrecord
280
     1
102
RTVSPropertyOp0
 70
     1
102
RTVSPropertyOp1
 70
     1
102
RTVSPropertyOp2
 70
     1
102
RTVSPropertyOp3
 70
     1
102
RTVSPropertyOp4
 70
     1
102
RTVSPropertyOp5
 70
     1
102
RTVSPropertyOp6
 70
     1
102
RTVSPropertyOp7
 70
     1
102
RTVSPropertyOp8
 70
     1
102
RTVSPropertyOp9
 70
     1
102
RTVSPropertyOp10
 70
     1
102
RTVSPropertyOp11
 70
     1
102
RTVSPropertyOp12
 70
     1
102
RTVSPropertyOp13
 70
     1
102
RTVSPropertyOp14
 70
     1
102
RTVSPropertyOp15
 70
     1
102
RTVSPropertyOp16
 70
     1
102
RTVSPropertyOp17
 70
     1
102
RTVSPropertyOp18
 70
     1
102
RTVSPropertyOp19
 70
     1
102
RTVSPropertyOp20
 70
     1
102
RTVSPropertyOp21
 70
     1
102
RTVSPropertyOp22
 70
     1
102
RTVSPropertyOp23
 70
     1
102
RTVSPropertyOp24
 70
     1
102
RTVSPropertyOp25
 70
     1
102
RTVSPropertyOp26
 70
     1
102
RTVSPropertyOp27
 70
     1
102
RTVSPropertyOp28
 70
     1
102
RTVSPropertyOp29
 70
     1
102
RTVSPropertyOp30
 70
     1
102
RTVSPropertyOp31
 70
     1
102
RTVSPropertyOp32
 70
     1
102
RTVSPropertyOp33
 70
     1
102
RTVSPropertyOp34
 70
     1
102
RTVSPropertyOp35
 70
     1
102
RTVSPropertyOp36
 70
     1
102
RTVSPropertyOp37
 70
     1
102
RTVSPropertyOp38
 70
     1
102
RTVSPropertyOp39
 70
     1
102
RTVSPropertyOp40
 70
     1
102
RTVSPropertyOp41
 70
     1
102
RTVSPropertyOp42
 70
     1
102
RTVSPropertyOp43
 70
     1
102
RTVSPropertyOp44
 70
     1
102
RTVSPropertyOp45
 70
     1
102
RTVSPropertyOp46
 70
     1
102
RTVSPropertyOp47
 70
     1
102
RTVSPropertyOp48
 70
     1
102
RTVSPropertyOp49
 70
     1
102
RTVSPropertyOp50
 70
     1
102
RTVSPropertyOp51
 70
     0
102
RTVSPropertyOp52
 70
     0
102
RTVSPropertyOp53
 70
     1
102
RTVSPropertyOp54
 70
     1
102
RTVSPropertyOp55
 70
     1
102
RTVSPropertyOp56
 70
     1
102
RTVSPropertyOp57
 70
     1
102
RTVSPost2010Prop28
280
     0
102
RTVSPost2010PropOp28
 70
     1
102
RTVSPost2010Prop29
280
     1
102
RTVSPost2010PropOp29
 70
     1
102
RTVSPost2010Prop30
280
     1
102
RTVSPost2010PropOp30
 70
     1
102
RTVSPost2010Prop31
280
     0
102
RTVSPost2010PropOp31
 70
     1
102
RTVSPost2010Prop32
280
     0
102
RTVSPost2010PropOp32
 70
     1
102
RTVSPost2010Prop33
280
     0
102
RTVSPost2010PropOp33
 70
     1
102
RTVSPost2010Prop34
280
     0
102
RTVSPost2010PropOp34
 70
     1
102
RTVSPost2010Prop35
280
     0
102
RTVSPost2010PropOp35
 70
     1
102
RTVSPost2010Prop36
280
     0
102
RTVSPost2010PropOp36
 70
     1
102
RTVSPost2010Prop37
 90
       50
102
RTVSPost2010PropOp37
 70
     1
102
RTVSPost2010Prop38
140
0.0
102
RTVSPost2010PropOp38
 70
     1
102
RTVSPost2010Prop39
140
1.0
102
RTVSPost2010PropOp39
 70
     1
102
RTVSPost2010Prop40
 90
        0
102
RTVSPost2010PropOp40
 70
     1
102
RTVSPost2010Prop41ColorIndex
 90
       18
102
RTVSPost2010Prop41ColorRGB
 90
        0
102
RTVSPost2010PropOp41
 70
     1
102
RTVSPost2010Prop42
 90
       50
102
RTVSPost2010PropOp42
 70
     1
102
RTVSPost2010Prop43
 90
        3
102
RTVSPost2010PropOp43
 70
     1
102
RTVSPost2010Prop44ColorIndex
 90
        5
102
RTVSPost2010Prop44ColorRGB
 90
      255
102
RTVSPost2010PropOp44
 70
     1
102
RTVSPost2010Prop45
280
     0
102
RTVSPost2010PropOp45
 70
     1
102
RTVSPost2010Prop46
 90
       50
102
RTVSPost2010PropOp46
 70
     1
102
RTVSPost2010Prop47
 90
       50
102
RTVSPost2010PropOp47
 70
     1
102
RTVSPost2010Prop48
 90
       50
102
RTVSPost2010PropOp48
 70
     1
102
RTVSPost2010Prop49
280
     0
102
RTVSPost2010PropOp49
 70
     1
102
RTVSPost2010Prop50
 90
       50
102
RTVSPost2010PropOp50
 70
     1
102
RTVSPost2010Prop51ColorIndex
 90
      256
102
RTVSPost2010Prop51ColorRGB
 90
-16777216
102
RTVSPost2010PropOp51
 70
     0
102
RTVSPost2010Prop52
140
1.0
102
RTVSPost2010PropOp52
 70
     0
102
RTVSPost2010Prop53
 90
        2
102
RTVSPost2010PropOp53
 70
     1
102
RTVSPost2010Prop54
  1
strokes_ogs.tif
102
RTVSPost2010PropOp54
 70
     1
102
RTVSPost2010Prop55
280
     0
102
RTVSPost2010PropOp55
 70
     1
102
RTVSPost2010Prop56
140
1.0
102
RTVSPost2010PropOp56
 70
     1
102
RTVSPost2010Prop57
140
1.0
102
RTVSPost2010PropOp57
 70
     1
  0
XRECORD
  5
31F
102
{ACAD_REACTORS
330
31E
102
}
330
31E
100
AcDbXrecord
280
     1
102
RTVSPropertyOp0
 70
     1
102
RTVSPropertyOp1
 70
     1
102
RTVSPropertyOp2
 70
     1
102
RTVSPropertyOp3
 70
     1
102
RTVSPropertyOp4
 70
     1
102
RTVSPropertyOp5
 70
     1
102
RTVSPropertyOp6
 70
     1
102
RTVSPropertyOp7
 70
     1
102
RTVSPropertyOp8
 70
     1
102
RTVSPropertyOp9
 70
     1
102
RTVSPropertyOp10
 70
     1
102
RTVSPropertyOp11
 70
     1
102
RTVSPropertyOp12
 70
     1
102
RTVSPropertyOp13
 70
     1
102
RTVSPropertyOp14
 70
     1
102
RTVSPropertyOp15
 70
     1
102
RTVSPropertyOp16
 70
     1
102
RTVSPropertyOp17
 70
     1
102
RTVSPropertyOp18
 70
     1
102
RTVSPropertyOp19
 70
     1
102
RTVSPropertyOp20
 70
     1
102
RTVSPropertyOp21
 70
     1
102
RTVSPropertyOp22
 70
     1
102
RTVSPropertyOp23
 70
     1
102
RTVSPropertyOp24
 70
     1
102
RTVSPropertyOp25
 70
     1
102
RTVSPropertyOp26
 70
     1
102
RTVSPropertyOp27
 70
     1
102
RTVSPropertyOp28
 70
     1
102
RTVSPropertyOp29
 70
     1
102
RTVSPropertyOp30
 70
     1
102
RTVSPropertyOp31
 70
     1
102
RTVSPropertyOp32
 70
     1
102
RTVSPropertyOp33
 70
     1
102
RTVSPropertyOp34
 70
     1
102
RTVSPropertyOp35
 70
     1
102
RTVSPropertyOp36
 70
     1
102
RTVSPropertyOp37
 70
     1
102
RTVSPropertyOp38
 70
     1
102
RTVSPropertyOp39
 70
     1
102
RTVSPropertyOp40
 70
     1
102
RTVSPropertyOp41
 70
     1
102
RTVSPropertyOp42
 70
     1
102
RTVSPropertyOp43
 70
     1
102
RTVSPropertyOp44
 70
     1
102
RTVSPropertyOp45
 70
     1
102
RTVSPropertyOp46
 70
     1
102
RTVSPropertyOp47
 70
     1
102
RTVSPropertyOp48
 70
     1
102
RTVSPropertyOp49
 70
     1
102
RTVSPropertyOp50
 70
     1
102
RTVSPropertyOp51
 70
     0
102
RTVSPropertyOp52
 70
     0
102
RTVSPropertyOp53
 70
     1
102
RTVSPropertyOp54
 70
     1
102
RTVSPropertyOp55
 70
     1
102
RTVSPropertyOp56
 70
     1
102
RTVSPropertyOp57
 70
     1
102
RTVSPost2010Prop28
280
     0
102
RTVSPost2010PropOp28
 70
     1
102
RTVSPost2010Prop29
280
     1
102
RTVSPost2010PropOp29
 70
     1
102
RTVSPost2010Prop30
280
     1
102
RTVSPost2010PropOp30
 70
     1
102
RTVSPost2010Prop31
280
     0
102
RTVSPost2010PropOp31
 70
     1
102
RTVSPost2010Prop32
280
     0
102
RTVSPost2010PropOp32
 70
     1
102
RTVSPost2010Prop33
280
     0
102
RTVSPost2010PropOp33
 70
     1
102
RTVSPost2010Prop34
280
     0
102
RTVSPost2010PropOp34
 70
     1
102
RTVSPost2010Prop35
280
     0
102
RTVSPost2010PropOp35
 70
     1
102
RTVSPost2010Prop36
280
     0
102
RTVSPost2010PropOp36
 70
     1
102
RTVSPost2010Prop37
 90
       50
102
RTVSPost2010PropOp37
 70
     1
102
RTVSPost2010Prop38
140
0.0
102
RTVSPost2010PropOp38
 70
     1
102
RTVSPost2010Prop39
140
1.0
102
RTVSPost2010PropOp39
 70
     1
102
RTVSPost2010Prop40
 90
        0
102
RTVSPost2010PropOp40
 70
     1
102
RTVSPost2010Prop41ColorIndex
 90
       18
102
RTVSPost2010Prop41ColorRGB
 90
        0
102
RTVSPost2010PropOp41
 70
     1
102
RTVSPost2010Prop42
 90
       50
102
RTVSPost2010PropOp42
 70
     1
102
RTVSPost2010Prop43
 90
        3
102
RTVSPost2010PropOp43
 70
     1
102
RTVSPost2010Prop44ColorIndex
 90
        5
102
RTVSPost2010Prop44ColorRGB
 90
      255
102
RTVSPost2010PropOp44
 70
     1
102
RTVSPost2010Prop45
280
     0
102
RTVSPost2010PropOp45
 70
     1
102
RTVSPost2010Prop46
 90
       50
102
RTVSPost2010PropOp46
 70
     1
102
RTVSPost2010Prop47
 90
       50
102
RTVSPost2010PropOp47
 70
     1
102
RTVSPost2010Prop48
 90
       50
102
RTVSPost2010PropOp48
 70
     1
102
RTVSPost2010Prop49
280
     0
102
RTVSPost2010PropOp49
 70
     1
102
RTVSPost2010Prop50
 90
       50
102
RTVSPost2010PropOp50
 70
     1
102
RTVSPost2010Prop51ColorIndex
 90
      256
102
RTVSPost2010Prop51ColorRGB
 90
-16777216
102
RTVSPost2010PropOp51
 70
     0
102
RTVSPost2010Prop52
140
1.0
102
RTVSPost2010PropOp52
 70
     0
102
RTVSPost2010Prop53
 90
        2
102
RTVSPost2010PropOp53
 70
     1
102
RTVSPost2010Prop54
  1
strokes_ogs.tif
102
RTVSPost2010PropOp54
 70
     1
102
RTVSPost2010Prop55
280
     0
102
RTVSPost2010PropOp55
 70
     1
102
RTVSPost2010Prop56
140
1.0
102
RTVSPost2010PropOp56
 70
     1
102
RTVSPost2010Prop57
140
1.0
102
RTVSPost2010PropOp57
 70
     1
  0
XRECORD
  5
321
102
{ACAD_REACTORS
330
320
102
}
330
320
100
AcDbXrecord
280
     1
102
RTVSPropertyOp0
 70
     1
102
RTVSPropertyOp1
 70
     1
102
RTVSPropertyOp2
 70
     1
102
RTVSPropertyOp3
 70
     1
102
RTVSPropertyOp4
 70
     1
102
RTVSPropertyOp5
 70
     1
102
RTVSPropertyOp6
 70
     1
102
RTVSPropertyOp7
 70
     1
102
RTVSPropertyOp8
 70
     1
102
RTVSPropertyOp9
 70
     1
102
RTVSPropertyOp10
 70
     1
102
RTVSPropertyOp11
 70
     1
102
RTVSPropertyOp12
 70
     1
102
RTVSPropertyOp13
 70
     1
102
RTVSPropertyOp14
 70
     1
102
RTVSPropertyOp15
 70
     1
102
RTVSPropertyOp16
 70
     1
102
RTVSPropertyOp17
 70
     1
102
RTVSPropertyOp18
 70
     1
102
RTVSPropertyOp19
 70
     1
102
RTVSPropertyOp20
 70
     1
102
RTVSPropertyOp21
 70
     1
102
RTVSPropertyOp22
 70
     1
102
RTVSPropertyOp23
 70
     1
102
RTVSPropertyOp24
 70
     1
102
RTVSPropertyOp25
 70
     1
102
RTVSPropertyOp26
 70
     1
102
RTVSPropertyOp27
 70
     1
102
RTVSPropertyOp28
 70
     1
102
RTVSPropertyOp29
 70
     1
102
RTVSPropertyOp30
 70
     1
102
RTVSPropertyOp31
 70
     1
102
RTVSPropertyOp32
 70
     1
102
RTVSPropertyOp33
 70
     1
102
RTVSPropertyOp34
 70
     1
102
RTVSPropertyOp35
 70
     1
102
RTVSPropertyOp36
 70
     1
102
RTVSPropertyOp37
 70
     1
102
RTVSPropertyOp38
 70
     1
102
RTVSPropertyOp39
 70
     1
102
RTVSPropertyOp40
 70
     1
102
RTVSPropertyOp41
 70
     1
102
RTVSPropertyOp42
 70
     1
102
RTVSPropertyOp43
 70
     1
102
RTVSPropertyOp44
 70
     1
102
RTVSPropertyOp45
 70
     1
102
RTVSPropertyOp46
 70
     1
102
RTVSPropertyOp47
 70
     1
102
RTVSPropertyOp48
 70
     1
102
RTVSPropertyOp49
 70
     1
102
RTVSPropertyOp50
 70
     1
102
RTVSPropertyOp51
 70
     0
102
RTVSPropertyOp52
 70
     0
102
RTVSPropertyOp53
 70
     1
102
RTVSPropertyOp54
 70
     1
102
RTVSPropertyOp55
 70
     1
102
RTVSPropertyOp56
 70
     1
102
RTVSPropertyOp57
 70
     1
102
RTVSPost2010Prop28
280
     0
102
RTVSPost2010PropOp28
 70
     1
102
RTVSPost2010Prop29
280
     1
102
RTVSPost2010PropOp29
 70
     1
102
RTVSPost2010Prop30
280
     1
102
RTVSPost2010PropOp30
 70
     1
102
RTVSPost2010Prop31
280
     0
102
RTVSPost2010PropOp31
 70
     1
102
RTVSPost2010Prop32
280
     0
102
RTVSPost2010PropOp32
 70
     1
102
RTVSPost2010Prop33
280
     0
102
RTVSPost2010PropOp33
 70
     1
102
RTVSPost2010Prop34
280
     0
102
RTVSPost2010PropOp34
 70
     1
102
RTVSPost2010Prop35
280
     0
102
RTVSPost2010PropOp35
 70
     1
102
RTVSPost2010Prop36
280
     0
102
RTVSPost2010PropOp36
 70
     1
102
RTVSPost2010Prop37
 90
       50
102
RTVSPost2010PropOp37
 70
     1
102
RTVSPost2010Prop38
140
0.0
102
RTVSPost2010PropOp38
 70
     1
102
RTVSPost2010Prop39
140
1.0
102
RTVSPost2010PropOp39
 70
     1
102
RTVSPost2010Prop40
 90
        0
102
RTVSPost2010PropOp40
 70
     1
102
RTVSPost2010Prop41ColorIndex
 90
       18
102
RTVSPost2010Prop41ColorRGB
 90
        0
102
RTVSPost2010PropOp41
 70
     1
102
RTVSPost2010Prop42
 90
       50
102
RTVSPost2010PropOp42
 70
     1
102
RTVSPost2010Prop43
 90
        3
102
RTVSPost2010PropOp43
 70
     1
102
RTVSPost2010Prop44ColorIndex
 90
        5
102
RTVSPost2010Prop44ColorRGB
 90
      255
102
RTVSPost2010PropOp44
 70
     1
102
RTVSPost2010Prop45
280
     0
102
RTVSPost2010PropOp45
 70
     1
102
RTVSPost2010Prop46
 90
       50
102
RTVSPost2010PropOp46
 70
     1
102
RTVSPost2010Prop47
 90
       50
102
RTVSPost2010PropOp47
 70
     1
102
RTVSPost2010Prop48
 90
       50
102
RTVSPost2010PropOp48
 70
     1
102
RTVSPost2010Prop49
280
     0
102
RTVSPost2010PropOp49
 70
     1
102
RTVSPost2010Prop50
 90
       50
102
RTVSPost2010PropOp50
 70
     1
102
RTVSPost2010Prop51ColorIndex
 90
      256
102
RTVSPost2010Prop51ColorRGB
 90
-16777216
102
RTVSPost2010PropOp51
 70
     0
102
RTVSPost2010Prop52
140
1.0
102
RTVSPost2010PropOp52
 70
     0
102
RTVSPost2010Prop53
 90
        2
102
RTVSPost2010PropOp53
 70
     1
102
RTVSPost2010Prop54
  1
strokes_ogs.tif
102
RTVSPost2010PropOp54
 70
     1
102
RTVSPost2010Prop55
280
     0
102
RTVSPost2010PropOp55
 70
     1
102
RTVSPost2010Prop56
140
1.0
102
RTVSPost2010PropOp56
 70
     1
102
RTVSPost2010Prop57
140
1.0
102
RTVSPost2010PropOp57
 70
     1
  0
XRECORD
  5
331
102
{ACAD_REACTORS
330
330
102
}
330
330
100
AcDbXrecord
280
     1
102
RTVSPropertyOp0
 70
     0
102
RTVSPropertyOp1
 70
     0
102
RTVSPropertyOp2
 70
     0
102
RTVSPropertyOp3
 70
     0
102
RTVSPropertyOp4
 70
     0
102
RTVSPropertyOp5
 70
     0
102
RTVSPropertyOp6
 70
     0
102
RTVSPropertyOp7
 70
     0
102
RTVSPropertyOp8
 70
     0
102
RTVSPropertyOp9
 70
     0
102
RTVSPropertyOp10
 70
     0
102
RTVSPropertyOp11
 70
     0
102
RTVSPropertyOp12
 70
     0
102
RTVSPropertyOp13
 70
     0
102
RTVSPropertyOp14
 70
     2
102
RTVSPropertyOp15
 70
     0
102
RTVSPropertyOp16
 70
     0
102
RTVSPropertyOp17
 70
     0
102
RTVSPropertyOp18
 70
     0
102
RTVSPropertyOp19
 70
     0
102
RTVSPropertyOp20
 70
     0
102
RTVSPropertyOp21
 70
     0
102
RTVSPropertyOp22
 70
     0
102
RTVSPropertyOp23
 70
     0
102
RTVSPropertyOp24
 70
     0
102
RTVSPropertyOp25
 70
     0
102
RTVSPropertyOp26
 70
     0
102
RTVSPropertyOp27
 70
     0
102
RTVSPropertyOp28
 70
     0
102
RTVSPropertyOp29
 70
     0
102
RTVSPropertyOp30
 70
     0
102
RTVSPropertyOp31
 70
     0
102
RTVSPropertyOp32
 70
     0
102
RTVSPropertyOp33
 70
     0
102
RTVSPropertyOp34
 70
     0
102
RTVSPropertyOp35
 70
     0
102
RTVSPropertyOp36
 70
     0
102
RTVSPropertyOp37
 70
     0
102
RTVSPropertyOp38
 70
     0
102
RTVSPropertyOp39
 70
     0
102
RTVSPropertyOp40
 70
     0
102
RTVSPropertyOp41
 70
     0
102
RTVSPropertyOp42
 70
     0
102
RTVSPropertyOp43
 70
     0
102
RTVSPropertyOp44
 70
     0
102
RTVSPropertyOp45
 70
     0
102
RTVSPropertyOp46
 70
     0
102
RTVSPropertyOp47
 70
     0
102
RTVSPropertyOp48
 70
     0
102
RTVSPropertyOp49
 70
     0
102
RTVSPropertyOp50
 70
     0
102
RTVSPropertyOp51
 70
     0
102
RTVSPropertyOp52
 70
     0
102
RTVSPropertyOp53
 70
     0
102
RTVSPropertyOp54
 70
     0
102
RTVSPropertyOp55
 70
     0
102
RTVSPropertyOp56
 70
     0
102
RTVSPropertyOp57
 70
     0
102
RTVSPost2010Prop28
280
     0
102
RTVSPost2010PropOp28
 70
     0
102
RTVSPost2010Prop29
280
     1
102
RTVSPost2010PropOp29
 70
     0
102
RTVSPost2010Prop30
280
     1
102
RTVSPost2010PropOp30
 70
     0
102
RTVSPost2010Prop31
280
     0
102
RTVSPost2010PropOp31
 70
     0
102
RTVSPost2010Prop32
280
     0
102
RTVSPost2010PropOp32
 70
     0
102
RTVSPost2010Prop33
280
     0
102
RTVSPost2010PropOp33
 70
     0
102
RTVSPost2010Prop34
280
     0
102
RTVSPost2010PropOp34
 70
     0
102
RTVSPost2010Prop35
280
     0
102
RTVSPost2010PropOp35
 70
     0
102
RTVSPost2010Prop36
280
     0
102
RTVSPost2010PropOp36
 70
     0
102
RTVSPost2010Prop37
 90
       50
102
RTVSPost2010PropOp37
 70
     0
102
RTVSPost2010Prop38
140
0.0
102
RTVSPost2010PropOp38
 70
     0
102
RTVSPost2010Prop39
140
1.0
102
RTVSPost2010PropOp39
 70
     0
102
RTVSPost2010Prop40
 90
        0
102
RTVSPost2010PropOp40
 70
     0
102
RTVSPost2010Prop41ColorIndex
 90
       18
102
RTVSPost2010Prop41ColorRGB
 90
        0
102
RTVSPost2010PropOp41
 70
     0
102
RTVSPost2010Prop42
 90
       50
102
RTVSPost2010PropOp42
 70
     0
102
RTVSPost2010Prop43
 90
        3
102
RTVSPost2010PropOp43
 70
     0
102
RTVSPost2010Prop44ColorIndex
 90
        5
102
RTVSPost2010Prop44ColorRGB
 90
      255
102
RTVSPost2010PropOp44
 70
     0
102
RTVSPost2010Prop45
280
     0
102
RTVSPost2010PropOp45
 70
     0
102
RTVSPost2010Prop46
 90
       50
102
RTVSPost2010PropOp46
 70
     0
102
RTVSPost2010Prop47
 90
       50
102
RTVSPost2010PropOp47
 70
     0
102
RTVSPost2010Prop48
 90
       50
102
RTVSPost2010PropOp48
 70
     0
102
RTVSPost2010Prop49
280
     0
102
RTVSPost2010PropOp49
 70
     0
102
RTVSPost2010Prop50
 90
       50
102
RTVSPost2010PropOp50
 70
     0
102
RTVSPost2010Prop51ColorIndex
 90
      256
102
RTVSPost2010Prop51ColorRGB
 90
-16777216
102
RTVSPost2010PropOp51
 70
     0
102
RTVSPost2010Prop52
140
1.0
102
RTVSPost2010PropOp52
 70
     0
102
RTVSPost2010Prop53
 90
        2
102
RTVSPost2010PropOp53
 70
     0
102
RTVSPost2010Prop54
  1
strokes_ogs.tif
102
RTVSPost2010PropOp54
 70
     0
102
RTVSPost2010Prop55
280
     0
102
RTVSPost2010PropOp55
 70
     0
102
RTVSPost2010Prop56
140
1.0
102
RTVSPost2010PropOp56
 70
     0
102
RTVSPost2010Prop57
140
1.0
102
RTVSPost2010PropOp57
 70
     0
  0
XRECORD
  5
329
102
{ACAD_REACTORS
330
328
102
}
330
328
100
AcDbXrecord
280
     1
102
RTVSPropertyOp0
 70
     1
102
RTVSPropertyOp1
 70
     1
102
RTVSPropertyOp2
 70
     1
102
RTVSPropertyOp3
 70
     1
102
RTVSPropertyOp4
 70
     1
102
RTVSPropertyOp5
 70
     1
102
RTVSPropertyOp6
 70
     1
102
RTVSPropertyOp7
 70
     1
102
RTVSPropertyOp8
 70
     1
102
RTVSPropertyOp9
 70
     1
102
RTVSPropertyOp10
 70
     1
102
RTVSPropertyOp11
 70
     1
102
RTVSPropertyOp12
 70
     1
102
RTVSPropertyOp13
 70
     1
102
RTVSPropertyOp14
 70
     1
102
RTVSPropertyOp15
 70
     1
102
RTVSPropertyOp16
 70
     1
102
RTVSPropertyOp17
 70
     1
102
RTVSPropertyOp18
 70
     1
102
RTVSPropertyOp19
 70
     1
102
RTVSPropertyOp20
 70
     1
102
RTVSPropertyOp21
 70
     1
102
RTVSPropertyOp22
 70
     1
102
RTVSPropertyOp23
 70
     1
102
RTVSPropertyOp24
 70
     1
102
RTVSPropertyOp25
 70
     1
102
RTVSPropertyOp26
 70
     1
102
RTVSPropertyOp27
 70
     1
102
RTVSPropertyOp28
 70
     1
102
RTVSPropertyOp29
 70
     1
102
RTVSPropertyOp30
 70
     1
102
RTVSPropertyOp31
 70
     1
102
RTVSPropertyOp32
 70
     1
102
RTVSPropertyOp33
 70
     1
102
RTVSPropertyOp34
 70
     1
102
RTVSPropertyOp35
 70
     1
102
RTVSPropertyOp36
 70
     1
102
RTVSPropertyOp37
 70
     1
102
RTVSPropertyOp38
 70
     1
102
RTVSPropertyOp39
 70
     1
102
RTVSPropertyOp40
 70
     1
102
RTVSPropertyOp41
 70
     1
102
RTVSPropertyOp42
 70
     1
102
RTVSPropertyOp43
 70
     1
102
RTVSPropertyOp44
 70
     1
102
RTVSPropertyOp45
 70
     1
102
RTVSPropertyOp46
 70
     1
102
RTVSPropertyOp47
 70
     1
102
RTVSPropertyOp48
 70
     1
102
RTVSPropertyOp49
 70
     1
102
RTVSPropertyOp50
 70
     1
102
RTVSPropertyOp51
 70
     0
102
RTVSPropertyOp52
 70
     0
102
RTVSPropertyOp53
 70
     1
102
RTVSPropertyOp54
 70
     1
102
RTVSPropertyOp55
 70
     1
102
RTVSPropertyOp56
 70
     1
102
RTVSPropertyOp57
 70
     1
102
RTVSPost2010Prop28
280
     0
102
RTVSPost2010PropOp28
 70
     1
102
RTVSPost2010Prop29
280
     1
102
RTVSPost2010PropOp29
 70
     1
102
RTVSPost2010Prop30
280
     1
102
RTVSPost2010PropOp30
 70
     1
102
RTVSPost2010Prop31
280
     0
102
RTVSPost2010PropOp31
 70
     1
102
RTVSPost2010Prop32
280
     0
102
RTVSPost2010PropOp32
 70
     1
102
RTVSPost2010Prop33
280
     0
102
RTVSPost2010PropOp33
 70
     1
102
RTVSPost2010Prop34
280
     0
102
RTVSPost2010PropOp34
 70
     1
102
RTVSPost2010Prop35
280
     0
102
RTVSPost2010PropOp35
 70
     1
102
RTVSPost2010Prop36
280
     0
102
RTVSPost2010PropOp36
 70
     1
102
RTVSPost2010Prop37
 90
       50
102
RTVSPost2010PropOp37
 70
     1
102
RTVSPost2010Prop38
140
0.0
102
RTVSPost2010PropOp38
 70
     1
102
RTVSPost2010Prop39
140
1.0
102
RTVSPost2010PropOp39
 70
     1
102
RTVSPost2010Prop40
 90
        0
102
RTVSPost2010PropOp40
 70
     1
102
RTVSPost2010Prop41ColorIndex
 90
       18
102
RTVSPost2010Prop41ColorRGB
 90
        0
102
RTVSPost2010PropOp41
 70
     1
102
RTVSPost2010Prop42
 90
       50
102
RTVSPost2010PropOp42
 70
     1
102
RTVSPost2010Prop43
 90
        3
102
RTVSPost2010PropOp43
 70
     1
102
RTVSPost2010Prop44ColorIndex
 90
        5
102
RTVSPost2010Prop44ColorRGB
 90
      255
102
RTVSPost2010PropOp44
 70
     1
102
RTVSPost2010Prop45
280
     0
102
RTVSPost2010PropOp45
 70
     1
102
RTVSPost2010Prop46
 90
       50
102
RTVSPost2010PropOp46
 70
     1
102
RTVSPost2010Prop47
 90
       50
102
RTVSPost2010PropOp47
 70
     1
102
RTVSPost2010Prop48
 90
       50
102
RTVSPost2010PropOp48
 70
     1
102
RTVSPost2010Prop49
280
     0
102
RTVSPost2010PropOp49
 70
     1
102
RTVSPost2010Prop50
 90
       50
102
RTVSPost2010PropOp50
 70
     1
102
RTVSPost2010Prop51ColorIndex
 90
      256
102
RTVSPost2010Prop51ColorRGB
 90
-16777216
102
RTVSPost2010PropOp51
 70
     0
102
RTVSPost2010Prop52
140
1.0
102
RTVSPost2010PropOp52
 70
     0
102
RTVSPost2010Prop53
 90
        2
102
RTVSPost2010PropOp53
 70
     1
102
RTVSPost2010Prop54
  1
strokes_ogs.tif
102
RTVSPost2010PropOp54
 70
     1
102
RTVSPost2010Prop55
280
     0
102
RTVSPost2010PropOp55
 70
     1
102
RTVSPost2010Prop56
140
1.0
102
RTVSPost2010PropOp56
 70
     1
102
RTVSPost2010Prop57
140
1.0
102
RTVSPost2010PropOp57
 70
     1
  0
XRECORD
  5
30D
102
{ACAD_REACTORS
330
30C
102
}
330
30C
100
AcDbXrecord
280
     1
102
RTVSPropertyOp0
 70
     1
102
RTVSPropertyOp1
 70
     1
102
RTVSPropertyOp2
 70
     1
102
RTVSPropertyOp3
 70
     1
102
RTVSPropertyOp4
 70
     1
102
RTVSPropertyOp5
 70
     1
102
RTVSPropertyOp6
 70
     1
102
RTVSPropertyOp7
 70
     1
102
RTVSPropertyOp8
 70
     1
102
RTVSPropertyOp9
 70
     1
102
RTVSPropertyOp10
 70
     1
102
RTVSPropertyOp11
 70
     1
102
RTVSPropertyOp12
 70
     1
102
RTVSPropertyOp13
 70
     1
102
RTVSPropertyOp14
 70
     1
102
RTVSPropertyOp15
 70
     1
102
RTVSPropertyOp16
 70
     1
102
RTVSPropertyOp17
 70
     1
102
RTVSPropertyOp18
 70
     1
102
RTVSPropertyOp19
 70
     1
102
RTVSPropertyOp20
 70
     1
102
RTVSPropertyOp21
 70
     1
102
RTVSPropertyOp22
 70
     1
102
RTVSPropertyOp23
 70
     1
102
RTVSPropertyOp24
 70
     1
102
RTVSPropertyOp25
 70
     1
102
RTVSPropertyOp26
 70
     1
102
RTVSPropertyOp27
 70
     1
102
RTVSPropertyOp28
 70
     1
102
RTVSPropertyOp29
 70
     1
102
RTVSPropertyOp30
 70
     1
102
RTVSPropertyOp31
 70
     1
102
RTVSPropertyOp32
 70
     1
102
RTVSPropertyOp33
 70
     1
102
RTVSPropertyOp34
 70
     1
102
RTVSPropertyOp35
 70
     1
102
RTVSPropertyOp36
 70
     1
102
RTVSPropertyOp37
 70
     1
102
RTVSPropertyOp38
 70
     1
102
RTVSPropertyOp39
 70
     1
102
RTVSPropertyOp40
 70
     1
102
RTVSPropertyOp41
 70
     1
102
RTVSPropertyOp42
 70
     1
102
RTVSPropertyOp43
 70
     1
102
RTVSPropertyOp44
 70
     1
102
RTVSPropertyOp45
 70
     1
102
RTVSPropertyOp46
 70
     1
102
RTVSPropertyOp47
 70
     1
102
RTVSPropertyOp48
 70
     1
102
RTVSPropertyOp49
 70
     1
102
RTVSPropertyOp50
 70
     1
102
RTVSPropertyOp51
 70
     0
102
RTVSPropertyOp52
 70
     0
102
RTVSPropertyOp53
 70
     1
102
RTVSPropertyOp54
 70
     1
102
RTVSPropertyOp55
 70
     1
102
RTVSPropertyOp56
 70
     1
102
RTVSPropertyOp57
 70
     1
102
RTVSPost2010Prop28
280
     0
102
RTVSPost2010PropOp28
 70
     1
102
RTVSPost2010Prop29
280
     1
102
RTVSPost2010PropOp29
 70
     1
102
RTVSPost2010Prop30
280
     1
102
RTVSPost2010PropOp30
 70
     1
102
RTVSPost2010Prop31
280
     0
102
RTVSPost2010PropOp31
 70
     1
102
RTVSPost2010Prop32
280
     0
102
RTVSPost2010PropOp32
 70
     1
102
RTVSPost2010Prop33
280
     0
102
RTVSPost2010PropOp33
 70
     1
102
RTVSPost2010Prop34
280
     0
102
RTVSPost2010PropOp34
 70
     1
102
RTVSPost2010Prop35
280
     0
102
RTVSPost2010PropOp35
 70
     1
102
RTVSPost2010Prop36
280
     0
102
RTVSPost2010PropOp36
 70
     1
102
RTVSPost2010Prop37
 90
       50
102
RTVSPost2010PropOp37
 70
     1
102
RTVSPost2010Prop38
140
0.0
102
RTVSPost2010PropOp38
 70
     1
102
RTVSPost2010Prop39
140
1.0
102
RTVSPost2010PropOp39
 70
     1
102
RTVSPost2010Prop40
 90
        0
102
RTVSPost2010PropOp40
 70
     1
102
RTVSPost2010Prop41ColorIndex
 90
       18
102
RTVSPost2010Prop41ColorRGB
 90
        0
102
RTVSPost2010PropOp41
 70
     1
102
RTVSPost2010Prop42
 90
       50
102
RTVSPost2010PropOp42
 70
     1
102
RTVSPost2010Prop43
 90
        3
102
RTVSPost2010PropOp43
 70
     1
102
RTVSPost2010Prop44ColorIndex
 90
        5
102
RTVSPost2010Prop44ColorRGB
 90
      255
102
RTVSPost2010PropOp44
 70
     1
102
RTVSPost2010Prop45
280
     0
102
RTVSPost2010PropOp45
 70
     1
102
RTVSPost2010Prop46
 90
       50
102
RTVSPost2010PropOp46
 70
     1
102
RTVSPost2010Prop47
 90
       50
102
RTVSPost2010PropOp47
 70
     1
102
RTVSPost2010Prop48
 90
       50
102
RTVSPost2010PropOp48
 70
     1
102
RTVSPost2010Prop49
280
     0
102
RTVSPost2010PropOp49
 70
     1
102
RTVSPost2010Prop50
 90
       50
102
RTVSPost2010PropOp50
 70
     1
102
RTVSPost2010Prop51ColorIndex
 90
      256
102
RTVSPost2010Prop51ColorRGB
 90
-16777216
102
RTVSPost2010PropOp51
 70
     0
102
RTVSPost2010Prop52
140
1.0
102
RTVSPost2010PropOp52
 70
     0
102
RTVSPost2010Prop53
 90
        2
102
RTVSPost2010PropOp53
 70
     1
102
RTVSPost2010Prop54
  1
strokes_ogs.tif
102
RTVSPost2010PropOp54
 70
     1
102
RTVSPost2010Prop55
280
     0
102
RTVSPost2010PropOp55
 70
     1
102
RTVSPost2010Prop56
140
1.0
102
RTVSPost2010PropOp56
 70
     1
102
RTVSPost2010Prop57
140
1.0
102
RTVSPost2010PropOp57
 70
     1
  0
XRECORD
  5
30F
102
{ACAD_REACTORS
330
30E
102
}
330
30E
100
AcDbXrecord
280
     1
102
RTVSPropertyOp0
 70
     1
102
RTVSPropertyOp1
 70
     1
102
RTVSPropertyOp2
 70
     1
102
RTVSPropertyOp3
 70
     1
102
RTVSPropertyOp4
 70
     1
102
RTVSPropertyOp5
 70
     1
102
RTVSPropertyOp6
 70
     1
102
RTVSPropertyOp7
 70
     1
102
RTVSPropertyOp8
 70
     1
102
RTVSPropertyOp9
 70
     1
102
RTVSPropertyOp10
 70
     1
102
RTVSPropertyOp11
 70
     1
102
RTVSPropertyOp12
 70
     1
102
RTVSPropertyOp13
 70
     1
102
RTVSPropertyOp14
 70
     1
102
RTVSPropertyOp15
 70
     1
102
RTVSPropertyOp16
 70
     1
102
RTVSPropertyOp17
 70
     1
102
RTVSPropertyOp18
 70
     1
102
RTVSPropertyOp19
 70
     1
102
RTVSPropertyOp20
 70
     1
102
RTVSPropertyOp21
 70
     1
102
RTVSPropertyOp22
 70
     1
102
RTVSPropertyOp23
 70
     1
102
RTVSPropertyOp24
 70
     1
102
RTVSPropertyOp25
 70
     1
102
RTVSPropertyOp26
 70
     1
102
RTVSPropertyOp27
 70
     1
102
RTVSPropertyOp28
 70
     1
102
RTVSPropertyOp29
 70
     1
102
RTVSPropertyOp30
 70
     1
102
RTVSPropertyOp31
 70
     1
102
RTVSPropertyOp32
 70
     1
102
RTVSPropertyOp33
 70
     1
102
RTVSPropertyOp34
 70
     1
102
RTVSPropertyOp35
 70
     1
102
RTVSPropertyOp36
 70
     1
102
RTVSPropertyOp37
 70
     1
102
RTVSPropertyOp38
 70
     1
102
RTVSPropertyOp39
 70
     1
102
RTVSPropertyOp40
 70
     1
102
RTVSPropertyOp41
 70
     1
102
RTVSPropertyOp42
 70
     1
102
RTVSPropertyOp43
 70
     1
102
RTVSPropertyOp44
 70
     1
102
RTVSPropertyOp45
 70
     1
102
RTVSPropertyOp46
 70
     1
102
RTVSPropertyOp47
 70
     1
102
RTVSPropertyOp48
 70
     1
102
RTVSPropertyOp49
 70
     1
102
RTVSPropertyOp50
 70
     1
102
RTVSPropertyOp51
 70
     0
102
RTVSPropertyOp52
 70
     0
102
RTVSPropertyOp53
 70
     1
102
RTVSPropertyOp54
 70
     1
102
RTVSPropertyOp55
 70
     1
102
RTVSPropertyOp56
 70
     1
102
RTVSPropertyOp57
 70
     1
102
RTVSPost2010Prop28
280
     0
102
RTVSPost2010PropOp28
 70
     1
102
RTVSPost2010Prop29
280
     1
102
RTVSPost2010PropOp29
 70
     1
102
RTVSPost2010Prop30
280
     1
102
RTVSPost2010PropOp30
 70
     1
102
RTVSPost2010Prop31
280
     0
102
RTVSPost2010PropOp31
 70
     1
102
RTVSPost2010Prop32
280
     0
102
RTVSPost2010PropOp32
 70
     1
102
RTVSPost2010Prop33
280
     0
102
RTVSPost2010PropOp33
 70
     1
102
RTVSPost2010Prop34
280
     0
102
RTVSPost2010PropOp34
 70
     1
102
RTVSPost2010Prop35
280
     0
102
RTVSPost2010PropOp35
 70
     1
102
RTVSPost2010Prop36
280
     0
102
RTVSPost2010PropOp36
 70
     1
102
RTVSPost2010Prop37
 90
       50
102
RTVSPost2010PropOp37
 70
     1
102
RTVSPost2010Prop38
140
0.0
102
RTVSPost2010PropOp38
 70
     1
102
RTVSPost2010Prop39
140
1.0
102
RTVSPost2010PropOp39
 70
     1
102
RTVSPost2010Prop40
 90
        0
102
RTVSPost2010PropOp40
 70
     1
102
RTVSPost2010Prop41ColorIndex
 90
       18
102
RTVSPost2010Prop41ColorRGB
 90
        0
102
RTVSPost2010PropOp41
 70
     1
102
RTVSPost2010Prop42
 90
       50
102
RTVSPost2010PropOp42
 70
     1
102
RTVSPost2010Prop43
 90
        3
102
RTVSPost2010PropOp43
 70
     1
102
RTVSPost2010Prop44ColorIndex
 90
        5
102
RTVSPost2010Prop44ColorRGB
 90
      255
102
RTVSPost2010PropOp44
 70
     1
102
RTVSPost2010Prop45
280
     0
102
RTVSPost2010PropOp45
 70
     1
102
RTVSPost2010Prop46
 90
       50
102
RTVSPost2010PropOp46
 70
     1
102
RTVSPost2010Prop47
 90
       50
102
RTVSPost2010PropOp47
 70
     1
102
RTVSPost2010Prop48
 90
       50
102
RTVSPost2010PropOp48
 70
     1
102
RTVSPost2010Prop49
280
     0
102
RTVSPost2010PropOp49
 70
     1
102
RTVSPost2010Prop50
 90
       50
102
RTVSPost2010PropOp50
 70
     1
102
RTVSPost2010Prop51ColorIndex
 90
      256
102
RTVSPost2010Prop51ColorRGB
 90
-16777216
102
RTVSPost2010PropOp51
 70
     0
102
RTVSPost2010Prop52
140
1.0
102
RTVSPost2010PropOp52
 70
     0
102
RTVSPost2010Prop53
 90
        2
102
RTVSPost2010PropOp53
 70
     1
102
RTVSPost2010Prop54
  1
strokes_ogs.tif
102
RTVSPost2010PropOp54
 70
     1
102
RTVSPost2010Prop55
280
     0
102
RTVSPost2010PropOp55
 70
     1
102
RTVSPost2010Prop56
140
1.0
102
RTVSPost2010PropOp56
 70
     1
102
RTVSPost2010Prop57
140
1.0
102
RTVSPost2010PropOp57
 70
     1
  0
XRECORD
  5
311
102
{ACAD_REACTORS
330
310
102
}
330
310
100
AcDbXrecord
280
     1
102
RTVSPropertyOp0
 70
     1
102
RTVSPropertyOp1
 70
     1
102
RTVSPropertyOp2
 70
     1
102
RTVSPropertyOp3
 70
     1
102
RTVSPropertyOp4
 70
     1
102
RTVSPropertyOp5
 70
     1
102
RTVSPropertyOp6
 70
     1
102
RTVSPropertyOp7
 70
     1
102
RTVSPropertyOp8
 70
     1
102
RTVSPropertyOp9
 70
     1
102
RTVSPropertyOp10
 70
     1
102
RTVSPropertyOp11
 70
     1
102
RTVSPropertyOp12
 70
     1
102
RTVSPropertyOp13
 70
     1
102
RTVSPropertyOp14
 70
     1
102
RTVSPropertyOp15
 70
     1
102
RTVSPropertyOp16
 70
     1
102
RTVSPropertyOp17
 70
     1
102
RTVSPropertyOp18
 70
     1
102
RTVSPropertyOp19
 70
     1
102
RTVSPropertyOp20
 70
     1
102
RTVSPropertyOp21
 70
     1
102
RTVSPropertyOp22
 70
     1
102
RTVSPropertyOp23
 70
     1
102
RTVSPropertyOp24
 70
     1
102
RTVSPropertyOp25
 70
     1
102
RTVSPropertyOp26
 70
     1
102
RTVSPropertyOp27
 70
     1
102
RTVSPropertyOp28
 70
     1
102
RTVSPropertyOp29
 70
     1
102
RTVSPropertyOp30
 70
     1
102
RTVSPropertyOp31
 70
     1
102
RTVSPropertyOp32
 70
     1
102
RTVSPropertyOp33
 70
     1
102
RTVSPropertyOp34
 70
     1
102
RTVSPropertyOp35
 70
     1
102
RTVSPropertyOp36
 70
     1
102
RTVSPropertyOp37
 70
     1
102
RTVSPropertyOp38
 70
     1
102
RTVSPropertyOp39
 70
     1
102
RTVSPropertyOp40
 70
     1
102
RTVSPropertyOp41
 70
     1
102
RTVSPropertyOp42
 70
     1
102
RTVSPropertyOp43
 70
     1
102
RTVSPropertyOp44
 70
     1
102
RTVSPropertyOp45
 70
     1
102
RTVSPropertyOp46
 70
     1
102
RTVSPropertyOp47
 70
     1
102
RTVSPropertyOp48
 70
     1
102
RTVSPropertyOp49
 70
     1
102
RTVSPropertyOp50
 70
     1
102
RTVSPropertyOp51
 70
     0
102
RTVSPropertyOp52
 70
     0
102
RTVSPropertyOp53
 70
     1
102
RTVSPropertyOp54
 70
     1
102
RTVSPropertyOp55
 70
     1
102
RTVSPropertyOp56
 70
     1
102
RTVSPropertyOp57
 70
     1
102
RTVSPost2010Prop28
280
     0
102
RTVSPost2010PropOp28
 70
     1
102
RTVSPost2010Prop29
280
     1
102
RTVSPost2010PropOp29
 70
     1
102
RTVSPost2010Prop30
280
     1
102
RTVSPost2010PropOp30
 70
     1
102
RTVSPost2010Prop31
280
     0
102
RTVSPost2010PropOp31
 70
     1
102
RTVSPost2010Prop32
280
     0
102
RTVSPost2010PropOp32
 70
     1
102
RTVSPost2010Prop33
280
     0
102
RTVSPost2010PropOp33
 70
     1
102
RTVSPost2010Prop34
280
     0
102
RTVSPost2010PropOp34
 70
     1
102
RTVSPost2010Prop35
280
     0
102
RTVSPost2010PropOp35
 70
     1
102
RTVSPost2010Prop36
280
     0
102
RTVSPost2010PropOp36
 70
     1
102
RTVSPost2010Prop37
 90
       50
102
RTVSPost2010PropOp37
 70
     1
102
RTVSPost2010Prop38
140
0.0
102
RTVSPost2010PropOp38
 70
     1
102
RTVSPost2010Prop39
140
1.0
102
RTVSPost2010PropOp39
 70
     1
102
RTVSPost2010Prop40
 90
        0
102
RTVSPost2010PropOp40
 70
     1
102
RTVSPost2010Prop41ColorIndex
 90
       18
102
RTVSPost2010Prop41ColorRGB
 90
        0
102
RTVSPost2010PropOp41
 70
     1
102
RTVSPost2010Prop42
 90
       50
102
RTVSPost2010PropOp42
 70
     1
102
RTVSPost2010Prop43
 90
        3
102
RTVSPost2010PropOp43
 70
     1
102
RTVSPost2010Prop44ColorIndex
 90
        5
102
RTVSPost2010Prop44ColorRGB
 90
      255
102
RTVSPost2010PropOp44
 70
     1
102
RTVSPost2010Prop45
280
     0
102
RTVSPost2010PropOp45
 70
     1
102
RTVSPost2010Prop46
 90
       50
102
RTVSPost2010PropOp46
 70
     1
102
RTVSPost2010Prop47
 90
       50
102
RTVSPost2010PropOp47
 70
     1
102
RTVSPost2010Prop48
 90
       50
102
RTVSPost2010PropOp48
 70
     1
102
RTVSPost2010Prop49
280
     0
102
RTVSPost2010PropOp49
 70
     1
102
RTVSPost2010Prop50
 90
       50
102
RTVSPost2010PropOp50
 70
     1
102
RTVSPost2010Prop51ColorIndex
 90
      256
102
RTVSPost2010Prop51ColorRGB
 90
-16777216
102
RTVSPost2010PropOp51
 70
     0
102
RTVSPost2010Prop52
140
1.0
102
RTVSPost2010PropOp52
 70
     0
102
RTVSPost2010Prop53
 90
        2
102
RTVSPost2010PropOp53
 70
     1
102
RTVSPost2010Prop54
  1
strokes_ogs.tif
102
RTVSPost2010PropOp54
 70
     1
102
RTVSPost2010Prop55
280
     0
102
RTVSPost2010PropOp55
 70
     1
102
RTVSPost2010Prop56
140
1.0
102
RTVSPost2010PropOp56
 70
     1
102
RTVSPost2010Prop57
140
1.0
102
RTVSPost2010PropOp57
 70
     1
  0
XRECORD
  5
313
102
{ACAD_REACTORS
330
312
102
}
330
312
100
AcDbXrecord
280
     1
102
RTVSPropertyOp0
 70
     1
102
RTVSPropertyOp1
 70
     1
102
RTVSPropertyOp2
 70
     1
102
RTVSPropertyOp3
 70
     1
102
RTVSPropertyOp4
 70
     1
102
RTVSPropertyOp5
 70
     1
102
RTVSPropertyOp6
 70
     1
102
RTVSPropertyOp7
 70
     1
102
RTVSPropertyOp8
 70
     1
102
RTVSPropertyOp9
 70
     1
102
RTVSPropertyOp10
 70
     1
102
RTVSPropertyOp11
 70
     1
102
RTVSPropertyOp12
 70
     1
102
RTVSPropertyOp13
 70
     1
102
RTVSPropertyOp14
 70
     1
102
RTVSPropertyOp15
 70
     1
102
RTVSPropertyOp16
 70
     1
102
RTVSPropertyOp17
 70
     1
102
RTVSPropertyOp18
 70
     1
102
RTVSPropertyOp19
 70
     1
102
RTVSPropertyOp20
 70
     1
102
RTVSPropertyOp21
 70
     1
102
RTVSPropertyOp22
 70
     1
102
RTVSPropertyOp23
 70
     1
102
RTVSPropertyOp24
 70
     1
102
RTVSPropertyOp25
 70
     1
102
RTVSPropertyOp26
 70
     1
102
RTVSPropertyOp27
 70
     1
102
RTVSPropertyOp28
 70
     1
102
RTVSPropertyOp29
 70
     1
102
RTVSPropertyOp30
 70
     1
102
RTVSPropertyOp31
 70
     1
102
RTVSPropertyOp32
 70
     1
102
RTVSPropertyOp33
 70
     1
102
RTVSPropertyOp34
 70
     1
102
RTVSPropertyOp35
 70
     1
102
RTVSPropertyOp36
 70
     1
102
RTVSPropertyOp37
 70
     1
102
RTVSPropertyOp38
 70
     1
102
RTVSPropertyOp39
 70
     1
102
RTVSPropertyOp40
 70
     1
102
RTVSPropertyOp41
 70
     1
102
RTVSPropertyOp42
 70
     1
102
RTVSPropertyOp43
 70
     1
102
RTVSPropertyOp44
 70
     1
102
RTVSPropertyOp45
 70
     1
102
RTVSPropertyOp46
 70
     1
102
RTVSPropertyOp47
 70
     1
102
RTVSPropertyOp48
 70
     1
102
RTVSPropertyOp49
 70
     1
102
RTVSPropertyOp50
 70
     1
102
RTVSPropertyOp51
 70
     0
102
RTVSPropertyOp52
 70
     0
102
RTVSPropertyOp53
 70
     1
102
RTVSPropertyOp54
 70
     1
102
RTVSPropertyOp55
 70
     1
102
RTVSPropertyOp56
 70
     1
102
RTVSPropertyOp57
 70
     1
102
RTVSPost2010Prop28
280
     0
102
RTVSPost2010PropOp28
 70
     1
102
RTVSPost2010Prop29
280
     1
102
RTVSPost2010PropOp29
 70
     1
102
RTVSPost2010Prop30
280
     1
102
RTVSPost2010PropOp30
 70
     1
102
RTVSPost2010Prop31
280
     0
102
RTVSPost2010PropOp31
 70
     1
102
RTVSPost2010Prop32
280
     0
102
RTVSPost2010PropOp32
 70
     1
102
RTVSPost2010Prop33
280
     0
102
RTVSPost2010PropOp33
 70
     1
102
RTVSPost2010Prop34
280
     0
102
RTVSPost2010PropOp34
 70
     1
102
RTVSPost2010Prop35
280
     0
102
RTVSPost2010PropOp35
 70
     1
102
RTVSPost2010Prop36
280
     0
102
RTVSPost2010PropOp36
 70
     1
102
RTVSPost2010Prop37
 90
       50
102
RTVSPost2010PropOp37
 70
     1
102
RTVSPost2010Prop38
140
0.0
102
RTVSPost2010PropOp38
 70
     1
102
RTVSPost2010Prop39
140
1.0
102
RTVSPost2010PropOp39
 70
     1
102
RTVSPost2010Prop40
 90
        0
102
RTVSPost2010PropOp40
 70
     1
102
RTVSPost2010Prop41ColorIndex
 90
       18
102
RTVSPost2010Prop41ColorRGB
 90
        0
102
RTVSPost2010PropOp41
 70
     1
102
RTVSPost2010Prop42
 90
       50
102
RTVSPost2010PropOp42
 70
     1
102
RTVSPost2010Prop43
 90
        3
102
RTVSPost2010PropOp43
 70
     1
102
RTVSPost2010Prop44ColorIndex
 90
        5
102
RTVSPost2010Prop44ColorRGB
 90
      255
102
RTVSPost2010PropOp44
 70
     1
102
RTVSPost2010Prop45
280
     0
102
RTVSPost2010PropOp45
 70
     1
102
RTVSPost2010Prop46
 90
       50
102
RTVSPost2010PropOp46
 70
     1
102
RTVSPost2010Prop47
 90
       50
102
RTVSPost2010PropOp47
 70
     1
102
RTVSPost2010Prop48
 90
       50
102
RTVSPost2010PropOp48
 70
     1
102
RTVSPost2010Prop49
280
     0
102
RTVSPost2010PropOp49
 70
     1
102
RTVSPost2010Prop50
 90
       50
102
RTVSPost2010PropOp50
 70
     1
102
RTVSPost2010Prop51ColorIndex
 90
      256
102
RTVSPost2010Prop51ColorRGB
 90
-16777216
102
RTVSPost2010PropOp51
 70
     0
102
RTVSPost2010Prop52
140
1.0
102
RTVSPost2010PropOp52
 70
     0
102
RTVSPost2010Prop53
 90
        2
102
RTVSPost2010PropOp53
 70
     1
102
RTVSPost2010Prop54
  1
strokes_ogs.tif
102
RTVSPost2010PropOp54
 70
     1
102
RTVSPost2010Prop55
280
     0
102
RTVSPost2010PropOp55
 70
     1
102
RTVSPost2010Prop56
140
1.0
102
RTVSPost2010PropOp56
 70
     1
102
RTVSPost2010Prop57
140
1.0
102
RTVSPost2010PropOp57
 70
     1
  0
XRECORD
  5
319
102
{ACAD_REACTORS
330
318
102
}
330
318
100
AcDbXrecord
280
     1
102
RTVSPropertyOp0
 70
     1
102
RTVSPropertyOp1
 70
     1
102
RTVSPropertyOp2
 70
     1
102
RTVSPropertyOp3
 70
     1
102
RTVSPropertyOp4
 70
     1
102
RTVSPropertyOp5
 70
     1
102
RTVSPropertyOp6
 70
     1
102
RTVSPropertyOp7
 70
     1
102
RTVSPropertyOp8
 70
     1
102
RTVSPropertyOp9
 70
     1
102
RTVSPropertyOp10
 70
     1
102
RTVSPropertyOp11
 70
     1
102
RTVSPropertyOp12
 70
     1
102
RTVSPropertyOp13
 70
     1
102
RTVSPropertyOp14
 70
     1
102
RTVSPropertyOp15
 70
     1
102
RTVSPropertyOp16
 70
     1
102
RTVSPropertyOp17
 70
     1
102
RTVSPropertyOp18
 70
     1
102
RTVSPropertyOp19
 70
     1
102
RTVSPropertyOp20
 70
     1
102
RTVSPropertyOp21
 70
     1
102
RTVSPropertyOp22
 70
     1
102
RTVSPropertyOp23
 70
     1
102
RTVSPropertyOp24
 70
     1
102
RTVSPropertyOp25
 70
     1
102
RTVSPropertyOp26
 70
     1
102
RTVSPropertyOp27
 70
     1
102
RTVSPropertyOp28
 70
     1
102
RTVSPropertyOp29
 70
     1
102
RTVSPropertyOp30
 70
     1
102
RTVSPropertyOp31
 70
     1
102
RTVSPropertyOp32
 70
     1
102
RTVSPropertyOp33
 70
     1
102
RTVSPropertyOp34
 70
     1
102
RTVSPropertyOp35
 70
     1
102
RTVSPropertyOp36
 70
     1
102
RTVSPropertyOp37
 70
     1
102
RTVSPropertyOp38
 70
     1
102
RTVSPropertyOp39
 70
     1
102
RTVSPropertyOp40
 70
     1
102
RTVSPropertyOp41
 70
     1
102
RTVSPropertyOp42
 70
     1
102
RTVSPropertyOp43
 70
     1
102
RTVSPropertyOp44
 70
     1
102
RTVSPropertyOp45
 70
     1
102
RTVSPropertyOp46
 70
     1
102
RTVSPropertyOp47
 70
     1
102
RTVSPropertyOp48
 70
     1
102
RTVSPropertyOp49
 70
     1
102
RTVSPropertyOp50
 70
     1
102
RTVSPropertyOp51
 70
     0
102
RTVSPropertyOp52
 70
     0
102
RTVSPropertyOp53
 70
     1
102
RTVSPropertyOp54
 70
     1
102
RTVSPropertyOp55
 70
     1
102
RTVSPropertyOp56
 70
     1
102
RTVSPropertyOp57
 70
     1
102
RTVSPost2010Prop28
280
     0
102
RTVSPost2010PropOp28
 70
     1
102
RTVSPost2010Prop29
280
     1
102
RTVSPost2010PropOp29
 70
     1
102
RTVSPost2010Prop30
280
     1
102
RTVSPost2010PropOp30
 70
     1
102
RTVSPost2010Prop31
280
     0
102
RTVSPost2010PropOp31
 70
     1
102
RTVSPost2010Prop32
280
     0
102
RTVSPost2010PropOp32
 70
     1
102
RTVSPost2010Prop33
280
     0
102
RTVSPost2010PropOp33
 70
     1
102
RTVSPost2010Prop34
280
     0
102
RTVSPost2010PropOp34
 70
     1
102
RTVSPost2010Prop35
280
     0
102
RTVSPost2010PropOp35
 70
     1
102
RTVSPost2010Prop36
280
     0
102
RTVSPost2010PropOp36
 70
     1
102
RTVSPost2010Prop37
 90
       50
102
RTVSPost2010PropOp37
 70
     1
102
RTVSPost2010Prop38
140
0.0
102
RTVSPost2010PropOp38
 70
     1
102
RTVSPost2010Prop39
140
1.0
102
RTVSPost2010PropOp39
 70
     1
102
RTVSPost2010Prop40
 90
        0
102
RTVSPost2010PropOp40
 70
     1
102
RTVSPost2010Prop41ColorIndex
 90
       18
102
RTVSPost2010Prop41ColorRGB
 90
        0
102
RTVSPost2010PropOp41
 70
     1
102
RTVSPost2010Prop42
 90
       50
102
RTVSPost2010PropOp42
 70
     1
102
RTVSPost2010Prop43
 90
        3
102
RTVSPost2010PropOp43
 70
     1
102
RTVSPost2010Prop44ColorIndex
 90
        5
102
RTVSPost2010Prop44ColorRGB
 90
      255
102
RTVSPost2010PropOp44
 70
     1
102
RTVSPost2010Prop45
280
     0
102
RTVSPost2010PropOp45
 70
     1
102
RTVSPost2010Prop46
 90
       50
102
RTVSPost2010PropOp46
 70
     1
102
RTVSPost2010Prop47
 90
       50
102
RTVSPost2010PropOp47
 70
     1
102
RTVSPost2010Prop48
 90
       50
102
RTVSPost2010PropOp48
 70
     1
102
RTVSPost2010Prop49
280
     0
102
RTVSPost2010PropOp49
 70
     1
102
RTVSPost2010Prop50
 90
       50
102
RTVSPost2010PropOp50
 70
     1
102
RTVSPost2010Prop51ColorIndex
 90
      256
102
RTVSPost2010Prop51ColorRGB
 90
-16777216
102
RTVSPost2010PropOp51
 70
     0
102
RTVSPost2010Prop52
140
1.0
102
RTVSPost2010PropOp52
 70
     0
102
RTVSPost2010Prop53
 90
        2
102
RTVSPost2010PropOp53
 70
     1
102
RTVSPost2010Prop54
  1
strokes_ogs.tif
102
RTVSPost2010PropOp54
 70
     1
102
RTVSPost2010Prop55
280
     0
102
RTVSPost2010PropOp55
 70
     1
102
RTVSPost2010Prop56
140
1.0
102
RTVSPost2010PropOp56
 70
     1
102
RTVSPost2010Prop57
140
1.0
102
RTVSPost2010PropOp57
 70
     1
  0
XRECORD
  5
32D
102
{ACAD_REACTORS
330
32C
102
}
330
32C
100
AcDbXrecord
280
     1
102
RTVSPropertyOp0
 70
     0
102
RTVSPropertyOp1
 70
     0
102
RTVSPropertyOp2
 70
     0
102
RTVSPropertyOp3
 70
     0
102
RTVSPropertyOp4
 70
     0
102
RTVSPropertyOp5
 70
     0
102
RTVSPropertyOp6
 70
     0
102
RTVSPropertyOp7
 70
     0
102
RTVSPropertyOp8
 70
     0
102
RTVSPropertyOp9
 70
     0
102
RTVSPropertyOp10
 70
     0
102
RTVSPropertyOp11
 70
     0
102
RTVSPropertyOp12
 70
     0
102
RTVSPropertyOp13
 70
     0
102
RTVSPropertyOp14
 70
     2
102
RTVSPropertyOp15
 70
     0
102
RTVSPropertyOp16
 70
     0
102
RTVSPropertyOp17
 70
     0
102
RTVSPropertyOp18
 70
     0
102
RTVSPropertyOp19
 70
     0
102
RTVSPropertyOp20
 70
     0
102
RTVSPropertyOp21
 70
     0
102
RTVSPropertyOp22
 70
     0
102
RTVSPropertyOp23
 70
     0
102
RTVSPropertyOp24
 70
     0
102
RTVSPropertyOp25
 70
     0
102
RTVSPropertyOp26
 70
     0
102
RTVSPropertyOp27
 70
     0
102
RTVSPropertyOp28
 70
     0
102
RTVSPropertyOp29
 70
     0
102
RTVSPropertyOp30
 70
     0
102
RTVSPropertyOp31
 70
     0
102
RTVSPropertyOp32
 70
     0
102
RTVSPropertyOp33
 70
     0
102
RTVSPropertyOp34
 70
     0
102
RTVSPropertyOp35
 70
     0
102
RTVSPropertyOp36
 70
     0
102
RTVSPropertyOp37
 70
     0
102
RTVSPropertyOp38
 70
     0
102
RTVSPropertyOp39
 70
     0
102
RTVSPropertyOp40
 70
     0
102
RTVSPropertyOp41
 70
     0
102
RTVSPropertyOp42
 70
     0
102
RTVSPropertyOp43
 70
     0
102
RTVSPropertyOp44
 70
     0
102
RTVSPropertyOp45
 70
     0
102
RTVSPropertyOp46
 70
     0
102
RTVSPropertyOp47
 70
     0
102
RTVSPropertyOp48
 70
     0
102
RTVSPropertyOp49
 70
     0
102
RTVSPropertyOp50
 70
     0
102
RTVSPropertyOp51
 70
     0
102
RTVSPropertyOp52
 70
     0
102
RTVSPropertyOp53
 70
     0
102
RTVSPropertyOp54
 70
     0
102
RTVSPropertyOp55
 70
     0
102
RTVSPropertyOp56
 70
     0
102
RTVSPropertyOp57
 70
     0
102
RTVSPost2010Prop28
280
     0
102
RTVSPost2010PropOp28
 70
     0
102
RTVSPost2010Prop29
280
     1
102
RTVSPost2010PropOp29
 70
     0
102
RTVSPost2010Prop30
280
     1
102
RTVSPost2010PropOp30
 70
     0
102
RTVSPost2010Prop31
280
     0
102
RTVSPost2010PropOp31
 70
     0
102
RTVSPost2010Prop32
280
     0
102
RTVSPost2010PropOp32
 70
     0
102
RTVSPost2010Prop33
280
     0
102
RTVSPost2010PropOp33
 70
     0
102
RTVSPost2010Prop34
280
     0
102
RTVSPost2010PropOp34
 70
     0
102
RTVSPost2010Prop35
280
     0
102
RTVSPost2010PropOp35
 70
     0
102
RTVSPost2010Prop36
280
     0
102
RTVSPost2010PropOp36
 70
     0
102
RTVSPost2010Prop37
 90
       50
102
RTVSPost2010PropOp37
 70
     0
102
RTVSPost2010Prop38
140
0.0
102
RTVSPost2010PropOp38
 70
     0
102
RTVSPost2010Prop39
140
1.0
102
RTVSPost2010PropOp39
 70
     0
102
RTVSPost2010Prop40
 90
        0
102
RTVSPost2010PropOp40
 70
     0
102
RTVSPost2010Prop41ColorIndex
 90
       18
102
RTVSPost2010Prop41ColorRGB
 90
        0
102
RTVSPost2010PropOp41
 70
     0
102
RTVSPost2010Prop42
 90
       50
102
RTVSPost2010PropOp42
 70
     0
102
RTVSPost2010Prop43
 90
        3
102
RTVSPost2010PropOp43
 70
     0
102
RTVSPost2010Prop44ColorIndex
 90
        5
102
RTVSPost2010Prop44ColorRGB
 90
      255
102
RTVSPost2010PropOp44
 70
     0
102
RTVSPost2010Prop45
280
     0
102
RTVSPost2010PropOp45
 70
     0
102
RTVSPost2010Prop46
 90
       50
102
RTVSPost2010PropOp46
 70
     0
102
RTVSPost2010Prop47
 90
       50
102
RTVSPost2010PropOp47
 70
     0
102
RTVSPost2010Prop48
 90
       50
102
RTVSPost2010PropOp48
 70
     0
102
RTVSPost2010Prop49
280
     0
102
RTVSPost2010PropOp49
 70
     0
102
RTVSPost2010Prop50
 90
       50
102
RTVSPost2010PropOp50
 70
     0
102
RTVSPost2010Prop51ColorIndex
 90
      256
102
RTVSPost2010Prop51ColorRGB
 90
-16777216
102
RTVSPost2010PropOp51
 70
     0
102
RTVSPost2010Prop52
140
1.0
102
RTVSPost2010PropOp52
 70
     0
102
RTVSPost2010Prop53
 90
        2
102
RTVSPost2010PropOp53
 70
     0
102
RTVSPost2010Prop54
  1
strokes_ogs.tif
102
RTVSPost2010PropOp54
 70
     0
102
RTVSPost2010Prop55
280
     0
102
RTVSPost2010PropOp55
 70
     0
102
RTVSPost2010Prop56
140
1.0
102
RTVSPost2010PropOp56
 70
     0
102
RTVSPost2010Prop57
140
1.0
102
RTVSPost2010PropOp57
 70
     0
  0
XRECORD
  5
327
102
{ACAD_REACTORS
330
326
102
}
330
326
100
AcDbXrecord
280
     1
102
RTVSPropertyOp0
 70
     1
102
RTVSPropertyOp1
 70
     1
102
RTVSPropertyOp2
 70
     1
102
RTVSPropertyOp3
 70
     1
102
RTVSPropertyOp4
 70
     1
102
RTVSPropertyOp5
 70
     1
102
RTVSPropertyOp6
 70
     1
102
RTVSPropertyOp7
 70
     1
102
RTVSPropertyOp8
 70
     1
102
RTVSPropertyOp9
 70
     1
102
RTVSPropertyOp10
 70
     1
102
RTVSPropertyOp11
 70
     1
102
RTVSPropertyOp12
 70
     1
102
RTVSPropertyOp13
 70
     1
102
RTVSPropertyOp14
 70
     1
102
RTVSPropertyOp15
 70
     1
102
RTVSPropertyOp16
 70
     1
102
RTVSPropertyOp17
 70
     1
102
RTVSPropertyOp18
 70
     1
102
RTVSPropertyOp19
 70
     1
102
RTVSPropertyOp20
 70
     1
102
RTVSPropertyOp21
 70
     1
102
RTVSPropertyOp22
 70
     1
102
RTVSPropertyOp23
 70
     1
102
RTVSPropertyOp24
 70
     1
102
RTVSPropertyOp25
 70
     1
102
RTVSPropertyOp26
 70
     1
102
RTVSPropertyOp27
 70
     1
102
RTVSPropertyOp28
 70
     1
102
RTVSPropertyOp29
 70
     1
102
RTVSPropertyOp30
 70
     1
102
RTVSPropertyOp31
 70
     1
102
RTVSPropertyOp32
 70
     1
102
RTVSPropertyOp33
 70
     1
102
RTVSPropertyOp34
 70
     1
102
RTVSPropertyOp35
 70
     1
102
RTVSPropertyOp36
 70
     1
102
RTVSPropertyOp37
 70
     1
102
RTVSPropertyOp38
 70
     1
102
RTVSPropertyOp39
 70
     1
102
RTVSPropertyOp40
 70
     1
102
RTVSPropertyOp41
 70
     1
102
RTVSPropertyOp42
 70
     1
102
RTVSPropertyOp43
 70
     1
102
RTVSPropertyOp44
 70
     1
102
RTVSPropertyOp45
 70
     1
102
RTVSPropertyOp46
 70
     1
102
RTVSPropertyOp47
 70
     1
102
RTVSPropertyOp48
 70
     1
102
RTVSPropertyOp49
 70
     1
102
RTVSPropertyOp50
 70
     1
102
RTVSPropertyOp51
 70
     0
102
RTVSPropertyOp52
 70
     0
102
RTVSPropertyOp53
 70
     1
102
RTVSPropertyOp54
 70
     1
102
RTVSPropertyOp55
 70
     1
102
RTVSPropertyOp56
 70
     1
102
RTVSPropertyOp57
 70
     1
102
RTVSPost2010Prop28
280
     0
102
RTVSPost2010PropOp28
 70
     1
102
RTVSPost2010Prop29
280
     1
102
RTVSPost2010PropOp29
 70
     1
102
RTVSPost2010Prop30
280
     1
102
RTVSPost2010PropOp30
 70
     1
102
RTVSPost2010Prop31
280
     0
102
RTVSPost2010PropOp31
 70
     1
102
RTVSPost2010Prop32
280
     0
102
RTVSPost2010PropOp32
 70
     1
102
RTVSPost2010Prop33
280
     0
102
RTVSPost2010PropOp33
 70
     1
102
RTVSPost2010Prop34
280
     0
102
RTVSPost2010PropOp34
 70
     1
102
RTVSPost2010Prop35
280
     0
102
RTVSPost2010PropOp35
 70
     1
102
RTVSPost2010Prop36
280
     0
102
RTVSPost2010PropOp36
 70
     1
102
RTVSPost2010Prop37
 90
       50
102
RTVSPost2010PropOp37
 70
     1
102
RTVSPost2010Prop38
140
0.0
102
RTVSPost2010PropOp38
 70
     1
102
RTVSPost2010Prop39
140
1.0
102
RTVSPost2010PropOp39
 70
     1
102
RTVSPost2010Prop40
 90
        0
102
RTVSPost2010PropOp40
 70
     1
102
RTVSPost2010Prop41ColorIndex
 90
       18
102
RTVSPost2010Prop41ColorRGB
 90
        0
102
RTVSPost2010PropOp41
 70
     1
102
RTVSPost2010Prop42
 90
       50
102
RTVSPost2010PropOp42
 70
     1
102
RTVSPost2010Prop43
 90
        3
102
RTVSPost2010PropOp43
 70
     1
102
RTVSPost2010Prop44ColorIndex
 90
        5
102
RTVSPost2010Prop44ColorRGB
 90
      255
102
RTVSPost2010PropOp44
 70
     1
102
RTVSPost2010Prop45
280
     0
102
RTVSPost2010PropOp45
 70
     1
102
RTVSPost2010Prop46
 90
       50
102
RTVSPost2010PropOp46
 70
     1
102
RTVSPost2010Prop47
 90
       50
102
RTVSPost2010PropOp47
 70
     1
102
RTVSPost2010Prop48
 90
       50
102
RTVSPost2010PropOp48
 70
     1
102
RTVSPost2010Prop49
280
     0
102
RTVSPost2010PropOp49
 70
     1
102
RTVSPost2010Prop50
 90
       50
102
RTVSPost2010PropOp50
 70
     1
102
RTVSPost2010Prop51ColorIndex
 90
      256
102
RTVSPost2010Prop51ColorRGB
 90
-16777216
102
RTVSPost2010PropOp51
 70
     0
102
RTVSPost2010Prop52
140
1.0
102
RTVSPost2010PropOp52
 70
     0
102
RTVSPost2010Prop53
 90
        2
102
RTVSPost2010PropOp53
 70
     1
102
RTVSPost2010Prop54
  1
strokes_ogs.tif
102
RTVSPost2010PropOp54
 70
     1
102
RTVSPost2010Prop55
280
     0
102
RTVSPost2010PropOp55
 70
     1
102
RTVSPost2010Prop56
140
1.0
102
RTVSPost2010PropOp56
 70
     1
102
RTVSPost2010Prop57
140
1.0
102
RTVSPost2010PropOp57
 70
     1
  0
XRECORD
  5
32F
102
{ACAD_REACTORS
330
32E
102
}
330
32E
100
AcDbXrecord
280
     1
102
RTVSPropertyOp0
 70
     0
102
RTVSPropertyOp1
 70
     0
102
RTVSPropertyOp2
 70
     0
102
RTVSPropertyOp3
 70
     0
102
RTVSPropertyOp4
 70
     0
102
RTVSPropertyOp5
 70
     0
102
RTVSPropertyOp6
 70
     0
102
RTVSPropertyOp7
 70
     0
102
RTVSPropertyOp8
 70
     0
102
RTVSPropertyOp9
 70
     0
102
RTVSPropertyOp10
 70
     0
102
RTVSPropertyOp11
 70
     0
102
RTVSPropertyOp12
 70
     0
102
RTVSPropertyOp13
 70
     0
102
RTVSPropertyOp14
 70
     2
102
RTVSPropertyOp15
 70
     0
102
RTVSPropertyOp16
 70
     0
102
RTVSPropertyOp17
 70
     0
102
RTVSPropertyOp18
 70
     0
102
RTVSPropertyOp19
 70
     0
102
RTVSPropertyOp20
 70
     0
102
RTVSPropertyOp21
 70
     0
102
RTVSPropertyOp22
 70
     0
102
RTVSPropertyOp23
 70
     0
102
RTVSPropertyOp24
 70
     0
102
RTVSPropertyOp25
 70
     0
102
RTVSPropertyOp26
 70
     0
102
RTVSPropertyOp27
 70
     0
102
RTVSPropertyOp28
 70
     0
102
RTVSPropertyOp29
 70
     0
102
RTVSPropertyOp30
 70
     0
102
RTVSPropertyOp31
 70
     0
102
RTVSPropertyOp32
 70
     0
102
RTVSPropertyOp33
 70
     0
102
RTVSPropertyOp34
 70
     0
102
RTVSPropertyOp35
 70
     0
102
RTVSPropertyOp36
 70
     0
102
RTVSPropertyOp37
 70
     0
102
RTVSPropertyOp38
 70
     0
102
RTVSPropertyOp39
 70
     0
102
RTVSPropertyOp40
 70
     0
102
RTVSPropertyOp41
 70
     0
102
RTVSPropertyOp42
 70
     0
102
RTVSPropertyOp43
 70
     0
102
RTVSPropertyOp44
 70
     0
102
RTVSPropertyOp45
 70
     0
102
RTVSPropertyOp46
 70
     0
102
RTVSPropertyOp47
 70
     0
102
RTVSPropertyOp48
 70
     0
102
RTVSPropertyOp49
 70
     0
102
RTVSPropertyOp50
 70
     0
102
RTVSPropertyOp51
 70
     0
102
RTVSPropertyOp52
 70
     0
102
RTVSPropertyOp53
 70
     0
102
RTVSPropertyOp54
 70
     0
102
RTVSPropertyOp55
 70
     0
102
RTVSPropertyOp56
 70
     0
102
RTVSPropertyOp57
 70
     0
102
RTVSPost2010Prop28
280
     0
102
RTVSPost2010PropOp28
 70
     0
102
RTVSPost2010Prop29
280
     1
102
RTVSPost2010PropOp29
 70
     0
102
RTVSPost2010Prop30
280
     1
102
RTVSPost2010PropOp30
 70
     0
102
RTVSPost2010Prop31
280
     0
102
RTVSPost2010PropOp31
 70
     0
102
RTVSPost2010Prop32
280
     0
102
RTVSPost2010PropOp32
 70
     0
102
RTVSPost2010Prop33
280
     0
102
RTVSPost2010PropOp33
 70
     0
102
RTVSPost2010Prop34
280
     0
102
RTVSPost2010PropOp34
 70
     0
102
RTVSPost2010Prop35
280
     0
102
RTVSPost2010PropOp35
 70
     0
102
RTVSPost2010Prop36
280
     0
102
RTVSPost2010PropOp36
 70
     0
102
RTVSPost2010Prop37
 90
       50
102
RTVSPost2010PropOp37
 70
     0
102
RTVSPost2010Prop38
140
0.0
102
RTVSPost2010PropOp38
 70
     0
102
RTVSPost2010Prop39
140
1.0
102
RTVSPost2010PropOp39
 70
     0
102
RTVSPost2010Prop40
 90
        0
102
RTVSPost2010PropOp40
 70
     0
102
RTVSPost2010Prop41ColorIndex
 90
       18
102
RTVSPost2010Prop41ColorRGB
 90
        0
102
RTVSPost2010PropOp41
 70
     0
102
RTVSPost2010Prop42
 90
       50
102
RTVSPost2010PropOp42
 70
     0
102
RTVSPost2010Prop43
 90
        3
102
RTVSPost2010PropOp43
 70
     0
102
RTVSPost2010Prop44ColorIndex
 90
        5
102
RTVSPost2010Prop44ColorRGB
 90
      255
102
RTVSPost2010PropOp44
 70
     0
102
RTVSPost2010Prop45
280
     0
102
RTVSPost2010PropOp45
 70
     0
102
RTVSPost2010Prop46
 90
       50
102
RTVSPost2010PropOp46
 70
     0
102
RTVSPost2010Prop47
 90
       50
102
RTVSPost2010PropOp47
 70
     0
102
RTVSPost2010Prop48
 90
       50
102
RTVSPost2010PropOp48
 70
     0
102
RTVSPost2010Prop49
280
     0
102
RTVSPost2010PropOp49
 70
     0
102
RTVSPost2010Prop50
 90
       50
102
RTVSPost2010PropOp50
 70
     0
102
RTVSPost2010Prop51ColorIndex
 90
      256
102
RTVSPost2010Prop51ColorRGB
 90
-16777216
102
RTVSPost2010PropOp51
 70
     0
102
RTVSPost2010Prop52
140
1.0
102
RTVSPost2010PropOp52
 70
     0
102
RTVSPost2010Prop53
 90
        2
102
RTVSPost2010PropOp53
 70
     0
102
RTVSPost2010Prop54
  1
strokes_ogs.tif
102
RTVSPost2010PropOp54
 70
     0
102
RTVSPost2010Prop55
280
     0
102
RTVSPost2010PropOp55
 70
     0
102
RTVSPost2010Prop56
140
1.0
102
RTVSPost2010PropOp56
 70
     0
102
RTVSPost2010Prop57
140
1.0
102
RTVSPost2010PropOp57
 70
     0
  0
XRECORD
  5
31D
102
{ACAD_REACTORS
330
31C
102
}
330
31C
100
AcDbXrecord
280
     1
102
RTVSPropertyOp0
 70
     1
102
RTVSPropertyOp1
 70
     1
102
RTVSPropertyOp2
 70
     1
102
RTVSPropertyOp3
 70
     1
102
RTVSPropertyOp4
 70
     1
102
RTVSPropertyOp5
 70
     1
102
RTVSPropertyOp6
 70
     1
102
RTVSPropertyOp7
 70
     1
102
RTVSPropertyOp8
 70
     1
102
RTVSPropertyOp9
 70
     1
102
RTVSPropertyOp10
 70
     1
102
RTVSPropertyOp11
 70
     1
102
RTVSPropertyOp12
 70
     1
102
RTVSPropertyOp13
 70
     1
102
RTVSPropertyOp14
 70
     1
102
RTVSPropertyOp15
 70
     1
102
RTVSPropertyOp16
 70
     1
102
RTVSPropertyOp17
 70
     1
102
RTVSPropertyOp18
 70
     1
102
RTVSPropertyOp19
 70
     1
102
RTVSPropertyOp20
 70
     1
102
RTVSPropertyOp21
 70
     1
102
RTVSPropertyOp22
 70
     1
102
RTVSPropertyOp23
 70
     1
102
RTVSPropertyOp24
 70
     1
102
RTVSPropertyOp25
 70
     1
102
RTVSPropertyOp26
 70
     1
102
RTVSPropertyOp27
 70
     1
102
RTVSPropertyOp28
 70
     1
102
RTVSPropertyOp29
 70
     1
102
RTVSPropertyOp30
 70
     1
102
RTVSPropertyOp31
 70
     1
102
RTVSPropertyOp32
 70
     1
102
RTVSPropertyOp33
 70
     1
102
RTVSPropertyOp34
 70
     1
102
RTVSPropertyOp35
 70
     1
102
RTVSPropertyOp36
 70
     1
102
RTVSPropertyOp37
 70
     1
102
RTVSPropertyOp38
 70
     1
102
RTVSPropertyOp39
 70
     1
102
RTVSPropertyOp40
 70
     1
102
RTVSPropertyOp41
 70
     1
102
RTVSPropertyOp42
 70
     1
102
RTVSPropertyOp43
 70
     1
102
RTVSPropertyOp44
 70
     1
102
RTVSPropertyOp45
 70
     1
102
RTVSPropertyOp46
 70
     1
102
RTVSPropertyOp47
 70
     1
102
RTVSPropertyOp48
 70
     1
102
RTVSPropertyOp49
 70
     1
102
RTVSPropertyOp50
 70
     1
102
RTVSPropertyOp51
 70
     0
102
RTVSPropertyOp52
 70
     0
102
RTVSPropertyOp53
 70
     1
102
RTVSPropertyOp54
 70
     1
102
RTVSPropertyOp55
 70
     1
102
RTVSPropertyOp56
 70
     1
102
RTVSPropertyOp57
 70
     1
102
RTVSPost2010Prop28
280
     0
102
RTVSPost2010PropOp28
 70
     1
102
RTVSPost2010Prop29
280
     1
102
RTVSPost2010PropOp29
 70
     1
102
RTVSPost2010Prop30
280
     1
102
RTVSPost2010PropOp30
 70
     1
102
RTVSPost2010Prop31
280
     0
102
RTVSPost2010PropOp31
 70
     1
102
RTVSPost2010Prop32
280
     0
102
RTVSPost2010PropOp32
 70
     1
102
RTVSPost2010Prop33
280
     0
102
RTVSPost2010PropOp33
 70
     1
102
RTVSPost2010Prop34
280
     0
102
RTVSPost2010PropOp34
 70
     1
102
RTVSPost2010Prop35
280
     0
102
RTVSPost2010PropOp35
 70
     1
102
RTVSPost2010Prop36
280
     0
102
RTVSPost2010PropOp36
 70
     1
102
RTVSPost2010Prop37
 90
       50
102
RTVSPost2010PropOp37
 70
     1
102
RTVSPost2010Prop38
140
0.0
102
RTVSPost2010PropOp38
 70
     1
102
RTVSPost2010Prop39
140
1.0
102
RTVSPost2010PropOp39
 70
     1
102
RTVSPost2010Prop40
 90
        0
102
RTVSPost2010PropOp40
 70
     1
102
RTVSPost2010Prop41ColorIndex
 90
       18
102
RTVSPost2010Prop41ColorRGB
 90
        0
102
RTVSPost2010PropOp41
 70
     1
102
RTVSPost2010Prop42
 90
       50
102
RTVSPost2010PropOp42
 70
     1
102
RTVSPost2010Prop43
 90
        3
102
RTVSPost2010PropOp43
 70
     1
102
RTVSPost2010Prop44ColorIndex
 90
        5
102
RTVSPost2010Prop44ColorRGB
 90
      255
102
RTVSPost2010PropOp44
 70
     1
102
RTVSPost2010Prop45
280
     0
102
RTVSPost2010PropOp45
 70
     1
102
RTVSPost2010Prop46
 90
       50
102
RTVSPost2010PropOp46
 70
     1
102
RTVSPost2010Prop47
 90
       50
102
RTVSPost2010PropOp47
 70
     1
102
RTVSPost2010Prop48
 90
       50
102
RTVSPost2010PropOp48
 70
     1
102
RTVSPost2010Prop49
280
     0
102
RTVSPost2010PropOp49
 70
     1
102
RTVSPost2010Prop50
 90
       50
102
RTVSPost2010PropOp50
 70
     1
102
RTVSPost2010Prop51ColorIndex
 90
      256
102
RTVSPost2010Prop51ColorRGB
 90
-16777216
102
RTVSPost2010PropOp51
 70
     0
102
RTVSPost2010Prop52
140
1.0
102
RTVSPost2010PropOp52
 70
     0
102
RTVSPost2010Prop53
 90
        2
102
RTVSPost2010PropOp53
 70
     1
102
RTVSPost2010Prop54
  1
strokes_ogs.tif
102
RTVSPost2010PropOp54
 70
     1
102
RTVSPost2010Prop55
280
     0
102
RTVSPost2010PropOp55
 70
     1
102
RTVSPost2010Prop56
140
1.0
102
RTVSPost2010PropOp56
 70
     1
102
RTVSPost2010Prop57
140
1.0
102
RTVSPost2010PropOp57
 70
     1
  0
XRECORD
  5
33B
102
{ACAD_REACTORS
330
33A
102
}
330
33A
100
AcDbXrecord
280
     1
102
RTVSPropertyOp0
 70
     1
102
RTVSPropertyOp1
 70
     1
102
RTVSPropertyOp2
 70
     1
102
RTVSPropertyOp3
 70
     1
102
RTVSPropertyOp4
 70
     1
102
RTVSPropertyOp5
 70
     1
102
RTVSPropertyOp6
 70
     1
102
RTVSPropertyOp7
 70
     1
102
RTVSPropertyOp8
 70
     1
102
RTVSPropertyOp9
 70
     1
102
RTVSPropertyOp10
 70
     1
102
RTVSPropertyOp11
 70
     1
102
RTVSPropertyOp12
 70
     1
102
RTVSPropertyOp13
 70
     1
102
RTVSPropertyOp14
 70
     1
102
RTVSPropertyOp15
 70
     1
102
RTVSPropertyOp16
 70
     1
102
RTVSPropertyOp17
 70
     1
102
RTVSPropertyOp18
 70
     1
102
RTVSPropertyOp19
 70
     1
102
RTVSPropertyOp20
 70
     1
102
RTVSPropertyOp21
 70
     1
102
RTVSPropertyOp22
 70
     1
102
RTVSPropertyOp23
 70
     1
102
RTVSPropertyOp24
 70
     1
102
RTVSPropertyOp25
 70
     1
102
RTVSPropertyOp26
 70
     1
102
RTVSPropertyOp27
 70
     1
102
RTVSPropertyOp28
 70
     1
102
RTVSPropertyOp29
 70
     1
102
RTVSPropertyOp30
 70
     1
102
RTVSPropertyOp31
 70
     1
102
RTVSPropertyOp32
 70
     1
102
RTVSPropertyOp33
 70
     1
102
RTVSPropertyOp34
 70
     1
102
RTVSPropertyOp35
 70
     1
102
RTVSPropertyOp36
 70
     1
102
RTVSPropertyOp37
 70
     1
102
RTVSPropertyOp38
 70
     1
102
RTVSPropertyOp39
 70
     1
102
RTVSPropertyOp40
 70
     1
102
RTVSPropertyOp41
 70
     1
102
RTVSPropertyOp42
 70
     1
102
RTVSPropertyOp43
 70
     1
102
RTVSPropertyOp44
 70
     1
102
RTVSPropertyOp45
 70
     1
102
RTVSPropertyOp46
 70
     1
102
RTVSPropertyOp47
 70
     1
102
RTVSPropertyOp48
 70
     1
102
RTVSPropertyOp49
 70
     1
102
RTVSPropertyOp50
 70
     1
102
RTVSPropertyOp51
 70
     0
102
RTVSPropertyOp52
 70
     0
102
RTVSPropertyOp53
 70
     1
102
RTVSPropertyOp54
 70
     1
102
RTVSPropertyOp55
 70
     1
102
RTVSPropertyOp56
 70
     1
102
RTVSPropertyOp57
 70
     1
102
RTVSPost2010Prop28
280
     0
102
RTVSPost2010PropOp28
 70
     1
102
RTVSPost2010Prop29
280
     1
102
RTVSPost2010PropOp29
 70
     1
102
RTVSPost2010Prop30
280
     1
102
RTVSPost2010PropOp30
 70
     1
102
RTVSPost2010Prop31
280
     0
102
RTVSPost2010PropOp31
 70
     1
102
RTVSPost2010Prop32
280
     0
102
RTVSPost2010PropOp32
 70
     1
102
RTVSPost2010Prop33
280
     0
102
RTVSPost2010PropOp33
 70
     1
102
RTVSPost2010Prop34
280
     0
102
RTVSPost2010PropOp34
 70
     1
102
RTVSPost2010Prop35
280
     0
102
RTVSPost2010PropOp35
 70
     1
102
RTVSPost2010Prop36
280
     0
102
RTVSPost2010PropOp36
 70
     1
102
RTVSPost2010Prop37
 90
       50
102
RTVSPost2010PropOp37
 70
     1
102
RTVSPost2010Prop38
140
0.0
102
RTVSPost2010PropOp38
 70
     1
102
RTVSPost2010Prop39
140
1.0
102
RTVSPost2010PropOp39
 70
     1
102
RTVSPost2010Prop40
 90
        0
102
RTVSPost2010PropOp40
 70
     1
102
RTVSPost2010Prop41ColorIndex
 90
       18
102
RTVSPost2010Prop41ColorRGB
 90
        0
102
RTVSPost2010PropOp41
 70
     1
102
RTVSPost2010Prop42
 90
       50
102
RTVSPost2010PropOp42
 70
     1
102
RTVSPost2010Prop43
 90
        3
102
RTVSPost2010PropOp43
 70
     1
102
RTVSPost2010Prop44ColorIndex
 90
        5
102
RTVSPost2010Prop44ColorRGB
 90
      255
102
RTVSPost2010PropOp44
 70
     1
102
RTVSPost2010Prop45
280
     0
102
RTVSPost2010PropOp45
 70
     1
102
RTVSPost2010Prop46
 90
       50
102
RTVSPost2010PropOp46
 70
     1
102
RTVSPost2010Prop47
 90
       50
102
RTVSPost2010PropOp47
 70
     1
102
RTVSPost2010Prop48
 90
       50
102
RTVSPost2010PropOp48
 70
     1
102
RTVSPost2010Prop49
280
     0
102
RTVSPost2010PropOp49
 70
     1
102
RTVSPost2010Prop50
 90
       50
102
RTVSPost2010PropOp50
 70
     1
102
RTVSPost2010Prop51ColorIndex
 90
      256
102
RTVSPost2010Prop51ColorRGB
 90
-16777216
102
RTVSPost2010PropOp51
 70
     0
102
RTVSPost2010Prop52
140
1.0
102
RTVSPost2010PropOp52
 70
     0
102
RTVSPost2010Prop53
 90
        2
102
RTVSPost2010PropOp53
 70
     1
102
RTVSPost2010Prop54
  1
strokes_ogs.tif
102
RTVSPost2010PropOp54
 70
     1
102
RTVSPost2010Prop55
280
     0
102
RTVSPost2010PropOp55
 70
     1
102
RTVSPost2010Prop56
140
1.0
102
RTVSPost2010PropOp56
 70
     1
102
RTVSPost2010Prop57
140
1.0
102
RTVSPost2010PropOp57
 70
     1
  0
XRECORD
  5
339
102
{ACAD_REACTORS
330
338
102
}
330
338
100
AcDbXrecord
280
     1
102
RTVSPropertyOp0
 70
     1
102
RTVSPropertyOp1
 70
     1
102
RTVSPropertyOp2
 70
     1
102
RTVSPropertyOp3
 70
     1
102
RTVSPropertyOp4
 70
     1
102
RTVSPropertyOp5
 70
     1
102
RTVSPropertyOp6
 70
     1
102
RTVSPropertyOp7
 70
     1
102
RTVSPropertyOp8
 70
     1
102
RTVSPropertyOp9
 70
     1
102
RTVSPropertyOp10
 70
     1
102
RTVSPropertyOp11
 70
     1
102
RTVSPropertyOp12
 70
     1
102
RTVSPropertyOp13
 70
     1
102
RTVSPropertyOp14
 70
     1
102
RTVSPropertyOp15
 70
     1
102
RTVSPropertyOp16
 70
     1
102
RTVSPropertyOp17
 70
     1
102
RTVSPropertyOp18
 70
     1
102
RTVSPropertyOp19
 70
     1
102
RTVSPropertyOp20
 70
     1
102
RTVSPropertyOp21
 70
     1
102
RTVSPropertyOp22
 70
     1
102
RTVSPropertyOp23
 70
     1
102
RTVSPropertyOp24
 70
     1
102
RTVSPropertyOp25
 70
     1
102
RTVSPropertyOp26
 70
     1
102
RTVSPropertyOp27
 70
     1
102
RTVSPropertyOp28
 70
     1
102
RTVSPropertyOp29
 70
     1
102
RTVSPropertyOp30
 70
     1
102
RTVSPropertyOp31
 70
     1
102
RTVSPropertyOp32
 70
     1
102
RTVSPropertyOp33
 70
     1
102
RTVSPropertyOp34
 70
     1
102
RTVSPropertyOp35
 70
     1
102
RTVSPropertyOp36
 70
     1
102
RTVSPropertyOp37
 70
     1
102
RTVSPropertyOp38
 70
     1
102
RTVSPropertyOp39
 70
     1
102
RTVSPropertyOp40
 70
     1
102
RTVSPropertyOp41
 70
     1
102
RTVSPropertyOp42
 70
     1
102
RTVSPropertyOp43
 70
     1
102
RTVSPropertyOp44
 70
     1
102
RTVSPropertyOp45
 70
     1
102
RTVSPropertyOp46
 70
     1
102
RTVSPropertyOp47
 70
     1
102
RTVSPropertyOp48
 70
     1
102
RTVSPropertyOp49
 70
     1
102
RTVSPropertyOp50
 70
     1
102
RTVSPropertyOp51
 70
     0
102
RTVSPropertyOp52
 70
     0
102
RTVSPropertyOp53
 70
     1
102
RTVSPropertyOp54
 70
     1
102
RTVSPropertyOp55
 70
     1
102
RTVSPropertyOp56
 70
     1
102
RTVSPropertyOp57
 70
     1
102
RTVSPost2010Prop28
280
     0
102
RTVSPost2010PropOp28
 70
     1
102
RTVSPost2010Prop29
280
     1
102
RTVSPost2010PropOp29
 70
     1
102
RTVSPost2010Prop30
280
     1
102
RTVSPost2010PropOp30
 70
     1
102
RTVSPost2010Prop31
280
     0
102
RTVSPost2010PropOp31
 70
     1
102
RTVSPost2010Prop32
280
     0
102
RTVSPost2010PropOp32
 70
     1
102
RTVSPost2010Prop33
280
     0
102
RTVSPost2010PropOp33
 70
     1
102
RTVSPost2010Prop34
280
     0
102
RTVSPost2010PropOp34
 70
     1
102
RTVSPost2010Prop35
280
     0
102
RTVSPost2010PropOp35
 70
     1
102
RTVSPost2010Prop36
280
     0
102
RTVSPost2010PropOp36
 70
     1
102
RTVSPost2010Prop37
 90
       50
102
RTVSPost2010PropOp37
 70
     1
102
RTVSPost2010Prop38
140
0.0
102
RTVSPost2010PropOp38
 70
     1
102
RTVSPost2010Prop39
140
1.0
102
RTVSPost2010PropOp39
 70
     1
102
RTVSPost2010Prop40
 90
        0
102
RTVSPost2010PropOp40
 70
     1
102
RTVSPost2010Prop41ColorIndex
 90
       18
102
RTVSPost2010Prop41ColorRGB
 90
        0
102
RTVSPost2010PropOp41
 70
     1
102
RTVSPost2010Prop42
 90
       50
102
RTVSPost2010PropOp42
 70
     1
102
RTVSPost2010Prop43
 90
        3
102
RTVSPost2010PropOp43
 70
     1
102
RTVSPost2010Prop44ColorIndex
 90
        5
102
RTVSPost2010Prop44ColorRGB
 90
      255
102
RTVSPost2010PropOp44
 70
     1
102
RTVSPost2010Prop45
280
     0
102
RTVSPost2010PropOp45
 70
     1
102
RTVSPost2010Prop46
 90
       50
102
RTVSPost2010PropOp46
 70
     1
102
RTVSPost2010Prop47
 90
       50
102
RTVSPost2010PropOp47
 70
     1
102
RTVSPost2010Prop48
 90
       50
102
RTVSPost2010PropOp48
 70
     1
102
RTVSPost2010Prop49
280
     0
102
RTVSPost2010PropOp49
 70
     1
102
RTVSPost2010Prop50
 90
       50
102
RTVSPost2010PropOp50
 70
     1
102
RTVSPost2010Prop51ColorIndex
 90
      256
102
RTVSPost2010Prop51ColorRGB
 90
-16777216
102
RTVSPost2010PropOp51
 70
     0
102
RTVSPost2010Prop52
140
1.0
102
RTVSPost2010PropOp52
 70
     0
102
RTVSPost2010Prop53
 90
        2
102
RTVSPost2010PropOp53
 70
     1
102
RTVSPost2010Prop54
  1
strokes_ogs.tif
102
RTVSPost2010PropOp54
 70
     1
102
RTVSPost2010Prop55
280
     0
102
RTVSPost2010PropOp55
 70
     1
102
RTVSPost2010Prop56
140
1.0
102
RTVSPost2010PropOp56
 70
     1
102
RTVSPost2010Prop57
140
1.0
102
RTVSPost2010PropOp57
 70
     1
  0
XRECORD
  5
333
102
{ACAD_REACTORS
330
332
102
}
330
332
100
AcDbXrecord
280
     1
102
RTVSPropertyOp0
 70
     1
102
RTVSPropertyOp1
 70
     1
102
RTVSPropertyOp2
 70
     1
102
RTVSPropertyOp3
 70
     1
102
RTVSPropertyOp4
 70
     1
102
RTVSPropertyOp5
 70
     1
102
RTVSPropertyOp6
 70
     1
102
RTVSPropertyOp7
 70
     1
102
RTVSPropertyOp8
 70
     1
102
RTVSPropertyOp9
 70
     1
102
RTVSPropertyOp10
 70
     1
102
RTVSPropertyOp11
 70
     1
102
RTVSPropertyOp12
 70
     1
102
RTVSPropertyOp13
 70
     1
102
RTVSPropertyOp14
 70
     1
102
RTVSPropertyOp15
 70
     1
102
RTVSPropertyOp16
 70
     1
102
RTVSPropertyOp17
 70
     1
102
RTVSPropertyOp18
 70
     1
102
RTVSPropertyOp19
 70
     1
102
RTVSPropertyOp20
 70
     1
102
RTVSPropertyOp21
 70
     1
102
RTVSPropertyOp22
 70
     1
102
RTVSPropertyOp23
 70
     1
102
RTVSPropertyOp24
 70
     1
102
RTVSPropertyOp25
 70
     1
102
RTVSPropertyOp26
 70
     1
102
RTVSPropertyOp27
 70
     1
102
RTVSPropertyOp28
 70
     1
102
RTVSPropertyOp29
 70
     1
102
RTVSPropertyOp30
 70
     1
102
RTVSPropertyOp31
 70
     1
102
RTVSPropertyOp32
 70
     1
102
RTVSPropertyOp33
 70
     1
102
RTVSPropertyOp34
 70
     1
102
RTVSPropertyOp35
 70
     1
102
RTVSPropertyOp36
 70
     1
102
RTVSPropertyOp37
 70
     1
102
RTVSPropertyOp38
 70
     1
102
RTVSPropertyOp39
 70
     1
102
RTVSPropertyOp40
 70
     1
102
RTVSPropertyOp41
 70
     1
102
RTVSPropertyOp42
 70
     1
102
RTVSPropertyOp43
 70
     1
102
RTVSPropertyOp44
 70
     1
102
RTVSPropertyOp45
 70
     1
102
RTVSPropertyOp46
 70
     1
102
RTVSPropertyOp47
 70
     1
102
RTVSPropertyOp48
 70
     1
102
RTVSPropertyOp49
 70
     1
102
RTVSPropertyOp50
 70
     1
102
RTVSPropertyOp51
 70
     0
102
RTVSPropertyOp52
 70
     0
102
RTVSPropertyOp53
 70
     1
102
RTVSPropertyOp54
 70
     1
102
RTVSPropertyOp55
 70
     1
102
RTVSPropertyOp56
 70
     1
102
RTVSPropertyOp57
 70
     1
102
RTVSPost2010Prop28
280
     0
102
RTVSPost2010PropOp28
 70
     1
102
RTVSPost2010Prop29
280
     1
102
RTVSPost2010PropOp29
 70
     1
102
RTVSPost2010Prop30
280
     1
102
RTVSPost2010PropOp30
 70
     1
102
RTVSPost2010Prop31
280
     0
102
RTVSPost2010PropOp31
 70
     1
102
RTVSPost2010Prop32
280
     0
102
RTVSPost2010PropOp32
 70
     1
102
RTVSPost2010Prop33
280
     0
102
RTVSPost2010PropOp33
 70
     1
102
RTVSPost2010Prop34
280
     0
102
RTVSPost2010PropOp34
 70
     1
102
RTVSPost2010Prop35
280
     0
102
RTVSPost2010PropOp35
 70
     1
102
RTVSPost2010Prop36
280
     0
102
RTVSPost2010PropOp36
 70
     1
102
RTVSPost2010Prop37
 90
       50
102
RTVSPost2010PropOp37
 70
     1
102
RTVSPost2010Prop38
140
0.0
102
RTVSPost2010PropOp38
 70
     1
102
RTVSPost2010Prop39
140
1.0
102
RTVSPost2010PropOp39
 70
     1
102
RTVSPost2010Prop40
 90
        0
102
RTVSPost2010PropOp40
 70
     1
102
RTVSPost2010Prop41ColorIndex
 90
       18
102
RTVSPost2010Prop41ColorRGB
 90
        0
102
RTVSPost2010PropOp41
 70
     1
102
RTVSPost2010Prop42
 90
       50
102
RTVSPost2010PropOp42
 70
     1
102
RTVSPost2010Prop43
 90
        3
102
RTVSPost2010PropOp43
 70
     1
102
RTVSPost2010Prop44ColorIndex
 90
        5
102
RTVSPost2010Prop44ColorRGB
 90
      255
102
RTVSPost2010PropOp44
 70
     1
102
RTVSPost2010Prop45
280
     0
102
RTVSPost2010PropOp45
 70
     1
102
RTVSPost2010Prop46
 90
       50
102
RTVSPost2010PropOp46
 70
     1
102
RTVSPost2010Prop47
 90
       50
102
RTVSPost2010PropOp47
 70
     1
102
RTVSPost2010Prop48
 90
       50
102
RTVSPost2010PropOp48
 70
     1
102
RTVSPost2010Prop49
280
     0
102
RTVSPost2010PropOp49
 70
     1
102
RTVSPost2010Prop50
 90
       50
102
RTVSPost2010PropOp50
 70
     1
102
RTVSPost2010Prop51ColorIndex
 90
      256
102
RTVSPost2010Prop51ColorRGB
 90
-16777216
102
RTVSPost2010PropOp51
 70
     0
102
RTVSPost2010Prop52
140
1.0
102
RTVSPost2010PropOp52
 70
     0
102
RTVSPost2010Prop53
 90
        2
102
RTVSPost2010PropOp53
 70
     1
102
RTVSPost2010Prop54
  1
strokes_ogs.tif
102
RTVSPost2010PropOp54
 70
     1
102
RTVSPost2010Prop55
280
     0
102
RTVSPost2010PropOp55
 70
     1
102
RTVSPost2010Prop56
140
1.0
102
RTVSPost2010PropOp56
 70
     1
102
RTVSPost2010Prop57
140
1.0
102
RTVSPost2010PropOp57
 70
     1
  0
XRECORD
  5
335
102
{ACAD_REACTORS
330
334
102
}
330
334
100
AcDbXrecord
280
     1
102
RTVSPropertyOp0
 70
     1
102
RTVSPropertyOp1
 70
     1
102
RTVSPropertyOp2
 70
     1
102
RTVSPropertyOp3
 70
     1
102
RTVSPropertyOp4
 70
     1
102
RTVSPropertyOp5
 70
     1
102
RTVSPropertyOp6
 70
     1
102
RTVSPropertyOp7
 70
     1
102
RTVSPropertyOp8
 70
     1
102
RTVSPropertyOp9
 70
     1
102
RTVSPropertyOp10
 70
     1
102
RTVSPropertyOp11
 70
     1
102
RTVSPropertyOp12
 70
     1
102
RTVSPropertyOp13
 70
     1
102
RTVSPropertyOp14
 70
     1
102
RTVSPropertyOp15
 70
     1
102
RTVSPropertyOp16
 70
     1
102
RTVSPropertyOp17
 70
     1
102
RTVSPropertyOp18
 70
     1
102
RTVSPropertyOp19
 70
     1
102
RTVSPropertyOp20
 70
     1
102
RTVSPropertyOp21
 70
     1
102
RTVSPropertyOp22
 70
     1
102
RTVSPropertyOp23
 70
     1
102
RTVSPropertyOp24
 70
     1
102
RTVSPropertyOp25
 70
     1
102
RTVSPropertyOp26
 70
     1
102
RTVSPropertyOp27
 70
     1
102
RTVSPropertyOp28
 70
     1
102
RTVSPropertyOp29
 70
     1
102
RTVSPropertyOp30
 70
     1
102
RTVSPropertyOp31
 70
     1
102
RTVSPropertyOp32
 70
     1
102
RTVSPropertyOp33
 70
     1
102
RTVSPropertyOp34
 70
     1
102
RTVSPropertyOp35
 70
     1
102
RTVSPropertyOp36
 70
     1
102
RTVSPropertyOp37
 70
     1
102
RTVSPropertyOp38
 70
     1
102
RTVSPropertyOp39
 70
     1
102
RTVSPropertyOp40
 70
     1
102
RTVSPropertyOp41
 70
     1
102
RTVSPropertyOp42
 70
     1
102
RTVSPropertyOp43
 70
     1
102
RTVSPropertyOp44
 70
     1
102
RTVSPropertyOp45
 70
     1
102
RTVSPropertyOp46
 70
     1
102
RTVSPropertyOp47
 70
     1
102
RTVSPropertyOp48
 70
     1
102
RTVSPropertyOp49
 70
     1
102
RTVSPropertyOp50
 70
     1
102
RTVSPropertyOp51
 70
     0
102
RTVSPropertyOp52
 70
     0
102
RTVSPropertyOp53
 70
     1
102
RTVSPropertyOp54
 70
     1
102
RTVSPropertyOp55
 70
     1
102
RTVSPropertyOp56
 70
     1
102
RTVSPropertyOp57
 70
     1
102
RTVSPost2010Prop28
280
     0
102
RTVSPost2010PropOp28
 70
     1
102
RTVSPost2010Prop29
280
     1
102
RTVSPost2010PropOp29
 70
     1
102
RTVSPost2010Prop30
280
     1
102
RTVSPost2010PropOp30
 70
     1
102
RTVSPost2010Prop31
280
     0
102
RTVSPost2010PropOp31
 70
     1
102
RTVSPost2010Prop32
280
     0
102
RTVSPost2010PropOp32
 70
     1
102
RTVSPost2010Prop33
280
     0
102
RTVSPost2010PropOp33
 70
     1
102
RTVSPost2010Prop34
280
     0
102
RTVSPost2010PropOp34
 70
     1
102
RTVSPost2010Prop35
280
     0
102
RTVSPost2010PropOp35
 70
     1
102
RTVSPost2010Prop36
280
     0
102
RTVSPost2010PropOp36
 70
     1
102
RTVSPost2010Prop37
 90
       50
102
RTVSPost2010PropOp37
 70
     1
102
RTVSPost2010Prop38
140
0.0
102
RTVSPost2010PropOp38
 70
     1
102
RTVSPost2010Prop39
140
1.0
102
RTVSPost2010PropOp39
 70
     1
102
RTVSPost2010Prop40
 90
        0
102
RTVSPost2010PropOp40
 70
     1
102
RTVSPost2010Prop41ColorIndex
 90
       18
102
RTVSPost2010Prop41ColorRGB
 90
        0
102
RTVSPost2010PropOp41
 70
     1
102
RTVSPost2010Prop42
 90
       50
102
RTVSPost2010PropOp42
 70
     1
102
RTVSPost2010Prop43
 90
        3
102
RTVSPost2010PropOp43
 70
     1
102
RTVSPost2010Prop44ColorIndex
 90
        5
102
RTVSPost2010Prop44ColorRGB
 90
      255
102
RTVSPost2010PropOp44
 70
     1
102
RTVSPost2010Prop45
280
     0
102
RTVSPost2010PropOp45
 70
     1
102
RTVSPost2010Prop46
 90
       50
102
RTVSPost2010PropOp46
 70
     1
102
RTVSPost2010Prop47
 90
       50
102
RTVSPost2010PropOp47
 70
     1
102
RTVSPost2010Prop48
 90
       50
102
RTVSPost2010PropOp48
 70
     1
102
RTVSPost2010Prop49
280
     0
102
RTVSPost2010PropOp49
 70
     1
102
RTVSPost2010Prop50
 90
       50
102
RTVSPost2010PropOp50
 70
     1
102
RTVSPost2010Prop51ColorIndex
 90
      256
102
RTVSPost2010Prop51ColorRGB
 90
-16777216
102
RTVSPost2010PropOp51
 70
     0
102
RTVSPost2010Prop52
140
1.0
102
RTVSPost2010PropOp52
 70
     0
102
RTVSPost2010Prop53
 90
        2
102
RTVSPost2010PropOp53
 70
     1
102
RTVSPost2010Prop54
  1
strokes_ogs.tif
102
RTVSPost2010PropOp54
 70
     1
102
RTVSPost2010Prop55
280
     0
102
RTVSPost2010PropOp55
 70
     1
102
RTVSPost2010Prop56
140
1.0
102
RTVSPost2010PropOp56
 70
     1
102
RTVSPost2010Prop57
140
1.0
102
RTVSPost2010PropOp57
 70
     1
  0
XRECORD
  5
325
102
{ACAD_REACTORS
330
324
102
}
330
324
100
AcDbXrecord
280
     1
102
RTVSPropertyOp0
 70
     1
102
RTVSPropertyOp1
 70
     1
102
RTVSPropertyOp2
 70
     1
102
RTVSPropertyOp3
 70
     1
102
RTVSPropertyOp4
 70
     1
102
RTVSPropertyOp5
 70
     1
102
RTVSPropertyOp6
 70
     1
102
RTVSPropertyOp7
 70
     1
102
RTVSPropertyOp8
 70
     1
102
RTVSPropertyOp9
 70
     1
102
RTVSPropertyOp10
 70
     1
102
RTVSPropertyOp11
 70
     1
102
RTVSPropertyOp12
 70
     1
102
RTVSPropertyOp13
 70
     1
102
RTVSPropertyOp14
 70
     1
102
RTVSPropertyOp15
 70
     1
102
RTVSPropertyOp16
 70
     1
102
RTVSPropertyOp17
 70
     1
102
RTVSPropertyOp18
 70
     1
102
RTVSPropertyOp19
 70
     1
102
RTVSPropertyOp20
 70
     1
102
RTVSPropertyOp21
 70
     1
102
RTVSPropertyOp22
 70
     1
102
RTVSPropertyOp23
 70
     1
102
RTVSPropertyOp24
 70
     1
102
RTVSPropertyOp25
 70
     1
102
RTVSPropertyOp26
 70
     1
102
RTVSPropertyOp27
 70
     1
102
RTVSPropertyOp28
 70
     1
102
RTVSPropertyOp29
 70
     1
102
RTVSPropertyOp30
 70
     1
102
RTVSPropertyOp31
 70
     1
102
RTVSPropertyOp32
 70
     1
102
RTVSPropertyOp33
 70
     1
102
RTVSPropertyOp34
 70
     1
102
RTVSPropertyOp35
 70
     1
102
RTVSPropertyOp36
 70
     1
102
RTVSPropertyOp37
 70
     1
102
RTVSPropertyOp38
 70
     1
102
RTVSPropertyOp39
 70
     1
102
RTVSPropertyOp40
 70
     1
102
RTVSPropertyOp41
 70
     1
102
RTVSPropertyOp42
 70
     1
102
RTVSPropertyOp43
 70
     1
102
RTVSPropertyOp44
 70
     1
102
RTVSPropertyOp45
 70
     1
102
RTVSPropertyOp46
 70
     1
102
RTVSPropertyOp47
 70
     1
102
RTVSPropertyOp48
 70
     1
102
RTVSPropertyOp49
 70
     1
102
RTVSPropertyOp50
 70
     1
102
RTVSPropertyOp51
 70
     0
102
RTVSPropertyOp52
 70
     0
102
RTVSPropertyOp53
 70
     1
102
RTVSPropertyOp54
 70
     1
102
RTVSPropertyOp55
 70
     1
102
RTVSPropertyOp56
 70
     1
102
RTVSPropertyOp57
 70
     1
102
RTVSPost2010Prop28
280
     0
102
RTVSPost2010PropOp28
 70
     1
102
RTVSPost2010Prop29
280
     1
102
RTVSPost2010PropOp29
 70
     1
102
RTVSPost2010Prop30
280
     1
102
RTVSPost2010PropOp30
 70
     1
102
RTVSPost2010Prop31
280
     0
102
RTVSPost2010PropOp31
 70
     1
102
RTVSPost2010Prop32
280
     0
102
RTVSPost2010PropOp32
 70
     1
102
RTVSPost2010Prop33
280
     0
102
RTVSPost2010PropOp33
 70
     1
102
RTVSPost2010Prop34
280
     0
102
RTVSPost2010PropOp34
 70
     1
102
RTVSPost2010Prop35
280
     0
102
RTVSPost2010PropOp35
 70
     1
102
RTVSPost2010Prop36
280
     0
102
RTVSPost2010PropOp36
 70
     1
102
RTVSPost2010Prop37
 90
       50
102
RTVSPost2010PropOp37
 70
     1
102
RTVSPost2010Prop38
140
0.0
102
RTVSPost2010PropOp38
 70
     1
102
RTVSPost2010Prop39
140
1.0
102
RTVSPost2010PropOp39
 70
     1
102
RTVSPost2010Prop40
 90
        0
102
RTVSPost2010PropOp40
 70
     1
102
RTVSPost2010Prop41ColorIndex
 90
       18
102
RTVSPost2010Prop41ColorRGB
 90
        0
102
RTVSPost2010PropOp41
 70
     1
102
RTVSPost2010Prop42
 90
       50
102
RTVSPost2010PropOp42
 70
     1
102
RTVSPost2010Prop43
 90
        3
102
RTVSPost2010PropOp43
 70
     1
102
RTVSPost2010Prop44ColorIndex
 90
        5
102
RTVSPost2010Prop44ColorRGB
 90
      255
102
RTVSPost2010PropOp44
 70
     1
102
RTVSPost2010Prop45
280
     0
102
RTVSPost2010PropOp45
 70
     1
102
RTVSPost2010Prop46
 90
       50
102
RTVSPost2010PropOp46
 70
     1
102
RTVSPost2010Prop47
 90
       50
102
RTVSPost2010PropOp47
 70
     1
102
RTVSPost2010Prop48
 90
       50
102
RTVSPost2010PropOp48
 70
     1
102
RTVSPost2010Prop49
280
     0
102
RTVSPost2010PropOp49
 70
     1
102
RTVSPost2010Prop50
 90
       50
102
RTVSPost2010PropOp50
 70
     1
102
RTVSPost2010Prop51ColorIndex
 90
      256
102
RTVSPost2010Prop51ColorRGB
 90
-16777216
102
RTVSPost2010PropOp51
 70
     0
102
RTVSPost2010Prop52
140
1.0
102
RTVSPost2010PropOp52
 70
     0
102
RTVSPost2010Prop53
 90
        2
102
RTVSPost2010PropOp53
 70
     1
102
RTVSPost2010Prop54
  1
strokes_ogs.tif
102
RTVSPost2010PropOp54
 70
     1
102
RTVSPost2010Prop55
280
     0
102
RTVSPost2010PropOp55
 70
     1
102
RTVSPost2010Prop56
140
1.0
102
RTVSPost2010PropOp56
 70
     1
102
RTVSPost2010Prop57
140
1.0
102
RTVSPost2010PropOp57
 70
     1
  0
XRECORD
  5
317
102
{ACAD_REACTORS
330
316
102
}
330
316
100
AcDbXrecord
280
     1
102
RTVSPropertyOp0
 70
     1
102
RTVSPropertyOp1
 70
     1
102
RTVSPropertyOp2
 70
     1
102
RTVSPropertyOp3
 70
     1
102
RTVSPropertyOp4
 70
     1
102
RTVSPropertyOp5
 70
     1
102
RTVSPropertyOp6
 70
     1
102
RTVSPropertyOp7
 70
     1
102
RTVSPropertyOp8
 70
     1
102
RTVSPropertyOp9
 70
     1
102
RTVSPropertyOp10
 70
     1
102
RTVSPropertyOp11
 70
     1
102
RTVSPropertyOp12
 70
     1
102
RTVSPropertyOp13
 70
     1
102
RTVSPropertyOp14
 70
     1
102
RTVSPropertyOp15
 70
     1
102
RTVSPropertyOp16
 70
     1
102
RTVSPropertyOp17
 70
     1
102
RTVSPropertyOp18
 70
     1
102
RTVSPropertyOp19
 70
     1
102
RTVSPropertyOp20
 70
     1
102
RTVSPropertyOp21
 70
     1
102
RTVSPropertyOp22
 70
     1
102
RTVSPropertyOp23
 70
     1
102
RTVSPropertyOp24
 70
     1
102
RTVSPropertyOp25
 70
     1
102
RTVSPropertyOp26
 70
     1
102
RTVSPropertyOp27
 70
     1
102
RTVSPropertyOp28
 70
     1
102
RTVSPropertyOp29
 70
     1
102
RTVSPropertyOp30
 70
     1
102
RTVSPropertyOp31
 70
     1
102
RTVSPropertyOp32
 70
     1
102
RTVSPropertyOp33
 70
     1
102
RTVSPropertyOp34
 70
     1
102
RTVSPropertyOp35
 70
     1
102
RTVSPropertyOp36
 70
     1
102
RTVSPropertyOp37
 70
     1
102
RTVSPropertyOp38
 70
     1
102
RTVSPropertyOp39
 70
     1
102
RTVSPropertyOp40
 70
     1
102
RTVSPropertyOp41
 70
     1
102
RTVSPropertyOp42
 70
     1
102
RTVSPropertyOp43
 70
     1
102
RTVSPropertyOp44
 70
     1
102
RTVSPropertyOp45
 70
     1
102
RTVSPropertyOp46
 70
     1
102
RTVSPropertyOp47
 70
     1
102
RTVSPropertyOp48
 70
     1
102
RTVSPropertyOp49
 70
     1
102
RTVSPropertyOp50
 70
     1
102
RTVSPropertyOp51
 70
     0
102
RTVSPropertyOp52
 70
     0
102
RTVSPropertyOp53
 70
     1
102
RTVSPropertyOp54
 70
     1
102
RTVSPropertyOp55
 70
     1
102
RTVSPropertyOp56
 70
     1
102
RTVSPropertyOp57
 70
     1
102
RTVSPost2010Prop28
280
     0
102
RTVSPost2010PropOp28
 70
     1
102
RTVSPost2010Prop29
280
     1
102
RTVSPost2010PropOp29
 70
     1
102
RTVSPost2010Prop30
280
     1
102
RTVSPost2010PropOp30
 70
     1
102
RTVSPost2010Prop31
280
     0
102
RTVSPost2010PropOp31
 70
     1
102
RTVSPost2010Prop32
280
     0
102
RTVSPost2010PropOp32
 70
     1
102
RTVSPost2010Prop33
280
     0
102
RTVSPost2010PropOp33
 70
     1
102
RTVSPost2010Prop34
280
     0
102
RTVSPost2010PropOp34
 70
     1
102
RTVSPost2010Prop35
280
     0
102
RTVSPost2010PropOp35
 70
     1
102
RTVSPost2010Prop36
280
     0
102
RTVSPost2010PropOp36
 70
     1
102
RTVSPost2010Prop37
 90
       50
102
RTVSPost2010PropOp37
 70
     1
102
RTVSPost2010Prop38
140
0.0
102
RTVSPost2010PropOp38
 70
     1
102
RTVSPost2010Prop39
140
1.0
102
RTVSPost2010PropOp39
 70
     1
102
RTVSPost2010Prop40
 90
        0
102
RTVSPost2010PropOp40
 70
     1
102
RTVSPost2010Prop41ColorIndex
 90
       18
102
RTVSPost2010Prop41ColorRGB
 90
        0
102
RTVSPost2010PropOp41
 70
     1
102
RTVSPost2010Prop42
 90
       50
102
RTVSPost2010PropOp42
 70
     1
102
RTVSPost2010Prop43
 90
        3
102
RTVSPost2010PropOp43
 70
     1
102
RTVSPost2010Prop44ColorIndex
 90
        5
102
RTVSPost2010Prop44ColorRGB
 90
      255
102
RTVSPost2010PropOp44
 70
     1
102
RTVSPost2010Prop45
280
     0
102
RTVSPost2010PropOp45
 70
     1
102
RTVSPost2010Prop46
 90
       50
102
RTVSPost2010PropOp46
 70
     1
102
RTVSPost2010Prop47
 90
       50
102
RTVSPost2010PropOp47
 70
     1
102
RTVSPost2010Prop48
 90
       50
102
RTVSPost2010PropOp48
 70
     1
102
RTVSPost2010Prop49
280
     0
102
RTVSPost2010PropOp49
 70
     1
102
RTVSPost2010Prop50
 90
       50
102
RTVSPost2010PropOp50
 70
     1
102
RTVSPost2010Prop51ColorIndex
 90
      256
102
RTVSPost2010Prop51ColorRGB
 90
-16777216
102
RTVSPost2010PropOp51
 70
     0
102
RTVSPost2010Prop52
140
1.0
102
RTVSPost2010PropOp52
 70
     0
102
RTVSPost2010Prop53
 90
        2
102
RTVSPost2010PropOp53
 70
     1
102
RTVSPost2010Prop54
  1
strokes_ogs.tif
102
RTVSPost2010PropOp54
 70
     1
102
RTVSPost2010Prop55
280
     0
102
RTVSPost2010PropOp55
 70
     1
102
RTVSPost2010Prop56
140
1.0
102
RTVSPost2010PropOp56
 70
     1
102
RTVSPost2010Prop57
140
1.0
102
RTVSPost2010PropOp57
 70
     1
  0
XRECORD
  5
337
102
{ACAD_REACTORS
330
336
102
}
330
336
100
AcDbXrecord
280
     1
102
RTVSPropertyOp0
 70
     1
102
RTVSPropertyOp1
 70
     1
102
RTVSPropertyOp2
 70
     1
102
RTVSPropertyOp3
 70
     1
102
RTVSPropertyOp4
 70
     1
102
RTVSPropertyOp5
 70
     1
102
RTVSPropertyOp6
 70
     1
102
RTVSPropertyOp7
 70
     1
102
RTVSPropertyOp8
 70
     1
102
RTVSPropertyOp9
 70
     1
102
RTVSPropertyOp10
 70
     1
102
RTVSPropertyOp11
 70
     1
102
RTVSPropertyOp12
 70
     1
102
RTVSPropertyOp13
 70
     1
102
RTVSPropertyOp14
 70
     1
102
RTVSPropertyOp15
 70
     1
102
RTVSPropertyOp16
 70
     1
102
RTVSPropertyOp17
 70
     1
102
RTVSPropertyOp18
 70
     1
102
RTVSPropertyOp19
 70
     1
102
RTVSPropertyOp20
 70
     1
102
RTVSPropertyOp21
 70
     1
102
RTVSPropertyOp22
 70
     1
102
RTVSPropertyOp23
 70
     1
102
RTVSPropertyOp24
 70
     1
102
RTVSPropertyOp25
 70
     1
102
RTVSPropertyOp26
 70
     1
102
RTVSPropertyOp27
 70
     1
102
RTVSPropertyOp28
 70
     1
102
RTVSPropertyOp29
 70
     1
102
RTVSPropertyOp30
 70
     1
102
RTVSPropertyOp31
 70
     1
102
RTVSPropertyOp32
 70
     1
102
RTVSPropertyOp33
 70
     1
102
RTVSPropertyOp34
 70
     1
102
RTVSPropertyOp35
 70
     1
102
RTVSPropertyOp36
 70
     1
102
RTVSPropertyOp37
 70
     1
102
RTVSPropertyOp38
 70
     1
102
RTVSPropertyOp39
 70
     1
102
RTVSPropertyOp40
 70
     1
102
RTVSPropertyOp41
 70
     1
102
RTVSPropertyOp42
 70
     1
102
RTVSPropertyOp43
 70
     1
102
RTVSPropertyOp44
 70
     1
102
RTVSPropertyOp45
 70
     1
102
RTVSPropertyOp46
 70
     1
102
RTVSPropertyOp47
 70
     1
102
RTVSPropertyOp48
 70
     1
102
RTVSPropertyOp49
 70
     1
102
RTVSPropertyOp50
 70
     1
102
RTVSPropertyOp51
 70
     0
102
RTVSPropertyOp52
 70
     0
102
RTVSPropertyOp53
 70
     1
102
RTVSPropertyOp54
 70
     1
102
RTVSPropertyOp55
 70
     1
102
RTVSPropertyOp56
 70
     1
102
RTVSPropertyOp57
 70
     1
102
RTVSPost2010Prop28
280
     0
102
RTVSPost2010PropOp28
 70
     1
102
RTVSPost2010Prop29
280
     1
102
RTVSPost2010PropOp29
 70
     1
102
RTVSPost2010Prop30
280
     1
102
RTVSPost2010PropOp30
 70
     1
102
RTVSPost2010Prop31
280
     0
102
RTVSPost2010PropOp31
 70
     1
102
RTVSPost2010Prop32
280
     0
102
RTVSPost2010PropOp32
 70
     1
102
RTVSPost2010Prop33
280
     0
102
RTVSPost2010PropOp33
 70
     1
102
RTVSPost2010Prop34
280
     0
102
RTVSPost2010PropOp34
 70
     1
102
RTVSPost2010Prop35
280
     0
102
RTVSPost2010PropOp35
 70
     1
102
RTVSPost2010Prop36
280
     0
102
RTVSPost2010PropOp36
 70
     1
102
RTVSPost2010Prop37
 90
       50
102
RTVSPost2010PropOp37
 70
     1
102
RTVSPost2010Prop38
140
0.0
102
RTVSPost2010PropOp38
 70
     1
102
RTVSPost2010Prop39
140
1.0
102
RTVSPost2010PropOp39
 70
     1
102
RTVSPost2010Prop40
 90
        0
102
RTVSPost2010PropOp40
 70
     1
102
RTVSPost2010Prop41ColorIndex
 90
       18
102
RTVSPost2010Prop41ColorRGB
 90
        0
102
RTVSPost2010PropOp41
 70
     1
102
RTVSPost2010Prop42
 90
       50
102
RTVSPost2010PropOp42
 70
     1
102
RTVSPost2010Prop43
 90
        3
102
RTVSPost2010PropOp43
 70
     1
102
RTVSPost2010Prop44ColorIndex
 90
        5
102
RTVSPost2010Prop44ColorRGB
 90
      255
102
RTVSPost2010PropOp44
 70
     1
102
RTVSPost2010Prop45
280
     0
102
RTVSPost2010PropOp45
 70
     1
102
RTVSPost2010Prop46
 90
       50
102
RTVSPost2010PropOp46
 70
     1
102
RTVSPost2010Prop47
 90
       50
102
RTVSPost2010PropOp47
 70
     1
102
RTVSPost2010Prop48
 90
       50
102
RTVSPost2010PropOp48
 70
     1
102
RTVSPost2010Prop49
280
     0
102
RTVSPost2010PropOp49
 70
     1
102
RTVSPost2010Prop50
 90
       50
102
RTVSPost2010PropOp50
 70
     1
102
RTVSPost2010Prop51ColorIndex
 90
      256
102
RTVSPost2010Prop51ColorRGB
 90
-16777216
102
RTVSPost2010PropOp51
 70
     0
102
RTVSPost2010Prop52
140
1.0
102
RTVSPost2010PropOp52
 70
     0
102
RTVSPost2010Prop53
 90
        2
102
RTVSPost2010PropOp53
 70
     1
102
RTVSPost2010Prop54
  1
strokes_ogs.tif
102
RTVSPost2010PropOp54
 70
     1
102
RTVSPost2010Prop55
280
     0
102
RTVSPost2010PropOp55
 70
     1
102
RTVSPost2010Prop56
140
1.0
102
RTVSPost2010PropOp56
 70
     1
102
RTVSPost2010Prop57
140
1.0
102
RTVSPost2010PropOp57
 70
     1
  0
ENDSEC
  0
EOF
