  0
SECTION
  2
HEADER
  9
$ACADVER
  1
AC1018
  9
$ACADMAINTVER
 70
     0
  9
$DWGCODEPAGE
  3
ANSI_932
  9
$INSBASE
 10
0.0
 20
0.0
 30
0.0
  9
$EXTMIN
 10
-420.0
 20
-297.0
 30
0.0
  9
$EXTMAX
 10
420.0
 20
297.0
 30
0.0
  9
$LIMMIN
 10
-420.0
 20
-297.0
  9
$LIMMAX
 10
420.0
 20
297.0
  9
$ORTHOMODE
 70
     0
  9
$REGENMODE
 70
     1
  9
$FILLMODE
 70
     1
  9
$QTEXTMODE
 70
     0
  9
$MIRRTEXT
 70
     1
  9
$LTSCALE
 40
2.0
  9
$ATTMODE
 70
     1
  9
$TEXTSIZE
 40
2.5
  9
$TRACEWID
 40
1.0
  9
$TEXTSTYLE
  7
Standard
  9
$CLAYER
  8
0
  9
$CELTYPE
  6
ByLayer
  9
$CECOLOR
 62
   256
  9
$CELTSCALE
 40
1.0
  9
$DISPSILH
 70
     0
  9
$DIMSCALE
 40
1.0
  9
$DIMASZ
 40
2.5
  9
$DIMEXO
 40
0.625
  9
$DIMDLI
 40
3.75
  9
$DIMRND
 40
0.0
  9
$DIMDLE
 40
0.0
  9
$DIMEXE
 40
1.25
  9
$DIMTP
 40
0.0
  9
$DIMTM
 40
0.0
  9
$DIMTXT
 40
2.5
  9
$DIMCEN
 40
2.5
  9
$DIMTSZ
 40
0.0
  9
$DIMTOL
 70
     0
  9
$DIMLIM
 70
     0
  9
$DIMTIH
 70
     0
  9
$DIMTOH
 70
     0
  9
$DIMSE1
 70
     0
  9
$DIMSE2
 70
     0
  9
$DIMTAD
 70
     1
  9
$DIMZIN
 70
     8
  9
$DIMBLK
  1

  9
$DIMASO
 70
     1
  9
$DIMSHO
 70
     1
  9
$DIMPOST
  1

  9
$DIMAPOST
  1

  9
$DIMALT
 70
     0
  9
$DIMALTD
 70
     3
  9
$DIMALTF
 40
0.03937007874016
  9
$DIMLFAC
 40
1.0
  9
$DIMTOFL
 70
     1
  9
$DIMTVP
 40
0.0
  9
$DIMTIX
 70
     0
  9
$DIMSOXD
 70
     0
  9
$DIMSAH
 70
     0
  9
$DIMBLK1
  1

  9
$DIMBLK2
  1

  9
$DIMSTYLE
  2
ISO-25
  9
$DIMCLRD
 70
     0
  9
$DIMCLRE
 70
     0
  9
$DIMCLRT
 70
     0
  9
$DIMTFAC
 40
1.0
  9
$DIMGAP
 40
0.625
  9
$DIMJUST
 70
     0
  9
$DIMSD1
 70
     0
  9
$DIMSD2
 70
     0
  9
$DIMTOLJ
 70
     0
  9
$DIMTZIN
 70
     8
  9
$DIMALTZ
 70
     0
  9
$DIMALTTZ
 70
     0
  9
$DIMUPT
 70
     0
  9
$DIMDEC
 70
     2
  9
$DIMTDEC
 70
     2
  9
$DIMALTU
 70
     2
  9
$DIMALTTD
 70
     3
  9
$DIMTXSTY
  7
Standard
  9
$DIMAUNIT
 70
     0
  9
$DIMADEC
 70
     0
  9
$DIMALTRND
 40
0.0
  9
$DIMAZIN
 70
     0
  9
$DIMDSEP
 70
    44
  9
$DIMATFIT
 70
     3
  9
$DIMFRAC
 70
     0
  9
$DIMLDRBLK
  1

  9
$DIMLUNIT
 70
     2
  9
$DIMLWD
 70
    -2
  9
$DIMLWE
 70
    -2
  9
$DIMTMOVE
 70
     0
  9
$LUNITS
 70
     2
  9
$LUPREC
 70
     4
  9
$SKETCHINC
 40
1.0
  9
$FILLETRAD
 40
10.0
  9
$AUNITS
 70
     0
  9
$AUPREC
 70
     0
  9
$MENU
  1
.
  9
$ELEVATION
 40
0.0
  9
$PELEVATION
 40
0.0
  9
$THICKNESS
 40
0.0
  9
$LIMCHECK
 70
     0
  9
$CHAMFERA
 40
0.0
  9
$CHAMFERB
 40
0.0
  9
$CHAMFERC
 40
0.0
  9
$CHAMFERD
 40
0.0
  9
$SKPOLY
 70
     0
  9
$TDCREATE
 40
2460255.443060555
  9
$TDUCREATE
 40
2460255.068060555
  9
$TDUPDATE
 40
2460255.443060706
  9
$TDUUPDATE
 40
2460255.068060706
  9
$TDINDWG
 40
0.0000000116
  9
$TDUSRTIMER
 40
0.0000000116
  9
$USRTIMER
 70
     1
  9
$ANGBASE
 50
0.0
  9
$ANGDIR
 70
     0
  9
$PDMODE
 70
     0
  9
$PDSIZE
 40
0.0
  9
$PLINEWID
 40
0.0
  9
$SPLFRAME
 70
     0
  9
$SPLINETYPE
 70
     6
  9
$SPLINESEGS
 70
     8
  9
$HANDSEED
  5
3E7
  9
$SURFTAB1
 70
     6
  9
$SURFTAB2
 70
     6
  9
$SURFTYPE
 70
     6
  9
$SURFU
 70
     6
  9
$SURFV
 70
     6
  9
$UCSBASE
  2

  9
$UCSNAME
  2

  9
$UCSORG
 10
0.0
 20
0.0
 30
0.0
  9
$UCSXDIR
 10
1.0
 20
0.0
 30
0.0
  9
$UCSYDIR
 10
0.0
 20
1.0
 30
0.0
  9
$UCSORTHOREF
  2

  9
$UCSORTHOVIEW
 70
     0
  9
$UCSORGTOP
 10
0.0
 20
0.0
 30
0.0
  9
$UCSORGBOTTOM
 10
0.0
 20
0.0
 30
0.0
  9
$UCSORGLEFT
 10
0.0
 20
0.0
 30
0.0
  9
$UCSORGRIGHT
 10
0.0
 20
0.0
 30
0.0
  9
$UCSORGFRONT
 10
0.0
 20
0.0
 30
0.0
  9
$UCSORGBACK
 10
0.0
 20
0.0
 30
0.0
  9
$PUCSBASE
  2

  9
$PUCSNAME
  2

  9
$PUCSORG
 10
0.0
 20
0.0
 30
0.0
  9
$PUCSXDIR
 10
1.0
 20
0.0
 30
0.0
  9
$PUCSYDIR
 10
0.0
 20
1.0
 30
0.0
  9
$PUCSORTHOREF
  2

  9
$PUCSORTHOVIEW
 70
     0
  9
$PUCSORGTOP
 10
0.0
 20
0.0
 30
0.0
  9
$PUCSORGBOTTOM
 10
0.0
 20
0.0
 30
0.0
  9
$PUCSORGLEFT
 10
0.0
 20
0.0
 30
0.0
  9
$PUCSORGRIGHT
 10
0.0
 20
0.0
 30
0.0
  9
$PUCSORGFRONT
 10
0.0
 20
0.0
 30
0.0
  9
$PUCSORGBACK
 10
0.0
 20
0.0
 30
0.0
  9
$USERI1
 70
     0
  9
$USERI2
 70
     0
  9
$USERI3
 70
     0
  9
$USERI4
 70
     0
  9
$USERI5
 70
     0
  9
$USERR1
 40
0.0
  9
$USERR2
 40
0.0
  9
$USERR3
 40
0.0
  9
$USERR4
 40
0.0
  9
$USERR5
 40
0.0
  9
$WORLDVIEW
 70
     1
  9
$SHADEDGE
 70
     3
  9
$SHADEDIF
 70
    70
  9
$TILEMODE
 70
     1
  9
$MAXACTVP
 70
    64
  9
$PINSBASE
 10
0.0
 20
0.0
 30
0.0
  9
$PLIMCHECK
 70
     0
  9
$PEXTMIN
 10
1.000000000000000E+20
 20
1.000000000000000E+20
 30
1.000000000000000E+20
  9
$PEXTMAX
 10
-1.000000000000000E+20
 20
-1.000000000000000E+20
 30
-1.000000000000000E+20
  9
$PLIMMIN
 10
0.0
 20
0.0
  9
$PLIMMAX
 10
420.0
 20
297.0
  9
$UNITMODE
 70
     0
  9
$VISRETAIN
 70
     1
  9
$PLINEGEN
 70
     0
  9
$PSLTSCALE
 70
     1
  9
$TREEDEPTH
 70
  3020
  9
$CMLSTYLE
  2
Standard
  9
$CMLJUST
 70
     0
  9
$CMLSCALE
 40
20.0
  9
$PROXYGRAPHICS
 70
     1
  9
$MEASUREMENT
 70
     1
  9
$CELWEIGHT
370
    -1
  9
$ENDCAPS
280
     0
  9
$JOINSTYLE
280
     0
  9
$LWDISPLAY
290
     0
  9
$INSUNITS
 70
     4
  9
$HYPERLINKBASE
  1

  9
$STYLESHEET
  1

  9
$XEDIT
290
     1
  9
$CEPSNTYPE
380
     0
  9
$PSTYLEMODE
290
     1
  9
$FINGERPRINTGUID
  2
{E22A3F39-521A-4CEA-8D82-46D787B18852}
  9
$VERSIONGUID
  2
{FAEB1C32-E019-11D5-929B-00C0DF256EC4}
  9
$EXTNAMES
290
     1
  9
$PSVPSCALE
 40
0.0
  9
$OLESTARTUP
290
     0
  9
$SORTENTS
280
   127
  9
$INDEXCTL
280
     0
  9
$HIDETEXT
280
     1
  9
$XCLIPFRAME
290
     0
  9
$HALOGAP
280
     0
  9
$OBSCOLOR
 70
   257
  9
$OBSLTYPE
280
     0
  9
$INTERSECTIONDISPLAY
280
     0
  9
$INTERSECTIONCOLOR
 70
   257
  9
$DIMASSOC
280
     2
  9
$PROJECTNAME
  1

  0
ENDSEC
  0
SECTION
  2
CLASSES
  0
CLASS
  1
ACDBDICTIONARYWDFLT
  2
AcDbDictionaryWithDefault
  3
ObjectDBX Classes
 90
        0
 91
        4
280
     0
281
     0
  0
CLASS
  1
VISUALSTYLE
  2
AcDbVisualStyle
  3
ObjectDBX Classes
 90
     4095
 91
        4
280
     0
281
     0
  0
CLASS
  1
MATERIAL
  2
AcDbMaterial
  3
ObjectDBX Classes
 90
     1153
 91
        4
280
     0
281
     0
  0
CLASS
  1
SCALE
  2
AcDbScale
  3
ObjectDBX Classes
 90
     1153
 91
        4
280
     0
281
     0
  0
CLASS
  1
TABLESTYLE
  2
AcDbTableStyle
  3
ObjectDBX Classes
 90
     4095
 91
        4
280
     0
281
     0
  0
CLASS
  1
MLEADERSTYLE
  2
AcDbMLeaderStyle
  3
ACDB_MLEADERSTYLE_CLASS
 90
     4095
 91
        4
280
     0
281
     0
  0
CLASS
  1
SUN
  2
AcDbSun
  3
SCENEOE
 90
     1153
 91
        4
280
     0
281
     0
  0
CLASS
  1
DICTIONARYVAR
  2
AcDbDictionaryVar
  3
ObjectDBX Classes
 90
        0
 91
        4
280
     0
281
     0
  0
CLASS
  1
CELLSTYLEMAP
  2
AcDbCellStyleMap
  3
ObjectDBX Classes
 90
     1152
 91
        4
280
     0
281
     0
  0
ENDSEC
  0
SECTION
  2
TABLES
  0
TABLE
  2
VPORT
  5
8
102
{ACAD_XDICTIONARY
360
39E
102
}
330
0
100
AcDbSymbolTable
 70
     1
  0
VPORT
  5
29
330
8
100
AcDbSymbolTableRecord
100
AcDbViewportTableRecord
  2
*Active
 70
     0
 10
0.0
 20
0.0
 11
1.0
 21
1.0
 12
0.0
 22
0.0
 13
0.0
 23
0.0
 14
10.0
 24
10.0
 15
10.0
 25
10.0
 16
0.0
 26
0.0
 36
1.0
 17
0.0
 27
0.0
 37
0.0
 40
653.4000000000001
 41
1.414141414141414
 42
50.0
 43
0.0
 44
0.0
 50
0.0
 51
0.0
 71
     0
 72
 10000
 73
     1
 74
     3
 75
     0
 76
     0
 77
     0
 78
     0
281
     0
 65
     1
110
0.0
120
0.0
130
0.0
111
1.0
121
0.0
131
0.0
112
0.0
122
1.0
132
0.0
 79
     0
146
0.0
  0
ENDTAB
  0
TABLE
  2
LTYPE
  5
5
330
0
100
AcDbSymbolTable
 70
     5
  0
LTYPE
  5
14
330
5
100
AcDbSymbolTableRecord
100
AcDbLinetypeTableRecord
  2
ByBlock
 70
     0
  3

 72
    65
 73
     0
 40
0.0
  0
LTYPE
  5
15
330
5
100
AcDbSymbolTableRecord
100
AcDbLinetypeTableRecord
  2
ByLayer
 70
     0
  3

 72
    65
 73
     0
 40
0.0
  0
LTYPE
  5
16
330
5
100
AcDbSymbolTableRecord
100
AcDbLinetypeTableRecord
  2
Continuous
 70
     0
  3
Solid line
 72
    65
 73
     0
 40
0.0
  0
LTYPE
  5
6F
330
5
100
AcDbSymbolTableRecord
100
AcDbLinetypeTableRecord
  2
JWW_CENTER1
 70
     0
  3
-----  --  ----------  --  -----
 72
    65
 73
     4
 40
6.773333333333333
 49
4.233333333333333
 74
     0
 49
-0.8466666666666667
 74
     0
 49
0.8466666666666667
 74
     0
 49
-0.8466666666666667
 74
     0
  0
LTYPE
  5
70
330
5
100
AcDbSymbolTableRecord
100
AcDbLinetypeTableRecord
  2
JWW_PHANTOM1
 70
     0
  3
----  -  -  --------  -  -  ----
 72
    65
 73
     6
 40
6.773333333333333
 49
3.386666666666667
 74
     0
 49
-0.8466666666666667
 74
     0
 49
0.4233333333333333
 74
     0
 49
-0.8466666666666667
 74
     0
 49
0.4233333333333333
 74
     0
 49
-0.8466666666666667
 74
     0
  0
LTYPE
  5
71
330
5
100
AcDbSymbolTableRecord
100
AcDbLinetypeTableRecord
  2
JWW_DASHED2
 70
     0
  3
--    ----    ----    ----    --
 72
    65
 73
     2
 40
3.386666666666667
 49
1.693333333333333
 74
     0
 49
-1.693333333333333
 74
     0
  0
LTYPE
  5
72
330
5
100
AcDbSymbolTableRecord
100
AcDbLinetypeTableRecord
  2
JWW_HOJO
 70
     0
  3
  -   -   -   -   -   -   -   - 
 72
    65
 73
     2
 40
1.693333333333333
 49
-1.27
 74
     0
 49
0.4233333333333333
 74
     0
  0
ENDTAB
  0
TABLE
  2
LAYER
  5
2
330
0
100
AcDbSymbolTable
 70
    11
  0
LAYER
  5
10
330
2
100
AcDbSymbolTableRecord
100
AcDbLayerTableRecord
  2
0
 70
     0
 62
     7
  6
Continuous
370
    -3
390
F
  0
LAYER
  5
73
330
2
100
AcDbSymbolTableRecord
100
AcDbLayerTableRecord
  2
通り芯
 70
     0
 62
     7
  6
Continuous
370
    -3
390
F
  0
LAYER
  5
74
330
2
100
AcDbSymbolTableRecord
100
AcDbLayerTableRecord
  2
0-A
 70
     0
 62
     7
  6
Continuous
370
    -3
390
F
  0
LAYER
  5
75
330
2
100
AcDbSymbolTableRecord
100
AcDbLayerTableRecord
  2
建具
 70
     0
 62
     7
  6
Continuous
370
    -3
390
F
  0
LAYER
  5
76
330
2
100
AcDbSymbolTableRecord
100
AcDbLayerTableRecord
  2
寸法
 70
     0
 62
     7
  6
Continuous
370
    -3
390
F
  0
LAYER
  5
77
330
2
100
AcDbSymbolTableRecord
100
AcDbLayerTableRecord
  2
0-E
 70
     0
 62
     7
  6
Continuous
370
    -3
390
F
  0
LAYER
  5
78
330
2
100
AcDbSymbolTableRecord
100
AcDbLayerTableRecord
  2
0-F
 70
     0
 62
     7
  6
Continuous
370
    -3
390
F
  0
LAYER
  5
79
330
2
100
AcDbSymbolTableRecord
100
AcDbLayerTableRecord
  2
その他
 70
     0
 62
     7
  6
Continuous
370
    -3
390
F
  0
LAYER
  5
7A
330
2
100
AcDbSymbolTableRecord
100
AcDbLayerTableRecord
  2
F-5ﾚｲﾔ
 70
     0
 62
     7
  6
Continuous
370
    -3
390
F
  0
LAYER
  5
7B
330
2
100
AcDbSymbolTableRecord
100
AcDbLayerTableRecord
  2
F-Fﾚｲﾔ
 70
     0
 62
     7
  6
Continuous
370
    -3
390
F
  0
LAYER
  5
7C
330
2
100
AcDbSymbolTableRecord
100
AcDbLayerTableRecord
  2
仕上
 70
     0
 62
     7
  6
Continuous
370
    -3
390
F
  0
ENDTAB
  0
TABLE
  2
STYLE
  5
3
330
0
100
AcDbSymbolTable
 70
     2
  0
STYLE
  5
11
330
3
100
AcDbSymbolTableRecord
100
AcDbTextStyleTableRecord
  2
Standard
 70
     0
 40
0.0
 41
1.0
 50
0.0
 71
     0
 42
2.5
  3
txt
  4

  0
STYLE
  5
6E
330
3
100
AcDbSymbolTableRecord
100
AcDbTextStyleTableRecord
  2
ＭＳ ゴシック
 70
     0
 40
1.0
 41
1.0
 50
0.0
 71
     0
 42
2.5
  3

  4

1001
ACAD
1000
MS Gothic
1071
    32817
  0
ENDTAB
  0
TABLE
  2
VIEW
  5
6
330
0
100
AcDbSymbolTable
 70
     0
  0
ENDTAB
  0
TABLE
  2
UCS
  5
7
330
0
100
AcDbSymbolTable
 70
     0
  0
ENDTAB
  0
TABLE
  2
APPID
  5
9
330
0
100
AcDbSymbolTable
 70
     2
  0
APPID
  5
12
330
9
100
AcDbSymbolTableRecord
100
AcDbRegAppTableRecord
  2
ACAD
 70
     0
  0
APPID
  5
3DD
330
9
100
AcDbSymbolTableRecord
100
AcDbRegAppTableRecord
  2
ACAD_MLEADERVER
 70
     0
  0
ENDTAB
  0
TABLE
  2
DIMSTYLE
  5
A
330
0
100
AcDbSymbolTable
 70
     1
100
AcDbDimStyleTable
  0
DIMSTYLE
105
27
330
A
100
AcDbSymbolTableRecord
100
AcDbDimStyleTableRecord
  2
ISO-25
 70
     0
 41
2.5
 42
0.625
 43
3.75
 44
1.25
 73
     0
 74
     0
 77
     1
 78
     8
140
2.5
141
2.5
143
0.03937007874016
147
0.625
171
     3
172
     1
178
     0
271
     2
272
     2
274
     3
278
    44
283
     0
284
     8
340
11
  0
ENDTAB
  0
TABLE
  2
BLOCK_RECORD
  5
1
330
0
100
AcDbSymbolTable
 70
     1
  0
BLOCK_RECORD
  5
1F
330
1
100
AcDbSymbolTableRecord
100
AcDbBlockTableRecord
  2
*Model_Space
340
22
  0
BLOCK_RECORD
  5
1B
330
1
100
AcDbSymbolTableRecord
100
AcDbBlockTableRecord
  2
*Paper_Space
340
1E
  0
BLOCK_RECORD
  5
23
330
1
100
AcDbSymbolTableRecord
100
AcDbBlockTableRecord
  2
*Paper_Space0
340
26
  0
ENDTAB
  0
ENDSEC
  0
SECTION
  2
BLOCKS
  0
BLOCK
  5
20
330
1F
100
AcDbEntity
  8
0
100
AcDbBlockBegin
  2
*Model_Space
 70
     0
 10
0.0
 20
0.0
 30
0.0
  3
*Model_Space
  1

  0
ENDBLK
  5
21
330
1F
100
AcDbEntity
  8
0
100
AcDbBlockEnd
  0
BLOCK
  5
1C
330
1B
100
AcDbEntity
 67
     1
  8
0
100
AcDbBlockBegin
  2
*Paper_Space
 70
     0
 10
0.0
 20
0.0
 30
0.0
  3
*Paper_Space
  1

  0
ENDBLK
  5
1D
330
1B
100
AcDbEntity
 67
     1
  8
0
100
AcDbBlockEnd
  0
BLOCK
  5
24
330
23
100
AcDbEntity
  8
0
100
AcDbBlockBegin
  2
*Paper_Space0
 70
     0
 10
0.0
 20
0.0
 30
0.0
  3
*Paper_Space0
  1

  0
ENDBLK
  5
25
330
23
100
AcDbEntity
  8
0
100
AcDbBlockEnd
  0
ENDSEC
  0
SECTION
  2
ENTITIES
  0
LINE
  5
7D
330
1F
100
AcDbEntity
  8
通り芯
  6
JWW_CENTER1
 62
     3
370
     9
100
AcDbLine
 10
183.3177075775078
 20
-192.3002046202185
 30
0.0
 11
183.3177075775078
 21
-35.62651786741085
 31
0.0
  0
ARC
  5
7E
330
1F
100
AcDbEntity
  8
通り芯
  6
Continuous
 62
     3
370
     9
100
AcDbCircle
 10
-80.70123158434521
 20
52.17591235823993
 30
0.0
 40
3.0
100
AcDbArc
 50
270.0
 51
0.0
  0
LINE
  5
7F
330
1F
100
AcDbEntity
  8
通り芯
  6
Continuous
 62
     3
370
     9
100
AcDbLine
 10
-92.70350691207514
 20
50.85436804021997
 30
0.0
 11
-79.59407996085602
 21
49.38768437570245
 31
0.0
  0
ARC
  5
80
330
1F
100
AcDbEntity
  8
通り芯
  6
Continuous
 62
     3
370
     9
100
AcDbCircle
 10
-188.0769499009562
 20
69.67593238908283
 30
0.0
 40
4.0
100
AcDbArc
 50
14.30135402788317
 51
90.0
  0
ARC
  5
81
330
1F
100
AcDbEntity
  8
通り芯
  6
Continuous
 62
     3
370
     9
100
AcDbCircle
 10
-59.70123158434521
 20
30.67591235823993
 30
0.0
 40
10.0
100
AcDbArc
 50
270.0
 51
0.0
  0
ARC
  5
82
330
1F
100
AcDbEntity
  8
通り芯
  6
Continuous
 62
     3
370
     9
100
AcDbCircle
 10
-59.70123158434521
 20
29.67591235823993
 30
0.0
 40
10.0
100
AcDbArc
 50
270.0
 51
0.0
  0
ARC
  5
83
330
1F
100
AcDbEntity
  8
通り芯
  6
Continuous
 62
     3
370
     9
100
AcDbCircle
 10
-166.7008797806393
 20
22.48563945097821
 30
0.0
 40
2.0
100
AcDbArc
 50
275.7106024954406
 51
0.0
  0
LINE
  5
84
330
1F
100
AcDbEntity
  8
通り芯
  6
Continuous
 62
     3
370
     9
100
AcDbLine
 10
-166.5018720175647
 20
20.49556510306154
 30
0.0
 11
-174.7008632846512
 21
19.67566462384603
 31
0.0
  0
LINE
  5
85
330
1F
100
AcDbEntity
  8
通り芯
  6
Continuous
 62
     3
370
     9
100
AcDbLine
 10
-59.70123158434521
 20
20.67591235823993
 30
0.0
 11
-165.8494763217498
 21
20.67591235823993
 31
0.0
  0
ARC
  5
86
330
1F
100
AcDbEntity
  8
通り芯
  6
Continuous
 62
     3
370
     9
100
AcDbCircle
 10
-195.2008797806394
 20
64.39658644950394
 30
0.0
 40
1.5
100
AcDbArc
 50
99.09029876251617
 51
180.0
  0
LINE
  5
87
330
1F
100
AcDbEntity
  8
通り芯
  6
Continuous
 62
     3
370
     9
100
AcDbLine
 10
-196.7008797806394
 20
54.95474279818801
 30
0.0
 11
-196.7008797806394
 21
64.39658644950394
 31
0.0
  0
ARC
  5
88
330
1F
100
AcDbEntity
  8
通り芯
  6
Continuous
 62
     3
370
     9
100
AcDbCircle
 10
-195.2008797806394
 20
54.95474279818801
 30
0.0
 40
1.5
100
AcDbArc
 50
180.0
 51
260.9097012374838
  0
LINE
  5
89
330
1F
100
AcDbEntity
  8
通り芯
  6
Continuous
 62
     3
370
     9
100
AcDbLine
 10
-195.437866096932
 20
53.47358194065428
 30
0.0
 11
-184.2009103249756
 21
51.67566462384598
 31
0.0
  0
ARC
  5
8A
330
1F
100
AcDbEntity
  8
通り芯
  6
Continuous
 62
     3
370
     9
100
AcDbCircle
 10
-186.2009103249756
 20
49.97022705805658
 30
0.0
 40
2.0
100
AcDbArc
 50
0.0
 51
80.90970123748329
  0
ARC
  5
8B
330
1F
100
AcDbEntity
  8
通り芯
  6
Continuous
 62
     3
370
     9
100
AcDbCircle
 10
-186.2009103249756
 20
69.38110218963537
 30
0.0
 40
2.0
100
AcDbArc
 50
279.0902987625166
 51
0.0
  0
LINE
  5
8C
330
1F
100
AcDbEntity
  8
通り芯
  6
Continuous
 62
     3
370
     9
100
AcDbLine
 10
-195.437866096932
 20
65.87774730703767
 30
0.0
 11
-184.2009103249756
 21
67.67566462384598
 31
0.0
  0
LINE
  5
8D
330
1F
100
AcDbEntity
  8
通り芯
  6
Continuous
 62
     3
370
     9
100
AcDbLine
 10
-184.2009103249756
 20
50.47834997889866
 30
0.0
 11
-184.2009103249756
 21
115.688082587373
 31
0.0
  0
ARC
  5
8E
330
1F
100
AcDbEntity
  8
通り芯
  6
Continuous
 62
     3
370
     9
100
AcDbCircle
 10
-181.2009103249756
 20
50.47834997889866
 30
0.0
 40
3.0
100
AcDbArc
 50
180.0
 51
260.2863710228357
  0
LINE
  5
8F
330
1F
100
AcDbEntity
  8
通り芯
  6
Continuous
 62
     3
370
     9
100
AcDbLine
 10
-164.7008797806393
 20
49.17606099887631
 30
0.0
 11
-80.70123158434521
 21
49.17606099887631
 31
0.0
  0
LINE
  5
90
330
1F
100
AcDbEntity
  8
通り芯
  6
Continuous
 62
     3
370
     9
100
AcDbLine
 10
-59.70123158434521
 20
19.67591235823993
 30
0.0
 11
-174.7008632846512
 21
19.67591235823993
 31
0.0
  0
LINE
  5
91
330
1F
100
AcDbEntity
  8
通り芯
  6
Continuous
 62
     3
370
     9
100
AcDbLine
 10
-93.81054300764103
 20
50.64264189389978
 30
0.0
 11
-105.2010573749272
 21
50.64264189389978
 31
0.0
  0
LINE
  5
92
330
1F
100
AcDbEntity
  8
通り芯
  6
Continuous
 62
     3
370
     9
100
AcDbLine
 10
-174.7008632846512
 20
46.3220496816737
 30
0.0
 11
-181.7070818587693
 21
47.52135989126278
 31
0.0
  0
LINE
  5
93
330
1F
100
AcDbEntity
  8
0-A
  6
Continuous
 62
     2
370
     9
100
AcDbLine
 10
-163.1007301887845
 20
130.6759254372021
 30
0.0
 11
-164.7008797806393
 21
130.6759254372021
 31
0.0
  0
LINE
  5
94
330
1F
100
AcDbEntity
  8
0-A
  6
Continuous
 62
     2
370
     9
100
AcDbLine
 10
-163.1007301887845
 20
118.6760837986885
 30
0.0
 11
-164.7008797806393
 21
118.6760837986885
 31
0.0
  0
LINE
  5
95
330
1F
100
AcDbEntity
  8
通り芯
  6
Continuous
 62
     3
370
     9
100
AcDbLine
 10
-210.3704967322022
 20
73.67593238908283
 30
0.0
 11
-188.0769499009562
 21
73.67593238908283
 31
0.0
  0
ARC
  5
96
330
1F
100
AcDbEntity
  8
通り芯
  6
Continuous
 62
     3
370
     9
100
AcDbCircle
 10
-80.70123158434521
 20
197.1759524199257
 30
0.0
 40
3.0
100
AcDbArc
 50
0.0000000000000127
 51
90.0
  0
LINE
  5
97
330
1F
100
AcDbEntity
  8
通り芯
  6
Continuous
 62
     3
370
     9
100
AcDbLine
 10
-92.70350691207514
 20
198.4974967379457
 30
0.0
 11
-79.59407996085602
 21
199.9641804024632
 31
0.0
  0
ARC
  5
98
330
1F
100
AcDbEntity
  8
通り芯
  6
Continuous
 62
     3
370
     9
100
AcDbCircle
 10
-188.0769499009562
 20
179.6759323890828
 30
0.0
 40
4.0
100
AcDbArc
 50
270.0
 51
345.6986459721168
  0
ARC
  5
99
330
1F
100
AcDbEntity
  8
通り芯
  6
Continuous
 62
     3
370
     9
100
AcDbCircle
 10
-59.70123158434521
 20
218.6759524199257
 30
0.0
 40
10.0
100
AcDbArc
 50
0.0
 51
90.0
  0
ARC
  5
9A
330
1F
100
AcDbEntity
  8
通り芯
  6
Continuous
 62
     3
370
     9
100
AcDbCircle
 10
-59.70123158434521
 20
219.6759524199257
 30
0.0
 40
10.0
100
AcDbArc
 50
0.0
 51
90.0
  0
ARC
  5
9B
330
1F
100
AcDbEntity
  8
通り芯
  6
Continuous
 62
     3
370
     9
100
AcDbCircle
 10
-166.7008797806393
 20
226.8662253271875
 30
0.0
 40
2.0
100
AcDbArc
 50
0.0
 51
84.28939750455936
  0
LINE
  5
9C
330
1F
100
AcDbEntity
  8
通り芯
  6
Continuous
 62
     3
370
     9
100
AcDbLine
 10
-166.5018720175647
 20
228.8562996751041
 30
0.0
 11
-174.7008632846512
 21
229.6762001543196
 31
0.0
  0
LINE
  5
9D
330
1F
100
AcDbEntity
  8
通り芯
  6
Continuous
 62
     3
370
     9
100
AcDbLine
 10
-59.70123158434521
 20
228.6759524199257
 30
0.0
 11
-165.8494763217498
 21
228.6759524199257
 31
0.0
  0
ARC
  5
9E
330
1F
100
AcDbEntity
  8
通り芯
  6
Continuous
 62
     3
370
     9
100
AcDbCircle
 10
-195.2008797806394
 20
184.9552783286617
 30
0.0
 40
1.5
100
AcDbArc
 50
180.0
 51
260.9097012374838
  0
LINE
  5
9F
330
1F
100
AcDbEntity
  8
通り芯
  6
Continuous
 62
     3
370
     9
100
AcDbLine
 10
-196.7008797806394
 20
194.3971219799777
 30
0.0
 11
-196.7008797806394
 21
184.9552783286617
 31
0.0
  0
ARC
  5
A0
330
1F
100
AcDbEntity
  8
通り芯
  6
Continuous
 62
     3
370
     9
100
AcDbCircle
 10
-195.2008797806394
 20
194.3971219799777
 30
0.0
 40
1.5
100
AcDbArc
 50
99.09029876251617
 51
180.0
  0
LINE
  5
A1
330
1F
100
AcDbEntity
  8
通り芯
  6
Continuous
 62
     3
370
     9
100
AcDbLine
 10
-195.437866096932
 20
195.8782828375114
 30
0.0
 11
-184.2009103249756
 21
197.6762001543197
 31
0.0
  0
ARC
  5
A2
330
1F
100
AcDbEntity
  8
通り芯
  6
Continuous
 62
     3
370
     9
100
AcDbCircle
 10
-186.2009103249756
 20
199.3816377201091
 30
0.0
 40
2.0
100
AcDbArc
 50
279.0902987625167
 51
0.0
  0
ARC
  5
A3
330
1F
100
AcDbEntity
  8
通り芯
  6
Continuous
 62
     3
370
     9
100
AcDbCircle
 10
-186.2009103249756
 20
179.9707625885303
 30
0.0
 40
2.0
100
AcDbArc
 50
0.0
 51
80.90970123748343
  0
LINE
  5
A4
330
1F
100
AcDbEntity
  8
通り芯
  6
Continuous
 62
     3
370
     9
100
AcDbLine
 10
-195.437866096932
 20
183.474117471128
 30
0.0
 11
-184.2009103249756
 21
181.6762001543197
 31
0.0
  0
ARC
  5
A5
330
1F
100
AcDbEntity
  8
通り芯
  6
Continuous
 62
     3
370
     9
100
AcDbCircle
 10
-181.2009103249756
 20
198.873514799267
 30
0.0
 40
3.0
100
AcDbArc
 50
99.71362897716425
 51
180.0
  0
LINE
  5
A6
330
1F
100
AcDbEntity
  8
通り芯
  6
Continuous
 62
     3
370
     9
100
AcDbLine
 10
-164.7008797806393
 20
200.1758037792894
 30
0.0
 11
-80.70123158434521
 21
200.1758037792894
 31
0.0
  0
LINE
  5
A7
330
1F
100
AcDbEntity
  8
通り芯
  6
Continuous
 62
     3
370
     9
100
AcDbLine
 10
-59.70123158434521
 20
229.6759524199257
 30
0.0
 11
-174.7008632846512
 21
229.6759524199257
 31
0.0
  0
LINE
  5
A8
330
1F
100
AcDbEntity
  8
通り芯
  6
Continuous
 62
     3
370
     9
100
AcDbLine
 10
-93.81054300764103
 20
198.7092228842659
 30
0.0
 11
-105.2010573749272
 21
198.7092228842659
 31
0.0
  0
LINE
  5
A9
330
1F
100
AcDbEntity
  8
通り芯
  6
Continuous
 62
     3
370
     9
100
AcDbLine
 10
-174.7008632846512
 20
203.029815096492
 30
0.0
 11
-181.7070818587693
 21
201.8305048869029
 31
0.0
  0
LINE
  5
AA
330
1F
100
AcDbEntity
  8
通り芯
  6
Continuous
 62
     3
370
     9
100
AcDbLine
 10
-210.3704967322022
 20
175.6759323890828
 30
0.0
 11
-188.0769499009562
 21
175.6759323890828
 31
0.0
  0
ELLIPSE
  5
AB
330
1F
100
AcDbEntity
  8
通り芯
  6
Continuous
 62
     3
370
     9
100
AcDbEllipse
 10
-210.3704967322022
 20
124.6759323890828
 30
0.0
 11
3.122849337825753E-15
 21
-51.00000000000004
 31
0.0
210
0.0
220
0.0
230
1.0
 40
0.0203603668986864
 41
3.141592653589787
 42
6.283185307179586
  0
ELLIPSE
  5
AC
330
1F
100
AcDbEntity
  8
建具
  6
Continuous
 62
     4
370
     9
100
AcDbEllipse
 10
-210.6641442283503
 20
124.6759323890828
 30
0.0
 11
3.245314017740487E-15
 21
-53.00000000000001
 31
0.0
210
0.0
220
0.0
230
1.0
 40
0.020360790466796
 41
2.866000204297998
 42
6.558777756471361
  0
LINE
  5
AD
330
1F
100
AcDbEntity
  8
通り芯
  6
Continuous
 62
     3
370
     9
100
AcDbLine
 10
-49.70123158434521
 20
29.67591235823993
 30
0.0
 11
-49.70123158434521
 21
219.6759524199257
 31
0.0
  0
LINE
  5
AE
330
1F
100
AcDbEntity
  8
通り芯
  6
Continuous
 62
     3
370
     9
100
AcDbLine
 10
-77.70123158434521
 20
52.17591235823993
 30
0.0
 11
-77.70123158434521
 21
197.1759524199257
 31
0.0
  0
ARC
  5
AF
330
1F
100
AcDbEntity
  8
通り芯
  6
Continuous
 62
     3
370
     9
100
AcDbCircle
 10
-93.81054300764103
 20
53.64264189389978
 30
0.0
 40
3.0
100
AcDbArc
 50
270.0
 51
304.6908591738519
  0
ARC
  5
B0
330
1F
100
AcDbEntity
  8
通り芯
  6
Continuous
 62
     3
370
     9
100
AcDbCircle
 10
-105.2010573749272
 20
52.14264189389978
 30
0.0
 40
1.5
100
AcDbArc
 50
270.0
 51
319.8740726650898
  0
LINE
  5
B1
330
1F
100
AcDbEntity
  8
通り芯
  6
Continuous
 62
     3
370
     9
100
AcDbLine
 10
-110.0513482598115
 20
51.17593733787932
 30
0.0
 11
-105.2010573749272
 21
50.64264189389978
 31
0.0
  0
LINE
  5
B2
330
1F
100
AcDbEntity
  8
通り芯
  6
JWW_CENTER1
 62
     3
370
     9
100
AcDbLine
 10
-293.7362637362638
 20
124.6759323890828
 30
0.0
 11
-41.4540120778054
 21
124.6759323890828
 31
0.0
  0
LINE
  5
B3
330
1F
100
AcDbEntity
  8
建具
  6
JWW_PHANTOM1
 62
     7
370
     9
100
AcDbLine
 10
-284.7008797806393
 20
69.6913891300034
 30
0.0
 11
-284.7008797806393
 21
179.6604509041799
 31
0.0
  0
LINE
  5
B4
330
1F
100
AcDbEntity
  8
建具
  6
Continuous
 62
     4
370
     9
100
AcDbLine
 10
-275.5830047454716
 20
177.6759323890828
 30
0.0
 11
-210.6641442283503
 21
177.6759323890828
 31
0.0
  0
LINE
  5
B5
330
1F
100
AcDbEntity
  8
建具
  6
Continuous
 62
     4
370
     9
100
AcDbLine
 10
-275.5830047454716
 20
71.67593238908283
 30
0.0
 11
-210.6641442283503
 21
71.67593238908283
 31
0.0
  0
ELLIPSE
  5
B6
330
1F
100
AcDbEntity
  8
建具
  6
Continuous
 62
     4
370
     9
100
AcDbEllipse
 10
-275.5830047454716
 20
124.6759323890828
 30
0.0
 11
3.245314017740487E-15
 21
-53.00000000000001
 31
0.0
210
0.0
220
0.0
230
1.0
 40
0.020360790466796
 41
3.141592653589787
 42
6.283185307179586
  0
LINE
  5
B7
330
1F
100
AcDbEntity
  8
建具
  6
JWW_PHANTOM1
 62
     7
370
     9
100
AcDbLine
 10
-284.7008797806393
 20
69.6913891300034
 30
0.0
 11
-275.5830047454716
 21
71.67593238908283
 31
0.0
  0
LINE
  5
B8
330
1F
100
AcDbEntity
  8
建具
  6
JWW_PHANTOM1
 62
     7
370
     9
100
AcDbLine
 10
-275.5830047454716
 20
177.6759323890828
 30
0.0
 11
-284.7008797806393
 21
179.6604509041799
 31
0.0
  0
CIRCLE
  5
B9
330
1F
100
AcDbEntity
  8
寸法
  6
Continuous
 62
     3
370
     9
100
AcDbCircle
 10
-216.7008489979472
 20
59.67566462384598
 30
0.0
 40
3.000212150190663
  0
LINE
  5
BA
330
1F
100
AcDbEntity
  8
寸法
  6
JWW_CENTER1
 62
     3
370
     9
100
AcDbLine
 10
-216.7008489979472
 20
64.28077184246119
 30
0.0
 11
-216.7008489979472
 21
54.69192461816344
 31
0.0
  0
LINE
  5
BB
330
1F
100
AcDbEntity
  8
寸法
  6
Continuous
 62
     3
370
     9
100
AcDbLine
 10
-198.7008643156505
 20
62.85077725609646
 30
0.0
 11
-196.7008797806394
 21
62.85077725609646
 31
0.0
  0
LINE
  5
BC
330
1F
100
AcDbEntity
  8
寸法
  6
Continuous
 62
     3
370
     9
100
AcDbLine
 10
-198.7008643156505
 20
62.03568155344276
 30
0.0
 11
-196.7008797806394
 21
62.03568155344276
 31
0.0
  0
LINE
  5
BD
330
1F
100
AcDbEntity
  8
寸法
  6
Continuous
 62
     3
370
     9
100
AcDbLine
 10
-198.7008643156505
 20
62.85077725609646
 30
0.0
 11
-198.7008643156505
 21
56.50089881974661
 31
0.0
  0
LINE
  5
BE
330
1F
100
AcDbEntity
  8
寸法
  6
Continuous
 62
     3
370
     9
100
AcDbLine
 10
-198.7008643156505
 20
57.31574678800636
 30
0.0
 11
-196.7008797806394
 21
57.31574678800636
 31
0.0
  0
LINE
  5
BF
330
1F
100
AcDbEntity
  8
寸法
  6
Continuous
 62
     3
370
     9
100
AcDbLine
 10
-198.7008643156505
 20
56.50089881974661
 30
0.0
 11
-196.7008797806394
 21
56.50089881974661
 31
0.0
  0
LINE
  5
C0
330
1F
100
AcDbEntity
  8
寸法
  6
Continuous
 62
     3
370
     9
100
AcDbLine
 10
-216.7008489979472
 20
56.67579930180652
 30
0.0
 11
-198.7008643156505
 21
56.67579930180652
 31
0.0
  0
LINE
  5
C1
330
1F
100
AcDbEntity
  8
寸法
  6
Continuous
 62
     3
370
     9
100
AcDbLine
 10
-216.7008489979472
 20
62.67587677403655
 30
0.0
 11
-198.7008643156505
 21
62.67587677403655
 31
0.0
  0
CIRCLE
  5
C2
330
1F
100
AcDbEntity
  8
寸法
  6
Continuous
 62
     3
370
     9
100
AcDbCircle
 10
-216.7008489979472
 20
189.6762001543197
 30
0.0
 40
3.000212150190663
  0
LINE
  5
C3
330
1F
100
AcDbEntity
  8
寸法
  6
JWW_CENTER1
 62
     3
370
     9
100
AcDbLine
 10
-216.7008489979472
 20
194.2813073729349
 30
0.0
 11
-216.7008489979472
 21
184.6924601486372
 31
0.0
  0
LINE
  5
C4
330
1F
100
AcDbEntity
  8
寸法
  6
Continuous
 62
     3
370
     9
100
AcDbLine
 10
-198.7008643156505
 20
192.8513127865702
 30
0.0
 11
-196.7008797806394
 21
192.8513127865702
 31
0.0
  0
LINE
  5
C5
330
1F
100
AcDbEntity
  8
寸法
  6
Continuous
 62
     3
370
     9
100
AcDbLine
 10
-198.7008643156505
 20
192.0362170839165
 30
0.0
 11
-196.7008797806394
 21
192.0362170839165
 31
0.0
  0
LINE
  5
C6
330
1F
100
AcDbEntity
  8
寸法
  6
Continuous
 62
     3
370
     9
100
AcDbLine
 10
-198.7008643156505
 20
192.8513127865702
 30
0.0
 11
-198.7008643156505
 21
186.5014343502203
 31
0.0
  0
LINE
  5
C7
330
1F
100
AcDbEntity
  8
寸法
  6
Continuous
 62
     3
370
     9
100
AcDbLine
 10
-198.7008643156505
 20
187.3162823184801
 30
0.0
 11
-196.7008797806394
 21
187.3162823184801
 31
0.0
  0
LINE
  5
C8
330
1F
100
AcDbEntity
  8
寸法
  6
Continuous
 62
     3
370
     9
100
AcDbLine
 10
-198.7008643156505
 20
186.5014343502203
 30
0.0
 11
-196.7008797806394
 21
186.5014343502203
 31
0.0
  0
LINE
  5
C9
330
1F
100
AcDbEntity
  8
寸法
  6
Continuous
 62
     3
370
     9
100
AcDbLine
 10
-216.7008489979472
 20
186.6763348322802
 30
0.0
 11
-198.7008643156505
 21
186.6763348322802
 31
0.0
  0
LINE
  5
CA
330
1F
100
AcDbEntity
  8
寸法
  6
Continuous
 62
     3
370
     9
100
AcDbLine
 10
-216.7008489979472
 20
192.6764123045103
 30
0.0
 11
-198.7008643156505
 21
192.6764123045103
 31
0.0
  0
ARC
  5
CB
330
1F
100
AcDbEntity
  8
通り芯
  6
Continuous
 62
     3
370
     9
100
AcDbCircle
 10
-93.81054300764103
 20
195.7092228842659
 30
0.0
 40
3.0
100
AcDbArc
 50
55.30748022095266
 51
90.0
  0
LINE
  5
CC
330
1F
100
AcDbEntity
  8
通り芯
  6
Continuous
 62
     3
370
     9
100
AcDbLine
 10
-110.0517983499547
 20
198.1758779523219
 30
0.0
 11
-105.2010573749272
 21
198.7092228842659
 31
0.0
  0
ARC
  5
CD
330
1F
100
AcDbEntity
  8
通り芯
  6
Continuous
 62
     3
370
     9
100
AcDbCircle
 10
-105.2010573749272
 20
197.2092228842659
 30
0.0
 40
1.5
100
AcDbArc
 50
40.1234552019702
 51
90.0
  0
LINE
  5
CE
330
1F
100
AcDbEntity
  8
通り芯
  6
JWW_CENTER1
 62
     3
370
     9
100
AcDbLine
 10
-222.3859678782756
 20
189.6762001543197
 30
0.0
 11
-183.4199139681489
 21
189.6762001543197
 31
0.0
  0
ELLIPSE
  5
CF
330
1F
100
AcDbEntity
  8
通り芯
  6
Continuous
 62
     3
370
     9
100
AcDbEllipse
 10
-183.1625316131426
 20
124.6759323890828
 30
0.0
 11
3.122849337825753E-15
 21
-51.00000000000004
 31
0.0
210
0.0
220
0.0
230
1.0
 40
0.0203603668986864
 41
3.740598802574575
 42
6.283185307179586
  0
LINE
  5
D0
330
1F
100
AcDbEntity
  8
通り芯
  6
Continuous
 62
     3
370
     9
100
AcDbLine
 10
-184.2009103249756
 20
198.873514799267
 30
0.0
 11
-184.2009103249756
 21
133.6637821907926
 31
0.0
  0
LINE
  5
D1
330
1F
100
AcDbEntity
  8
通り芯
  6
Continuous
 62
     3
370
     9
100
AcDbLine
 10
-164.7008797806393
 20
22.48563945097821
 30
0.0
 11
-164.7008797806393
 21
226.8662253271875
 31
0.0
  0
LINE
  5
D2
330
1F
100
AcDbEntity
  8
通り芯
  6
Continuous
 62
     3
370
     9
100
AcDbLine
 10
-174.7008632846512
 20
19.67566462384603
 30
0.0
 11
-174.7008632846512
 21
229.6762001543196
 31
0.0
  0
LINE
  5
D3
330
1F
100
AcDbEntity
  8
通り芯
  6
JWW_CENTER1
 62
     3
370
     9
100
AcDbLine
 10
-222.3859678782756
 20
59.67566462384598
 30
0.0
 11
-183.4199139681489
 21
59.67566462384598
 31
0.0
  0
ARC
  5
D4
330
1F
100
AcDbEntity
  8
通り芯
  6
Continuous
 62
     3
370
     9
100
AcDbCircle
 10
108.5044129516228
 20
-172.1725918437028
 30
0.0
 40
3.0
100
AcDbArc
 50
187.5946433685912
 51
270.0
  0
ARC
  5
D5
330
1F
100
AcDbEntity
  8
通り芯
  6
Continuous
 62
     3
370
     9
100
AcDbCircle
 10
110.8176875466649
 20
-71.67455240568799
 30
0.0
 40
3.0
100
AcDbArc
 50
90.0
 51
180.0
  0
LINE
  5
D6
330
1F
100
AcDbEntity
  8
通り芯
  6
JWW_CENTER1
 62
     3
370
     9
100
AcDbLine
 10
176.7743485795592
 20
-89.67472832361901
 30
0.0
 11
190.1502221599614
 21
-89.67472832361901
 31
0.0
  0
LINE
  5
D7
330
1F
100
AcDbEntity
  8
通り芯
  6
Continuous
 62
     3
370
     9
100
AcDbLine
 10
109.4961276368857
 20
-83.67671892074347
 30
0.0
 11
108.0294592276921
 21
-70.56740162947133
 31
0.0
  0
ARC
  5
D8
330
1F
100
AcDbEntity
  8
通り芯
  6
Continuous
 62
     3
370
     9
100
AcDbCircle
 10
81.12766237379716
 20
-157.6725918437028
 30
0.0
 40
2.0
100
AcDbArc
 50
90.0
 51
174.2893975045594
  0
ARC
  5
D9
330
1F
100
AcDbEntity
  8
通り芯
  6
Continuous
 62
     3
370
     9
100
AcDbCircle
 10
89.31768754666493
 20
-50.67455240568793
 30
0.0
 40
10.0
100
AcDbArc
 50
90.0
 51
180.0
  0
LINE
  5
DA
330
1F
100
AcDbEntity
  8
通り芯
  6
Continuous
 62
     3
370
     9
100
AcDbLine
 10
78.31768754666493
 20
-50.67455240568793
 30
0.0
 11
78.31768754666493
 21
-165.6725753477147
 31
0.0
  0
ARC
  5
DB
330
1F
100
AcDbEntity
  8
通り芯
  6
Continuous
 62
     3
370
     9
100
AcDbCircle
 10
88.31768754666493
 20
-50.67455240568793
 30
0.0
 40
10.0
100
AcDbArc
 50
90.0
 51
180.0
  0
ARC
  5
DC
330
1F
100
AcDbEntity
  8
通り芯
  6
Continuous
 62
     3
370
     9
100
AcDbCircle
 10
108.7132855375184
 20
-180.6725918437028
 30
0.0
 40
2.0
100
AcDbArc
 50
12.52880770915041
 51
90.0
  0
ARC
  5
DD
330
1F
100
AcDbEntity
  8
通り芯
  6
Continuous
 62
     3
370
     9
100
AcDbCircle
 10
127.9219719629818
 20
-180.6725918437028
 30
0.0
 40
2.0
100
AcDbArc
 50
90.0
 51
167.4711922908496
  0
ARC
  5
DE
330
1F
100
AcDbEntity
  8
通り芯
  6
Continuous
 62
     3
370
     9
100
AcDbCircle
 10
106.1642723368692
 20
-177.1725918437028
 30
0.0
 40
1.5
100
AcDbArc
 50
186.1701750950301
 51
270.0
  0
LINE
  5
DF
330
1F
100
AcDbEntity
  8
通り芯
  6
Continuous
 62
     3
370
     9
100
AcDbLine
 10
130.6861109417372
 20
-178.6725918437028
 30
0.0
 11
106.1642723368692
 21
-178.6725918437028
 31
0.0
  0
LINE
  5
E0
330
1F
100
AcDbEntity
  8
通り芯
  6
Continuous
 62
     3
370
     9
100
AcDbLine
 10
132.1283968631984
 20
-177.5846735355488
 30
0.0
 11
132.8175630608688
 21
-175.1725918437028
 31
0.0
  0
ARC
  5
E1
330
1F
100
AcDbEntity
  8
通り芯
  6
Continuous
 62
     3
370
     9
100
AcDbCircle
 10
130.6861109417372
 20
-177.1725918437028
 30
0.0
 40
1.5
100
AcDbArc
 50
270.0
 51
344.0546040990772
  0
ARC
  5
E2
330
1F
100
AcDbEntity
  8
通り芯
  6
Continuous
 62
     3
370
     9
100
AcDbCircle
 10
133.9490151800004
 20
-176.6725918437028
 30
0.0
 40
1.5
100
AcDbArc
 50
90.0
 51
164.054604099075
  0
ARC
  5
E3
330
1F
100
AcDbEntity
  8
通り芯
  6
Continuous
 62
     3
370
     9
100
AcDbCircle
 10
113.5208861597988
 20
-186.1725918437028
 30
0.0
 40
1.5
100
AcDbArc
 50
192.5288077091516
 51
270.0
  0
LINE
  5
E4
330
1F
100
AcDbEntity
  8
通り芯
  6
Continuous
 62
     3
370
     9
100
AcDbLine
 10
123.1143713407013
 20
-187.6725918437028
 30
0.0
 11
113.5208861597988
 21
-187.6725918437028
 31
0.0
  0
LINE
  5
E5
330
1F
100
AcDbEntity
  8
通り芯
  6
Continuous
 62
     3
370
     9
100
AcDbLine
 10
124.5786519309771
 20
-186.4979875304307
 30
0.0
 11
125.9695978426138
 21
-180.2387309280655
 31
0.0
  0
ARC
  5
E6
330
1F
100
AcDbEntity
  8
通り芯
  6
Continuous
 62
     3
370
     9
100
AcDbCircle
 10
123.1143713407013
 20
-186.1725918437028
 30
0.0
 40
1.5
100
AcDbArc
 50
270.0
 51
347.4711922908493
  0
LINE
  5
E7
330
1F
100
AcDbEntity
  8
通り芯
  6
Continuous
 62
     3
370
     9
100
AcDbLine
 10
109.2843582859099
 20
-84.78386382898375
 30
0.0
 11
109.2843582859099
 21
-96.67468158597254
 31
0.0
  0
ARC
  5
E8
330
1F
100
AcDbEntity
  8
通り芯
  6
Continuous
 62
     3
370
     9
100
AcDbCircle
 10
109.0719013801791
 20
-176.4287550578758
 30
0.0
 40
3.0
100
AcDbArc
 50
228.4127310215889
 51
270.0
  0
ARC
  5
E9
330
1F
100
AcDbEntity
  8
通り芯
  6
Continuous
 62
     3
370
     9
100
AcDbCircle
 10
183.3177075775078
 20
-135.8498395983334
 30
0.0
 40
51.82515351805191
100
AcDbArc
 50
237.2335308822979
 51
302.7664691177021
  0
ARC
  5
EA
330
1F
100
AcDbEntity
  8
通り芯
  6
Continuous
 62
     3
370
     9
100
AcDbCircle
 10
183.3177075775078
 20
-135.8498395983334
 30
0.0
 40
51.01054923342306
100
AcDbArc
 50
238.6837912431432
 51
301.3162087568568
  0
LINE
  5
EB
330
1F
100
AcDbEntity
  8
通り芯
  6
Continuous
 62
     3
370
     9
100
AcDbLine
 10
112.056605569523
 20
-186.4979875304308
 30
0.0
 11
110.6656596578862
 21
-180.2387309280655
 31
0.0
  0
LINE
  5
EC
330
1F
100
AcDbEntity
  8
通り芯
  6
Continuous
 62
     3
370
     9
100
AcDbLine
 10
109.0719013801791
 20
-179.4287550578758
 30
0.0
 11
110.2794496573422
 21
-179.4287550578758
 31
0.0
  0
ARC
  5
ED
330
1F
100
AcDbEntity
  8
通り芯
  6
Continuous
 62
     3
370
     9
100
AcDbCircle
 10
265.3841005835615
 20
-163.1725918437028
 30
0.0
 40
3.0
100
AcDbArc
 50
90.0
 51
172.4053566314088
  0
ARC
  5
EE
330
1F
100
AcDbEntity
  8
通り芯
  6
Continuous
 62
     3
370
     9
100
AcDbCircle
 10
254.1911784182664
 20
-167.6725918437028
 30
0.0
 40
3.0
100
AcDbArc
 50
270.0
 51
352.4053566314086
  0
ARC
  5
EF
330
1F
100
AcDbEntity
  8
通り芯
  6
Continuous
 62
     3
370
     9
100
AcDbCircle
 10
256.0377822740637
 20
-165.1726223880391
 30
0.0
 40
1.5
100
AcDbArc
 50
270.0
 51
352.4053566314086
  0
ARC
  5
F0
330
1F
100
AcDbEntity
  8
通り芯
  6
Continuous
 62
     3
370
     9
100
AcDbCircle
 10
247.1466239641962
 20
-169.1725918437028
 30
0.0
 40
1.5
100
AcDbArc
 50
270.0
 51
345.9636535865361
  0
LINE
  5
F1
330
1F
100
AcDbEntity
  8
通り芯
  6
Continuous
 62
     3
370
     9
100
AcDbLine
 10
250.4889488453351
 20
-166.6726223880391
 30
0.0
 11
256.0377822740637
 21
-166.6726223880391
 31
0.0
  0
LINE
  5
F2
330
1F
100
AcDbEntity
  8
通り芯
  6
Continuous
 62
     3
370
     9
100
AcDbLine
 10
249.0337357487791
 20
-167.8088163358465
 30
0.0
 11
248.6018370607522
 21
-169.5363978958954
 31
0.0
  0
ARC
  5
F3
330
1F
100
AcDbEntity
  8
通り芯
  6
Continuous
 62
     3
370
     9
100
AcDbCircle
 10
250.4889488453351
 20
-168.1726223880391
 30
0.0
 40
1.5
100
AcDbArc
 50
90.0
 51
165.9636535865359
  0
ARC
  5
F4
330
1F
100
AcDbEntity
  8
通り芯
  6
Continuous
 62
     3
370
     9
100
AcDbCircle
 10
258.1310022033929
 20
-172.1725918437028
 30
0.0
 40
3.0
100
AcDbArc
 50
270.0
 51
352.4053566314088
  0
ARC
  5
F5
330
1F
100
AcDbEntity
  8
通り芯
  6
Continuous
 62
     3
370
     9
100
AcDbCircle
 10
255.8177276083507
 20
-71.67455240568799
 30
0.0
 40
3.0
100
AcDbArc
 50
0.0
 51
90.0
  0
LINE
  5
F6
330
1F
100
AcDbEntity
  8
通り芯
  6
Continuous
 62
     3
370
     9
100
AcDbLine
 10
257.13928751813
 20
-83.67671892074347
 30
0.0
 11
258.6059559273236
 21
-70.56740162947128
 31
0.0
  0
LINE
  5
F7
330
1F
100
AcDbEntity
  8
通り芯
  6
Continuous
 62
     3
370
     9
100
AcDbLine
 10
288.3177276083508
 20
-165.6725753477147
 30
0.0
 11
283.3177276083508
 21
-165.6725753477147
 31
0.0
  0
ARC
  5
F8
330
1F
100
AcDbEntity
  8
通り芯
  6
Continuous
 62
     3
370
     9
100
AcDbCircle
 10
285.5077527812185
 20
-157.6725918437028
 30
0.0
 40
2.0
100
AcDbArc
 50
5.710602495440642
 51
90.0
  0
ARC
  5
F9
330
1F
100
AcDbEntity
  8
通り芯
  6
Continuous
 62
     3
370
     9
100
AcDbCircle
 10
277.3177276083508
 20
-50.67455240568793
 30
0.0
 40
10.0
100
AcDbArc
 50
0.0
 51
90.0
  0
LINE
  5
FA
330
1F
100
AcDbEntity
  8
通り芯
  6
Continuous
 62
     3
370
     9
100
AcDbLine
 10
288.3177276083508
 20
-50.67455240568793
 30
0.0
 11
288.3177276083508
 21
-165.6725753477147
 31
0.0
  0
ARC
  5
FB
330
1F
100
AcDbEntity
  8
通り芯
  6
Continuous
 62
     3
370
     9
100
AcDbCircle
 10
278.3177276083508
 20
-50.67455240568793
 30
0.0
 40
10.0
100
AcDbArc
 50
0.0
 51
90.0
  0
ARC
  5
FC
330
1F
100
AcDbEntity
  8
通り芯
  6
Continuous
 62
     3
370
     9
100
AcDbCircle
 10
257.9221296174973
 20
-180.6725918437028
 30
0.0
 40
2.0
100
AcDbArc
 50
90.0
 51
167.4711922908496
  0
ARC
  5
FD
330
1F
100
AcDbEntity
  8
通り芯
  6
Continuous
 62
     3
370
     9
100
AcDbCircle
 10
266.5108765098588
 20
-163.1725918437028
 30
0.0
 40
3.0
100
AcDbArc
 50
90.0
 51
173.8298249049701
  0
ARC
  5
FE
330
1F
100
AcDbEntity
  8
通り芯
  6
Continuous
 62
     3
370
     9
100
AcDbCircle
 10
238.7134431920339
 20
-180.6725918437028
 30
0.0
 40
2.0
100
AcDbArc
 50
12.52880770915042
 51
90.00000000000001
  0
LINE
  5
FF
330
1F
100
AcDbEntity
  8
通り芯
  6
Continuous
 62
     3
370
     9
100
AcDbLine
 10
261.9624533894952
 20
-177.3338146081729
 30
0.0
 11
263.5282553671613
 21
-162.8501463147625
 31
0.0
  0
ARC
  5
100
330
1F
100
AcDbEntity
  8
通り芯
  6
Continuous
 62
     3
370
     9
100
AcDbCircle
 10
260.4711428181464
 20
-177.1725918437028
 30
0.0
 40
1.5
100
AcDbArc
 50
270.0
 51
353.8298249049699
  0
LINE
  5
101
330
1F
100
AcDbEntity
  8
通り芯
  6
Continuous
 62
     3
370
     9
100
AcDbLine
 10
235.9493042132785
 20
-178.6725918437028
 30
0.0
 11
260.4711428181464
 21
-178.6725918437028
 31
0.0
  0
LINE
  5
102
330
1F
100
AcDbEntity
  8
通り芯
  6
Continuous
 62
     3
370
     9
100
AcDbLine
 10
234.5070182918172
 20
-177.5846735355488
 30
0.0
 11
233.8178520941468
 21
-175.1725918437028
 31
0.0
  0
ARC
  5
103
330
1F
100
AcDbEntity
  8
通り芯
  6
Continuous
 62
     3
370
     9
100
AcDbCircle
 10
235.9493042132785
 20
-177.1725918437028
 30
0.0
 40
1.5
100
AcDbArc
 50
195.9453959009229
 51
270.0
  0
ARC
  5
104
330
1F
100
AcDbEntity
  8
通り芯
  6
Continuous
 62
     3
370
     9
100
AcDbCircle
 10
232.6863999750152
 20
-176.6725918437028
 30
0.0
 40
1.5
100
AcDbArc
 50
15.945395900925
 51
90.0
  0
ARC
  5
105
330
1F
100
AcDbEntity
  8
通り芯
  6
Continuous
 62
     3
370
     9
100
AcDbCircle
 10
253.1145289952168
 20
-186.1725918437028
 30
0.0
 40
1.5
100
AcDbArc
 50
270.0
 51
347.4711922908485
  0
LINE
  5
106
330
1F
100
AcDbEntity
  8
通り芯
  6
Continuous
 62
     3
370
     9
100
AcDbLine
 10
243.5210438143144
 20
-187.6725918437028
 30
0.0
 11
253.1145289952168
 21
-187.6725918437028
 31
0.0
  0
LINE
  5
107
330
1F
100
AcDbEntity
  8
通り芯
  6
Continuous
 62
     3
370
     9
100
AcDbLine
 10
242.0567632240385
 20
-186.4979875304307
 30
0.0
 11
240.6658173124019
 21
-180.2387309280655
 31
0.0
  0
ARC
  5
108
330
1F
100
AcDbEntity
  8
通り芯
  6
Continuous
 62
     3
370
     9
100
AcDbCircle
 10
243.5210438143144
 20
-186.1725918437028
 30
0.0
 40
1.5
100
AcDbArc
 50
192.5288077091508
 51
270.0
  0
LINE
  5
109
330
1F
100
AcDbEntity
  8
通り芯
  6
Continuous
 62
     3
370
     9
100
AcDbLine
 10
278.1448480801706
 20
-160.1725918437028
 30
0.0
 11
265.3841005835615
 21
-160.1725918437028
 31
0.0
  0
LINE
  5
10A
330
1F
100
AcDbEntity
  8
通り芯
  6
Continuous
 62
     3
370
     9
100
AcDbLine
 10
283.0641971585254
 20
-164.2781620559105
 30
0.0
 11
283.3177276083508
 21
-165.6725753477147
 31
0.0
  0
ARC
  5
10B
330
1F
100
AcDbEntity
  8
通り芯
  6
Continuous
 62
     3
370
     9
100
AcDbCircle
 10
278.1448480801706
 20
-165.1725918437028
 30
0.0
 40
5.0
100
AcDbArc
 50
10.30487671366895
 51
90.0
  0
LINE
  5
10C
330
1F
100
AcDbEntity
  8
通り芯
  6
Continuous
 62
     3
370
     9
100
AcDbLine
 10
257.3510568691058
 20
-84.78386382898375
 30
0.0
 11
257.3510568691058
 21
-96.67468158597254
 31
0.0
  0
LINE
  5
10D
330
1F
100
AcDbEntity
  8
通り芯
  6
Continuous
 62
     3
370
     9
100
AcDbLine
 10
261.1046859054409
 20
-172.5690830039758
 30
0.0
 11
262.4104168815136
 21
-162.7761006834297
 31
0.0
  0
ARC
  5
10E
330
1F
100
AcDbEntity
  8
通り芯
  6
Continuous
 62
     3
370
     9
100
AcDbCircle
 10
257.5635137748366
 20
-176.4287550578758
 30
0.0
 40
3.0
100
AcDbArc
 50
270.0
 51
311.5872689784111
  0
LINE
  5
10F
330
1F
100
AcDbEntity
  8
通り芯
  6
Continuous
 62
     3
370
     9
100
AcDbLine
 10
254.5788095854927
 20
-186.4979875304308
 30
0.0
 11
255.9697554971294
 21
-180.2387309280655
 31
0.0
  0
LINE
  5
110
330
1F
100
AcDbEntity
  8
通り芯
  6
Continuous
 62
     3
370
     9
100
AcDbLine
 10
257.5635137748366
 20
-179.4287550578758
 30
0.0
 11
256.3559654976734
 21
-179.4287550578758
 31
0.0
  0
LINE
  5
111
330
1F
100
AcDbEntity
  8
通り芯
  6
Continuous
 62
     3
370
     9
100
AcDbLine
 10
88.31768754666493
 20
-40.67455240568793
 30
0.0
 11
278.3177276083508
 21
-40.67455240568793
 31
0.0
  0
LINE
  5
112
330
1F
100
AcDbEntity
  8
通り芯
  6
Continuous
 62
     3
370
     9
100
AcDbLine
 10
110.8176875466649
 20
-68.67455240568799
 30
0.0
 11
255.8177276083507
 21
-68.67455240568799
 31
0.0
  0
LINE
  5
113
330
1F
100
AcDbEntity
  8
通り芯
  6
Continuous
 62
     3
370
     9
100
AcDbLine
 10
108.5044129516228
 20
-175.1725918437028
 30
0.0
 11
258.1310022033929
 21
-175.1725918437028
 31
0.0
  0
LINE
  5
114
330
1F
100
AcDbEntity
  8
通り芯
  6
Continuous
 62
     3
370
     9
100
AcDbLine
 10
126.3558078431579
 20
-179.4287550578758
 30
0.0
 11
240.2796073118577
 21
-179.4287550578758
 31
0.0
  0
LINE
  5
115
330
1F
100
AcDbEntity
  8
通り芯
  6
Continuous
 62
     3
370
     9
100
AcDbLine
 10
79.13758802588049
 20
-157.4735840806281
 30
0.0
 11
78.31768754666493
 21
-165.6725753477147
 31
0.0
  0
LINE
  5
116
330
1F
100
AcDbEntity
  8
通り芯
  6
Continuous
 62
     3
370
     9
100
AcDbLine
 10
79.31768754666493
 20
-50.67455240568793
 30
0.0
 11
79.31768754666493
 21
-156.8217151633621
 31
0.0
  0
LINE
  5
117
330
1F
100
AcDbEntity
  8
通り芯
  6
Continuous
 62
     3
370
     9
100
AcDbLine
 10
287.3177276083508
 20
-50.67455240568793
 30
0.0
 11
287.3177276083508
 21
-156.8217151633621
 31
0.0
  0
LINE
  5
118
330
1F
100
AcDbEntity
  8
通り芯
  6
Continuous
 62
     3
370
     9
100
AcDbLine
 10
287.4978271291352
 20
-157.4735840806281
 30
0.0
 11
288.3177276083508
 21
-165.6725753477147
 31
0.0
  0
LINE
  5
119
330
1F
100
AcDbEntity
  8
通り芯
  6
JWW_PHANTOM1
 62
     3
370
     9
100
AcDbLine
 10
249.3177864047656
 20
-166.6726223880391
 30
0.0
 11
249.7985850775533
 21
-166.6726223880391
 31
0.0
  0
LINE
  5
11A
330
1F
100
AcDbEntity
  8
通り芯
  6
JWW_PHANTOM1
 62
     3
370
     9
100
AcDbLine
 10
249.3177864047656
 20
-166.6726223880391
 30
0.0
 11
249.1912793820246
 21
-167.1786466149302
 31
0.0
  0
LINE
  5
11B
330
1F
100
AcDbEntity
  8
通り芯
  6
JWW_PHANTOM1
 62
     3
370
     9
100
AcDbLine
 10
248.4778906483556
 20
-170.0321797596208
 30
0.0
 11
248.3177864047657
 21
-170.6725918437028
 31
0.0
  0
LINE
  5
11C
330
1F
100
AcDbEntity
  8
通り芯
  6
Continuous
 62
     3
370
     9
100
AcDbLine
 10
-151.7012983930973
 20
-178.6372904473016
 30
0.0
 11
-150.7012983930973
 21
-178.6749931163853
 31
0.0
  0
LINE
  5
11D
330
1F
100
AcDbEntity
  8
通り芯
  6
Continuous
 62
     3
370
     9
100
AcDbLine
 10
-171.700770109076
 20
-94.67468855920359
 30
0.0
 11
-179.7007577959991
 21
-104.2087219331799
 31
0.0
  0
ARC
  5
11E
330
1F
100
AcDbEntity
  8
通り芯
  6
Continuous
 62
     3
370
     9
100
AcDbCircle
 10
-172.2008698830464
 20
-65.94476154079584
 30
0.0
 40
3.0
100
AcDbArc
 50
319.9999688018337
 51
0.0
  0
ARC
  5
11F
330
1F
100
AcDbEntity
  8
通り芯
  6
Continuous
 62
     3
370
     9
100
AcDbCircle
 10
-167.7008797806393
 20
-67.5826407779227
 30
0.0
 40
3.0
100
AcDbArc
 50
319.9999688018337
 51
359.9999999999999
  0
ARC
  5
120
330
1F
100
AcDbEntity
  8
通り芯
  6
Continuous
 62
     3
370
     9
100
AcDbCircle
 10
-103.155102023528
 20
-168.1750236607216
 30
0.0
 40
1.5
100
AcDbArc
 50
90.0
 51
129.9999999999997
  0
ARC
  5
121
330
1F
100
AcDbEntity
  8
通り芯
  6
Continuous
 62
     3
370
     9
100
AcDbCircle
 10
-91.35649882152367
 20
-165.1750236607216
 30
0.0
 40
1.5
100
AcDbArc
 50
270.0
 51
310.0000311981661
  0
ARC
  5
122
330
1F
100
AcDbEntity
  8
通り芯
  6
Continuous
 62
     3
370
     9
100
AcDbCircle
 10
-76.60931995657987
 20
-158.6749931163853
 30
0.0
 40
3.0
100
AcDbArc
 50
90.0
 51
130.0000311981661
  0
ARC
  5
123
330
1F
100
AcDbEntity
  8
通り芯
  6
Continuous
 62
     3
370
     9
100
AcDbCircle
 10
-94.99200054860134
 20
-172.1417988497347
 30
0.0
 40
3.0
100
AcDbArc
 50
273.5214669689475
 51
310.000031198166
  0
ARC
  5
124
330
1F
100
AcDbEntity
  8
通り芯
  6
Continuous
 62
     3
370
     9
100
AcDbCircle
 10
-96.74854601861543
 20
-167.7413816496863
 30
0.0
 40
3.0
100
AcDbArc
 50
273.5214669689475
 51
310.0000311981661
  0
ARC
  5
125
330
1F
100
AcDbEntity
  8
通り芯
  6
Continuous
 62
     3
370
     9
100
AcDbCircle
 10
-99.20269285293986
 20
-175.6749931163853
 30
0.0
 40
3.0
100
AcDbArc
 50
270.0
 51
310.0000311981661
  0
ARC
  5
126
330
1F
100
AcDbEntity
  8
通り芯
  6
Continuous
 62
     3
370
     9
100
AcDbCircle
 10
-134.305574797077
 20
-180.6749931163853
 30
0.0
 40
2.0
100
AcDbArc
 50
12.52880770915155
 51
90.0
  0
LINE
  5
127
330
1F
100
AcDbEntity
  8
通り芯
  6
Continuous
 62
     3
370
     9
100
AcDbLine
 10
-130.9622547650724
 20
-186.5003888031132
 30
0.0
 11
-132.3532006767091
 21
-180.241132200748
 31
0.0
  0
ARC
  5
128
330
1F
100
AcDbEntity
  8
通り芯
  6
Continuous
 62
     3
370
     9
100
AcDbCircle
 10
-129.4979741747964
 20
-186.1749931163853
 30
0.0
 40
1.5
100
AcDbArc
 50
192.5288077091516
 51
270.0
  0
LINE
  5
129
330
1F
100
AcDbEntity
  8
通り芯
  6
Continuous
 62
     3
370
     9
100
AcDbLine
 10
-129.4979741747964
 20
-187.6749931163853
 30
0.0
 11
-119.2471869357447
 21
-187.6749931163853
 31
0.0
  0
ARC
  5
12A
330
1F
100
AcDbEntity
  8
通り芯
  6
Continuous
 62
     3
370
     9
100
AcDbCircle
 10
-119.2471869357447
 20
-186.1749931163853
 30
0.0
 40
1.5
100
AcDbArc
 50
270.0
 51
310.0
  0
ARC
  5
12B
330
1F
100
AcDbEntity
  8
通り芯
  6
Continuous
 62
     3
370
     9
100
AcDbCircle
 10
-164.7009103249755
 20
-159.9003811902978
 30
0.0
 40
15.0
100
AcDbArc
 50
180.0
 51
273.5214669689475
  0
ARC
  5
12C
330
1F
100
AcDbEntity
  8
通り芯
  6
Continuous
 62
     3
370
     9
100
AcDbCircle
 10
-59.87412415240223
 20
-165.1749832187923
 30
0.0
 40
5.0
100
AcDbArc
 50
10.3026991587093
 51
90.00000000000001
  0
ARC
  5
12D
330
1F
100
AcDbEntity
  8
通り芯
  6
JWW_DASHED2
 62
     3
370
     9
100
AcDbCircle
 10
-164.7009103249755
 20
-159.9003811902978
 30
0.0
 40
19.5
100
AcDbArc
 50
180.0
 51
273.5214669689475
  0
ARC
  5
12E
330
1F
100
AcDbEntity
  8
通り芯
  6
Continuous
 62
     3
370
     9
100
AcDbCircle
 10
-174.2008698830464
 20
-53.54219159693858
 30
0.0
 40
5.0
100
AcDbArc
 50
0.0
 51
43.00000000000002
  0
LINE
  5
12F
330
1F
100
AcDbEntity
  8
通り芯
  6
Continuous
 62
     3
370
     9
100
AcDbLine
 10
-169.2008698830464
 20
-51.57263921886383
 30
0.0
 11
-174.7008632846511
 21
-45.67461838964064
 31
0.0
  0
LINE
  5
130
330
1F
100
AcDbEntity
  8
通り芯
  6
Continuous
 62
     3
370
     9
100
AcDbLine
 10
-169.2008698830464
 20
-51.57263921886383
 30
0.0
 11
-169.2008698830464
 21
-65.94476154079584
 31
0.0
  0
LINE
  5
131
330
1F
100
AcDbEntity
  8
通り芯
  6
JWW_PHANTOM1
 62
     3
370
     9
100
AcDbLine
 10
-95.57371149521347
 20
-170.674759010245
 30
0.0
 11
-96.03039604756944
 21
-170.7028627837529
 31
0.0
  0
LINE
  5
132
330
1F
100
AcDbEntity
  8
通り芯
  6
JWW_PHANTOM1
 62
     3
370
     9
100
AcDbLine
 10
-95.57864677624977
 20
-170.6759421986745
 30
0.0
 11
-95.23639418984911
 21
-170.3887578620819
 31
0.0
  0
LINE
  5
133
330
1F
100
AcDbEntity
  8
通り芯
  6
Continuous
 62
     3
370
     9
100
AcDbLine
 10
-118.2830055212147
 20
-187.3240597810637
 30
0.0
 11
-107.9754492509973
 21
-178.6749931163853
 31
0.0
  0
LINE
  5
134
330
1F
100
AcDbEntity
  8
通り芯
  6
Continuous
 62
     3
370
     9
100
AcDbLine
 10
-179.7009103249755
 20
-159.9003811902978
 30
0.0
 11
-179.7009103249755
 21
-95.59147780693476
 31
0.0
  0
LINE
  5
135
330
1F
100
AcDbEntity
  8
通り芯
  6
Continuous
 62
     3
370
     9
100
AcDbLine
 10
-54.95474108434573
 20
-164.2807403939856
 30
0.0
 11
-54.70129756829792
 21
-165.6749766203971
 31
0.0
  0
LINE
  5
136
330
1F
100
AcDbEntity
  8
通り芯
  6
Continuous
 62
     3
370
     9
100
AcDbLine
 10
-98.11078122517446
 20
-178.6749931163853
 30
0.0
 11
-150.7012983930973
 21
-178.6749931163853
 31
0.0
  0
LINE
  5
137
330
1F
100
AcDbEntity
  8
通り芯
  6
Continuous
 62
     3
370
     9
100
AcDbLine
 10
-98.11078122517446
 20
-178.6749931163853
 30
0.0
 11
-76.89980479987057
 21
-160.87685093945
 31
0.0
  0
LINE
  5
138
330
1F
100
AcDbEntity
  8
通り芯
  6
JWW_PHANTOM1
 62
     3
370
     9
100
AcDbLine
 10
-93.82097023525859
 20
-175.0754103164337
 30
0.0
 11
-94.3047330465686
 21
-175.1051804507867
 31
0.0
  0
ARC
  5
139
330
1F
100
AcDbEntity
  8
通り芯
  6
JWW_DASHED2
 62
     3
370
     9
100
AcDbCircle
 10
-181.2009103249755
 20
-86.004917114015
 30
0.0
 40
3.0
100
AcDbArc
 50
139.999968801834
 51
180.0
  0
LINE
  5
13A
330
1F
100
AcDbEntity
  8
通り芯
  6
Continuous
 62
     3
370
     9
100
AcDbLine
 10
-183.0489632587895
 20
-83.54016994975561
 30
0.0
 11
-169.902737603704
 21
-67.87312562121329
 31
0.0
  0
LINE
  5
13B
330
1F
100
AcDbEntity
  8
通り芯
  6
JWW_DASHED2
 62
     3
370
     9
100
AcDbLine
 10
-183.4990426043179
 20
-84.07655303359738
 30
0.0
 11
-183.0489632587895
 21
-83.54016994975561
 31
0.0
  0
LINE
  5
13C
330
1F
100
AcDbEntity
  8
通り芯
  6
Continuous
 62
     3
370
     9
100
AcDbLine
 10
-166.7008797806393
 20
-40.67455240568793
 30
0.0
 11
-174.7008632846511
 21
-40.67455240568793
 31
0.0
  0
ARC
  5
13D
330
1F
100
AcDbEntity
  8
通り芯
  6
Continuous
 62
     3
370
     9
100
AcDbCircle
 10
-166.7008797806393
 20
-42.67455240568793
 30
0.0
 40
2.0
100
AcDbArc
 50
0.0
 51
90.0
  0
LINE
  5
13E
330
1F
100
AcDbEntity
  8
通り芯
  6
JWW_PHANTOM1
 62
     3
370
     9
100
AcDbLine
 10
-164.7008797806393
 20
-40.67455240568793
 30
0.0
 11
-165.5482508747594
 21
-40.67455240568793
 31
0.0
  0
ARC
  5
13F
330
1F
100
AcDbEntity
  8
通り芯
  6
Continuous
 62
     3
370
     9
100
AcDbCircle
 10
-106.1555980796663
 20
-183.6749931163853
 30
0.0
 40
5.0
100
AcDbArc
 50
90.0
 51
129.9999999999998
  0
ARC
  5
140
330
1F
100
AcDbEntity
  8
通り芯
  6
Continuous
 62
     3
370
     9
100
AcDbCircle
 10
-111.4399486528027
 20
-166.6416880310465
 30
0.0
 40
5.0
100
AcDbArc
 50
273.5214669689475
 51
309.9999999999997
  0
LINE
  5
141
330
1F
100
AcDbEntity
  8
通り芯
  6
Continuous
 62
     3
370
     9
100
AcDbLine
 10
-104.1192834380577
 20
-167.0259569960431
 30
0.0
 11
-108.22601060437
 21
-170.4719102466414
 31
0.0
  0
LINE
  5
142
330
1F
100
AcDbEntity
  8
通り芯
  6
Continuous
 62
     3
370
     9
100
AcDbLine
 10
-49.70123158434521
 20
-157.6749931163853
 30
0.0
 11
-49.70123158434521
 21
-165.6749766203971
 31
0.0
  0
ARC
  5
143
330
1F
100
AcDbEntity
  8
通り芯
  6
Continuous
 62
     3
370
     9
100
AcDbCircle
 10
-51.70123158434521
 20
-157.6749931163853
 30
0.0
 40
2.0
100
AcDbArc
 50
0.0
 51
90.0
  0
ARC
  5
144
330
1F
100
AcDbEntity
  8
通り芯
  6
Continuous
 62
     3
370
     9
100
AcDbCircle
 10
-192.3827927929451
 20
-177.6167042181382
 30
0.0
 40
4.000000036821402
100
AcDbArc
 50
197.1119842529297
 51
271.1666564941406
  0
ARC
  5
145
330
1F
100
AcDbEntity
  8
通り芯
  6
Continuous
 62
     3
370
     9
100
AcDbCircle
 10
-194.0727872809284
 20
-94.63390705940722
 30
0.0
 40
4.000000036821402
100
AcDbArc
 50
91.16665649414064
 51
165.2213439941406
  0
LINE
  5
146
330
1F
100
AcDbEntity
  8
通り芯
  6
Continuous
 62
     3
370
     9
100
AcDbLine
 10
-192.1890149500735
 20
-90.59472163483818
 30
0.0
 11
-194.1541928027484
 21
-90.63473073944536
 31
0.0
  0
ARC
  5
147
330
1F
100
AcDbEntity
  8
通り芯
  6
Continuous
 62
     3
370
     9
100
AcDbCircle
 10
-192.1075598813749
 20
-94.59387318136064
 30
0.0
 40
4.000000036821402
100
AcDbArc
 50
17.11198425292969
 51
91.16648864746094
  0
LINE
  5
148
330
1F
100
AcDbEntity
  8
通り芯
  6
Continuous
 62
     3
370
     9
100
AcDbLine
 10
-188.2846713560785
 20
-93.41691184960652
 30
0.0
 11
-188.009735725781
 21
-94.30982092536928
 31
0.0
  0
ARC
  5
149
330
1F
100
AcDbEntity
  8
通り芯
  6
Continuous
 62
     3
370
     9
100
AcDbCircle
 10
-186.0983162365721
 20
-93.72132787277255
 30
0.0
 40
2.000000018410701
100
AcDbArc
 50
197.1123809814453
 51
271.1668395996094
  0
ARC
  5
14A
330
1F
100
AcDbEntity
  8
通り芯
  6
Continuous
 62
     3
370
     9
100
AcDbCircle
 10
-186.113139631246
 20
-80.96901784253222
 30
0.0
 40
4.0
100
AcDbArc
 50
271.1666516768241
 51
319.9999688018339
  0
LINE
  5
14B
330
1F
100
AcDbEntity
  8
通り芯
  6
Continuous
 62
     3
370
     9
100
AcDbLine
 10
-186.0575887022228
 20
-95.72091603275342
 30
0.0
 11
-179.7009103249756
 21
-95.59147780693476
 31
0.0
  0
LINE
  5
14C
330
1F
100
AcDbEntity
  8
通り芯
  6
JWW_PHANTOM1
 62
     3
370
     9
100
AcDbLine
 10
-187.3196177494827
 20
-181.5144317955024
 30
0.0
 11
-188.30818849283
 21
-181.5345581317667
 31
0.0
  0
LINE
  5
14D
330
1F
100
AcDbEntity
  8
通り芯
  6
JWW_PHANTOM1
 62
     3
370
     9
100
AcDbLine
 10
-186.9097922198661
 20
-179.9609389003982
 30
0.0
 11
-187.3196177494827
 21
-181.5144317955024
 31
0.0
  0
LINE
  5
14E
330
1F
100
AcDbEntity
  8
通り芯
  6
Continuous
 62
     3
370
     9
100
AcDbLine
 10
-190.3362322402416
 20
-181.5758471246829
 30
0.0
 11
-192.3013872711252
 21
-181.6158557646606
 31
0.0
  0
ARC
  5
14F
330
1F
100
AcDbEntity
  8
通り芯
  6
Continuous
 62
     3
370
     9
100
AcDbCircle
 10
-190.4176514674017
 20
-177.5766758468493
 30
0.0
 40
4.0
100
AcDbArc
 50
271.1663250696042
 51
345.2215491165751
  0
LINE
  5
150
330
1F
100
AcDbEntity
  8
通り芯
  6
Continuous
 62
     3
370
     9
100
AcDbLine
 10
-196.2057308651202
 20
-178.7936655498923
 30
0.0
 11
-196.4681130567721
 21
-177.9414479020415
 31
0.0
  0
LINE
  5
151
330
1F
100
AcDbEntity
  8
通り芯
  6
Continuous
 62
     3
370
     9
100
AcDbLine
 10
-186.2954685520909
 20
-177.632271249859
 30
0.0
 11
-186.5499738908145
 21
-178.5970043055158
 31
0.0
  0
LINE
  5
152
330
1F
100
AcDbEntity
  8
通り芯
  6
Continuous
 62
     3
370
     9
100
AcDbLine
 10
-184.4844747751893
 20
-176.1462117684885
 30
0.0
 11
-96.56427850152741
 21
-170.735717215742
 31
0.0
  0
ARC
  5
153
330
1F
100
AcDbEntity
  8
通り芯
  6
Continuous
 62
     3
370
     9
100
AcDbCircle
 10
-184.3616297637973
 20
-178.1424354791923
 30
0.0
 40
2.0
100
AcDbArc
 50
93.52146696894745
 51
165.2215491165747
  0
LINE
  5
154
330
1F
100
AcDbEntity
  8
通り芯
  6
JWW_PHANTOM1
 62
     3
370
     9
100
AcDbLine
 10
-186.0451052195865
 20
-176.683238966282
 30
0.0
 11
-185.9268487427781
 21
-176.2349735868808
 31
0.0
  0
LINE
  5
155
330
1F
100
AcDbEntity
  8
通り芯
  6
JWW_PHANTOM1
 62
     3
370
     9
100
AcDbLine
 10
-185.5881386041943
 20
-176.2141298053899
 30
0.0
 11
-185.9268487427781
 21
-176.2349735868808
 31
0.0
  0
ARC
  5
156
330
1F
100
AcDbEntity
  8
通り芯
  6
Continuous
 62
     3
370
     9
100
AcDbCircle
 10
-182.1359245489918
 20
-176.9079046842822
 30
0.0
 40
10.0
100
AcDbArc
 50
271.1666734171237
 51
296.3295987455218
  0
ARC
  5
157
330
1F
100
AcDbEntity
  8
通り芯
  6
Continuous
 62
     3
370
     9
100
AcDbCircle
 10
-160.7596167574009
 20
-194.2231033278058
 30
0.0
 40
15.0
100
AcDbArc
 50
93.52146696894745
 51
116.3295987455218
  0
LINE
  5
158
330
1F
100
AcDbEntity
  8
通り芯
  6
JWW_PHANTOM1
 62
     3
370
     9
100
AcDbLine
 10
-164.7008797806394
 20
-179.4372677820468
 30
0.0
 11
-163.745095368035
 21
-179.3784500521375
 31
0.0
  0
LINE
  5
159
330
1F
100
AcDbEntity
  8
通り芯
  6
JWW_PHANTOM1
 62
     3
370
     9
100
AcDbLine
 10
-164.7008797806394
 20
-179.4372677820468
 30
0.0
 11
-165.9011153000793
 21
-180.0312328091599
 31
0.0
  0
LINE
  5
15A
330
1F
100
AcDbEntity
  8
通り芯
  6
Continuous
 62
     3
370
     9
100
AcDbLine
 10
-167.4126305463278
 20
-180.7792419954226
 30
0.0
 11
-177.7005820230406
 21
-185.870478905871
 31
0.0
  0
LINE
  5
15B
330
1F
100
AcDbEntity
  8
通り芯
  6
Continuous
 62
     3
370
     9
100
AcDbLine
 10
-161.6809543428411
 20
-179.2514254975273
 30
0.0
 11
-94.80773303151332
 21
-175.1361344157905
 31
0.0
  0
LINE
  5
15C
330
1F
100
AcDbEntity
  8
通り芯
  6
JWW_PHANTOM1
 62
     3
370
     9
100
AcDbLine
 10
-78.17431741288576
 20
-156.0719596996027
 30
0.0
 11
-77.70123158434521
 21
-155.6749931163853
 31
0.0
  0
LINE
  5
15D
330
1F
100
AcDbEntity
  8
通り芯
  6
Continuous
 62
     3
370
     9
100
AcDbLine
 10
-94.82018193819783
 20
-170.0395139290287
 30
0.0
 11
-78.53768403699743
 21
-156.3768608370429
 31
0.0
  0
LINE
  5
15E
330
1F
100
AcDbEntity
  8
通り芯
  6
Continuous
 62
     3
370
     9
100
AcDbLine
 10
-217.6546242317534
 20
-186.1330199287288
 30
0.0
 11
-209.6562825605075
 21
-185.9701380389203
 31
0.0
  0
LINE
  5
15F
330
1F
100
AcDbEntity
  8
通り芯
  6
Continuous
 62
     3
370
     9
100
AcDbLine
 10
-219.6703399007741
 20
-87.15351749015045
 30
0.0
 11
-211.6719982295282
 21
-86.99063560034196
 31
0.0
  0
LINE
  5
160
330
1F
100
AcDbEntity
  8
通り芯
  6
Continuous
 62
     3
370
     9
100
AcDbLine
 10
-211.7025389244285
 20
-85.49096834477533
 30
0.0
 11
-211.6719982295282
 21
-86.99063560034196
 31
0.0
  0
LINE
  5
161
330
1F
100
AcDbEntity
  8
通り芯
  6
Continuous
 62
     3
370
     9
100
AcDbLine
 10
-211.7025389244285
 20
-85.49096834477533
 30
0.0
 11
-186.0316976073259
 21
-84.9681886561809
 31
0.0
  0
ARC
  5
162
330
1F
100
AcDbEntity
  8
通り芯
  6
Continuous
 62
     3
370
     9
100
AcDbCircle
 10
-200.0987777707556
 20
-93.95437161706965
 30
0.0
 40
2.000000018410701
100
AcDbArc
 50
333.3292492899471
 51
345.2216796875
  0
LINE
  5
163
330
1F
100
AcDbEntity
  8
通り芯
  6
Continuous
 62
     3
370
     9
100
AcDbLine
 10
-197.9404166377545
 20
-93.61356341144668
 30
0.0
 11
-198.1649187297009
 21
-94.46453647571931
 31
0.0
  0
ARC
  5
164
330
1F
100
AcDbEntity
  8
通り芯
  6
Continuous
 62
     3
370
     9
100
AcDbCircle
 10
-198.3761318896625
 20
-178.5410012416021
 30
0.0
 40
2.000000018410701
100
AcDbArc
 50
17.11204528808594
 51
29.0045955986576
  0
LINE
  5
165
330
1F
100
AcDbEntity
  8
通り芯
  6
Continuous
 62
     3
370
     9
100
AcDbLine
 10
-91.35649882152367
 20
-166.6750236607216
 30
0.0
 11
-103.155102023528
 21
-166.6750236607216
 31
0.0
  0
LINE
  5
166
330
1F
100
AcDbEntity
  8
通り芯
  6
Continuous
 62
     3
370
     9
100
AcDbLine
 10
-209.6562825605075
 20
-185.9701380389203
 30
0.0
 11
-209.6257417447501
 21
-187.46981122904
 31
0.0
  0
LINE
  5
167
330
1F
100
AcDbEntity
  8
通り芯
  6
Continuous
 62
     3
370
     9
100
AcDbLine
 10
-181.9323156955801
 20
-186.9058316411474
 30
0.0
 11
-209.6257417447501
 21
-187.46981122904
 31
0.0
  0
LINE
  5
168
330
1F
100
AcDbEntity
  8
通り芯
  6
Continuous
 62
     3
370
     9
100
AcDbLine
 10
-214.8016792347412
 20
-178.8815013316703
 30
0.0
 11
-196.6269702364465
 21
-177.5712416917334
 31
0.0
  0
LINE
  5
169
330
1F
100
AcDbEntity
  8
通り芯
  6
Continuous
 62
     3
370
     9
100
AcDbLine
 10
-216.3291219706533
 20
-180.4724504517585
 30
0.0
 11
-196.1370093442655
 21
-179.0167999184353
 31
0.0
  0
LINE
  5
16A
330
1F
100
AcDbEntity
  8
通り芯
  6
Continuous
 62
     3
370
     9
100
AcDbLine
 10
-179.7007577959991
 20
-86.67469421227199
 30
0.0
 11
-171.700770109076
 21
-86.67469421227199
 31
0.0
  0
LINE
  5
16B
330
1F
100
AcDbEntity
  8
通り芯
  6
Continuous
 62
     3
370
     9
100
AcDbLine
 10
-180.7007624502243
 20
-87.5446383097246
 30
0.0
 11
-180.7007624502243
 21
-91.80467894641319
 31
0.0
  0
LINE
  5
16C
330
1F
100
AcDbEntity
  8
通り芯
  6
Continuous
 62
     3
370
     9
100
AcDbLine
 10
-180.7007624502243
 20
-87.5446383097246
 30
0.0
 11
-181.9305655281872
 21
-89.67465862806895
 31
0.0
  0
LINE
  5
16D
330
1F
100
AcDbEntity
  8
通り芯
  6
Continuous
 62
     3
370
     9
100
AcDbLine
 10
-180.7007624502243
 20
-91.80467894641319
 30
0.0
 11
-181.9305655281872
 21
-89.67465862806895
 31
0.0
  0
LINE
  5
16E
330
1F
100
AcDbEntity
  8
通り芯
  6
Continuous
 62
     3
370
     9
100
AcDbLine
 10
-179.7007577959991
 20
-92.67462304386581
 30
0.0
 11
-171.700770109076
 21
-92.67462304386581
 31
0.0
  0
LINE
  5
16F
330
1F
100
AcDbEntity
  8
通り芯
  6
Continuous
 62
     3
370
     9
100
AcDbLine
 10
-179.7007577959991
 20
-92.67462304386581
 30
0.0
 11
-179.7007577959991
 21
-86.67469421227199
 31
0.0
  0
LINE
  5
170
330
1F
100
AcDbEntity
  8
通り芯
  6
Continuous
 62
     3
370
     9
100
AcDbLine
 10
-171.700770109076
 20
-87.5446383097246
 30
0.0
 11
-180.7007624502243
 21
-87.5446383097246
 31
0.0
  0
LINE
  5
171
330
1F
100
AcDbEntity
  8
通り芯
  6
Continuous
 62
     3
370
     9
100
AcDbLine
 10
-171.700770109076
 20
-91.80467894641319
 30
0.0
 11
-180.7007624502243
 21
-91.80467894641319
 31
0.0
  0
LINE
  5
172
330
1F
100
AcDbEntity
  8
通り芯
  6
Continuous
 62
     3
370
     9
100
AcDbLine
 10
-196.6269702364465
 20
-177.5712416917334
 30
0.0
 11
-198.3115764590119
 21
-94.85209737973022
 31
0.0
  0
LINE
  5
173
330
1F
100
AcDbEntity
  8
通り芯
  6
Continuous
 62
     3
370
     9
100
AcDbLine
 10
-195.3459438778156
 20
-180.3037057741812
 30
0.0
 11
-197.1427746089388
 21
-92.06969605006603
 31
0.0
  0
LINE
  5
174
330
1F
100
AcDbEntity
  8
通り芯
  6
Continuous
 62
     3
370
     9
100
AcDbLine
 10
-187.3475910865298
 20
-180.140803069406
 30
0.0
 11
-189.1444354759407
 21
-91.90688712771404
 31
0.0
  0
LINE
  5
175
330
1F
100
AcDbEntity
  8
通り芯
  6
Continuous
 62
     3
370
     9
100
AcDbLine
 10
-185.913691417886
 20
-176.8810455228713
 30
0.0
 11
-187.5798878986429
 21
-95.06481046804188
 31
0.0
  0
ARC
  5
176
330
1F
100
AcDbEntity
  8
通り芯
  6
Continuous
 62
     3
370
     9
100
AcDbCircle
 10
-74.971440719453
 20
-163.1749832187923
 30
0.0
 40
3.0
100
AcDbArc
 50
90.0
 51
130.000031198166
  0
LINE
  5
177
330
1F
100
AcDbEntity
  8
通り芯
  6
Continuous
 62
     3
370
     9
100
AcDbLine
 10
-59.87412415240223
 20
-160.1749832187923
 30
0.0
 11
-74.971440719453
 21
-160.1749832187923
 31
0.0
  0
LINE
  5
178
330
1F
100
AcDbEntity
  8
通り芯
  6
Continuous
 62
     3
370
     9
100
AcDbLine
 10
-49.70123158434521
 20
-165.6749766203971
 30
0.0
 11
-82.61798199457259
 21
-165.6749766203971
 31
0.0
  0
LINE
  5
179
330
1F
100
AcDbEntity
  8
通り芯
  6
Continuous
 62
     3
370
     9
100
AcDbLine
 10
-174.7008632846511
 20
-40.67455240568793
 30
0.0
 11
-174.7008632846511
 21
-73.59130281591527
 31
0.0
  0
LINE
  5
17A
330
1F
100
AcDbEntity
  8
通り芯
  6
Continuous
 62
     3
370
     9
100
AcDbLine
 10
-216.5245278405953
 20
-94.28291413743224
 30
0.0
 11
-219.5849881973245
 21
-91.3446190773279
 31
0.0
  0
LINE
  5
17B
330
1F
100
AcDbEntity
  8
通り芯
  6
Continuous
 62
     3
370
     9
100
AcDbLine
 10
-214.8016792347412
 20
-178.8815013316703
 30
0.0
 11
-217.7399750367092
 21
-181.9419624611074
 31
0.0
  0
LINE
  5
17C
330
1F
100
AcDbEntity
  8
0-A
  6
Continuous
 62
     2
370
     9
100
AcDbLine
 10
182.8177795707135
 20
-86.67446662654945
 30
0.0
 11
183.8178337718174
 21
-86.67446662654945
 31
0.0
  0
LINE
  5
17D
330
1F
100
AcDbEntity
  8
0-A
  6
Continuous
 62
     2
370
     9
100
AcDbLine
 10
182.8177795707135
 20
-92.6745936456584
 30
0.0
 11
183.8178337718174
 21
-92.6745936456584
 31
0.0
  0
LINE
  5
17E
330
1F
100
AcDbEntity
  8
0-A
  6
Continuous
 62
     2
370
     9
100
AcDbLine
 10
182.8177795707135
 20
-87.67442173389591
 30
0.0
 11
182.8177795707135
 21
-86.67446662654945
 31
0.0
  0
LINE
  5
17F
330
1F
100
AcDbEntity
  8
0-A
  6
Continuous
 62
     2
370
     9
100
AcDbLine
 10
183.8178337718174
 20
-87.67442173389591
 30
0.0
 11
183.8178337718174
 21
-86.67446662654945
 31
0.0
  0
LINE
  5
180
330
1F
100
AcDbEntity
  8
0-A
  6
Continuous
 62
     2
370
     9
100
AcDbLine
 10
183.8178337718174
 20
-91.67453944455437
 30
0.0
 11
183.8178337718174
 21
-92.6745936456584
 31
0.0
  0
LINE
  5
181
330
1F
100
AcDbEntity
  8
0-A
  6
Continuous
 62
     2
370
     9
100
AcDbLine
 10
182.8177795707135
 20
-91.67453944455437
 30
0.0
 11
182.8177795707135
 21
-92.6745936456584
 31
0.0
  0
CIRCLE
  5
182
330
1F
100
AcDbEntity
  8
0-A
  6
Continuous
 62
     2
370
     9
100
AcDbCircle
 10
183.3177075775078
 20
-89.67472832361901
 30
0.0
 40
5.000000046026753
  0
ARC
  5
183
330
1F
100
AcDbEntity
  8
0-A
  6
Continuous
 62
     2
370
     9
100
AcDbCircle
 10
181.3178964565726
 20
-87.67442173389591
 30
0.0
 40
1.499999917036778
100
AcDbArc
 50
270.0
 51
0.0
  0
ARC
  5
184
330
1F
100
AcDbEntity
  8
0-A
  6
Continuous
 62
     2
370
     9
100
AcDbCircle
 10
185.3179150734735
 20
-87.67442173389591
 30
0.0
 40
1.499999917036778
100
AcDbArc
 50
180.0
 51
270.0
  0
ARC
  5
185
330
1F
100
AcDbEntity
  8
0-A
  6
Continuous
 62
     2
370
     9
100
AcDbCircle
 10
185.3179150734735
 20
-91.67453944455437
 30
0.0
 40
1.499999917036778
100
AcDbArc
 50
90.0
 51
180.0
  0
ARC
  5
186
330
1F
100
AcDbEntity
  8
0-A
  6
Continuous
 62
     2
370
     9
100
AcDbCircle
 10
181.3178964565726
 20
-91.67453944455437
 30
0.0
 40
1.499999917036778
100
AcDbArc
 50
0.0
 51
90.0
  0
LINE
  5
187
330
1F
100
AcDbEntity
  8
0-A
  6
Continuous
 62
     2
370
     9
100
AcDbLine
 10
188.2926121970176
 20
-89.1744039417944
 30
0.0
 11
178.3428029579981
 21
-89.1744039417944
 31
0.0
  0
LINE
  5
188
330
1F
100
AcDbEntity
  8
0-A
  6
Continuous
 62
     2
370
     9
100
AcDbLine
 10
178.3427332460784
 20
-90.17435904914086
 30
0.0
 11
188.2926819089373
 21
-90.17435904914086
 31
0.0
  0
LINE
  5
189
330
1F
100
AcDbEntity
  8
0-A
  6
Continuous
 62
     2
370
     9
100
AcDbLine
 10
-163.1007301887845
 20
-83.6746655799497
 30
0.0
 11
-165.7008031010523
 21
-83.6746655799497
 31
0.0
  0
LINE
  5
18A
330
1F
100
AcDbEntity
  8
0-A
  6
Continuous
 62
     2
370
     9
100
AcDbLine
 10
-163.1007301887845
 20
-95.67450721846325
 30
0.0
 11
-165.7008031010523
 21
-95.67450721846325
 31
0.0
  0
LINE
  5
18B
330
1F
100
AcDbEntity
  8
0-A
  6
Continuous
 62
     2
370
     9
100
AcDbLine
 10
-163.1007301887845
 20
-90.15358040786356
 30
0.0
 11
-163.1007301887845
 21
-89.1955923905494
 31
0.0
  0
LINE
  5
18C
330
1F
100
AcDbEntity
  8
0-A
  6
Continuous
 62
     2
370
     9
100
AcDbLine
 10
-177.7007189715126
 20
-86.67462598957815
 30
0.0
 11
-177.7007189715126
 21
-92.67464578476387
 31
0.0
  0
LINE
  5
18D
330
1F
100
AcDbEntity
  8
0-A
  6
Continuous
 62
     2
370
     9
100
AcDbLine
 10
-167.700760211483
 20
-86.67462598957815
 30
0.0
 11
-177.7007189715126
 21
-86.67462598957815
 31
0.0
  0
LINE
  5
18E
330
1F
100
AcDbEntity
  8
0-A
  6
Continuous
 62
     2
370
     9
100
AcDbLine
 10
-165.7008031010523
 20
-83.6746655799497
 30
0.0
 11
-165.7008031010523
 21
-95.67450721846325
 31
0.0
  0
LINE
  5
18F
330
1F
100
AcDbEntity
  8
0-A
  6
Continuous
 62
     2
370
     9
100
AcDbLine
 10
-167.700760211483
 20
-92.67464578476387
 30
0.0
 11
-177.7007189715126
 21
-92.67464578476387
 31
0.0
  0
LINE
  5
190
330
1F
100
AcDbEntity
  8
0-A
  6
Continuous
 62
     2
370
     9
100
AcDbLine
 10
-167.700760211483
 20
-87.54467389392772
 30
0.0
 11
-177.7007189715126
 21
-87.54467389392772
 31
0.0
  0
LINE
  5
191
330
1F
100
AcDbEntity
  8
0-A
  6
Continuous
 62
     2
370
     9
100
AcDbLine
 10
-167.700760211483
 20
-91.80469685634336
 30
0.0
 11
-177.7007189715126
 21
-91.80469685634336
 31
0.0
  0
LINE
  5
192
330
1F
100
AcDbEntity
  8
0-A
  6
Continuous
 62
     2
370
     9
100
AcDbLine
 10
-167.700760211483
 20
-91.80469685634336
 30
0.0
 11
-165.8282840976738
 21
-92.85671200625887
 31
0.0
  0
LINE
  5
193
330
1F
100
AcDbEntity
  8
0-A
  6
Continuous
 62
     2
370
     9
100
AcDbLine
 10
-167.700760211483
 20
-92.67464578476387
 30
0.0
 11
-166.9370124549374
 21
-92.23375750879262
 31
0.0
  0
LINE
  5
194
330
1F
100
AcDbEntity
  8
0-A
  6
Continuous
 62
     2
370
     9
100
AcDbLine
 10
-167.700760211483
 20
-87.54467389392772
 30
0.0
 11
-165.8282840976738
 21
-86.4926587440122
 31
0.0
  0
LINE
  5
195
330
1F
100
AcDbEntity
  8
0-A
  6
Continuous
 62
     2
370
     9
100
AcDbLine
 10
-167.700760211483
 20
-86.67462598957815
 30
0.0
 11
-166.9370124549374
 21
-87.11561324147846
 31
0.0
  0
LINE
  5
196
330
1F
100
AcDbEntity
  8
0-A
  6
Continuous
 62
     2
370
     9
100
AcDbLine
 10
-161.1122295421418
 20
-89.1955923905494
 30
0.0
 11
-163.1007301887845
 21
-89.1955923905494
 31
0.0
  0
LINE
  5
197
330
1F
100
AcDbEntity
  8
0-A
  6
Continuous
 62
     2
370
     9
100
AcDbLine
 10
-167.700760211483
 20
-86.67462598957815
 30
0.0
 11
-167.700760211483
 21
-92.67464578476387
 31
0.0
  0
LINE
  5
198
330
1F
100
AcDbEntity
  8
0-A
  6
Continuous
 62
     2
370
     9
100
AcDbLine
 10
-161.1121800541773
 20
-90.15358040786356
 30
0.0
 11
-163.1007301887845
 21
-90.15358040786356
 31
0.0
  0
ARC
  5
199
330
1F
100
AcDbEntity
  8
0-A
  6
Continuous
 62
     2
370
     9
100
AcDbCircle
 10
-165.9507668098782
 20
-93.07465700203585
 30
0.0
 40
0.2500000032218727
100
AcDbArc
 50
0.0
 51
60.67082214355469
  0
ARC
  5
19A
330
1F
100
AcDbEntity
  8
0-A
  6
Continuous
 62
     2
370
     9
100
AcDbCircle
 10
-165.9507668098782
 20
-86.27471374823523
 30
0.0
 40
0.2500000032218727
100
AcDbArc
 50
299.3291778564453
 51
0.0
  0
ARC
  5
19B
330
1F
100
AcDbEntity
  8
0-A
  6
Continuous
 62
     2
370
     9
100
AcDbCircle
 10
-171.1007318383833
 20
-89.67458639920648
 30
0.0
 40
10.00000128874908
100
AcDbArc
 50
2.745620727539063
 51
36.869873046875
  0
ARC
  5
19C
330
1F
100
AcDbEntity
  8
0-A
  6
Continuous
 62
     2
370
     9
100
AcDbCircle
 10
-171.1007318383833
 20
-89.67458639920648
 30
0.0
 40
10.00000128874908
100
AcDbArc
 50
323.130126953125
 51
357.2543792724609
  0
ARC
  5
19D
330
1F
100
AcDbEntity
  8
通り芯
  6
JWW_DASHED2
 62
     3
370
     9
100
AcDbCircle
 10
-186.2009103249756
 20
-90.96911483989854
 30
0.0
 40
2.0
100
AcDbArc
 50
279.0902987625166
 51
0.0
  0
LINE
  5
19E
330
1F
100
AcDbEntity
  8
寸法
  6
JWW_DASHED2
 62
     3
370
     9
100
AcDbLine
 10
-198.7008488506616
 20
-97.49943977343736
 30
0.0
 11
-198.7008488506616
 21
-103.8493182097873
 31
0.0
  0
LINE
  5
19F
330
1F
100
AcDbEntity
  8
寸法
  6
JWW_DASHED2
 62
     3
370
     9
100
AcDbLine
 10
-198.7008488506616
 20
-103.8493182097873
 30
0.0
 11
-196.7008643156505
 21
-103.8493182097873
 31
0.0
  0
LINE
  5
1A0
330
1F
100
AcDbEntity
  8
寸法
  6
JWW_DASHED2
 62
     3
370
     9
100
AcDbLine
 10
-198.7008488506616
 20
-103.0344702415275
 30
0.0
 11
-196.7008643156505
 21
-103.0344702415275
 31
0.0
  0
LINE
  5
1A1
330
1F
100
AcDbEntity
  8
寸法
  6
JWW_DASHED2
 62
     3
370
     9
100
AcDbLine
 10
-198.7008488506616
 20
-98.31453547609107
 30
0.0
 11
-196.7008643156505
 21
-98.31453547609107
 31
0.0
  0
LINE
  5
1A2
330
1F
100
AcDbEntity
  8
寸法
  6
JWW_DASHED2
 62
     3
370
     9
100
AcDbLine
 10
-198.7008488506616
 20
-97.49943977343736
 30
0.0
 11
-196.7008643156505
 21
-97.49943977343736
 31
0.0
  0
LINE
  5
1A3
330
1F
100
AcDbEntity
  8
寸法
  6
JWW_DASHED2
 62
     3
370
     9
100
AcDbLine
 10
-211.7009093555896
 20
-97.67434025549727
 30
0.0
 11
-198.7008488506616
 21
-97.67434025549727
 31
0.0
  0
LINE
  5
1A4
330
1F
100
AcDbEntity
  8
寸法
  6
JWW_DASHED2
 62
     3
370
     9
100
AcDbLine
 10
-213.7008443437219
 20
-95.6747273220767
 30
0.0
 11
-213.7008443437219
 21
-89.67474894360407
 31
0.0
  0
LINE
  5
1A5
330
1F
100
AcDbEntity
  8
寸法
  6
JWW_DASHED2
 62
     3
370
     9
100
AcDbLine
 10
-213.7008443437219
 20
-89.67474894360407
 30
0.0
 11
-219.700847495634
 21
-89.67474894360407
 31
0.0
  0
LINE
  5
1A6
330
1F
100
AcDbEntity
  8
寸法
  6
JWW_CENTER1
 62
     3
370
     9
100
AcDbLine
 10
-216.7008335329582
 20
-95.6745786814405
 30
0.0
 11
-216.7008335329582
 21
-88.28634630669683
 31
0.0
  0
LINE
  5
1A7
330
1F
100
AcDbEntity
  8
寸法
  6
JWW_DASHED2
 62
     3
370
     9
100
AcDbLine
 10
-219.700847495634
 20
-95.6747273220767
 30
0.0
 11
-219.700847495634
 21
-89.67474894360407
 31
0.0
  0
ARC
  5
1A8
330
1F
100
AcDbEntity
  8
寸法
  6
JWW_CENTER1
 62
     3
370
     9
100
AcDbCircle
 10
-211.7009093555896
 20
-95.6745786814405
 30
0.0
 40
5.000000046026753
100
AcDbArc
 50
180.0
 51
269.8140867091431
  0
ARC
  5
1A9
330
1F
100
AcDbEntity
  8
寸法
  6
JWW_DASHED2
 62
     3
370
     9
100
AcDbCircle
 10
-211.7009093555896
 20
-95.6747273220767
 30
0.0
 40
2.000000018410701
100
AcDbArc
 50
180.0
 51
270.0
  0
ARC
  5
1AA
330
1F
100
AcDbEntity
  8
寸法
  6
JWW_DASHED2
 62
     3
370
     9
100
AcDbCircle
 10
-211.7009093555896
 20
-95.6747273220767
 30
0.0
 40
8.000000073642804
100
AcDbArc
 50
180.0
 51
270.0
  0
LINE
  5
1AB
330
1F
100
AcDbEntity
  8
寸法
  6
JWW_DASHED2
 62
     3
370
     9
100
AcDbLine
 10
-211.7009093555896
 20
-103.6744177277274
 30
0.0
 11
-198.7008488506616
 21
-103.6744177277274
 31
0.0
  0
LINE
  5
1AC
330
1F
100
AcDbEntity
  8
寸法
  6
JWW_CENTER1
 62
     3
370
     9
100
AcDbLine
 10
-185.2073459151203
 20
-100.6745524056879
 30
0.0
 11
-211.7171333225126
 21
-100.6745524056879
 31
0.0
  0
LINE
  5
1AD
330
1F
100
AcDbEntity
  8
通り芯
  6
JWW_DASHED2
 62
     3
370
     9
100
AcDbLine
 10
-195.437866096932
 20
-94.47246972249623
 30
0.0
 11
-185.8849285699188
 21
-92.94399598327686
 31
0.0
  0
ARC
  5
1AE
330
1F
100
AcDbEntity
  8
通り芯
  6
JWW_DASHED2
 62
     3
370
     9
100
AcDbCircle
 10
-195.2008797806394
 20
-95.95363058002997
 30
0.0
 40
1.5
100
AcDbArc
 50
99.09029876251617
 51
180.0
  0
LINE
  5
1AF
330
1F
100
AcDbEntity
  8
通り芯
  6
JWW_DASHED2
 62
     3
370
     9
100
AcDbLine
 10
-196.7008797806394
 20
-106.1285970542886
 30
0.0
 11
-196.7008797806394
 21
-95.95363058002997
 31
0.0
  0
ARC
  5
1B0
330
1F
100
AcDbEntity
  8
通り芯
  6
JWW_DASHED2
 62
     3
370
     9
100
AcDbCircle
 10
-195.2008797806394
 20
-106.1285970542886
 30
0.0
 40
1.5
100
AcDbArc
 50
180.0
 51
220.0000000000004
  0
LINE
  5
1B1
330
1F
100
AcDbEntity
  8
通り芯
  6
JWW_DASHED2
 62
     3
370
     9
100
AcDbLine
 10
-185.3706881093807
 20
-120.1773490346914
 30
0.0
 11
-196.3499464453179
 21
-107.0927784688184
 31
0.0
  0
ARC
  5
1B2
330
1F
100
AcDbEntity
  8
通り芯
  6
JWW_DASHED2
 62
     3
370
     9
100
AcDbCircle
 10
-189.2009103249755
 20
-123.3912870831241
 30
0.0
 40
5.0
100
AcDbArc
 50
0.0
 51
40.00000000000036
  0
LINE
  5
1B3
330
1F
100
AcDbEntity
  8
通り芯
  6
JWW_DASHED2
 62
     3
370
     9
100
AcDbLine
 10
-184.2009103249755
 20
-86.004917114015
 30
0.0
 11
-184.2009103249755
 21
-159.9003811902978
 31
0.0
  0
LINE
  5
1B4
330
1F
100
AcDbEntity
  8
通り芯
  6
JWW_CENTER1
 62
     3
370
     9
100
AcDbLine
 10
-182.9240435857943
 20
-89.67465862806895
 30
0.0
 11
-159.3987237680366
 21
-89.67465862806895
 31
0.0
  0
LINE
  5
1B5
330
1F
100
AcDbEntity
  8
通り芯
  6
Continuous
 62
     3
370
     9
100
AcDbLine
 10
-171.700770109076
 20
-94.67468855920359
 30
0.0
 11
-171.700770109076
 21
-91.80467894641319
 31
0.0
  0
LINE
  5
1B6
330
1F
100
AcDbEntity
  8
通り芯
  6
Continuous
 62
     3
370
     9
100
AcDbLine
 10
-171.700770109076
 20
-87.54467389392772
 30
0.0
 11
-171.700770109076
 21
-83.67465862806895
 31
0.0
  0
ARC
  5
1B7
330
1F
100
AcDbEntity
  8
通り芯
  6
JWW_DASHED2
 62
     3
370
     9
100
AcDbCircle
 10
-176.7009103249756
 20
-87.6427845556631
 30
0.0
 40
3.0
100
AcDbArc
 50
139.9999688018339
 51
180.0
  0
LINE
  5
1B8
330
1F
100
AcDbEntity
  8
通り芯
  6
JWW_DASHED2
 62
     3
370
     9
100
AcDbLine
 10
-179.7009103249756
 20
-93.50867595470454
 30
0.0
 11
-179.7009103249756
 21
-95.59147780693476
 31
0.0
  0
LINE
  5
1B9
330
1F
100
AcDbEntity
  8
通り芯
  6
Continuous
 62
     3
370
     9
100
AcDbLine
 10
-169.6947264792822
 20
-74.62598056844115
 30
0.0
 11
-164.7008797806393
 21
-68.67455240568799
 31
0.0
  0
LINE
  5
1BA
330
1F
100
AcDbEntity
  8
通り芯
  6
Continuous
 62
     3
370
     9
100
AcDbLine
 10
-171.700770109076
 20
-83.67465862806895
 30
0.0
 11
-169.6947264792822
 21
-74.62598056844112
 31
0.0
  0
LINE
  5
1BB
330
1F
100
AcDbEntity
  8
通り芯
  6
JWW_DASHED2
 62
     3
370
     9
100
AcDbLine
 10
-178.9990426043179
 20
-85.71442047524553
 30
0.0
 11
-169.6947264792822
 21
-74.62598056844112
 31
0.0
  0
ARC
  5
1BC
330
1F
100
AcDbEntity
  8
通り芯
  6
Continuous
 62
     3
370
     9
100
AcDbCircle
 10
183.3177075775078
 20
-135.8498395983334
 30
0.0
 40
40.25
100
AcDbArc
 50
300.0988431326717
 51
320.08771734777
  0
ARC
  5
1BD
330
1F
100
AcDbEntity
  8
通り芯
  6
Continuous
 62
     3
370
     9
100
AcDbCircle
 10
112.2843582859099
 20
-84.78386382898375
 30
0.0
 40
3.0
100
AcDbArc
 50
145.3080060717491
 51
180.0
  0
ARC
  5
1BE
330
1F
100
AcDbEntity
  8
通り芯
  6
Continuous
 62
     3
370
     9
100
AcDbCircle
 10
111.2843582859099
 20
-96.67468158597254
 30
0.0
 40
2.0
100
AcDbArc
 50
137.1667435418707
 51
180.0
  0
LINE
  5
1BF
330
1F
100
AcDbEntity
  8
通り芯
  6
Continuous
 62
     3
370
     9
100
AcDbLine
 10
109.2843582859099
 20
-96.67468158597254
 30
0.0
 11
109.8176875466649
 21
-100.7273422576781
 31
0.0
  0
ARC
  5
1C0
330
1F
100
AcDbEntity
  8
通り芯
  6
Continuous
 62
     3
370
     9
100
AcDbCircle
 10
254.3510568691058
 20
-84.78386382898375
 30
0.0
 40
3.0
100
AcDbArc
 50
0.0
 51
34.69199392825094
  0
ARC
  5
1C1
330
1F
100
AcDbEntity
  8
通り芯
  6
Continuous
 62
     3
370
     9
100
AcDbCircle
 10
255.3510568691058
 20
-96.67468158597254
 30
0.0
 40
2.0
100
AcDbArc
 50
0.0
 51
42.83325645812923
  0
LINE
  5
1C2
330
1F
100
AcDbEntity
  8
通り芯
  6
Continuous
 62
     3
370
     9
100
AcDbLine
 10
257.3510568691058
 20
-96.67468158597254
 30
0.0
 11
256.8177276083508
 21
-100.7273422576781
 31
0.0
  0
LINE
  5
1C3
330
1F
100
AcDbEntity
  8
通り芯
  6
Continuous
 62
     3
370
     9
100
AcDbLine
 10
256.3034053390509
 20
-166.6489165278861
 30
0.0
 11
256.347440836822
 21
-159.7910427180969
 31
0.0
  0
LINE
  5
1C4
330
1F
100
AcDbEntity
  8
通り芯
  6
JWW_CENTER1
 62
     3
370
     9
100
AcDbLine
 10
137.4166734661814
 20
-135.8498395983333
 30
0.0
 11
229.0835122455972
 21
-135.8498395983333
 31
0.0
  0
LINE
  5
1C5
330
1F
100
AcDbEntity
  8
寸法
  6
Continuous
 62
     3
370
     9
100
AcDbLine
 10
115.1425161179996
 20
-189.6725763787139
 30
0.0
 11
121.4923945543494
 21
-189.6725763787139
 31
0.0
  0
LINE
  5
1C6
330
1F
100
AcDbEntity
  8
寸法
  6
Continuous
 62
     3
370
     9
100
AcDbLine
 10
120.6775465860897
 20
-189.6725763787139
 30
0.0
 11
120.6775465860897
 21
-187.6725918437028
 31
0.0
  0
LINE
  5
1C7
330
1F
100
AcDbEntity
  8
寸法
  6
Continuous
 62
     3
370
     9
100
AcDbLine
 10
115.9576118206533
 20
-189.6725763787139
 30
0.0
 11
115.9576118206533
 21
-187.6725918437028
 31
0.0
  0
LINE
  5
1C8
330
1F
100
AcDbEntity
  8
寸法
  6
Continuous
 62
     3
370
     9
100
AcDbLine
 10
115.1425161179996
 20
-189.6725763787139
 30
0.0
 11
115.1425161179996
 21
-187.6725918437028
 31
0.0
  0
LINE
  5
1C9
330
1F
100
AcDbEntity
  8
寸法
  6
Continuous
 62
     3
370
     9
100
AcDbLine
 10
121.4923945543494
 20
-189.6725763787139
 30
0.0
 11
121.4923945543494
 21
-187.6725918437028
 31
0.0
  0
CIRCLE
  5
1CA
330
1F
100
AcDbEntity
  8
寸法
  6
Continuous
 62
     3
370
     9
100
AcDbCircle
 10
118.3176287502501
 20
-207.6725610610106
 30
0.0
 40
3.000212150190663
  0
LINE
  5
1CB
330
1F
100
AcDbEntity
  8
寸法
  6
Continuous
 62
     3
370
     9
100
AcDbLine
 10
121.3174940722895
 20
-207.6725610610106
 30
0.0
 11
121.3174940722895
 21
-189.6725763787139
 31
0.0
  0
LINE
  5
1CC
330
1F
100
AcDbEntity
  8
寸法
  6
Continuous
 62
     3
370
     9
100
AcDbLine
 10
115.3174166000595
 20
-207.6725610610106
 30
0.0
 11
115.3174166000595
 21
-189.6725763787139
 31
0.0
  0
LINE
  5
1CD
330
1F
100
AcDbEntity
  8
寸法
  6
JWW_CENTER1
 62
     3
370
     9
100
AcDbLine
 10
113.7125215316348
 20
-207.6725610610106
 30
0.0
 11
123.3013687559326
 21
-207.6725610610106
 31
0.0
  0
LINE
  5
1CE
330
1F
100
AcDbEntity
  8
通り芯
  6
JWW_CENTER1
 62
     3
370
     9
100
AcDbLine
 10
118.3176287502501
 20
-211.8991202101231
 30
0.0
 11
118.3176287502501
 21
-177.0466394845455
 31
0.0
  0
LINE
  5
1CF
330
1F
100
AcDbEntity
  8
寸法
  6
Continuous
 62
     3
370
     9
100
AcDbLine
 10
245.1426737725151
 20
-189.6725763787139
 30
0.0
 11
251.492552208865
 21
-189.6725763787139
 31
0.0
  0
CIRCLE
  5
1D0
330
1F
100
AcDbEntity
  8
寸法
  6
Continuous
 62
     3
370
     9
100
AcDbCircle
 10
248.3177864047656
 20
-207.6725610610106
 30
0.0
 40
3.000212150190663
  0
LINE
  5
1D1
330
1F
100
AcDbEntity
  8
寸法
  6
Continuous
 62
     3
370
     9
100
AcDbLine
 10
251.3176517268051
 20
-207.6725610610106
 30
0.0
 11
251.3176517268051
 21
-189.6725763787139
 31
0.0
  0
LINE
  5
1D2
330
1F
100
AcDbEntity
  8
寸法
  6
Continuous
 62
     3
370
     9
100
AcDbLine
 10
245.317574254575
 20
-207.6725610610106
 30
0.0
 11
245.317574254575
 21
-189.6725763787139
 31
0.0
  0
LINE
  5
1D3
330
1F
100
AcDbEntity
  8
寸法
  6
JWW_CENTER1
 62
     3
370
     9
100
AcDbLine
 10
243.7126791861504
 20
-207.6725610610106
 30
0.0
 11
253.3015264104481
 21
-207.6725610610106
 31
0.0
  0
LINE
  5
1D4
330
1F
100
AcDbEntity
  8
寸法
  6
Continuous
 62
     3
370
     9
100
AcDbLine
 10
245.1426737725151
 20
-189.6725763787139
 30
0.0
 11
245.1426737725151
 21
-187.6725918437028
 31
0.0
  0
LINE
  5
1D5
330
1F
100
AcDbEntity
  8
寸法
  6
Continuous
 62
     3
370
     9
100
AcDbLine
 10
245.9577694751688
 20
-189.6725763787139
 30
0.0
 11
245.9577694751688
 21
-187.6725918437028
 31
0.0
  0
LINE
  5
1D6
330
1F
100
AcDbEntity
  8
寸法
  6
Continuous
 62
     3
370
     9
100
AcDbLine
 10
250.6777042406052
 20
-189.6725763787139
 30
0.0
 11
250.6777042406052
 21
-187.6725918437028
 31
0.0
  0
LINE
  5
1D7
330
1F
100
AcDbEntity
  8
寸法
  6
Continuous
 62
     3
370
     9
100
AcDbLine
 10
251.492552208865
 20
-189.6725763787139
 30
0.0
 11
251.492552208865
 21
-187.6725918437028
 31
0.0
  0
LINE
  5
1D8
330
1F
100
AcDbEntity
  8
通り芯
  6
JWW_CENTER1
 62
     3
370
     9
100
AcDbLine
 10
248.3177864047656
 20
-211.8991202101231
 30
0.0
 11
248.3177864047656
 21
-177.0466394845455
 31
0.0
  0
LINE
  5
1D9
330
1F
100
AcDbEntity
  8
建具
  6
Continuous
 62
     4
370
     9
100
AcDbLine
 10
-209.5850223336101
 20
-189.4692931580499
 30
0.0
 11
-209.6257355650114
 21
-187.469811103189
 31
0.0
  0
LINE
  5
1DA
330
1F
100
AcDbEntity
  8
建具
  6
Continuous
 62
     4
370
     9
100
AcDbLine
 10
-211.7022175617391
 20
-85.49096180031168
 30
0.0
 11
-211.7429385794616
 21
-83.49109734864714
 31
0.0
  0
LINE
  5
1DB
330
1F
100
AcDbEntity
  8
寸法
  6
Continuous
 62
     3
370
     9
100
AcDbLine
 10
-127.8762946697172
 20
-189.6749776513963
 30
0.0
 11
-127.8762946697172
 21
-187.6749931163853
 31
0.0
  0
LINE
  5
1DC
330
1F
100
AcDbEntity
  8
寸法
  6
Continuous
 62
     3
370
     9
100
AcDbLine
 10
-127.0611989670635
 20
-189.6749776513963
 30
0.0
 11
-127.0611989670635
 21
-187.6749931163853
 31
0.0
  0
LINE
  5
1DD
330
1F
100
AcDbEntity
  8
寸法
  6
Continuous
 62
     3
370
     9
100
AcDbLine
 10
-121.7013167154272
 20
-202.6750381563244
 30
0.0
 11
-121.7013167154272
 21
-189.6749776513963
 31
0.0
  0
LINE
  5
1DE
330
1F
100
AcDbEntity
  8
寸法
  6
Continuous
 62
     3
370
     9
100
AcDbLine
 10
-122.3412642016271
 20
-189.6749776513963
 30
0.0
 11
-122.3412642016271
 21
-187.6749931163853
 31
0.0
  0
LINE
  5
1DF
330
1F
100
AcDbEntity
  8
寸法
  6
Continuous
 62
     3
370
     9
100
AcDbLine
 10
-121.5264162333673
 20
-189.6749776513963
 30
0.0
 11
-121.5264162333673
 21
-187.6749931163853
 31
0.0
  0
LINE
  5
1E0
330
1F
100
AcDbEntity
  8
寸法
  6
Continuous
 62
     3
370
     9
100
AcDbLine
 10
-127.8762946697172
 20
-189.6749776513963
 30
0.0
 11
-121.5264162333673
 21
-189.6749776513963
 31
0.0
  0
LINE
  5
1E1
330
1F
100
AcDbEntity
  8
寸法
  6
Continuous
 62
     3
370
     9
100
AcDbLine
 10
-127.7013941876573
 20
-202.6750381563244
 30
0.0
 11
-127.7013941876573
 21
-189.6749776513963
 31
0.0
  0
ARC
  5
1E2
330
1F
100
AcDbEntity
  8
寸法
  6
Continuous
 62
     3
370
     9
100
AcDbCircle
 10
-119.7013569538554
 20
-202.6750381563244
 30
0.0
 40
2.000000018410701
100
AcDbArc
 50
180.0
 51
270.0
  0
LINE
  5
1E3
330
1F
100
AcDbEntity
  8
寸法
  6
Continuous
 62
     3
370
     9
100
AcDbLine
 10
-119.7013569538554
 20
-204.6749731444567
 30
0.0
 11
-113.7013785753828
 21
-204.6749731444567
 31
0.0
  0
LINE
  5
1E4
330
1F
100
AcDbEntity
  8
寸法
  6
Continuous
 62
     3
370
     9
100
AcDbLine
 10
-113.7013785753828
 20
-204.6749731444567
 30
0.0
 11
-113.7013785753828
 21
-210.6749762963687
 31
0.0
  0
LINE
  5
1E5
330
1F
100
AcDbEntity
  8
寸法
  6
Continuous
 62
     3
370
     9
100
AcDbLine
 10
-119.7013569538554
 20
-210.6749762963687
 30
0.0
 11
-113.7013785753828
 21
-210.6749762963687
 31
0.0
  0
ARC
  5
1E6
330
1F
100
AcDbEntity
  8
寸法
  6
Continuous
 62
     3
370
     9
100
AcDbCircle
 10
-119.7013569538554
 20
-202.6750381563244
 30
0.0
 40
8.000000073642804
100
AcDbArc
 50
180.0
 51
270.0
  0
ARC
  5
1E7
330
1F
100
AcDbEntity
  8
寸法
  6
JWW_CENTER1
 62
     3
370
     9
100
AcDbCircle
 10
-119.7012315843453
 20
-202.674962333693
 30
0.0
 40
5.0
100
AcDbArc
 50
180.0
 51
270.0
  0
LINE
  5
1E8
330
1F
100
AcDbEntity
  8
寸法
  6
JWW_CENTER1
 62
     3
370
     9
100
AcDbLine
 10
-119.7012315843453
 20
-207.674962333693
 30
0.0
 11
-112.3129759384755
 21
-207.674962333693
 31
0.0
  0
LINE
  5
1E9
330
1F
100
AcDbEntity
  8
通り芯
  6
JWW_CENTER1
 62
     3
370
     9
100
AcDbLine
 10
-124.7012315843453
 20
-177.1207467032858
 30
0.0
 11
-124.7012315843453
 21
-202.674962333693
 31
0.0
  0
LINE
  5
1EA
330
1F
100
AcDbEntity
  8
通り芯
  6
JWW_HOJO
 62
     3
370
     9
100
AcDbLine
 10
-122.5712112660009
 20
-178.675000775237
 30
0.0
 11
-126.8312519026895
 21
-178.675000775237
 31
0.0
  0
LINE
  5
1EB
330
1F
100
AcDbEntity
  8
通り芯
  6
Continuous
 62
     3
370
     9
100
AcDbLine
 10
-216.5245278405953
 20
-94.28291413743224
 30
0.0
 11
-198.3115764590119
 21
-94.85209737973022
 31
0.0
  0
LINE
  5
1EC
330
1F
100
AcDbEntity
  8
建具
  6
Continuous
 62
     4
370
     9
100
AcDbLine
 10
-276.6626734224258
 20
-84.81353430017226
 30
0.0
 11
-211.7432661230905
 21
-83.49110401805413
 31
0.0
  0
LINE
  5
1ED
330
1F
100
AcDbEntity
  8
建具
  6
Continuous
 62
     4
370
     9
100
AcDbLine
 10
-274.5039094338276
 20
-190.7915649431199
 30
0.0
 11
-209.5850223336101
 21
-189.4692931580499
 31
0.0
  0
LINE
  5
1EE
330
1F
100
AcDbEntity
  8
0-E
  6
JWW_PHANTOM1
 62
     7
370
     9
100
AcDbLine
 10
-274.4835451364249
 20
-191.7913702904593
 30
0.0
 11
-284.7008797806393
 21
-193.2575997034661
 31
0.0
  0
LINE
  5
1EF
330
1F
100
AcDbEntity
  8
0-E
  6
JWW_PHANTOM1
 62
     7
370
     9
100
AcDbLine
 10
-276.6824933522187
 20
-83.8136794648682
 30
0.0
 11
-284.7008797806393
 21
-82.99450518805227
 31
0.0
  0
LINE
  5
1F0
330
1F
100
AcDbEntity
  8
0-E
  6
JWW_PHANTOM1
 62
     7
370
     9
100
AcDbLine
 10
-284.7008797806393
 20
-82.99450518805227
 30
0.0
 11
-284.7008797806393
 21
-193.2575997034661
 31
0.0
  0
LINE
  5
1F1
330
1F
100
AcDbEntity
  8
0-E
  6
JWW_PHANTOM1
 62
     7
370
     9
100
AcDbLine
 10
-272.5866219681393
 20
-88.48116591871576
 30
0.0
 11
-270.581072717717
 21
-186.9608296644928
 31
0.0
  0
LINE
  5
1F2
330
1F
100
AcDbEntity
  8
0-E
  6
JWW_PHANTOM1
 62
     7
370
     9
100
AcDbLine
 10
-272.5866219681393
 20
-88.48116591871576
 30
0.0
 11
-276.5959403290775
 21
-88.06274502973426
 31
0.0
  0
LINE
  5
1F3
330
1F
100
AcDbEntity
  8
0-E
  6
JWW_PHANTOM1
 62
     7
370
     9
100
AcDbLine
 10
-276.6824933522187
 20
-83.8136794648682
 30
0.0
 11
-276.5959403290775
 21
-88.06274502973426
 31
0.0
  0
LINE
  5
1F4
330
1F
100
AcDbEntity
  8
0-E
  6
JWW_PHANTOM1
 62
     7
370
     9
100
AcDbLine
 10
-270.581072717717
 20
-186.9608296644928
 30
0.0
 11
-274.5701010059519
 21
-187.5421649906707
 31
0.0
  0
LINE
  5
1F5
330
1F
100
AcDbEntity
  8
0-E
  6
JWW_PHANTOM1
 62
     7
370
     9
100
AcDbLine
 10
-274.5701010059519
 20
-187.5421649906707
 30
0.0
 11
-274.4835451364249
 21
-191.7913702904593
 31
0.0
  0
LINE
  5
1F6
330
1F
100
AcDbEntity
  8
通り芯
  6
Continuous
 62
     3
370
     9
100
AcDbLine
 10
-219.6703399007741
 20
-87.15351749015045
 30
0.0
 11
-217.6546242317536
 21
-186.1330199287288
 31
0.0
  0
LINE
  5
1F7
330
1F
100
AcDbEntity
  8
建具
  6
Continuous
 62
     4
370
     9
100
AcDbLine
 10
-276.6626734224258
 20
-84.81353430017226
 30
0.0
 11
-274.5039094338276
 21
-190.7915649431199
 31
0.0
  0
LINE
  5
1F8
330
1F
100
AcDbEntity
  8
0-F
  6
Continuous
 62
     7
370
     9
100
AcDbLine
 10
-219.6703399007741
 20
-31.97083791471291
 30
0.0
 11
-164.7008797806393
 21
-31.97083791471291
 31
0.0
  0
LINE
  5
1F9
330
1F
100
AcDbEntity
  8
0-F
  6
Continuous
 62
     7
370
     9
100
AcDbLine
 10
-219.6703399007741
 20
-31.97083791471291
 30
0.0
 11
-214.7131155939051
 21
-31.31820695361265
 31
0.0
  0
LINE
  5
1FA
330
1F
100
AcDbEntity
  8
0-F
  6
Continuous
 62
     7
370
     9
100
AcDbLine
 10
-219.6703399007741
 20
-31.97083791471291
 30
0.0
 11
-214.7131155939051
 21
-32.62346887581317
 31
0.0
  0
LINE
  5
1FB
330
1F
100
AcDbEntity
  8
0-F
  6
Continuous
 62
     7
370
     9
100
AcDbLine
 10
-164.7008797806393
 20
-31.97083791471291
 30
0.0
 11
-169.6581040875083
 21
-31.31820695361265
 31
0.0
  0
LINE
  5
1FC
330
1F
100
AcDbEntity
  8
0-F
  6
Continuous
 62
     7
370
     9
100
AcDbLine
 10
-164.7008797806393
 20
-31.97083791471291
 30
0.0
 11
-169.6581040875083
 21
-32.62346887581317
 31
0.0
  0
TEXT
  5
1FD
330
1F
100
AcDbEntity
  8
0-F
  6
Continuous
 62
     2
370
   211
100
AcDbText
 10
-200.6856098407067
 20
-28.84283791471291
 30
0.0
 40
6.096
  1
５５
 41
1.0625
  7
ＭＳ ゴシック
100
AcDbText
  0
LINE
  5
1FE
330
1F
100
AcDbEntity
  8
0-F
  6
Continuous
 62
     7
370
     9
100
AcDbLine
 10
-284.7008797806393
 20
-13.35998264262702
 30
0.0
 11
-164.7008797806393
 21
-13.35998264262702
 31
0.0
  0
LINE
  5
1FF
330
1F
100
AcDbEntity
  8
0-F
  6
Continuous
 62
     7
370
     9
100
AcDbLine
 10
-284.7008797806393
 20
-13.35998264262702
 30
0.0
 11
-279.7436554737702
 21
-12.70735168152676
 31
0.0
  0
LINE
  5
200
330
1F
100
AcDbEntity
  8
0-F
  6
Continuous
 62
     7
370
     9
100
AcDbLine
 10
-284.7008797806393
 20
-13.35998264262702
 30
0.0
 11
-279.7436554737702
 21
-14.01261360372727
 31
0.0
  0
LINE
  5
201
330
1F
100
AcDbEntity
  8
0-F
  6
Continuous
 62
     7
370
     9
100
AcDbLine
 10
-164.7008797806393
 20
-13.35998264262702
 30
0.0
 11
-169.6581040875083
 21
-12.70735168152676
 31
0.0
  0
LINE
  5
202
330
1F
100
AcDbEntity
  8
0-F
  6
Continuous
 62
     7
370
     9
100
AcDbLine
 10
-164.7008797806393
 20
-13.35998264262702
 30
0.0
 11
-169.6581040875083
 21
-14.01261360372727
 31
0.0
  0
LINE
  5
203
330
1F
100
AcDbEntity
  8
0-F
  6
Continuous
 62
     7
370
     9
100
AcDbLine
 10
-164.7008797806393
 20
-13.35998264262702
 30
0.0
 11
-49.70123158434521
 21
-13.35998264262702
 31
0.0
  0
LINE
  5
204
330
1F
100
AcDbEntity
  8
0-F
  6
Continuous
 62
     7
370
     9
100
AcDbLine
 10
-164.7008797806393
 20
-13.35998264262702
 30
0.0
 11
-159.7436554737702
 21
-12.70735168152676
 31
0.0
  0
LINE
  5
205
330
1F
100
AcDbEntity
  8
0-F
  6
Continuous
 62
     7
370
     9
100
AcDbLine
 10
-164.7008797806393
 20
-13.35998264262702
 30
0.0
 11
-159.7436554737702
 21
-14.01261360372727
 31
0.0
  0
LINE
  5
206
330
1F
100
AcDbEntity
  8
0-F
  6
Continuous
 62
     7
370
     9
100
AcDbLine
 10
-49.70123158434521
 20
-13.35998264262702
 30
0.0
 11
-54.65845589121426
 21
-12.70735168152676
 31
0.0
  0
LINE
  5
207
330
1F
100
AcDbEntity
  8
0-F
  6
Continuous
 62
     7
370
     9
100
AcDbLine
 10
-49.70123158434521
 20
-13.35998264262702
 30
0.0
 11
-54.65845589121426
 21
-14.01261360372727
 31
0.0
  0
TEXT
  5
208
330
1F
100
AcDbEntity
  8
0-F
  6
Continuous
 62
     2
370
   211
100
AcDbText
 10
-120.2010556824922
 20
-10.23198264262702
 30
0.0
 40
6.096
  1
１１５
 41
1.083333333333333
  7
ＭＳ ゴシック
100
AcDbText
  0
LINE
  5
209
330
1F
100
AcDbEntity
  8
0-F
  6
Continuous
 62
     7
370
     9
100
AcDbLine
 10
-12.84548090005233
 20
-187.469811103189
 30
0.0
 11
-12.84548090005233
 21
-155.6749931163853
 31
0.0
  0
LINE
  5
20A
330
1F
100
AcDbEntity
  8
0-F
  6
Continuous
 62
     7
370
     9
100
AcDbLine
 10
-12.84548090005233
 20
-187.469811103189
 30
0.0
 11
-13.49811186115259
 21
-182.5125867963199
 31
0.0
  0
LINE
  5
20B
330
1F
100
AcDbEntity
  8
0-F
  6
Continuous
 62
     7
370
     9
100
AcDbLine
 10
-12.84548090005233
 20
-187.469811103189
 30
0.0
 11
-12.19284993895207
 21
-182.5125867963199
 31
0.0
  0
LINE
  5
20C
330
1F
100
AcDbEntity
  8
0-F
  6
Continuous
 62
     7
370
     9
100
AcDbLine
 10
-12.84548090005233
 20
-155.6749931163853
 30
0.0
 11
-13.49811186115259
 21
-160.6322174232543
 31
0.0
  0
LINE
  5
20D
330
1F
100
AcDbEntity
  8
0-F
  6
Continuous
 62
     7
370
     9
100
AcDbLine
 10
-12.84548090005233
 20
-155.6749931163853
 30
0.0
 11
-12.19284993895207
 21
-160.6322174232543
 31
0.0
  0
LINE
  5
20E
330
1F
100
AcDbEntity
  8
0-F
  6
Continuous
 62
     7
370
     9
100
AcDbLine
 10
-12.24548090005233
 20
-155.6749931163853
 30
0.0
 11
-47.40881777563097
 21
-155.6749931163853
 31
0.0
  0
LINE
  5
20F
330
1F
100
AcDbEntity
  8
0-F
  6
Continuous
 62
     7
370
     9
100
AcDbLine
 10
-12.84548090005233
 20
-155.6749931163853
 30
0.0
 11
-12.84548090005232
 21
-40.67455240568795
 31
0.0
  0
LINE
  5
210
330
1F
100
AcDbEntity
  8
0-F
  6
Continuous
 62
     7
370
     9
100
AcDbLine
 10
-12.84548090005233
 20
-155.6749931163853
 30
0.0
 11
-13.49811186115259
 21
-150.7177688095162
 31
0.0
  0
LINE
  5
211
330
1F
100
AcDbEntity
  8
0-F
  6
Continuous
 62
     7
370
     9
100
AcDbLine
 10
-12.84548090005233
 20
-155.6749931163853
 30
0.0
 11
-12.19284993895207
 21
-150.7177688095162
 31
0.0
  0
LINE
  5
212
330
1F
100
AcDbEntity
  8
0-F
  6
Continuous
 62
     7
370
     9
100
AcDbLine
 10
-12.84548090005232
 20
-40.67455240568795
 30
0.0
 11
-13.49811186115258
 21
-45.631776712557
 31
0.0
  0
LINE
  5
213
330
1F
100
AcDbEntity
  8
0-F
  6
Continuous
 62
     7
370
     9
100
AcDbLine
 10
-12.84548090005232
 20
-40.67455240568795
 30
0.0
 11
-12.19284993895207
 21
-45.631776712557
 31
0.0
  0
TEXT
  5
214
330
1F
100
AcDbEntity
  8
0-F
  6
Continuous
 62
     2
370
   211
100
AcDbText
 10
-15.97348090005233
 20
-111.1747727610366
 30
0.0
 40
6.096
  1
１１５
 50
90.0
 41
1.083333333333333
  7
ＭＳ ゴシック
100
AcDbText
  0
LINE
  5
215
330
1F
100
AcDbEntity
  8
0-F
  6
Continuous
 62
     7
370
     9
100
AcDbLine
 10
-34.99514309865959
 20
-155.6749931163853
 30
0.0
 11
-34.99514309865959
 21
-135.8498141195857
 31
0.0
  0
LINE
  5
216
330
1F
100
AcDbEntity
  8
0-F
  6
Continuous
 62
     7
370
     9
100
AcDbLine
 10
-34.99514309865959
 20
-155.6749931163853
 30
0.0
 11
-35.64777405975985
 21
-150.7177688095162
 31
0.0
  0
LINE
  5
217
330
1F
100
AcDbEntity
  8
0-F
  6
Continuous
 62
     7
370
     9
100
AcDbLine
 10
-34.99514309865959
 20
-155.6749931163853
 30
0.0
 11
-34.34251213755933
 21
-150.7177688095162
 31
0.0
  0
LINE
  5
218
330
1F
100
AcDbEntity
  8
0-F
  6
Continuous
 62
     7
370
     9
100
AcDbLine
 10
-34.99514309865959
 20
-135.8498141195857
 30
0.0
 11
-35.64777405975985
 21
-140.8070384264547
 31
0.0
  0
LINE
  5
219
330
1F
100
AcDbEntity
  8
0-F
  6
Continuous
 62
     7
370
     9
100
AcDbLine
 10
-34.99514309865959
 20
-135.8498141195857
 30
0.0
 11
-34.34251213755933
 21
-140.8070384264547
 31
0.0
  0
LINE
  5
21A
330
1F
100
AcDbEntity
  8
0-F
  6
Continuous
 62
     7
370
     9
100
AcDbLine
 10
-76.60931995657987
 20
-124.8078128802727
 30
0.0
 11
-51.70123158434521
 21
-124.8078128802727
 31
0.0
  0
LINE
  5
21B
330
1F
100
AcDbEntity
  8
0-F
  6
Continuous
 62
     7
370
     9
100
AcDbLine
 10
-76.60931995657987
 20
-124.8078128802727
 30
0.0
 11
-71.65209564971082
 21
-124.1551819191725
 31
0.0
  0
LINE
  5
21C
330
1F
100
AcDbEntity
  8
0-F
  6
Continuous
 62
     7
370
     9
100
AcDbLine
 10
-76.60931995657987
 20
-124.8078128802727
 30
0.0
 11
-71.65209564971082
 21
-125.460443841373
 31
0.0
  0
LINE
  5
21D
330
1F
100
AcDbEntity
  8
0-F
  6
Continuous
 62
     7
370
     9
100
AcDbLine
 10
-51.70123158434521
 20
-124.8078128802727
 30
0.0
 11
-56.65845589121426
 21
-124.1551819191725
 31
0.0
  0
LINE
  5
21E
330
1F
100
AcDbEntity
  8
0-F
  6
Continuous
 62
     7
370
     9
100
AcDbLine
 10
-51.70123158434521
 20
-124.8078128802727
 30
0.0
 11
-56.65845589121426
 21
-125.460443841373
 31
0.0
  0
LINE
  5
21F
330
1F
100
AcDbEntity
  8
0-F
  6
Continuous
 62
     7
370
     9
100
AcDbLine
 10
-76.60931995657987
 20
-124.2078128802727
 30
0.0
 11
-76.60931995657987
 21
-154.1305468814485
 31
0.0
  0
LINE
  5
220
330
1F
100
AcDbEntity
  8
0-F
  6
Continuous
 62
     7
370
     9
100
AcDbLine
 10
-51.70123158434521
 20
-124.2078128802727
 30
0.0
 11
-51.70123158434521
 21
-154.1305468814485
 31
0.0
  0
LINE
  5
221
330
1F
100
AcDbEntity
  8
0-F
  6
Continuous
 62
     7
370
     9
100
AcDbLine
 10
-143.6947759932375
 20
-67.5826407779227
 30
0.0
 11
-143.6947759932375
 21
-42.67455240568793
 31
0.0
  0
LINE
  5
222
330
1F
100
AcDbEntity
  8
0-F
  6
Continuous
 62
     7
370
     9
100
AcDbLine
 10
-143.6947759932375
 20
-67.5826407779227
 30
0.0
 11
-144.3474069543378
 21
-62.62541647105365
 31
0.0
  0
LINE
  5
223
330
1F
100
AcDbEntity
  8
0-F
  6
Continuous
 62
     7
370
     9
100
AcDbLine
 10
-143.6947759932375
 20
-67.5826407779227
 30
0.0
 11
-143.0421450321373
 21
-62.62541647105365
 31
0.0
  0
LINE
  5
224
330
1F
100
AcDbEntity
  8
0-F
  6
Continuous
 62
     7
370
     9
100
AcDbLine
 10
-143.6947759932375
 20
-42.67455240568793
 30
0.0
 11
-144.3474069543378
 21
-47.63177671255698
 31
0.0
  0
LINE
  5
225
330
1F
100
AcDbEntity
  8
0-F
  6
Continuous
 62
     7
370
     9
100
AcDbLine
 10
-143.6947759932375
 20
-42.67455240568793
 30
0.0
 11
-143.0421450321373
 21
-47.63177671255698
 31
0.0
  0
LINE
  5
226
330
1F
100
AcDbEntity
  8
0-F
  6
Continuous
 62
     7
370
     9
100
AcDbLine
 10
-143.0947759932375
 20
-67.5826407779227
 30
0.0
 11
-163.2169399830938
 21
-67.5826407779227
 31
0.0
  0
LINE
  5
227
330
1F
100
AcDbEntity
  8
0-F
  6
Continuous
 62
     7
370
     9
100
AcDbLine
 10
-143.0947759932375
 20
-42.67455240568793
 30
0.0
 11
-163.2169399830938
 21
-42.67455240568793
 31
0.0
  0
LINE
  5
228
330
1F
100
AcDbEntity
  8
0-F
  6
Continuous
 62
     7
370
     9
100
AcDbLine
 10
-34.39514309865959
 20
-135.8498141195857
 30
0.0
 11
-175.9957227387997
 21
-135.8498141195857
 31
0.0
  0
LINE
  5
229
330
1F
100
AcDbEntity
  8
0-F
  6
Continuous
 62
     7
370
     9
100
AcDbLine
 10
-12.24548090005233
 20
-187.469811103189
 30
0.0
 11
-197.7422485207101
 21
-187.469811103189
 31
0.0
  0
LINE
  5
22A
330
1F
100
AcDbEntity
  8
0-F
  6
Continuous
 62
     7
370
     9
100
AcDbLine
 10
-12.24548090005232
 20
-40.67455240568795
 30
0.0
 11
-162.7045718250679
 21
-40.67455240568795
 31
0.0
  0
LINE
  5
22B
330
1F
100
AcDbEntity
  8
0-F
  6
Continuous
 62
     7
370
     9
100
AcDbLine
 10
-49.70123158434521
 20
-12.75998264262702
 30
0.0
 11
-49.70123158434521
 21
-154.1305468814485
 31
0.0
  0
LINE
  5
22C
330
1F
100
AcDbEntity
  8
0-F
  6
Continuous
 62
     7
370
     9
100
AcDbLine
 10
-284.7008797806393
 20
-12.75998264262702
 30
0.0
 11
-284.7008797806393
 21
-78.96233305156383
 31
0.0
  0
LINE
  5
22D
330
1F
100
AcDbEntity
  8
0-F
  6
Continuous
 62
     7
370
     9
100
AcDbLine
 10
-219.6703399007741
 20
-31.37083791471291
 30
0.0
 11
-219.6703399007741
 21
-85.73233180682378
 31
0.0
  0
LINE
  5
22E
330
1F
100
AcDbEntity
  8
0-F
  6
Continuous
 62
     7
370
     9
100
AcDbLine
 10
-164.7008797806393
 20
-12.75998264262702
 30
0.0
 11
-164.7008797806393
 21
-38.97458205331046
 31
0.0
  0
LINE
  5
22F
330
1F
100
AcDbEntity
  8
0-F
  6
Continuous
 62
     7
370
     9
100
AcDbLine
 10
109.8176519348458
 20
-29.02922264951889
 30
0.0
 11
256.8177276083508
 21
-29.02922264951889
 31
0.0
  0
LINE
  5
230
330
1F
100
AcDbEntity
  8
0-F
  6
Continuous
 62
     7
370
     9
100
AcDbLine
 10
109.8176519348458
 20
-29.02922264951889
 30
0.0
 11
114.7748762417148
 21
-28.37659168841864
 31
0.0
  0
LINE
  5
231
330
1F
100
AcDbEntity
  8
0-F
  6
Continuous
 62
     7
370
     9
100
AcDbLine
 10
109.8176519348458
 20
-29.02922264951889
 30
0.0
 11
114.7748762417148
 21
-29.68185361061915
 31
0.0
  0
LINE
  5
232
330
1F
100
AcDbEntity
  8
0-F
  6
Continuous
 62
     7
370
     9
100
AcDbLine
 10
256.8177276083508
 20
-29.02922264951889
 30
0.0
 11
251.8605033014817
 21
-28.37659168841864
 31
0.0
  0
LINE
  5
233
330
1F
100
AcDbEntity
  8
0-F
  6
Continuous
 62
     7
370
     9
100
AcDbLine
 10
256.8177276083508
 20
-29.02922264951889
 30
0.0
 11
251.8605033014817
 21
-29.68185361061915
 31
0.0
  0
LINE
  5
234
330
1F
100
AcDbEntity
  8
0-F
  6
Continuous
 62
     7
370
     9
100
AcDbLine
 10
109.8176519348458
 20
-28.42922264951889
 30
0.0
 11
109.8176519348458
 21
-72.61515320825977
 31
0.0
  0
LINE
  5
235
330
1F
100
AcDbEntity
  8
0-F
  6
Continuous
 62
     7
370
     9
100
AcDbLine
 10
256.8177276083508
 20
-28.42922264951889
 30
0.0
 11
256.8177276083508
 21
-72.61515320825977
 31
0.0
  0
TEXT
  5
236
330
1F
100
AcDbEntity
  8
0-F
  6
Continuous
 62
     2
370
   211
100
AcDbText
 10
170.3176897715983
 20
-25.90122264951889
 30
0.0
 40
6.096
  1
１４７
 41
1.083333333333333
  7
ＭＳ ゴシック
100
AcDbText
  0
LINE
  5
237
330
1F
100
AcDbEntity
  8
0-F
  6
Continuous
 62
     7
370
     9
100
AcDbLine
 10
78.31768754666493
 20
-15.83874366463678
 30
0.0
 11
288.3177276083508
 21
-15.83874366463678
 31
0.0
  0
LINE
  5
238
330
1F
100
AcDbEntity
  8
0-F
  6
Continuous
 62
     7
370
     9
100
AcDbLine
 10
78.31768754666493
 20
-15.83874366463678
 30
0.0
 11
83.27491185353398
 21
-15.18611270353652
 31
0.0
  0
LINE
  5
239
330
1F
100
AcDbEntity
  8
0-F
  6
Continuous
 62
     7
370
     9
100
AcDbLine
 10
78.31768754666493
 20
-15.83874366463678
 30
0.0
 11
83.27491185353398
 21
-16.49137462573704
 31
0.0
  0
LINE
  5
23A
330
1F
100
AcDbEntity
  8
0-F
  6
Continuous
 62
     7
370
     9
100
AcDbLine
 10
288.3177276083508
 20
-15.83874366463678
 30
0.0
 11
283.3605033014817
 21
-15.18611270353652
 31
0.0
  0
LINE
  5
23B
330
1F
100
AcDbEntity
  8
0-F
  6
Continuous
 62
     7
370
     9
100
AcDbLine
 10
288.3177276083508
 20
-15.83874366463678
 30
0.0
 11
283.3605033014817
 21
-16.49137462573704
 31
0.0
  0
LINE
  5
23C
330
1F
100
AcDbEntity
  8
0-F
  6
Continuous
 62
     7
370
     9
100
AcDbLine
 10
78.31768754666493
 20
-15.23874366463678
 30
0.0
 11
78.31768754666493
 21
-47.95469249739322
 31
0.0
  0
LINE
  5
23D
330
1F
100
AcDbEntity
  8
0-F
  6
Continuous
 62
     7
370
     9
100
AcDbLine
 10
288.3177276083508
 20
-15.23874366463678
 30
0.0
 11
288.3177276083508
 21
-47.95469249739322
 31
0.0
  0
TEXT
  5
23E
330
1F
100
AcDbEntity
  8
0-F
  6
Continuous
 62
     2
370
   211
100
AcDbText
 10
170.3177075775079
 20
-12.71074366463678
 30
0.0
 40
6.096
  1
２１０
 41
1.083333333333333
  7
ＭＳ ゴシック
100
AcDbText
  0
LINE
  5
23F
330
1F
100
AcDbEntity
  8
その他
  6
Continuous
 62
     7
370
     9
100
AcDbLine
 10
-224.2446683192464
 20
-135.8498141195857
 30
0.0
 11
-223.5920457870462
 21
-130.8926047129134
 31
0.0
  0
LINE
  5
240
330
1F
100
AcDbEntity
  8
その他
  6
Continuous
 62
     7
370
     9
100
AcDbLine
 10
-224.2446683192464
 20
-135.8498141195857
 30
0.0
 11
-224.8972908514465
 21
-130.8926047129134
 31
0.0
  0
ARC
  5
241
330
1F
100
AcDbEntity
  8
その他
  6
Continuous
 62
     7
370
     9
100
AcDbCircle
 10
-176.2455244610328
 20
-135.8498141195856
 30
0.0
 40
47.99914695121146
100
AcDbArc
 50
168.8560180664062
 51
193.0822448730468
  0
TEXT
  5
242
330
1F
100
AcDbEntity
  8
その他
  6
Continuous
 62
     2
370
     9
100
AcDbText
 10
-224.5211457062357
 20
-163.0956006967907
 30
0.0
 40
6.096
  1
1ﾟ10'
 50
90.58334042999999
 41
1.099999999999999
  7
ＭＳ ゴシック
100
AcDbText
  0
LINE
  5
243
330
1F
100
AcDbEntity
  8
通り芯
  6
JWW_CENTER1
 62
     3
370
     9
100
AcDbLine
 10
-179.7009103249755
 20
-135.8498141195857
 30
0.0
 11
-225.6656058710409
 21
-135.8498141195857
 31
0.0
  0
LINE
  5
244
330
1F
100
AcDbEntity
  8
その他
  6
Continuous
 62
     7
370
     9
100
AcDbLine
 10
-224.2361019158054
 20
-136.756778066752
 30
0.0
 11
-223.4826723998636
 21
-141.699685451676
 31
0.0
  0
LINE
  5
245
330
1F
100
AcDbEntity
  8
その他
  6
Continuous
 62
     7
370
     9
100
AcDbLine
 10
-224.2361019158054
 20
-136.756778066752
 30
0.0
 11
-224.7876700244414
 21
-141.726260488627
 31
0.0
  0
LINE
  5
246
330
1F
100
AcDbEntity
  8
0-F
  6
Continuous
 62
     7
370
     9
100
AcDbLine
 10
-236.7276356343092
 20
-179.3280257823621
 30
0.0
 11
-238.4504949199292
 21
-94.72943880561863
 31
0.0
  0
LINE
  5
247
330
1F
100
AcDbEntity
  8
0-F
  6
Continuous
 62
     7
370
     9
100
AcDbLine
 10
-236.7276356343092
 20
-179.3280257823621
 30
0.0
 11
-237.4810647779187
 21
-174.3851172736438
 31
0.0
  0
LINE
  5
248
330
1F
100
AcDbEntity
  8
0-F
  6
Continuous
 62
     7
370
     9
100
AcDbLine
 10
-236.7276356343092
 20
-179.3280257823621
 30
0.0
 11
-236.1760734421449
 21
-174.3585409853056
 31
0.0
  0
LINE
  5
249
330
1F
100
AcDbEntity
  8
0-F
  6
Continuous
 62
     7
370
     9
100
AcDbLine
 10
-238.4504949199292
 20
-94.72943880561863
 30
0.0
 11
-239.0020571120934
 21
-99.69892360267505
 31
0.0
  0
LINE
  5
24A
330
1F
100
AcDbEntity
  8
0-F
  6
Continuous
 62
     7
370
     9
100
AcDbLine
 10
-238.4504949199292
 20
-94.72943880561863
 30
0.0
 11
-237.6970657763196
 21
-99.67234731433693
 31
0.0
  0
LINE
  5
24B
330
1F
100
AcDbEntity
  8
0-F
  6
Continuous
 62
     7
370
     9
100
AcDbLine
 10
-237.3275112517211
 20
-179.3402423135668
 30
0.0
 11
-216.2462420646716
 21
-178.9109200084372
 31
0.0
  0
LINE
  5
24C
330
1F
100
AcDbEntity
  8
0-F
  6
Continuous
 62
     7
370
     9
100
AcDbLine
 10
-239.0503705373411
 20
-94.74165533682333
 30
0.0
 11
-217.9691013502915
 21
-94.31233303169373
 31
0.0
  0
LINE
  5
24D
330
1F
100
AcDbEntity
  8
通り芯
  6
Continuous
 62
     3
370
     9
100
AcDbLine
 10
-218.1154972793136
 20
-92.75545189395493
 30
0.0
 11
-197.8738100696532
 21
-93.3880234154959
 31
0.0
  0
LINE
  5
24E
330
1F
100
AcDbEntity
  8
通り芯
  6
Continuous
 62
     3
370
     9
100
AcDbLine
 10
-214.8016792347412
 20
-178.8815013316703
 30
0.0
 11
-216.5245278405953
 21
-94.28291413743224
 31
0.0
  0
LINE
  5
24F
330
1F
100
AcDbEntity
  8
0-F
  6
Continuous
 62
     7
370
     9
100
AcDbLine
 10
-253.2144969356996
 20
-190.3579409128196
 30
0.0
 11
-255.3727519069179
 21
-84.37985992584194
 31
0.0
  0
LINE
  5
250
330
1F
100
AcDbEntity
  8
0-F
  6
Continuous
 62
     7
370
     9
100
AcDbLine
 10
-253.2144969356996
 20
-190.3579409128196
 30
0.0
 11
-253.9679260793092
 21
-185.4150324041013
 31
0.0
  0
LINE
  5
251
330
1F
100
AcDbEntity
  8
0-F
  6
Continuous
 62
     7
370
     9
100
AcDbLine
 10
-253.2144969356996
 20
-190.3579409128196
 30
0.0
 11
-252.6629347435353
 21
-185.3884561157631
 31
0.0
  0
LINE
  5
252
330
1F
100
AcDbEntity
  8
0-F
  6
Continuous
 62
     7
370
     9
100
AcDbLine
 10
-255.3727519069179
 20
-84.37985992584194
 30
0.0
 11
-255.9243140990822
 21
-89.34934472289837
 31
0.0
  0
LINE
  5
253
330
1F
100
AcDbEntity
  8
0-F
  6
Continuous
 62
     7
370
     9
100
AcDbLine
 10
-255.3727519069179
 20
-84.37985992584194
 30
0.0
 11
-254.6193227633084
 21
-89.32276843456025
 31
0.0
  0
TEXT
  5
254
330
1F
100
AcDbEntity
  8
0-F
  6
Continuous
 62
     2
370
   211
100
AcDbText
 10
-239.5175125211217
 20
-150.8001537793944
 30
0.0
 40
6.096
  1
Ｒｃ３
 50
91.1666734171237
 41
1.083333333333332
  7
ＭＳ ゴシック
100
AcDbText
  0
TEXT
  5
255
330
1F
100
AcDbEntity
  8
0-F
  6
Continuous
 62
     2
370
   211
100
AcDbText
 10
-256.9866891438974
 20
-155.8434877529093
 30
0.0
 40
6.096
  1
Φ１０６
 50
91.1666734171237
 41
1.09375
  7
ＭＳ ゴシック
100
AcDbText
  0
LINE
  5
256
330
1F
100
AcDbEntity
  8
建具
  6
Continuous
 62
     4
370
     9
100
AcDbLine
 10
-276.601580530217
 20
-87.81285136626174
 30
0.0
 11
-258.3472661985978
 21
-87.44113026395699
 31
0.0
  0
LINE
  5
257
330
1F
100
AcDbEntity
  8
建具
  6
Continuous
 62
     4
370
     9
100
AcDbLine
 10
-252.5097232700882
 20
-87.32225765922826
 30
0.0
 11
-211.6821760012974
 21
-86.49086730407993
 31
0.0
  0
LINE
  5
258
330
1F
100
AcDbEntity
  8
建具
  6
Continuous
 62
     4
370
     9
100
AcDbLine
 10
-274.5650146980274
 20
-187.7920499251723
 30
0.0
 11
-256.2388497267846
 21
-187.4188764208234
 31
0.0
  0
LINE
  5
259
330
1F
100
AcDbEntity
  8
建具
  6
Continuous
 62
     4
370
     9
100
AcDbLine
 10
-249.9885846254634
 20
-187.2916030204896
 30
0.0
 11
-209.6461005628044
 21
-186.4701138450172
 31
0.0
  0
LINE
  5
25A
330
1F
100
AcDbEntity
  8
通り芯
  6
JWW_CENTER1
 62
     3
370
     9
100
AcDbLine
 10
-179.7009103249755
 20
-135.8498141195857
 30
0.0
 11
-234.351363598354
 21
-136.9627764544207
 31
0.0
  0
ARC
  5
25B
330
1F
100
AcDbEntity
  8
0-A
  6
Continuous
 62
     2
370
     9
100
AcDbCircle
 10
-171.1007318383833
 20
124.6760046179453
 30
0.0
 40
10.00000128874908
100
AcDbArc
 50
323.1304709645542
 51
36.869873046875
  0
TEXT
  5
25C
330
1F
100
AcDbEntity
  8
0-F
  6
Continuous
 62
     2
370
   211
100
AcDbText
 10
-228.7008797806393
 20
-10.23198264262702
 30
0.0
 40
6.096
  1
Ｌ
  7
ＭＳ ゴシック
100
AcDbText
  0
TEXT
  5
25D
330
1F
100
AcDbEntity
  8
0-F
  6
Continuous
 62
     2
370
     0
100
AcDbText
 10
204.3205361671296
 20
-226.847205893008
 30
0.0
 40
6.096
  1
※ご注文の際はＬ寸法をご指示ください。
 41
1.118421052631579
  7
ＭＳ ゴシック
100
AcDbText
  0
LINE
  5
25E
330
1F
100
AcDbEntity
  8
通り芯
  6
JWW_CENTER1
 62
     3
370
     9
100
AcDbLine
 10
-266.2621012737875
 20
-137.6126420453225
 30
0.0
 11
-291.0383755459032
 21
-138.1172135248027
 31
0.0
  0
TEXT
  5
25F
330
1F
100
AcDbEntity
  8
0-F
  6
Continuous
 62
     2
370
   211
100
AcDbText
 10
-38.12314309865958
 20
-154.5124036179855
 30
0.0
 40
6.096
  1
(20)
 50
90.0
 41
1.09375
  7
ＭＳ ゴシック
100
AcDbText
  0
TEXT
  5
260
330
1F
100
AcDbEntity
  8
0-F
  6
Continuous
 62
     2
370
   211
100
AcDbText
 10
-15.97348090005233
 20
-180.3224021097871
 30
0.0
 40
6.096
  1
(32)
 50
90.0
 41
1.09375
  7
ＭＳ ゴシック
100
AcDbText
  0
TEXT
  5
261
330
1F
100
AcDbEntity
  8
0-F
  6
Continuous
 62
     2
370
   211
100
AcDbText
 10
-146.8227759932375
 20
-63.87859659180532
 30
0.0
 40
6.096
  1
(25)
 50
90.0
 41
1.09375
  7
ＭＳ ゴシック
100
AcDbText
  0
TEXT
  5
262
330
1F
100
AcDbEntity
  8
0-F
  6
Continuous
 62
     7
370
     9
100
AcDbText
 10
-204.5355564305401
 20
-214.8389146293446
 30
0.0
 40
4.572
  1
アンカー：ＳＷＲＭ８
 41
1.149999999999999
  7
ＭＳ ゴシック
100
AcDbText
  0
LINE
  5
263
330
1F
100
AcDbEntity
  8
0-F
  6
Continuous
 62
     7
370
     9
100
AcDbLine
 10
-205.7405221417259
 20
-216.7767068203453
 30
0.0
 11
-133.9397089912501
 21
-216.7767068203453
 31
0.0
  0
TEXT
  5
264
330
1F
100
AcDbEntity
  8
0-F
  6
Continuous
 62
     7
370
     9
100
AcDbText
 10
-190.340115566488
 20
-223.2471887024831
 30
0.0
 40
4.572
  1
りん酸塩被膜
 41
1.138888888888887
  7
ＭＳ ゴシック
100
AcDbText
  0
TEXT
  5
265
330
1F
100
AcDbEntity
  8
0-F
  6
Continuous
 62
     7
370
     9
100
AcDbText
 10
-33.96618864749853
 20
-204.0062342957186
 30
0.0
 40
4.572
  1
本体：ＦＣ１５０
 41
1.145833333333333
  7
ＭＳ ゴシック
100
AcDbText
  0
LINE
  5
266
330
1F
100
AcDbEntity
  8
0-F
  6
Continuous
 62
     7
370
     9
100
AcDbLine
 10
-34.94809828993048
 20
-205.6384021105553
 30
0.0
 11
21.18688513614264
 21
-205.6384021105553
 31
0.0
  0
TEXT
  5
267
330
1F
100
AcDbEntity
  8
0-F
  6
Continuous
 62
     7
370
     9
100
AcDbText
 10
-22.56012463099653
 20
-212.4507509295173
 30
0.0
 40
4.572
  1
樹脂系塗装
 41
1.133333333333333
  7
ＭＳ ゴシック
100
AcDbText
  0
TEXT
  5
268
330
1F
100
AcDbEntity
  8
0-F
  6
Continuous
 62
     7
370
     9
100
AcDbText
 10
-37.60256822706539
 20
-21.6890828135397
 30
0.0
 40
4.572
  1
ストレーナー：ＦＣ１５０
 41
1.152777777777778
  7
ＭＳ ゴシック
100
AcDbText
  0
LINE
  5
269
330
1F
100
AcDbEntity
  8
0-F
  6
Continuous
 62
     7
370
     9
100
AcDbLine
 10
-36.15519304670208
 20
-24.00940237823983
 30
0.0
 11
45.02354142195803
 21
-24.00940237823983
 31
0.0
  0
TEXT
  5
26A
330
1F
100
AcDbEntity
  8
0-F
  6
Continuous
 62
     7
370
     9
100
AcDbText
 10
-12.56582581237201
 20
-31.68761195537298
 30
0.0
 40
4.572
  1
樹脂系塗装
 41
1.133333333333333
  7
ＭＳ ゴシック
100
AcDbText
  0
LINE
  5
26B
330
1F
100
AcDbEntity
  8
0-F
  6
Continuous
 62
     7
370
     9
100
AcDbLine
 10
-191.2776923866004
 20
10.10503895171349
 30
0.0
 11
-268.3476398912999
 21
10.10503895171349
 31
0.0
  0
TEXT
  5
26C
330
1F
100
AcDbEntity
  8
0-F
  6
Continuous
 62
     7
370
     9
100
AcDbText
 10
-246.8126661389502
 20
3.356121035750569
 30
0.0
 40
4.572
  1
Ｍ６×１２
 41
1.133333333333333
  7
ＭＳ ゴシック
100
AcDbText
  0
TEXT
  5
26D
330
1F
100
AcDbEntity
  8
0-F
  6
Continuous
 62
     7
370
     9
100
AcDbText
 10
-268.3476497888928
 20
13.40519660057328
 30
0.0
 40
4.572
  1
丸小ねじ：Ｃ２７００Ｗ
 41
1.151515151515152
  7
ＭＳ ゴシック
100
AcDbText
  0
LINE
  5
26E
330
1F
100
AcDbEntity
  8
0-F
  6
Continuous
 62
     7
370
     9
100
AcDbLine
 10
-191.2776923866004
 20
10.10503895171349
 30
0.0
 11
-164.2147614523348
 21
-83.6746655799497
 31
0.0
  0
LINE
  5
26F
330
1F
100
AcDbEntity
  8
0-F
  6
Continuous
 62
     7
370
     9
100
AcDbLine
 10
-34.94809828993048
 20
-205.6384021105553
 30
0.0
 11
-49.70123158434521
 21
-165.6749766203971
 31
0.0
  0
LINE
  5
270
330
1F
100
AcDbEntity
  8
0-F
  6
Continuous
 62
     7
370
     9
100
AcDbLine
 10
-133.9397089912501
 20
-216.7767068203453
 30
0.0
 11
-126.2045078649671
 21
-207.3343331035876
 31
0.0
  0
LINE
  5
271
330
1F
100
AcDbEntity
  8
0-F
  6
Continuous
 62
     7
370
     9
100
AcDbLine
 10
-164.2147614523348
 20
-83.6746655799497
 30
0.0
 11
-166.2162725445847
 21
-79.09274967635645
 31
0.0
  0
LINE
  5
272
330
1F
100
AcDbEntity
  8
0-F
  6
Continuous
 62
     7
370
     9
100
AcDbLine
 10
-164.2147614523348
 20
-83.6746655799497
 30
0.0
 11
-164.9621856090349
 21
-78.73084548512615
 31
0.0
  0
LINE
  5
273
330
1F
100
AcDbEntity
  8
0-F
  6
Continuous
 62
     7
370
     9
100
AcDbLine
 10
-49.70123158434521
 20
-165.6749766203971
 30
0.0
 11
-47.37219939835042
 21
-170.0994098130898
 31
0.0
  0
LINE
  5
274
330
1F
100
AcDbEntity
  8
0-F
  6
Continuous
 62
     7
370
     9
100
AcDbLine
 10
-49.70123158434521
 20
-165.6749766203971
 30
0.0
 11
-48.59668681968697
 21
-170.5514487943018
 31
0.0
  0
LINE
  5
275
330
1F
100
AcDbEntity
  8
0-F
  6
Continuous
 62
     7
370
     9
100
AcDbLine
 10
-126.2045078649671
 20
-207.3343331035876
 30
0.0
 11
-128.8410937105658
 21
-211.5826757308704
 31
0.0
  0
LINE
  5
276
330
1F
100
AcDbEntity
  8
0-F
  6
Continuous
 62
     7
370
     9
100
AcDbLine
 10
-126.2045078649671
 20
-207.3343331035876
 30
0.0
 11
-129.8508062085208
 21
-210.7555183353162
 31
0.0
  0
TEXT
  5
277
330
1F
100
AcDbEntity
  8
F-5ﾚｲﾔ
  6
Continuous
 62
     7
370
     9
100
AcDbText
 10
-170.8740917063393
 20
-264.695536313849
 30
0.0
 40
4.572
  1
鋳鉄製ルーフドレン　防水層塗掛け幅２５ｍｍ　よこ引き用　打込型
 41
1.161290322580645
  7
ＭＳ ゴシック
100
AcDbText
  0
TEXT
  5
278
330
1F
100
AcDbEntity
  8
F-Fﾚｲﾔ
  6
Continuous
 62
     7
370
     9
100
AcDbText
 10
-114.8049897984814
 20
-273.034142651431
 30
0.0
 40
4.572
  1
ねじ込み式　塗膜防水用　ＷＴＸＴ－Ｌ－７５　Ｌ＝指示
 50
0.0000000004251561
 41
1.16025641025641
  7
ＭＳ ゴシック
100
AcDbText
  0
LINE
  5
279
330
1F
100
AcDbEntity
  8
仕上
  6
Continuous
 62
     6
370
     9
100
AcDbLine
 10
-92.70110745203417
 20
70.42596479191684
 30
0.0
 11
-92.70110745203417
 21
64.92596396711747
 31
0.0
  0
LINE
  5
27A
330
1F
100
AcDbEntity
  8
仕上
  6
Continuous
 62
     6
370
     9
100
AcDbLine
 10
-92.70110745203417
 20
89.42595412843878
 30
0.0
 11
-92.70110745203417
 21
83.9260028505181
 31
0.0
  0
LINE
  5
27B
330
1F
100
AcDbEntity
  8
仕上
  6
Continuous
 62
     6
370
     9
100
AcDbLine
 10
-92.70110745203417
 20
108.4259434649607
 30
0.0
 11
-92.70110745203417
 21
102.92599218704
 31
0.0
  0
LINE
  5
27C
330
1F
100
AcDbEntity
  8
仕上
  6
Continuous
 62
     6
370
     9
100
AcDbLine
 10
-137.4168682611483
 20
51.17601145199768
 30
0.0
 11
-137.4168682611483
 21
62.92595465866691
 31
0.0
  0
LINE
  5
27D
330
1F
100
AcDbEntity
  8
仕上
  6
Continuous
 62
     6
370
     9
100
AcDbLine
 10
-137.4168682611483
 20
110.4259527734112
 30
0.0
 11
-137.4168682611483
 21
119.9259722151115
 31
0.0
  0
ARC
  5
27E
330
1F
100
AcDbEntity
  8
仕上
  6
Continuous
 62
     6
370
     9
100
AcDbCircle
 10
-86.70117862044034
 20
54.17597586779459
 30
0.0
 40
3.000000027616052
100
AcDbArc
 50
270.0
 51
0.0
  0
ARC
  5
27F
330
1F
100
AcDbEntity
  8
仕上
  6
Continuous
 62
     6
370
     9
100
AcDbCircle
 10
-94.70111676048472
 20
64.92596396711747
 30
0.0
 40
2.000000018410701
100
AcDbArc
 50
270.0
 51
0.0
  0
ARC
  5
280
330
1F
100
AcDbEntity
  8
仕上
  6
Continuous
 62
     6
370
     9
100
AcDbCircle
 10
-94.70111676048472
 20
70.42596479191684
 30
0.0
 40
2.000000018410701
100
AcDbArc
 50
0.0
 51
90.0
  0
ARC
  5
281
330
1F
100
AcDbEntity
  8
仕上
  6
Continuous
 62
     6
370
     9
100
AcDbCircle
 10
-94.70111676048472
 20
83.9260028505181
 30
0.0
 40
2.000000018410701
100
AcDbArc
 50
270.0
 51
0.0
  0
ARC
  5
282
330
1F
100
AcDbEntity
  8
仕上
  6
Continuous
 62
     6
370
     9
100
AcDbCircle
 10
-94.70111676048472
 20
89.42595412843878
 30
0.0
 40
2.000000018410701
100
AcDbArc
 50
0.0
 51
90.0
  0
ARC
  5
283
330
1F
100
AcDbEntity
  8
仕上
  6
Continuous
 62
     6
370
     9
100
AcDbCircle
 10
-94.70111676048472
 20
102.92599218704
 30
0.0
 40
2.000000018410701
100
AcDbArc
 50
270.0
 51
0.0
  0
ARC
  5
284
330
1F
100
AcDbEntity
  8
仕上
  6
Continuous
 62
     6
370
     9
100
AcDbCircle
 10
-94.70111676048472
 20
108.4259434649607
 30
0.0
 40
2.000000018410701
100
AcDbArc
 50
0.0
 51
90.0
  0
ARC
  5
285
330
1F
100
AcDbEntity
  8
仕上
  6
Continuous
 62
     6
370
     9
100
AcDbCircle
 10
-146.0234583848588
 20
121.925981523562
 30
0.0
 40
2.000000018410701
100
AcDbArc
 50
180.0
 51
270.0
  0
ARC
  5
286
330
1F
100
AcDbEntity
  8
仕上
  6
Continuous
 62
     6
370
     9
100
AcDbCircle
 10
-157.0945598054932
 20
121.925981523562
 30
0.0
 40
2.000000018410701
100
AcDbArc
 50
270.0
 51
0.0
  0
ARC
  5
287
330
1F
100
AcDbEntity
  8
仕上
  6
Continuous
 62
     6
370
     9
100
AcDbCircle
 10
-159.5694264000803
 20
121.925981523562
 30
0.0
 40
2.000000018410701
100
AcDbArc
 50
270.0
 51
0.0
  0
ARC
  5
288
330
1F
100
AcDbEntity
  8
仕上
  6
Continuous
 62
     6
370
     9
100
AcDbCircle
 10
-131.3579875895589
 20
83.92599354206754
 30
0.0
 40
2.0
100
AcDbArc
 50
172.2478614123127
 51
270.0
  0
ARC
  5
289
330
1F
100
AcDbEntity
  8
仕上
  6
Continuous
 62
     6
370
     9
100
AcDbCircle
 10
-151.5590338686154
 20
86.67600326291779
 30
0.0
 40
18.38736923277137
100
AcDbArc
 50
352.2478614123131
 51
7.752138587686652
  0
ARC
  5
28A
330
1F
100
AcDbEntity
  8
仕上
  6
Continuous
 62
     6
370
     9
100
AcDbCircle
 10
-131.3579875895589
 20
89.42601298376792
 30
0.0
 40
2.0
100
AcDbArc
 50
90.0
 51
187.7521385876865
  0
LINE
  5
28B
330
1F
100
AcDbEntity
  8
仕上
  6
JWW_CENTER1
 62
     6
370
     9
100
AcDbLine
 10
-151.5590338686154
 20
71.31917350502698
 30
0.0
 11
-151.5590338686154
 21
100.883602921764
 31
0.0
  0
ARC
  5
28C
330
1F
100
AcDbEntity
  8
仕上
  6
Continuous
 62
     6
370
     9
100
AcDbCircle
 10
-141.246704406992
 20
65.92598175921887
 30
0.0
 40
3.0
100
AcDbArc
 50
116.9874828212934
 51
270.0
  0
ARC
  5
28D
330
1F
100
AcDbEntity
  8
仕上
  6
Continuous
 62
     6
370
     9
100
AcDbCircle
 10
-151.5590338686154
 20
86.17600326291779
 30
0.0
 40
19.72460142280469
100
AcDbArc
 50
296.9874828212933
 51
313.5324309939941
  0
ARC
  5
28E
330
1F
100
AcDbEntity
  8
仕上
  6
Continuous
 62
     6
370
     9
100
AcDbCircle
 10
-136.5958877413209
 20
70.42600120091925
 30
0.0
 40
2.0
100
AcDbArc
 50
90.0
 51
133.5324309939944
  0
ARC
  5
28F
330
1F
100
AcDbEntity
  8
仕上
  6
Continuous
 62
     6
370
     9
100
AcDbCircle
 10
-161.9542289312537
 20
65.92598175921887
 30
0.0
 40
3.0
100
AcDbArc
 50
270.0
 51
62.82664676399656
  0
ARC
  5
290
330
1F
100
AcDbEntity
  8
仕上
  6
Continuous
 62
     6
370
     9
100
AcDbCircle
 10
-164.3122585398079
 20
66.12598175921886
 30
0.0
 40
4.0
100
AcDbArc
 50
306.8770401078726
 51
57.54076887449891
  0
LINE
  5
291
330
1F
100
AcDbEntity
  8
仕上
  6
Continuous
 62
     6
370
     9
100
AcDbLine
 10
-131.3579875895589
 20
81.92599354206766
 30
0.0
 11
-94.70111676048472
 21
81.92599354206766
 31
0.0
  0
LINE
  5
292
330
1F
100
AcDbEntity
  8
仕上
  6
Continuous
 62
     6
370
     9
100
AcDbLine
 10
-131.3720654111199
 20
91.42596343688922
 30
0.0
 11
-94.70111676048472
 21
91.42596343688922
 31
0.0
  0
ARC
  5
293
330
1F
100
AcDbEntity
  8
仕上
  6
Continuous
 62
     6
370
     9
100
AcDbCircle
 10
-136.5958877413209
 20
102.9260053249163
 30
0.0
 40
2.0
100
AcDbArc
 50
226.4675690060056
 51
270.0
  0
ARC
  5
294
330
1F
100
AcDbEntity
  8
仕上
  6
Continuous
 62
     6
370
     9
100
AcDbCircle
 10
-151.5590338686154
 20
87.17600326291779
 30
0.0
 40
19.72460142280469
100
AcDbArc
 50
46.46756900600587
 51
63.01251717870669
  0
ARC
  5
295
330
1F
100
AcDbEntity
  8
仕上
  6
Continuous
 62
     6
370
     9
100
AcDbCircle
 10
-141.2467044069919
 20
107.4260247666167
 30
0.0
 40
3.0
100
AcDbArc
 50
90.0
 51
243.0125171787066
  0
ARC
  5
296
330
1F
100
AcDbEntity
  8
仕上
  6
Continuous
 62
     6
370
     9
100
AcDbCircle
 10
-164.3122585398079
 20
107.2260247666167
 30
0.0
 40
4.0
100
AcDbArc
 50
302.459231125501
 51
53.12295989212736
  0
ARC
  5
297
330
1F
100
AcDbEntity
  8
仕上
  6
Continuous
 62
     6
370
     9
100
AcDbCircle
 10
-161.9542289312537
 20
107.4260247666167
 30
0.0
 40
3.0
100
AcDbArc
 50
297.1733532360034
 51
90.0
  0
LINE
  5
298
330
1F
100
AcDbEntity
  8
仕上
  6
Continuous
 62
     6
370
     9
100
AcDbLine
 10
-141.2674879112751
 20
110.4259527734112
 30
0.0
 11
-94.70111676048472
 21
110.4259527734112
 31
0.0
  0
LINE
  5
299
330
1F
100
AcDbEntity
  8
仕上
  6
Continuous
 62
     6
370
     9
100
AcDbLine
 10
-136.5958877413209
 20
100.9259828785896
 30
0.0
 11
-94.70111676048472
 21
100.9259828785896
 31
0.0
  0
LINE
  5
29A
330
1F
100
AcDbEntity
  8
仕上
  6
Continuous
 62
     6
370
     9
100
AcDbLine
 10
-136.6062993441467
 20
72.42597410036728
 30
0.0
 11
-94.70111676048472
 21
72.42597410036728
 31
0.0
  0
LINE
  5
29B
330
1F
100
AcDbEntity
  8
仕上
  6
Continuous
 62
     6
370
     9
100
AcDbLine
 10
-141.246704406992
 20
62.92595465866691
 30
0.0
 11
-94.70111676048472
 21
62.92595465866691
 31
0.0
  0
LINE
  5
29C
330
1F
100
AcDbEntity
  8
仕上
  6
Continuous
 62
     6
370
     9
100
AcDbLine
 10
-86.70117862044034
 20
51.17601145199768
 30
0.0
 11
-164.7007984468272
 21
51.17601145199768
 31
0.0
  0
LINE
  5
29D
330
1F
100
AcDbEntity
  8
仕上
  6
Continuous
 62
     6
370
     9
100
AcDbLine
 10
-157.0945598054933
 20
119.9259722151115
 30
0.0
 11
-162.1616624930276
 21
119.9259722151115
 31
0.0
  0
LINE
  5
29E
330
1F
100
AcDbEntity
  8
仕上
  6
Continuous
 62
     6
370
     9
100
AcDbLine
 10
-161.9118596481238
 20
110.42600232029
 30
0.0
 11
-164.7007984468272
 21
110.42600232029
 31
0.0
  0
LINE
  5
29F
330
1F
100
AcDbEntity
  8
仕上
  6
Continuous
 62
     6
370
     9
100
AcDbLine
 10
-161.9118596481238
 20
62.92595465866691
 30
0.0
 11
-164.7007984468272
 21
62.92595465866691
 31
0.0
  0
LINE
  5
2A0
330
1F
100
AcDbEntity
  8
仕上
  6
Continuous
 62
     6
370
     9
100
AcDbLine
 10
-94.70111676048461
 20
119.9259722151115
 30
0.0
 11
-146.0234583848588
 21
119.9259722151115
 31
0.0
  0
ARC
  5
2A1
330
1F
100
AcDbEntity
  8
仕上
  6
Continuous
 62
     6
370
     9
100
AcDbCircle
 10
-94.70111676048461
 20
121.925981523562
 30
0.0
 40
2.000000018410701
100
AcDbArc
 50
270.0
 51
0.0
  0
LINE
  5
2A2
330
1F
100
AcDbEntity
  8
仕上
  6
Continuous
 62
     6
370
     9
100
AcDbLine
 10
-137.4168682611483
 20
72.42597410036728
 30
0.0
 11
-137.4168682611483
 21
100.9259828785896
 31
0.0
  0
LINE
  5
2A3
330
1F
100
AcDbEntity
  8
仕上
  6
Continuous
 62
     6
370
     9
100
AcDbLine
 10
-92.70110745203417
 20
178.925899986249
 30
0.0
 11
-92.70110745203417
 21
184.4259008110483
 31
0.0
  0
LINE
  5
2A4
330
1F
100
AcDbEntity
  8
仕上
  6
Continuous
 62
     6
370
     9
100
AcDbLine
 10
-92.70110745203417
 20
159.925910649727
 30
0.0
 11
-92.70110745203417
 21
165.4258619276477
 31
0.0
  0
LINE
  5
2A5
330
1F
100
AcDbEntity
  8
仕上
  6
Continuous
 62
     6
370
     9
100
AcDbLine
 10
-92.70110745203417
 20
140.9259213132051
 30
0.0
 11
-92.70110745203417
 21
146.4258725911258
 31
0.0
  0
LINE
  5
2A6
330
1F
100
AcDbEntity
  8
仕上
  6
Continuous
 62
     6
370
     9
100
AcDbLine
 10
-137.4168682611484
 20
198.1758533261682
 30
0.0
 11
-137.4168682611484
 21
186.4259101194989
 31
0.0
  0
LINE
  5
2A7
330
1F
100
AcDbEntity
  8
仕上
  6
Continuous
 62
     6
370
     9
100
AcDbLine
 10
-137.4168682611483
 20
138.9259120047547
 30
0.0
 11
-137.4168682611483
 21
129.4258925630543
 31
0.0
  0
ARC
  5
2A8
330
1F
100
AcDbEntity
  8
仕上
  6
Continuous
 62
     6
370
     9
100
AcDbCircle
 10
-86.70117862044034
 20
195.1758889103712
 30
0.0
 40
3.000000027616051
100
AcDbArc
 50
0.0000000000000254
 51
90.00000000000001
  0
ARC
  5
2A9
330
1F
100
AcDbEntity
  8
仕上
  6
Continuous
 62
     6
370
     9
100
AcDbCircle
 10
-94.70111676048472
 20
184.4259008110483
 30
0.0
 40
2.000000018410701
100
AcDbArc
 50
0.0000000000000254
 51
90.00000000000001
  0
ARC
  5
2AA
330
1F
100
AcDbEntity
  8
仕上
  6
Continuous
 62
     6
370
     9
100
AcDbCircle
 10
-94.70111676048472
 20
178.925899986249
 30
0.0
 40
2.000000018410701
100
AcDbArc
 50
270.0
 51
0.0
  0
ARC
  5
2AB
330
1F
100
AcDbEntity
  8
仕上
  6
Continuous
 62
     6
370
     9
100
AcDbCircle
 10
-94.70111676048472
 20
165.4258619276477
 30
0.0
 40
2.000000018410701
100
AcDbArc
 50
0.0000000000000254
 51
90.00000000000001
  0
ARC
  5
2AC
330
1F
100
AcDbEntity
  8
仕上
  6
Continuous
 62
     6
370
     9
100
AcDbCircle
 10
-94.70111676048472
 20
159.925910649727
 30
0.0
 40
2.000000018410701
100
AcDbArc
 50
270.0
 51
0.0
  0
ARC
  5
2AD
330
1F
100
AcDbEntity
  8
仕上
  6
Continuous
 62
     6
370
     9
100
AcDbCircle
 10
-94.70111676048472
 20
146.4258725911258
 30
0.0
 40
2.000000018410701
100
AcDbArc
 50
0.0000000000000254
 51
90.00000000000001
  0
ARC
  5
2AE
330
1F
100
AcDbEntity
  8
仕上
  6
Continuous
 62
     6
370
     9
100
AcDbCircle
 10
-94.70111676048472
 20
140.9259213132051
 30
0.0
 40
2.000000018410701
100
AcDbArc
 50
270.0
 51
0.0
  0
ARC
  5
2AF
330
1F
100
AcDbEntity
  8
仕上
  6
Continuous
 62
     6
370
     9
100
AcDbCircle
 10
-146.0234583848588
 20
127.4258832546038
 30
0.0
 40
2.000000018410701
100
AcDbArc
 50
90.0
 51
180.0
  0
ARC
  5
2B0
330
1F
100
AcDbEntity
  8
仕上
  6
Continuous
 62
     6
370
     9
100
AcDbCircle
 10
-157.0945598054932
 20
127.4258832546038
 30
0.0
 40
2.000000018410701
100
AcDbArc
 50
0.0000000000000254
 51
90.00000000000001
  0
ARC
  5
2B1
330
1F
100
AcDbEntity
  8
仕上
  6
Continuous
 62
     6
370
     9
100
AcDbCircle
 10
-159.5694264000803
 20
127.4258832546038
 30
0.0
 40
2.000000018410701
100
AcDbArc
 50
0.0000000000000254
 51
90.00000000000001
  0
ARC
  5
2B2
330
1F
100
AcDbEntity
  8
仕上
  6
Continuous
 62
     6
370
     9
100
AcDbCircle
 10
-131.3579875895589
 20
165.4258712360983
 30
0.0
 40
1.999999999999999
100
AcDbArc
 50
90.0
 51
187.7521385876873
  0
ARC
  5
2B3
330
1F
100
AcDbEntity
  8
仕上
  6
Continuous
 62
     6
370
     9
100
AcDbCircle
 10
-151.5590338686154
 20
162.675861515248
 30
0.0
 40
18.38736923277137
100
AcDbArc
 50
352.2478614123133
 51
7.752138587686957
  0
ARC
  5
2B4
330
1F
100
AcDbEntity
  8
仕上
  6
Continuous
 62
     6
370
     9
100
AcDbCircle
 10
-131.3579875895589
 20
159.9258517943979
 30
0.0
 40
1.999999999999999
100
AcDbArc
 50
172.2478614123135
 51
270.0
  0
LINE
  5
2B5
330
1F
100
AcDbEntity
  8
仕上
  6
JWW_CENTER1
 62
     6
370
     9
100
AcDbLine
 10
-151.5590338686154
 20
178.0326912731389
 30
0.0
 11
-151.5590338686154
 21
148.4682618564018
 31
0.0
  0
ARC
  5
2B6
330
1F
100
AcDbEntity
  8
仕上
  6
Continuous
 62
     6
370
     9
100
AcDbCircle
 10
-141.246704406992
 20
183.4258830189469
 30
0.0
 40
2.999999999999999
100
AcDbArc
 50
90.0
 51
243.0125171787066
  0
ARC
  5
2B7
330
1F
100
AcDbEntity
  8
仕上
  6
Continuous
 62
     6
370
     9
100
AcDbCircle
 10
-151.5590338686154
 20
163.175861515248
 30
0.0
 40
19.72460142280469
100
AcDbArc
 50
46.46756900600587
 51
63.01251717870669
  0
ARC
  5
2B8
330
1F
100
AcDbEntity
  8
仕上
  6
Continuous
 62
     6
370
     9
100
AcDbCircle
 10
-136.5958877413209
 20
178.9258635772466
 30
0.0
 40
1.999999999999999
100
AcDbArc
 50
226.4675690060056
 51
270.0
  0
ARC
  5
2B9
330
1F
100
AcDbEntity
  8
仕上
  6
Continuous
 62
     6
370
     9
100
AcDbCircle
 10
-161.9542289312537
 20
183.4258830189469
 30
0.0
 40
2.999999999999999
100
AcDbArc
 50
297.1733532360034
 51
90.00000000000001
  0
ARC
  5
2BA
330
1F
100
AcDbEntity
  8
仕上
  6
Continuous
 62
     6
370
     9
100
AcDbCircle
 10
-164.3122585398079
 20
183.2258830189469
 30
0.0
 40
3.999999999999999
100
AcDbArc
 50
302.459231125501
 51
53.12295989212736
  0
LINE
  5
2BB
330
1F
100
AcDbEntity
  8
仕上
  6
Continuous
 62
     6
370
     9
100
AcDbLine
 10
-131.3579875895589
 20
167.4258712360981
 30
0.0
 11
-94.70111676048472
 21
167.4258712360981
 31
0.0
  0
LINE
  5
2BC
330
1F
100
AcDbEntity
  8
仕上
  6
Continuous
 62
     6
370
     9
100
AcDbLine
 10
-131.3720654111199
 20
157.9259013412766
 30
0.0
 11
-94.70111676048472
 21
157.9259013412766
 31
0.0
  0
ARC
  5
2BD
330
1F
100
AcDbEntity
  8
仕上
  6
Continuous
 62
     6
370
     9
100
AcDbCircle
 10
-136.5958877413209
 20
146.4258594532495
 30
0.0
 40
2.0
100
AcDbArc
 50
90.0
 51
133.5324309939944
  0
ARC
  5
2BE
330
1F
100
AcDbEntity
  8
仕上
  6
Continuous
 62
     6
370
     9
100
AcDbCircle
 10
-151.5590338686154
 20
162.175861515248
 30
0.0
 40
19.72460142280469
100
AcDbArc
 50
296.9874828212933
 51
313.5324309939941
  0
ARC
  5
2BF
330
1F
100
AcDbEntity
  8
仕上
  6
Continuous
 62
     6
370
     9
100
AcDbCircle
 10
-141.2467044069919
 20
141.9258400115491
 30
0.0
 40
3.0
100
AcDbArc
 50
116.9874828212934
 51
270.0
  0
ARC
  5
2C0
330
1F
100
AcDbEntity
  8
仕上
  6
Continuous
 62
     6
370
     9
100
AcDbCircle
 10
-164.3122585398079
 20
142.1258400115491
 30
0.0
 40
4.0
100
AcDbArc
 50
306.8770401078726
 51
57.54076887449891
  0
ARC
  5
2C1
330
1F
100
AcDbEntity
  8
仕上
  6
Continuous
 62
     6
370
     9
100
AcDbCircle
 10
-161.9542289312537
 20
141.9258400115491
 30
0.0
 40
3.0
100
AcDbArc
 50
270.0
 51
62.82664676399656
  0
LINE
  5
2C2
330
1F
100
AcDbEntity
  8
仕上
  6
Continuous
 62
     6
370
     9
100
AcDbLine
 10
-141.2674879112751
 20
138.9259120047547
 30
0.0
 11
-94.70111676048472
 21
138.9259120047547
 31
0.0
  0
LINE
  5
2C3
330
1F
100
AcDbEntity
  8
仕上
  6
Continuous
 62
     6
370
     9
100
AcDbLine
 10
-136.5958877413209
 20
148.4258818995762
 30
0.0
 11
-94.70111676048472
 21
148.4258818995762
 31
0.0
  0
LINE
  5
2C4
330
1F
100
AcDbEntity
  8
仕上
  6
Continuous
 62
     6
370
     9
100
AcDbLine
 10
-136.6062993441467
 20
176.9258906777985
 30
0.0
 11
-94.70111676048472
 21
176.9258906777985
 31
0.0
  0
LINE
  5
2C5
330
1F
100
AcDbEntity
  8
仕上
  6
Continuous
 62
     6
370
     9
100
AcDbLine
 10
-141.246704406992
 20
186.4259101194989
 30
0.0
 11
-94.70111676048472
 21
186.4259101194989
 31
0.0
  0
LINE
  5
2C6
330
1F
100
AcDbEntity
  8
仕上
  6
Continuous
 62
     6
370
     9
100
AcDbLine
 10
-157.0945598054933
 20
129.4258925630543
 30
0.0
 11
-162.1616624930276
 21
129.4258925630543
 31
0.0
  0
LINE
  5
2C7
330
1F
100
AcDbEntity
  8
仕上
  6
Continuous
 62
     6
370
     9
100
AcDbLine
 10
-161.9118596481238
 20
138.9258624578758
 30
0.0
 11
-164.7007984468272
 21
138.9258624578758
 31
0.0
  0
LINE
  5
2C8
330
1F
100
AcDbEntity
  8
仕上
  6
Continuous
 62
     6
370
     9
100
AcDbLine
 10
-161.9118596481238
 20
186.4259101194989
 30
0.0
 11
-164.7007984468272
 21
186.4259101194989
 31
0.0
  0
LINE
  5
2C9
330
1F
100
AcDbEntity
  8
仕上
  6
Continuous
 62
     6
370
     9
100
AcDbLine
 10
-94.70111676048461
 20
129.4258925630543
 30
0.0
 11
-146.0234583848588
 21
129.4258925630543
 31
0.0
  0
ARC
  5
2CA
330
1F
100
AcDbEntity
  8
仕上
  6
Continuous
 62
     6
370
     9
100
AcDbCircle
 10
-94.70111676048461
 20
127.4258832546038
 30
0.0
 40
2.000000018410701
100
AcDbArc
 50
0.0000000000000254
 51
90.00000000000001
  0
LINE
  5
2CB
330
1F
100
AcDbEntity
  8
仕上
  6
Continuous
 62
     6
370
     9
100
AcDbLine
 10
-137.4168682611484
 20
176.9258906777985
 30
0.0
 11
-137.4168682611484
 21
148.4258818995762
 31
0.0
  0
LINE
  5
2CC
330
1F
100
AcDbEntity
  8
仕上
  6
Continuous
 62
     6
370
     9
100
AcDbLine
 10
-157.5693923181905
 20
127.4258832546038
 30
0.0
 11
-157.5693923181905
 21
121.925981523562
 31
0.0
  0
LINE
  5
2CD
330
1F
100
AcDbEntity
  8
仕上
  6
Continuous
 62
     6
370
     9
100
AcDbLine
 10
-155.0945504970428
 20
127.4258832546038
 30
0.0
 11
-155.0945504970428
 21
121.925981523562
 31
0.0
  0
LINE
  5
2CE
330
1F
100
AcDbEntity
  8
仕上
  6
Continuous
 62
     6
370
     9
100
AcDbLine
 10
-148.0234676933092
 20
121.925981523562
 30
0.0
 11
-148.0234676933092
 21
127.4258832546038
 31
0.0
  0
LINE
  5
2CF
330
1F
100
AcDbEntity
  8
仕上
  6
Continuous
 62
     6
370
     9
100
AcDbLine
 10
-92.70110745203417
 20
121.925981523562
 30
0.0
 11
-92.70110745203417
 21
127.4258832546038
 31
0.0
  0
LINE
  5
2D0
330
1F
100
AcDbEntity
  8
仕上
  6
Continuous
 62
     6
370
     9
100
AcDbLine
 10
-83.70111511088587
 20
54.17597586779459
 30
0.0
 11
-83.70111511088587
 21
195.1758889103712
 31
0.0
  0
LINE
  5
2D1
330
1F
100
AcDbEntity
  8
仕上
  6
Continuous
 62
     6
370
     9
100
AcDbLine
 10
-86.70117862044036
 20
198.1758533261681
 30
0.0
 11
-164.7007984468272
 21
198.1758533261681
 31
0.0
  0
LINE
  5
2D2
330
1F
100
AcDbEntity
  8
仕上
  6
Continuous
 62
     6
370
     9
100
AcDbLine
 10
112.8177015093408
 20
-74.67476888607553
 30
0.0
 11
253.8177631925537
 21
-74.67476888607553
 31
0.0
  0
LINE
  5
2D3
330
1F
100
AcDbEntity
  8
仕上
  6
Continuous
 62
     6
370
     9
100
AcDbLine
 10
129.067690433463
 20
-83.67476122722388
 30
0.0
 11
123.5676896086636
 21
-83.67476122722388
 31
0.0
  0
LINE
  5
2D4
330
1F
100
AcDbEntity
  8
仕上
  6
Continuous
 62
     6
370
     9
100
AcDbLine
 10
148.0676797699849
 20
-83.67476122722388
 30
0.0
 11
142.5677284920643
 21
-83.67476122722388
 31
0.0
  0
LINE
  5
2D5
330
1F
100
AcDbEntity
  8
仕上
  6
Continuous
 62
     6
370
     9
100
AcDbLine
 10
167.0676691065069
 20
-83.67476122722388
 30
0.0
 11
161.5677178285862
 21
-83.67476122722388
 31
0.0
  0
LINE
  5
2D6
330
1F
100
AcDbEntity
  8
仕上
  6
Continuous
 62
     6
370
     9
100
AcDbLine
 10
109.8177370935438
 20
-128.390522036338
 30
0.0
 11
121.5676803002131
 21
-128.390522036338
 31
0.0
  0
LINE
  5
2D7
330
1F
100
AcDbEntity
  8
仕上
  6
Continuous
 62
     6
370
     9
100
AcDbLine
 10
169.0676784149573
 20
-128.390522036338
 30
0.0
 11
178.5676978566577
 21
-128.390522036338
 31
0.0
  0
LINE
  5
2D8
330
1F
100
AcDbEntity
  8
仕上
  6
Continuous
 62
     6
370
     9
100
AcDbLine
 10
186.0677079899075
 20
-146.0682042722325
 30
0.0
 11
180.5677071651081
 21
-146.0682042722325
 31
0.0
  0
LINE
  5
2D9
330
1F
100
AcDbEntity
  8
仕上
  6
Continuous
 62
     6
370
     9
100
AcDbLine
 10
186.0677079899075
 20
-148.5430460933802
 30
0.0
 11
180.5677071651081
 21
-148.5430460933802
 31
0.0
  0
LINE
  5
2DA
330
1F
100
AcDbEntity
  8
仕上
  6
Continuous
 62
     6
370
     9
100
AcDbLine
 10
178.5676978566577
 20
-98.67478149372363
 30
0.0
 11
178.5676978566577
 21
-136.9971121600485
 31
0.0
  0
LINE
  5
2DB
330
1F
100
AcDbEntity
  8
仕上
  6
Continuous
 62
     6
370
     9
100
AcDbLine
 10
256.8176780614718
 20
-77.67483239563
 30
0.0
 11
256.8176780614718
 21
-156.6750762122267
 31
0.0
  0
LINE
  5
2DC
330
1F
100
AcDbEntity
  8
仕上
  6
Continuous
 62
     6
370
     9
100
AcDbLine
 10
237.5677247215528
 20
-83.67476122722388
 30
0.0
 11
243.0677255463521
 21
-83.67476122722388
 31
0.0
  0
LINE
  5
2DD
330
1F
100
AcDbEntity
  8
仕上
  6
Continuous
 62
     6
370
     9
100
AcDbLine
 10
218.5677353850308
 20
-83.67476122722388
 30
0.0
 11
224.0676866629514
 21
-83.67476122722388
 31
0.0
  0
LINE
  5
2DE
330
1F
100
AcDbEntity
  8
仕上
  6
Continuous
 62
     6
370
     9
100
AcDbLine
 10
199.5677460485089
 20
-83.67476122722388
 30
0.0
 11
205.0676973264295
 21
-83.67476122722388
 31
0.0
  0
LINE
  5
2DF
330
1F
100
AcDbEntity
  8
仕上
  6
Continuous
 62
     6
370
     9
100
AcDbLine
 10
256.8176780614718
 20
-128.390522036338
 30
0.0
 11
245.0677348548026
 21
-128.390522036338
 31
0.0
  0
LINE
  5
2E0
330
1F
100
AcDbEntity
  8
仕上
  6
Continuous
 62
     6
370
     9
100
AcDbLine
 10
197.5677367400583
 20
-128.390522036338
 30
0.0
 11
188.0677172983581
 21
-128.390522036338
 31
0.0
  0
LINE
  5
2E1
330
1F
100
AcDbEntity
  8
仕上
  6
Continuous
 62
     6
370
     9
100
AcDbLine
 10
188.0677172983581
 20
-148.0682135806829
 30
0.0
 11
188.0677172983581
 21
-156.6750762122267
 31
0.0
  0
LINE
  5
2E2
330
1F
100
AcDbEntity
  8
仕上
  6
Continuous
 62
     6
370
     9
100
AcDbLine
 10
188.0677172983581
 20
-98.67478149372363
 30
0.0
 11
188.0677172983581
 21
-136.9971121600485
 31
0.0
  0
LINE
  5
2E3
330
1F
100
AcDbEntity
  8
仕上
  6
Continuous
 62
     6
370
     9
100
AcDbLine
 10
180.5677071651081
 20
-138.9971214684989
 30
0.0
 11
186.0677079899075
 21
-138.9971214684989
 31
0.0
  0
LINE
  5
2E4
330
1F
100
AcDbEntity
  8
仕上
  6
Continuous
 62
     6
370
     9
100
AcDbLine
 10
180.5677071651081
 20
-96.67477218527318
 30
0.0
 11
186.0677079899075
 21
-96.67477218527318
 31
0.0
  0
ARC
  5
2E5
330
1F
100
AcDbEntity
  8
仕上
  6
Continuous
 62
     6
370
     9
100
AcDbCircle
 10
112.8177015093408
 20
-77.67483239563
 30
0.0
 40
3.000000027616052
100
AcDbArc
 50
90.0
 51
180.0
  0
ARC
  5
2E6
330
1F
100
AcDbEntity
  8
仕上
  6
Continuous
 62
     6
370
     9
100
AcDbCircle
 10
123.5676896086636
 20
-85.67477053567438
 30
0.0
 40
2.000000018410701
100
AcDbArc
 50
90.0
 51
180.0
  0
ARC
  5
2E7
330
1F
100
AcDbEntity
  8
仕上
  6
Continuous
 62
     6
370
     9
100
AcDbCircle
 10
129.067690433463
 20
-85.67477053567438
 30
0.0
 40
2.000000018410701
100
AcDbArc
 50
0.0
 51
90.0
  0
ARC
  5
2E8
330
1F
100
AcDbEntity
  8
仕上
  6
Continuous
 62
     6
370
     9
100
AcDbCircle
 10
142.5677284920643
 20
-85.67477053567438
 30
0.0
 40
2.000000018410701
100
AcDbArc
 50
90.0
 51
180.0
  0
ARC
  5
2E9
330
1F
100
AcDbEntity
  8
仕上
  6
Continuous
 62
     6
370
     9
100
AcDbCircle
 10
148.0676797699849
 20
-85.67477053567438
 30
0.0
 40
2.000000018410701
100
AcDbArc
 50
0.0
 51
90.0
  0
ARC
  5
2EA
330
1F
100
AcDbEntity
  8
仕上
  6
Continuous
 62
     6
370
     9
100
AcDbCircle
 10
161.5677178285862
 20
-85.67477053567438
 30
0.0
 40
2.000000018410701
100
AcDbArc
 50
90.0
 51
180.0
  0
ARC
  5
2EB
330
1F
100
AcDbEntity
  8
仕上
  6
Continuous
 62
     6
370
     9
100
AcDbCircle
 10
167.0676691065069
 20
-85.67477053567438
 30
0.0
 40
2.000000018410701
100
AcDbArc
 50
0.0
 51
90.0
  0
ARC
  5
2EC
330
1F
100
AcDbEntity
  8
仕上
  6
Continuous
 62
     6
370
     9
100
AcDbCircle
 10
180.5677071651081
 20
-136.9971121600485
 30
0.0
 40
2.000000018410701
100
AcDbArc
 50
180.0
 51
270.0
  0
ARC
  5
2ED
330
1F
100
AcDbEntity
  8
仕上
  6
Continuous
 62
     6
370
     9
100
AcDbCircle
 10
180.5677071651081
 20
-148.0682135806829
 30
0.0
 40
2.000000018410701
100
AcDbArc
 50
90.0
 51
180.0
  0
ARC
  5
2EE
330
1F
100
AcDbEntity
  8
仕上
  6
Continuous
 62
     6
370
     9
100
AcDbCircle
 10
180.5677071651081
 20
-150.54308017527
 30
0.0
 40
2.000000018410701
100
AcDbArc
 50
90.0
 51
180.0
  0
ARC
  5
2EF
330
1F
100
AcDbEntity
  8
仕上
  6
Continuous
 62
     6
370
     9
100
AcDbCircle
 10
180.5677071651081
 20
-98.67478149372363
 30
0.0
 40
2.000000018410701
100
AcDbArc
 50
90.0
 51
180.0
  0
ARC
  5
2F0
330
1F
100
AcDbEntity
  8
仕上
  6
Continuous
 62
     6
370
     9
100
AcDbCircle
 10
253.8177136456749
 20
-77.67483239563
 30
0.0
 40
3.000000027616052
100
AcDbArc
 50
0.0
 51
90.0
  0
ARC
  5
2F1
330
1F
100
AcDbEntity
  8
仕上
  6
Continuous
 62
     6
370
     9
100
AcDbCircle
 10
243.0677255463521
 20
-85.67477053567438
 30
0.0
 40
2.000000018410701
100
AcDbArc
 50
0.0
 51
90.0
  0
ARC
  5
2F2
330
1F
100
AcDbEntity
  8
仕上
  6
Continuous
 62
     6
370
     9
100
AcDbCircle
 10
237.5677247215528
 20
-85.67477053567438
 30
0.0
 40
2.000000018410701
100
AcDbArc
 50
90.0
 51
180.0
  0
ARC
  5
2F3
330
1F
100
AcDbEntity
  8
仕上
  6
Continuous
 62
     6
370
     9
100
AcDbCircle
 10
224.0676866629514
 20
-85.67477053567438
 30
0.0
 40
2.000000018410701
100
AcDbArc
 50
0.0
 51
90.0
  0
ARC
  5
2F4
330
1F
100
AcDbEntity
  8
仕上
  6
Continuous
 62
     6
370
     9
100
AcDbCircle
 10
218.5677353850308
 20
-85.67477053567438
 30
0.0
 40
2.000000018410701
100
AcDbArc
 50
90.0
 51
180.0
  0
ARC
  5
2F5
330
1F
100
AcDbEntity
  8
仕上
  6
Continuous
 62
     6
370
     9
100
AcDbCircle
 10
205.0676973264295
 20
-85.67477053567438
 30
0.0
 40
2.000000018410701
100
AcDbArc
 50
0.0
 51
90.0
  0
ARC
  5
2F6
330
1F
100
AcDbEntity
  8
仕上
  6
Continuous
 62
     6
370
     9
100
AcDbCircle
 10
199.5677460485089
 20
-85.67477053567438
 30
0.0
 40
2.000000018410701
100
AcDbArc
 50
90.0
 51
180.0
  0
ARC
  5
2F7
330
1F
100
AcDbEntity
  8
仕上
  6
Continuous
 62
     6
370
     9
100
AcDbCircle
 10
186.0677079899075
 20
-136.9971121600485
 30
0.0
 40
2.000000018410701
100
AcDbArc
 50
270.0
 51
0.0
  0
ARC
  5
2F8
330
1F
100
AcDbEntity
  8
仕上
  6
Continuous
 62
     6
370
     9
100
AcDbCircle
 10
186.0677079899075
 20
-148.0682135806829
 30
0.0
 40
2.000000018410701
100
AcDbArc
 50
0.0
 51
90.0
  0
ARC
  5
2F9
330
1F
100
AcDbEntity
  8
仕上
  6
Continuous
 62
     6
370
     9
100
AcDbCircle
 10
186.0677079899075
 20
-150.54308017527
 30
0.0
 40
2.000000018410701
100
AcDbArc
 50
0.0
 51
90.0
  0
ARC
  5
2FA
330
1F
100
AcDbEntity
  8
仕上
  6
Continuous
 62
     6
370
     9
100
AcDbCircle
 10
186.0677079899075
 20
-98.67478149372363
 30
0.0
 40
2.000000018410701
100
AcDbArc
 50
0.0
 51
90.0
  0
ELLIPSE
  5
2FB
330
1F
100
AcDbEntity
  8
仕上
  6
Continuous
 62
     6
370
     9
100
AcDbEllipse
 10
145.317728904464
 20
-146.0682308169262
 30
0.0
 11
14.5
 21
-1.287858708565182E-14
 31
0.0
210
0.0
220
0.0
230
1.0
 40
0.7071027279390983
 41
0.4745023240008707
 42
2.667090329588922
  0
ELLIPSE
  5
2FC
330
1F
100
AcDbEntity
  8
仕上
  6
Continuous
 62
     6
370
     9
100
AcDbEllipse
 10
145.317728904464
 20
-142.5326950130631
 30
0.0
 11
13.0
 21
0.0
 31
0.0
210
0.0
220
0.0
230
1.0
 40
0.7071034707138655
 41
0.0
 42
6.283185307179586
  0
ARC
  5
2FD
330
1F
100
AcDbEntity
  8
仕上
  6
Continuous
 62
     6
370
     9
100
AcDbCircle
 10
142.5677191836137
 20
-122.3316413647486
 30
0.0
 40
2.0
100
AcDbArc
 50
180.0
 51
277.7521385876873
  0
ARC
  5
2FE
330
1F
100
AcDbEntity
  8
仕上
  6
Continuous
 62
     6
370
     9
100
AcDbCircle
 10
145.317728904464
 20
-142.5326876438051
 30
0.0
 40
18.38736923277137
100
AcDbArc
 50
82.24786141231334
 51
97.75213858768696
  0
ARC
  5
2FF
330
1F
100
AcDbEntity
  8
仕上
  6
Continuous
 62
     6
370
     9
100
AcDbCircle
 10
148.0677386253141
 20
-122.3316413647486
 30
0.0
 40
2.0
100
AcDbArc
 50
262.2478614123135
 51
0.0
  0
LINE
  5
300
330
1F
100
AcDbEntity
  8
仕上
  6
JWW_CENTER1
 62
     6
370
     9
100
AcDbLine
 10
129.9608991465732
 20
-142.5326876438051
 30
0.0
 11
159.5253285633102
 21
-142.5326876438051
 31
0.0
  0
ARC
  5
301
330
1F
100
AcDbEntity
  8
仕上
  6
Continuous
 62
     6
370
     9
100
AcDbCircle
 10
124.567707400765
 20
-132.2203581821816
 30
0.0
 40
3.0
100
AcDbArc
 50
180.0
 51
333.0125171787066
  0
ARC
  5
302
330
1F
100
AcDbEntity
  8
仕上
  6
Continuous
 62
     6
370
     9
100
AcDbCircle
 10
144.817728904464
 20
-142.5326876438051
 30
0.0
 40
19.72460142280469
100
AcDbArc
 50
136.4675690060059
 51
153.0125171787067
  0
ARC
  5
303
330
1F
100
AcDbEntity
  8
仕上
  6
Continuous
 62
     6
370
     9
100
AcDbCircle
 10
129.0677268424654
 20
-127.5695415165106
 30
0.0
 40
2.0
100
AcDbArc
 50
316.4675690060056
 51
0.0
  0
ARC
  5
304
330
1F
100
AcDbEntity
  8
仕上
  6
Continuous
 62
     6
370
     9
100
AcDbCircle
 10
124.567707400765
 20
-152.9278827064435
 30
0.0
 40
3.0
100
AcDbArc
 50
27.17335323600343
 51
180.0
  0
ARC
  5
305
330
1F
100
AcDbEntity
  8
仕上
  6
Continuous
 62
     6
370
     9
100
AcDbCircle
 10
124.767707400765
 20
-155.2859123149975
 30
0.0
 40
4.0
100
AcDbArc
 50
32.45923112550109
 51
143.1229598921274
  0
LINE
  5
306
330
1F
100
AcDbEntity
  8
仕上
  6
Continuous
 62
     6
370
     9
100
AcDbLine
 10
131.0676997419135
 20
-128.390522036338
 30
0.0
 11
159.5677085201358
 21
-128.390522036338
 31
0.0
  0
LINE
  5
307
330
1F
100
AcDbEntity
  8
仕上
  6
Continuous
 62
     6
370
     9
100
AcDbLine
 10
140.5677191836138
 20
-122.3316413647486
 30
0.0
 11
140.5677191836138
 21
-85.67477053567438
 31
0.0
  0
LINE
  5
308
330
1F
100
AcDbEntity
  8
仕上
  6
Continuous
 62
     6
370
     9
100
AcDbLine
 10
150.0676890784354
 20
-122.3457191863097
 30
0.0
 11
150.0676890784354
 21
-85.67477053567438
 31
0.0
  0
ARC
  5
309
330
1F
100
AcDbEntity
  8
仕上
  6
Continuous
 62
     6
370
     9
100
AcDbCircle
 10
161.5677309664625
 20
-127.5695415165106
 30
0.0
 40
2.0
100
AcDbArc
 50
180.0
 51
223.5324309939944
  0
ARC
  5
30A
330
1F
100
AcDbEntity
  8
仕上
  6
Continuous
 62
     6
370
     9
100
AcDbCircle
 10
145.817728904464
 20
-142.5326876438051
 30
0.0
 40
19.72460142280469
100
AcDbArc
 50
26.98748282129331
 51
43.53243099399413
  0
ARC
  5
30B
330
1F
100
AcDbEntity
  8
仕上
  6
Continuous
 62
     6
370
     9
100
AcDbCircle
 10
166.0677504081629
 20
-132.2203581821816
 30
0.0
 40
3.0
100
AcDbArc
 50
206.9874828212934
 51
0.0
  0
ARC
  5
30C
330
1F
100
AcDbEntity
  8
仕上
  6
Continuous
 62
     6
370
     9
100
AcDbCircle
 10
165.8677504081629
 20
-155.2859123149975
 30
0.0
 40
4.0
100
AcDbArc
 50
36.87704010787263
 51
147.5407688744989
  0
ARC
  5
30D
330
1F
100
AcDbEntity
  8
仕上
  6
Continuous
 62
     6
370
     9
100
AcDbCircle
 10
166.0677504081629
 20
-152.9278827064435
 30
0.0
 40
3.0
100
AcDbArc
 50
0.0
 51
152.8266467639966
  0
LINE
  5
30E
330
1F
100
AcDbEntity
  8
仕上
  6
Continuous
 62
     6
370
     9
100
AcDbLine
 10
169.0676784149573
 20
-132.2411416864647
 30
0.0
 11
169.0676784149573
 21
-85.67477053567438
 31
0.0
  0
LINE
  5
30F
330
1F
100
AcDbEntity
  8
仕上
  6
Continuous
 62
     6
370
     9
100
AcDbLine
 10
159.5677085201358
 20
-127.5695415165106
 30
0.0
 11
159.5677085201358
 21
-85.67477053567438
 31
0.0
  0
LINE
  5
310
330
1F
100
AcDbEntity
  8
仕上
  6
Continuous
 62
     6
370
     9
100
AcDbLine
 10
131.0676997419135
 20
-127.5799531193364
 30
0.0
 11
131.0676997419135
 21
-85.67477053567438
 31
0.0
  0
LINE
  5
311
330
1F
100
AcDbEntity
  8
仕上
  6
Continuous
 62
     6
370
     9
100
AcDbLine
 10
121.5676803002131
 20
-132.2203581821816
 30
0.0
 11
121.5676803002131
 21
-85.67477053567438
 31
0.0
  0
ARC
  5
312
330
1F
100
AcDbEntity
  8
仕上
  6
Continuous
 62
     6
370
     9
100
AcDbCircle
 10
224.0676959714019
 20
-122.3316413647486
 30
0.0
 40
2.0
100
AcDbArc
 50
262.2478614123127
 51
0.0
  0
ARC
  5
313
330
1F
100
AcDbEntity
  8
仕上
  6
Continuous
 62
     6
370
     9
100
AcDbCircle
 10
221.3176862505517
 20
-142.5326876438051
 30
0.0
 40
18.38736923277137
100
AcDbArc
 50
82.24786141231304
 51
97.75213858768666
  0
ARC
  5
314
330
1F
100
AcDbEntity
  8
仕上
  6
Continuous
 62
     6
370
     9
100
AcDbCircle
 10
218.5676765297016
 20
-122.3316413647486
 30
0.0
 40
2.0
100
AcDbArc
 50
180.0
 51
277.7521385876865
  0
ARC
  5
315
330
1F
100
AcDbEntity
  8
仕上
  6
Continuous
 62
     6
370
     9
100
AcDbCircle
 10
242.0677077542506
 20
-132.2203581821816
 30
0.0
 40
3.0
100
AcDbArc
 50
206.9874828212934
 51
0.0
  0
ARC
  5
316
330
1F
100
AcDbEntity
  8
仕上
  6
Continuous
 62
     6
370
     9
100
AcDbCircle
 10
221.8176862505517
 20
-142.5326876438051
 30
0.0
 40
19.72460142280469
100
AcDbArc
 50
26.98748282129331
 51
43.53243099399413
  0
ARC
  5
317
330
1F
100
AcDbEntity
  8
仕上
  6
Continuous
 62
     6
370
     9
100
AcDbCircle
 10
237.5676883125502
 20
-127.5695415165106
 30
0.0
 40
2.0
100
AcDbArc
 50
180.0
 51
223.5324309939944
  0
ARC
  5
318
330
1F
100
AcDbEntity
  8
仕上
  6
Continuous
 62
     6
370
     9
100
AcDbCircle
 10
205.0676841885532
 20
-127.5695415165106
 30
0.0
 40
2.0
100
AcDbArc
 50
316.4675690060056
 51
0.0000000000000064
  0
ARC
  5
319
330
1F
100
AcDbEntity
  8
仕上
  6
Continuous
 62
     6
370
     9
100
AcDbCircle
 10
220.8176862505517
 20
-142.5326876438051
 30
0.0
 40
19.72460142280469
100
AcDbArc
 50
136.4675690060059
 51
153.0125171787067
  0
ARC
  5
31A
330
1F
100
AcDbEntity
  8
仕上
  6
Continuous
 62
     6
370
     9
100
AcDbCircle
 10
200.5676647468528
 20
-132.2203581821816
 30
0.0
 40
3.0
100
AcDbArc
 50
180.0
 51
333.0125171787066
  0
ARC
  5
31B
330
1F
100
AcDbEntity
  8
仕上
  6
Continuous
 62
     6
370
     9
100
AcDbCircle
 10
220.8176862505517
 20
-142.5326876438051
 30
0.0
 40
19.76232526106613
100
AcDbArc
 50
207.1733532360034
 51
225.805374409122
  0
ARC
  5
31C
330
1F
100
AcDbEntity
  8
仕上
  6
Continuous
 62
     6
370
     9
100
AcDbCircle
 10
200.7676647468528
 20
-155.2859123149975
 30
0.0
 40
4.0
100
AcDbArc
 50
32.4592311255011
 51
143.1229598921274
  0
ARC
  5
31D
330
1F
100
AcDbEntity
  8
仕上
  6
Continuous
 62
     6
370
     9
100
AcDbCircle
 10
200.5676647468528
 20
-152.9278827064435
 30
0.0
 40
3.0
100
AcDbArc
 50
27.17335323600343
 51
180.0
  0
ARC
  5
31E
330
1F
100
AcDbEntity
  8
仕上
  6
Continuous
 62
     6
370
     9
100
AcDbCircle
 10
221.8176862505517
 20
-142.5326876438051
 30
0.0
 40
19.76232526106613
100
AcDbArc
 50
314.194625590878
 51
332.8266467639966
  0
ARC
  5
31F
330
1F
100
AcDbEntity
  8
仕上
  6
Continuous
 62
     6
370
     9
100
AcDbCircle
 10
241.8677077542506
 20
-155.2859123149975
 30
0.0
 40
4.0
100
AcDbArc
 50
36.87704010787263
 51
147.5407688744989
  0
ARC
  5
320
330
1F
100
AcDbEntity
  8
仕上
  6
Continuous
 62
     6
370
     9
100
AcDbCircle
 10
242.0677077542506
 20
-152.9278827064435
 30
0.0
 40
3.0
100
AcDbArc
 50
0.0
 51
152.8266467639966
  0
ELLIPSE
  5
321
330
1F
100
AcDbEntity
  8
仕上
  6
Continuous
 62
     6
370
     9
100
AcDbEllipse
 10
221.3176862505517
 20
-146.0682308169262
 30
0.0
 11
-14.5
 21
-1.465432494441548E-14
 31
0.0
210
0.0
220
0.0
230
1.0
 40
0.7071027279390983
 41
3.616094977590664
 42
5.808682983178715
  0
ELLIPSE
  5
322
330
1F
100
AcDbEntity
  8
仕上
  6
Continuous
 62
     6
370
     9
100
AcDbEllipse
 10
221.3176862505517
 20
-142.5326950130631
 30
0.0
 11
-13.0
 21
1.592040838891559E-15
 31
0.0
210
0.0
220
0.0
230
1.0
 40
0.7071034707138655
 41
0.0
 42
6.283185307179586
  0
LINE
  5
323
330
1F
100
AcDbEntity
  8
仕上
  6
Continuous
 62
     6
370
     9
100
AcDbLine
 10
245.0677348548026
 20
-132.2203581821816
 30
0.0
 11
245.0677348548026
 21
-85.67477053567438
 31
0.0
  0
LINE
  5
324
330
1F
100
AcDbEntity
  8
仕上
  6
Continuous
 62
     6
370
     9
100
AcDbLine
 10
235.5677154131022
 20
-127.5799531193364
 30
0.0
 11
235.5677154131022
 21
-85.67477053567438
 31
0.0
  0
LINE
  5
325
330
1F
100
AcDbEntity
  8
仕上
  6
Continuous
 62
     6
370
     9
100
AcDbLine
 10
226.0676959714019
 20
-122.3316413647486
 30
0.0
 11
226.0676959714019
 21
-85.67477053567438
 31
0.0
  0
LINE
  5
326
330
1F
100
AcDbEntity
  8
仕上
  6
Continuous
 62
     6
370
     9
100
AcDbLine
 10
216.5677260765803
 20
-122.3457191863097
 30
0.0
 11
216.5677260765803
 21
-85.67477053567438
 31
0.0
  0
LINE
  5
327
330
1F
100
AcDbEntity
  8
仕上
  6
Continuous
 62
     6
370
     9
100
AcDbLine
 10
207.06770663488
 20
-127.5695415165106
 30
0.0
 11
207.06770663488
 21
-85.67477053567438
 31
0.0
  0
LINE
  5
328
330
1F
100
AcDbEntity
  8
仕上
  6
Continuous
 62
     6
370
     9
100
AcDbLine
 10
197.5677367400583
 20
-132.2411416864647
 30
0.0
 11
197.5677367400583
 21
-85.67477053567438
 31
0.0
  0
LINE
  5
329
330
1F
100
AcDbEntity
  8
仕上
  6
Continuous
 62
     6
370
     9
100
AcDbLine
 10
197.5676871931796
 20
-152.8855134233135
 30
0.0
 11
197.5676871931796
 21
-156.6750762122267
 31
0.0
  0
LINE
  5
32A
330
1F
100
AcDbEntity
  8
仕上
  6
Continuous
 62
     6
370
     9
100
AcDbLine
 10
245.0677348548026
 20
-152.8855134233135
 30
0.0
 11
245.0677348548026
 21
-156.6750762122267
 31
0.0
  0
LINE
  5
32B
330
1F
100
AcDbEntity
  8
仕上
  6
JWW_CENTER1
 62
     6
370
     9
100
AcDbLine
 10
145.317728904464
 20
-131.032300597082
 30
0.0
 11
145.317728904464
 21
-155.2436551943676
 31
0.0
  0
LINE
  5
32C
330
1F
100
AcDbEntity
  8
仕上
  6
JWW_CENTER1
 62
     6
370
     9
100
AcDbLine
 10
221.3176862505517
 20
-131.032300597082
 30
0.0
 11
221.3176862505517
 21
-155.2436551943676
 31
0.0
  0
LINE
  5
32D
330
1F
100
AcDbEntity
  8
仕上
  6
JWW_CENTER1
 62
     6
370
     9
100
AcDbLine
 10
236.0368319902072
 20
-142.5326876438051
 30
0.0
 11
204.1115477206882
 21
-142.5326876438051
 31
0.0
  0
LINE
  5
32E
330
1F
100
AcDbEntity
  8
仕上
  6
Continuous
 62
     6
370
     9
100
AcDbLine
 10
235.5677154131022
 20
-128.390522036338
 30
0.0
 11
207.06770663488
 21
-128.390522036338
 31
0.0
  0
ARC
  5
32F
330
1F
100
AcDbEntity
  8
仕上
  6
Continuous
 62
     6
370
     9
100
AcDbCircle
 10
246.6780703484427
 20
-163.6750592449246
 30
0.0
 40
2.000000018410701
100
AcDbArc
 50
11.31007385253906
 51
90.0
  0
LINE
  5
330
330
1F
100
AcDbEntity
  8
仕上
  6
Continuous
 62
     6
370
     9
100
AcDbLine
 10
248.6392349039371
 20
-163.2828213791378
 30
0.0
 11
249.3176803149417
 21
-166.6750236607215
 31
0.0
  0
LINE
  5
331
330
1F
100
AcDbEntity
  8
仕上
  6
Continuous
 62
     6
370
     9
100
AcDbLine
 10
254.076509380213
 20
-162.880872325112
 30
0.0
 11
253.3176741584032
 21
-166.6750236607215
 31
0.0
  0
LINE
  5
332
330
1F
100
AcDbEntity
  8
仕上
  6
Continuous
 62
     6
370
     9
100
AcDbLine
 10
256.8176780614718
 20
-156.6750762122267
 30
0.0
 11
255.8970448471592
 21
-161.2780686823542
 31
0.0
  0
ARC
  5
333
330
1F
100
AcDbEntity
  8
仕上
  6
Continuous
 62
     6
370
     9
100
AcDbCircle
 10
255.4067552205278
 20
-161.1800070587823
 30
0.0
 40
0.5
100
AcDbArc
 50
274.0320103366608
 51
348.6896519679229
  0
ARC
  5
334
330
1F
100
AcDbEntity
  8
仕上
  6
Continuous
 62
     6
370
     9
100
AcDbCircle
 10
255.5473827968338
 20
-163.175056917812
 30
0.0
 40
1.500000013808026
100
AcDbArc
 50
94.03201033666264
 51
168.689697265625
  0
LINE
  5
335
330
1F
100
AcDbEntity
  8
仕上
  6
Continuous
 62
     6
370
     9
100
AcDbLine
 10
249.3177864047656
 20
-166.672622388039
 30
0.0
 11
250.4889488453351
 21
-166.672622388039
 31
0.0
  0
LINE
  5
336
330
1F
100
AcDbEntity
  8
仕上
  6
Continuous
 62
     6
370
     9
100
AcDbLine
 10
-166.7008820755958
 20
-74.67476888607553
 30
0.0
 11
-165.7008526479311
 21
-74.67476888607553
 31
0.0
  0
LINE
  5
337
330
1F
100
AcDbEntity
  8
仕上
  6
Continuous
 62
     6
370
     9
100
AcDbLine
 10
-103.9423528543666
 20
-165.4691764986442
 30
0.0
 11
-104.2188244379061
 21
-164.0866451668712
 31
0.0
  0
LINE
  5
338
330
1F
100
AcDbEntity
  8
仕上
  6
Continuous
 62
     6
370
     9
100
AcDbLine
 10
-94.9729309374197
 20
-166.6749741138427
 30
0.0
 11
-102.4715042111852
 21
-166.6750236607215
 31
0.0
  0
LINE
  5
339
330
1F
100
AcDbEntity
  8
仕上
  6
Continuous
 62
     6
370
     9
100
AcDbLine
 10
-94.0087486765456
 20
-166.3240583449506
 30
0.0
 11
-83.70121420464343
 21
-157.6750313195731
 31
0.0
  0
LINE
  5
33A
330
1F
100
AcDbEntity
  8
仕上
  6
Continuous
 62
     6
370
     9
100
AcDbLine
 10
-83.70111511088587
 20
-156.6750762122267
 30
0.0
 11
-83.70111511088587
 21
-157.6750313195731
 31
0.0
  0
LINE
  5
33B
330
1F
100
AcDbEntity
  8
仕上
  6
Continuous
 62
     6
370
     9
100
AcDbLine
 10
-165.7010508354462
 20
-127.7691794031164
 30
0.0
 11
-165.7008526479311
 21
-74.67476888607553
 31
0.0
  0
LINE
  5
33C
330
1F
100
AcDbEntity
  8
仕上
  6
Continuous
 62
     6
370
     9
100
AcDbLine
 10
-137.8562004352064
 20
-156.2355706240928
 30
0.0
 11
-165.2617186613881
 21
-128.8298542103961
 31
0.0
  0
LINE
  5
33D
330
1F
100
AcDbEntity
  8
仕上
  6
Continuous
 62
     6
370
     9
100
AcDbLine
 10
-136.7955504013661
 20
-156.6748780247116
 30
0.0
 11
-83.70111511088587
 21
-156.6750762122267
 31
0.0
  0
LINE
  5
33E
330
1F
100
AcDbEntity
  8
仕上
  6
Continuous
 62
     6
370
     9
100
AcDbLine
 10
-165.7009021948099
 20
-83.67481077410264
 30
0.0
 11
-169.7008960382715
 21
-83.67481077410264
 31
0.0
  0
LINE
  5
33F
330
1F
100
AcDbEntity
  8
仕上
  6
Continuous
 62
     6
370
     9
100
AcDbLine
 10
-92.70110745203422
 20
-160.6750205088094
 30
0.0
 11
-92.70110745203422
 21
-156.6750514387872
 31
0.0
  0
LINE
  5
340
330
1F
100
AcDbEntity
  8
仕上
  6
Continuous
 62
     6
370
     9
100
AcDbLine
 10
-149.7012241022363
 20
-161.6748022020802
 30
0.0
 11
-89.01417556208415
 21
-161.6750499364741
 31
0.0
  0
LINE
  5
341
330
1F
100
AcDbEntity
  8
仕上
  6
Continuous
 62
     6
370
     9
100
AcDbLine
 10
-92.70110745203422
 20
-156.7998352529709
 30
0.0
 11
-92.57629886441131
 21
-156.6750514387872
 31
0.0
  0
ARC
  5
342
330
1F
100
AcDbEntity
  8
仕上
  6
Continuous
 62
     6
370
     9
100
AcDbCircle
 10
-169.2008937111588
 20
-79.98777979039505
 30
0.0
 40
1.500000013808026
100
AcDbArc
 50
140.000244140625
 51
179.9996643066406
  0
ARC
  5
343
330
1F
100
AcDbEntity
  8
仕上
  6
Continuous
 62
     6
370
     9
100
AcDbCircle
 10
-107.1606208180265
 20
-164.6749648053923
 30
0.0
 40
3.000000027616052
100
AcDbArc
 50
11.30984497070313
 51
90.0
  0
ARC
  5
344
330
1F
100
AcDbEntity
  8
仕上
  6
Continuous
 62
     6
370
     9
100
AcDbCircle
 10
-102.4714794377459
 20
-165.1749919059442
 30
0.0
 40
1.500000013808026
100
AcDbArc
 50
191.3101501464844
 51
269.9996643066406
  0
ARC
  5
345
330
1F
100
AcDbEntity
  8
仕上
  6
Continuous
 62
     6
370
     9
100
AcDbCircle
 10
-94.9729309374197
 20
-165.1749919059442
 30
0.0
 40
1.500000013808026
100
AcDbArc
 50
269.9996643066406
 51
309.9996948242188
  0
ARC
  5
346
330
1F
100
AcDbEntity
  8
仕上
  6
Continuous
 62
     6
370
     9
100
AcDbCircle
 10
-89.01415078864474
 20
-160.1750429551362
 30
0.0
 40
1.500000013808026
100
AcDbArc
 50
269.9996643066406
 51
309.9996948242188
  0
ARC
  5
347
330
1F
100
AcDbEntity
  8
仕上
  6
Continuous
 62
     6
370
     9
100
AcDbCircle
 10
-169.7008960382715
 20
-82.67480611987742
 30
0.0
 40
1.00000000920535
100
AcDbArc
 50
180.0
 51
270.0
  0
ARC
  5
348
330
1F
100
AcDbEntity
  8
仕上
  6
Continuous
 62
     6
370
     9
100
AcDbCircle
 10
-169.2010671252345
 20
-129.8402141622844
 30
0.0
 40
1.500000013808026
100
AcDbArc
 50
180.0
 51
224.9993286132812
  0
ARC
  5
349
330
1F
100
AcDbEntity
  8
仕上
  6
Continuous
 62
     6
370
     9
100
AcDbCircle
 10
-138.8666347074129
 20
-160.1748447676212
 30
0.0
 40
1.500000013808026
100
AcDbArc
 50
225.0006713867188
 51
270.0
  0
ARC
  5
34A
330
1F
100
AcDbEntity
  8
仕上
  6
Continuous
 62
     6
370
     9
100
AcDbCircle
 10
-91.701102797809
 20
-160.6750205088094
 30
0.0
 40
1.00000000920535
100
AcDbArc
 50
180.0
 51
270.0
  0
ARC
  5
34B
330
1F
100
AcDbEntity
  8
仕上
  6
Continuous
 62
     6
370
     9
100
AcDbCircle
 10
-136.7955504013661
 20
-155.1748710433737
 30
0.0
 40
1.500000013808026
100
AcDbArc
 50
225.0006713867188
 51
270.0
  0
ARC
  5
34C
330
1F
100
AcDbEntity
  8
仕上
  6
Continuous
 62
     6
370
     9
100
AcDbCircle
 10
-164.201019080669
 20
-127.7691794031164
 30
0.0
 40
1.500000013808026
100
AcDbArc
 50
180.0
 51
224.9993286132812
  0
ARC
  5
34D
330
1F
100
AcDbEntity
  8
仕上
  6
Continuous
 62
     6
370
     9
100
AcDbCircle
 10
-149.7011250084788
 20
-140.6748035571079
 30
0.0
 40
21.00000019331236
100
AcDbArc
 50
179.9997253417969
 51
269.9997253417969
  0
ARC
  5
34E
330
1F
100
AcDbEntity
  8
仕上
  6
Continuous
 62
     6
370
     9
100
AcDbCircle
 10
-165.166515901931
 20
-134.581889974893
 30
0.0
 40
1.00000000920535
100
AcDbArc
 50
225.0
 51
298.3014221191406
  0
LINE
  5
34F
330
1F
100
AcDbEntity
  8
仕上
  6
Continuous
 62
     6
370
     9
100
AcDbLine
 10
-164.692401818976
 20
-135.4623627840844
 30
0.0
 11
-160.7513192143725
 21
-133.340245192904
 31
0.0
  0
ARC
  5
350
330
1F
100
AcDbEntity
  8
仕上
  6
Continuous
 62
     6
370
     9
100
AcDbCircle
 10
-143.6083304118604
 20
-156.140274272468
 30
0.0
 40
1.00000000920535
100
AcDbArc
 50
151.6985778808594
 51
225.0
  0
LINE
  5
351
330
1F
100
AcDbEntity
  8
仕上
  6
Continuous
 62
     6
370
     9
100
AcDbLine
 10
-144.4888032210517
 20
-155.666160189513
 30
0.0
 11
-142.3666360829927
 21
-151.725102358349
 31
0.0
  0
LINE
  5
352
330
1F
100
AcDbEntity
  8
仕上
  6
Continuous
 62
     6
370
     9
100
AcDbLine
 10
-139.4879385186088
 20
-161.6748438943716
 30
0.0
 11
-170.7010819613916
 21
-130.4614965234209
 31
0.0
  0
LINE
  5
353
330
1F
100
AcDbEntity
  8
仕上
  6
Continuous
 62
     6
370
     9
100
AcDbLine
 10
-134.5883770945003
 20
-156.6747636364536
 30
0.0
 11
-136.0883770945003
 21
-161.6747621341403
 31
0.0
  0
LINE
  5
354
330
1F
100
AcDbEntity
  8
仕上
  6
Continuous
 62
     6
370
     9
100
AcDbLine
 10
-165.7010952097276
 20
-125.5620850072773
 30
0.0
 11
-170.7010918037158
 21
-127.0620913529229
 31
0.0
  0
LINE
  5
355
330
1F
100
AcDbEntity
  8
仕上
  6
Continuous
 62
     6
370
     9
100
AcDbLine
 10
-170.7011236534511
 20
-140.6747044633503
 30
0.0
 11
-170.7009277090116
 21
-92.67464578476381
 31
0.0
  0
LINE
  5
356
330
1F
100
AcDbEntity
  8
仕上
  6
Continuous
 62
     6
370
     9
100
AcDbLine
 10
-170.7009032159058
 20
-86.67462598957809
 30
0.0
 11
-170.7008759190573
 21
-79.98777979039505
 31
0.0
  0
ARC
  5
357
330
1F
100
AcDbEntity
  8
仕上
  6
Continuous
 62
     6
370
     9
100
AcDbCircle
 10
-173.7009394286118
 20
-98.134200272898
 30
0.0
 40
3.000000027616052
100
AcDbArc
 50
0.0
 51
65.19068680587553
  0
ARC
  5
358
330
1F
100
AcDbEntity
  8
仕上
  6
JWW_DASHED2
 62
     6
370
     9
100
AcDbCircle
 10
-173.7009394286118
 20
-98.134200272898
 30
0.0
 40
3.000000027616052
100
AcDbArc
 50
65.19068680587553
 51
78.69015502929686
  0
LINE
  5
359
330
1F
100
AcDbEntity
  8
仕上
  6
JWW_DASHED2
 62
     6
370
     9
100
AcDbLine
 10
-173.112570243212
 20
-95.19240389277763
 30
0.0
 11
-174.4951015749849
 21
-94.91588276235939
 31
0.0
  0
ARC
  5
35A
330
1F
100
AcDbEntity
  8
仕上
  6
JWW_DASHED2
 62
     6
370
     9
100
AcDbCircle
 10
-174.200916982285
 20
-93.44503411917799
 30
0.0
 40
1.500000013808026
100
AcDbArc
 50
179.9996643066406
 51
258.6893615722656
  0
ARC
  5
35B
330
1F
100
AcDbEntity
  8
仕上
  6
JWW_DASHED2
 62
     6
370
     9
100
AcDbCircle
 10
-174.200916982285
 20
-85.94646084541245
 30
0.0
 40
1.500000013808026
100
AcDbArc
 50
139.9996337890625
 51
179.9996643066406
  0
LINE
  5
35C
330
1F
100
AcDbEntity
  8
仕上
  6
Continuous
 62
     6
370
     9
100
AcDbLine
 10
-170.7844986156511
 20
-79.54140151948741
 30
0.0
 11
-166.7008820755958
 21
-74.67476888607553
 31
0.0
  0
LINE
  5
35D
330
1F
100
AcDbEntity
  8
仕上
  6
JWW_DASHED2
 62
     6
370
     9
100
AcDbLine
 10
-175.3500081947307
 20
-84.98232813141709
 30
0.0
 11
-170.7844986156511
 21
-79.54140151948741
 31
0.0
  0
LINE
  5
35E
330
1F
100
AcDbEntity
  8
仕上
  6
JWW_CENTER1
 62
     6
370
     9
100
AcDbLine
 10
-157.3952856375084
 20
-148.3689367111335
 30
0.0
 11
-149.554466247318
 21
-140.5281695693865
 31
0.0
  0
LINE
  5
35F
330
1F
100
AcDbEntity
  8
仕上
  6
JWW_CENTER1
 62
     6
370
     9
100
AcDbLine
 10
-162.425962030585
 20
162.675861515248
 30
0.0
 11
-141.7003996846502
 21
162.675861515248
 31
0.0
  0
ELLIPSE
  5
360
330
1F
100
AcDbEntity
  8
仕上
  6
Continuous
 62
     6
370
     9
100
AcDbEllipse
 10
-155.0945770417366
 20
162.675861515248
 30
0.0
 11
-1.199071815626999E-14
 21
-14.5
 31
0.0
210
0.0
220
0.0
230
1.0
 40
0.7071027279390983
 41
1.570796326794897
 42
2.667090329588922
  0
ELLIPSE
  5
361
330
1F
100
AcDbEntity
  8
仕上
  6
Continuous
 62
     6
370
     9
100
AcDbEllipse
 10
-151.5590412378734
 20
162.675861515248
 30
0.0
 11
7.960204194457796E-16
 21
-13.0
 31
0.0
210
0.0
220
0.0
230
1.0
 40
0.7071034707138655
 41
0.0
 42
6.283185307179586
  0
ELLIPSE
  5
362
330
1F
100
AcDbEntity
  8
仕上
  6
Continuous
 62
     6
370
     9
100
AcDbEllipse
 10
-155.0945770417366
 20
162.675861515248
 30
0.0
 11
-1.199071815626999E-14
 21
-14.5
 31
0.0
210
0.0
220
0.0
230
1.0
 40
0.7071027279390983
 41
0.4745023240008708
 42
1.570796326794897
  0
LINE
  5
363
330
1F
100
AcDbEntity
  8
仕上
  6
JWW_CENTER1
 62
     6
370
     9
100
AcDbLine
 10
-162.425962030585
 20
86.67600326291765
 30
0.0
 11
-141.7003996846502
 21
86.67600326291765
 31
0.0
  0
ELLIPSE
  5
364
330
1F
100
AcDbEntity
  8
仕上
  6
Continuous
 62
     6
370
     9
100
AcDbEllipse
 10
-155.0945770417366
 20
86.67600326291779
 30
0.0
 11
-1.199071815626999E-14
 21
14.5
 31
0.0
210
0.0
220
0.0
230
1.0
 40
0.7071027279390983
 41
3.616094977590664
 42
4.71238898038469
  0
ELLIPSE
  5
365
330
1F
100
AcDbEntity
  8
仕上
  6
Continuous
 62
     6
370
     9
100
AcDbEllipse
 10
-151.5590412378734
 20
86.67600326291779
 30
0.0
 11
7.960204194457796E-16
 21
13.0
 31
0.0
210
0.0
220
0.0
230
1.0
 40
0.7071034707138655
 41
0.0
 42
6.283185307179586
  0
ELLIPSE
  5
366
330
1F
100
AcDbEntity
  8
仕上
  6
Continuous
 62
     6
370
     9
100
AcDbEllipse
 10
-155.0945770417366
 20
86.67600326291779
 30
0.0
 11
-1.199071815626999E-14
 21
14.5
 31
0.0
210
0.0
220
0.0
230
1.0
 40
0.7071027279390983
 41
4.71238898038469
 42
5.808682983178715
  0
ARC
  5
367
330
1F
100
AcDbEntity
  8
仕上
  6
Continuous
 62
     6
370
     9
100
AcDbCircle
 10
-151.5590338686154
 20
163.1758086102574
 30
0.0
 40
19.76232526106613
100
AcDbArc
 50
117.1733532360034
 51
131.6819356942127
  0
ARC
  5
368
330
1F
100
AcDbEntity
  8
仕上
  6
Continuous
 62
     6
370
     9
100
AcDbCircle
 10
-151.5590338686154
 20
86.17605616790843
 30
0.0
 40
19.76232526106613
100
AcDbArc
 50
228.3180643057873
 51
242.8266467639966
  0
ARC
  5
369
330
1F
100
AcDbEntity
  8
仕上
  6
Continuous
 62
     6
370
     9
100
AcDbCircle
 10
-151.5590338686154
 20
87.17600326291779
 30
0.0
 40
19.76232526106613
100
AcDbArc
 50
117.1733532360034
 51
131.6819356942127
  0
ARC
  5
36A
330
1F
100
AcDbEntity
  8
仕上
  6
Continuous
 62
     6
370
     9
100
AcDbCircle
 10
-151.5590338686154
 20
162.175861515248
 30
0.0
 40
19.76232526106613
100
AcDbArc
 50
228.3180643057873
 51
242.8266467639966
  0
ARC
  5
36B
330
1F
100
AcDbEntity
  8
通り芯
  6
Continuous
 62
     3
370
     9
100
AcDbCircle
 10
183.3177075775078
 20
-135.8498395983334
 30
0.0
 40
40.25
100
AcDbArc
 50
336.81280067554
 51
359.8724783007669
  0
ARC
  5
36C
330
1F
100
AcDbEntity
  8
通り芯
  6
Continuous
 62
     3
370
     9
100
AcDbCircle
 10
183.3177075775078
 20
-135.8498395983334
 30
0.0
 40
40.25
100
AcDbArc
 50
180.1275216992331
 51
203.18719932446
  0
ARC
  5
36D
330
1F
100
AcDbEntity
  8
通り芯
  6
Continuous
 62
     3
370
     9
100
AcDbCircle
 10
183.3177075775078
 20
-135.8498395983334
 30
0.0
 40
40.25
100
AcDbArc
 50
16.8949504464377
 51
34.30110602847282
  0
ARC
  5
36E
330
1F
100
AcDbEntity
  8
通り芯
  6
Continuous
 62
     3
370
     9
100
AcDbCircle
 10
183.3177075775078
 20
-135.8498395983334
 30
0.0
 40
40.25
100
AcDbArc
 50
53.83858569557976
 51
69.26550336955503
  0
ARC
  5
36F
330
1F
100
AcDbEntity
  8
通り芯
  6
Continuous
 62
     3
370
     9
100
AcDbCircle
 10
183.3177075775078
 20
-135.8498395983334
 30
0.0
 40
40.25
100
AcDbArc
 50
110.734496630445
 51
126.16141430442
  0
ARC
  5
370
330
1F
100
AcDbEntity
  8
通り芯
  6
Continuous
 62
     3
370
     9
100
AcDbCircle
 10
183.3177075775078
 20
-135.8498395983334
 30
0.0
 40
40.25
100
AcDbArc
 50
145.6988939715272
 51
163.1050495535623
  0
LINE
  5
371
330
1F
100
AcDbEntity
  8
通り芯
  6
Continuous
 62
     3
370
     9
100
AcDbLine
 10
-164.7008797806393
 20
-42.67455240568793
 30
0.0
 11
-164.7008797806393
 21
-77.44607985592525
 31
0.0
  0
LINE
  5
372
330
1F
100
AcDbEntity
  8
通り芯
  6
Continuous
 62
     3
370
     9
100
AcDbLine
 10
-164.7008797806393
 20
-95.67450721846325
 30
0.0
 11
-164.7008797806393
 21
-129.3906971469436
 31
0.0
  0
LINE
  5
373
330
1F
100
AcDbEntity
  8
通り芯
  6
Continuous
 62
     3
370
     9
100
AcDbLine
 10
-51.70123158434521
 20
-155.6749931163853
 30
0.0
 11
-138.4167738890348
 21
-155.6749931163853
 31
0.0
  0
LINE
  5
374
330
1F
100
AcDbEntity
  8
0-F
  6
Continuous
 62
     7
370
     9
100
AcDbLine
 10
-36.15519304670208
 20
-24.00940237823983
 30
0.0
 11
-149.0299750543942
 21
-145.0617151999151
 31
0.0
  0
LINE
  5
375
330
1F
100
AcDbEntity
  8
0-F
  6
Continuous
 62
     7
370
     9
100
AcDbLine
 10
-149.0299750543941
 20
-145.061715199915
 30
0.0
 11
-146.1266100338984
 21
-140.9910307909045
 31
0.0
  0
LINE
  5
376
330
1F
100
AcDbEntity
  8
0-F
  6
Continuous
 62
     7
370
     9
100
AcDbLine
 10
-149.0299750543941
 20
-145.061715199915
 30
0.0
 11
-145.1719691462991
 21
-141.8811821607682
 31
0.0
  0
LINE
  5
377
330
1F
100
AcDbEntity
  8
0-F
  6
Continuous
 62
     7
370
     9
100
AcDbLine
 10
-284.7008797806393
 20
-193.2575997034661
 30
0.0
 11
-287.3411782181584
 21
-197.5036359916806
 31
0.0
  0
LINE
  5
378
330
1F
100
AcDbEntity
  8
0-F
  6
Continuous
 62
     7
370
     9
100
AcDbLine
 10
-284.7008797806393
 20
-193.2575997034661
 30
0.0
 11
-288.350167288136
 21
-196.6755962932286
 31
0.0
  0
LINE
  5
379
330
1F
100
AcDbEntity
  8
0-F
  6
Continuous
 62
     7
370
     9
100
AcDbLine
 10
-297.1571511370031
 20
-208.4359077903167
 30
0.0
 11
-284.7008797806393
 21
-193.2575997034661
 31
0.0
  0
LINE
  5
37A
330
1F
100
AcDbEntity
  8
0-F
  6
Continuous
 62
     7
370
     9
100
AcDbLine
 10
-354.1806637455159
 20
-208.4359077903167
 30
0.0
 11
-297.1571511370031
 21
-208.4359077903167
 31
0.0
  0
TEXT
  5
37B
330
1F
100
AcDbEntity
  8
0-F
  6
Continuous
 62
     7
370
     9
100
AcDbText
 10
-353.0484795214097
 20
-205.8977401956304
 30
0.0
 40
4.572
  1
位置決めプレート
 41
1.145833333333333
  7
ＭＳ ゴシック
100
AcDbText
  0
TEXT
  5
37C
330
1F
100
AcDbEntity
  8
0-F
  6
Continuous
 62
     7
370
     9
100
AcDbText
 10
-286.3936214201873
 20
-211.8089944515899
 30
0.0
 40
4.572
  1
スペーサー
 41
1.133333333333335
  7
ＭＳ ゴシック
100
AcDbText
  0
LINE
  5
37D
330
1F
100
AcDbEntity
  8
0-F
  6
Continuous
 62
     7
370
     9
100
AcDbLine
 10
-301.1341786627187
 20
-213.9964503057157
 30
0.0
 11
-234.8670296443428
 21
-213.9964503057157
 31
0.0
  0
TEXT
  5
37E
330
1F
100
AcDbEntity
  8
0-F
  6
Continuous
 62
     7
370
     9
100
AcDbText
 10
-300.1485594314169
 20
-220.6312260473251
 30
0.0
 40
4.572
  1
硬質ポリ塩化ビニル
 41
1.148148148148149
  7
ＭＳ ゴシック
100
AcDbText
  0
LINE
  5
37F
330
1F
100
AcDbEntity
  8
0-F
  6
Continuous
 62
     7
370
     9
100
AcDbLine
 10
-218.4300140793938
 20
-189.6494484802841
 30
0.0
 11
-221.7446734428536
 21
-193.3928471104367
 31
0.0
  0
LINE
  5
380
330
1F
100
AcDbEntity
  8
0-F
  6
Continuous
 62
     7
370
     9
100
AcDbLine
 10
-218.4300140793938
 20
-189.6494484802841
 30
0.0
 11
-220.6628663050164
 21
-194.1231908665344
 31
0.0
  0
LINE
  5
381
330
1F
100
AcDbEntity
  8
0-F
  6
Continuous
 62
     7
370
     9
100
AcDbLine
 10
-234.8670296443428
 20
-213.9964503057157
 30
0.0
 11
-218.4300140793938
 21
-189.6494484802841
 31
0.0
  0
LINE
  5
382
330
1F
100
AcDbEntity
  8
通り芯
  6
Continuous
 62
     3
370
     9
100
AcDbLine
 10
260.5687604017402
 20
-155.6725918437028
 30
0.0
 11
285.5077527812185
 21
-155.6725918437028
 31
0.0
  0
LINE
  5
383
330
1F
100
AcDbEntity
  8
通り芯
  6
Continuous
 62
     3
370
     9
100
AcDbLine
 10
258.586304600375
 20
-157.4082644035208
 30
0.0
 11
257.1648621203143
 21
-168.0690830039759
 31
0.0
  0
ARC
  5
384
330
1F
100
AcDbEntity
  8
通り芯
  6
Continuous
 62
     3
370
     9
100
AcDbCircle
 10
260.5687604017402
 20
-157.6725918437028
 30
0.0
 40
2.0
100
AcDbArc
 50
90.0
 51
172.4053566314085
  0
LINE
  5
385
330
1F
100
AcDbEntity
  8
通り芯
  6
Continuous
 62
     3
370
     9
100
AcDbLine
 10
258.8177276083508
 20
-71.67455240568799
 30
0.0
 11
258.8177276083508
 21
-156.7062150246127
 31
0.0
  0
LINE
  5
386
330
1F
100
AcDbEntity
  8
0-F
  6
Continuous
 62
     7
370
     9
100
AcDbLine
 10
260.5687604017402
 20
-124.8078128802727
 30
0.0
 11
285.5077527812185
 21
-124.8078128802727
 31
0.0
  0
LINE
  5
387
330
1F
100
AcDbEntity
  8
0-F
  6
Continuous
 62
     7
370
     9
100
AcDbLine
 10
260.5687604017402
 20
-124.8078128802727
 30
0.0
 11
265.5259847086093
 21
-124.1551819191725
 31
0.0
  0
LINE
  5
388
330
1F
100
AcDbEntity
  8
0-F
  6
Continuous
 62
     7
370
     9
100
AcDbLine
 10
260.5687604017402
 20
-124.8078128802727
 30
0.0
 11
265.5259847086093
 21
-125.460443841373
 31
0.0
  0
LINE
  5
389
330
1F
100
AcDbEntity
  8
0-F
  6
Continuous
 62
     7
370
     9
100
AcDbLine
 10
285.5077527812185
 20
-124.8078128802727
 30
0.0
 11
280.5505284743494
 21
-124.1551819191725
 31
0.0
  0
LINE
  5
38A
330
1F
100
AcDbEntity
  8
0-F
  6
Continuous
 62
     7
370
     9
100
AcDbLine
 10
285.5077527812185
 20
-124.8078128802727
 30
0.0
 11
280.5505284743494
 21
-125.460443841373
 31
0.0
  0
LINE
  5
38B
330
1F
100
AcDbEntity
  8
0-F
  6
Continuous
 62
     7
370
     9
100
AcDbLine
 10
260.5687604017402
 20
-124.2078128802727
 30
0.0
 11
260.5687604017402
 21
-154.1305468814485
 31
0.0
  0
LINE
  5
38C
330
1F
100
AcDbEntity
  8
0-F
  6
Continuous
 62
     7
370
     9
100
AcDbLine
 10
285.5077527812185
 20
-124.2078128802727
 30
0.0
 11
285.5077527812185
 21
-154.1305468814485
 31
0.0
  0
TEXT
  5
38D
330
1F
100
AcDbEntity
  8
0-F
  6
Continuous
 62
     2
370
   211
100
AcDbText
 10
-72.90527577046254
 20
-121.6798128802727
 30
0.0
 40
6.096
  1
(25)
 41
1.09375
  7
ＭＳ ゴシック
100
AcDbText
  0
TEXT
  5
38E
330
1F
100
AcDbEntity
  8
0-F
  6
Continuous
 62
     2
370
   211
100
AcDbText
 10
264.2882565914794
 20
-121.6798128802727
 30
0.0
 40
6.096
  1
(25)
 41
1.09375
  7
ＭＳ ゴシック
100
AcDbText
  0
LINE
  5
38F
330
1F
100
AcDbEntity
  8
通り芯
  6
Continuous
 62
     3
370
     9
100
AcDbLine
 10
183.3177075775078
 20
-155.6725918437028
 30
0.0
 11
81.12766237379716
 21
-155.6725918437028
 31
0.0
  0
LINE
  5
390
330
1F
100
AcDbEntity
  8
通り芯
  6
Continuous
 62
     3
370
     9
100
AcDbLine
 10
78.31768754666493
 20
-165.6725753477147
 30
0.0
 11
183.3177075775078
 21
-165.6725753477147
 31
0.0
  0
LINE
  5
391
330
1F
100
AcDbEntity
  8
通り芯
  6
Continuous
 62
     3
370
     9
100
AcDbLine
 10
183.3177075775078
 20
-170.6725918437028
 30
0.0
 11
254.1911784182664
 21
-170.6725918437028
 31
0.0
  0
LINE
  5
392
330
1F
100
AcDbEntity
  8
通り芯
  6
Continuous
 62
     3
370
     9
100
AcDbLine
 10
107.8176875466649
 20
-71.67455240568799
 30
0.0
 11
107.8176875466649
 21
-155.6725918437028
 31
0.0
  0
LINE
  5
393
330
1F
100
AcDbEntity
  8
仕上
  6
Continuous
 62
     6
370
     9
100
AcDbLine
 10
183.3177075775078
 20
-156.6750762122267
 30
0.0
 11
256.8176780614718
 21
-156.6750762122267
 31
0.0
  0
LINE
  5
394
330
1F
100
AcDbEntity
  8
仕上
  6
Continuous
 62
     6
370
     9
100
AcDbLine
 10
183.3177075775078
 20
-157.6750762122267
 30
0.0
 11
256.6176705184903
 21
-157.6750762122267
 31
0.0
  0
LINE
  5
395
330
1F
100
AcDbEntity
  8
仕上
  6
Continuous
 62
     6
370
     9
100
AcDbLine
 10
178.5676978566577
 20
-148.0682135806829
 30
0.0
 11
178.5676978566577
 21
-155.6725918437028
 31
0.0
  0
LINE
  5
396
330
1F
100
AcDbEntity
  8
仕上
  6
Continuous
 62
     6
370
     9
100
AcDbLine
 10
169.0677279618361
 20
-152.8855134233135
 30
0.0
 11
169.0677279618361
 21
-155.6725918437028
 31
0.0
  0
ARC
  5
397
330
1F
100
AcDbEntity
  8
仕上
  6
Continuous
 62
     6
370
     9
100
AcDbCircle
 10
145.817728904464
 20
-142.5326876438051
 30
0.0
 40
19.76232526106613
100
AcDbArc
 50
318.325601537155
 51
332.8266467639966
  0
ARC
  5
398
330
1F
100
AcDbEntity
  8
仕上
  6
Continuous
 62
     6
370
     9
100
AcDbCircle
 10
144.817728904464
 20
-142.5326876438051
 30
0.0
 40
19.76232526106613
100
AcDbArc
 50
207.1733532360034
 51
221.6743984628449
  0
LINE
  5
399
330
1F
100
AcDbEntity
  8
仕上
  6
Continuous
 62
     6
370
     9
100
AcDbLine
 10
121.5676803002131
 20
-152.8855134233135
 30
0.0
 11
121.5676803002131
 21
-155.6725918437028
 31
0.0
  0
LINE
  5
39A
330
1F
100
AcDbEntity
  8
仕上
  6
Continuous
 62
     6
370
     9
100
AcDbLine
 10
109.8177370935438
 20
-77.67483239563
 30
0.0
 11
109.8177370935438
 21
-155.6725918437028
 31
0.0
  0
LINE
  5
39B
330
1F
100
AcDbEntity
  8
仕上
  6
Continuous
 62
     6
370
     9
100
AcDbLine
 10
183.3177075775078
 20
-161.6750499364741
 30
0.0
 11
246.6780703484427
 21
-161.6750499364741
 31
0.0
  0
LINE
  5
39C
330
1F
100
AcDbEntity
  8
通り芯
  6
Continuous
 62
     3
370
     9
100
AcDbLine
 10
104.6729617655205
 20
-177.3338146081729
 30
0.0
 11
103.4122872508762
 21
-165.6725753477147
 31
0.0
  0
LINE
  5
39D
330
1F
100
AcDbEntity
  8
通り芯
  6
Continuous
 62
     3
370
     9
100
AcDbLine
 10
105.5307292495748
 20
-172.5690830039758
 30
0.0
 11
104.6111948954067
 21
-165.6725753477147
 31
0.0
  0
ENDSEC
  0
SECTION
  2
OBJECTS
  0
DICTIONARY
  5
C
330
0
100
AcDbDictionary
281
     1
  3
ACAD_DETAILVIEWSTYLE
350
3E3
  3
ACAD_GROUP
350
D
  3
ACAD_LAYOUT
350
1A
  3
ACAD_MATERIAL
350
43
  3
ACAD_MLEADERSTYLE
350
6B
  3
ACAD_MLINESTYLE
350
17
  3
ACAD_PLOTSETTINGS
350
19
  3
ACAD_PLOTSTYLENAME
350
E
  3
ACAD_SCALELIST
350
47
  3
ACAD_SECTIONVIEWSTYLE
350
3E4
  3
ACAD_TABLESTYLE
350
69
  3
ACAD_VISUALSTYLE
350
2A
  3
ACDB_RECOMPOSE_DATA
350
3E0
  3
AcDbVariableDictionary
350
3A0
  0
DICTIONARY
  5
39E
330
8
100
AcDbDictionary
280
     1
281
     1
  3
ACAD_XREC_ROUNDTRIP
360
39F
  0
DICTIONARY
  5
3E3
102
{ACAD_REACTORS
330
C
102
}
330
C
100
AcDbDictionary
281
     1
  0
DICTIONARY
  5
D
102
{ACAD_REACTORS
330
C
102
}
330
C
100
AcDbDictionary
281
     1
  0
DICTIONARY
  5
1A
102
{ACAD_REACTORS
330
C
102
}
330
C
100
AcDbDictionary
281
     1
  3
Layout1
350
1E
  3
Layout2
350
26
  3
Model
350
22
  0
DICTIONARY
  5
43
102
{ACAD_REACTORS
330
C
102
}
330
C
100
AcDbDictionary
281
     1
  3
ByBlock
350
45
  3
ByLayer
350
44
  3
Global
350
46
  0
DICTIONARY
  5
6B
102
{ACAD_REACTORS
330
C
102
}
330
C
100
AcDbDictionary
281
     1
  3
Standard
350
6C
  0
DICTIONARY
  5
17
102
{ACAD_REACTORS
330
C
102
}
330
C
100
AcDbDictionary
281
     1
  3
Standard
350
18
  0
DICTIONARY
  5
19
102
{ACAD_REACTORS
330
C
102
}
330
C
100
AcDbDictionary
281
     1
  0
ACDBDICTIONARYWDFLT
  5
E
102
{ACAD_REACTORS
330
C
102
}
330
C
100
AcDbDictionary
281
     1
  3
Normal
350
F
100
AcDbDictionaryWithDefault
340
F
  0
DICTIONARY
  5
47
102
{ACAD_REACTORS
330
C
102
}
330
C
100
AcDbDictionary
281
     1
  3
A0
350
48
  3
A1
350
49
  3
A2
350
4A
  3
A3
350
4B
  3
A4
350
4C
  3
A5
350
4D
  3
A6
350
4E
  3
A7
350
4F
  3
A8
350
50
  3
A9
350
51
  3
B0
350
52
  3
B1
350
53
  3
B2
350
54
  3
B3
350
55
  3
B4
350
56
  3
B5
350
57
  3
B6
350
58
  3
B7
350
59
  3
B8
350
5A
  3
B9
350
5B
  3
C0
350
5C
  3
C1
350
5D
  3
C2
350
5E
  3
C3
350
5F
  3
C4
350
60
  3
C5
350
61
  3
C6
350
62
  3
C7
350
63
  3
C8
350
64
  3
C9
350
65
  3
D0
350
66
  3
D1
350
67
  3
D2
350
68
  0
DICTIONARY
  5
3E4
102
{ACAD_REACTORS
330
C
102
}
330
C
100
AcDbDictionary
281
     1
  0
DICTIONARY
  5
69
102
{ACAD_REACTORS
330
C
102
}
330
C
100
AcDbDictionary
281
     1
  3
Standard
350
6A
  0
DICTIONARY
  5
2A
102
{ACAD_REACTORS
330
C
102
}
330
C
100
AcDbDictionary
281
     1
  3
2dWireframe
350
2F
  3
Basic
350
32
  3
Brighten
350
36
  3
ColorChange
350
3A
  3
Conceptual
350
34
  3
Dim
350
35
  3
EdgeColorOff
350
3D
  3
Facepattern
350
39
  3
Flat
350
2B
  3
FlatWithEdges
350
2C
  3
Gouraud
350
2D
  3
GouraudWithEdges
350
2E
  3
Hidden
350
31
  3
JitterOff
350
3B
  3
Linepattern
350
38
  3
OverhangOff
350
3C
  3
Realistic
350
33
  3
Shaded
350
42
  3
Shaded with edges
350
41
  3
Shades of Gray
350
3E
  3
Sketchy
350
3F
  3
Thicken
350
37
  3
Wireframe
350
30
  3
X-Ray
350
40
  0
XRECORD
  5
3E0
102
{ACAD_REACTORS
330
C
102
}
330
C
100
AcDbXrecord
280
     1
 90
        1
330
6A
  0
DICTIONARY
  5
3A0
102
{ACAD_REACTORS
330
C
102
}
330
C
100
AcDbDictionary
281
     1
  3
CANNOSCALE
350
3A1
  3
CENTEREXE
350
3E5
  3
CENTERLTYPEFILE
350
3E6
  3
CMLEADERSTYLE
350
3E2
  3
CTABLESTYLE
350
3E1
  3
MSLTSCALE
350
3A2
  3
XCLIPFRAME
350
3A3
  0
XRECORD
  5
39F
102
{ACAD_REACTORS
330
39E
102
}
330
39E
100
AcDbXrecord
280
     1
102
VTR_0.000_0.000_1.000_1.000_VISUALSTYLE
340
2F
102
VTR_0.000_0.000_1.000_1.000_GRIDDISPLAY
 70
     3
102
VTR_0.000_0.000_1.000_1.000_GRIDMAJOR
 70
     5
102
VTR_0.000_0.000_1.000_1.000_DEFAULTLIGHTING
280
     1
102
VTR_0.000_0.000_1.000_1.000_DEFAULTLIGHTINGTYPE
 70
     1
102
VTR_0.000_0.000_1.000_1.000_BRIGHTNESS
141
0.0
102
VTR_0.000_0.000_1.000_1.000_CONTRAST
142
0.0
  0
LAYOUT
  5
1E
102
{ACAD_REACTORS
330
1A
102
}
330
1A
100
AcDbPlotSettings
  1

  2
none_device
  4

  6

 40
0.0
 41
0.0
 42
0.0
 43
0.0
 44
0.0
 45
0.0
 46
0.0
 47
0.0
 48
0.0
 49
0.0
140
0.0
141
0.0
142
1.0
143
1.0
 70
   688
 72
     1
 73
     0
 74
     5
  7

 75
    16
 76
     0
 77
     5
 78
   300
147
1.0
148
0.0
149
0.0
100
AcDbLayout
  1
Layout1
 70
     1
 71
     1
 10
0.0
 20
0.0
 11
420.0
 21
297.0
 12
0.0
 22
0.0
 32
0.0
 14
1.000000000000000E+20
 24
1.000000000000000E+20
 34
1.000000000000000E+20
 15
-1.000000000000000E+20
 25
-1.000000000000000E+20
 35
-1.000000000000000E+20
146
0.0
 13
0.0
 23
0.0
 33
0.0
 16
1.0
 26
0.0
 36
0.0
 17
0.0
 27
1.0
 37
0.0
 76
     0
330
1B
  0
LAYOUT
  5
26
102
{ACAD_REACTORS
330
1A
102
}
330
1A
100
AcDbPlotSettings
  1

  2
none_device
  4

  6

 40
0.0
 41
0.0
 42
0.0
 43
0.0
 44
0.0
 45
0.0
 46
0.0
 47
0.0
 48
0.0
 49
0.0
140
0.0
141
0.0
142
1.0
143
1.0
 70
   688
 72
     1
 73
     0
 74
     5
  7

 75
    16
 76
     0
 77
     5
 78
   300
147
1.0
148
0.0
149
0.0
100
AcDbLayout
  1
Layout2
 70
     1
 71
     2
 10
0.0
 20
0.0
 11
0.0
 21
0.0
 12
0.0
 22
0.0
 32
0.0
 14
0.0
 24
0.0
 34
0.0
 15
0.0
 25
0.0
 35
0.0
146
0.0
 13
0.0
 23
0.0
 33
0.0
 16
1.0
 26
0.0
 36
0.0
 17
0.0
 27
1.0
 37
0.0
 76
     0
330
23
  0
LAYOUT
  5
22
102
{ACAD_REACTORS
330
1A
102
}
330
1A
100
AcDbPlotSettings
  1

  2
none_device
  4
Letter_(8.50_x_11.00_Inches)
  6

 40
6.35
 41
6.35
 42
6.35000508
 43
6.35000508
 44
215.9
 45
279.4
 46
0.0
 47
0.0
 48
0.0
 49
0.0
140
0.0
141
0.0
142
1.0
143
1.0
 70
  1712
 72
     1
 73
     0
 74
     0
  7

 75
     0
 76
     0
 77
     5
 78
   300
147
1.0
148
0.0
149
0.0
100
AcDbLayout
  1
Model
 70
     1
 71
     0
 10
-420.0
 20
-297.0
 11
420.0
 21
297.0
 12
0.0
 22
0.0
 32
0.0
 14
-420.0
 24
-297.0
 34
0.0
 15
420.0
 25
297.0
 35
0.0
146
0.0
 13
0.0
 23
0.0
 33
0.0
 16
1.0
 26
0.0
 36
0.0
 17
0.0
 27
1.0
 37
0.0
 76
     0
330
1F
331
29
  0
MATERIAL
  5
45
102
{ACAD_REACTORS
330
43
102
}
102
{ACAD_XDICTIONARY
360
3D6
102
}
330
43
100
AcDbMaterial
  1
ByBlock
  0
MATERIAL
  5
44
102
{ACAD_REACTORS
330
43
102
}
102
{ACAD_XDICTIONARY
360
3D4
102
}
330
43
100
AcDbMaterial
  1
ByLayer
  0
MATERIAL
  5
46
102
{ACAD_REACTORS
330
43
102
}
102
{ACAD_XDICTIONARY
360
3D8
102
}
330
43
100
AcDbMaterial
  1
Global
  0
MLEADERSTYLE
  5
6C
102
{ACAD_REACTORS
330
6B
102
}
102
{ACAD_XDICTIONARY
360
3DE
102
}
330
6B
100
AcDbMLeaderStyle
170
     2
171
     1
172
     0
 90
        2
 40
0.0
 41
0.0
173
     1
 91
-1056964608
340
14
 92
       -2
290
     1
 42
2.0
291
     1
 43
8.0
  3
Standard
341
0
 44
4.0
300

342
11
174
     1
178
     6
175
     1
176
     0
 93
-1056964608
 45
4.0
292
     0
297
     0
 46
4.0
343
0
 94
-1056964608
 47
1.0
 49
1.0
140
1.0
293
     1
141
0.0
294
     1
177
     0
142
1.0
295
     0
296
     0
143
3.75
1001
ACAD_MLEADERVER
1070
     2
  0
MLINESTYLE
  5
18
102
{ACAD_REACTORS
330
17
102
}
330
17
100
AcDbMlineStyle
  2
Standard
 70
     0
  3

 62
   256
 51
90.0
 52
90.0
 71
     2
 49
0.5
 62
   256
  6
BYLAYER
 49
-0.5
 62
   256
  6
BYLAYER
  0
ACDBPLACEHOLDER
  5
F
102
{ACAD_REACTORS
330
E
102
}
330
E
  0
SCALE
  5
48
102
{ACAD_REACTORS
330
47
102
}
330
47
100
AcDbScale
 70
     0
300
1:1
140
1.0
141
1.0
290
     1
  0
SCALE
  5
49
102
{ACAD_REACTORS
330
47
102
}
330
47
100
AcDbScale
 70
     0
300
1:2
140
1.0
141
2.0
290
     0
  0
SCALE
  5
4A
102
{ACAD_REACTORS
330
47
102
}
330
47
100
AcDbScale
 70
     0
300
1:4
140
1.0
141
4.0
290
     0
  0
SCALE
  5
4B
102
{ACAD_REACTORS
330
47
102
}
330
47
100
AcDbScale
 70
     0
300
1:5
140
1.0
141
5.0
290
     0
  0
SCALE
  5
4C
102
{ACAD_REACTORS
330
47
102
}
330
47
100
AcDbScale
 70
     0
300
1:8
140
1.0
141
8.0
290
     0
  0
SCALE
  5
4D
102
{ACAD_REACTORS
330
47
102
}
330
47
100
AcDbScale
 70
     0
300
1:10
140
1.0
141
10.0
290
     0
  0
SCALE
  5
4E
102
{ACAD_REACTORS
330
47
102
}
330
47
100
AcDbScale
 70
     0
300
1:16
140
1.0
141
16.0
290
     0
  0
SCALE
  5
4F
102
{ACAD_REACTORS
330
47
102
}
330
47
100
AcDbScale
 70
     0
300
1:20
140
1.0
141
20.0
290
     0
  0
SCALE
  5
50
102
{ACAD_REACTORS
330
47
102
}
330
47
100
AcDbScale
 70
     0
300
1:30
140
1.0
141
30.0
290
     0
  0
SCALE
  5
51
102
{ACAD_REACTORS
330
47
102
}
330
47
100
AcDbScale
 70
     0
300
1:40
140
1.0
141
40.0
290
     0
  0
SCALE
  5
52
102
{ACAD_REACTORS
330
47
102
}
330
47
100
AcDbScale
 70
     0
300
1:50
140
1.0
141
50.0
290
     0
  0
SCALE
  5
53
102
{ACAD_REACTORS
330
47
102
}
330
47
100
AcDbScale
 70
     0
300
1:100
140
1.0
141
100.0
290
     0
  0
SCALE
  5
54
102
{ACAD_REACTORS
330
47
102
}
330
47
100
AcDbScale
 70
     0
300
2:1
140
2.0
141
1.0
290
     0
  0
SCALE
  5
55
102
{ACAD_REACTORS
330
47
102
}
330
47
100
AcDbScale
 70
     0
300
4:1
140
4.0
141
1.0
290
     0
  0
SCALE
  5
56
102
{ACAD_REACTORS
330
47
102
}
330
47
100
AcDbScale
 70
     0
300
8:1
140
8.0
141
1.0
290
     0
  0
SCALE
  5
57
102
{ACAD_REACTORS
330
47
102
}
330
47
100
AcDbScale
 70
     0
300
10:1
140
10.0
141
1.0
290
     0
  0
SCALE
  5
58
102
{ACAD_REACTORS
330
47
102
}
330
47
100
AcDbScale
 70
     0
300
100:1
140
100.0
141
1.0
290
     0
  0
SCALE
  5
59
102
{ACAD_REACTORS
330
47
102
}
330
47
100
AcDbScale
 70
     0
300
1/128" = 1'-0"
140
0.0078125
141
12.0
290
     0
  0
SCALE
  5
5A
102
{ACAD_REACTORS
330
47
102
}
330
47
100
AcDbScale
 70
     0
300
1/64" = 1'-0"
140
0.015625
141
12.0
290
     0
  0
SCALE
  5
5B
102
{ACAD_REACTORS
330
47
102
}
330
47
100
AcDbScale
 70
     0
300
1/32" = 1'-0"
140
0.03125
141
12.0
290
     0
  0
SCALE
  5
5C
102
{ACAD_REACTORS
330
47
102
}
330
47
100
AcDbScale
 70
     0
300
1/16" = 1'-0"
140
0.0625
141
12.0
290
     0
  0
SCALE
  5
5D
102
{ACAD_REACTORS
330
47
102
}
330
47
100
AcDbScale
 70
     0
300
3/32" = 1'-0"
140
0.09375
141
12.0
290
     0
  0
SCALE
  5
5E
102
{ACAD_REACTORS
330
47
102
}
330
47
100
AcDbScale
 70
     0
300
1/8" = 1'-0"
140
0.125
141
12.0
290
     0
  0
SCALE
  5
5F
102
{ACAD_REACTORS
330
47
102
}
330
47
100
AcDbScale
 70
     0
300
3/16" = 1'-0"
140
0.1875
141
12.0
290
     0
  0
SCALE
  5
60
102
{ACAD_REACTORS
330
47
102
}
330
47
100
AcDbScale
 70
     0
300
1/4" = 1'-0"
140
0.25
141
12.0
290
     0
  0
SCALE
  5
61
102
{ACAD_REACTORS
330
47
102
}
330
47
100
AcDbScale
 70
     0
300
3/8" = 1'-0"
140
0.375
141
12.0
290
     0
  0
SCALE
  5
62
102
{ACAD_REACTORS
330
47
102
}
330
47
100
AcDbScale
 70
     0
300
1/2" = 1'-0"
140
0.5
141
12.0
290
     0
  0
SCALE
  5
63
102
{ACAD_REACTORS
330
47
102
}
330
47
100
AcDbScale
 70
     0
300
3/4" = 1'-0"
140
0.75
141
12.0
290
     0
  0
SCALE
  5
64
102
{ACAD_REACTORS
330
47
102
}
330
47
100
AcDbScale
 70
     0
300
1" = 1'-0"
140
1.0
141
12.0
290
     0
  0
SCALE
  5
65
102
{ACAD_REACTORS
330
47
102
}
330
47
100
AcDbScale
 70
     0
300
1-1/2" = 1'-0"
140
1.5
141
12.0
290
     0
  0
SCALE
  5
66
102
{ACAD_REACTORS
330
47
102
}
330
47
100
AcDbScale
 70
     0
300
3" = 1'-0"
140
3.0
141
12.0
290
     0
  0
SCALE
  5
67
102
{ACAD_REACTORS
330
47
102
}
330
47
100
AcDbScale
 70
     0
300
6" = 1'-0"
140
6.0
141
12.0
290
     0
  0
SCALE
  5
68
102
{ACAD_REACTORS
330
47
102
}
330
47
100
AcDbScale
 70
     0
300
1'-0" = 1'-0"
140
12.0
141
12.0
290
     0
  0
TABLESTYLE
  5
6A
102
{ACAD_REACTORS
330
69
102
}
102
{ACAD_XDICTIONARY
360
3DA
102
}
330
69
100
AcDbTableStyle
  3
Standard
 70
     0
 71
     0
 40
0.06
 41
0.06
280
     0
281
     0
  7
Standard
140
4.5
170
     2
 62
     0
 63
   257
283
     0
274
    -2
284
     1
 64
     0
275
    -2
285
     1
 65
     0
276
    -2
286
     1
 66
     0
277
    -2
287
     1
 67
     0
278
    -2
288
     1
 68
     0
279
    -2
289
     1
 69
     0
  7
Standard
140
6.0
170
     5
 62
     0
 63
   257
283
     0
274
    -2
284
     1
 64
     0
275
    -2
285
     1
 65
     0
276
    -2
286
     1
 66
     0
277
    -2
287
     1
 67
     0
278
    -2
288
     1
 68
     0
279
    -2
289
     1
 69
     0
  7
Standard
140
4.5
170
     5
 62
     0
 63
   257
283
     0
274
    -2
284
     1
 64
     0
275
    -2
285
     1
 65
     0
276
    -2
286
     1
 66
     0
277
    -2
287
     1
 67
     0
278
    -2
288
     1
 68
     0
279
    -2
289
     1
 69
     0
  0
VISUALSTYLE
  5
2F
102
{ACAD_REACTORS
330
2A
102
}
102
{ACAD_XDICTIONARY
360
3AC
102
}
330
2A
100
AcDbVisualStyle
  2
2dWireframe
 70
     4
 71
     0
 72
     2
 73
     0
 90
        0
 40
0.6
 41
30.0
 62
     5
 63
     7
421
 16777215
 74
     1
 91
        4
 64
     7
 65
   257
 75
     1
175
     1
 42
1.0
 92
        0
 66
   257
 43
1.0
 76
     1
 77
     6
 78
     2
 67
     7
 79
     5
170
     0
171
     0
290
     0
174
     0
 93
        1
 44
0.0
173
     0
291
     0
 45
0.0
1001
ACAD
1000
AcDbSavedByObjectVersion
1070
     0
  0
VISUALSTYLE
  5
32
102
{ACAD_REACTORS
330
2A
102
}
102
{ACAD_XDICTIONARY
360
3B2
102
}
330
2A
100
AcDbVisualStyle
  2
Basic
 70
     7
 71
     1
 72
     0
 73
     1
 90
        0
 40
0.6
 41
30.0
 62
     5
 63
     7
421
 16777215
 74
     0
 91
        4
 64
     7
 65
   257
 75
     1
175
     1
 42
1.0
 92
        8
 66
     7
 43
1.0
 76
     1
 77
     6
 78
     2
 67
     7
 79
     5
170
     0
171
     0
290
     0
174
     0
 93
        1
 44
0.0
173
     0
291
     1
 45
0.0
1001
ACAD
1000
AcDbSavedByObjectVersion
1070
     0
  0
VISUALSTYLE
  5
36
102
{ACAD_REACTORS
330
2A
102
}
102
{ACAD_XDICTIONARY
360
3BA
102
}
330
2A
100
AcDbVisualStyle
  2
Brighten
 70
    12
 71
     2
 72
     2
 73
     0
 90
        0
 40
0.6
 41
30.0
 62
     5
 63
     7
421
 16777215
 74
     1
 91
        4
 64
     7
 65
   257
 75
     1
175
     1
 42
1.0
 92
        8
 66
     7
 43
1.0
 76
     1
 77
     6
 78
     2
 67
     7
 79
     5
170
     0
171
     0
290
     0
174
     0
 93
        1
 44
50.0
173
     0
291
     1
 45
0.0
1001
ACAD
1000
AcDbSavedByObjectVersion
1070
     0
  0
VISUALSTYLE
  5
3A
102
{ACAD_REACTORS
330
2A
102
}
102
{ACAD_XDICTIONARY
360
3C2
102
}
330
2A
100
AcDbVisualStyle
  2
ColorChange
 70
    16
 71
     2
 72
     2
 73
     3
 90
        0
 40
0.6
 41
30.0
 62
     5
 63
     8
421
  8421504
 74
     1
 91
        4
 64
     7
 65
   257
 75
     1
175
     1
 42
1.0
 92
        8
 66
     8
424
  8421504
 43
1.0
 76
     1
 77
     6
 78
     2
 67
     7
 79
     5
170
     0
171
     0
290
     0
174
     0
 93
        1
 44
0.0
173
     0
291
     1
 45
0.0
1001
ACAD
1000
AcDbSavedByObjectVersion
1070
     0
  0
VISUALSTYLE
  5
34
102
{ACAD_REACTORS
330
2A
102
}
102
{ACAD_XDICTIONARY
360
3B6
102
}
330
2A
100
AcDbVisualStyle
  2
Conceptual
 70
     9
 71
     3
 72
     2
 73
     0
 90
        0
 40
0.6
 41
30.0
 62
     5
 63
     7
421
 16777215
 74
     2
 91
        2
 64
     7
 65
   257
 75
     1
175
     1
 42
179.0
 92
        8
 66
     7
 43
1.0
 76
     1
 77
     6
 78
     2
 67
     7
 79
     3
170
     0
171
     0
290
     0
174
     0
 93
        1
 44
0.0
173
     0
291
     0
 45
0.0
1001
ACAD
1000
AcDbSavedByObjectVersion
1070
     0
  0
VISUALSTYLE
  5
35
102
{ACAD_REACTORS
330
2A
102
}
102
{ACAD_XDICTIONARY
360
3B8
102
}
330
2A
100
AcDbVisualStyle
  2
Dim
 70
    11
 71
     2
 72
     2
 73
     0
 90
        0
 40
0.6
 41
30.0
 62
     5
 63
     7
421
 16777215
 74
     1
 91
        4
 64
     7
 65
   257
 75
     1
175
     1
 42
1.0
 92
        8
 66
     7
 43
1.0
 76
     1
 77
     6
 78
     2
 67
     7
 79
     5
170
     0
171
     0
290
     0
174
     0
 93
        1
 44
-50.0
173
     0
291
     1
 45
0.0
1001
ACAD
1000
AcDbSavedByObjectVersion
1070
     0
  0
VISUALSTYLE
  5
3D
102
{ACAD_REACTORS
330
2A
102
}
102
{ACAD_XDICTIONARY
360
3C8
102
}
330
2A
100
AcDbVisualStyle
  2
EdgeColorOff
 70
    22
 71
     2
 72
     2
 73
     0
 90
        0
 40
0.6
 41
30.0
 62
     5
 63
     7
421
 16777215
 74
     1
 91
        4
 64
     7
 65
   257
 75
     1
175
     1
 42
1.0
 92
        8
 66
     7
 43
1.0
 76
     1
 77
     6
 78
     2
 67
     7
 79
     5
170
     0
171
     0
290
     0
174
     0
 93
        1
 44
0.0
173
     0
291
     1
 45
0.0
1001
ACAD
1000
AcDbSavedByObjectVersion
1070
     0
  0
VISUALSTYLE
  5
39
102
{ACAD_REACTORS
330
2A
102
}
102
{ACAD_XDICTIONARY
360
3C0
102
}
330
2A
100
AcDbVisualStyle
  2
Facepattern
 70
    15
 71
     2
 72
     2
 73
     0
 90
        0
 40
0.6
 41
30.0
 62
     5
 63
     7
421
 16777215
 74
     1
 91
        4
 64
     7
 65
   257
 75
     1
175
     1
 42
1.0
 92
        8
 66
     7
 43
1.0
 76
     1
 77
     6
 78
     2
 67
     7
 79
     5
170
     0
171
     0
290
     0
174
     0
 93
        1
 44
0.0
173
     0
291
     1
 45
0.0
1001
ACAD
1000
AcDbSavedByObjectVersion
1070
     0
  0
VISUALSTYLE
  5
2B
102
{ACAD_REACTORS
330
2A
102
}
102
{ACAD_XDICTIONARY
360
3A4
102
}
330
2A
100
AcDbVisualStyle
  2
Flat
 70
     0
 71
     2
 72
     1
 73
     1
 90
        2
 40
0.6
 41
30.0
 62
     5
 63
     7
421
 16777215
 74
     0
 91
        0
 64
     7
 65
   257
 75
     1
175
     1
 42
1.0
 92
        8
 66
     7
 43
1.0
 76
     1
 77
     6
 78
     2
 67
     7
 79
     5
170
     0
171
     0
290
     0
174
     0
 93
       13
 44
0.0
173
     0
291
     1
 45
0.0
1001
ACAD
1000
AcDbSavedByObjectVersion
1070
     0
  0
VISUALSTYLE
  5
2C
102
{ACAD_REACTORS
330
2A
102
}
102
{ACAD_XDICTIONARY
360
3A6
102
}
330
2A
100
AcDbVisualStyle
  2
FlatWithEdges
 70
     1
 71
     2
 72
     1
 73
     1
 90
        2
 40
0.6
 41
30.0
 62
     5
 63
     7
421
 16777215
 74
     1
 91
        0
 64
     7
 65
   257
 75
     1
175
     1
 42
1.0
 92
        0
 66
   257
 43
1.0
 76
     1
 77
     6
 78
     2
 67
     7
 79
     5
170
     0
171
     0
290
     0
174
     0
 93
       13
 44
0.0
173
     0
291
     1
 45
0.0
1001
ACAD
1000
AcDbSavedByObjectVersion
1070
     0
  0
VISUALSTYLE
  5
2D
102
{ACAD_REACTORS
330
2A
102
}
102
{ACAD_XDICTIONARY
360
3A8
102
}
330
2A
100
AcDbVisualStyle
  2
Gouraud
 70
     2
 71
     2
 72
     2
 73
     1
 90
        2
 40
0.6
 41
30.0
 62
     5
 63
     7
421
 16777215
 74
     0
 91
        0
 64
     7
 65
   257
 75
     1
175
     1
 42
1.0
 92
        0
 66
     7
 43
1.0
 76
     1
 77
     6
 78
     2
 67
     7
 79
     5
170
     0
171
     0
290
     0
174
     0
 93
       13
 44
0.0
173
     0
291
     1
 45
0.0
1001
ACAD
1000
AcDbSavedByObjectVersion
1070
     0
  0
VISUALSTYLE
  5
2E
102
{ACAD_REACTORS
330
2A
102
}
102
{ACAD_XDICTIONARY
360
3AA
102
}
330
2A
100
AcDbVisualStyle
  2
GouraudWithEdges
 70
     3
 71
     2
 72
     2
 73
     1
 90
        2
 40
0.6
 41
30.0
 62
     5
 63
     7
421
 16777215
 74
     1
 91
        0
 64
     7
 65
   257
 75
     1
175
     1
 42
1.0
 92
        0
 66
   257
 43
1.0
 76
     1
 77
     6
 78
     2
 67
     7
 79
     5
170
     0
171
     0
290
     0
174
     0
 93
       13
 44
0.0
173
     0
291
     1
 45
0.0
1001
ACAD
1000
AcDbSavedByObjectVersion
1070
     0
  0
VISUALSTYLE
  5
31
102
{ACAD_REACTORS
330
2A
102
}
102
{ACAD_XDICTIONARY
360
3B0
102
}
330
2A
100
AcDbVisualStyle
  2
Hidden
 70
     6
 71
     1
 72
     2
 73
     2
 90
        0
 40
0.6
 41
30.0
 62
     5
 63
     7
421
 16777215
 74
     2
 91
        2
 64
     7
 65
   257
 75
     2
175
     1
 42
40.0
 92
        0
 66
   257
 43
1.0
 76
     1
 77
     6
 78
     2
 67
     7
 79
     3
170
     0
171
     0
290
     0
174
     0
 93
        1
 44
0.0
173
     0
291
     0
 45
0.0
1001
ACAD
1000
AcDbSavedByObjectVersion
1070
     0
  0
VISUALSTYLE
  5
3B
102
{ACAD_REACTORS
330
2A
102
}
102
{ACAD_XDICTIONARY
360
3C4
102
}
330
2A
100
AcDbVisualStyle
  2
JitterOff
 70
    20
 71
     2
 72
     2
 73
     0
 90
        0
 40
0.6
 41
30.0
 62
     5
 63
     7
421
 16777215
 74
     1
 91
        4
 64
     7
 65
   257
 75
     1
175
     1
 42
1.0
 92
       10
 66
     7
 43
1.0
 76
     1
 77
     6
 78
     2
 67
     7
 79
     5
170
     0
171
     0
290
     0
174
     0
 93
        1
 44
0.0
173
     0
291
     1
 45
0.0
1001
ACAD
1000
AcDbSavedByObjectVersion
1070
     0
  0
VISUALSTYLE
  5
38
102
{ACAD_REACTORS
330
2A
102
}
102
{ACAD_XDICTIONARY
360
3BE
102
}
330
2A
100
AcDbVisualStyle
  2
Linepattern
 70
    14
 71
     2
 72
     2
 73
     0
 90
        0
 40
0.6
 41
30.0
 62
     5
 63
     7
421
 16777215
 74
     1
 91
        4
 64
     7
 65
   257
 75
     7
175
     7
 42
1.0
 92
        8
 66
     7
 43
1.0
 76
     1
 77
     6
 78
     2
 67
     7
 79
     5
170
     0
171
     0
290
     0
174
     0
 93
        1
 44
0.0
173
     0
291
     1
 45
0.0
1001
ACAD
1000
AcDbSavedByObjectVersion
1070
     0
  0
VISUALSTYLE
  5
3C
102
{ACAD_REACTORS
330
2A
102
}
102
{ACAD_XDICTIONARY
360
3C6
102
}
330
2A
100
AcDbVisualStyle
  2
OverhangOff
 70
    21
 71
     2
 72
     2
 73
     0
 90
        0
 40
0.6
 41
30.0
 62
     5
 63
     7
421
 16777215
 74
     1
 91
        4
 64
     7
 65
   257
 75
     1
175
     1
 42
1.0
 92
        9
 66
     7
 43
1.0
 76
     1
 77
     6
 78
     2
 67
     7
 79
     5
170
     0
171
     0
290
     0
174
     0
 93
        1
 44
0.0
173
     0
291
     1
 45
0.0
1001
ACAD
1000
AcDbSavedByObjectVersion
1070
     0
  0
VISUALSTYLE
  5
33
102
{ACAD_REACTORS
330
2A
102
}
102
{ACAD_XDICTIONARY
360
3B4
102
}
330
2A
100
AcDbVisualStyle
  2
Realistic
 70
     8
 71
     2
 72
     3
 73
     0
 90
        2
 40
0.6
 41
30.0
 62
     5
 63
     7
421
 16777215
 74
     0
 91
        0
 64
     7
 65
   257
 75
     1
175
     1
 42
1.0
 92
        8
 66
   257
 43
1.0
 76
     1
 77
     6
 78
     2
 67
     7
 79
     3
170
     0
171
     0
290
     0
174
     0
 93
       13
 44
0.0
173
     0
291
     0
 45
0.0
1001
ACAD
1000
AcDbSavedByObjectVersion
1070
     0
  0
VISUALSTYLE
  5
42
102
{ACAD_REACTORS
330
2A
102
}
102
{ACAD_XDICTIONARY
360
3D2
102
}
330
2A
100
AcDbVisualStyle
  2
Shaded
 70
    27
 71
     2
 72
     2
 73
     1
 90
        2
 40
0.6
 41
30.0
 62
     5
 63
     7
421
 16777215
 74
     0
 91
        4
 64
     7
 65
   257
 75
     1
175
     1
 42
1.0
 92
        8
 66
   257
 43
1.0
 76
     1
 77
     6
 78
     2
 67
     8
425
  7895160
 79
     3
170
     0
171
     0
290
     0
174
     0
 93
        5
 44
0.0
173
     0
291
     0
 45
0.0
1001
ACAD
1000
AcDbSavedByObjectVersion
1070
     0
  0
VISUALSTYLE
  5
41
102
{ACAD_REACTORS
330
2A
102
}
102
{ACAD_XDICTIONARY
360
3D0
102
}
330
2A
100
AcDbVisualStyle
  2
Shaded with edges
 70
    26
 71
     2
 72
     2
 73
     1
 90
        2
 40
0.6
 41
30.0
 62
     5
 63
     7
421
 16777215
 74
     1
 91
       10
 64
     7
 65
   257
 75
     2
175
     1
 42
1.0
 92
        8
 66
   257
 43
1.0
 76
     1
 77
     6
 78
     2
 67
     7
 79
     3
170
     0
171
     0
290
     0
174
     0
 93
        5
 44
0.0
173
     0
291
     0
 45
0.0
1001
ACAD
1000
AcDbSavedByObjectVersion
1070
     0
  0
VISUALSTYLE
  5
3E
102
{ACAD_REACTORS
330
2A
102
}
102
{ACAD_XDICTIONARY
360
3CA
102
}
330
2A
100
AcDbVisualStyle
  2
Shades of Gray
 70
    23
 71
     2
 72
     2
 73
     3
 90
        0
 40
0.6
 41
30.0
 62
     5
 63
     7
421
 16777215
 74
     2
 91
        2
 64
     7
 65
     7
 75
     1
175
     1
 42
40.0
 92
        8
 66
     7
 43
1.0
 76
     1
 77
     6
 78
     2
 67
     7
 79
     3
170
     0
171
     0
290
     0
174
     0
 93
        1
 44
0.0
173
     0
291
     0
 45
0.0
1001
ACAD
1000
AcDbSavedByObjectVersion
1070
     0
  0
VISUALSTYLE
  5
3F
102
{ACAD_REACTORS
330
2A
102
}
102
{ACAD_XDICTIONARY
360
3CC
102
}
330
2A
100
AcDbVisualStyle
  2
Sketchy
 70
    24
 71
     1
 72
     2
 73
     2
 90
        0
 40
0.6
 41
30.0
 62
     5
 63
     7
421
 16777215
 74
     2
 91
        2
 64
     7
 65
     7
 75
     1
175
     1
 42
40.0
 92
       11
 66
     7
 43
1.0
 76
     1
 77
     6
 78
     2
 67
     7
 79
     6
170
     0
171
     0
290
     0
174
     0
 93
        1
 44
0.0
173
     0
291
     0
 45
0.0
1001
ACAD
1000
AcDbSavedByObjectVersion
1070
     0
  0
VISUALSTYLE
  5
37
102
{ACAD_REACTORS
330
2A
102
}
102
{ACAD_XDICTIONARY
360
3BC
102
}
330
2A
100
AcDbVisualStyle
  2
Thicken
 70
    13
 71
     2
 72
     2
 73
     0
 90
        0
 40
0.6
 41
30.0
 62
     5
 63
     7
421
 16777215
 74
     1
 91
        4
 64
     7
 65
   257
 75
     1
175
     1
 42
1.0
 92
       12
 66
     7
 43
1.0
 76
     1
 77
     6
 78
     2
 67
     7
 79
     5
170
     0
171
     0
290
     0
174
     0
 93
        1
 44
0.0
173
     0
291
     1
 45
0.0
1001
ACAD
1000
AcDbSavedByObjectVersion
1070
     0
  0
VISUALSTYLE
  5
30
102
{ACAD_REACTORS
330
2A
102
}
102
{ACAD_XDICTIONARY
360
3AE
102
}
330
2A
100
AcDbVisualStyle
  2
Wireframe
 70
     5
 71
     0
 72
     2
 73
     0
 90
        0
 40
0.6
 41
30.0
 62
     5
 63
     7
421
 16777215
 74
     1
 91
        4
 64
     7
 65
   257
 75
     1
175
     1
 42
1.0
 92
        0
 66
   257
 43
1.0
 76
     1
 77
     6
 78
     2
 67
     7
 79
     3
170
     0
171
     0
290
     0
174
     0
 93
        1
 44
0.0
173
     0
291
     0
 45
0.0
1001
ACAD
1000
AcDbSavedByObjectVersion
1070
     0
  0
VISUALSTYLE
  5
40
102
{ACAD_REACTORS
330
2A
102
}
102
{ACAD_XDICTIONARY
360
3CE
102
}
330
2A
100
AcDbVisualStyle
  2
X-Ray
 70
    25
 71
     2
 72
     2
 73
     1
 90
        1
 40
0.5
 41
30.0
 62
     5
 63
     7
421
 16777215
 74
     1
 91
        0
 64
     7
 65
   257
 75
     1
175
     1
 42
1.0
 92
        8
 66
     7
 43
1.0
 76
     1
 77
     6
 78
     2
 67
     7
 79
     3
170
     0
171
     0
290
     0
174
     0
 93
       13
 44
0.0
173
     0
291
     0
 45
0.0
1001
ACAD
1000
AcDbSavedByObjectVersion
1070
     0
  0
DICTIONARYVAR
  5
3A1
102
{ACAD_REACTORS
330
3A0
102
}
330
3A0
100
DictionaryVariables
280
     0
  1
1:1
  0
DICTIONARYVAR
  5
3E5
102
{ACAD_REACTORS
330
3A0
102
}
330
3A0
100
DictionaryVariables
280
     0
  1
3.500000
  0
DICTIONARYVAR
  5
3E6
102
{ACAD_REACTORS
330
3A0
102
}
330
3A0
100
DictionaryVariables
280
     0
  1
acadiso.lin
  0
DICTIONARYVAR
  5
3E2
102
{ACAD_REACTORS
330
3A0
102
}
330
3A0
100
DictionaryVariables
280
     0
  1
Standard
  0
DICTIONARYVAR
  5
3E1
102
{ACAD_REACTORS
330
3A0
102
}
330
3A0
100
DictionaryVariables
280
     0
  1
Standard
  0
DICTIONARYVAR
  5
3A2
102
{ACAD_REACTORS
330
3A0
102
}
330
3A0
100
DictionaryVariables
280
     0
  1
1
  0
DICTIONARYVAR
  5
3A3
102
{ACAD_REACTORS
330
3A0
102
}
330
3A0
100
DictionaryVariables
280
     0
  1
2
  0
DICTIONARY
  5
3D6
330
45
100
AcDbDictionary
280
     1
281
     1
  3
ACAD_XREC_ROUNDTRIP
360
3D7
  0
DICTIONARY
  5
3D4
330
44
100
AcDbDictionary
280
     1
281
     1
  3
ACAD_XREC_ROUNDTRIP
360
3D5
  0
DICTIONARY
  5
3D8
330
46
100
AcDbDictionary
280
     1
281
     1
  3
ACAD_XREC_ROUNDTRIP
360
3D9
  0
DICTIONARY
  5
3DE
330
6C
100
AcDbDictionary
280
     1
281
     1
  3
ACAD_XREC_ROUNDTRIP
360
3DF
  0
DICTIONARY
  5
3DA
330
6A
100
AcDbDictionary
280
     1
281
     1
  3
ACAD_ROUNDTRIP_2008_TABLESTYLE_CELLSTYLEMAP
360
3DC
  3
ACAD_XREC_ROUNDTRIP
360
3DB
  0
DICTIONARY
  5
3AC
330
2F
100
AcDbDictionary
280
     1
281
     1
  3
ACAD_XREC_ROUNDTRIP
360
3AD
  0
DICTIONARY
  5
3B2
330
32
100
AcDbDictionary
280
     1
281
     1
  3
ACAD_XREC_ROUNDTRIP
360
3B3
  0
DICTIONARY
  5
3BA
330
36
100
AcDbDictionary
280
     1
281
     1
  3
ACAD_XREC_ROUNDTRIP
360
3BB
  0
DICTIONARY
  5
3C2
330
3A
100
AcDbDictionary
280
     1
281
     1
  3
ACAD_XREC_ROUNDTRIP
360
3C3
  0
DICTIONARY
  5
3B6
330
34
100
AcDbDictionary
280
     1
281
     1
  3
ACAD_XREC_ROUNDTRIP
360
3B7
  0
DICTIONARY
  5
3B8
330
35
100
AcDbDictionary
280
     1
281
     1
  3
ACAD_XREC_ROUNDTRIP
360
3B9
  0
DICTIONARY
  5
3C8
330
3D
100
AcDbDictionary
280
     1
281
     1
  3
ACAD_XREC_ROUNDTRIP
360
3C9
  0
DICTIONARY
  5
3C0
330
39
100
AcDbDictionary
280
     1
281
     1
  3
ACAD_XREC_ROUNDTRIP
360
3C1
  0
DICTIONARY
  5
3A4
330
2B
100
AcDbDictionary
280
     1
281
     1
  3
ACAD_XREC_ROUNDTRIP
360
3A5
  0
DICTIONARY
  5
3A6
330
2C
100
AcDbDictionary
280
     1
281
     1
  3
ACAD_XREC_ROUNDTRIP
360
3A7
  0
DICTIONARY
  5
3A8
330
2D
100
AcDbDictionary
280
     1
281
     1
  3
ACAD_XREC_ROUNDTRIP
360
3A9
  0
DICTIONARY
  5
3AA
330
2E
100
AcDbDictionary
280
     1
281
     1
  3
ACAD_XREC_ROUNDTRIP
360
3AB
  0
DICTIONARY
  5
3B0
330
31
100
AcDbDictionary
280
     1
281
     1
  3
ACAD_XREC_ROUNDTRIP
360
3B1
  0
DICTIONARY
  5
3C4
330
3B
100
AcDbDictionary
280
     1
281
     1
  3
ACAD_XREC_ROUNDTRIP
360
3C5
  0
DICTIONARY
  5
3BE
330
38
100
AcDbDictionary
280
     1
281
     1
  3
ACAD_XREC_ROUNDTRIP
360
3BF
  0
DICTIONARY
  5
3C6
330
3C
100
AcDbDictionary
280
     1
281
     1
  3
ACAD_XREC_ROUNDTRIP
360
3C7
  0
DICTIONARY
  5
3B4
330
33
100
AcDbDictionary
280
     1
281
     1
  3
ACAD_XREC_ROUNDTRIP
360
3B5
  0
DICTIONARY
  5
3D2
330
42
100
AcDbDictionary
280
     1
281
     1
  3
ACAD_XREC_ROUNDTRIP
360
3D3
  0
DICTIONARY
  5
3D0
330
41
100
AcDbDictionary
280
     1
281
     1
  3
ACAD_XREC_ROUNDTRIP
360
3D1
  0
DICTIONARY
  5
3CA
330
3E
100
AcDbDictionary
280
     1
281
     1
  3
ACAD_XREC_ROUNDTRIP
360
3CB
  0
DICTIONARY
  5
3CC
330
3F
100
AcDbDictionary
280
     1
281
     1
  3
ACAD_XREC_ROUNDTRIP
360
3CD
  0
DICTIONARY
  5
3BC
330
37
100
AcDbDictionary
280
     1
281
     1
  3
ACAD_XREC_ROUNDTRIP
360
3BD
  0
DICTIONARY
  5
3AE
330
30
100
AcDbDictionary
280
     1
281
     1
  3
ACAD_XREC_ROUNDTRIP
360
3AF
  0
DICTIONARY
  5
3CE
330
40
100
AcDbDictionary
280
     1
281
     1
  3
ACAD_XREC_ROUNDTRIP
360
3CF
  0
XRECORD
  5
3D7
102
{ACAD_REACTORS
330
3D6
102
}
330
3D6
100
AcDbXrecord
280
     1
102
MATERIAL
148
0.0
149
0.0
149
0.0
 93
        0
 94
      127
282
     0
 72
     1
 77
     1
171
     1
175
     1
179
     1
273
     0
  0
XRECORD
  5
3D5
102
{ACAD_REACTORS
330
3D4
102
}
330
3D4
100
AcDbXrecord
280
     1
102
MATERIAL
148
0.0
149
0.0
149
0.0
 93
        0
 94
      127
282
     0
 72
     1
 77
     1
171
     1
175
     1
179
     1
273
     0
  0
XRECORD
  5
3D9
102
{ACAD_REACTORS
330
3D8
102
}
330
3D8
100
AcDbXrecord
280
     1
102
MATERIAL
148
0.0
149
0.0
149
0.0
 93
        0
 94
      127
282
     0
 72
     1
 77
     1
171
     1
175
     1
179
     1
273
     0
  0
XRECORD
  5
3DF
102
{ACAD_REACTORS
330
3DE
102
}
330
3DE
100
AcDbXrecord
280
     1
102
ACAD_ROUNDTRIP_2010_MLEADER_STYLE
  0
CELLSTYLEMAP
  5
3DC
102
{ACAD_REACTORS
330
3DA
102
}
330
3DA
100
AcDbCellStyleMap
 90
        3
300
CELLSTYLE
  1
TABLEFORMAT_BEGIN
 90
        5
170
     1
 91
        0
 92
    32768
 62
   257
 93
        1
300
CONTENTFORMAT
  1
CONTENTFORMAT_BEGIN
 90
        0
 91
        0
 92
        4
 93
        0
300

 40
0.0
140
1.0
 94
        5
 62
     0
340
11
144
6.0
309
CONTENTFORMAT_END
171
     1
301
MARGIN
  1
CELLMARGIN_BEGIN
 40
1.5
 40
1.5
 40
1.5
 40
1.5
 40
1.5
 40
1.5
309
CELLMARGIN_END
 94
        6
 95
        1
302
GRIDFORMAT
  1
GRIDFORMAT_BEGIN
 90
        0
 91
        1
 62
     0
 92
       -2
340
14
 93
        0
 40
0.045
309
GRIDFORMAT_END
 95
        2
302
GRIDFORMAT
  1
GRIDFORMAT_BEGIN
 90
        0
 91
        1
 62
     0
 92
       -2
340
14
 93
        0
 40
0.045
309
GRIDFORMAT_END
 95
        4
302
GRIDFORMAT
  1
GRIDFORMAT_BEGIN
 90
        0
 91
        1
 62
     0
 92
       -2
340
14
 93
        0
 40
0.045
309
GRIDFORMAT_END
 95
        8
302
GRIDFORMAT
  1
GRIDFORMAT_BEGIN
 90
        0
 91
        1
 62
     0
 92
       -2
340
14
 93
        0
 40
0.045
309
GRIDFORMAT_END
 95
       16
302
GRIDFORMAT
  1
GRIDFORMAT_BEGIN
 90
        0
 91
        1
 62
     0
 92
       -2
340
14
 93
        0
 40
0.045
309
GRIDFORMAT_END
 95
       32
302
GRIDFORMAT
  1
GRIDFORMAT_BEGIN
 90
        0
 91
        1
 62
     0
 92
       -2
340
14
 93
        0
 40
0.045
309
GRIDFORMAT_END
309
TABLEFORMAT_END
  1
CELLSTYLE_BEGIN
 90
        1
 91
        1
300
_TITLE
309
CELLSTYLE_END
300
CELLSTYLE
  1
TABLEFORMAT_BEGIN
 90
        5
170
     1
 91
        0
 92
        0
 62
   257
 93
        1
300
CONTENTFORMAT
  1
CONTENTFORMAT_BEGIN
 90
        0
 91
        0
 92
        4
 93
        0
300

 40
0.0
140
1.0
 94
        5
 62
     0
340
11
144
4.5
309
CONTENTFORMAT_END
171
     1
301
MARGIN
  1
CELLMARGIN_BEGIN
 40
1.5
 40
1.5
 40
1.5
 40
1.5
 40
1.5
 40
1.5
309
CELLMARGIN_END
 94
        6
 95
        1
302
GRIDFORMAT
  1
GRIDFORMAT_BEGIN
 90
        0
 91
        1
 62
     0
 92
       -2
340
14
 93
        0
 40
0.045
309
GRIDFORMAT_END
 95
        2
302
GRIDFORMAT
  1
GRIDFORMAT_BEGIN
 90
        0
 91
        1
 62
     0
 92
       -2
340
14
 93
        0
 40
0.045
309
GRIDFORMAT_END
 95
        4
302
GRIDFORMAT
  1
GRIDFORMAT_BEGIN
 90
        0
 91
        1
 62
     0
 92
       -2
340
14
 93
        0
 40
0.045
309
GRIDFORMAT_END
 95
        8
302
GRIDFORMAT
  1
GRIDFORMAT_BEGIN
 90
        0
 91
        1
 62
     0
 92
       -2
340
14
 93
        0
 40
0.045
309
GRIDFORMAT_END
 95
       16
302
GRIDFORMAT
  1
GRIDFORMAT_BEGIN
 90
        0
 91
        1
 62
     0
 92
       -2
340
14
 93
        0
 40
0.045
309
GRIDFORMAT_END
 95
       32
302
GRIDFORMAT
  1
GRIDFORMAT_BEGIN
 90
        0
 91
        1
 62
     0
 92
       -2
340
14
 93
        0
 40
0.045
309
GRIDFORMAT_END
309
TABLEFORMAT_END
  1
CELLSTYLE_BEGIN
 90
        2
 91
        1
300
_HEADER
309
CELLSTYLE_END
300
CELLSTYLE
  1
TABLEFORMAT_BEGIN
 90
        5
170
     1
 91
        0
 92
        0
 62
   257
 93
        1
300
CONTENTFORMAT
  1
CONTENTFORMAT_BEGIN
 90
        0
 91
        0
 92
        4
 93
        0
300

 40
0.0
140
1.0
 94
        2
 62
     0
340
11
144
4.5
309
CONTENTFORMAT_END
171
     1
301
MARGIN
  1
CELLMARGIN_BEGIN
 40
1.5
 40
1.5
 40
1.5
 40
1.5
 40
1.5
 40
1.5
309
CELLMARGIN_END
 94
        6
 95
        1
302
GRIDFORMAT
  1
GRIDFORMAT_BEGIN
 90
        0
 91
        1
 62
     0
 92
       -2
340
14
 93
        0
 40
0.045
309
GRIDFORMAT_END
 95
        2
302
GRIDFORMAT
  1
GRIDFORMAT_BEGIN
 90
        0
 91
        1
 62
     0
 92
       -2
340
14
 93
        0
 40
0.045
309
GRIDFORMAT_END
 95
        4
302
GRIDFORMAT
  1
GRIDFORMAT_BEGIN
 90
        0
 91
        1
 62
     0
 92
       -2
340
14
 93
        0
 40
0.045
309
GRIDFORMAT_END
 95
        8
302
GRIDFORMAT
  1
GRIDFORMAT_BEGIN
 90
        0
 91
        1
 62
     0
 92
       -2
340
14
 93
        0
 40
0.045
309
GRIDFORMAT_END
 95
       16
302
GRIDFORMAT
  1
GRIDFORMAT_BEGIN
 90
        0
 91
        1
 62
     0
 92
       -2
340
14
 93
        0
 40
0.045
309
GRIDFORMAT_END
 95
       32
302
GRIDFORMAT
  1
GRIDFORMAT_BEGIN
 90
        0
 91
        1
 62
     0
 92
       -2
340
14
 93
        0
 40
0.045
309
GRIDFORMAT_END
309
TABLEFORMAT_END
  1
CELLSTYLE_BEGIN
 90
        3
 91
        2
300
_DATA
309
CELLSTYLE_END
  0
XRECORD
  5
3DB
102
{ACAD_REACTORS
330
3DA
102
}
330
3DA
100
AcDbXrecord
280
     1
102
ACAD_ROUNDTRIP_PRE2007_TABLESTYLE
 90
        4
 91
        0
  1

 92
        4
 93
        0
  2

 94
        4
 95
        0
  3

  0
XRECORD
  5
3AD
102
{ACAD_REACTORS
330
3AC
102
}
330
3AC
100
AcDbXrecord
280
     1
102
RTVSPropertyOp0
 70
     1
102
RTVSPropertyOp1
 70
     1
102
RTVSPropertyOp2
 70
     1
102
RTVSPropertyOp3
 70
     1
102
RTVSPropertyOp4
 70
     1
102
RTVSPropertyOp5
 70
     1
102
RTVSPropertyOp6
 70
     1
102
RTVSPropertyOp7
 70
     1
102
RTVSPropertyOp8
 70
     1
102
RTVSPropertyOp9
 70
     1
102
RTVSPropertyOp10
 70
     1
102
RTVSPropertyOp11
 70
     1
102
RTVSPropertyOp12
 70
     1
102
RTVSPropertyOp13
 70
     1
102
RTVSPropertyOp14
 70
     1
102
RTVSPropertyOp15
 70
     1
102
RTVSPropertyOp16
 70
     1
102
RTVSPropertyOp17
 70
     1
102
RTVSPropertyOp18
 70
     1
102
RTVSPropertyOp19
 70
     1
102
RTVSPropertyOp20
 70
     1
102
RTVSPropertyOp21
 70
     1
102
RTVSPropertyOp22
 70
     1
102
RTVSPropertyOp23
 70
     1
102
RTVSPropertyOp24
 70
     1
102
RTVSPropertyOp25
 70
     1
102
RTVSPropertyOp26
 70
     1
102
RTVSPropertyOp27
 70
     1
102
RTVSPropertyOp28
 70
     1
102
RTVSPropertyOp29
 70
     1
102
RTVSPropertyOp30
 70
     1
102
RTVSPropertyOp31
 70
     1
102
RTVSPropertyOp32
 70
     1
102
RTVSPropertyOp33
 70
     1
102
RTVSPropertyOp34
 70
     1
102
RTVSPropertyOp35
 70
     1
102
RTVSPropertyOp36
 70
     1
102
RTVSPropertyOp37
 70
     1
102
RTVSPropertyOp38
 70
     1
102
RTVSPropertyOp39
 70
     1
102
RTVSPropertyOp40
 70
     1
102
RTVSPropertyOp41
 70
     1
102
RTVSPropertyOp42
 70
     1
102
RTVSPropertyOp43
 70
     1
102
RTVSPropertyOp44
 70
     1
102
RTVSPropertyOp45
 70
     1
102
RTVSPropertyOp46
 70
     1
102
RTVSPropertyOp47
 70
     1
102
RTVSPropertyOp48
 70
     1
102
RTVSPropertyOp49
 70
     1
102
RTVSPropertyOp50
 70
     1
102
RTVSPropertyOp51
 70
     0
102
RTVSPropertyOp52
 70
     0
102
RTVSPropertyOp53
 70
     1
102
RTVSPropertyOp54
 70
     1
102
RTVSPropertyOp55
 70
     1
102
RTVSPropertyOp56
 70
     1
102
RTVSPropertyOp57
 70
     1
102
RTVSPost2010Prop28
280
     1
102
RTVSPost2010PropOp28
 70
     1
102
RTVSPost2010Prop29
280
     1
102
RTVSPost2010PropOp29
 70
     1
102
RTVSPost2010Prop30
280
     0
102
RTVSPost2010PropOp30
 70
     1
102
RTVSPost2010Prop31
280
     0
102
RTVSPost2010PropOp31
 70
     1
102
RTVSPost2010Prop32
280
     0
102
RTVSPost2010PropOp32
 70
     1
102
RTVSPost2010Prop33
280
     0
102
RTVSPost2010PropOp33
 70
     1
102
RTVSPost2010Prop34
280
     0
102
RTVSPost2010PropOp34
 70
     1
102
RTVSPost2010Prop35
280
     0
102
RTVSPost2010PropOp35
 70
     1
102
RTVSPost2010Prop36
280
     0
102
RTVSPost2010PropOp36
 70
     1
102
RTVSPost2010Prop37
 90
       50
102
RTVSPost2010PropOp37
 70
     1
102
RTVSPost2010Prop38
140
0.0
102
RTVSPost2010PropOp38
 70
     1
102
RTVSPost2010Prop39
140
1.0
102
RTVSPost2010PropOp39
 70
     1
102
RTVSPost2010Prop40
 90
        0
102
RTVSPost2010PropOp40
 70
     1
102
RTVSPost2010Prop41ColorIndex
 90
       18
102
RTVSPost2010Prop41ColorRGB
 90
        0
102
RTVSPost2010PropOp41
 70
     1
102
RTVSPost2010Prop42
 90
       50
102
RTVSPost2010PropOp42
 70
     1
102
RTVSPost2010Prop43
 90
        3
102
RTVSPost2010PropOp43
 70
     1
102
RTVSPost2010Prop44ColorIndex
 90
        5
102
RTVSPost2010Prop44ColorRGB
 90
      255
102
RTVSPost2010PropOp44
 70
     1
102
RTVSPost2010Prop45
280
     0
102
RTVSPost2010PropOp45
 70
     1
102
RTVSPost2010Prop46
 90
       50
102
RTVSPost2010PropOp46
 70
     1
102
RTVSPost2010Prop47
 90
       50
102
RTVSPost2010PropOp47
 70
     1
102
RTVSPost2010Prop48
 90
       50
102
RTVSPost2010PropOp48
 70
     1
102
RTVSPost2010Prop49
280
     0
102
RTVSPost2010PropOp49
 70
     1
102
RTVSPost2010Prop50
 90
       50
102
RTVSPost2010PropOp50
 70
     1
102
RTVSPost2010Prop51ColorIndex
 90
      256
102
RTVSPost2010Prop51ColorRGB
 90
-16777216
102
RTVSPost2010PropOp51
 70
     0
102
RTVSPost2010Prop52
140
1.0
102
RTVSPost2010PropOp52
 70
     0
102
RTVSPost2010Prop53
 90
        2
102
RTVSPost2010PropOp53
 70
     1
102
RTVSPost2010Prop54
  1
strokes_ogs.tif
102
RTVSPost2010PropOp54
 70
     1
102
RTVSPost2010Prop55
280
     0
102
RTVSPost2010PropOp55
 70
     1
102
RTVSPost2010Prop56
140
1.0
102
RTVSPost2010PropOp56
 70
     1
102
RTVSPost2010Prop57
140
1.0
102
RTVSPost2010PropOp57
 70
     1
  0
XRECORD
  5
3B3
102
{ACAD_REACTORS
330
3B2
102
}
330
3B2
100
AcDbXrecord
280
     1
102
RTVSPropertyOp0
 70
     1
102
RTVSPropertyOp1
 70
     1
102
RTVSPropertyOp2
 70
     1
102
RTVSPropertyOp3
 70
     1
102
RTVSPropertyOp4
 70
     1
102
RTVSPropertyOp5
 70
     1
102
RTVSPropertyOp6
 70
     1
102
RTVSPropertyOp7
 70
     1
102
RTVSPropertyOp8
 70
     1
102
RTVSPropertyOp9
 70
     1
102
RTVSPropertyOp10
 70
     1
102
RTVSPropertyOp11
 70
     1
102
RTVSPropertyOp12
 70
     1
102
RTVSPropertyOp13
 70
     1
102
RTVSPropertyOp14
 70
     1
102
RTVSPropertyOp15
 70
     1
102
RTVSPropertyOp16
 70
     1
102
RTVSPropertyOp17
 70
     1
102
RTVSPropertyOp18
 70
     1
102
RTVSPropertyOp19
 70
     1
102
RTVSPropertyOp20
 70
     1
102
RTVSPropertyOp21
 70
     1
102
RTVSPropertyOp22
 70
     1
102
RTVSPropertyOp23
 70
     1
102
RTVSPropertyOp24
 70
     1
102
RTVSPropertyOp25
 70
     1
102
RTVSPropertyOp26
 70
     1
102
RTVSPropertyOp27
 70
     1
102
RTVSPropertyOp28
 70
     1
102
RTVSPropertyOp29
 70
     1
102
RTVSPropertyOp30
 70
     1
102
RTVSPropertyOp31
 70
     1
102
RTVSPropertyOp32
 70
     1
102
RTVSPropertyOp33
 70
     1
102
RTVSPropertyOp34
 70
     1
102
RTVSPropertyOp35
 70
     1
102
RTVSPropertyOp36
 70
     1
102
RTVSPropertyOp37
 70
     1
102
RTVSPropertyOp38
 70
     1
102
RTVSPropertyOp39
 70
     1
102
RTVSPropertyOp40
 70
     1
102
RTVSPropertyOp41
 70
     1
102
RTVSPropertyOp42
 70
     1
102
RTVSPropertyOp43
 70
     1
102
RTVSPropertyOp44
 70
     1
102
RTVSPropertyOp45
 70
     1
102
RTVSPropertyOp46
 70
     1
102
RTVSPropertyOp47
 70
     1
102
RTVSPropertyOp48
 70
     1
102
RTVSPropertyOp49
 70
     1
102
RTVSPropertyOp50
 70
     1
102
RTVSPropertyOp51
 70
     0
102
RTVSPropertyOp52
 70
     0
102
RTVSPropertyOp53
 70
     1
102
RTVSPropertyOp54
 70
     1
102
RTVSPropertyOp55
 70
     1
102
RTVSPropertyOp56
 70
     1
102
RTVSPropertyOp57
 70
     1
102
RTVSPost2010Prop28
280
     0
102
RTVSPost2010PropOp28
 70
     1
102
RTVSPost2010Prop29
280
     1
102
RTVSPost2010PropOp29
 70
     1
102
RTVSPost2010Prop30
280
     1
102
RTVSPost2010PropOp30
 70
     1
102
RTVSPost2010Prop31
280
     0
102
RTVSPost2010PropOp31
 70
     1
102
RTVSPost2010Prop32
280
     0
102
RTVSPost2010PropOp32
 70
     1
102
RTVSPost2010Prop33
280
     0
102
RTVSPost2010PropOp33
 70
     1
102
RTVSPost2010Prop34
280
     0
102
RTVSPost2010PropOp34
 70
     1
102
RTVSPost2010Prop35
280
     0
102
RTVSPost2010PropOp35
 70
     1
102
RTVSPost2010Prop36
280
     0
102
RTVSPost2010PropOp36
 70
     1
102
RTVSPost2010Prop37
 90
       50
102
RTVSPost2010PropOp37
 70
     1
102
RTVSPost2010Prop38
140
0.0
102
RTVSPost2010PropOp38
 70
     1
102
RTVSPost2010Prop39
140
1.0
102
RTVSPost2010PropOp39
 70
     1
102
RTVSPost2010Prop40
 90
        0
102
RTVSPost2010PropOp40
 70
     1
102
RTVSPost2010Prop41ColorIndex
 90
       18
102
RTVSPost2010Prop41ColorRGB
 90
        0
102
RTVSPost2010PropOp41
 70
     1
102
RTVSPost2010Prop42
 90
       50
102
RTVSPost2010PropOp42
 70
     1
102
RTVSPost2010Prop43
 90
        3
102
RTVSPost2010PropOp43
 70
     1
102
RTVSPost2010Prop44ColorIndex
 90
        5
102
RTVSPost2010Prop44ColorRGB
 90
      255
102
RTVSPost2010PropOp44
 70
     1
102
RTVSPost2010Prop45
280
     0
102
RTVSPost2010PropOp45
 70
     1
102
RTVSPost2010Prop46
 90
       50
102
RTVSPost2010PropOp46
 70
     1
102
RTVSPost2010Prop47
 90
       50
102
RTVSPost2010PropOp47
 70
     1
102
RTVSPost2010Prop48
 90
       50
102
RTVSPost2010PropOp48
 70
     1
102
RTVSPost2010Prop49
280
     0
102
RTVSPost2010PropOp49
 70
     1
102
RTVSPost2010Prop50
 90
       50
102
RTVSPost2010PropOp50
 70
     1
102
RTVSPost2010Prop51ColorIndex
 90
      256
102
RTVSPost2010Prop51ColorRGB
 90
-16777216
102
RTVSPost2010PropOp51
 70
     0
102
RTVSPost2010Prop52
140
1.0
102
RTVSPost2010PropOp52
 70
     0
102
RTVSPost2010Prop53
 90
        2
102
RTVSPost2010PropOp53
 70
     1
102
RTVSPost2010Prop54
  1
strokes_ogs.tif
102
RTVSPost2010PropOp54
 70
     1
102
RTVSPost2010Prop55
280
     0
102
RTVSPost2010PropOp55
 70
     1
102
RTVSPost2010Prop56
140
1.0
102
RTVSPost2010PropOp56
 70
     1
102
RTVSPost2010Prop57
140
1.0
102
RTVSPost2010PropOp57
 70
     1
  0
XRECORD
  5
3BB
102
{ACAD_REACTORS
330
3BA
102
}
330
3BA
100
AcDbXrecord
280
     1
102
RTVSPropertyOp0
 70
     1
102
RTVSPropertyOp1
 70
     1
102
RTVSPropertyOp2
 70
     1
102
RTVSPropertyOp3
 70
     1
102
RTVSPropertyOp4
 70
     1
102
RTVSPropertyOp5
 70
     1
102
RTVSPropertyOp6
 70
     1
102
RTVSPropertyOp7
 70
     1
102
RTVSPropertyOp8
 70
     1
102
RTVSPropertyOp9
 70
     1
102
RTVSPropertyOp10
 70
     1
102
RTVSPropertyOp11
 70
     1
102
RTVSPropertyOp12
 70
     1
102
RTVSPropertyOp13
 70
     1
102
RTVSPropertyOp14
 70
     1
102
RTVSPropertyOp15
 70
     1
102
RTVSPropertyOp16
 70
     1
102
RTVSPropertyOp17
 70
     1
102
RTVSPropertyOp18
 70
     1
102
RTVSPropertyOp19
 70
     1
102
RTVSPropertyOp20
 70
     1
102
RTVSPropertyOp21
 70
     1
102
RTVSPropertyOp22
 70
     1
102
RTVSPropertyOp23
 70
     1
102
RTVSPropertyOp24
 70
     1
102
RTVSPropertyOp25
 70
     1
102
RTVSPropertyOp26
 70
     1
102
RTVSPropertyOp27
 70
     1
102
RTVSPropertyOp28
 70
     1
102
RTVSPropertyOp29
 70
     1
102
RTVSPropertyOp30
 70
     1
102
RTVSPropertyOp31
 70
     1
102
RTVSPropertyOp32
 70
     1
102
RTVSPropertyOp33
 70
     1
102
RTVSPropertyOp34
 70
     1
102
RTVSPropertyOp35
 70
     1
102
RTVSPropertyOp36
 70
     1
102
RTVSPropertyOp37
 70
     1
102
RTVSPropertyOp38
 70
     1
102
RTVSPropertyOp39
 70
     1
102
RTVSPropertyOp40
 70
     1
102
RTVSPropertyOp41
 70
     1
102
RTVSPropertyOp42
 70
     1
102
RTVSPropertyOp43
 70
     1
102
RTVSPropertyOp44
 70
     1
102
RTVSPropertyOp45
 70
     1
102
RTVSPropertyOp46
 70
     1
102
RTVSPropertyOp47
 70
     1
102
RTVSPropertyOp48
 70
     1
102
RTVSPropertyOp49
 70
     1
102
RTVSPropertyOp50
 70
     1
102
RTVSPropertyOp51
 70
     0
102
RTVSPropertyOp52
 70
     0
102
RTVSPropertyOp53
 70
     1
102
RTVSPropertyOp54
 70
     1
102
RTVSPropertyOp55
 70
     1
102
RTVSPropertyOp56
 70
     1
102
RTVSPropertyOp57
 70
     1
102
RTVSPost2010Prop28
280
     0
102
RTVSPost2010PropOp28
 70
     1
102
RTVSPost2010Prop29
280
     1
102
RTVSPost2010PropOp29
 70
     1
102
RTVSPost2010Prop30
280
     1
102
RTVSPost2010PropOp30
 70
     1
102
RTVSPost2010Prop31
280
     0
102
RTVSPost2010PropOp31
 70
     1
102
RTVSPost2010Prop32
280
     0
102
RTVSPost2010PropOp32
 70
     1
102
RTVSPost2010Prop33
280
     0
102
RTVSPost2010PropOp33
 70
     1
102
RTVSPost2010Prop34
280
     0
102
RTVSPost2010PropOp34
 70
     1
102
RTVSPost2010Prop35
280
     0
102
RTVSPost2010PropOp35
 70
     1
102
RTVSPost2010Prop36
280
     0
102
RTVSPost2010PropOp36
 70
     1
102
RTVSPost2010Prop37
 90
       50
102
RTVSPost2010PropOp37
 70
     1
102
RTVSPost2010Prop38
140
0.0
102
RTVSPost2010PropOp38
 70
     1
102
RTVSPost2010Prop39
140
1.0
102
RTVSPost2010PropOp39
 70
     1
102
RTVSPost2010Prop40
 90
        0
102
RTVSPost2010PropOp40
 70
     1
102
RTVSPost2010Prop41ColorIndex
 90
       18
102
RTVSPost2010Prop41ColorRGB
 90
        0
102
RTVSPost2010PropOp41
 70
     1
102
RTVSPost2010Prop42
 90
       50
102
RTVSPost2010PropOp42
 70
     1
102
RTVSPost2010Prop43
 90
        3
102
RTVSPost2010PropOp43
 70
     1
102
RTVSPost2010Prop44ColorIndex
 90
        5
102
RTVSPost2010Prop44ColorRGB
 90
      255
102
RTVSPost2010PropOp44
 70
     1
102
RTVSPost2010Prop45
280
     0
102
RTVSPost2010PropOp45
 70
     1
102
RTVSPost2010Prop46
 90
       50
102
RTVSPost2010PropOp46
 70
     1
102
RTVSPost2010Prop47
 90
       50
102
RTVSPost2010PropOp47
 70
     1
102
RTVSPost2010Prop48
 90
       50
102
RTVSPost2010PropOp48
 70
     1
102
RTVSPost2010Prop49
280
     0
102
RTVSPost2010PropOp49
 70
     1
102
RTVSPost2010Prop50
 90
       50
102
RTVSPost2010PropOp50
 70
     1
102
RTVSPost2010Prop51ColorIndex
 90
      256
102
RTVSPost2010Prop51ColorRGB
 90
-16777216
102
RTVSPost2010PropOp51
 70
     0
102
RTVSPost2010Prop52
140
1.0
102
RTVSPost2010PropOp52
 70
     0
102
RTVSPost2010Prop53
 90
        2
102
RTVSPost2010PropOp53
 70
     1
102
RTVSPost2010Prop54
  1
strokes_ogs.tif
102
RTVSPost2010PropOp54
 70
     1
102
RTVSPost2010Prop55
280
     0
102
RTVSPost2010PropOp55
 70
     1
102
RTVSPost2010Prop56
140
1.0
102
RTVSPost2010PropOp56
 70
     1
102
RTVSPost2010Prop57
140
1.0
102
RTVSPost2010PropOp57
 70
     1
  0
XRECORD
  5
3C3
102
{ACAD_REACTORS
330
3C2
102
}
330
3C2
100
AcDbXrecord
280
     1
102
RTVSPropertyOp0
 70
     1
102
RTVSPropertyOp1
 70
     1
102
RTVSPropertyOp2
 70
     1
102
RTVSPropertyOp3
 70
     1
102
RTVSPropertyOp4
 70
     1
102
RTVSPropertyOp5
 70
     1
102
RTVSPropertyOp6
 70
     1
102
RTVSPropertyOp7
 70
     1
102
RTVSPropertyOp8
 70
     1
102
RTVSPropertyOp9
 70
     1
102
RTVSPropertyOp10
 70
     1
102
RTVSPropertyOp11
 70
     1
102
RTVSPropertyOp12
 70
     1
102
RTVSPropertyOp13
 70
     1
102
RTVSPropertyOp14
 70
     1
102
RTVSPropertyOp15
 70
     1
102
RTVSPropertyOp16
 70
     1
102
RTVSPropertyOp17
 70
     1
102
RTVSPropertyOp18
 70
     1
102
RTVSPropertyOp19
 70
     1
102
RTVSPropertyOp20
 70
     1
102
RTVSPropertyOp21
 70
     1
102
RTVSPropertyOp22
 70
     1
102
RTVSPropertyOp23
 70
     1
102
RTVSPropertyOp24
 70
     1
102
RTVSPropertyOp25
 70
     1
102
RTVSPropertyOp26
 70
     1
102
RTVSPropertyOp27
 70
     1
102
RTVSPropertyOp28
 70
     1
102
RTVSPropertyOp29
 70
     1
102
RTVSPropertyOp30
 70
     1
102
RTVSPropertyOp31
 70
     1
102
RTVSPropertyOp32
 70
     1
102
RTVSPropertyOp33
 70
     1
102
RTVSPropertyOp34
 70
     1
102
RTVSPropertyOp35
 70
     1
102
RTVSPropertyOp36
 70
     1
102
RTVSPropertyOp37
 70
     1
102
RTVSPropertyOp38
 70
     1
102
RTVSPropertyOp39
 70
     1
102
RTVSPropertyOp40
 70
     1
102
RTVSPropertyOp41
 70
     1
102
RTVSPropertyOp42
 70
     1
102
RTVSPropertyOp43
 70
     1
102
RTVSPropertyOp44
 70
     1
102
RTVSPropertyOp45
 70
     1
102
RTVSPropertyOp46
 70
     1
102
RTVSPropertyOp47
 70
     1
102
RTVSPropertyOp48
 70
     1
102
RTVSPropertyOp49
 70
     1
102
RTVSPropertyOp50
 70
     1
102
RTVSPropertyOp51
 70
     0
102
RTVSPropertyOp52
 70
     0
102
RTVSPropertyOp53
 70
     1
102
RTVSPropertyOp54
 70
     1
102
RTVSPropertyOp55
 70
     1
102
RTVSPropertyOp56
 70
     1
102
RTVSPropertyOp57
 70
     1
102
RTVSPost2010Prop28
280
     0
102
RTVSPost2010PropOp28
 70
     1
102
RTVSPost2010Prop29
280
     1
102
RTVSPost2010PropOp29
 70
     1
102
RTVSPost2010Prop30
280
     1
102
RTVSPost2010PropOp30
 70
     1
102
RTVSPost2010Prop31
280
     0
102
RTVSPost2010PropOp31
 70
     1
102
RTVSPost2010Prop32
280
     0
102
RTVSPost2010PropOp32
 70
     1
102
RTVSPost2010Prop33
280
     0
102
RTVSPost2010PropOp33
 70
     1
102
RTVSPost2010Prop34
280
     0
102
RTVSPost2010PropOp34
 70
     1
102
RTVSPost2010Prop35
280
     0
102
RTVSPost2010PropOp35
 70
     1
102
RTVSPost2010Prop36
280
     0
102
RTVSPost2010PropOp36
 70
     1
102
RTVSPost2010Prop37
 90
       50
102
RTVSPost2010PropOp37
 70
     1
102
RTVSPost2010Prop38
140
0.0
102
RTVSPost2010PropOp38
 70
     1
102
RTVSPost2010Prop39
140
1.0
102
RTVSPost2010PropOp39
 70
     1
102
RTVSPost2010Prop40
 90
        0
102
RTVSPost2010PropOp40
 70
     1
102
RTVSPost2010Prop41ColorIndex
 90
       18
102
RTVSPost2010Prop41ColorRGB
 90
        0
102
RTVSPost2010PropOp41
 70
     1
102
RTVSPost2010Prop42
 90
       50
102
RTVSPost2010PropOp42
 70
     1
102
RTVSPost2010Prop43
 90
        3
102
RTVSPost2010PropOp43
 70
     1
102
RTVSPost2010Prop44ColorIndex
 90
        5
102
RTVSPost2010Prop44ColorRGB
 90
      255
102
RTVSPost2010PropOp44
 70
     1
102
RTVSPost2010Prop45
280
     0
102
RTVSPost2010PropOp45
 70
     1
102
RTVSPost2010Prop46
 90
       50
102
RTVSPost2010PropOp46
 70
     1
102
RTVSPost2010Prop47
 90
       50
102
RTVSPost2010PropOp47
 70
     1
102
RTVSPost2010Prop48
 90
       50
102
RTVSPost2010PropOp48
 70
     1
102
RTVSPost2010Prop49
280
     0
102
RTVSPost2010PropOp49
 70
     1
102
RTVSPost2010Prop50
 90
       50
102
RTVSPost2010PropOp50
 70
     1
102
RTVSPost2010Prop51ColorIndex
 90
      256
102
RTVSPost2010Prop51ColorRGB
 90
-16777216
102
RTVSPost2010PropOp51
 70
     0
102
RTVSPost2010Prop52
140
1.0
102
RTVSPost2010PropOp52
 70
     0
102
RTVSPost2010Prop53
 90
        2
102
RTVSPost2010PropOp53
 70
     1
102
RTVSPost2010Prop54
  1
strokes_ogs.tif
102
RTVSPost2010PropOp54
 70
     1
102
RTVSPost2010Prop55
280
     0
102
RTVSPost2010PropOp55
 70
     1
102
RTVSPost2010Prop56
140
1.0
102
RTVSPost2010PropOp56
 70
     1
102
RTVSPost2010Prop57
140
1.0
102
RTVSPost2010PropOp57
 70
     1
  0
XRECORD
  5
3B7
102
{ACAD_REACTORS
330
3B6
102
}
330
3B6
100
AcDbXrecord
280
     1
102
RTVSPropertyOp0
 70
     1
102
RTVSPropertyOp1
 70
     1
102
RTVSPropertyOp2
 70
     1
102
RTVSPropertyOp3
 70
     1
102
RTVSPropertyOp4
 70
     1
102
RTVSPropertyOp5
 70
     1
102
RTVSPropertyOp6
 70
     1
102
RTVSPropertyOp7
 70
     1
102
RTVSPropertyOp8
 70
     1
102
RTVSPropertyOp9
 70
     1
102
RTVSPropertyOp10
 70
     1
102
RTVSPropertyOp11
 70
     1
102
RTVSPropertyOp12
 70
     1
102
RTVSPropertyOp13
 70
     1
102
RTVSPropertyOp14
 70
     1
102
RTVSPropertyOp15
 70
     1
102
RTVSPropertyOp16
 70
     1
102
RTVSPropertyOp17
 70
     1
102
RTVSPropertyOp18
 70
     1
102
RTVSPropertyOp19
 70
     1
102
RTVSPropertyOp20
 70
     1
102
RTVSPropertyOp21
 70
     1
102
RTVSPropertyOp22
 70
     1
102
RTVSPropertyOp23
 70
     1
102
RTVSPropertyOp24
 70
     1
102
RTVSPropertyOp25
 70
     1
102
RTVSPropertyOp26
 70
     1
102
RTVSPropertyOp27
 70
     1
102
RTVSPropertyOp28
 70
     1
102
RTVSPropertyOp29
 70
     1
102
RTVSPropertyOp30
 70
     1
102
RTVSPropertyOp31
 70
     1
102
RTVSPropertyOp32
 70
     1
102
RTVSPropertyOp33
 70
     1
102
RTVSPropertyOp34
 70
     1
102
RTVSPropertyOp35
 70
     1
102
RTVSPropertyOp36
 70
     1
102
RTVSPropertyOp37
 70
     1
102
RTVSPropertyOp38
 70
     1
102
RTVSPropertyOp39
 70
     1
102
RTVSPropertyOp40
 70
     1
102
RTVSPropertyOp41
 70
     1
102
RTVSPropertyOp42
 70
     1
102
RTVSPropertyOp43
 70
     1
102
RTVSPropertyOp44
 70
     1
102
RTVSPropertyOp45
 70
     1
102
RTVSPropertyOp46
 70
     1
102
RTVSPropertyOp47
 70
     1
102
RTVSPropertyOp48
 70
     1
102
RTVSPropertyOp49
 70
     1
102
RTVSPropertyOp50
 70
     1
102
RTVSPropertyOp51
 70
     0
102
RTVSPropertyOp52
 70
     0
102
RTVSPropertyOp53
 70
     1
102
RTVSPropertyOp54
 70
     1
102
RTVSPropertyOp55
 70
     1
102
RTVSPropertyOp56
 70
     1
102
RTVSPropertyOp57
 70
     1
102
RTVSPost2010Prop28
280
     0
102
RTVSPost2010PropOp28
 70
     1
102
RTVSPost2010Prop29
280
     1
102
RTVSPost2010PropOp29
 70
     1
102
RTVSPost2010Prop30
280
     1
102
RTVSPost2010PropOp30
 70
     1
102
RTVSPost2010Prop31
280
     0
102
RTVSPost2010PropOp31
 70
     1
102
RTVSPost2010Prop32
280
     0
102
RTVSPost2010PropOp32
 70
     1
102
RTVSPost2010Prop33
280
     0
102
RTVSPost2010PropOp33
 70
     1
102
RTVSPost2010Prop34
280
     0
102
RTVSPost2010PropOp34
 70
     1
102
RTVSPost2010Prop35
280
     0
102
RTVSPost2010PropOp35
 70
     1
102
RTVSPost2010Prop36
280
     0
102
RTVSPost2010PropOp36
 70
     1
102
RTVSPost2010Prop37
 90
       50
102
RTVSPost2010PropOp37
 70
     1
102
RTVSPost2010Prop38
140
0.0
102
RTVSPost2010PropOp38
 70
     1
102
RTVSPost2010Prop39
140
1.0
102
RTVSPost2010PropOp39
 70
     1
102
RTVSPost2010Prop40
 90
        0
102
RTVSPost2010PropOp40
 70
     1
102
RTVSPost2010Prop41ColorIndex
 90
       18
102
RTVSPost2010Prop41ColorRGB
 90
        0
102
RTVSPost2010PropOp41
 70
     1
102
RTVSPost2010Prop42
 90
       50
102
RTVSPost2010PropOp42
 70
     1
102
RTVSPost2010Prop43
 90
        3
102
RTVSPost2010PropOp43
 70
     1
102
RTVSPost2010Prop44ColorIndex
 90
        5
102
RTVSPost2010Prop44ColorRGB
 90
      255
102
RTVSPost2010PropOp44
 70
     1
102
RTVSPost2010Prop45
280
     0
102
RTVSPost2010PropOp45
 70
     1
102
RTVSPost2010Prop46
 90
       50
102
RTVSPost2010PropOp46
 70
     1
102
RTVSPost2010Prop47
 90
       50
102
RTVSPost2010PropOp47
 70
     1
102
RTVSPost2010Prop48
 90
       50
102
RTVSPost2010PropOp48
 70
     1
102
RTVSPost2010Prop49
280
     0
102
RTVSPost2010PropOp49
 70
     1
102
RTVSPost2010Prop50
 90
       50
102
RTVSPost2010PropOp50
 70
     1
102
RTVSPost2010Prop51ColorIndex
 90
      256
102
RTVSPost2010Prop51ColorRGB
 90
-16777216
102
RTVSPost2010PropOp51
 70
     0
102
RTVSPost2010Prop52
140
1.0
102
RTVSPost2010PropOp52
 70
     0
102
RTVSPost2010Prop53
 90
        2
102
RTVSPost2010PropOp53
 70
     1
102
RTVSPost2010Prop54
  1
strokes_ogs.tif
102
RTVSPost2010PropOp54
 70
     1
102
RTVSPost2010Prop55
280
     0
102
RTVSPost2010PropOp55
 70
     1
102
RTVSPost2010Prop56
140
1.0
102
RTVSPost2010PropOp56
 70
     1
102
RTVSPost2010Prop57
140
1.0
102
RTVSPost2010PropOp57
 70
     1
  0
XRECORD
  5
3B9
102
{ACAD_REACTORS
330
3B8
102
}
330
3B8
100
AcDbXrecord
280
     1
102
RTVSPropertyOp0
 70
     1
102
RTVSPropertyOp1
 70
     1
102
RTVSPropertyOp2
 70
     1
102
RTVSPropertyOp3
 70
     1
102
RTVSPropertyOp4
 70
     1
102
RTVSPropertyOp5
 70
     1
102
RTVSPropertyOp6
 70
     1
102
RTVSPropertyOp7
 70
     1
102
RTVSPropertyOp8
 70
     1
102
RTVSPropertyOp9
 70
     1
102
RTVSPropertyOp10
 70
     1
102
RTVSPropertyOp11
 70
     1
102
RTVSPropertyOp12
 70
     1
102
RTVSPropertyOp13
 70
     1
102
RTVSPropertyOp14
 70
     1
102
RTVSPropertyOp15
 70
     1
102
RTVSPropertyOp16
 70
     1
102
RTVSPropertyOp17
 70
     1
102
RTVSPropertyOp18
 70
     1
102
RTVSPropertyOp19
 70
     1
102
RTVSPropertyOp20
 70
     1
102
RTVSPropertyOp21
 70
     1
102
RTVSPropertyOp22
 70
     1
102
RTVSPropertyOp23
 70
     1
102
RTVSPropertyOp24
 70
     1
102
RTVSPropertyOp25
 70
     1
102
RTVSPropertyOp26
 70
     1
102
RTVSPropertyOp27
 70
     1
102
RTVSPropertyOp28
 70
     1
102
RTVSPropertyOp29
 70
     1
102
RTVSPropertyOp30
 70
     1
102
RTVSPropertyOp31
 70
     1
102
RTVSPropertyOp32
 70
     1
102
RTVSPropertyOp33
 70
     1
102
RTVSPropertyOp34
 70
     1
102
RTVSPropertyOp35
 70
     1
102
RTVSPropertyOp36
 70
     1
102
RTVSPropertyOp37
 70
     1
102
RTVSPropertyOp38
 70
     1
102
RTVSPropertyOp39
 70
     1
102
RTVSPropertyOp40
 70
     1
102
RTVSPropertyOp41
 70
     1
102
RTVSPropertyOp42
 70
     1
102
RTVSPropertyOp43
 70
     1
102
RTVSPropertyOp44
 70
     1
102
RTVSPropertyOp45
 70
     1
102
RTVSPropertyOp46
 70
     1
102
RTVSPropertyOp47
 70
     1
102
RTVSPropertyOp48
 70
     1
102
RTVSPropertyOp49
 70
     1
102
RTVSPropertyOp50
 70
     1
102
RTVSPropertyOp51
 70
     0
102
RTVSPropertyOp52
 70
     0
102
RTVSPropertyOp53
 70
     1
102
RTVSPropertyOp54
 70
     1
102
RTVSPropertyOp55
 70
     1
102
RTVSPropertyOp56
 70
     1
102
RTVSPropertyOp57
 70
     1
102
RTVSPost2010Prop28
280
     0
102
RTVSPost2010PropOp28
 70
     1
102
RTVSPost2010Prop29
280
     1
102
RTVSPost2010PropOp29
 70
     1
102
RTVSPost2010Prop30
280
     1
102
RTVSPost2010PropOp30
 70
     1
102
RTVSPost2010Prop31
280
     0
102
RTVSPost2010PropOp31
 70
     1
102
RTVSPost2010Prop32
280
     0
102
RTVSPost2010PropOp32
 70
     1
102
RTVSPost2010Prop33
280
     0
102
RTVSPost2010PropOp33
 70
     1
102
RTVSPost2010Prop34
280
     0
102
RTVSPost2010PropOp34
 70
     1
102
RTVSPost2010Prop35
280
     0
102
RTVSPost2010PropOp35
 70
     1
102
RTVSPost2010Prop36
280
     0
102
RTVSPost2010PropOp36
 70
     1
102
RTVSPost2010Prop37
 90
       50
102
RTVSPost2010PropOp37
 70
     1
102
RTVSPost2010Prop38
140
0.0
102
RTVSPost2010PropOp38
 70
     1
102
RTVSPost2010Prop39
140
1.0
102
RTVSPost2010PropOp39
 70
     1
102
RTVSPost2010Prop40
 90
        0
102
RTVSPost2010PropOp40
 70
     1
102
RTVSPost2010Prop41ColorIndex
 90
       18
102
RTVSPost2010Prop41ColorRGB
 90
        0
102
RTVSPost2010PropOp41
 70
     1
102
RTVSPost2010Prop42
 90
       50
102
RTVSPost2010PropOp42
 70
     1
102
RTVSPost2010Prop43
 90
        3
102
RTVSPost2010PropOp43
 70
     1
102
RTVSPost2010Prop44ColorIndex
 90
        5
102
RTVSPost2010Prop44ColorRGB
 90
      255
102
RTVSPost2010PropOp44
 70
     1
102
RTVSPost2010Prop45
280
     0
102
RTVSPost2010PropOp45
 70
     1
102
RTVSPost2010Prop46
 90
       50
102
RTVSPost2010PropOp46
 70
     1
102
RTVSPost2010Prop47
 90
       50
102
RTVSPost2010PropOp47
 70
     1
102
RTVSPost2010Prop48
 90
       50
102
RTVSPost2010PropOp48
 70
     1
102
RTVSPost2010Prop49
280
     0
102
RTVSPost2010PropOp49
 70
     1
102
RTVSPost2010Prop50
 90
       50
102
RTVSPost2010PropOp50
 70
     1
102
RTVSPost2010Prop51ColorIndex
 90
      256
102
RTVSPost2010Prop51ColorRGB
 90
-16777216
102
RTVSPost2010PropOp51
 70
     0
102
RTVSPost2010Prop52
140
1.0
102
RTVSPost2010PropOp52
 70
     0
102
RTVSPost2010Prop53
 90
        2
102
RTVSPost2010PropOp53
 70
     1
102
RTVSPost2010Prop54
  1
strokes_ogs.tif
102
RTVSPost2010PropOp54
 70
     1
102
RTVSPost2010Prop55
280
     0
102
RTVSPost2010PropOp55
 70
     1
102
RTVSPost2010Prop56
140
1.0
102
RTVSPost2010PropOp56
 70
     1
102
RTVSPost2010Prop57
140
1.0
102
RTVSPost2010PropOp57
 70
     1
  0
XRECORD
  5
3C9
102
{ACAD_REACTORS
330
3C8
102
}
330
3C8
100
AcDbXrecord
280
     1
102
RTVSPropertyOp0
 70
     0
102
RTVSPropertyOp1
 70
     0
102
RTVSPropertyOp2
 70
     0
102
RTVSPropertyOp3
 70
     0
102
RTVSPropertyOp4
 70
     0
102
RTVSPropertyOp5
 70
     0
102
RTVSPropertyOp6
 70
     0
102
RTVSPropertyOp7
 70
     0
102
RTVSPropertyOp8
 70
     0
102
RTVSPropertyOp9
 70
     0
102
RTVSPropertyOp10
 70
     0
102
RTVSPropertyOp11
 70
     0
102
RTVSPropertyOp12
 70
     0
102
RTVSPropertyOp13
 70
     0
102
RTVSPropertyOp14
 70
     2
102
RTVSPropertyOp15
 70
     0
102
RTVSPropertyOp16
 70
     0
102
RTVSPropertyOp17
 70
     0
102
RTVSPropertyOp18
 70
     0
102
RTVSPropertyOp19
 70
     0
102
RTVSPropertyOp20
 70
     0
102
RTVSPropertyOp21
 70
     0
102
RTVSPropertyOp22
 70
     0
102
RTVSPropertyOp23
 70
     0
102
RTVSPropertyOp24
 70
     0
102
RTVSPropertyOp25
 70
     0
102
RTVSPropertyOp26
 70
     0
102
RTVSPropertyOp27
 70
     0
102
RTVSPropertyOp28
 70
     0
102
RTVSPropertyOp29
 70
     0
102
RTVSPropertyOp30
 70
     0
102
RTVSPropertyOp31
 70
     0
102
RTVSPropertyOp32
 70
     0
102
RTVSPropertyOp33
 70
     0
102
RTVSPropertyOp34
 70
     0
102
RTVSPropertyOp35
 70
     0
102
RTVSPropertyOp36
 70
     0
102
RTVSPropertyOp37
 70
     0
102
RTVSPropertyOp38
 70
     0
102
RTVSPropertyOp39
 70
     0
102
RTVSPropertyOp40
 70
     0
102
RTVSPropertyOp41
 70
     0
102
RTVSPropertyOp42
 70
     0
102
RTVSPropertyOp43
 70
     0
102
RTVSPropertyOp44
 70
     0
102
RTVSPropertyOp45
 70
     0
102
RTVSPropertyOp46
 70
     0
102
RTVSPropertyOp47
 70
     0
102
RTVSPropertyOp48
 70
     0
102
RTVSPropertyOp49
 70
     0
102
RTVSPropertyOp50
 70
     0
102
RTVSPropertyOp51
 70
     0
102
RTVSPropertyOp52
 70
     0
102
RTVSPropertyOp53
 70
     0
102
RTVSPropertyOp54
 70
     0
102
RTVSPropertyOp55
 70
     0
102
RTVSPropertyOp56
 70
     0
102
RTVSPropertyOp57
 70
     0
102
RTVSPost2010Prop28
280
     0
102
RTVSPost2010PropOp28
 70
     0
102
RTVSPost2010Prop29
280
     1
102
RTVSPost2010PropOp29
 70
     0
102
RTVSPost2010Prop30
280
     1
102
RTVSPost2010PropOp30
 70
     0
102
RTVSPost2010Prop31
280
     0
102
RTVSPost2010PropOp31
 70
     0
102
RTVSPost2010Prop32
280
     0
102
RTVSPost2010PropOp32
 70
     0
102
RTVSPost2010Prop33
280
     0
102
RTVSPost2010PropOp33
 70
     0
102
RTVSPost2010Prop34
280
     0
102
RTVSPost2010PropOp34
 70
     0
102
RTVSPost2010Prop35
280
     0
102
RTVSPost2010PropOp35
 70
     0
102
RTVSPost2010Prop36
280
     0
102
RTVSPost2010PropOp36
 70
     0
102
RTVSPost2010Prop37
 90
       50
102
RTVSPost2010PropOp37
 70
     0
102
RTVSPost2010Prop38
140
0.0
102
RTVSPost2010PropOp38
 70
     0
102
RTVSPost2010Prop39
140
1.0
102
RTVSPost2010PropOp39
 70
     0
102
RTVSPost2010Prop40
 90
        0
102
RTVSPost2010PropOp40
 70
     0
102
RTVSPost2010Prop41ColorIndex
 90
       18
102
RTVSPost2010Prop41ColorRGB
 90
        0
102
RTVSPost2010PropOp41
 70
     0
102
RTVSPost2010Prop42
 90
       50
102
RTVSPost2010PropOp42
 70
     0
102
RTVSPost2010Prop43
 90
        3
102
RTVSPost2010PropOp43
 70
     0
102
RTVSPost2010Prop44ColorIndex
 90
        5
102
RTVSPost2010Prop44ColorRGB
 90
      255
102
RTVSPost2010PropOp44
 70
     0
102
RTVSPost2010Prop45
280
     0
102
RTVSPost2010PropOp45
 70
     0
102
RTVSPost2010Prop46
 90
       50
102
RTVSPost2010PropOp46
 70
     0
102
RTVSPost2010Prop47
 90
       50
102
RTVSPost2010PropOp47
 70
     0
102
RTVSPost2010Prop48
 90
       50
102
RTVSPost2010PropOp48
 70
     0
102
RTVSPost2010Prop49
280
     0
102
RTVSPost2010PropOp49
 70
     0
102
RTVSPost2010Prop50
 90
       50
102
RTVSPost2010PropOp50
 70
     0
102
RTVSPost2010Prop51ColorIndex
 90
      256
102
RTVSPost2010Prop51ColorRGB
 90
-16777216
102
RTVSPost2010PropOp51
 70
     0
102
RTVSPost2010Prop52
140
1.0
102
RTVSPost2010PropOp52
 70
     0
102
RTVSPost2010Prop53
 90
        2
102
RTVSPost2010PropOp53
 70
     0
102
RTVSPost2010Prop54
  1
strokes_ogs.tif
102
RTVSPost2010PropOp54
 70
     0
102
RTVSPost2010Prop55
280
     0
102
RTVSPost2010PropOp55
 70
     0
102
RTVSPost2010Prop56
140
1.0
102
RTVSPost2010PropOp56
 70
     0
102
RTVSPost2010Prop57
140
1.0
102
RTVSPost2010PropOp57
 70
     0
  0
XRECORD
  5
3C1
102
{ACAD_REACTORS
330
3C0
102
}
330
3C0
100
AcDbXrecord
280
     1
102
RTVSPropertyOp0
 70
     1
102
RTVSPropertyOp1
 70
     1
102
RTVSPropertyOp2
 70
     1
102
RTVSPropertyOp3
 70
     1
102
RTVSPropertyOp4
 70
     1
102
RTVSPropertyOp5
 70
     1
102
RTVSPropertyOp6
 70
     1
102
RTVSPropertyOp7
 70
     1
102
RTVSPropertyOp8
 70
     1
102
RTVSPropertyOp9
 70
     1
102
RTVSPropertyOp10
 70
     1
102
RTVSPropertyOp11
 70
     1
102
RTVSPropertyOp12
 70
     1
102
RTVSPropertyOp13
 70
     1
102
RTVSPropertyOp14
 70
     1
102
RTVSPropertyOp15
 70
     1
102
RTVSPropertyOp16
 70
     1
102
RTVSPropertyOp17
 70
     1
102
RTVSPropertyOp18
 70
     1
102
RTVSPropertyOp19
 70
     1
102
RTVSPropertyOp20
 70
     1
102
RTVSPropertyOp21
 70
     1
102
RTVSPropertyOp22
 70
     1
102
RTVSPropertyOp23
 70
     1
102
RTVSPropertyOp24
 70
     1
102
RTVSPropertyOp25
 70
     1
102
RTVSPropertyOp26
 70
     1
102
RTVSPropertyOp27
 70
     1
102
RTVSPropertyOp28
 70
     1
102
RTVSPropertyOp29
 70
     1
102
RTVSPropertyOp30
 70
     1
102
RTVSPropertyOp31
 70
     1
102
RTVSPropertyOp32
 70
     1
102
RTVSPropertyOp33
 70
     1
102
RTVSPropertyOp34
 70
     1
102
RTVSPropertyOp35
 70
     1
102
RTVSPropertyOp36
 70
     1
102
RTVSPropertyOp37
 70
     1
102
RTVSPropertyOp38
 70
     1
102
RTVSPropertyOp39
 70
     1
102
RTVSPropertyOp40
 70
     1
102
RTVSPropertyOp41
 70
     1
102
RTVSPropertyOp42
 70
     1
102
RTVSPropertyOp43
 70
     1
102
RTVSPropertyOp44
 70
     1
102
RTVSPropertyOp45
 70
     1
102
RTVSPropertyOp46
 70
     1
102
RTVSPropertyOp47
 70
     1
102
RTVSPropertyOp48
 70
     1
102
RTVSPropertyOp49
 70
     1
102
RTVSPropertyOp50
 70
     1
102
RTVSPropertyOp51
 70
     0
102
RTVSPropertyOp52
 70
     0
102
RTVSPropertyOp53
 70
     1
102
RTVSPropertyOp54
 70
     1
102
RTVSPropertyOp55
 70
     1
102
RTVSPropertyOp56
 70
     1
102
RTVSPropertyOp57
 70
     1
102
RTVSPost2010Prop28
280
     0
102
RTVSPost2010PropOp28
 70
     1
102
RTVSPost2010Prop29
280
     1
102
RTVSPost2010PropOp29
 70
     1
102
RTVSPost2010Prop30
280
     1
102
RTVSPost2010PropOp30
 70
     1
102
RTVSPost2010Prop31
280
     0
102
RTVSPost2010PropOp31
 70
     1
102
RTVSPost2010Prop32
280
     0
102
RTVSPost2010PropOp32
 70
     1
102
RTVSPost2010Prop33
280
     0
102
RTVSPost2010PropOp33
 70
     1
102
RTVSPost2010Prop34
280
     0
102
RTVSPost2010PropOp34
 70
     1
102
RTVSPost2010Prop35
280
     0
102
RTVSPost2010PropOp35
 70
     1
102
RTVSPost2010Prop36
280
     0
102
RTVSPost2010PropOp36
 70
     1
102
RTVSPost2010Prop37
 90
       50
102
RTVSPost2010PropOp37
 70
     1
102
RTVSPost2010Prop38
140
0.0
102
RTVSPost2010PropOp38
 70
     1
102
RTVSPost2010Prop39
140
1.0
102
RTVSPost2010PropOp39
 70
     1
102
RTVSPost2010Prop40
 90
        0
102
RTVSPost2010PropOp40
 70
     1
102
RTVSPost2010Prop41ColorIndex
 90
       18
102
RTVSPost2010Prop41ColorRGB
 90
        0
102
RTVSPost2010PropOp41
 70
     1
102
RTVSPost2010Prop42
 90
       50
102
RTVSPost2010PropOp42
 70
     1
102
RTVSPost2010Prop43
 90
        3
102
RTVSPost2010PropOp43
 70
     1
102
RTVSPost2010Prop44ColorIndex
 90
        5
102
RTVSPost2010Prop44ColorRGB
 90
      255
102
RTVSPost2010PropOp44
 70
     1
102
RTVSPost2010Prop45
280
     0
102
RTVSPost2010PropOp45
 70
     1
102
RTVSPost2010Prop46
 90
       50
102
RTVSPost2010PropOp46
 70
     1
102
RTVSPost2010Prop47
 90
       50
102
RTVSPost2010PropOp47
 70
     1
102
RTVSPost2010Prop48
 90
       50
102
RTVSPost2010PropOp48
 70
     1
102
RTVSPost2010Prop49
280
     0
102
RTVSPost2010PropOp49
 70
     1
102
RTVSPost2010Prop50
 90
       50
102
RTVSPost2010PropOp50
 70
     1
102
RTVSPost2010Prop51ColorIndex
 90
      256
102
RTVSPost2010Prop51ColorRGB
 90
-16777216
102
RTVSPost2010PropOp51
 70
     0
102
RTVSPost2010Prop52
140
1.0
102
RTVSPost2010PropOp52
 70
     0
102
RTVSPost2010Prop53
 90
        2
102
RTVSPost2010PropOp53
 70
     1
102
RTVSPost2010Prop54
  1
strokes_ogs.tif
102
RTVSPost2010PropOp54
 70
     1
102
RTVSPost2010Prop55
280
     0
102
RTVSPost2010PropOp55
 70
     1
102
RTVSPost2010Prop56
140
1.0
102
RTVSPost2010PropOp56
 70
     1
102
RTVSPost2010Prop57
140
1.0
102
RTVSPost2010PropOp57
 70
     1
  0
XRECORD
  5
3A5
102
{ACAD_REACTORS
330
3A4
102
}
330
3A4
100
AcDbXrecord
280
     1
102
RTVSPropertyOp0
 70
     1
102
RTVSPropertyOp1
 70
     1
102
RTVSPropertyOp2
 70
     1
102
RTVSPropertyOp3
 70
     1
102
RTVSPropertyOp4
 70
     1
102
RTVSPropertyOp5
 70
     1
102
RTVSPropertyOp6
 70
     1
102
RTVSPropertyOp7
 70
     1
102
RTVSPropertyOp8
 70
     1
102
RTVSPropertyOp9
 70
     1
102
RTVSPropertyOp10
 70
     1
102
RTVSPropertyOp11
 70
     1
102
RTVSPropertyOp12
 70
     1
102
RTVSPropertyOp13
 70
     1
102
RTVSPropertyOp14
 70
     1
102
RTVSPropertyOp15
 70
     1
102
RTVSPropertyOp16
 70
     1
102
RTVSPropertyOp17
 70
     1
102
RTVSPropertyOp18
 70
     1
102
RTVSPropertyOp19
 70
     1
102
RTVSPropertyOp20
 70
     1
102
RTVSPropertyOp21
 70
     1
102
RTVSPropertyOp22
 70
     1
102
RTVSPropertyOp23
 70
     1
102
RTVSPropertyOp24
 70
     1
102
RTVSPropertyOp25
 70
     1
102
RTVSPropertyOp26
 70
     1
102
RTVSPropertyOp27
 70
     1
102
RTVSPropertyOp28
 70
     1
102
RTVSPropertyOp29
 70
     1
102
RTVSPropertyOp30
 70
     1
102
RTVSPropertyOp31
 70
     1
102
RTVSPropertyOp32
 70
     1
102
RTVSPropertyOp33
 70
     1
102
RTVSPropertyOp34
 70
     1
102
RTVSPropertyOp35
 70
     1
102
RTVSPropertyOp36
 70
     1
102
RTVSPropertyOp37
 70
     1
102
RTVSPropertyOp38
 70
     1
102
RTVSPropertyOp39
 70
     1
102
RTVSPropertyOp40
 70
     1
102
RTVSPropertyOp41
 70
     1
102
RTVSPropertyOp42
 70
     1
102
RTVSPropertyOp43
 70
     1
102
RTVSPropertyOp44
 70
     1
102
RTVSPropertyOp45
 70
     1
102
RTVSPropertyOp46
 70
     1
102
RTVSPropertyOp47
 70
     1
102
RTVSPropertyOp48
 70
     1
102
RTVSPropertyOp49
 70
     1
102
RTVSPropertyOp50
 70
     1
102
RTVSPropertyOp51
 70
     0
102
RTVSPropertyOp52
 70
     0
102
RTVSPropertyOp53
 70
     1
102
RTVSPropertyOp54
 70
     1
102
RTVSPropertyOp55
 70
     1
102
RTVSPropertyOp56
 70
     1
102
RTVSPropertyOp57
 70
     1
102
RTVSPost2010Prop28
280
     0
102
RTVSPost2010PropOp28
 70
     1
102
RTVSPost2010Prop29
280
     1
102
RTVSPost2010PropOp29
 70
     1
102
RTVSPost2010Prop30
280
     1
102
RTVSPost2010PropOp30
 70
     1
102
RTVSPost2010Prop31
280
     0
102
RTVSPost2010PropOp31
 70
     1
102
RTVSPost2010Prop32
280
     0
102
RTVSPost2010PropOp32
 70
     1
102
RTVSPost2010Prop33
280
     0
102
RTVSPost2010PropOp33
 70
     1
102
RTVSPost2010Prop34
280
     0
102
RTVSPost2010PropOp34
 70
     1
102
RTVSPost2010Prop35
280
     0
102
RTVSPost2010PropOp35
 70
     1
102
RTVSPost2010Prop36
280
     0
102
RTVSPost2010PropOp36
 70
     1
102
RTVSPost2010Prop37
 90
       50
102
RTVSPost2010PropOp37
 70
     1
102
RTVSPost2010Prop38
140
0.0
102
RTVSPost2010PropOp38
 70
     1
102
RTVSPost2010Prop39
140
1.0
102
RTVSPost2010PropOp39
 70
     1
102
RTVSPost2010Prop40
 90
        0
102
RTVSPost2010PropOp40
 70
     1
102
RTVSPost2010Prop41ColorIndex
 90
       18
102
RTVSPost2010Prop41ColorRGB
 90
        0
102
RTVSPost2010PropOp41
 70
     1
102
RTVSPost2010Prop42
 90
       50
102
RTVSPost2010PropOp42
 70
     1
102
RTVSPost2010Prop43
 90
        3
102
RTVSPost2010PropOp43
 70
     1
102
RTVSPost2010Prop44ColorIndex
 90
        5
102
RTVSPost2010Prop44ColorRGB
 90
      255
102
RTVSPost2010PropOp44
 70
     1
102
RTVSPost2010Prop45
280
     0
102
RTVSPost2010PropOp45
 70
     1
102
RTVSPost2010Prop46
 90
       50
102
RTVSPost2010PropOp46
 70
     1
102
RTVSPost2010Prop47
 90
       50
102
RTVSPost2010PropOp47
 70
     1
102
RTVSPost2010Prop48
 90
       50
102
RTVSPost2010PropOp48
 70
     1
102
RTVSPost2010Prop49
280
     0
102
RTVSPost2010PropOp49
 70
     1
102
RTVSPost2010Prop50
 90
       50
102
RTVSPost2010PropOp50
 70
     1
102
RTVSPost2010Prop51ColorIndex
 90
      256
102
RTVSPost2010Prop51ColorRGB
 90
-16777216
102
RTVSPost2010PropOp51
 70
     0
102
RTVSPost2010Prop52
140
1.0
102
RTVSPost2010PropOp52
 70
     0
102
RTVSPost2010Prop53
 90
        2
102
RTVSPost2010PropOp53
 70
     1
102
RTVSPost2010Prop54
  1
strokes_ogs.tif
102
RTVSPost2010PropOp54
 70
     1
102
RTVSPost2010Prop55
280
     0
102
RTVSPost2010PropOp55
 70
     1
102
RTVSPost2010Prop56
140
1.0
102
RTVSPost2010PropOp56
 70
     1
102
RTVSPost2010Prop57
140
1.0
102
RTVSPost2010PropOp57
 70
     1
  0
XRECORD
  5
3A7
102
{ACAD_REACTORS
330
3A6
102
}
330
3A6
100
AcDbXrecord
280
     1
102
RTVSPropertyOp0
 70
     1
102
RTVSPropertyOp1
 70
     1
102
RTVSPropertyOp2
 70
     1
102
RTVSPropertyOp3
 70
     1
102
RTVSPropertyOp4
 70
     1
102
RTVSPropertyOp5
 70
     1
102
RTVSPropertyOp6
 70
     1
102
RTVSPropertyOp7
 70
     1
102
RTVSPropertyOp8
 70
     1
102
RTVSPropertyOp9
 70
     1
102
RTVSPropertyOp10
 70
     1
102
RTVSPropertyOp11
 70
     1
102
RTVSPropertyOp12
 70
     1
102
RTVSPropertyOp13
 70
     1
102
RTVSPropertyOp14
 70
     1
102
RTVSPropertyOp15
 70
     1
102
RTVSPropertyOp16
 70
     1
102
RTVSPropertyOp17
 70
     1
102
RTVSPropertyOp18
 70
     1
102
RTVSPropertyOp19
 70
     1
102
RTVSPropertyOp20
 70
     1
102
RTVSPropertyOp21
 70
     1
102
RTVSPropertyOp22
 70
     1
102
RTVSPropertyOp23
 70
     1
102
RTVSPropertyOp24
 70
     1
102
RTVSPropertyOp25
 70
     1
102
RTVSPropertyOp26
 70
     1
102
RTVSPropertyOp27
 70
     1
102
RTVSPropertyOp28
 70
     1
102
RTVSPropertyOp29
 70
     1
102
RTVSPropertyOp30
 70
     1
102
RTVSPropertyOp31
 70
     1
102
RTVSPropertyOp32
 70
     1
102
RTVSPropertyOp33
 70
     1
102
RTVSPropertyOp34
 70
     1
102
RTVSPropertyOp35
 70
     1
102
RTVSPropertyOp36
 70
     1
102
RTVSPropertyOp37
 70
     1
102
RTVSPropertyOp38
 70
     1
102
RTVSPropertyOp39
 70
     1
102
RTVSPropertyOp40
 70
     1
102
RTVSPropertyOp41
 70
     1
102
RTVSPropertyOp42
 70
     1
102
RTVSPropertyOp43
 70
     1
102
RTVSPropertyOp44
 70
     1
102
RTVSPropertyOp45
 70
     1
102
RTVSPropertyOp46
 70
     1
102
RTVSPropertyOp47
 70
     1
102
RTVSPropertyOp48
 70
     1
102
RTVSPropertyOp49
 70
     1
102
RTVSPropertyOp50
 70
     1
102
RTVSPropertyOp51
 70
     0
102
RTVSPropertyOp52
 70
     0
102
RTVSPropertyOp53
 70
     1
102
RTVSPropertyOp54
 70
     1
102
RTVSPropertyOp55
 70
     1
102
RTVSPropertyOp56
 70
     1
102
RTVSPropertyOp57
 70
     1
102
RTVSPost2010Prop28
280
     0
102
RTVSPost2010PropOp28
 70
     1
102
RTVSPost2010Prop29
280
     1
102
RTVSPost2010PropOp29
 70
     1
102
RTVSPost2010Prop30
280
     1
102
RTVSPost2010PropOp30
 70
     1
102
RTVSPost2010Prop31
280
     0
102
RTVSPost2010PropOp31
 70
     1
102
RTVSPost2010Prop32
280
     0
102
RTVSPost2010PropOp32
 70
     1
102
RTVSPost2010Prop33
280
     0
102
RTVSPost2010PropOp33
 70
     1
102
RTVSPost2010Prop34
280
     0
102
RTVSPost2010PropOp34
 70
     1
102
RTVSPost2010Prop35
280
     0
102
RTVSPost2010PropOp35
 70
     1
102
RTVSPost2010Prop36
280
     0
102
RTVSPost2010PropOp36
 70
     1
102
RTVSPost2010Prop37
 90
       50
102
RTVSPost2010PropOp37
 70
     1
102
RTVSPost2010Prop38
140
0.0
102
RTVSPost2010PropOp38
 70
     1
102
RTVSPost2010Prop39
140
1.0
102
RTVSPost2010PropOp39
 70
     1
102
RTVSPost2010Prop40
 90
        0
102
RTVSPost2010PropOp40
 70
     1
102
RTVSPost2010Prop41ColorIndex
 90
       18
102
RTVSPost2010Prop41ColorRGB
 90
        0
102
RTVSPost2010PropOp41
 70
     1
102
RTVSPost2010Prop42
 90
       50
102
RTVSPost2010PropOp42
 70
     1
102
RTVSPost2010Prop43
 90
        3
102
RTVSPost2010PropOp43
 70
     1
102
RTVSPost2010Prop44ColorIndex
 90
        5
102
RTVSPost2010Prop44ColorRGB
 90
      255
102
RTVSPost2010PropOp44
 70
     1
102
RTVSPost2010Prop45
280
     0
102
RTVSPost2010PropOp45
 70
     1
102
RTVSPost2010Prop46
 90
       50
102
RTVSPost2010PropOp46
 70
     1
102
RTVSPost2010Prop47
 90
       50
102
RTVSPost2010PropOp47
 70
     1
102
RTVSPost2010Prop48
 90
       50
102
RTVSPost2010PropOp48
 70
     1
102
RTVSPost2010Prop49
280
     0
102
RTVSPost2010PropOp49
 70
     1
102
RTVSPost2010Prop50
 90
       50
102
RTVSPost2010PropOp50
 70
     1
102
RTVSPost2010Prop51ColorIndex
 90
      256
102
RTVSPost2010Prop51ColorRGB
 90
-16777216
102
RTVSPost2010PropOp51
 70
     0
102
RTVSPost2010Prop52
140
1.0
102
RTVSPost2010PropOp52
 70
     0
102
RTVSPost2010Prop53
 90
        2
102
RTVSPost2010PropOp53
 70
     1
102
RTVSPost2010Prop54
  1
strokes_ogs.tif
102
RTVSPost2010PropOp54
 70
     1
102
RTVSPost2010Prop55
280
     0
102
RTVSPost2010PropOp55
 70
     1
102
RTVSPost2010Prop56
140
1.0
102
RTVSPost2010PropOp56
 70
     1
102
RTVSPost2010Prop57
140
1.0
102
RTVSPost2010PropOp57
 70
     1
  0
XRECORD
  5
3A9
102
{ACAD_REACTORS
330
3A8
102
}
330
3A8
100
AcDbXrecord
280
     1
102
RTVSPropertyOp0
 70
     1
102
RTVSPropertyOp1
 70
     1
102
RTVSPropertyOp2
 70
     1
102
RTVSPropertyOp3
 70
     1
102
RTVSPropertyOp4
 70
     1
102
RTVSPropertyOp5
 70
     1
102
RTVSPropertyOp6
 70
     1
102
RTVSPropertyOp7
 70
     1
102
RTVSPropertyOp8
 70
     1
102
RTVSPropertyOp9
 70
     1
102
RTVSPropertyOp10
 70
     1
102
RTVSPropertyOp11
 70
     1
102
RTVSPropertyOp12
 70
     1
102
RTVSPropertyOp13
 70
     1
102
RTVSPropertyOp14
 70
     1
102
RTVSPropertyOp15
 70
     1
102
RTVSPropertyOp16
 70
     1
102
RTVSPropertyOp17
 70
     1
102
RTVSPropertyOp18
 70
     1
102
RTVSPropertyOp19
 70
     1
102
RTVSPropertyOp20
 70
     1
102
RTVSPropertyOp21
 70
     1
102
RTVSPropertyOp22
 70
     1
102
RTVSPropertyOp23
 70
     1
102
RTVSPropertyOp24
 70
     1
102
RTVSPropertyOp25
 70
     1
102
RTVSPropertyOp26
 70
     1
102
RTVSPropertyOp27
 70
     1
102
RTVSPropertyOp28
 70
     1
102
RTVSPropertyOp29
 70
     1
102
RTVSPropertyOp30
 70
     1
102
RTVSPropertyOp31
 70
     1
102
RTVSPropertyOp32
 70
     1
102
RTVSPropertyOp33
 70
     1
102
RTVSPropertyOp34
 70
     1
102
RTVSPropertyOp35
 70
     1
102
RTVSPropertyOp36
 70
     1
102
RTVSPropertyOp37
 70
     1
102
RTVSPropertyOp38
 70
     1
102
RTVSPropertyOp39
 70
     1
102
RTVSPropertyOp40
 70
     1
102
RTVSPropertyOp41
 70
     1
102
RTVSPropertyOp42
 70
     1
102
RTVSPropertyOp43
 70
     1
102
RTVSPropertyOp44
 70
     1
102
RTVSPropertyOp45
 70
     1
102
RTVSPropertyOp46
 70
     1
102
RTVSPropertyOp47
 70
     1
102
RTVSPropertyOp48
 70
     1
102
RTVSPropertyOp49
 70
     1
102
RTVSPropertyOp50
 70
     1
102
RTVSPropertyOp51
 70
     0
102
RTVSPropertyOp52
 70
     0
102
RTVSPropertyOp53
 70
     1
102
RTVSPropertyOp54
 70
     1
102
RTVSPropertyOp55
 70
     1
102
RTVSPropertyOp56
 70
     1
102
RTVSPropertyOp57
 70
     1
102
RTVSPost2010Prop28
280
     0
102
RTVSPost2010PropOp28
 70
     1
102
RTVSPost2010Prop29
280
     1
102
RTVSPost2010PropOp29
 70
     1
102
RTVSPost2010Prop30
280
     1
102
RTVSPost2010PropOp30
 70
     1
102
RTVSPost2010Prop31
280
     0
102
RTVSPost2010PropOp31
 70
     1
102
RTVSPost2010Prop32
280
     0
102
RTVSPost2010PropOp32
 70
     1
102
RTVSPost2010Prop33
280
     0
102
RTVSPost2010PropOp33
 70
     1
102
RTVSPost2010Prop34
280
     0
102
RTVSPost2010PropOp34
 70
     1
102
RTVSPost2010Prop35
280
     0
102
RTVSPost2010PropOp35
 70
     1
102
RTVSPost2010Prop36
280
     0
102
RTVSPost2010PropOp36
 70
     1
102
RTVSPost2010Prop37
 90
       50
102
RTVSPost2010PropOp37
 70
     1
102
RTVSPost2010Prop38
140
0.0
102
RTVSPost2010PropOp38
 70
     1
102
RTVSPost2010Prop39
140
1.0
102
RTVSPost2010PropOp39
 70
     1
102
RTVSPost2010Prop40
 90
        0
102
RTVSPost2010PropOp40
 70
     1
102
RTVSPost2010Prop41ColorIndex
 90
       18
102
RTVSPost2010Prop41ColorRGB
 90
        0
102
RTVSPost2010PropOp41
 70
     1
102
RTVSPost2010Prop42
 90
       50
102
RTVSPost2010PropOp42
 70
     1
102
RTVSPost2010Prop43
 90
        3
102
RTVSPost2010PropOp43
 70
     1
102
RTVSPost2010Prop44ColorIndex
 90
        5
102
RTVSPost2010Prop44ColorRGB
 90
      255
102
RTVSPost2010PropOp44
 70
     1
102
RTVSPost2010Prop45
280
     0
102
RTVSPost2010PropOp45
 70
     1
102
RTVSPost2010Prop46
 90
       50
102
RTVSPost2010PropOp46
 70
     1
102
RTVSPost2010Prop47
 90
       50
102
RTVSPost2010PropOp47
 70
     1
102
RTVSPost2010Prop48
 90
       50
102
RTVSPost2010PropOp48
 70
     1
102
RTVSPost2010Prop49
280
     0
102
RTVSPost2010PropOp49
 70
     1
102
RTVSPost2010Prop50
 90
       50
102
RTVSPost2010PropOp50
 70
     1
102
RTVSPost2010Prop51ColorIndex
 90
      256
102
RTVSPost2010Prop51ColorRGB
 90
-16777216
102
RTVSPost2010PropOp51
 70
     0
102
RTVSPost2010Prop52
140
1.0
102
RTVSPost2010PropOp52
 70
     0
102
RTVSPost2010Prop53
 90
        2
102
RTVSPost2010PropOp53
 70
     1
102
RTVSPost2010Prop54
  1
strokes_ogs.tif
102
RTVSPost2010PropOp54
 70
     1
102
RTVSPost2010Prop55
280
     0
102
RTVSPost2010PropOp55
 70
     1
102
RTVSPost2010Prop56
140
1.0
102
RTVSPost2010PropOp56
 70
     1
102
RTVSPost2010Prop57
140
1.0
102
RTVSPost2010PropOp57
 70
     1
  0
XRECORD
  5
3AB
102
{ACAD_REACTORS
330
3AA
102
}
330
3AA
100
AcDbXrecord
280
     1
102
RTVSPropertyOp0
 70
     1
102
RTVSPropertyOp1
 70
     1
102
RTVSPropertyOp2
 70
     1
102
RTVSPropertyOp3
 70
     1
102
RTVSPropertyOp4
 70
     1
102
RTVSPropertyOp5
 70
     1
102
RTVSPropertyOp6
 70
     1
102
RTVSPropertyOp7
 70
     1
102
RTVSPropertyOp8
 70
     1
102
RTVSPropertyOp9
 70
     1
102
RTVSPropertyOp10
 70
     1
102
RTVSPropertyOp11
 70
     1
102
RTVSPropertyOp12
 70
     1
102
RTVSPropertyOp13
 70
     1
102
RTVSPropertyOp14
 70
     1
102
RTVSPropertyOp15
 70
     1
102
RTVSPropertyOp16
 70
     1
102
RTVSPropertyOp17
 70
     1
102
RTVSPropertyOp18
 70
     1
102
RTVSPropertyOp19
 70
     1
102
RTVSPropertyOp20
 70
     1
102
RTVSPropertyOp21
 70
     1
102
RTVSPropertyOp22
 70
     1
102
RTVSPropertyOp23
 70
     1
102
RTVSPropertyOp24
 70
     1
102
RTVSPropertyOp25
 70
     1
102
RTVSPropertyOp26
 70
     1
102
RTVSPropertyOp27
 70
     1
102
RTVSPropertyOp28
 70
     1
102
RTVSPropertyOp29
 70
     1
102
RTVSPropertyOp30
 70
     1
102
RTVSPropertyOp31
 70
     1
102
RTVSPropertyOp32
 70
     1
102
RTVSPropertyOp33
 70
     1
102
RTVSPropertyOp34
 70
     1
102
RTVSPropertyOp35
 70
     1
102
RTVSPropertyOp36
 70
     1
102
RTVSPropertyOp37
 70
     1
102
RTVSPropertyOp38
 70
     1
102
RTVSPropertyOp39
 70
     1
102
RTVSPropertyOp40
 70
     1
102
RTVSPropertyOp41
 70
     1
102
RTVSPropertyOp42
 70
     1
102
RTVSPropertyOp43
 70
     1
102
RTVSPropertyOp44
 70
     1
102
RTVSPropertyOp45
 70
     1
102
RTVSPropertyOp46
 70
     1
102
RTVSPropertyOp47
 70
     1
102
RTVSPropertyOp48
 70
     1
102
RTVSPropertyOp49
 70
     1
102
RTVSPropertyOp50
 70
     1
102
RTVSPropertyOp51
 70
     0
102
RTVSPropertyOp52
 70
     0
102
RTVSPropertyOp53
 70
     1
102
RTVSPropertyOp54
 70
     1
102
RTVSPropertyOp55
 70
     1
102
RTVSPropertyOp56
 70
     1
102
RTVSPropertyOp57
 70
     1
102
RTVSPost2010Prop28
280
     0
102
RTVSPost2010PropOp28
 70
     1
102
RTVSPost2010Prop29
280
     1
102
RTVSPost2010PropOp29
 70
     1
102
RTVSPost2010Prop30
280
     1
102
RTVSPost2010PropOp30
 70
     1
102
RTVSPost2010Prop31
280
     0
102
RTVSPost2010PropOp31
 70
     1
102
RTVSPost2010Prop32
280
     0
102
RTVSPost2010PropOp32
 70
     1
102
RTVSPost2010Prop33
280
     0
102
RTVSPost2010PropOp33
 70
     1
102
RTVSPost2010Prop34
280
     0
102
RTVSPost2010PropOp34
 70
     1
102
RTVSPost2010Prop35
280
     0
102
RTVSPost2010PropOp35
 70
     1
102
RTVSPost2010Prop36
280
     0
102
RTVSPost2010PropOp36
 70
     1
102
RTVSPost2010Prop37
 90
       50
102
RTVSPost2010PropOp37
 70
     1
102
RTVSPost2010Prop38
140
0.0
102
RTVSPost2010PropOp38
 70
     1
102
RTVSPost2010Prop39
140
1.0
102
RTVSPost2010PropOp39
 70
     1
102
RTVSPost2010Prop40
 90
        0
102
RTVSPost2010PropOp40
 70
     1
102
RTVSPost2010Prop41ColorIndex
 90
       18
102
RTVSPost2010Prop41ColorRGB
 90
        0
102
RTVSPost2010PropOp41
 70
     1
102
RTVSPost2010Prop42
 90
       50
102
RTVSPost2010PropOp42
 70
     1
102
RTVSPost2010Prop43
 90
        3
102
RTVSPost2010PropOp43
 70
     1
102
RTVSPost2010Prop44ColorIndex
 90
        5
102
RTVSPost2010Prop44ColorRGB
 90
      255
102
RTVSPost2010PropOp44
 70
     1
102
RTVSPost2010Prop45
280
     0
102
RTVSPost2010PropOp45
 70
     1
102
RTVSPost2010Prop46
 90
       50
102
RTVSPost2010PropOp46
 70
     1
102
RTVSPost2010Prop47
 90
       50
102
RTVSPost2010PropOp47
 70
     1
102
RTVSPost2010Prop48
 90
       50
102
RTVSPost2010PropOp48
 70
     1
102
RTVSPost2010Prop49
280
     0
102
RTVSPost2010PropOp49
 70
     1
102
RTVSPost2010Prop50
 90
       50
102
RTVSPost2010PropOp50
 70
     1
102
RTVSPost2010Prop51ColorIndex
 90
      256
102
RTVSPost2010Prop51ColorRGB
 90
-16777216
102
RTVSPost2010PropOp51
 70
     0
102
RTVSPost2010Prop52
140
1.0
102
RTVSPost2010PropOp52
 70
     0
102
RTVSPost2010Prop53
 90
        2
102
RTVSPost2010PropOp53
 70
     1
102
RTVSPost2010Prop54
  1
strokes_ogs.tif
102
RTVSPost2010PropOp54
 70
     1
102
RTVSPost2010Prop55
280
     0
102
RTVSPost2010PropOp55
 70
     1
102
RTVSPost2010Prop56
140
1.0
102
RTVSPost2010PropOp56
 70
     1
102
RTVSPost2010Prop57
140
1.0
102
RTVSPost2010PropOp57
 70
     1
  0
XRECORD
  5
3B1
102
{ACAD_REACTORS
330
3B0
102
}
330
3B0
100
AcDbXrecord
280
     1
102
RTVSPropertyOp0
 70
     1
102
RTVSPropertyOp1
 70
     1
102
RTVSPropertyOp2
 70
     1
102
RTVSPropertyOp3
 70
     1
102
RTVSPropertyOp4
 70
     1
102
RTVSPropertyOp5
 70
     1
102
RTVSPropertyOp6
 70
     1
102
RTVSPropertyOp7
 70
     1
102
RTVSPropertyOp8
 70
     1
102
RTVSPropertyOp9
 70
     1
102
RTVSPropertyOp10
 70
     1
102
RTVSPropertyOp11
 70
     1
102
RTVSPropertyOp12
 70
     1
102
RTVSPropertyOp13
 70
     1
102
RTVSPropertyOp14
 70
     1
102
RTVSPropertyOp15
 70
     1
102
RTVSPropertyOp16
 70
     1
102
RTVSPropertyOp17
 70
     1
102
RTVSPropertyOp18
 70
     1
102
RTVSPropertyOp19
 70
     1
102
RTVSPropertyOp20
 70
     1
102
RTVSPropertyOp21
 70
     1
102
RTVSPropertyOp22
 70
     1
102
RTVSPropertyOp23
 70
     1
102
RTVSPropertyOp24
 70
     1
102
RTVSPropertyOp25
 70
     1
102
RTVSPropertyOp26
 70
     1
102
RTVSPropertyOp27
 70
     1
102
RTVSPropertyOp28
 70
     1
102
RTVSPropertyOp29
 70
     1
102
RTVSPropertyOp30
 70
     1
102
RTVSPropertyOp31
 70
     1
102
RTVSPropertyOp32
 70
     1
102
RTVSPropertyOp33
 70
     1
102
RTVSPropertyOp34
 70
     1
102
RTVSPropertyOp35
 70
     1
102
RTVSPropertyOp36
 70
     1
102
RTVSPropertyOp37
 70
     1
102
RTVSPropertyOp38
 70
     1
102
RTVSPropertyOp39
 70
     1
102
RTVSPropertyOp40
 70
     1
102
RTVSPropertyOp41
 70
     1
102
RTVSPropertyOp42
 70
     1
102
RTVSPropertyOp43
 70
     1
102
RTVSPropertyOp44
 70
     1
102
RTVSPropertyOp45
 70
     1
102
RTVSPropertyOp46
 70
     1
102
RTVSPropertyOp47
 70
     1
102
RTVSPropertyOp48
 70
     1
102
RTVSPropertyOp49
 70
     1
102
RTVSPropertyOp50
 70
     1
102
RTVSPropertyOp51
 70
     0
102
RTVSPropertyOp52
 70
     0
102
RTVSPropertyOp53
 70
     1
102
RTVSPropertyOp54
 70
     1
102
RTVSPropertyOp55
 70
     1
102
RTVSPropertyOp56
 70
     1
102
RTVSPropertyOp57
 70
     1
102
RTVSPost2010Prop28
280
     0
102
RTVSPost2010PropOp28
 70
     1
102
RTVSPost2010Prop29
280
     1
102
RTVSPost2010PropOp29
 70
     1
102
RTVSPost2010Prop30
280
     1
102
RTVSPost2010PropOp30
 70
     1
102
RTVSPost2010Prop31
280
     0
102
RTVSPost2010PropOp31
 70
     1
102
RTVSPost2010Prop32
280
     0
102
RTVSPost2010PropOp32
 70
     1
102
RTVSPost2010Prop33
280
     0
102
RTVSPost2010PropOp33
 70
     1
102
RTVSPost2010Prop34
280
     0
102
RTVSPost2010PropOp34
 70
     1
102
RTVSPost2010Prop35
280
     0
102
RTVSPost2010PropOp35
 70
     1
102
RTVSPost2010Prop36
280
     0
102
RTVSPost2010PropOp36
 70
     1
102
RTVSPost2010Prop37
 90
       50
102
RTVSPost2010PropOp37
 70
     1
102
RTVSPost2010Prop38
140
0.0
102
RTVSPost2010PropOp38
 70
     1
102
RTVSPost2010Prop39
140
1.0
102
RTVSPost2010PropOp39
 70
     1
102
RTVSPost2010Prop40
 90
        0
102
RTVSPost2010PropOp40
 70
     1
102
RTVSPost2010Prop41ColorIndex
 90
       18
102
RTVSPost2010Prop41ColorRGB
 90
        0
102
RTVSPost2010PropOp41
 70
     1
102
RTVSPost2010Prop42
 90
       50
102
RTVSPost2010PropOp42
 70
     1
102
RTVSPost2010Prop43
 90
        3
102
RTVSPost2010PropOp43
 70
     1
102
RTVSPost2010Prop44ColorIndex
 90
        5
102
RTVSPost2010Prop44ColorRGB
 90
      255
102
RTVSPost2010PropOp44
 70
     1
102
RTVSPost2010Prop45
280
     0
102
RTVSPost2010PropOp45
 70
     1
102
RTVSPost2010Prop46
 90
       50
102
RTVSPost2010PropOp46
 70
     1
102
RTVSPost2010Prop47
 90
       50
102
RTVSPost2010PropOp47
 70
     1
102
RTVSPost2010Prop48
 90
       50
102
RTVSPost2010PropOp48
 70
     1
102
RTVSPost2010Prop49
280
     0
102
RTVSPost2010PropOp49
 70
     1
102
RTVSPost2010Prop50
 90
       50
102
RTVSPost2010PropOp50
 70
     1
102
RTVSPost2010Prop51ColorIndex
 90
      256
102
RTVSPost2010Prop51ColorRGB
 90
-16777216
102
RTVSPost2010PropOp51
 70
     0
102
RTVSPost2010Prop52
140
1.0
102
RTVSPost2010PropOp52
 70
     0
102
RTVSPost2010Prop53
 90
        2
102
RTVSPost2010PropOp53
 70
     1
102
RTVSPost2010Prop54
  1
strokes_ogs.tif
102
RTVSPost2010PropOp54
 70
     1
102
RTVSPost2010Prop55
280
     0
102
RTVSPost2010PropOp55
 70
     1
102
RTVSPost2010Prop56
140
1.0
102
RTVSPost2010PropOp56
 70
     1
102
RTVSPost2010Prop57
140
1.0
102
RTVSPost2010PropOp57
 70
     1
  0
XRECORD
  5
3C5
102
{ACAD_REACTORS
330
3C4
102
}
330
3C4
100
AcDbXrecord
280
     1
102
RTVSPropertyOp0
 70
     0
102
RTVSPropertyOp1
 70
     0
102
RTVSPropertyOp2
 70
     0
102
RTVSPropertyOp3
 70
     0
102
RTVSPropertyOp4
 70
     0
102
RTVSPropertyOp5
 70
     0
102
RTVSPropertyOp6
 70
     0
102
RTVSPropertyOp7
 70
     0
102
RTVSPropertyOp8
 70
     0
102
RTVSPropertyOp9
 70
     0
102
RTVSPropertyOp10
 70
     0
102
RTVSPropertyOp11
 70
     0
102
RTVSPropertyOp12
 70
     0
102
RTVSPropertyOp13
 70
     0
102
RTVSPropertyOp14
 70
     2
102
RTVSPropertyOp15
 70
     0
102
RTVSPropertyOp16
 70
     0
102
RTVSPropertyOp17
 70
     0
102
RTVSPropertyOp18
 70
     0
102
RTVSPropertyOp19
 70
     0
102
RTVSPropertyOp20
 70
     0
102
RTVSPropertyOp21
 70
     0
102
RTVSPropertyOp22
 70
     0
102
RTVSPropertyOp23
 70
     0
102
RTVSPropertyOp24
 70
     0
102
RTVSPropertyOp25
 70
     0
102
RTVSPropertyOp26
 70
     0
102
RTVSPropertyOp27
 70
     0
102
RTVSPropertyOp28
 70
     0
102
RTVSPropertyOp29
 70
     0
102
RTVSPropertyOp30
 70
     0
102
RTVSPropertyOp31
 70
     0
102
RTVSPropertyOp32
 70
     0
102
RTVSPropertyOp33
 70
     0
102
RTVSPropertyOp34
 70
     0
102
RTVSPropertyOp35
 70
     0
102
RTVSPropertyOp36
 70
     0
102
RTVSPropertyOp37
 70
     0
102
RTVSPropertyOp38
 70
     0
102
RTVSPropertyOp39
 70
     0
102
RTVSPropertyOp40
 70
     0
102
RTVSPropertyOp41
 70
     0
102
RTVSPropertyOp42
 70
     0
102
RTVSPropertyOp43
 70
     0
102
RTVSPropertyOp44
 70
     0
102
RTVSPropertyOp45
 70
     0
102
RTVSPropertyOp46
 70
     0
102
RTVSPropertyOp47
 70
     0
102
RTVSPropertyOp48
 70
     0
102
RTVSPropertyOp49
 70
     0
102
RTVSPropertyOp50
 70
     0
102
RTVSPropertyOp51
 70
     0
102
RTVSPropertyOp52
 70
     0
102
RTVSPropertyOp53
 70
     0
102
RTVSPropertyOp54
 70
     0
102
RTVSPropertyOp55
 70
     0
102
RTVSPropertyOp56
 70
     0
102
RTVSPropertyOp57
 70
     0
102
RTVSPost2010Prop28
280
     0
102
RTVSPost2010PropOp28
 70
     0
102
RTVSPost2010Prop29
280
     1
102
RTVSPost2010PropOp29
 70
     0
102
RTVSPost2010Prop30
280
     1
102
RTVSPost2010PropOp30
 70
     0
102
RTVSPost2010Prop31
280
     0
102
RTVSPost2010PropOp31
 70
     0
102
RTVSPost2010Prop32
280
     0
102
RTVSPost2010PropOp32
 70
     0
102
RTVSPost2010Prop33
280
     0
102
RTVSPost2010PropOp33
 70
     0
102
RTVSPost2010Prop34
280
     0
102
RTVSPost2010PropOp34
 70
     0
102
RTVSPost2010Prop35
280
     0
102
RTVSPost2010PropOp35
 70
     0
102
RTVSPost2010Prop36
280
     0
102
RTVSPost2010PropOp36
 70
     0
102
RTVSPost2010Prop37
 90
       50
102
RTVSPost2010PropOp37
 70
     0
102
RTVSPost2010Prop38
140
0.0
102
RTVSPost2010PropOp38
 70
     0
102
RTVSPost2010Prop39
140
1.0
102
RTVSPost2010PropOp39
 70
     0
102
RTVSPost2010Prop40
 90
        0
102
RTVSPost2010PropOp40
 70
     0
102
RTVSPost2010Prop41ColorIndex
 90
       18
102
RTVSPost2010Prop41ColorRGB
 90
        0
102
RTVSPost2010PropOp41
 70
     0
102
RTVSPost2010Prop42
 90
       50
102
RTVSPost2010PropOp42
 70
     0
102
RTVSPost2010Prop43
 90
        3
102
RTVSPost2010PropOp43
 70
     0
102
RTVSPost2010Prop44ColorIndex
 90
        5
102
RTVSPost2010Prop44ColorRGB
 90
      255
102
RTVSPost2010PropOp44
 70
     0
102
RTVSPost2010Prop45
280
     0
102
RTVSPost2010PropOp45
 70
     0
102
RTVSPost2010Prop46
 90
       50
102
RTVSPost2010PropOp46
 70
     0
102
RTVSPost2010Prop47
 90
       50
102
RTVSPost2010PropOp47
 70
     0
102
RTVSPost2010Prop48
 90
       50
102
RTVSPost2010PropOp48
 70
     0
102
RTVSPost2010Prop49
280
     0
102
RTVSPost2010PropOp49
 70
     0
102
RTVSPost2010Prop50
 90
       50
102
RTVSPost2010PropOp50
 70
     0
102
RTVSPost2010Prop51ColorIndex
 90
      256
102
RTVSPost2010Prop51ColorRGB
 90
-16777216
102
RTVSPost2010PropOp51
 70
     0
102
RTVSPost2010Prop52
140
1.0
102
RTVSPost2010PropOp52
 70
     0
102
RTVSPost2010Prop53
 90
        2
102
RTVSPost2010PropOp53
 70
     0
102
RTVSPost2010Prop54
  1
strokes_ogs.tif
102
RTVSPost2010PropOp54
 70
     0
102
RTVSPost2010Prop55
280
     0
102
RTVSPost2010PropOp55
 70
     0
102
RTVSPost2010Prop56
140
1.0
102
RTVSPost2010PropOp56
 70
     0
102
RTVSPost2010Prop57
140
1.0
102
RTVSPost2010PropOp57
 70
     0
  0
XRECORD
  5
3BF
102
{ACAD_REACTORS
330
3BE
102
}
330
3BE
100
AcDbXrecord
280
     1
102
RTVSPropertyOp0
 70
     1
102
RTVSPropertyOp1
 70
     1
102
RTVSPropertyOp2
 70
     1
102
RTVSPropertyOp3
 70
     1
102
RTVSPropertyOp4
 70
     1
102
RTVSPropertyOp5
 70
     1
102
RTVSPropertyOp6
 70
     1
102
RTVSPropertyOp7
 70
     1
102
RTVSPropertyOp8
 70
     1
102
RTVSPropertyOp9
 70
     1
102
RTVSPropertyOp10
 70
     1
102
RTVSPropertyOp11
 70
     1
102
RTVSPropertyOp12
 70
     1
102
RTVSPropertyOp13
 70
     1
102
RTVSPropertyOp14
 70
     1
102
RTVSPropertyOp15
 70
     1
102
RTVSPropertyOp16
 70
     1
102
RTVSPropertyOp17
 70
     1
102
RTVSPropertyOp18
 70
     1
102
RTVSPropertyOp19
 70
     1
102
RTVSPropertyOp20
 70
     1
102
RTVSPropertyOp21
 70
     1
102
RTVSPropertyOp22
 70
     1
102
RTVSPropertyOp23
 70
     1
102
RTVSPropertyOp24
 70
     1
102
RTVSPropertyOp25
 70
     1
102
RTVSPropertyOp26
 70
     1
102
RTVSPropertyOp27
 70
     1
102
RTVSPropertyOp28
 70
     1
102
RTVSPropertyOp29
 70
     1
102
RTVSPropertyOp30
 70
     1
102
RTVSPropertyOp31
 70
     1
102
RTVSPropertyOp32
 70
     1
102
RTVSPropertyOp33
 70
     1
102
RTVSPropertyOp34
 70
     1
102
RTVSPropertyOp35
 70
     1
102
RTVSPropertyOp36
 70
     1
102
RTVSPropertyOp37
 70
     1
102
RTVSPropertyOp38
 70
     1
102
RTVSPropertyOp39
 70
     1
102
RTVSPropertyOp40
 70
     1
102
RTVSPropertyOp41
 70
     1
102
RTVSPropertyOp42
 70
     1
102
RTVSPropertyOp43
 70
     1
102
RTVSPropertyOp44
 70
     1
102
RTVSPropertyOp45
 70
     1
102
RTVSPropertyOp46
 70
     1
102
RTVSPropertyOp47
 70
     1
102
RTVSPropertyOp48
 70
     1
102
RTVSPropertyOp49
 70
     1
102
RTVSPropertyOp50
 70
     1
102
RTVSPropertyOp51
 70
     0
102
RTVSPropertyOp52
 70
     0
102
RTVSPropertyOp53
 70
     1
102
RTVSPropertyOp54
 70
     1
102
RTVSPropertyOp55
 70
     1
102
RTVSPropertyOp56
 70
     1
102
RTVSPropertyOp57
 70
     1
102
RTVSPost2010Prop28
280
     0
102
RTVSPost2010PropOp28
 70
     1
102
RTVSPost2010Prop29
280
     1
102
RTVSPost2010PropOp29
 70
     1
102
RTVSPost2010Prop30
280
     1
102
RTVSPost2010PropOp30
 70
     1
102
RTVSPost2010Prop31
280
     0
102
RTVSPost2010PropOp31
 70
     1
102
RTVSPost2010Prop32
280
     0
102
RTVSPost2010PropOp32
 70
     1
102
RTVSPost2010Prop33
280
     0
102
RTVSPost2010PropOp33
 70
     1
102
RTVSPost2010Prop34
280
     0
102
RTVSPost2010PropOp34
 70
     1
102
RTVSPost2010Prop35
280
     0
102
RTVSPost2010PropOp35
 70
     1
102
RTVSPost2010Prop36
280
     0
102
RTVSPost2010PropOp36
 70
     1
102
RTVSPost2010Prop37
 90
       50
102
RTVSPost2010PropOp37
 70
     1
102
RTVSPost2010Prop38
140
0.0
102
RTVSPost2010PropOp38
 70
     1
102
RTVSPost2010Prop39
140
1.0
102
RTVSPost2010PropOp39
 70
     1
102
RTVSPost2010Prop40
 90
        0
102
RTVSPost2010PropOp40
 70
     1
102
RTVSPost2010Prop41ColorIndex
 90
       18
102
RTVSPost2010Prop41ColorRGB
 90
        0
102
RTVSPost2010PropOp41
 70
     1
102
RTVSPost2010Prop42
 90
       50
102
RTVSPost2010PropOp42
 70
     1
102
RTVSPost2010Prop43
 90
        3
102
RTVSPost2010PropOp43
 70
     1
102
RTVSPost2010Prop44ColorIndex
 90
        5
102
RTVSPost2010Prop44ColorRGB
 90
      255
102
RTVSPost2010PropOp44
 70
     1
102
RTVSPost2010Prop45
280
     0
102
RTVSPost2010PropOp45
 70
     1
102
RTVSPost2010Prop46
 90
       50
102
RTVSPost2010PropOp46
 70
     1
102
RTVSPost2010Prop47
 90
       50
102
RTVSPost2010PropOp47
 70
     1
102
RTVSPost2010Prop48
 90
       50
102
RTVSPost2010PropOp48
 70
     1
102
RTVSPost2010Prop49
280
     0
102
RTVSPost2010PropOp49
 70
     1
102
RTVSPost2010Prop50
 90
       50
102
RTVSPost2010PropOp50
 70
     1
102
RTVSPost2010Prop51ColorIndex
 90
      256
102
RTVSPost2010Prop51ColorRGB
 90
-16777216
102
RTVSPost2010PropOp51
 70
     0
102
RTVSPost2010Prop52
140
1.0
102
RTVSPost2010PropOp52
 70
     0
102
RTVSPost2010Prop53
 90
        2
102
RTVSPost2010PropOp53
 70
     1
102
RTVSPost2010Prop54
  1
strokes_ogs.tif
102
RTVSPost2010PropOp54
 70
     1
102
RTVSPost2010Prop55
280
     0
102
RTVSPost2010PropOp55
 70
     1
102
RTVSPost2010Prop56
140
1.0
102
RTVSPost2010PropOp56
 70
     1
102
RTVSPost2010Prop57
140
1.0
102
RTVSPost2010PropOp57
 70
     1
  0
XRECORD
  5
3C7
102
{ACAD_REACTORS
330
3C6
102
}
330
3C6
100
AcDbXrecord
280
     1
102
RTVSPropertyOp0
 70
     0
102
RTVSPropertyOp1
 70
     0
102
RTVSPropertyOp2
 70
     0
102
RTVSPropertyOp3
 70
     0
102
RTVSPropertyOp4
 70
     0
102
RTVSPropertyOp5
 70
     0
102
RTVSPropertyOp6
 70
     0
102
RTVSPropertyOp7
 70
     0
102
RTVSPropertyOp8
 70
     0
102
RTVSPropertyOp9
 70
     0
102
RTVSPropertyOp10
 70
     0
102
RTVSPropertyOp11
 70
     0
102
RTVSPropertyOp12
 70
     0
102
RTVSPropertyOp13
 70
     0
102
RTVSPropertyOp14
 70
     2
102
RTVSPropertyOp15
 70
     0
102
RTVSPropertyOp16
 70
     0
102
RTVSPropertyOp17
 70
     0
102
RTVSPropertyOp18
 70
     0
102
RTVSPropertyOp19
 70
     0
102
RTVSPropertyOp20
 70
     0
102
RTVSPropertyOp21
 70
     0
102
RTVSPropertyOp22
 70
     0
102
RTVSPropertyOp23
 70
     0
102
RTVSPropertyOp24
 70
     0
102
RTVSPropertyOp25
 70
     0
102
RTVSPropertyOp26
 70
     0
102
RTVSPropertyOp27
 70
     0
102
RTVSPropertyOp28
 70
     0
102
RTVSPropertyOp29
 70
     0
102
RTVSPropertyOp30
 70
     0
102
RTVSPropertyOp31
 70
     0
102
RTVSPropertyOp32
 70
     0
102
RTVSPropertyOp33
 70
     0
102
RTVSPropertyOp34
 70
     0
102
RTVSPropertyOp35
 70
     0
102
RTVSPropertyOp36
 70
     0
102
RTVSPropertyOp37
 70
     0
102
RTVSPropertyOp38
 70
     0
102
RTVSPropertyOp39
 70
     0
102
RTVSPropertyOp40
 70
     0
102
RTVSPropertyOp41
 70
     0
102
RTVSPropertyOp42
 70
     0
102
RTVSPropertyOp43
 70
     0
102
RTVSPropertyOp44
 70
     0
102
RTVSPropertyOp45
 70
     0
102
RTVSPropertyOp46
 70
     0
102
RTVSPropertyOp47
 70
     0
102
RTVSPropertyOp48
 70
     0
102
RTVSPropertyOp49
 70
     0
102
RTVSPropertyOp50
 70
     0
102
RTVSPropertyOp51
 70
     0
102
RTVSPropertyOp52
 70
     0
102
RTVSPropertyOp53
 70
     0
102
RTVSPropertyOp54
 70
     0
102
RTVSPropertyOp55
 70
     0
102
RTVSPropertyOp56
 70
     0
102
RTVSPropertyOp57
 70
     0
102
RTVSPost2010Prop28
280
     0
102
RTVSPost2010PropOp28
 70
     0
102
RTVSPost2010Prop29
280
     1
102
RTVSPost2010PropOp29
 70
     0
102
RTVSPost2010Prop30
280
     1
102
RTVSPost2010PropOp30
 70
     0
102
RTVSPost2010Prop31
280
     0
102
RTVSPost2010PropOp31
 70
     0
102
RTVSPost2010Prop32
280
     0
102
RTVSPost2010PropOp32
 70
     0
102
RTVSPost2010Prop33
280
     0
102
RTVSPost2010PropOp33
 70
     0
102
RTVSPost2010Prop34
280
     0
102
RTVSPost2010PropOp34
 70
     0
102
RTVSPost2010Prop35
280
     0
102
RTVSPost2010PropOp35
 70
     0
102
RTVSPost2010Prop36
280
     0
102
RTVSPost2010PropOp36
 70
     0
102
RTVSPost2010Prop37
 90
       50
102
RTVSPost2010PropOp37
 70
     0
102
RTVSPost2010Prop38
140
0.0
102
RTVSPost2010PropOp38
 70
     0
102
RTVSPost2010Prop39
140
1.0
102
RTVSPost2010PropOp39
 70
     0
102
RTVSPost2010Prop40
 90
        0
102
RTVSPost2010PropOp40
 70
     0
102
RTVSPost2010Prop41ColorIndex
 90
       18
102
RTVSPost2010Prop41ColorRGB
 90
        0
102
RTVSPost2010PropOp41
 70
     0
102
RTVSPost2010Prop42
 90
       50
102
RTVSPost2010PropOp42
 70
     0
102
RTVSPost2010Prop43
 90
        3
102
RTVSPost2010PropOp43
 70
     0
102
RTVSPost2010Prop44ColorIndex
 90
        5
102
RTVSPost2010Prop44ColorRGB
 90
      255
102
RTVSPost2010PropOp44
 70
     0
102
RTVSPost2010Prop45
280
     0
102
RTVSPost2010PropOp45
 70
     0
102
RTVSPost2010Prop46
 90
       50
102
RTVSPost2010PropOp46
 70
     0
102
RTVSPost2010Prop47
 90
       50
102
RTVSPost2010PropOp47
 70
     0
102
RTVSPost2010Prop48
 90
       50
102
RTVSPost2010PropOp48
 70
     0
102
RTVSPost2010Prop49
280
     0
102
RTVSPost2010PropOp49
 70
     0
102
RTVSPost2010Prop50
 90
       50
102
RTVSPost2010PropOp50
 70
     0
102
RTVSPost2010Prop51ColorIndex
 90
      256
102
RTVSPost2010Prop51ColorRGB
 90
-16777216
102
RTVSPost2010PropOp51
 70
     0
102
RTVSPost2010Prop52
140
1.0
102
RTVSPost2010PropOp52
 70
     0
102
RTVSPost2010Prop53
 90
        2
102
RTVSPost2010PropOp53
 70
     0
102
RTVSPost2010Prop54
  1
strokes_ogs.tif
102
RTVSPost2010PropOp54
 70
     0
102
RTVSPost2010Prop55
280
     0
102
RTVSPost2010PropOp55
 70
     0
102
RTVSPost2010Prop56
140
1.0
102
RTVSPost2010PropOp56
 70
     0
102
RTVSPost2010Prop57
140
1.0
102
RTVSPost2010PropOp57
 70
     0
  0
XRECORD
  5
3B5
102
{ACAD_REACTORS
330
3B4
102
}
330
3B4
100
AcDbXrecord
280
     1
102
RTVSPropertyOp0
 70
     1
102
RTVSPropertyOp1
 70
     1
102
RTVSPropertyOp2
 70
     1
102
RTVSPropertyOp3
 70
     1
102
RTVSPropertyOp4
 70
     1
102
RTVSPropertyOp5
 70
     1
102
RTVSPropertyOp6
 70
     1
102
RTVSPropertyOp7
 70
     1
102
RTVSPropertyOp8
 70
     1
102
RTVSPropertyOp9
 70
     1
102
RTVSPropertyOp10
 70
     1
102
RTVSPropertyOp11
 70
     1
102
RTVSPropertyOp12
 70
     1
102
RTVSPropertyOp13
 70
     1
102
RTVSPropertyOp14
 70
     1
102
RTVSPropertyOp15
 70
     1
102
RTVSPropertyOp16
 70
     1
102
RTVSPropertyOp17
 70
     1
102
RTVSPropertyOp18
 70
     1
102
RTVSPropertyOp19
 70
     1
102
RTVSPropertyOp20
 70
     1
102
RTVSPropertyOp21
 70
     1
102
RTVSPropertyOp22
 70
     1
102
RTVSPropertyOp23
 70
     1
102
RTVSPropertyOp24
 70
     1
102
RTVSPropertyOp25
 70
     1
102
RTVSPropertyOp26
 70
     1
102
RTVSPropertyOp27
 70
     1
102
RTVSPropertyOp28
 70
     1
102
RTVSPropertyOp29
 70
     1
102
RTVSPropertyOp30
 70
     1
102
RTVSPropertyOp31
 70
     1
102
RTVSPropertyOp32
 70
     1
102
RTVSPropertyOp33
 70
     1
102
RTVSPropertyOp34
 70
     1
102
RTVSPropertyOp35
 70
     1
102
RTVSPropertyOp36
 70
     1
102
RTVSPropertyOp37
 70
     1
102
RTVSPropertyOp38
 70
     1
102
RTVSPropertyOp39
 70
     1
102
RTVSPropertyOp40
 70
     1
102
RTVSPropertyOp41
 70
     1
102
RTVSPropertyOp42
 70
     1
102
RTVSPropertyOp43
 70
     1
102
RTVSPropertyOp44
 70
     1
102
RTVSPropertyOp45
 70
     1
102
RTVSPropertyOp46
 70
     1
102
RTVSPropertyOp47
 70
     1
102
RTVSPropertyOp48
 70
     1
102
RTVSPropertyOp49
 70
     1
102
RTVSPropertyOp50
 70
     1
102
RTVSPropertyOp51
 70
     0
102
RTVSPropertyOp52
 70
     0
102
RTVSPropertyOp53
 70
     1
102
RTVSPropertyOp54
 70
     1
102
RTVSPropertyOp55
 70
     1
102
RTVSPropertyOp56
 70
     1
102
RTVSPropertyOp57
 70
     1
102
RTVSPost2010Prop28
280
     0
102
RTVSPost2010PropOp28
 70
     1
102
RTVSPost2010Prop29
280
     1
102
RTVSPost2010PropOp29
 70
     1
102
RTVSPost2010Prop30
280
     1
102
RTVSPost2010PropOp30
 70
     1
102
RTVSPost2010Prop31
280
     0
102
RTVSPost2010PropOp31
 70
     1
102
RTVSPost2010Prop32
280
     0
102
RTVSPost2010PropOp32
 70
     1
102
RTVSPost2010Prop33
280
     0
102
RTVSPost2010PropOp33
 70
     1
102
RTVSPost2010Prop34
280
     0
102
RTVSPost2010PropOp34
 70
     1
102
RTVSPost2010Prop35
280
     0
102
RTVSPost2010PropOp35
 70
     1
102
RTVSPost2010Prop36
280
     0
102
RTVSPost2010PropOp36
 70
     1
102
RTVSPost2010Prop37
 90
       50
102
RTVSPost2010PropOp37
 70
     1
102
RTVSPost2010Prop38
140
0.0
102
RTVSPost2010PropOp38
 70
     1
102
RTVSPost2010Prop39
140
1.0
102
RTVSPost2010PropOp39
 70
     1
102
RTVSPost2010Prop40
 90
        0
102
RTVSPost2010PropOp40
 70
     1
102
RTVSPost2010Prop41ColorIndex
 90
       18
102
RTVSPost2010Prop41ColorRGB
 90
        0
102
RTVSPost2010PropOp41
 70
     1
102
RTVSPost2010Prop42
 90
       50
102
RTVSPost2010PropOp42
 70
     1
102
RTVSPost2010Prop43
 90
        3
102
RTVSPost2010PropOp43
 70
     1
102
RTVSPost2010Prop44ColorIndex
 90
        5
102
RTVSPost2010Prop44ColorRGB
 90
      255
102
RTVSPost2010PropOp44
 70
     1
102
RTVSPost2010Prop45
280
     0
102
RTVSPost2010PropOp45
 70
     1
102
RTVSPost2010Prop46
 90
       50
102
RTVSPost2010PropOp46
 70
     1
102
RTVSPost2010Prop47
 90
       50
102
RTVSPost2010PropOp47
 70
     1
102
RTVSPost2010Prop48
 90
       50
102
RTVSPost2010PropOp48
 70
     1
102
RTVSPost2010Prop49
280
     0
102
RTVSPost2010PropOp49
 70
     1
102
RTVSPost2010Prop50
 90
       50
102
RTVSPost2010PropOp50
 70
     1
102
RTVSPost2010Prop51ColorIndex
 90
      256
102
RTVSPost2010Prop51ColorRGB
 90
-16777216
102
RTVSPost2010PropOp51
 70
     0
102
RTVSPost2010Prop52
140
1.0
102
RTVSPost2010PropOp52
 70
     0
102
RTVSPost2010Prop53
 90
        2
102
RTVSPost2010PropOp53
 70
     1
102
RTVSPost2010Prop54
  1
strokes_ogs.tif
102
RTVSPost2010PropOp54
 70
     1
102
RTVSPost2010Prop55
280
     0
102
RTVSPost2010PropOp55
 70
     1
102
RTVSPost2010Prop56
140
1.0
102
RTVSPost2010PropOp56
 70
     1
102
RTVSPost2010Prop57
140
1.0
102
RTVSPost2010PropOp57
 70
     1
  0
XRECORD
  5
3D3
102
{ACAD_REACTORS
330
3D2
102
}
330
3D2
100
AcDbXrecord
280
     1
102
RTVSPropertyOp0
 70
     1
102
RTVSPropertyOp1
 70
     1
102
RTVSPropertyOp2
 70
     1
102
RTVSPropertyOp3
 70
     1
102
RTVSPropertyOp4
 70
     1
102
RTVSPropertyOp5
 70
     1
102
RTVSPropertyOp6
 70
     1
102
RTVSPropertyOp7
 70
     1
102
RTVSPropertyOp8
 70
     1
102
RTVSPropertyOp9
 70
     1
102
RTVSPropertyOp10
 70
     1
102
RTVSPropertyOp11
 70
     1
102
RTVSPropertyOp12
 70
     1
102
RTVSPropertyOp13
 70
     1
102
RTVSPropertyOp14
 70
     1
102
RTVSPropertyOp15
 70
     1
102
RTVSPropertyOp16
 70
     1
102
RTVSPropertyOp17
 70
     1
102
RTVSPropertyOp18
 70
     1
102
RTVSPropertyOp19
 70
     1
102
RTVSPropertyOp20
 70
     1
102
RTVSPropertyOp21
 70
     1
102
RTVSPropertyOp22
 70
     1
102
RTVSPropertyOp23
 70
     1
102
RTVSPropertyOp24
 70
     1
102
RTVSPropertyOp25
 70
     1
102
RTVSPropertyOp26
 70
     1
102
RTVSPropertyOp27
 70
     1
102
RTVSPropertyOp28
 70
     1
102
RTVSPropertyOp29
 70
     1
102
RTVSPropertyOp30
 70
     1
102
RTVSPropertyOp31
 70
     1
102
RTVSPropertyOp32
 70
     1
102
RTVSPropertyOp33
 70
     1
102
RTVSPropertyOp34
 70
     1
102
RTVSPropertyOp35
 70
     1
102
RTVSPropertyOp36
 70
     1
102
RTVSPropertyOp37
 70
     1
102
RTVSPropertyOp38
 70
     1
102
RTVSPropertyOp39
 70
     1
102
RTVSPropertyOp40
 70
     1
102
RTVSPropertyOp41
 70
     1
102
RTVSPropertyOp42
 70
     1
102
RTVSPropertyOp43
 70
     1
102
RTVSPropertyOp44
 70
     1
102
RTVSPropertyOp45
 70
     1
102
RTVSPropertyOp46
 70
     1
102
RTVSPropertyOp47
 70
     1
102
RTVSPropertyOp48
 70
     1
102
RTVSPropertyOp49
 70
     1
102
RTVSPropertyOp50
 70
     1
102
RTVSPropertyOp51
 70
     0
102
RTVSPropertyOp52
 70
     0
102
RTVSPropertyOp53
 70
     1
102
RTVSPropertyOp54
 70
     1
102
RTVSPropertyOp55
 70
     1
102
RTVSPropertyOp56
 70
     1
102
RTVSPropertyOp57
 70
     1
102
RTVSPost2010Prop28
280
     0
102
RTVSPost2010PropOp28
 70
     1
102
RTVSPost2010Prop29
280
     1
102
RTVSPost2010PropOp29
 70
     1
102
RTVSPost2010Prop30
280
     1
102
RTVSPost2010PropOp30
 70
     1
102
RTVSPost2010Prop31
280
     0
102
RTVSPost2010PropOp31
 70
     1
102
RTVSPost2010Prop32
280
     0
102
RTVSPost2010PropOp32
 70
     1
102
RTVSPost2010Prop33
280
     0
102
RTVSPost2010PropOp33
 70
     1
102
RTVSPost2010Prop34
280
     0
102
RTVSPost2010PropOp34
 70
     1
102
RTVSPost2010Prop35
280
     0
102
RTVSPost2010PropOp35
 70
     1
102
RTVSPost2010Prop36
280
     0
102
RTVSPost2010PropOp36
 70
     1
102
RTVSPost2010Prop37
 90
       50
102
RTVSPost2010PropOp37
 70
     1
102
RTVSPost2010Prop38
140
0.0
102
RTVSPost2010PropOp38
 70
     1
102
RTVSPost2010Prop39
140
1.0
102
RTVSPost2010PropOp39
 70
     1
102
RTVSPost2010Prop40
 90
        0
102
RTVSPost2010PropOp40
 70
     1
102
RTVSPost2010Prop41ColorIndex
 90
       18
102
RTVSPost2010Prop41ColorRGB
 90
        0
102
RTVSPost2010PropOp41
 70
     1
102
RTVSPost2010Prop42
 90
       50
102
RTVSPost2010PropOp42
 70
     1
102
RTVSPost2010Prop43
 90
        3
102
RTVSPost2010PropOp43
 70
     1
102
RTVSPost2010Prop44ColorIndex
 90
        5
102
RTVSPost2010Prop44ColorRGB
 90
      255
102
RTVSPost2010PropOp44
 70
     1
102
RTVSPost2010Prop45
280
     0
102
RTVSPost2010PropOp45
 70
     1
102
RTVSPost2010Prop46
 90
       50
102
RTVSPost2010PropOp46
 70
     1
102
RTVSPost2010Prop47
 90
       50
102
RTVSPost2010PropOp47
 70
     1
102
RTVSPost2010Prop48
 90
       50
102
RTVSPost2010PropOp48
 70
     1
102
RTVSPost2010Prop49
280
     0
102
RTVSPost2010PropOp49
 70
     1
102
RTVSPost2010Prop50
 90
       50
102
RTVSPost2010PropOp50
 70
     1
102
RTVSPost2010Prop51ColorIndex
 90
      256
102
RTVSPost2010Prop51ColorRGB
 90
-16777216
102
RTVSPost2010PropOp51
 70
     0
102
RTVSPost2010Prop52
140
1.0
102
RTVSPost2010PropOp52
 70
     0
102
RTVSPost2010Prop53
 90
        2
102
RTVSPost2010PropOp53
 70
     1
102
RTVSPost2010Prop54
  1
strokes_ogs.tif
102
RTVSPost2010PropOp54
 70
     1
102
RTVSPost2010Prop55
280
     0
102
RTVSPost2010PropOp55
 70
     1
102
RTVSPost2010Prop56
140
1.0
102
RTVSPost2010PropOp56
 70
     1
102
RTVSPost2010Prop57
140
1.0
102
RTVSPost2010PropOp57
 70
     1
  0
XRECORD
  5
3D1
102
{ACAD_REACTORS
330
3D0
102
}
330
3D0
100
AcDbXrecord
280
     1
102
RTVSPropertyOp0
 70
     1
102
RTVSPropertyOp1
 70
     1
102
RTVSPropertyOp2
 70
     1
102
RTVSPropertyOp3
 70
     1
102
RTVSPropertyOp4
 70
     1
102
RTVSPropertyOp5
 70
     1
102
RTVSPropertyOp6
 70
     1
102
RTVSPropertyOp7
 70
     1
102
RTVSPropertyOp8
 70
     1
102
RTVSPropertyOp9
 70
     1
102
RTVSPropertyOp10
 70
     1
102
RTVSPropertyOp11
 70
     1
102
RTVSPropertyOp12
 70
     1
102
RTVSPropertyOp13
 70
     1
102
RTVSPropertyOp14
 70
     1
102
RTVSPropertyOp15
 70
     1
102
RTVSPropertyOp16
 70
     1
102
RTVSPropertyOp17
 70
     1
102
RTVSPropertyOp18
 70
     1
102
RTVSPropertyOp19
 70
     1
102
RTVSPropertyOp20
 70
     1
102
RTVSPropertyOp21
 70
     1
102
RTVSPropertyOp22
 70
     1
102
RTVSPropertyOp23
 70
     1
102
RTVSPropertyOp24
 70
     1
102
RTVSPropertyOp25
 70
     1
102
RTVSPropertyOp26
 70
     1
102
RTVSPropertyOp27
 70
     1
102
RTVSPropertyOp28
 70
     1
102
RTVSPropertyOp29
 70
     1
102
RTVSPropertyOp30
 70
     1
102
RTVSPropertyOp31
 70
     1
102
RTVSPropertyOp32
 70
     1
102
RTVSPropertyOp33
 70
     1
102
RTVSPropertyOp34
 70
     1
102
RTVSPropertyOp35
 70
     1
102
RTVSPropertyOp36
 70
     1
102
RTVSPropertyOp37
 70
     1
102
RTVSPropertyOp38
 70
     1
102
RTVSPropertyOp39
 70
     1
102
RTVSPropertyOp40
 70
     1
102
RTVSPropertyOp41
 70
     1
102
RTVSPropertyOp42
 70
     1
102
RTVSPropertyOp43
 70
     1
102
RTVSPropertyOp44
 70
     1
102
RTVSPropertyOp45
 70
     1
102
RTVSPropertyOp46
 70
     1
102
RTVSPropertyOp47
 70
     1
102
RTVSPropertyOp48
 70
     1
102
RTVSPropertyOp49
 70
     1
102
RTVSPropertyOp50
 70
     1
102
RTVSPropertyOp51
 70
     0
102
RTVSPropertyOp52
 70
     0
102
RTVSPropertyOp53
 70
     1
102
RTVSPropertyOp54
 70
     1
102
RTVSPropertyOp55
 70
     1
102
RTVSPropertyOp56
 70
     1
102
RTVSPropertyOp57
 70
     1
102
RTVSPost2010Prop28
280
     0
102
RTVSPost2010PropOp28
 70
     1
102
RTVSPost2010Prop29
280
     1
102
RTVSPost2010PropOp29
 70
     1
102
RTVSPost2010Prop30
280
     1
102
RTVSPost2010PropOp30
 70
     1
102
RTVSPost2010Prop31
280
     0
102
RTVSPost2010PropOp31
 70
     1
102
RTVSPost2010Prop32
280
     0
102
RTVSPost2010PropOp32
 70
     1
102
RTVSPost2010Prop33
280
     0
102
RTVSPost2010PropOp33
 70
     1
102
RTVSPost2010Prop34
280
     0
102
RTVSPost2010PropOp34
 70
     1
102
RTVSPost2010Prop35
280
     0
102
RTVSPost2010PropOp35
 70
     1
102
RTVSPost2010Prop36
280
     0
102
RTVSPost2010PropOp36
 70
     1
102
RTVSPost2010Prop37
 90
       50
102
RTVSPost2010PropOp37
 70
     1
102
RTVSPost2010Prop38
140
0.0
102
RTVSPost2010PropOp38
 70
     1
102
RTVSPost2010Prop39
140
1.0
102
RTVSPost2010PropOp39
 70
     1
102
RTVSPost2010Prop40
 90
        0
102
RTVSPost2010PropOp40
 70
     1
102
RTVSPost2010Prop41ColorIndex
 90
       18
102
RTVSPost2010Prop41ColorRGB
 90
        0
102
RTVSPost2010PropOp41
 70
     1
102
RTVSPost2010Prop42
 90
       50
102
RTVSPost2010PropOp42
 70
     1
102
RTVSPost2010Prop43
 90
        3
102
RTVSPost2010PropOp43
 70
     1
102
RTVSPost2010Prop44ColorIndex
 90
        5
102
RTVSPost2010Prop44ColorRGB
 90
      255
102
RTVSPost2010PropOp44
 70
     1
102
RTVSPost2010Prop45
280
     0
102
RTVSPost2010PropOp45
 70
     1
102
RTVSPost2010Prop46
 90
       50
102
RTVSPost2010PropOp46
 70
     1
102
RTVSPost2010Prop47
 90
       50
102
RTVSPost2010PropOp47
 70
     1
102
RTVSPost2010Prop48
 90
       50
102
RTVSPost2010PropOp48
 70
     1
102
RTVSPost2010Prop49
280
     0
102
RTVSPost2010PropOp49
 70
     1
102
RTVSPost2010Prop50
 90
       50
102
RTVSPost2010PropOp50
 70
     1
102
RTVSPost2010Prop51ColorIndex
 90
      256
102
RTVSPost2010Prop51ColorRGB
 90
-16777216
102
RTVSPost2010PropOp51
 70
     0
102
RTVSPost2010Prop52
140
1.0
102
RTVSPost2010PropOp52
 70
     0
102
RTVSPost2010Prop53
 90
        2
102
RTVSPost2010PropOp53
 70
     1
102
RTVSPost2010Prop54
  1
strokes_ogs.tif
102
RTVSPost2010PropOp54
 70
     1
102
RTVSPost2010Prop55
280
     0
102
RTVSPost2010PropOp55
 70
     1
102
RTVSPost2010Prop56
140
1.0
102
RTVSPost2010PropOp56
 70
     1
102
RTVSPost2010Prop57
140
1.0
102
RTVSPost2010PropOp57
 70
     1
  0
XRECORD
  5
3CB
102
{ACAD_REACTORS
330
3CA
102
}
330
3CA
100
AcDbXrecord
280
     1
102
RTVSPropertyOp0
 70
     1
102
RTVSPropertyOp1
 70
     1
102
RTVSPropertyOp2
 70
     1
102
RTVSPropertyOp3
 70
     1
102
RTVSPropertyOp4
 70
     1
102
RTVSPropertyOp5
 70
     1
102
RTVSPropertyOp6
 70
     1
102
RTVSPropertyOp7
 70
     1
102
RTVSPropertyOp8
 70
     1
102
RTVSPropertyOp9
 70
     1
102
RTVSPropertyOp10
 70
     1
102
RTVSPropertyOp11
 70
     1
102
RTVSPropertyOp12
 70
     1
102
RTVSPropertyOp13
 70
     1
102
RTVSPropertyOp14
 70
     1
102
RTVSPropertyOp15
 70
     1
102
RTVSPropertyOp16
 70
     1
102
RTVSPropertyOp17
 70
     1
102
RTVSPropertyOp18
 70
     1
102
RTVSPropertyOp19
 70
     1
102
RTVSPropertyOp20
 70
     1
102
RTVSPropertyOp21
 70
     1
102
RTVSPropertyOp22
 70
     1
102
RTVSPropertyOp23
 70
     1
102
RTVSPropertyOp24
 70
     1
102
RTVSPropertyOp25
 70
     1
102
RTVSPropertyOp26
 70
     1
102
RTVSPropertyOp27
 70
     1
102
RTVSPropertyOp28
 70
     1
102
RTVSPropertyOp29
 70
     1
102
RTVSPropertyOp30
 70
     1
102
RTVSPropertyOp31
 70
     1
102
RTVSPropertyOp32
 70
     1
102
RTVSPropertyOp33
 70
     1
102
RTVSPropertyOp34
 70
     1
102
RTVSPropertyOp35
 70
     1
102
RTVSPropertyOp36
 70
     1
102
RTVSPropertyOp37
 70
     1
102
RTVSPropertyOp38
 70
     1
102
RTVSPropertyOp39
 70
     1
102
RTVSPropertyOp40
 70
     1
102
RTVSPropertyOp41
 70
     1
102
RTVSPropertyOp42
 70
     1
102
RTVSPropertyOp43
 70
     1
102
RTVSPropertyOp44
 70
     1
102
RTVSPropertyOp45
 70
     1
102
RTVSPropertyOp46
 70
     1
102
RTVSPropertyOp47
 70
     1
102
RTVSPropertyOp48
 70
     1
102
RTVSPropertyOp49
 70
     1
102
RTVSPropertyOp50
 70
     1
102
RTVSPropertyOp51
 70
     0
102
RTVSPropertyOp52
 70
     0
102
RTVSPropertyOp53
 70
     1
102
RTVSPropertyOp54
 70
     1
102
RTVSPropertyOp55
 70
     1
102
RTVSPropertyOp56
 70
     1
102
RTVSPropertyOp57
 70
     1
102
RTVSPost2010Prop28
280
     0
102
RTVSPost2010PropOp28
 70
     1
102
RTVSPost2010Prop29
280
     1
102
RTVSPost2010PropOp29
 70
     1
102
RTVSPost2010Prop30
280
     1
102
RTVSPost2010PropOp30
 70
     1
102
RTVSPost2010Prop31
280
     0
102
RTVSPost2010PropOp31
 70
     1
102
RTVSPost2010Prop32
280
     0
102
RTVSPost2010PropOp32
 70
     1
102
RTVSPost2010Prop33
280
     0
102
RTVSPost2010PropOp33
 70
     1
102
RTVSPost2010Prop34
280
     0
102
RTVSPost2010PropOp34
 70
     1
102
RTVSPost2010Prop35
280
     0
102
RTVSPost2010PropOp35
 70
     1
102
RTVSPost2010Prop36
280
     0
102
RTVSPost2010PropOp36
 70
     1
102
RTVSPost2010Prop37
 90
       50
102
RTVSPost2010PropOp37
 70
     1
102
RTVSPost2010Prop38
140
0.0
102
RTVSPost2010PropOp38
 70
     1
102
RTVSPost2010Prop39
140
1.0
102
RTVSPost2010PropOp39
 70
     1
102
RTVSPost2010Prop40
 90
        0
102
RTVSPost2010PropOp40
 70
     1
102
RTVSPost2010Prop41ColorIndex
 90
       18
102
RTVSPost2010Prop41ColorRGB
 90
        0
102
RTVSPost2010PropOp41
 70
     1
102
RTVSPost2010Prop42
 90
       50
102
RTVSPost2010PropOp42
 70
     1
102
RTVSPost2010Prop43
 90
        3
102
RTVSPost2010PropOp43
 70
     1
102
RTVSPost2010Prop44ColorIndex
 90
        5
102
RTVSPost2010Prop44ColorRGB
 90
      255
102
RTVSPost2010PropOp44
 70
     1
102
RTVSPost2010Prop45
280
     0
102
RTVSPost2010PropOp45
 70
     1
102
RTVSPost2010Prop46
 90
       50
102
RTVSPost2010PropOp46
 70
     1
102
RTVSPost2010Prop47
 90
       50
102
RTVSPost2010PropOp47
 70
     1
102
RTVSPost2010Prop48
 90
       50
102
RTVSPost2010PropOp48
 70
     1
102
RTVSPost2010Prop49
280
     0
102
RTVSPost2010PropOp49
 70
     1
102
RTVSPost2010Prop50
 90
       50
102
RTVSPost2010PropOp50
 70
     1
102
RTVSPost2010Prop51ColorIndex
 90
      256
102
RTVSPost2010Prop51ColorRGB
 90
-16777216
102
RTVSPost2010PropOp51
 70
     0
102
RTVSPost2010Prop52
140
1.0
102
RTVSPost2010PropOp52
 70
     0
102
RTVSPost2010Prop53
 90
        2
102
RTVSPost2010PropOp53
 70
     1
102
RTVSPost2010Prop54
  1
strokes_ogs.tif
102
RTVSPost2010PropOp54
 70
     1
102
RTVSPost2010Prop55
280
     0
102
RTVSPost2010PropOp55
 70
     1
102
RTVSPost2010Prop56
140
1.0
102
RTVSPost2010PropOp56
 70
     1
102
RTVSPost2010Prop57
140
1.0
102
RTVSPost2010PropOp57
 70
     1
  0
XRECORD
  5
3CD
102
{ACAD_REACTORS
330
3CC
102
}
330
3CC
100
AcDbXrecord
280
     1
102
RTVSPropertyOp0
 70
     1
102
RTVSPropertyOp1
 70
     1
102
RTVSPropertyOp2
 70
     1
102
RTVSPropertyOp3
 70
     1
102
RTVSPropertyOp4
 70
     1
102
RTVSPropertyOp5
 70
     1
102
RTVSPropertyOp6
 70
     1
102
RTVSPropertyOp7
 70
     1
102
RTVSPropertyOp8
 70
     1
102
RTVSPropertyOp9
 70
     1
102
RTVSPropertyOp10
 70
     1
102
RTVSPropertyOp11
 70
     1
102
RTVSPropertyOp12
 70
     1
102
RTVSPropertyOp13
 70
     1
102
RTVSPropertyOp14
 70
     1
102
RTVSPropertyOp15
 70
     1
102
RTVSPropertyOp16
 70
     1
102
RTVSPropertyOp17
 70
     1
102
RTVSPropertyOp18
 70
     1
102
RTVSPropertyOp19
 70
     1
102
RTVSPropertyOp20
 70
     1
102
RTVSPropertyOp21
 70
     1
102
RTVSPropertyOp22
 70
     1
102
RTVSPropertyOp23
 70
     1
102
RTVSPropertyOp24
 70
     1
102
RTVSPropertyOp25
 70
     1
102
RTVSPropertyOp26
 70
     1
102
RTVSPropertyOp27
 70
     1
102
RTVSPropertyOp28
 70
     1
102
RTVSPropertyOp29
 70
     1
102
RTVSPropertyOp30
 70
     1
102
RTVSPropertyOp31
 70
     1
102
RTVSPropertyOp32
 70
     1
102
RTVSPropertyOp33
 70
     1
102
RTVSPropertyOp34
 70
     1
102
RTVSPropertyOp35
 70
     1
102
RTVSPropertyOp36
 70
     1
102
RTVSPropertyOp37
 70
     1
102
RTVSPropertyOp38
 70
     1
102
RTVSPropertyOp39
 70
     1
102
RTVSPropertyOp40
 70
     1
102
RTVSPropertyOp41
 70
     1
102
RTVSPropertyOp42
 70
     1
102
RTVSPropertyOp43
 70
     1
102
RTVSPropertyOp44
 70
     1
102
RTVSPropertyOp45
 70
     1
102
RTVSPropertyOp46
 70
     1
102
RTVSPropertyOp47
 70
     1
102
RTVSPropertyOp48
 70
     1
102
RTVSPropertyOp49
 70
     1
102
RTVSPropertyOp50
 70
     1
102
RTVSPropertyOp51
 70
     0
102
RTVSPropertyOp52
 70
     0
102
RTVSPropertyOp53
 70
     1
102
RTVSPropertyOp54
 70
     1
102
RTVSPropertyOp55
 70
     1
102
RTVSPropertyOp56
 70
     1
102
RTVSPropertyOp57
 70
     1
102
RTVSPost2010Prop28
280
     0
102
RTVSPost2010PropOp28
 70
     1
102
RTVSPost2010Prop29
280
     1
102
RTVSPost2010PropOp29
 70
     1
102
RTVSPost2010Prop30
280
     1
102
RTVSPost2010PropOp30
 70
     1
102
RTVSPost2010Prop31
280
     0
102
RTVSPost2010PropOp31
 70
     1
102
RTVSPost2010Prop32
280
     0
102
RTVSPost2010PropOp32
 70
     1
102
RTVSPost2010Prop33
280
     0
102
RTVSPost2010PropOp33
 70
     1
102
RTVSPost2010Prop34
280
     0
102
RTVSPost2010PropOp34
 70
     1
102
RTVSPost2010Prop35
280
     0
102
RTVSPost2010PropOp35
 70
     1
102
RTVSPost2010Prop36
280
     0
102
RTVSPost2010PropOp36
 70
     1
102
RTVSPost2010Prop37
 90
       50
102
RTVSPost2010PropOp37
 70
     1
102
RTVSPost2010Prop38
140
0.0
102
RTVSPost2010PropOp38
 70
     1
102
RTVSPost2010Prop39
140
1.0
102
RTVSPost2010PropOp39
 70
     1
102
RTVSPost2010Prop40
 90
        0
102
RTVSPost2010PropOp40
 70
     1
102
RTVSPost2010Prop41ColorIndex
 90
       18
102
RTVSPost2010Prop41ColorRGB
 90
        0
102
RTVSPost2010PropOp41
 70
     1
102
RTVSPost2010Prop42
 90
       50
102
RTVSPost2010PropOp42
 70
     1
102
RTVSPost2010Prop43
 90
        3
102
RTVSPost2010PropOp43
 70
     1
102
RTVSPost2010Prop44ColorIndex
 90
        5
102
RTVSPost2010Prop44ColorRGB
 90
      255
102
RTVSPost2010PropOp44
 70
     1
102
RTVSPost2010Prop45
280
     0
102
RTVSPost2010PropOp45
 70
     1
102
RTVSPost2010Prop46
 90
       50
102
RTVSPost2010PropOp46
 70
     1
102
RTVSPost2010Prop47
 90
       50
102
RTVSPost2010PropOp47
 70
     1
102
RTVSPost2010Prop48
 90
       50
102
RTVSPost2010PropOp48
 70
     1
102
RTVSPost2010Prop49
280
     0
102
RTVSPost2010PropOp49
 70
     1
102
RTVSPost2010Prop50
 90
       50
102
RTVSPost2010PropOp50
 70
     1
102
RTVSPost2010Prop51ColorIndex
 90
      256
102
RTVSPost2010Prop51ColorRGB
 90
-16777216
102
RTVSPost2010PropOp51
 70
     0
102
RTVSPost2010Prop52
140
1.0
102
RTVSPost2010PropOp52
 70
     0
102
RTVSPost2010Prop53
 90
        2
102
RTVSPost2010PropOp53
 70
     1
102
RTVSPost2010Prop54
  1
strokes_ogs.tif
102
RTVSPost2010PropOp54
 70
     1
102
RTVSPost2010Prop55
280
     0
102
RTVSPost2010PropOp55
 70
     1
102
RTVSPost2010Prop56
140
1.0
102
RTVSPost2010PropOp56
 70
     1
102
RTVSPost2010Prop57
140
1.0
102
RTVSPost2010PropOp57
 70
     1
  0
XRECORD
  5
3BD
102
{ACAD_REACTORS
330
3BC
102
}
330
3BC
100
AcDbXrecord
280
     1
102
RTVSPropertyOp0
 70
     1
102
RTVSPropertyOp1
 70
     1
102
RTVSPropertyOp2
 70
     1
102
RTVSPropertyOp3
 70
     1
102
RTVSPropertyOp4
 70
     1
102
RTVSPropertyOp5
 70
     1
102
RTVSPropertyOp6
 70
     1
102
RTVSPropertyOp7
 70
     1
102
RTVSPropertyOp8
 70
     1
102
RTVSPropertyOp9
 70
     1
102
RTVSPropertyOp10
 70
     1
102
RTVSPropertyOp11
 70
     1
102
RTVSPropertyOp12
 70
     1
102
RTVSPropertyOp13
 70
     1
102
RTVSPropertyOp14
 70
     1
102
RTVSPropertyOp15
 70
     1
102
RTVSPropertyOp16
 70
     1
102
RTVSPropertyOp17
 70
     1
102
RTVSPropertyOp18
 70
     1
102
RTVSPropertyOp19
 70
     1
102
RTVSPropertyOp20
 70
     1
102
RTVSPropertyOp21
 70
     1
102
RTVSPropertyOp22
 70
     1
102
RTVSPropertyOp23
 70
     1
102
RTVSPropertyOp24
 70
     1
102
RTVSPropertyOp25
 70
     1
102
RTVSPropertyOp26
 70
     1
102
RTVSPropertyOp27
 70
     1
102
RTVSPropertyOp28
 70
     1
102
RTVSPropertyOp29
 70
     1
102
RTVSPropertyOp30
 70
     1
102
RTVSPropertyOp31
 70
     1
102
RTVSPropertyOp32
 70
     1
102
RTVSPropertyOp33
 70
     1
102
RTVSPropertyOp34
 70
     1
102
RTVSPropertyOp35
 70
     1
102
RTVSPropertyOp36
 70
     1
102
RTVSPropertyOp37
 70
     1
102
RTVSPropertyOp38
 70
     1
102
RTVSPropertyOp39
 70
     1
102
RTVSPropertyOp40
 70
     1
102
RTVSPropertyOp41
 70
     1
102
RTVSPropertyOp42
 70
     1
102
RTVSPropertyOp43
 70
     1
102
RTVSPropertyOp44
 70
     1
102
RTVSPropertyOp45
 70
     1
102
RTVSPropertyOp46
 70
     1
102
RTVSPropertyOp47
 70
     1
102
RTVSPropertyOp48
 70
     1
102
RTVSPropertyOp49
 70
     1
102
RTVSPropertyOp50
 70
     1
102
RTVSPropertyOp51
 70
     0
102
RTVSPropertyOp52
 70
     0
102
RTVSPropertyOp53
 70
     1
102
RTVSPropertyOp54
 70
     1
102
RTVSPropertyOp55
 70
     1
102
RTVSPropertyOp56
 70
     1
102
RTVSPropertyOp57
 70
     1
102
RTVSPost2010Prop28
280
     0
102
RTVSPost2010PropOp28
 70
     1
102
RTVSPost2010Prop29
280
     1
102
RTVSPost2010PropOp29
 70
     1
102
RTVSPost2010Prop30
280
     1
102
RTVSPost2010PropOp30
 70
     1
102
RTVSPost2010Prop31
280
     0
102
RTVSPost2010PropOp31
 70
     1
102
RTVSPost2010Prop32
280
     0
102
RTVSPost2010PropOp32
 70
     1
102
RTVSPost2010Prop33
280
     0
102
RTVSPost2010PropOp33
 70
     1
102
RTVSPost2010Prop34
280
     0
102
RTVSPost2010PropOp34
 70
     1
102
RTVSPost2010Prop35
280
     0
102
RTVSPost2010PropOp35
 70
     1
102
RTVSPost2010Prop36
280
     0
102
RTVSPost2010PropOp36
 70
     1
102
RTVSPost2010Prop37
 90
       50
102
RTVSPost2010PropOp37
 70
     1
102
RTVSPost2010Prop38
140
0.0
102
RTVSPost2010PropOp38
 70
     1
102
RTVSPost2010Prop39
140
1.0
102
RTVSPost2010PropOp39
 70
     1
102
RTVSPost2010Prop40
 90
        0
102
RTVSPost2010PropOp40
 70
     1
102
RTVSPost2010Prop41ColorIndex
 90
       18
102
RTVSPost2010Prop41ColorRGB
 90
        0
102
RTVSPost2010PropOp41
 70
     1
102
RTVSPost2010Prop42
 90
       50
102
RTVSPost2010PropOp42
 70
     1
102
RTVSPost2010Prop43
 90
        3
102
RTVSPost2010PropOp43
 70
     1
102
RTVSPost2010Prop44ColorIndex
 90
        5
102
RTVSPost2010Prop44ColorRGB
 90
      255
102
RTVSPost2010PropOp44
 70
     1
102
RTVSPost2010Prop45
280
     0
102
RTVSPost2010PropOp45
 70
     1
102
RTVSPost2010Prop46
 90
       50
102
RTVSPost2010PropOp46
 70
     1
102
RTVSPost2010Prop47
 90
       50
102
RTVSPost2010PropOp47
 70
     1
102
RTVSPost2010Prop48
 90
       50
102
RTVSPost2010PropOp48
 70
     1
102
RTVSPost2010Prop49
280
     0
102
RTVSPost2010PropOp49
 70
     1
102
RTVSPost2010Prop50
 90
       50
102
RTVSPost2010PropOp50
 70
     1
102
RTVSPost2010Prop51ColorIndex
 90
      256
102
RTVSPost2010Prop51ColorRGB
 90
-16777216
102
RTVSPost2010PropOp51
 70
     0
102
RTVSPost2010Prop52
140
1.0
102
RTVSPost2010PropOp52
 70
     0
102
RTVSPost2010Prop53
 90
        2
102
RTVSPost2010PropOp53
 70
     1
102
RTVSPost2010Prop54
  1
strokes_ogs.tif
102
RTVSPost2010PropOp54
 70
     1
102
RTVSPost2010Prop55
280
     0
102
RTVSPost2010PropOp55
 70
     1
102
RTVSPost2010Prop56
140
1.0
102
RTVSPost2010PropOp56
 70
     1
102
RTVSPost2010Prop57
140
1.0
102
RTVSPost2010PropOp57
 70
     1
  0
XRECORD
  5
3AF
102
{ACAD_REACTORS
330
3AE
102
}
330
3AE
100
AcDbXrecord
280
     1
102
RTVSPropertyOp0
 70
     1
102
RTVSPropertyOp1
 70
     1
102
RTVSPropertyOp2
 70
     1
102
RTVSPropertyOp3
 70
     1
102
RTVSPropertyOp4
 70
     1
102
RTVSPropertyOp5
 70
     1
102
RTVSPropertyOp6
 70
     1
102
RTVSPropertyOp7
 70
     1
102
RTVSPropertyOp8
 70
     1
102
RTVSPropertyOp9
 70
     1
102
RTVSPropertyOp10
 70
     1
102
RTVSPropertyOp11
 70
     1
102
RTVSPropertyOp12
 70
     1
102
RTVSPropertyOp13
 70
     1
102
RTVSPropertyOp14
 70
     1
102
RTVSPropertyOp15
 70
     1
102
RTVSPropertyOp16
 70
     1
102
RTVSPropertyOp17
 70
     1
102
RTVSPropertyOp18
 70
     1
102
RTVSPropertyOp19
 70
     1
102
RTVSPropertyOp20
 70
     1
102
RTVSPropertyOp21
 70
     1
102
RTVSPropertyOp22
 70
     1
102
RTVSPropertyOp23
 70
     1
102
RTVSPropertyOp24
 70
     1
102
RTVSPropertyOp25
 70
     1
102
RTVSPropertyOp26
 70
     1
102
RTVSPropertyOp27
 70
     1
102
RTVSPropertyOp28
 70
     1
102
RTVSPropertyOp29
 70
     1
102
RTVSPropertyOp30
 70
     1
102
RTVSPropertyOp31
 70
     1
102
RTVSPropertyOp32
 70
     1
102
RTVSPropertyOp33
 70
     1
102
RTVSPropertyOp34
 70
     1
102
RTVSPropertyOp35
 70
     1
102
RTVSPropertyOp36
 70
     1
102
RTVSPropertyOp37
 70
     1
102
RTVSPropertyOp38
 70
     1
102
RTVSPropertyOp39
 70
     1
102
RTVSPropertyOp40
 70
     1
102
RTVSPropertyOp41
 70
     1
102
RTVSPropertyOp42
 70
     1
102
RTVSPropertyOp43
 70
     1
102
RTVSPropertyOp44
 70
     1
102
RTVSPropertyOp45
 70
     1
102
RTVSPropertyOp46
 70
     1
102
RTVSPropertyOp47
 70
     1
102
RTVSPropertyOp48
 70
     1
102
RTVSPropertyOp49
 70
     1
102
RTVSPropertyOp50
 70
     1
102
RTVSPropertyOp51
 70
     0
102
RTVSPropertyOp52
 70
     0
102
RTVSPropertyOp53
 70
     1
102
RTVSPropertyOp54
 70
     1
102
RTVSPropertyOp55
 70
     1
102
RTVSPropertyOp56
 70
     1
102
RTVSPropertyOp57
 70
     1
102
RTVSPost2010Prop28
280
     0
102
RTVSPost2010PropOp28
 70
     1
102
RTVSPost2010Prop29
280
     1
102
RTVSPost2010PropOp29
 70
     1
102
RTVSPost2010Prop30
280
     1
102
RTVSPost2010PropOp30
 70
     1
102
RTVSPost2010Prop31
280
     0
102
RTVSPost2010PropOp31
 70
     1
102
RTVSPost2010Prop32
280
     0
102
RTVSPost2010PropOp32
 70
     1
102
RTVSPost2010Prop33
280
     0
102
RTVSPost2010PropOp33
 70
     1
102
RTVSPost2010Prop34
280
     0
102
RTVSPost2010PropOp34
 70
     1
102
RTVSPost2010Prop35
280
     0
102
RTVSPost2010PropOp35
 70
     1
102
RTVSPost2010Prop36
280
     0
102
RTVSPost2010PropOp36
 70
     1
102
RTVSPost2010Prop37
 90
       50
102
RTVSPost2010PropOp37
 70
     1
102
RTVSPost2010Prop38
140
0.0
102
RTVSPost2010PropOp38
 70
     1
102
RTVSPost2010Prop39
140
1.0
102
RTVSPost2010PropOp39
 70
     1
102
RTVSPost2010Prop40
 90
        0
102
RTVSPost2010PropOp40
 70
     1
102
RTVSPost2010Prop41ColorIndex
 90
       18
102
RTVSPost2010Prop41ColorRGB
 90
        0
102
RTVSPost2010PropOp41
 70
     1
102
RTVSPost2010Prop42
 90
       50
102
RTVSPost2010PropOp42
 70
     1
102
RTVSPost2010Prop43
 90
        3
102
RTVSPost2010PropOp43
 70
     1
102
RTVSPost2010Prop44ColorIndex
 90
        5
102
RTVSPost2010Prop44ColorRGB
 90
      255
102
RTVSPost2010PropOp44
 70
     1
102
RTVSPost2010Prop45
280
     0
102
RTVSPost2010PropOp45
 70
     1
102
RTVSPost2010Prop46
 90
       50
102
RTVSPost2010PropOp46
 70
     1
102
RTVSPost2010Prop47
 90
       50
102
RTVSPost2010PropOp47
 70
     1
102
RTVSPost2010Prop48
 90
       50
102
RTVSPost2010PropOp48
 70
     1
102
RTVSPost2010Prop49
280
     0
102
RTVSPost2010PropOp49
 70
     1
102
RTVSPost2010Prop50
 90
       50
102
RTVSPost2010PropOp50
 70
     1
102
RTVSPost2010Prop51ColorIndex
 90
      256
102
RTVSPost2010Prop51ColorRGB
 90
-16777216
102
RTVSPost2010PropOp51
 70
     0
102
RTVSPost2010Prop52
140
1.0
102
RTVSPost2010PropOp52
 70
     0
102
RTVSPost2010Prop53
 90
        2
102
RTVSPost2010PropOp53
 70
     1
102
RTVSPost2010Prop54
  1
strokes_ogs.tif
102
RTVSPost2010PropOp54
 70
     1
102
RTVSPost2010Prop55
280
     0
102
RTVSPost2010PropOp55
 70
     1
102
RTVSPost2010Prop56
140
1.0
102
RTVSPost2010PropOp56
 70
     1
102
RTVSPost2010Prop57
140
1.0
102
RTVSPost2010PropOp57
 70
     1
  0
XRECORD
  5
3CF
102
{ACAD_REACTORS
330
3CE
102
}
330
3CE
100
AcDbXrecord
280
     1
102
RTVSPropertyOp0
 70
     1
102
RTVSPropertyOp1
 70
     1
102
RTVSPropertyOp2
 70
     1
102
RTVSPropertyOp3
 70
     1
102
RTVSPropertyOp4
 70
     1
102
RTVSPropertyOp5
 70
     1
102
RTVSPropertyOp6
 70
     1
102
RTVSPropertyOp7
 70
     1
102
RTVSPropertyOp8
 70
     1
102
RTVSPropertyOp9
 70
     1
102
RTVSPropertyOp10
 70
     1
102
RTVSPropertyOp11
 70
     1
102
RTVSPropertyOp12
 70
     1
102
RTVSPropertyOp13
 70
     1
102
RTVSPropertyOp14
 70
     1
102
RTVSPropertyOp15
 70
     1
102
RTVSPropertyOp16
 70
     1
102
RTVSPropertyOp17
 70
     1
102
RTVSPropertyOp18
 70
     1
102
RTVSPropertyOp19
 70
     1
102
RTVSPropertyOp20
 70
     1
102
RTVSPropertyOp21
 70
     1
102
RTVSPropertyOp22
 70
     1
102
RTVSPropertyOp23
 70
     1
102
RTVSPropertyOp24
 70
     1
102
RTVSPropertyOp25
 70
     1
102
RTVSPropertyOp26
 70
     1
102
RTVSPropertyOp27
 70
     1
102
RTVSPropertyOp28
 70
     1
102
RTVSPropertyOp29
 70
     1
102
RTVSPropertyOp30
 70
     1
102
RTVSPropertyOp31
 70
     1
102
RTVSPropertyOp32
 70
     1
102
RTVSPropertyOp33
 70
     1
102
RTVSPropertyOp34
 70
     1
102
RTVSPropertyOp35
 70
     1
102
RTVSPropertyOp36
 70
     1
102
RTVSPropertyOp37
 70
     1
102
RTVSPropertyOp38
 70
     1
102
RTVSPropertyOp39
 70
     1
102
RTVSPropertyOp40
 70
     1
102
RTVSPropertyOp41
 70
     1
102
RTVSPropertyOp42
 70
     1
102
RTVSPropertyOp43
 70
     1
102
RTVSPropertyOp44
 70
     1
102
RTVSPropertyOp45
 70
     1
102
RTVSPropertyOp46
 70
     1
102
RTVSPropertyOp47
 70
     1
102
RTVSPropertyOp48
 70
     1
102
RTVSPropertyOp49
 70
     1
102
RTVSPropertyOp50
 70
     1
102
RTVSPropertyOp51
 70
     0
102
RTVSPropertyOp52
 70
     0
102
RTVSPropertyOp53
 70
     1
102
RTVSPropertyOp54
 70
     1
102
RTVSPropertyOp55
 70
     1
102
RTVSPropertyOp56
 70
     1
102
RTVSPropertyOp57
 70
     1
102
RTVSPost2010Prop28
280
     0
102
RTVSPost2010PropOp28
 70
     1
102
RTVSPost2010Prop29
280
     1
102
RTVSPost2010PropOp29
 70
     1
102
RTVSPost2010Prop30
280
     1
102
RTVSPost2010PropOp30
 70
     1
102
RTVSPost2010Prop31
280
     0
102
RTVSPost2010PropOp31
 70
     1
102
RTVSPost2010Prop32
280
     0
102
RTVSPost2010PropOp32
 70
     1
102
RTVSPost2010Prop33
280
     0
102
RTVSPost2010PropOp33
 70
     1
102
RTVSPost2010Prop34
280
     0
102
RTVSPost2010PropOp34
 70
     1
102
RTVSPost2010Prop35
280
     0
102
RTVSPost2010PropOp35
 70
     1
102
RTVSPost2010Prop36
280
     0
102
RTVSPost2010PropOp36
 70
     1
102
RTVSPost2010Prop37
 90
       50
102
RTVSPost2010PropOp37
 70
     1
102
RTVSPost2010Prop38
140
0.0
102
RTVSPost2010PropOp38
 70
     1
102
RTVSPost2010Prop39
140
1.0
102
RTVSPost2010PropOp39
 70
     1
102
RTVSPost2010Prop40
 90
        0
102
RTVSPost2010PropOp40
 70
     1
102
RTVSPost2010Prop41ColorIndex
 90
       18
102
RTVSPost2010Prop41ColorRGB
 90
        0
102
RTVSPost2010PropOp41
 70
     1
102
RTVSPost2010Prop42
 90
       50
102
RTVSPost2010PropOp42
 70
     1
102
RTVSPost2010Prop43
 90
        3
102
RTVSPost2010PropOp43
 70
     1
102
RTVSPost2010Prop44ColorIndex
 90
        5
102
RTVSPost2010Prop44ColorRGB
 90
      255
102
RTVSPost2010PropOp44
 70
     1
102
RTVSPost2010Prop45
280
     0
102
RTVSPost2010PropOp45
 70
     1
102
RTVSPost2010Prop46
 90
       50
102
RTVSPost2010PropOp46
 70
     1
102
RTVSPost2010Prop47
 90
       50
102
RTVSPost2010PropOp47
 70
     1
102
RTVSPost2010Prop48
 90
       50
102
RTVSPost2010PropOp48
 70
     1
102
RTVSPost2010Prop49
280
     0
102
RTVSPost2010PropOp49
 70
     1
102
RTVSPost2010Prop50
 90
       50
102
RTVSPost2010PropOp50
 70
     1
102
RTVSPost2010Prop51ColorIndex
 90
      256
102
RTVSPost2010Prop51ColorRGB
 90
-16777216
102
RTVSPost2010PropOp51
 70
     0
102
RTVSPost2010Prop52
140
1.0
102
RTVSPost2010PropOp52
 70
     0
102
RTVSPost2010Prop53
 90
        2
102
RTVSPost2010PropOp53
 70
     1
102
RTVSPost2010Prop54
  1
strokes_ogs.tif
102
RTVSPost2010PropOp54
 70
     1
102
RTVSPost2010Prop55
280
     0
102
RTVSPost2010PropOp55
 70
     1
102
RTVSPost2010Prop56
140
1.0
102
RTVSPost2010PropOp56
 70
     1
102
RTVSPost2010Prop57
140
1.0
102
RTVSPost2010PropOp57
 70
     1
  0
ENDSEC
  0
EOF
