  0
SECTION
  2
HEADER
  9
$ACADVER
  1
AC1018
  9
$ACADMAINTVER
 70
     0
  9
$DWGCODEPAGE
  3
ANSI_932
  9
$INSBASE
 10
0.0
 20
0.0
 30
0.0
  9
$EXTMIN
 10
-2100.0
 20
-1485.0
 30
0.0
  9
$EXTMAX
 10
2100.0
 20
1485.0
 30
0.0
  9
$LIMMIN
 10
-2100.0
 20
-1485.0
  9
$LIMMAX
 10
2100.0
 20
1485.0
  9
$ORTHOMODE
 70
     0
  9
$REGENMODE
 70
     1
  9
$FILLMODE
 70
     1
  9
$QTEXTMODE
 70
     0
  9
$MIRRTEXT
 70
     1
  9
$LTSCALE
 40
10.0
  9
$ATTMODE
 70
     1
  9
$TEXTSIZE
 40
2.5
  9
$TRACEWID
 40
1.0
  9
$TEXTSTYLE
  7
Standard
  9
$CLAYER
  8
0
  9
$CELTYPE
  6
ByLayer
  9
$CECOLOR
 62
   256
  9
$CELTSCALE
 40
1.0
  9
$DISPSILH
 70
     0
  9
$DIMSCALE
 40
1.0
  9
$DIMASZ
 40
2.5
  9
$DIMEXO
 40
0.625
  9
$DIMDLI
 40
3.75
  9
$DIMRND
 40
0.0
  9
$DIMDLE
 40
0.0
  9
$DIMEXE
 40
1.25
  9
$DIMTP
 40
0.0
  9
$DIMTM
 40
0.0
  9
$DIMTXT
 40
2.5
  9
$DIMCEN
 40
2.5
  9
$DIMTSZ
 40
0.0
  9
$DIMTOL
 70
     0
  9
$DIMLIM
 70
     0
  9
$DIMTIH
 70
     0
  9
$DIMTOH
 70
     0
  9
$DIMSE1
 70
     0
  9
$DIMSE2
 70
     0
  9
$DIMTAD
 70
     1
  9
$DIMZIN
 70
     8
  9
$DIMBLK
  1

  9
$DIMASO
 70
     1
  9
$DIMSHO
 70
     1
  9
$DIMPOST
  1

  9
$DIMAPOST
  1

  9
$DIMALT
 70
     0
  9
$DIMALTD
 70
     3
  9
$DIMALTF
 40
0.03937007874016
  9
$DIMLFAC
 40
1.0
  9
$DIMTOFL
 70
     1
  9
$DIMTVP
 40
0.0
  9
$DIMTIX
 70
     0
  9
$DIMSOXD
 70
     0
  9
$DIMSAH
 70
     0
  9
$DIMBLK1
  1

  9
$DIMBLK2
  1

  9
$DIMSTYLE
  2
ISO-25
  9
$DIMCLRD
 70
     0
  9
$DIMCLRE
 70
     0
  9
$DIMCLRT
 70
     0
  9
$DIMTFAC
 40
1.0
  9
$DIMGAP
 40
0.625
  9
$DIMJUST
 70
     0
  9
$DIMSD1
 70
     0
  9
$DIMSD2
 70
     0
  9
$DIMTOLJ
 70
     0
  9
$DIMTZIN
 70
     8
  9
$DIMALTZ
 70
     0
  9
$DIMALTTZ
 70
     0
  9
$DIMUPT
 70
     0
  9
$DIMDEC
 70
     2
  9
$DIMTDEC
 70
     2
  9
$DIMALTU
 70
     2
  9
$DIMALTTD
 70
     3
  9
$DIMTXSTY
  7
Standard
  9
$DIMAUNIT
 70
     0
  9
$DIMADEC
 70
     0
  9
$DIMALTRND
 40
0.0
  9
$DIMAZIN
 70
     0
  9
$DIMDSEP
 70
    44
  9
$DIMATFIT
 70
     3
  9
$DIMFRAC
 70
     0
  9
$DIMLDRBLK
  1

  9
$DIMLUNIT
 70
     2
  9
$DIMLWD
 70
    -2
  9
$DIMLWE
 70
    -2
  9
$DIMTMOVE
 70
     0
  9
$LUNITS
 70
     2
  9
$LUPREC
 70
     4
  9
$SKETCHINC
 40
1.0
  9
$FILLETRAD
 40
10.0
  9
$AUNITS
 70
     0
  9
$AUPREC
 70
     0
  9
$MENU
  1
.
  9
$ELEVATION
 40
0.0
  9
$PELEVATION
 40
0.0
  9
$THICKNESS
 40
0.0
  9
$LIMCHECK
 70
     0
  9
$CHAMFERA
 40
10.0
  9
$CHAMFERB
 40
10.0
  9
$CHAMFERC
 40
20.0
  9
$CHAMFERD
 40
0.0
  9
$SKPOLY
 70
     0
  9
$TDCREATE
 40
2456499.588080428
  9
$TDUCREATE
 40
2456499.213080428
  9
$TDUPDATE
 40
2456499.58808044
  9
$TDUUPDATE
 40
2456499.21308044
  9
$TDINDWG
 40
0.0000000116
  9
$TDUSRTIMER
 40
0.0000000116
  9
$USRTIMER
 70
     1
  9
$ANGBASE
 50
0.0
  9
$ANGDIR
 70
     0
  9
$PDMODE
 70
     0
  9
$PDSIZE
 40
0.0
  9
$PLINEWID
 40
0.0
  9
$SPLFRAME
 70
     0
  9
$SPLINETYPE
 70
     6
  9
$SPLINESEGS
 70
     8
  9
$HANDSEED
  5
301
  9
$SURFTAB1
 70
     6
  9
$SURFTAB2
 70
     6
  9
$SURFTYPE
 70
     6
  9
$SURFU
 70
     6
  9
$SURFV
 70
     6
  9
$UCSBASE
  2

  9
$UCSNAME
  2

  9
$UCSORG
 10
0.0
 20
0.0
 30
0.0
  9
$UCSXDIR
 10
1.0
 20
0.0
 30
0.0
  9
$UCSYDIR
 10
0.0
 20
1.0
 30
0.0
  9
$UCSORTHOREF
  2

  9
$UCSORTHOVIEW
 70
     0
  9
$UCSORGTOP
 10
0.0
 20
0.0
 30
0.0
  9
$UCSORGBOTTOM
 10
0.0
 20
0.0
 30
0.0
  9
$UCSORGLEFT
 10
0.0
 20
0.0
 30
0.0
  9
$UCSORGRIGHT
 10
0.0
 20
0.0
 30
0.0
  9
$UCSORGFRONT
 10
0.0
 20
0.0
 30
0.0
  9
$UCSORGBACK
 10
0.0
 20
0.0
 30
0.0
  9
$PUCSBASE
  2

  9
$PUCSNAME
  2

  9
$PUCSORG
 10
0.0
 20
0.0
 30
0.0
  9
$PUCSXDIR
 10
1.0
 20
0.0
 30
0.0
  9
$PUCSYDIR
 10
0.0
 20
1.0
 30
0.0
  9
$PUCSORTHOREF
  2

  9
$PUCSORTHOVIEW
 70
     0
  9
$PUCSORGTOP
 10
0.0
 20
0.0
 30
0.0
  9
$PUCSORGBOTTOM
 10
0.0
 20
0.0
 30
0.0
  9
$PUCSORGLEFT
 10
0.0
 20
0.0
 30
0.0
  9
$PUCSORGRIGHT
 10
0.0
 20
0.0
 30
0.0
  9
$PUCSORGFRONT
 10
0.0
 20
0.0
 30
0.0
  9
$PUCSORGBACK
 10
0.0
 20
0.0
 30
0.0
  9
$USERI1
 70
     0
  9
$USERI2
 70
     0
  9
$USERI3
 70
     0
  9
$USERI4
 70
     0
  9
$USERI5
 70
     0
  9
$USERR1
 40
0.0
  9
$USERR2
 40
0.0
  9
$USERR3
 40
0.0
  9
$USERR4
 40
0.0
  9
$USERR5
 40
0.0
  9
$WORLDVIEW
 70
     1
  9
$SHADEDGE
 70
     3
  9
$SHADEDIF
 70
    70
  9
$TILEMODE
 70
     1
  9
$MAXACTVP
 70
    64
  9
$PINSBASE
 10
0.0
 20
0.0
 30
0.0
  9
$PLIMCHECK
 70
     0
  9
$PEXTMIN
 10
1.000000000000000E+20
 20
1.000000000000000E+20
 30
1.000000000000000E+20
  9
$PEXTMAX
 10
-1.000000000000000E+20
 20
-1.000000000000000E+20
 30
-1.000000000000000E+20
  9
$PLIMMIN
 10
0.0
 20
0.0
  9
$PLIMMAX
 10
420.0
 20
297.0
  9
$UNITMODE
 70
     0
  9
$VISRETAIN
 70
     1
  9
$PLINEGEN
 70
     0
  9
$PSLTSCALE
 70
     1
  9
$TREEDEPTH
 70
  3020
  9
$CMLSTYLE
  2
Standard
  9
$CMLJUST
 70
     0
  9
$CMLSCALE
 40
20.0
  9
$PROXYGRAPHICS
 70
     1
  9
$MEASUREMENT
 70
     1
  9
$CELWEIGHT
370
    -1
  9
$ENDCAPS
280
     0
  9
$JOINSTYLE
280
     0
  9
$LWDISPLAY
290
     0
  9
$INSUNITS
 70
     4
  9
$HYPERLINKBASE
  1

  9
$STYLESHEET
  1

  9
$XEDIT
290
     1
  9
$CEPSNTYPE
380
     0
  9
$PSTYLEMODE
290
     1
  9
$FINGERPRINTGUID
  2
{442F763B-4416-4F16-A72D-23D3CF12631D}
  9
$VERSIONGUID
  2
{FAEB1C32-E019-11D5-929B-00C0DF256EC4}
  9
$EXTNAMES
290
     1
  9
$PSVPSCALE
 40
0.0
  9
$OLESTARTUP
290
     0
  9
$SORTENTS
280
   127
  9
$INDEXCTL
280
     0
  9
$HIDETEXT
280
     1
  9
$XCLIPFRAME
290
     0
  9
$HALOGAP
280
     0
  9
$OBSCOLOR
 70
   257
  9
$OBSLTYPE
280
     0
  9
$INTERSECTIONDISPLAY
280
     0
  9
$INTERSECTIONCOLOR
 70
   257
  9
$DIMASSOC
280
     2
  9
$PROJECTNAME
  1

  0
ENDSEC
  0
SECTION
  2
CLASSES
  0
CLASS
  1
ACDBDICTIONARYWDFLT
  2
AcDbDictionaryWithDefault
  3
ObjectDBX Classes
 90
        0
 91
        4
280
     0
281
     0
  0
CLASS
  1
VISUALSTYLE
  2
AcDbVisualStyle
  3
ObjectDBX Classes
 90
     4095
 91
        4
280
     0
281
     0
  0
ENDSEC
  0
SECTION
  2
TABLES
  0
TABLE
  2
VPORT
  5
8
330
0
100
AcDbSymbolTable
 70
     1
  0
VPORT
  5
29
330
8
100
AcDbSymbolTableRecord
100
AcDbViewportTableRecord
  2
*Active
 70
     0
 10
0.0
 20
0.0
 11
1.0
 21
1.0
 12
0.0
 22
0.0
 13
0.0
 23
0.0
 14
10.0
 24
10.0
 15
10.0
 25
10.0
 16
0.0
 26
0.0
 36
1.0
 17
0.0
 27
0.0
 37
0.0
 40
3267.0
 41
1.414141414141414
 42
50.0
 43
0.0
 44
0.0
 50
0.0
 51
0.0
 71
     0
 72
 10000
 73
     1
 74
     3
 75
     0
 76
     0
 77
     0
 78
     0
281
     0
 65
     1
110
0.0
120
0.0
130
0.0
111
1.0
121
0.0
131
0.0
112
0.0
122
1.0
132
0.0
 79
     0
146
0.0
  0
ENDTAB
  0
TABLE
  2
LTYPE
  5
5
330
0
100
AcDbSymbolTable
 70
     3
  0
LTYPE
  5
14
330
5
100
AcDbSymbolTableRecord
100
AcDbLinetypeTableRecord
  2
ByBlock
 70
     0
  3

 72
    65
 73
     0
 40
0.0
  0
LTYPE
  5
15
330
5
100
AcDbSymbolTableRecord
100
AcDbLinetypeTableRecord
  2
ByLayer
 70
     0
  3

 72
    65
 73
     0
 40
0.0
  0
LTYPE
  5
16
330
5
100
AcDbSymbolTableRecord
100
AcDbLinetypeTableRecord
  2
Continuous
 70
     0
  3
Solid line
 72
    65
 73
     0
 40
0.0
  0
LTYPE
  5
3C
330
5
100
AcDbSymbolTableRecord
100
AcDbLinetypeTableRecord
  2
JWW_CENTER1
 70
     0
  3
-----  --  ----------  --  -----
 72
    65
 73
     4
 40
6.773333333333333
 49
4.233333333333333
 74
     0
 49
-0.8466666666666667
 74
     0
 49
0.8466666666666667
 74
     0
 49
-0.8466666666666667
 74
     0
  0
LTYPE
  5
3D
330
5
100
AcDbSymbolTableRecord
100
AcDbLinetypeTableRecord
  2
JWW_DASHED2
 70
     0
  3
--    ----    ----    ----    --
 72
    65
 73
     2
 40
1.354666666666667
 49
0.6773333333333333
 74
     0
 49
-0.6773333333333333
 74
     0
  0
ENDTAB
  0
TABLE
  2
LAYER
  5
2
330
0
100
AcDbSymbolTable
 70
    11
  0
LAYER
  5
10
330
2
100
AcDbSymbolTableRecord
100
AcDbLayerTableRecord
  2
0
 70
     0
 62
     7
  6
Continuous
370
    -3
390
F
  0
LAYER
  5
3E
330
2
100
AcDbSymbolTableRecord
100
AcDbLayerTableRecord
  2
A-4
 70
     0
 62
     7
  6
Continuous
370
    -3
390
F
  0
LAYER
  5
3F
330
2
100
AcDbSymbolTableRecord
100
AcDbLayerTableRecord
  2
0-8
 70
     0
 62
     7
  6
Continuous
370
    -3
390
F
  0
LAYER
  5
40
330
2
100
AcDbSymbolTableRecord
100
AcDbLayerTableRecord
  2
2-F
 70
     0
 62
     7
  6
Continuous
370
    -3
390
F
  0
LAYER
  5
41
330
2
100
AcDbSymbolTableRecord
100
AcDbLayerTableRecord
  2
F-5
 70
     0
 62
     7
  6
Continuous
370
    -3
390
F
  0
LAYER
  5
42
330
2
100
AcDbSymbolTableRecord
100
AcDbLayerTableRecord
  2
1-0
 70
     0
 62
     7
  6
Continuous
370
    -3
390
F
  0
LAYER
  5
43
330
2
100
AcDbSymbolTableRecord
100
AcDbLayerTableRecord
  2
1-F
 70
     0
 62
     7
  6
Continuous
370
    -3
390
F
  0
LAYER
  5
44
330
2
100
AcDbSymbolTableRecord
100
AcDbLayerTableRecord
  2
2-0
 70
     0
 62
     7
  6
Continuous
370
    -3
390
F
  0
LAYER
  5
45
330
2
100
AcDbSymbolTableRecord
100
AcDbLayerTableRecord
  2
0-0
 70
     0
 62
     7
  6
Continuous
370
    -3
390
F
  0
LAYER
  5
46
330
2
100
AcDbSymbolTableRecord
100
AcDbLayerTableRecord
  2
D-5
 70
     0
 62
     7
  6
Continuous
370
    -3
390
F
  0
LAYER
  5
47
330
2
100
AcDbSymbolTableRecord
100
AcDbLayerTableRecord
  2
A-5
 70
     0
 62
     7
  6
Continuous
370
    -3
390
F
  0
ENDTAB
  0
TABLE
  2
STYLE
  5
3
330
0
100
AcDbSymbolTable
 70
     2
  0
STYLE
  5
11
330
3
100
AcDbSymbolTableRecord
100
AcDbTextStyleTableRecord
  2
Standard
 70
     0
 40
0.0
 41
1.0
 50
0.0
 71
     0
 42
2.5
  3
txt
  4

1001
ACAD
1000

1071
        0
  0
STYLE
  5
3B
330
3
100
AcDbSymbolTableRecord
100
AcDbTextStyleTableRecord
  2
ＭＳ ゴシック
 70
     0
 40
1.0
 41
1.0
 50
0.0
 71
     0
 42
10.0
  3

  4

1001
ACAD
1000
MS Gothic
1071
    32817
  0
ENDTAB
  0
TABLE
  2
VIEW
  5
6
330
0
100
AcDbSymbolTable
 70
     0
  0
ENDTAB
  0
TABLE
  2
UCS
  5
7
330
0
100
AcDbSymbolTable
 70
     0
  0
ENDTAB
  0
TABLE
  2
APPID
  5
9
330
0
100
AcDbSymbolTable
 70
     1
  0
APPID
  5
12
330
9
100
AcDbSymbolTableRecord
100
AcDbRegAppTableRecord
  2
ACAD
 70
     0
  0
ENDTAB
  0
TABLE
  2
DIMSTYLE
  5
A
330
0
100
AcDbSymbolTable
 70
     1
100
AcDbDimStyleTable
  0
DIMSTYLE
105
27
330
A
100
AcDbSymbolTableRecord
100
AcDbDimStyleTableRecord
  2
ISO-25
 70
     0
 41
2.5
 42
0.625
 43
3.75
 44
1.25
 73
     0
 74
     0
 77
     1
 78
     8
140
2.5
141
2.5
143
0.03937007874016
147
0.625
171
     3
172
     1
271
     2
272
     2
274
     3
278
    44
283
     0
284
     8
340
11
  0
ENDTAB
  0
TABLE
  2
BLOCK_RECORD
  5
1
330
0
100
AcDbSymbolTable
 70
     1
  0
BLOCK_RECORD
  5
1F
330
1
100
AcDbSymbolTableRecord
100
AcDbBlockTableRecord
  2
*Model_Space
340
22
  0
BLOCK_RECORD
  5
1B
330
1
100
AcDbSymbolTableRecord
100
AcDbBlockTableRecord
  2
*Paper_Space
340
1E
  0
BLOCK_RECORD
  5
23
330
1
100
AcDbSymbolTableRecord
100
AcDbBlockTableRecord
  2
*Paper_Space0
340
26
  0
ENDTAB
  0
ENDSEC
  0
SECTION
  2
BLOCKS
  0
BLOCK
  5
20
330
1F
100
AcDbEntity
  8
0
100
AcDbBlockBegin
  2
*Model_Space
 70
     0
 10
0.0
 20
0.0
 30
0.0
  3
*Model_Space
  1

  0
ENDBLK
  5
21
330
1F
100
AcDbEntity
  8
0
100
AcDbBlockEnd
  0
BLOCK
  5
1C
330
1B
100
AcDbEntity
 67
     1
  8
0
100
AcDbBlockBegin
  2
*Paper_Space
 70
     0
 10
0.0
 20
0.0
 30
0.0
  3
*Paper_Space
  1

  0
ENDBLK
  5
1D
330
1B
100
AcDbEntity
 67
     1
  8
0
100
AcDbBlockEnd
  0
BLOCK
  5
24
330
23
100
AcDbEntity
  8
0
100
AcDbBlockBegin
  2
*Paper_Space0
 70
     0
 10
0.0
 20
0.0
 30
0.0
  3
*Paper_Space0
  1

  0
ENDBLK
  5
25
330
23
100
AcDbEntity
  8
0
100
AcDbBlockEnd
  0
ENDSEC
  0
SECTION
  2
ENTITIES
  0
TEXT
  5
48
330
1F
100
AcDbEntity
  8
A-4
  6
Continuous
 62
     2
370
   211
100
AcDbText
 10
247.7766666666666
 20
671.674722336701
 30
0.0
 40
30.48
  1
30
 50
90.0
 41
1.0625
  7
ＭＳ ゴシック
100
AcDbText
  0
LINE
  5
49
330
1F
100
AcDbEntity
  8
0-8
  6
Continuous
 62
     3
370
     9
100
AcDbLine
 10
78.88148810366538
 20
530.9246078074118
 30
0.0
 11
78.88148810366538
 21
554.9247803083168
 31
0.0
  0
LINE
  5
4A
330
1F
100
AcDbEntity
  8
2-F
  6
Continuous
 62
     7
370
     9
100
AcDbLine
 10
685.891119477627
 20
-84.04781025716515
 30
0.0
 11
611.9136610098119
 21
-84.04781025716515
 31
0.0
  0
LINE
  5
4B
330
1F
100
AcDbEntity
  8
A-4
  6
Continuous
 62
     7
370
     9
100
AcDbLine
 10
-481.118570810578
 20
858.7132343986013
 30
0.0
 11
-321.1204537097999
 21
858.7132343986013
 31
0.0
  0
LINE
  5
4C
330
1F
100
AcDbEntity
  8
A-4
  6
Continuous
 62
     7
370
     9
100
AcDbLine
 10
-481.118570810578
 20
858.7132343986013
 30
0.0
 11
-451.3752249693638
 21
862.6290201652029
 31
0.0
  0
LINE
  5
4D
330
1F
100
AcDbEntity
  8
A-4
  6
Continuous
 62
     7
370
     9
100
AcDbLine
 10
-481.118570810578
 20
858.7132343986013
 30
0.0
 11
-451.3752249693638
 21
854.7974486319998
 31
0.0
  0
LINE
  5
4E
330
1F
100
AcDbEntity
  8
A-4
  6
Continuous
 62
     7
370
     9
100
AcDbLine
 10
-321.1204537097999
 20
858.7132343986013
 30
0.0
 11
-161.1185571424737
 21
858.7132343986013
 31
0.0
  0
LINE
  5
4F
330
1F
100
AcDbEntity
  8
A-4
  6
Continuous
 62
     7
370
     9
100
AcDbLine
 10
-321.1204537097999
 20
858.7132343986013
 30
0.0
 11
-291.3771078685857
 21
862.6290201652029
 31
0.0
  0
LINE
  5
50
330
1F
100
AcDbEntity
  8
A-4
  6
Continuous
 62
     7
370
     9
100
AcDbLine
 10
-321.1204537097999
 20
858.7132343986013
 30
0.0
 11
-291.3771078685857
 21
854.7974486319998
 31
0.0
  0
LINE
  5
51
330
1F
100
AcDbEntity
  8
A-4
  6
Continuous
 62
     7
370
     9
100
AcDbLine
 10
-161.1185571424737
 20
858.7132343986013
 30
0.0
 11
-1.118620298542723
 21
858.7132343986013
 31
0.0
  0
LINE
  5
52
330
1F
100
AcDbEntity
  8
A-4
  6
Continuous
 62
     7
370
     9
100
AcDbLine
 10
-161.1185571424737
 20
858.7132343986013
 30
0.0
 11
-131.3752113012594
 21
862.6290201652029
 31
0.0
  0
LINE
  5
53
330
1F
100
AcDbEntity
  8
A-4
  6
Continuous
 62
     7
370
     9
100
AcDbLine
 10
-161.1185571424737
 20
858.7132343986013
 30
0.0
 11
-131.3752113012594
 21
854.7974486319998
 31
0.0
  0
LINE
  5
54
330
1F
100
AcDbEntity
  8
A-4
  6
Continuous
 62
     7
370
     9
100
AcDbLine
 10
177.8794350601083
 20
858.7132343986013
 30
0.0
 11
227.8794350601083
 21
858.7132343986013
 31
0.0
  0
LINE
  5
55
330
1F
100
AcDbEntity
  8
A-4
  6
Continuous
 62
     7
370
     9
100
AcDbLine
 10
137.8795208392469
 20
858.7132343986013
 30
0.0
 11
177.8794350601083
 21
858.7132343986013
 31
0.0
  0
LINE
  5
56
330
1F
100
AcDbEntity
  8
A-4
  6
Continuous
 62
     7
370
     9
100
AcDbLine
 10
-561.1183992523011
 20
412.1894833720557
 30
0.0
 11
-401.1183924182487
 21
412.1894833720557
 31
0.0
  0
LINE
  5
57
330
1F
100
AcDbEntity
  8
A-4
  6
Continuous
 62
     7
370
     9
100
AcDbLine
 10
-561.1183992523011
 20
412.1894833720557
 30
0.0
 11
-531.3750534110868
 21
416.1052691386573
 31
0.0
  0
LINE
  5
58
330
1F
100
AcDbEntity
  8
A-4
  6
Continuous
 62
     7
370
     9
100
AcDbLine
 10
-561.1183992523011
 20
412.1894833720557
 30
0.0
 11
-531.3750534110868
 21
408.2736976054542
 31
0.0
  0
LINE
  5
59
330
1F
100
AcDbEntity
  8
A-4
  6
Continuous
 62
     7
370
     9
100
AcDbLine
 10
-401.1183924182487
 20
412.1894833720557
 30
0.0
 11
-241.1183855841966
 21
412.1894833720557
 31
0.0
  0
LINE
  5
5A
330
1F
100
AcDbEntity
  8
A-4
  6
Continuous
 62
     7
370
     9
100
AcDbLine
 10
-401.1183924182487
 20
412.1894833720557
 30
0.0
 11
-371.3750465770345
 21
416.1052691386573
 31
0.0
  0
LINE
  5
5B
330
1F
100
AcDbEntity
  8
A-4
  6
Continuous
 62
     7
370
     9
100
AcDbLine
 10
-401.1183924182487
 20
412.1894833720557
 30
0.0
 11
-371.3750465770345
 21
408.2736976054542
 31
0.0
  0
LINE
  5
5C
330
1F
100
AcDbEntity
  8
A-4
  6
Continuous
 62
     7
370
     9
100
AcDbLine
 10
-241.1183855841966
 20
412.1894833720557
 30
0.0
 11
-81.11844874026559
 21
412.1894833720557
 31
0.0
  0
LINE
  5
5D
330
1F
100
AcDbEntity
  8
A-4
  6
Continuous
 62
     7
370
     9
100
AcDbLine
 10
-241.1183855841966
 20
412.1894833720557
 30
0.0
 11
-211.3750397429823
 21
416.1052691386573
 31
0.0
  0
LINE
  5
5E
330
1F
100
AcDbEntity
  8
A-4
  6
Continuous
 62
     7
370
     9
100
AcDbLine
 10
-241.1183855841966
 20
412.1894833720557
 30
0.0
 11
-211.3750397429823
 21
408.2736976054542
 31
0.0
  0
LINE
  5
5F
330
1F
100
AcDbEntity
  8
A-4
  6
Continuous
 62
     7
370
     9
100
AcDbLine
 10
-81.11844874026559
 20
412.1894833720557
 30
0.0
 11
78.88148810366545
 21
412.1894833720557
 31
0.0
  0
LINE
  5
60
330
1F
100
AcDbEntity
  8
A-4
  6
Continuous
 62
     7
370
     9
100
AcDbLine
 10
-81.11844874026559
 20
412.1894833720557
 30
0.0
 11
-51.37510289905129
 21
416.1052691386573
 31
0.0
  0
LINE
  5
61
330
1F
100
AcDbEntity
  8
A-4
  6
Continuous
 62
     7
370
     9
100
AcDbLine
 10
-81.11844874026559
 20
412.1894833720557
 30
0.0
 11
-51.37510289905129
 21
408.2736976054542
 31
0.0
  0
TEXT
  5
62
330
1F
100
AcDbEntity
  8
F-5
  6
Continuous
 62
     2
370
     9
100
AcDbText
 10
-835.0002886797932
 20
-1347.468295749974
 30
0.0
 40
30.48
  1
ステンレス製排水蓋　ＸＱ－Ｂ－１５　１５０Ｘ５００
 41
1.12
  7
ＭＳ ゴシック
100
AcDbText
  0
LINE
  5
63
330
1F
100
AcDbEntity
  8
1-0
  6
Continuous
 62
     3
370
     9
100
AcDbLine
 10
-317.107737468221
 20
-202.6608561447625
 30
0.0
 11
-657.1078482269988
 21
-202.6608561447625
 31
0.0
  0
LINE
  5
64
330
1F
100
AcDbEntity
  8
1-0
  6
Continuous
 62
     3
370
     9
100
AcDbLine
 10
-657.1078482269988
 20
-142.6607748431064
 30
0.0
 11
-317.107737468221
 21
-142.6607748431064
 31
0.0
  0
LINE
  5
65
330
1F
100
AcDbEntity
  8
1-F
  6
JWW_CENTER1
 62
     7
370
     9
100
AcDbLine
 10
-487.1077928476097
 20
-118.4462925909045
 30
0.0
 11
-487.1077928476097
 21
-226.8753383969644
 31
0.0
  0
LINE
  5
66
330
1F
100
AcDbEntity
  8
1-F
  6
JWW_CENTER1
 62
     7
370
     9
100
AcDbLine
 10
-713.897132715868
 20
-172.6608154939345
 30
0.0
 11
-260.3184529793515
 21
-172.6608154939345
 31
0.0
  0
LINE
  5
67
330
1F
100
AcDbEntity
  8
1-F
  6
Continuous
 62
     7
370
     9
100
AcDbLine
 10
-677.1078753275506
 20
-142.6607748431064
 30
0.0
 11
-791.3653484815084
 21
-142.6607748431064
 31
0.0
  0
LINE
  5
68
330
1F
100
AcDbEntity
  8
1-F
  6
Continuous
 62
     7
370
     9
100
AcDbLine
 10
-677.1078753275506
 20
-202.6608561447625
 30
0.0
 11
-791.3653484815084
 21
-202.6608561447625
 31
0.0
  0
LINE
  5
69
330
1F
100
AcDbEntity
  8
1-F
  6
Continuous
 62
     7
370
     9
100
AcDbLine
 10
-788.3652219337131
 20
-142.6607748431064
 30
0.0
 11
-792.2811692181906
 21
-112.9174229619983
 31
0.0
  0
LINE
  5
6A
330
1F
100
AcDbEntity
  8
1-F
  6
Continuous
 62
     7
370
     9
100
AcDbLine
 10
-788.3652219337131
 20
-202.6608561447625
 30
0.0
 11
-792.2811692181906
 21
-232.4042080258707
 31
0.0
  0
LINE
  5
6B
330
1F
100
AcDbEntity
  8
1-F
  6
Continuous
 62
     7
370
     9
100
AcDbLine
 10
-788.3652219337131
 20
-202.6608561447625
 30
0.0
 11
-784.449624599842
 21
-232.4042080258707
 31
0.0
  0
LINE
  5
6C
330
1F
100
AcDbEntity
  8
1-F
  6
Continuous
 62
     7
370
     9
100
AcDbLine
 10
-788.3652219337131
 20
-142.6607748431064
 30
0.0
 11
-784.449624599842
 21
-112.9174229619983
 31
0.0
  0
LINE
  5
6D
330
1F
100
AcDbEntity
  8
1-F
  6
Continuous
 62
     7
370
     9
100
AcDbLine
 10
-788.3652219337131
 20
-104.0981427573726
 30
0.0
 11
-788.3652219337131
 21
-241.6729997842864
 31
0.0
  0
LINE
  5
6E
330
1F
100
AcDbEntity
  8
1-F
  6
JWW_CENTER1
 62
     7
370
     9
100
AcDbLine
 10
-317.107737468221
 20
-133.1515670181637
 30
0.0
 11
-317.107737468221
 21
-212.1700639697052
 31
0.0
  0
LINE
  5
6F
330
1F
100
AcDbEntity
  8
1-F
  6
JWW_CENTER1
 62
     7
370
     9
100
AcDbLine
 10
-657.1078482269988
 20
-133.1515670181637
 30
0.0
 11
-657.1078482269988
 21
-212.1700639697052
 31
0.0
  0
LINE
  5
70
330
1F
100
AcDbEntity
  8
2-0
  6
Continuous
 62
     3
370
     9
100
AcDbLine
 10
524.0242661392163
 20
-223.3944672037673
 30
0.0
 11
719.8020331291409
 21
-223.3944672037673
 31
0.0
  0
LINE
  5
71
330
1F
100
AcDbEntity
  8
2-0
  6
Continuous
 62
     3
370
     9
100
AcDbLine
 10
509.9618509757263
 20
-244.4885273872592
 30
0.0
 11
524.0242661392163
 21
-223.3944672037673
 31
0.0
  0
LINE
  5
72
330
1F
100
AcDbEntity
  8
2-0
  6
Continuous
 62
     3
370
     9
100
AcDbLine
 10
733.865148193843
 20
-244.4885273872592
 30
0.0
 11
719.8020331291409
 21
-223.3944672037673
 31
0.0
  0
LINE
  5
73
330
1F
100
AcDbEntity
  8
1-F
  6
Continuous
 62
     7
370
     9
100
AcDbLine
 10
320.4891440594773
 20
-466.8844123687461
 30
0.0
 11
923.337505159486
 21
-466.8844123687461
 31
0.0
  0
LINE
  5
74
330
1F
100
AcDbEntity
  8
2-F
  6
Continuous
 62
     7
370
     9
100
AcDbLine
 10
471.9131213553416
 20
-2.680444836149842
 30
0.0
 11
771.9131779130155
 21
-2.680444836149842
 31
0.0
  0
LINE
  5
75
330
1F
100
AcDbEntity
  8
2-F
  6
Continuous
 62
     7
370
     9
100
AcDbLine
 10
771.9131779130155
 20
-173.3944869400388
 30
0.0
 11
771.9131779130155
 21
0.3195942239935512
 31
0.0
  0
LINE
  5
76
330
1F
100
AcDbEntity
  8
2-F
  6
Continuous
 62
     7
370
     9
100
AcDbLine
 10
471.9131213553416
 20
-2.680444836149842
 30
0.0
 11
501.6568231870562
 21
1.235327473024501
 31
0.0
  0
LINE
  5
77
330
1F
100
AcDbEntity
  8
2-F
  6
Continuous
 62
     7
370
     9
100
AcDbLine
 10
471.9131213553416
 20
-2.680444836149842
 30
0.0
 11
501.6568231870562
 21
-6.596217145324328
 31
0.0
  0
LINE
  5
78
330
1F
100
AcDbEntity
  8
2-F
  6
Continuous
 62
     7
370
     9
100
AcDbLine
 10
771.9131779130155
 20
-2.680444836149842
 30
0.0
 11
742.1701759825137
 21
1.235327473024501
 31
0.0
  0
LINE
  5
79
330
1F
100
AcDbEntity
  8
2-F
  6
Continuous
 62
     7
370
     9
100
AcDbLine
 10
771.9131779130155
 20
-2.680444836149842
 30
0.0
 11
742.1701759825137
 21
-6.596217145324328
 31
0.0
  0
LINE
  5
7A
330
1F
100
AcDbEntity
  8
2-F
  6
Continuous
 62
     7
370
     9
100
AcDbLine
 10
631.9133381597576
 20
-143.3944462892107
 30
0.0
 11
631.9133381597576
 21
-81.04777119702176
 31
0.0
  0
LINE
  5
7B
330
1F
100
AcDbEntity
  8
2-F
  6
Continuous
 62
     7
370
     9
100
AcDbLine
 10
611.9136610098119
 20
-143.3944462892107
 30
0.0
 11
611.9136610098119
 21
-81.04777119702176
 31
0.0
  0
LINE
  5
7C
330
1F
100
AcDbEntity
  8
2-F
  6
Continuous
 62
     7
370
     9
100
AcDbLine
 10
631.9133381597576
 20
-84.04781025716515
 30
0.0
 11
661.6570399914722
 21
-80.13203794799081
 31
0.0
  0
LINE
  5
7D
330
1F
100
AcDbEntity
  8
2-F
  6
Continuous
 62
     7
370
     9
100
AcDbLine
 10
631.9133381597576
 20
-84.04781025716515
 30
0.0
 11
661.6570399914722
 21
-87.96358256633964
 31
0.0
  0
LINE
  5
7E
330
1F
100
AcDbEntity
  8
2-F
  6
Continuous
 62
     7
370
     9
100
AcDbLine
 10
591.9132839586539
 20
-143.3944462892107
 30
0.0
 11
591.9132839586539
 21
-81.04777119702176
 31
0.0
  0
LINE
  5
7F
330
1F
100
AcDbEntity
  8
2-F
  6
Continuous
 62
     7
370
     9
100
AcDbLine
 10
591.9132839586539
 20
-84.04781025716515
 30
0.0
 11
562.1702820281516
 21
-80.13203794799081
 31
0.0
  0
LINE
  5
80
330
1F
100
AcDbEntity
  8
2-F
  6
Continuous
 62
     7
370
     9
100
AcDbLine
 10
591.9132839586539
 20
-84.04781025716515
 30
0.0
 11
562.1702820281516
 21
-87.96358256633964
 31
0.0
  0
LINE
  5
81
330
1F
100
AcDbEntity
  8
2-F
  6
Continuous
 62
     7
370
     9
100
AcDbLine
 10
685.891119477627
 20
-84.04781025716515
 30
0.0
 11
537.2523990572902
 21
-84.04781025716515
 31
0.0
  0
LINE
  5
82
330
1F
100
AcDbEntity
  8
2-0
  6
Continuous
 62
     3
370
     9
100
AcDbLine
 10
493.3209997450317
 20
-253.3945078545952
 30
0.0
 11
387.3132621839491
 21
-253.3945078545952
 31
0.0
  0
LINE
  5
83
330
1F
100
AcDbEntity
  8
2-0
  6
Continuous
 62
     3
370
     9
100
AcDbLine
 10
750.5059994245382
 20
-253.3945078545952
 30
0.0
 11
856.5133870350141
 21
-253.3945078545952
 31
0.0
  0
LINE
  5
84
330
1F
100
AcDbEntity
  8
2-F
  6
Continuous
 62
     7
370
     9
100
AcDbLine
 10
367.3132350833973
 20
-193.3945140405908
 30
0.0
 11
237.2969612019196
 21
-193.3945140405908
 31
0.0
  0
LINE
  5
85
330
1F
100
AcDbEntity
  8
2-F
  6
Continuous
 62
     7
370
     9
100
AcDbLine
 10
240.2969127744111
 20
-163.3944733897629
 30
0.0
 11
236.3811404652372
 21
-133.6511215086545
 31
0.0
  0
LINE
  5
86
330
1F
100
AcDbEntity
  8
2-F
  6
Continuous
 62
     7
370
     9
100
AcDbLine
 10
240.2969127744111
 20
-163.3944733897629
 30
0.0
 11
244.2126850835856
 21
-133.6511215086545
 31
0.0
  0
LINE
  5
87
330
1F
100
AcDbEntity
  8
2-F
  6
Continuous
 62
     7
370
     9
100
AcDbLine
 10
240.2969127744111
 20
-193.3945140405908
 30
0.0
 11
236.3811404652372
 21
-223.137865921699
 31
0.0
  0
LINE
  5
88
330
1F
100
AcDbEntity
  8
2-F
  6
Continuous
 62
     7
370
     9
100
AcDbLine
 10
240.2969127744111
 20
-193.3945140405908
 30
0.0
 11
244.2126850835856
 21
-223.137865921699
 31
0.0
  0
LINE
  5
89
330
1F
100
AcDbEntity
  8
2-F
  6
Continuous
 62
     7
370
     9
100
AcDbLine
 10
240.2969127744111
 20
-122.8697557421661
 30
0.0
 11
240.2969127744111
 21
-234.111617034
 31
0.0
  0
LINE
  5
8A
330
1F
100
AcDbEntity
  8
2-F
  6
Continuous
 62
     7
370
     9
100
AcDbLine
 10
329.0653835680288
 20
-163.3942109268081
 30
0.0
 11
312.0654830152719
 21
-163.3942109268081
 31
0.0
  0
LINE
  5
8B
330
1F
100
AcDbEntity
  8
2-F
  6
Continuous
 62
     7
370
     9
100
AcDbLine
 10
309.0657064180831
 20
-163.3942109268081
 30
0.0
 11
305.1497591336052
 21
-133.6508590456998
 31
0.0
  0
LINE
  5
8C
330
1F
100
AcDbEntity
  8
2-F
  6
Continuous
 62
     7
370
     9
100
AcDbLine
 10
309.0657064180831
 20
-163.3942109268081
 30
0.0
 11
312.9813037519542
 21
-133.6508590456998
 31
0.0
  0
LINE
  5
8D
330
1F
100
AcDbEntity
  8
2-F
  6
Continuous
 62
     7
370
     9
100
AcDbLine
 10
309.0657064180831
 20
-173.3943119647357
 30
0.0
 11
305.1497591336052
 21
-203.1376638458438
 31
0.0
  0
LINE
  5
8E
330
1F
100
AcDbEntity
  8
2-F
  6
Continuous
 62
     7
370
     9
100
AcDbLine
 10
309.0657064180831
 20
-173.3943119647357
 30
0.0
 11
312.9813037519542
 21
-203.1376638458438
 31
0.0
  0
LINE
  5
8F
330
1F
100
AcDbEntity
  8
2-F
  6
Continuous
 62
     7
370
     9
100
AcDbLine
 10
309.0657064180831
 20
-67.81211434091203
 30
0.0
 11
309.0657064180831
 21
-209.060577857442
 31
0.0
  0
LINE
  5
90
330
1F
100
AcDbEntity
  8
2-0
  6
Continuous
 62
     3
370
     9
100
AcDbLine
 10
750.1885942246256
 20
-165.1195549035101
 30
0.0
 11
743.3278125881484
 21
-171.9802490523359
 31
0.0
  0
LINE
  5
91
330
1F
100
AcDbEntity
  8
2-0
  6
Continuous
 62
     3
370
     9
100
AcDbLine
 10
493.6384049449444
 20
-165.1194674158585
 30
0.0
 11
500.4991865814216
 21
-171.9801615646844
 31
0.0
  0
LINE
  5
92
330
1F
100
AcDbEntity
  8
2-0
  6
Continuous
 62
     3
370
     9
100
AcDbLine
 10
856.5133870350141
 20
-193.3945140405908
 30
0.0
 11
771.9131779130155
 21
-193.3945140405908
 31
0.0
  0
LINE
  5
93
330
1F
100
AcDbEntity
  8
2-0
  6
Continuous
 62
     3
370
     9
100
AcDbLine
 10
753.2671097082314
 20
-165.4243618815958
 30
0.0
 11
771.9131779130155
 21
-193.3945140405908
 31
0.0
  0
LINE
  5
94
330
1F
100
AcDbEntity
  8
2-0
  6
Continuous
 62
     3
370
     9
100
AcDbLine
 10
471.9131213553416
 20
-193.3945140405908
 30
0.0
 11
387.3132621839491
 21
-193.3945140405908
 31
0.0
  0
LINE
  5
95
330
1F
100
AcDbEntity
  8
2-0
  6
Continuous
 62
     3
370
     9
100
AcDbLine
 10
471.9131213553416
 20
-193.3945140405908
 30
0.0
 11
490.5598894613385
 21
-165.4243618815958
 31
0.0
  0
LINE
  5
96
330
1F
100
AcDbEntity
  8
2-0
  6
Continuous
 62
     3
370
     9
100
AcDbLine
 10
511.9131755564459
 20
-163.3944733897629
 30
0.0
 11
503.3274873815239
 21
-171.9801615646844
 31
0.0
  0
LINE
  5
97
330
1F
100
AcDbEntity
  8
2-0
  6
Continuous
 62
     3
370
     9
100
AcDbLine
 10
531.9135526076038
 20
-163.3944733897629
 30
0.0
 11
511.9131755564459
 21
-163.3944733897629
 31
0.0
  0
LINE
  5
98
330
1F
100
AcDbEntity
  8
2-0
  6
Continuous
 62
     3
370
     9
100
AcDbLine
 10
531.9135526076038
 20
-163.3944733897629
 30
0.0
 11
540.4992407825252
 21
-171.9802490523359
 31
0.0
  0
LINE
  5
99
330
1F
100
AcDbEntity
  8
2-0
  6
Continuous
 62
     3
370
     9
100
AcDbLine
 10
551.9132297575495
 20
-163.3944733897629
 30
0.0
 11
543.3275415826281
 21
-171.9802490523359
 31
0.0
  0
LINE
  5
9A
330
1F
100
AcDbEntity
  8
2-0
  6
Continuous
 62
     3
370
     9
100
AcDbLine
 10
571.9136068087082
 20
-163.3944733897629
 30
0.0
 11
551.9132297575495
 21
-163.3944733897629
 31
0.0
  0
LINE
  5
9B
330
1F
100
AcDbEntity
  8
2-0
  6
Continuous
 62
     3
370
     9
100
AcDbLine
 10
571.9136068087082
 20
-163.3944733897629
 30
0.0
 11
580.4992949836296
 21
-171.9802490523359
 31
0.0
  0
LINE
  5
9C
330
1F
100
AcDbEntity
  8
2-0
  6
Continuous
 62
     3
370
     9
100
AcDbLine
 10
591.9132839586539
 20
-163.3944733897629
 30
0.0
 11
583.3275957837318
 21
-171.9802490523359
 31
0.0
  0
LINE
  5
9D
330
1F
100
AcDbEntity
  8
2-0
  6
Continuous
 62
     3
370
     9
100
AcDbLine
 10
611.9136610098119
 20
-163.3944733897629
 30
0.0
 11
591.9132839586539
 21
-163.3944733897629
 31
0.0
  0
LINE
  5
9E
330
1F
100
AcDbEntity
  8
2-0
  6
Continuous
 62
     3
370
     9
100
AcDbLine
 10
611.9136610098119
 20
-163.3944733897629
 30
0.0
 11
620.4993491847338
 21
-171.9802490523359
 31
0.0
  0
LINE
  5
9F
330
1F
100
AcDbEntity
  8
2-0
  6
Continuous
 62
     3
370
     9
100
AcDbLine
 10
631.9133381597576
 20
-163.3944733897629
 30
0.0
 11
623.3276499848362
 21
-171.9802490523359
 31
0.0
  0
LINE
  5
A0
330
1F
100
AcDbEntity
  8
2-0
  6
Continuous
 62
     3
370
     9
100
AcDbLine
 10
651.913715210916
 20
-163.3944733897629
 30
0.0
 11
631.9133381597576
 21
-163.3944733897629
 31
0.0
  0
LINE
  5
A1
330
1F
100
AcDbEntity
  8
2-0
  6
Continuous
 62
     3
370
     9
100
AcDbLine
 10
651.913715210916
 20
-163.3944733897629
 30
0.0
 11
660.4994033858375
 21
-171.9802490523359
 31
0.0
  0
LINE
  5
A2
330
1F
100
AcDbEntity
  8
2-0
  6
Continuous
 62
     3
370
     9
100
AcDbLine
 10
671.9133923608617
 20
-163.3944733897629
 30
0.0
 11
663.3277041859403
 21
-171.9802490523359
 31
0.0
  0
LINE
  5
A3
330
1F
100
AcDbEntity
  8
2-0
  6
Continuous
 62
     3
370
     9
100
AcDbLine
 10
691.9137694120197
 20
-163.3944733897629
 30
0.0
 11
671.9133923608617
 21
-163.3944733897629
 31
0.0
  0
LINE
  5
A4
330
1F
100
AcDbEntity
  8
2-0
  6
Continuous
 62
     3
370
     9
100
AcDbLine
 10
691.9137694120197
 20
-163.3944733897629
 30
0.0
 11
700.4994575869418
 21
-171.9802490523359
 31
0.0
  0
LINE
  5
A5
330
1F
100
AcDbEntity
  8
2-0
  6
Continuous
 62
     3
370
     9
100
AcDbLine
 10
711.9134465619654
 20
-163.3944733897629
 30
0.0
 11
703.327758387044
 21
-171.9802490523359
 31
0.0
  0
LINE
  5
A6
330
1F
100
AcDbEntity
  8
2-0
  6
Continuous
 62
     3
370
     9
100
AcDbLine
 10
731.9138236131241
 20
-163.3944733897629
 30
0.0
 11
711.9134465619654
 21
-163.3944733897629
 31
0.0
  0
LINE
  5
A7
330
1F
100
AcDbEntity
  8
2-0
  6
Continuous
 62
     3
370
     9
100
AcDbLine
 10
731.9138236131241
 20
-163.3944733897629
 30
0.0
 11
740.4995117880455
 21
-171.9802490523359
 31
0.0
  0
LINE
  5
A8
330
1F
100
AcDbEntity
  8
2-F
  6
Continuous
 62
     7
370
     9
100
AcDbLine
 10
471.9131213553416
 20
-173.3944869400388
 30
0.0
 11
471.9131213553416
 21
0.3195942239935512
 31
0.0
  0
LINE
  5
A9
330
1F
100
AcDbEntity
  8
2-F
  6
Continuous
 62
     7
370
     9
100
AcDbLine
 10
456.2010390337625
 20
-173.3943119647357
 30
0.0
 11
306.0655798702882
 21
-173.3943119647357
 31
0.0
  0
LINE
  5
AA
330
1F
100
AcDbEntity
  8
2-F
  6
Continuous
 62
     7
370
     9
100
AcDbLine
 10
458.9226048989437
 20
-163.3944733897629
 30
0.0
 11
237.2969612019196
 21
-163.3944733897629
 31
0.0
  0
LINE
  5
AB
330
1F
100
AcDbEntity
  8
1-0
  6
Continuous
 62
     7
370
     9
100
AcDbLine
 10
-687.1078888778266
 20
-316.098832466421
 30
0.0
 11
-287.107696817393
 21
-316.098832466421
 31
0.0
  0
LINE
  5
AC
330
1F
100
AcDbEntity
  8
1-0
  6
Continuous
 62
     7
370
     9
100
AcDbLine
 10
-687.1078888778266
 20
-192.6608425944865
 30
0.0
 11
-687.1078888778266
 21
-319.0988715265645
 31
0.0
  0
LINE
  5
AD
330
1F
100
AcDbEntity
  8
1-0
  6
Continuous
 62
     7
370
     9
100
AcDbLine
 10
-287.107696817393
 20
-192.6608425944865
 30
0.0
 11
-287.107696817393
 21
-319.0988715265645
 31
0.0
  0
LINE
  5
AE
330
1F
100
AcDbEntity
  8
1-0
  6
Continuous
 62
     7
370
     9
100
AcDbLine
 10
-687.1078888778266
 20
-316.098832466421
 30
0.0
 11
-657.3645369967185
 21
-312.1830601572466
 31
0.0
  0
LINE
  5
AF
330
1F
100
AcDbEntity
  8
1-0
  6
Continuous
 62
     7
370
     9
100
AcDbLine
 10
-687.1078888778266
 20
-316.098832466421
 30
0.0
 11
-657.3645369967185
 21
-320.0146047755954
 31
0.0
  0
LINE
  5
B0
330
1F
100
AcDbEntity
  8
1-0
  6
Continuous
 62
     7
370
     9
100
AcDbLine
 10
-287.107696817393
 20
-316.098832466421
 30
0.0
 11
-316.8510486985011
 21
-312.1830601572466
 31
0.0
  0
LINE
  5
B1
330
1F
100
AcDbEntity
  8
1-0
  6
Continuous
 62
     7
370
     9
100
AcDbLine
 10
-287.107696817393
 20
-316.098832466421
 30
0.0
 11
-316.8510486985011
 21
-320.0146047755954
 31
0.0
  0
ARC
  5
B2
330
1F
100
AcDbEntity
  8
1-0
  6
Continuous
 62
     3
370
     9
100
AcDbCircle
 10
-657.1078482269988
 20
-172.6608154939345
 30
0.0
 40
29.99999964099133
100
AcDbArc
 50
90.0
 51
270.0
  0
ARC
  5
B3
330
1F
100
AcDbEntity
  8
1-0
  6
Continuous
 62
     3
370
     9
100
AcDbCircle
 10
-317.107737468221
 20
-172.6608154939345
 30
0.0
 40
29.99999964099133
100
AcDbArc
 50
270.0
 51
90.0
  0
ARC
  5
B4
330
1F
100
AcDbEntity
  8
2-0
  6
Continuous
 62
     3
370
     9
100
AcDbCircle
 10
493.3209997450317
 20
-233.3944807540432
 30
0.0
 40
19.99999976066088
100
AcDbArc
 50
270.0
 51
326.3095855712891
  0
ARC
  5
B5
330
1F
100
AcDbEntity
  8
2-0
  6
Continuous
 62
     3
370
     9
100
AcDbCircle
 10
750.5059994245382
 20
-233.3944807540432
 30
0.0
 40
19.99999976066088
100
AcDbArc
 50
213.690414428711
 51
270.0
  0
ARC
  5
B6
330
1F
100
AcDbEntity
  8
2-0
  6
Continuous
 62
     3
370
     9
100
AcDbCircle
 10
501.913336981473
 20
-170.5659236769814
 30
0.0
 40
2.000000010240953
100
AcDbArc
 50
225.0017700195312
 51
314.9982299804688
  0
ARC
  5
B7
330
1F
100
AcDbEntity
  8
2-0
  6
Continuous
 62
     3
370
     9
100
AcDbCircle
 10
541.9133911825768
 20
-170.5660986522847
 30
0.0
 40
2.000000010240953
100
AcDbArc
 50
225.0
 51
315.0
  0
ARC
  5
B8
330
1F
100
AcDbEntity
  8
2-0
  6
Continuous
 62
     3
370
     9
100
AcDbCircle
 10
581.9134453836809
 20
-170.5660986522847
 30
0.0
 40
2.000000010240953
100
AcDbArc
 50
225.0
 51
315.0
  0
ARC
  5
B9
330
1F
100
AcDbEntity
  8
2-0
  6
Continuous
 62
     3
370
     9
100
AcDbCircle
 10
621.9134995847846
 20
-170.5660986522847
 30
0.0
 40
2.000000010240953
100
AcDbArc
 50
225.0
 51
315.0
  0
ARC
  5
BA
330
1F
100
AcDbEntity
  8
2-0
  6
Continuous
 62
     3
370
     9
100
AcDbCircle
 10
661.913553785889
 20
-170.5660986522847
 30
0.0
 40
2.000000010240953
100
AcDbArc
 50
225.0
 51
315.0
  0
ARC
  5
BB
330
1F
100
AcDbEntity
  8
2-0
  6
Continuous
 62
     3
370
     9
100
AcDbCircle
 10
701.9136079869927
 20
-170.5660986522847
 30
0.0
 40
2.000000010240953
100
AcDbArc
 50
225.0
 51
315.0
  0
ARC
  5
BC
330
1F
100
AcDbEntity
  8
2-0
  6
Continuous
 62
     3
370
     9
100
AcDbCircle
 10
741.9136621880969
 20
-170.5660986522847
 30
0.0
 40
2.000000010240953
100
AcDbArc
 50
225.0
 51
315.0
  0
ARC
  5
BD
330
1F
100
AcDbEntity
  8
2-0
  6
Continuous
 62
     3
370
     9
100
AcDbCircle
 10
751.6027446246769
 20
-166.533792791213
 30
0.0
 40
2.000000010240953
100
AcDbArc
 50
33.68937683105469
 51
134.9982299804688
  0
ARC
  5
BE
330
1F
100
AcDbEntity
  8
2-0
  6
Continuous
 62
     3
370
     9
100
AcDbCircle
 10
492.224254544893
 20
-166.5337053035613
 30
0.0
 40
2.000000010240953
100
AcDbArc
 50
45.00177001953125
 51
146.3127136230469
  0
TEXT
  5
BF
330
1F
100
AcDbEntity
  8
1-F
  6
Continuous
 62
     2
370
     9
100
AcDbText
 10
-799.0053161965028
 20
-182.6608154939345
 30
0.0
 40
30.48
  1
6
 50
90.0
 41
0.9999999999999998
  7
ＭＳ ゴシック
100
AcDbText
  0
TEXT
  5
C0
330
1F
100
AcDbEntity
  8
2-F
  6
Continuous
 62
     2
370
     9
100
AcDbText
 10
578.1629746588754
 20
7.95956193898812
 30
0.0
 40
30.48
  1
Φ15
 41
1.09375
  7
ＭＳ ゴシック
100
AcDbText
  0
TEXT
  5
C1
330
1F
100
AcDbEntity
  8
2-F
  6
Continuous
 62
     2
370
     9
100
AcDbText
 10
665.7360778087607
 20
-73.40780348202719
 30
0.0
 40
30.48
  1
1
 41
0.9999999999999998
  7
ＭＳ ゴシック
100
AcDbText
  0
TEXT
  5
C2
330
1F
100
AcDbEntity
  8
2-F
  6
Continuous
 62
     2
370
     9
100
AcDbText
 10
539.2541300755922
 20
-73.40780348202719
 30
0.0
 40
30.48
  1
1
 41
0.9999999999999998
  7
ＭＳ ゴシック
100
AcDbText
  0
TEXT
  5
C3
330
1F
100
AcDbEntity
  8
2-F
  6
Continuous
 62
     2
370
     9
100
AcDbText
 10
229.656993486925
 20
-210.8944937151767
 30
0.0
 40
30.48
  1
1.5
 50
90.0
 41
1.083333333333333
  7
ＭＳ ゴシック
100
AcDbText
  0
TEXT
  5
C4
330
1F
100
AcDbEntity
  8
2-F
  6
Continuous
 62
     2
370
     9
100
AcDbText
 10
298.4256121552936
 20
-130.6275479756664
 30
0.0
 40
30.48
  1
0.5
 50
90.0
 41
1.083333333333333
  7
ＭＳ ゴシック
100
AcDbText
  0
TEXT
  5
C5
330
1F
100
AcDbEntity
  8
1-F
  6
Continuous
 62
     2
370
     9
100
AcDbText
 10
331.9136745600881
 20
-449.4984952436479
 30
0.0
 40
30.48
  1
滑り止め詳細図　Ｓ＝２：１
 41
1.115384615384615
  7
ＭＳ ゴシック
100
AcDbText
  0
LWPOLYLINE
  5
C6
330
1F
100
AcDbEntity
  8
2-F
  6
Continuous
 62
     7
370
     9
100
AcDbPolyline
 90
        4
 70
     1
 43
1.0
 10
612.4136610098118
 20
-84.04781025716515
 42
0.4142135623731
 10
611.9136610098119
 20
-83.54781025716514
 42
0.4142135623731
 10
611.4136610098119
 20
-84.04781025716515
 42
0.4142135623731
 10
611.9136610098119
 20
-84.54781025716515
 42
0.4142135623731
  0
TEXT
  5
C7
330
1F
100
AcDbEntity
  8
1-F
  6
Continuous
 62
     2
370
   211
100
AcDbText
 10
-508.3577928476097
 20
-305.458832466421
 30
0.0
 40
30.48
  1
40
 41
1.0625
  7
ＭＳ ゴシック
100
AcDbText
  0
TEXT
  5
C8
330
1F
100
AcDbEntity
  8
1-F
  6
Continuous
 62
     2
370
     9
100
AcDbText
 10
-754.6078803352614
 20
-449.4984952436479
 30
0.0
 40
30.48
  1
排水穴詳細図　Ｓ＝１：１
 41
1.114583333333333
  7
ＭＳ ゴシック
100
AcDbText
  0
LINE
  5
C9
330
1F
100
AcDbEntity
  8
1-F
  6
Continuous
 62
     7
370
     9
100
AcDbLine
 10
-775.6371522313375
 20
-466.8844123687461
 30
0.0
 11
-207.2878435539112
 21
-466.8844123687461
 31
0.0
  0
LINE
  5
CA
330
1F
100
AcDbEntity
  8
0-0
  6
Continuous
 62
     3
370
     9
100
AcDbLine
 10
-820.1203424797081
 20
482.9244027858446
 30
0.0
 11
-820.1203424797081
 21
782.925229234852
 31
0.0
  0
LINE
  5
CB
330
1F
100
AcDbEntity
  8
0-0
  6
Continuous
 62
     3
370
     9
100
AcDbLine
 10
-820.1203424797081
 20
782.925229234852
 30
0.0
 11
177.8794350601083
 21
782.925229234852
 31
0.0
  0
LINE
  5
CC
330
1F
100
AcDbEntity
  8
0-0
  6
Continuous
 62
     3
370
     9
100
AcDbLine
 10
177.8794350601083
 20
782.925229234852
 30
0.0
 11
177.8794350601083
 21
482.9244027858446
 31
0.0
  0
LINE
  5
CD
330
1F
100
AcDbEntity
  8
0-0
  6
Continuous
 62
     3
370
     9
100
AcDbLine
 10
177.8794350601083
 20
482.9244027858446
 30
0.0
 11
-820.1203424797081
 21
482.9244027858446
 31
0.0
  0
LINE
  5
CE
330
1F
100
AcDbEntity
  8
0-8
  6
Continuous
 62
     3
370
     9
100
AcDbLine
 10
-675.1186587106293
 20
698.9251154125337
 30
0.0
 11
-607.1184965786313
 21
698.9251154125337
 31
0.0
  0
LINE
  5
CF
330
1F
100
AcDbEntity
  8
0-8
  6
Continuous
 62
     3
370
     9
100
AcDbLine
 10
-675.1186587106293
 20
686.9243292608687
 30
0.0
 11
-607.1184965786313
 21
686.9243292608687
 31
0.0
  0
LINE
  5
D0
330
1F
100
AcDbEntity
  8
0-0
  6
JWW_DASHED2
 62
     3
370
     9
100
AcDbLine
 10
-820.1203424797081
 20
776.9251161195047
 30
0.0
 11
177.8794350601083
 21
776.9251161195047
 31
0.0
  0
LINE
  5
D1
330
1F
100
AcDbEntity
  8
0-0
  6
JWW_DASHED2
 62
     3
370
     9
100
AcDbLine
 10
177.8794350601083
 20
488.9243759209495
 30
0.0
 11
-820.1203424797081
 21
488.9243759209495
 31
0.0
  0
LINE
  5
D2
330
1F
100
AcDbEntity
  8
0-8
  6
JWW_CENTER1
 62
     7
370
     9
100
AcDbLine
 10
-641.1185776446304
 20
702.9657151029749
 30
0.0
 11
-641.1185776446304
 21
682.8837995605489
 31
0.0
  0
LINE
  5
D3
330
1F
100
AcDbEntity
  8
0-8
  6
JWW_CENTER1
 62
     7
370
     9
100
AcDbLine
 10
-685.8322565422083
 20
692.9247923268225
 30
0.0
 11
-596.4048987470525
 21
692.9247923268225
 31
0.0
  0
LINE
  5
D4
330
1F
100
AcDbEntity
  8
0-8
  6
Continuous
 62
     3
370
     9
100
AcDbLine
 10
-725.1182715262212
 20
710.9246417420162
 30
0.0
 11
-725.1182715262212
 21
734.9248142429211
 31
0.0
  0
LINE
  5
D5
330
1F
100
AcDbEntity
  8
0-8
  6
Continuous
 62
     3
370
     9
100
AcDbLine
 10
-729.1183469364529
 20
710.9246417420162
 30
0.0
 11
-729.1183469364529
 21
734.9248142429211
 31
0.0
  0
LINE
  5
D6
330
1F
100
AcDbEntity
  8
0-8
  6
Continuous
 62
     3
370
     9
100
AcDbLine
 10
-721.1184060863534
 20
710.9246417420162
 30
0.0
 11
-721.1184060863534
 21
734.9248142429211
 31
0.0
  0
LINE
  5
D7
330
1F
100
AcDbEntity
  8
0-8
  6
Continuous
 62
     3
370
     9
100
AcDbLine
 10
-717.1184706563643
 20
710.9246417420162
 30
0.0
 11
-717.1184706563643
 21
734.9248142429211
 31
0.0
  0
LINE
  5
D8
330
1F
100
AcDbEntity
  8
0-8
  6
Continuous
 62
     3
370
     9
100
AcDbLine
 10
-713.1183952461324
 20
710.9246417420162
 30
0.0
 11
-713.1183952461324
 21
734.9248142429211
 31
0.0
  0
LINE
  5
D9
330
1F
100
AcDbEntity
  8
0-8
  6
Continuous
 62
     3
370
     9
100
AcDbLine
 10
-733.1184223466846
 20
726.9246634224577
 30
0.0
 11
-709.1183198359008
 21
726.9246634224577
 31
0.0
  0
LINE
  5
DA
330
1F
100
AcDbEntity
  8
0-8
  6
Continuous
 62
     3
370
     9
100
AcDbLine
 10
-733.1184223466846
 20
730.9247388326894
 30
0.0
 11
-709.1183198359008
 21
730.9247388326894
 31
0.0
  0
LINE
  5
DB
330
1F
100
AcDbEntity
  8
0-8
  6
Continuous
 62
     3
370
     9
100
AcDbLine
 10
-733.1184223466846
 20
722.9247279924685
 30
0.0
 11
-709.1183198359008
 21
722.9247279924685
 31
0.0
  0
LINE
  5
DC
330
1F
100
AcDbEntity
  8
0-8
  6
Continuous
 62
     3
370
     9
100
AcDbLine
 10
-733.1184223466846
 20
718.9247925624794
 30
0.0
 11
-709.1183198359008
 21
718.9247925624794
 31
0.0
  0
LINE
  5
DD
330
1F
100
AcDbEntity
  8
0-8
  6
Continuous
 62
     3
370
     9
100
AcDbLine
 10
-733.1184223466846
 20
714.9247171522478
 30
0.0
 11
-709.1183198359008
 21
714.9247171522478
 31
0.0
  0
LINE
  5
DE
330
1F
100
AcDbEntity
  8
0-8
  6
JWW_CENTER1
 62
     7
370
     9
100
AcDbLine
 10
-740.5486436097306
 20
722.9247279924685
 30
0.0
 11
-701.6882385530973
 21
722.9247279924685
 31
0.0
  0
LINE
  5
DF
330
1F
100
AcDbEntity
  8
0-8
  6
JWW_CENTER1
 62
     7
370
     9
100
AcDbLine
 10
-721.1184060863534
 20
703.4944904690915
 30
0.0
 11
-721.1184060863534
 21
742.3549655158457
 31
0.0
  0
LINE
  5
E0
330
1F
100
AcDbEntity
  8
0-8
  6
Continuous
 62
     3
370
     9
100
AcDbLine
 10
-725.1182715262212
 20
650.9246304304814
 30
0.0
 11
-725.1182715262212
 21
674.9248029313862
 31
0.0
  0
LINE
  5
E1
330
1F
100
AcDbEntity
  8
0-8
  6
Continuous
 62
     3
370
     9
100
AcDbLine
 10
-729.1183469364529
 20
650.9246304304814
 30
0.0
 11
-729.1183469364529
 21
674.9248029313862
 31
0.0
  0
LINE
  5
E2
330
1F
100
AcDbEntity
  8
0-8
  6
Continuous
 62
     3
370
     9
100
AcDbLine
 10
-721.1184060863534
 20
650.9246304304814
 30
0.0
 11
-721.1184060863534
 21
674.9248029313862
 31
0.0
  0
LINE
  5
E3
330
1F
100
AcDbEntity
  8
0-8
  6
Continuous
 62
     3
370
     9
100
AcDbLine
 10
-717.1184706563643
 20
650.9246304304814
 30
0.0
 11
-717.1184706563643
 21
674.9248029313862
 31
0.0
  0
LINE
  5
E4
330
1F
100
AcDbEntity
  8
0-8
  6
Continuous
 62
     3
370
     9
100
AcDbLine
 10
-713.1183952461324
 20
650.9246304304814
 30
0.0
 11
-713.1183952461324
 21
674.9248029313862
 31
0.0
  0
LINE
  5
E5
330
1F
100
AcDbEntity
  8
0-8
  6
Continuous
 62
     3
370
     9
100
AcDbLine
 10
-733.1184223466846
 20
666.924652110923
 30
0.0
 11
-709.1183198359008
 21
666.924652110923
 31
0.0
  0
LINE
  5
E6
330
1F
100
AcDbEntity
  8
0-8
  6
Continuous
 62
     3
370
     9
100
AcDbLine
 10
-733.1184223466846
 20
670.9247275211546
 30
0.0
 11
-709.1183198359008
 21
670.9247275211546
 31
0.0
  0
LINE
  5
E7
330
1F
100
AcDbEntity
  8
0-8
  6
Continuous
 62
     3
370
     9
100
AcDbLine
 10
-733.1184223466846
 20
662.9247166809339
 30
0.0
 11
-709.1183198359008
 21
662.9247166809339
 31
0.0
  0
LINE
  5
E8
330
1F
100
AcDbEntity
  8
0-8
  6
Continuous
 62
     3
370
     9
100
AcDbLine
 10
-733.1184223466846
 20
658.9247812509448
 30
0.0
 11
-709.1183198359008
 21
658.9247812509448
 31
0.0
  0
LINE
  5
E9
330
1F
100
AcDbEntity
  8
0-8
  6
Continuous
 62
     3
370
     9
100
AcDbLine
 10
-733.1184223466846
 20
654.9247058407132
 30
0.0
 11
-709.1183198359008
 21
654.9247058407132
 31
0.0
  0
LINE
  5
EA
330
1F
100
AcDbEntity
  8
0-8
  6
JWW_CENTER1
 62
     7
370
     9
100
AcDbLine
 10
-740.5486436097306
 20
662.9247166809339
 30
0.0
 11
-701.6882385530973
 21
662.9247166809339
 31
0.0
  0
LINE
  5
EB
330
1F
100
AcDbEntity
  8
0-8
  6
JWW_CENTER1
 62
     7
370
     9
100
AcDbLine
 10
-721.1184060863534
 20
643.4944791575566
 30
0.0
 11
-721.1184060863534
 21
682.354954204311
 31
0.0
  0
LINE
  5
EC
330
1F
100
AcDbEntity
  8
0-8
  6
Continuous
 62
     3
370
     9
100
AcDbLine
 10
-725.1182715262212
 20
590.9246191189466
 30
0.0
 11
-725.1182715262212
 21
614.9247916198515
 31
0.0
  0
LINE
  5
ED
330
1F
100
AcDbEntity
  8
0-8
  6
Continuous
 62
     3
370
     9
100
AcDbLine
 10
-729.1183469364529
 20
590.9246191189466
 30
0.0
 11
-729.1183469364529
 21
614.9247916198515
 31
0.0
  0
LINE
  5
EE
330
1F
100
AcDbEntity
  8
0-8
  6
Continuous
 62
     3
370
     9
100
AcDbLine
 10
-721.1184060863534
 20
590.9246191189466
 30
0.0
 11
-721.1184060863534
 21
614.9247916198515
 31
0.0
  0
LINE
  5
EF
330
1F
100
AcDbEntity
  8
0-8
  6
Continuous
 62
     3
370
     9
100
AcDbLine
 10
-717.1184706563643
 20
590.9246191189466
 30
0.0
 11
-717.1184706563643
 21
614.9247916198515
 31
0.0
  0
LINE
  5
F0
330
1F
100
AcDbEntity
  8
0-8
  6
Continuous
 62
     3
370
     9
100
AcDbLine
 10
-713.1183952461324
 20
590.9246191189466
 30
0.0
 11
-713.1183952461324
 21
614.9247916198515
 31
0.0
  0
LINE
  5
F1
330
1F
100
AcDbEntity
  8
0-8
  6
Continuous
 62
     3
370
     9
100
AcDbLine
 10
-733.1184223466846
 20
606.9246407993882
 30
0.0
 11
-709.1183198359008
 21
606.9246407993882
 31
0.0
  0
LINE
  5
F2
330
1F
100
AcDbEntity
  8
0-8
  6
Continuous
 62
     3
370
     9
100
AcDbLine
 10
-733.1184223466846
 20
610.9247162096199
 30
0.0
 11
-709.1183198359008
 21
610.9247162096199
 31
0.0
  0
LINE
  5
F3
330
1F
100
AcDbEntity
  8
0-8
  6
Continuous
 62
     3
370
     9
100
AcDbLine
 10
-733.1184223466846
 20
602.924705369399
 30
0.0
 11
-709.1183198359008
 21
602.924705369399
 31
0.0
  0
LINE
  5
F4
330
1F
100
AcDbEntity
  8
0-8
  6
Continuous
 62
     3
370
     9
100
AcDbLine
 10
-733.1184223466846
 20
598.9247699394099
 30
0.0
 11
-709.1183198359008
 21
598.9247699394099
 31
0.0
  0
LINE
  5
F5
330
1F
100
AcDbEntity
  8
0-8
  6
Continuous
 62
     3
370
     9
100
AcDbLine
 10
-733.1184223466846
 20
594.9246945291783
 30
0.0
 11
-709.1183198359008
 21
594.9246945291783
 31
0.0
  0
LINE
  5
F6
330
1F
100
AcDbEntity
  8
0-8
  6
JWW_CENTER1
 62
     7
370
     9
100
AcDbLine
 10
-721.1184060863534
 20
583.4944678460218
 30
0.0
 11
-721.1184060863534
 21
622.3549428927763
 31
0.0
  0
LINE
  5
F7
330
1F
100
AcDbEntity
  8
0-8
  6
Continuous
 62
     3
370
     9
100
AcDbLine
 10
-725.1182715262212
 20
530.9246078074118
 30
0.0
 11
-725.1182715262212
 21
554.9247803083168
 31
0.0
  0
LINE
  5
F8
330
1F
100
AcDbEntity
  8
0-8
  6
Continuous
 62
     3
370
     9
100
AcDbLine
 10
-729.1183469364529
 20
530.9246078074118
 30
0.0
 11
-729.1183469364529
 21
554.9247803083168
 31
0.0
  0
LINE
  5
F9
330
1F
100
AcDbEntity
  8
0-8
  6
Continuous
 62
     3
370
     9
100
AcDbLine
 10
-721.1184060863534
 20
530.9246078074118
 30
0.0
 11
-721.1184060863534
 21
554.9247803083168
 31
0.0
  0
LINE
  5
FA
330
1F
100
AcDbEntity
  8
0-8
  6
Continuous
 62
     3
370
     9
100
AcDbLine
 10
-717.1184706563643
 20
530.9246078074118
 30
0.0
 11
-717.1184706563643
 21
554.9247803083168
 31
0.0
  0
LINE
  5
FB
330
1F
100
AcDbEntity
  8
0-8
  6
Continuous
 62
     3
370
     9
100
AcDbLine
 10
-713.1183952461324
 20
530.9246078074118
 30
0.0
 11
-713.1183952461324
 21
554.9247803083168
 31
0.0
  0
LINE
  5
FC
330
1F
100
AcDbEntity
  8
0-8
  6
Continuous
 62
     3
370
     9
100
AcDbLine
 10
-733.1184223466846
 20
546.9246294878535
 30
0.0
 11
-709.1183198359008
 21
546.9246294878535
 31
0.0
  0
LINE
  5
FD
330
1F
100
AcDbEntity
  8
0-8
  6
Continuous
 62
     3
370
     9
100
AcDbLine
 10
-733.1184223466846
 20
550.9247048980851
 30
0.0
 11
-709.1183198359008
 21
550.9247048980851
 31
0.0
  0
LINE
  5
FE
330
1F
100
AcDbEntity
  8
0-8
  6
Continuous
 62
     3
370
     9
100
AcDbLine
 10
-733.1184223466846
 20
542.9246940578644
 30
0.0
 11
-709.1183198359008
 21
542.9246940578644
 31
0.0
  0
LINE
  5
FF
330
1F
100
AcDbEntity
  8
0-8
  6
Continuous
 62
     3
370
     9
100
AcDbLine
 10
-733.1184223466846
 20
538.9247586278751
 30
0.0
 11
-709.1183198359008
 21
538.9247586278751
 31
0.0
  0
LINE
  5
100
330
1F
100
AcDbEntity
  8
0-8
  6
Continuous
 62
     3
370
     9
100
AcDbLine
 10
-733.1184223466846
 20
534.9246832176435
 30
0.0
 11
-709.1183198359008
 21
534.9246832176435
 31
0.0
  0
LINE
  5
101
330
1F
100
AcDbEntity
  8
0-8
  6
JWW_CENTER1
 62
     7
370
     9
100
AcDbLine
 10
-740.5486436097306
 20
542.9246940578644
 30
0.0
 11
-701.6882385530973
 21
542.9246940578644
 31
0.0
  0
LINE
  5
102
330
1F
100
AcDbEntity
  8
0-8
  6
JWW_CENTER1
 62
     7
370
     9
100
AcDbLine
 10
-721.1184060863534
 20
523.4944565344872
 30
0.0
 11
-721.1184060863534
 21
562.3549315812415
 31
0.0
  0
LINE
  5
103
330
1F
100
AcDbEntity
  8
0-8
  6
Continuous
 62
     3
370
     9
100
AcDbLine
 10
-675.1186587106293
 20
638.9251041009991
 30
0.0
 11
-607.1184965786313
 21
638.9251041009991
 31
0.0
  0
LINE
  5
104
330
1F
100
AcDbEntity
  8
0-8
  6
Continuous
 62
     3
370
     9
100
AcDbLine
 10
-675.1186587106293
 20
626.924317949334
 30
0.0
 11
-607.1184965786313
 21
626.924317949334
 31
0.0
  0
LINE
  5
105
330
1F
100
AcDbEntity
  8
0-8
  6
JWW_CENTER1
 62
     7
370
     9
100
AcDbLine
 10
-641.1185776446304
 20
642.96570379144
 30
0.0
 11
-641.1185776446304
 21
622.8837882490142
 31
0.0
  0
LINE
  5
106
330
1F
100
AcDbEntity
  8
0-8
  6
Continuous
 62
     3
370
     9
100
AcDbLine
 10
-675.1186587106293
 20
578.9250927894642
 30
0.0
 11
-607.1184965786313
 21
578.9250927894642
 31
0.0
  0
LINE
  5
107
330
1F
100
AcDbEntity
  8
0-8
  6
Continuous
 62
     3
370
     9
100
AcDbLine
 10
-675.1186587106293
 20
566.9243066377992
 30
0.0
 11
-607.1184965786313
 21
566.9243066377992
 31
0.0
  0
LINE
  5
108
330
1F
100
AcDbEntity
  8
0-8
  6
JWW_CENTER1
 62
     7
370
     9
100
AcDbLine
 10
-641.1185776446304
 20
582.9656924799052
 30
0.0
 11
-641.1185776446304
 21
562.8837769374795
 31
0.0
  0
LINE
  5
109
330
1F
100
AcDbEntity
  8
0-8
  6
JWW_CENTER1
 62
     7
370
     9
100
AcDbLine
 10
-685.8322565422083
 20
572.9247697037531
 30
0.0
 11
-596.4048987470525
 21
572.9247697037531
 31
0.0
  0
LINE
  5
10A
330
1F
100
AcDbEntity
  8
0-8
  6
Continuous
 62
     3
370
     9
100
AcDbLine
 10
-515.1186518765771
 20
698.9251154125337
 30
0.0
 11
-447.1184897445791
 21
698.9251154125337
 31
0.0
  0
LINE
  5
10B
330
1F
100
AcDbEntity
  8
0-8
  6
Continuous
 62
     3
370
     9
100
AcDbLine
 10
-515.1186518765771
 20
686.9243292608687
 30
0.0
 11
-447.1184897445791
 21
686.9243292608687
 31
0.0
  0
LINE
  5
10C
330
1F
100
AcDbEntity
  8
0-8
  6
JWW_CENTER1
 62
     7
370
     9
100
AcDbLine
 10
-481.118570810578
 20
702.9657151029749
 30
0.0
 11
-481.118570810578
 21
682.8837995605489
 31
0.0
  0
LINE
  5
10D
330
1F
100
AcDbEntity
  8
0-8
  6
JWW_CENTER1
 62
     7
370
     9
100
AcDbLine
 10
-525.8322497081559
 20
692.9247923268225
 30
0.0
 11
-436.4048919130003
 21
692.9247923268225
 31
0.0
  0
LINE
  5
10E
330
1F
100
AcDbEntity
  8
0-8
  6
Continuous
 62
     3
370
     9
100
AcDbLine
 10
-565.118264692169
 20
710.9246417420162
 30
0.0
 11
-565.118264692169
 21
734.9248142429211
 31
0.0
  0
LINE
  5
10F
330
1F
100
AcDbEntity
  8
0-8
  6
Continuous
 62
     3
370
     9
100
AcDbLine
 10
-569.1183401024006
 20
710.9246417420162
 30
0.0
 11
-569.1183401024006
 21
734.9248142429211
 31
0.0
  0
LINE
  5
110
330
1F
100
AcDbEntity
  8
0-8
  6
Continuous
 62
     3
370
     9
100
AcDbLine
 10
-561.1183992523011
 20
710.9246417420162
 30
0.0
 11
-561.1183992523011
 21
734.9248142429211
 31
0.0
  0
LINE
  5
111
330
1F
100
AcDbEntity
  8
0-8
  6
Continuous
 62
     3
370
     9
100
AcDbLine
 10
-557.1184638223119
 20
710.9246417420162
 30
0.0
 11
-557.1184638223119
 21
734.9248142429211
 31
0.0
  0
LINE
  5
112
330
1F
100
AcDbEntity
  8
0-8
  6
Continuous
 62
     3
370
     9
100
AcDbLine
 10
-553.1183884120802
 20
710.9246417420162
 30
0.0
 11
-553.1183884120802
 21
734.9248142429211
 31
0.0
  0
LINE
  5
113
330
1F
100
AcDbEntity
  8
0-8
  6
Continuous
 62
     3
370
     9
100
AcDbLine
 10
-573.1184155126323
 20
726.9246634224577
 30
0.0
 11
-549.1183130018486
 21
726.9246634224577
 31
0.0
  0
LINE
  5
114
330
1F
100
AcDbEntity
  8
0-8
  6
Continuous
 62
     3
370
     9
100
AcDbLine
 10
-573.1184155126323
 20
730.9247388326894
 30
0.0
 11
-549.1183130018486
 21
730.9247388326894
 31
0.0
  0
LINE
  5
115
330
1F
100
AcDbEntity
  8
0-8
  6
Continuous
 62
     3
370
     9
100
AcDbLine
 10
-573.1184155126323
 20
722.9247279924685
 30
0.0
 11
-549.1183130018486
 21
722.9247279924685
 31
0.0
  0
LINE
  5
116
330
1F
100
AcDbEntity
  8
0-8
  6
Continuous
 62
     3
370
     9
100
AcDbLine
 10
-573.1184155126323
 20
718.9247925624794
 30
0.0
 11
-549.1183130018486
 21
718.9247925624794
 31
0.0
  0
LINE
  5
117
330
1F
100
AcDbEntity
  8
0-8
  6
Continuous
 62
     3
370
     9
100
AcDbLine
 10
-573.1184155126323
 20
714.9247171522478
 30
0.0
 11
-549.1183130018486
 21
714.9247171522478
 31
0.0
  0
LINE
  5
118
330
1F
100
AcDbEntity
  8
0-8
  6
JWW_CENTER1
 62
     7
370
     9
100
AcDbLine
 10
-580.5486367756782
 20
722.9247279924685
 30
0.0
 11
-541.6882317190451
 21
722.9247279924685
 31
0.0
  0
LINE
  5
119
330
1F
100
AcDbEntity
  8
0-8
  6
JWW_CENTER1
 62
     7
370
     9
100
AcDbLine
 10
-561.1183992523011
 20
703.4944904690915
 30
0.0
 11
-561.1183992523011
 21
742.3549655158457
 31
0.0
  0
LINE
  5
11A
330
1F
100
AcDbEntity
  8
0-8
  6
Continuous
 62
     3
370
     9
100
AcDbLine
 10
-565.118264692169
 20
650.9246304304814
 30
0.0
 11
-565.118264692169
 21
674.9248029313862
 31
0.0
  0
LINE
  5
11B
330
1F
100
AcDbEntity
  8
0-8
  6
Continuous
 62
     3
370
     9
100
AcDbLine
 10
-569.1183401024006
 20
650.9246304304814
 30
0.0
 11
-569.1183401024006
 21
674.9248029313862
 31
0.0
  0
LINE
  5
11C
330
1F
100
AcDbEntity
  8
0-8
  6
Continuous
 62
     3
370
     9
100
AcDbLine
 10
-561.1183992523011
 20
650.9246304304814
 30
0.0
 11
-561.1183992523011
 21
674.9248029313862
 31
0.0
  0
LINE
  5
11D
330
1F
100
AcDbEntity
  8
0-8
  6
Continuous
 62
     3
370
     9
100
AcDbLine
 10
-557.1184638223119
 20
650.9246304304814
 30
0.0
 11
-557.1184638223119
 21
674.9248029313862
 31
0.0
  0
LINE
  5
11E
330
1F
100
AcDbEntity
  8
0-8
  6
Continuous
 62
     3
370
     9
100
AcDbLine
 10
-553.1183884120802
 20
650.9246304304814
 30
0.0
 11
-553.1183884120802
 21
674.9248029313862
 31
0.0
  0
LINE
  5
11F
330
1F
100
AcDbEntity
  8
0-8
  6
Continuous
 62
     3
370
     9
100
AcDbLine
 10
-573.1184155126323
 20
666.924652110923
 30
0.0
 11
-549.1183130018486
 21
666.924652110923
 31
0.0
  0
LINE
  5
120
330
1F
100
AcDbEntity
  8
0-8
  6
Continuous
 62
     3
370
     9
100
AcDbLine
 10
-573.1184155126323
 20
670.9247275211546
 30
0.0
 11
-549.1183130018486
 21
670.9247275211546
 31
0.0
  0
LINE
  5
121
330
1F
100
AcDbEntity
  8
0-8
  6
Continuous
 62
     3
370
     9
100
AcDbLine
 10
-573.1184155126323
 20
662.9247166809339
 30
0.0
 11
-549.1183130018486
 21
662.9247166809339
 31
0.0
  0
LINE
  5
122
330
1F
100
AcDbEntity
  8
0-8
  6
Continuous
 62
     3
370
     9
100
AcDbLine
 10
-573.1184155126323
 20
658.9247812509448
 30
0.0
 11
-549.1183130018486
 21
658.9247812509448
 31
0.0
  0
LINE
  5
123
330
1F
100
AcDbEntity
  8
0-8
  6
Continuous
 62
     3
370
     9
100
AcDbLine
 10
-573.1184155126323
 20
654.9247058407132
 30
0.0
 11
-549.1183130018486
 21
654.9247058407132
 31
0.0
  0
LINE
  5
124
330
1F
100
AcDbEntity
  8
0-8
  6
JWW_CENTER1
 62
     7
370
     9
100
AcDbLine
 10
-580.5486367756782
 20
662.9247166809339
 30
0.0
 11
-541.6882317190451
 21
662.9247166809339
 31
0.0
  0
LINE
  5
125
330
1F
100
AcDbEntity
  8
0-8
  6
JWW_CENTER1
 62
     7
370
     9
100
AcDbLine
 10
-561.1183992523011
 20
643.4944791575566
 30
0.0
 11
-561.1183992523011
 21
682.354954204311
 31
0.0
  0
LINE
  5
126
330
1F
100
AcDbEntity
  8
0-8
  6
Continuous
 62
     3
370
     9
100
AcDbLine
 10
-565.118264692169
 20
590.9246191189466
 30
0.0
 11
-565.118264692169
 21
614.9247916198515
 31
0.0
  0
LINE
  5
127
330
1F
100
AcDbEntity
  8
0-8
  6
Continuous
 62
     3
370
     9
100
AcDbLine
 10
-569.1183401024006
 20
590.9246191189466
 30
0.0
 11
-569.1183401024006
 21
614.9247916198515
 31
0.0
  0
LINE
  5
128
330
1F
100
AcDbEntity
  8
0-8
  6
Continuous
 62
     3
370
     9
100
AcDbLine
 10
-561.1183992523011
 20
590.9246191189466
 30
0.0
 11
-561.1183992523011
 21
614.9247916198515
 31
0.0
  0
LINE
  5
129
330
1F
100
AcDbEntity
  8
0-8
  6
Continuous
 62
     3
370
     9
100
AcDbLine
 10
-557.1184638223119
 20
590.9246191189466
 30
0.0
 11
-557.1184638223119
 21
614.9247916198515
 31
0.0
  0
LINE
  5
12A
330
1F
100
AcDbEntity
  8
0-8
  6
Continuous
 62
     3
370
     9
100
AcDbLine
 10
-553.1183884120802
 20
590.9246191189466
 30
0.0
 11
-553.1183884120802
 21
614.9247916198515
 31
0.0
  0
LINE
  5
12B
330
1F
100
AcDbEntity
  8
0-8
  6
Continuous
 62
     3
370
     9
100
AcDbLine
 10
-573.1184155126323
 20
606.9246407993882
 30
0.0
 11
-549.1183130018486
 21
606.9246407993882
 31
0.0
  0
LINE
  5
12C
330
1F
100
AcDbEntity
  8
0-8
  6
Continuous
 62
     3
370
     9
100
AcDbLine
 10
-573.1184155126323
 20
610.9247162096199
 30
0.0
 11
-549.1183130018486
 21
610.9247162096199
 31
0.0
  0
LINE
  5
12D
330
1F
100
AcDbEntity
  8
0-8
  6
Continuous
 62
     3
370
     9
100
AcDbLine
 10
-573.1184155126323
 20
602.924705369399
 30
0.0
 11
-549.1183130018486
 21
602.924705369399
 31
0.0
  0
LINE
  5
12E
330
1F
100
AcDbEntity
  8
0-8
  6
Continuous
 62
     3
370
     9
100
AcDbLine
 10
-573.1184155126323
 20
598.9247699394099
 30
0.0
 11
-549.1183130018486
 21
598.9247699394099
 31
0.0
  0
LINE
  5
12F
330
1F
100
AcDbEntity
  8
0-8
  6
Continuous
 62
     3
370
     9
100
AcDbLine
 10
-573.1184155126323
 20
594.9246945291783
 30
0.0
 11
-549.1183130018486
 21
594.9246945291783
 31
0.0
  0
LINE
  5
130
330
1F
100
AcDbEntity
  8
0-8
  6
JWW_CENTER1
 62
     7
370
     9
100
AcDbLine
 10
-561.1183992523011
 20
583.4944678460218
 30
0.0
 11
-561.1183992523011
 21
622.3549428927763
 31
0.0
  0
LINE
  5
131
330
1F
100
AcDbEntity
  8
0-8
  6
Continuous
 62
     3
370
     9
100
AcDbLine
 10
-565.118264692169
 20
530.9246078074118
 30
0.0
 11
-565.118264692169
 21
554.9247803083168
 31
0.0
  0
LINE
  5
132
330
1F
100
AcDbEntity
  8
0-8
  6
Continuous
 62
     3
370
     9
100
AcDbLine
 10
-569.1183401024006
 20
530.9246078074118
 30
0.0
 11
-569.1183401024006
 21
554.9247803083168
 31
0.0
  0
LINE
  5
133
330
1F
100
AcDbEntity
  8
0-8
  6
Continuous
 62
     3
370
     9
100
AcDbLine
 10
-561.1183992523011
 20
530.9246078074118
 30
0.0
 11
-561.1183992523011
 21
554.9247803083168
 31
0.0
  0
LINE
  5
134
330
1F
100
AcDbEntity
  8
0-8
  6
Continuous
 62
     3
370
     9
100
AcDbLine
 10
-557.1184638223119
 20
530.9246078074118
 30
0.0
 11
-557.1184638223119
 21
554.9247803083168
 31
0.0
  0
LINE
  5
135
330
1F
100
AcDbEntity
  8
0-8
  6
Continuous
 62
     3
370
     9
100
AcDbLine
 10
-553.1183884120802
 20
530.9246078074118
 30
0.0
 11
-553.1183884120802
 21
554.9247803083168
 31
0.0
  0
LINE
  5
136
330
1F
100
AcDbEntity
  8
0-8
  6
Continuous
 62
     3
370
     9
100
AcDbLine
 10
-573.1184155126323
 20
546.9246294878535
 30
0.0
 11
-549.1183130018486
 21
546.9246294878535
 31
0.0
  0
LINE
  5
137
330
1F
100
AcDbEntity
  8
0-8
  6
Continuous
 62
     3
370
     9
100
AcDbLine
 10
-573.1184155126323
 20
550.9247048980851
 30
0.0
 11
-549.1183130018486
 21
550.9247048980851
 31
0.0
  0
LINE
  5
138
330
1F
100
AcDbEntity
  8
0-8
  6
Continuous
 62
     3
370
     9
100
AcDbLine
 10
-573.1184155126323
 20
542.9246940578644
 30
0.0
 11
-549.1183130018486
 21
542.9246940578644
 31
0.0
  0
LINE
  5
139
330
1F
100
AcDbEntity
  8
0-8
  6
Continuous
 62
     3
370
     9
100
AcDbLine
 10
-573.1184155126323
 20
538.9247586278751
 30
0.0
 11
-549.1183130018486
 21
538.9247586278751
 31
0.0
  0
LINE
  5
13A
330
1F
100
AcDbEntity
  8
0-8
  6
Continuous
 62
     3
370
     9
100
AcDbLine
 10
-573.1184155126323
 20
534.9246832176435
 30
0.0
 11
-549.1183130018486
 21
534.9246832176435
 31
0.0
  0
LINE
  5
13B
330
1F
100
AcDbEntity
  8
0-8
  6
JWW_CENTER1
 62
     7
370
     9
100
AcDbLine
 10
-580.5486367756782
 20
542.9246940578644
 30
0.0
 11
-541.6882317190451
 21
542.9246940578644
 31
0.0
  0
LINE
  5
13C
330
1F
100
AcDbEntity
  8
0-8
  6
JWW_CENTER1
 62
     7
370
     9
100
AcDbLine
 10
-561.1183992523011
 20
523.4944565344872
 30
0.0
 11
-561.1183992523011
 21
562.3549315812415
 31
0.0
  0
LINE
  5
13D
330
1F
100
AcDbEntity
  8
0-8
  6
Continuous
 62
     3
370
     9
100
AcDbLine
 10
-515.1186518765771
 20
638.9251041009991
 30
0.0
 11
-447.1184897445791
 21
638.9251041009991
 31
0.0
  0
LINE
  5
13E
330
1F
100
AcDbEntity
  8
0-8
  6
Continuous
 62
     3
370
     9
100
AcDbLine
 10
-515.1186518765771
 20
626.924317949334
 30
0.0
 11
-447.1184897445791
 21
626.924317949334
 31
0.0
  0
LINE
  5
13F
330
1F
100
AcDbEntity
  8
0-8
  6
JWW_CENTER1
 62
     7
370
     9
100
AcDbLine
 10
-481.118570810578
 20
642.96570379144
 30
0.0
 11
-481.118570810578
 21
622.8837882490142
 31
0.0
  0
LINE
  5
140
330
1F
100
AcDbEntity
  8
0-8
  6
Continuous
 62
     3
370
     9
100
AcDbLine
 10
-515.1186518765771
 20
578.9250927894642
 30
0.0
 11
-447.1184897445791
 21
578.9250927894642
 31
0.0
  0
LINE
  5
141
330
1F
100
AcDbEntity
  8
0-8
  6
Continuous
 62
     3
370
     9
100
AcDbLine
 10
-515.1186518765771
 20
566.9243066377992
 30
0.0
 11
-447.1184897445791
 21
566.9243066377992
 31
0.0
  0
LINE
  5
142
330
1F
100
AcDbEntity
  8
0-8
  6
JWW_CENTER1
 62
     7
370
     9
100
AcDbLine
 10
-481.118570810578
 20
582.9656924799052
 30
0.0
 11
-481.118570810578
 21
562.8837769374795
 31
0.0
  0
LINE
  5
143
330
1F
100
AcDbEntity
  8
0-8
  6
JWW_CENTER1
 62
     7
370
     9
100
AcDbLine
 10
-525.8322497081559
 20
572.9247697037531
 30
0.0
 11
-436.4048919130003
 21
572.9247697037531
 31
0.0
  0
LINE
  5
144
330
1F
100
AcDbEntity
  8
0-8
  6
Continuous
 62
     3
370
     9
100
AcDbLine
 10
-355.1185750524037
 20
698.9251154125337
 30
0.0
 11
-287.1185529006482
 21
698.9251154125337
 31
0.0
  0
LINE
  5
145
330
1F
100
AcDbEntity
  8
0-8
  6
Continuous
 62
     3
370
     9
100
AcDbLine
 10
-355.1185750524037
 20
686.9243292608687
 30
0.0
 11
-287.1185529006482
 21
686.9243292608687
 31
0.0
  0
LINE
  5
146
330
1F
100
AcDbEntity
  8
0-8
  6
JWW_CENTER1
 62
     7
370
     9
100
AcDbLine
 10
-365.8322428741037
 20
692.9247923268225
 30
0.0
 11
-276.4048850789479
 21
692.9247923268225
 31
0.0
  0
LINE
  5
147
330
1F
100
AcDbEntity
  8
0-8
  6
Continuous
 62
     3
370
     9
100
AcDbLine
 10
-405.1182578581167
 20
710.9246417420162
 30
0.0
 11
-405.1182578581167
 21
734.9248142429211
 31
0.0
  0
LINE
  5
148
330
1F
100
AcDbEntity
  8
0-8
  6
Continuous
 62
     3
370
     9
100
AcDbLine
 10
-409.1183332683484
 20
710.9246417420162
 30
0.0
 11
-409.1183332683484
 21
734.9248142429211
 31
0.0
  0
LINE
  5
149
330
1F
100
AcDbEntity
  8
0-8
  6
Continuous
 62
     3
370
     9
100
AcDbLine
 10
-401.1183924182487
 20
710.9246417420162
 30
0.0
 11
-401.1183924182487
 21
734.9248142429211
 31
0.0
  0
LINE
  5
14A
330
1F
100
AcDbEntity
  8
0-8
  6
Continuous
 62
     3
370
     9
100
AcDbLine
 10
-397.1184569882596
 20
710.9246417420162
 30
0.0
 11
-397.1184569882596
 21
734.9248142429211
 31
0.0
  0
LINE
  5
14B
330
1F
100
AcDbEntity
  8
0-8
  6
Continuous
 62
     3
370
     9
100
AcDbLine
 10
-393.118381578028
 20
710.9246417420162
 30
0.0
 11
-393.118381578028
 21
734.9248142429211
 31
0.0
  0
LINE
  5
14C
330
1F
100
AcDbEntity
  8
0-8
  6
Continuous
 62
     3
370
     9
100
AcDbLine
 10
-413.11840867858
 20
726.9246634224577
 30
0.0
 11
-389.1183061677964
 21
726.9246634224577
 31
0.0
  0
LINE
  5
14D
330
1F
100
AcDbEntity
  8
0-8
  6
Continuous
 62
     3
370
     9
100
AcDbLine
 10
-413.11840867858
 20
730.9247388326894
 30
0.0
 11
-389.1183061677964
 21
730.9247388326894
 31
0.0
  0
LINE
  5
14E
330
1F
100
AcDbEntity
  8
0-8
  6
Continuous
 62
     3
370
     9
100
AcDbLine
 10
-413.11840867858
 20
722.9247279924685
 30
0.0
 11
-389.1183061677964
 21
722.9247279924685
 31
0.0
  0
LINE
  5
14F
330
1F
100
AcDbEntity
  8
0-8
  6
Continuous
 62
     3
370
     9
100
AcDbLine
 10
-413.11840867858
 20
718.9247925624794
 30
0.0
 11
-389.1183061677964
 21
718.9247925624794
 31
0.0
  0
LINE
  5
150
330
1F
100
AcDbEntity
  8
0-8
  6
Continuous
 62
     3
370
     9
100
AcDbLine
 10
-413.11840867858
 20
714.9247171522478
 30
0.0
 11
-389.1183061677964
 21
714.9247171522478
 31
0.0
  0
LINE
  5
151
330
1F
100
AcDbEntity
  8
0-8
  6
JWW_CENTER1
 62
     7
370
     9
100
AcDbLine
 10
-420.5486299416259
 20
722.9247279924685
 30
0.0
 11
-381.6882248849929
 21
722.9247279924685
 31
0.0
  0
LINE
  5
152
330
1F
100
AcDbEntity
  8
0-8
  6
JWW_CENTER1
 62
     7
370
     9
100
AcDbLine
 10
-401.1183924182487
 20
703.4944904690915
 30
0.0
 11
-401.1183924182487
 21
742.3549655158457
 31
0.0
  0
LINE
  5
153
330
1F
100
AcDbEntity
  8
0-8
  6
Continuous
 62
     3
370
     9
100
AcDbLine
 10
-405.1182578581167
 20
650.9246304304814
 30
0.0
 11
-405.1182578581167
 21
674.9248029313862
 31
0.0
  0
LINE
  5
154
330
1F
100
AcDbEntity
  8
0-8
  6
Continuous
 62
     3
370
     9
100
AcDbLine
 10
-409.1183332683484
 20
650.9246304304814
 30
0.0
 11
-409.1183332683484
 21
674.9248029313862
 31
0.0
  0
LINE
  5
155
330
1F
100
AcDbEntity
  8
0-8
  6
Continuous
 62
     3
370
     9
100
AcDbLine
 10
-401.1183924182487
 20
650.9246304304814
 30
0.0
 11
-401.1183924182487
 21
674.9248029313862
 31
0.0
  0
LINE
  5
156
330
1F
100
AcDbEntity
  8
0-8
  6
Continuous
 62
     3
370
     9
100
AcDbLine
 10
-397.1184569882596
 20
650.9246304304814
 30
0.0
 11
-397.1184569882596
 21
674.9248029313862
 31
0.0
  0
LINE
  5
157
330
1F
100
AcDbEntity
  8
0-8
  6
Continuous
 62
     3
370
     9
100
AcDbLine
 10
-393.118381578028
 20
650.9246304304814
 30
0.0
 11
-393.118381578028
 21
674.9248029313862
 31
0.0
  0
LINE
  5
158
330
1F
100
AcDbEntity
  8
0-8
  6
Continuous
 62
     3
370
     9
100
AcDbLine
 10
-413.11840867858
 20
666.924652110923
 30
0.0
 11
-389.1183061677964
 21
666.924652110923
 31
0.0
  0
LINE
  5
159
330
1F
100
AcDbEntity
  8
0-8
  6
Continuous
 62
     3
370
     9
100
AcDbLine
 10
-413.11840867858
 20
670.9247275211546
 30
0.0
 11
-389.1183061677964
 21
670.9247275211546
 31
0.0
  0
LINE
  5
15A
330
1F
100
AcDbEntity
  8
0-8
  6
Continuous
 62
     3
370
     9
100
AcDbLine
 10
-413.11840867858
 20
662.9247166809339
 30
0.0
 11
-389.1183061677964
 21
662.9247166809339
 31
0.0
  0
LINE
  5
15B
330
1F
100
AcDbEntity
  8
0-8
  6
Continuous
 62
     3
370
     9
100
AcDbLine
 10
-413.11840867858
 20
658.9247812509448
 30
0.0
 11
-389.1183061677964
 21
658.9247812509448
 31
0.0
  0
LINE
  5
15C
330
1F
100
AcDbEntity
  8
0-8
  6
Continuous
 62
     3
370
     9
100
AcDbLine
 10
-413.11840867858
 20
654.9247058407132
 30
0.0
 11
-389.1183061677964
 21
654.9247058407132
 31
0.0
  0
LINE
  5
15D
330
1F
100
AcDbEntity
  8
0-8
  6
JWW_CENTER1
 62
     7
370
     9
100
AcDbLine
 10
-420.5486299416259
 20
662.9247166809339
 30
0.0
 11
-381.6882248849929
 21
662.9247166809339
 31
0.0
  0
LINE
  5
15E
330
1F
100
AcDbEntity
  8
0-8
  6
JWW_CENTER1
 62
     7
370
     9
100
AcDbLine
 10
-401.1183924182487
 20
643.4944791575566
 30
0.0
 11
-401.1183924182487
 21
682.354954204311
 31
0.0
  0
LINE
  5
15F
330
1F
100
AcDbEntity
  8
0-8
  6
Continuous
 62
     3
370
     9
100
AcDbLine
 10
-405.1182578581167
 20
590.9246191189466
 30
0.0
 11
-405.1182578581167
 21
614.9247916198515
 31
0.0
  0
LINE
  5
160
330
1F
100
AcDbEntity
  8
0-8
  6
Continuous
 62
     3
370
     9
100
AcDbLine
 10
-409.1183332683484
 20
590.9246191189466
 30
0.0
 11
-409.1183332683484
 21
614.9247916198515
 31
0.0
  0
LINE
  5
161
330
1F
100
AcDbEntity
  8
0-8
  6
Continuous
 62
     3
370
     9
100
AcDbLine
 10
-401.1183924182487
 20
590.9246191189466
 30
0.0
 11
-401.1183924182487
 21
614.9247916198515
 31
0.0
  0
LINE
  5
162
330
1F
100
AcDbEntity
  8
0-8
  6
Continuous
 62
     3
370
     9
100
AcDbLine
 10
-397.1184569882596
 20
590.9246191189466
 30
0.0
 11
-397.1184569882596
 21
614.9247916198515
 31
0.0
  0
LINE
  5
163
330
1F
100
AcDbEntity
  8
0-8
  6
Continuous
 62
     3
370
     9
100
AcDbLine
 10
-393.118381578028
 20
590.9246191189466
 30
0.0
 11
-393.118381578028
 21
614.9247916198515
 31
0.0
  0
LINE
  5
164
330
1F
100
AcDbEntity
  8
0-8
  6
Continuous
 62
     3
370
     9
100
AcDbLine
 10
-413.11840867858
 20
606.9246407993882
 30
0.0
 11
-389.1183061677964
 21
606.9246407993882
 31
0.0
  0
LINE
  5
165
330
1F
100
AcDbEntity
  8
0-8
  6
Continuous
 62
     3
370
     9
100
AcDbLine
 10
-413.11840867858
 20
610.9247162096199
 30
0.0
 11
-389.1183061677964
 21
610.9247162096199
 31
0.0
  0
LINE
  5
166
330
1F
100
AcDbEntity
  8
0-8
  6
Continuous
 62
     3
370
     9
100
AcDbLine
 10
-413.11840867858
 20
602.924705369399
 30
0.0
 11
-389.1183061677964
 21
602.924705369399
 31
0.0
  0
LINE
  5
167
330
1F
100
AcDbEntity
  8
0-8
  6
Continuous
 62
     3
370
     9
100
AcDbLine
 10
-413.11840867858
 20
598.9247699394099
 30
0.0
 11
-389.1183061677964
 21
598.9247699394099
 31
0.0
  0
LINE
  5
168
330
1F
100
AcDbEntity
  8
0-8
  6
Continuous
 62
     3
370
     9
100
AcDbLine
 10
-413.11840867858
 20
594.9246945291783
 30
0.0
 11
-389.1183061677964
 21
594.9246945291783
 31
0.0
  0
LINE
  5
169
330
1F
100
AcDbEntity
  8
0-8
  6
JWW_CENTER1
 62
     7
370
     9
100
AcDbLine
 10
-401.1183924182487
 20
583.4944678460218
 30
0.0
 11
-401.1183924182487
 21
622.3549428927763
 31
0.0
  0
LINE
  5
16A
330
1F
100
AcDbEntity
  8
0-8
  6
Continuous
 62
     3
370
     9
100
AcDbLine
 10
-405.1182578581167
 20
530.9246078074118
 30
0.0
 11
-405.1182578581167
 21
554.9247803083168
 31
0.0
  0
LINE
  5
16B
330
1F
100
AcDbEntity
  8
0-8
  6
Continuous
 62
     3
370
     9
100
AcDbLine
 10
-409.1183332683484
 20
530.9246078074118
 30
0.0
 11
-409.1183332683484
 21
554.9247803083168
 31
0.0
  0
LINE
  5
16C
330
1F
100
AcDbEntity
  8
0-8
  6
Continuous
 62
     3
370
     9
100
AcDbLine
 10
-401.1183924182487
 20
530.9246078074118
 30
0.0
 11
-401.1183924182487
 21
554.9247803083168
 31
0.0
  0
LINE
  5
16D
330
1F
100
AcDbEntity
  8
0-8
  6
Continuous
 62
     3
370
     9
100
AcDbLine
 10
-397.1184569882596
 20
530.9246078074118
 30
0.0
 11
-397.1184569882596
 21
554.9247803083168
 31
0.0
  0
LINE
  5
16E
330
1F
100
AcDbEntity
  8
0-8
  6
Continuous
 62
     3
370
     9
100
AcDbLine
 10
-393.118381578028
 20
530.9246078074118
 30
0.0
 11
-393.118381578028
 21
554.9247803083168
 31
0.0
  0
LINE
  5
16F
330
1F
100
AcDbEntity
  8
0-8
  6
Continuous
 62
     3
370
     9
100
AcDbLine
 10
-413.11840867858
 20
546.9246294878535
 30
0.0
 11
-389.1183061677964
 21
546.9246294878535
 31
0.0
  0
LINE
  5
170
330
1F
100
AcDbEntity
  8
0-8
  6
Continuous
 62
     3
370
     9
100
AcDbLine
 10
-413.11840867858
 20
550.9247048980851
 30
0.0
 11
-389.1183061677964
 21
550.9247048980851
 31
0.0
  0
LINE
  5
171
330
1F
100
AcDbEntity
  8
0-8
  6
Continuous
 62
     3
370
     9
100
AcDbLine
 10
-413.11840867858
 20
542.9246940578644
 30
0.0
 11
-389.1183061677964
 21
542.9246940578644
 31
0.0
  0
LINE
  5
172
330
1F
100
AcDbEntity
  8
0-8
  6
Continuous
 62
     3
370
     9
100
AcDbLine
 10
-413.11840867858
 20
538.9247586278751
 30
0.0
 11
-389.1183061677964
 21
538.9247586278751
 31
0.0
  0
LINE
  5
173
330
1F
100
AcDbEntity
  8
0-8
  6
Continuous
 62
     3
370
     9
100
AcDbLine
 10
-413.11840867858
 20
534.9246832176435
 30
0.0
 11
-389.1183061677964
 21
534.9246832176435
 31
0.0
  0
LINE
  5
174
330
1F
100
AcDbEntity
  8
0-8
  6
JWW_CENTER1
 62
     7
370
     9
100
AcDbLine
 10
-420.5486299416259
 20
542.9246940578644
 30
0.0
 11
-381.6882248849929
 21
542.9246940578644
 31
0.0
  0
LINE
  5
175
330
1F
100
AcDbEntity
  8
0-8
  6
JWW_CENTER1
 62
     7
370
     9
100
AcDbLine
 10
-401.1183924182487
 20
523.4944565344872
 30
0.0
 11
-401.1183924182487
 21
562.3549315812415
 31
0.0
  0
LINE
  5
176
330
1F
100
AcDbEntity
  8
0-8
  6
Continuous
 62
     3
370
     9
100
AcDbLine
 10
-355.1185750524037
 20
638.9251041009991
 30
0.0
 11
-287.1185529006482
 21
638.9251041009991
 31
0.0
  0
LINE
  5
177
330
1F
100
AcDbEntity
  8
0-8
  6
Continuous
 62
     3
370
     9
100
AcDbLine
 10
-355.1185750524037
 20
626.924317949334
 30
0.0
 11
-287.1185529006482
 21
626.924317949334
 31
0.0
  0
LINE
  5
178
330
1F
100
AcDbEntity
  8
0-8
  6
Continuous
 62
     3
370
     9
100
AcDbLine
 10
-355.1185750524037
 20
578.9250927894642
 30
0.0
 11
-287.1185529006482
 21
578.9250927894642
 31
0.0
  0
LINE
  5
179
330
1F
100
AcDbEntity
  8
0-8
  6
Continuous
 62
     3
370
     9
100
AcDbLine
 10
-355.1185750524037
 20
566.9243066377992
 30
0.0
 11
-287.1185529006482
 21
566.9243066377992
 31
0.0
  0
LINE
  5
17A
330
1F
100
AcDbEntity
  8
0-8
  6
JWW_CENTER1
 62
     7
370
     9
100
AcDbLine
 10
-365.8322428741037
 20
572.9247697037531
 30
0.0
 11
-276.4048850789479
 21
572.9247697037531
 31
0.0
  0
LINE
  5
17B
330
1F
100
AcDbEntity
  8
0-8
  6
Continuous
 62
     3
370
     9
100
AcDbLine
 10
-195.1186382084727
 20
698.9251154125337
 30
0.0
 11
-127.1184760764745
 21
698.9251154125337
 31
0.0
  0
LINE
  5
17C
330
1F
100
AcDbEntity
  8
0-8
  6
Continuous
 62
     3
370
     9
100
AcDbLine
 10
-195.1186382084727
 20
686.9243292608687
 30
0.0
 11
-127.1184760764745
 21
686.9243292608687
 31
0.0
  0
LINE
  5
17D
330
1F
100
AcDbEntity
  8
0-8
  6
JWW_CENTER1
 62
     7
370
     9
100
AcDbLine
 10
-161.1185571424737
 20
702.9657151029749
 30
0.0
 11
-161.1185571424737
 21
682.8837995605489
 31
0.0
  0
LINE
  5
17E
330
1F
100
AcDbEntity
  8
0-8
  6
JWW_CENTER1
 62
     7
370
     9
100
AcDbLine
 10
-205.8323060301727
 20
692.9247923268225
 30
0.0
 11
-116.4049482350169
 21
692.9247923268225
 31
0.0
  0
LINE
  5
17F
330
1F
100
AcDbEntity
  8
0-8
  6
Continuous
 62
     3
370
     9
100
AcDbLine
 10
-245.1183210141858
 20
710.9246417420162
 30
0.0
 11
-245.1183210141858
 21
734.9248142429211
 31
0.0
  0
LINE
  5
180
330
1F
100
AcDbEntity
  8
0-8
  6
Continuous
 62
     3
370
     9
100
AcDbLine
 10
-249.1183964244174
 20
710.9246417420162
 30
0.0
 11
-249.1183964244174
 21
734.9248142429211
 31
0.0
  0
LINE
  5
181
330
1F
100
AcDbEntity
  8
0-8
  6
Continuous
 62
     3
370
     9
100
AcDbLine
 10
-241.1183855841966
 20
710.9246417420162
 30
0.0
 11
-241.1183855841966
 21
734.9248142429211
 31
0.0
  0
LINE
  5
182
330
1F
100
AcDbEntity
  8
0-8
  6
Continuous
 62
     3
370
     9
100
AcDbLine
 10
-237.1184501542075
 20
710.9246417420162
 30
0.0
 11
-237.1184501542075
 21
734.9248142429211
 31
0.0
  0
LINE
  5
183
330
1F
100
AcDbEntity
  8
0-8
  6
Continuous
 62
     3
370
     9
100
AcDbLine
 10
-233.1183747439759
 20
710.9246417420162
 30
0.0
 11
-233.1183747439759
 21
734.9248142429211
 31
0.0
  0
LINE
  5
184
330
1F
100
AcDbEntity
  8
0-8
  6
Continuous
 62
     3
370
     9
100
AcDbLine
 10
-253.118471834649
 20
726.9246634224577
 30
0.0
 11
-229.1182993337441
 21
726.9246634224577
 31
0.0
  0
LINE
  5
185
330
1F
100
AcDbEntity
  8
0-8
  6
Continuous
 62
     3
370
     9
100
AcDbLine
 10
-253.118471834649
 20
730.9247388326894
 30
0.0
 11
-229.1182993337441
 21
730.9247388326894
 31
0.0
  0
LINE
  5
186
330
1F
100
AcDbEntity
  8
0-8
  6
Continuous
 62
     3
370
     9
100
AcDbLine
 10
-253.118471834649
 20
722.9247279924685
 30
0.0
 11
-229.1182993337441
 21
722.9247279924685
 31
0.0
  0
LINE
  5
187
330
1F
100
AcDbEntity
  8
0-8
  6
Continuous
 62
     3
370
     9
100
AcDbLine
 10
-253.118471834649
 20
718.9247925624794
 30
0.0
 11
-229.1182993337441
 21
718.9247925624794
 31
0.0
  0
LINE
  5
188
330
1F
100
AcDbEntity
  8
0-8
  6
Continuous
 62
     3
370
     9
100
AcDbLine
 10
-253.118471834649
 20
714.9247171522478
 30
0.0
 11
-229.1182993337441
 21
714.9247171522478
 31
0.0
  0
LINE
  5
189
330
1F
100
AcDbEntity
  8
0-8
  6
JWW_CENTER1
 62
     7
370
     9
100
AcDbLine
 10
-260.5486231075738
 20
722.9247279924685
 30
0.0
 11
-221.6881480608195
 21
722.9247279924685
 31
0.0
  0
LINE
  5
18A
330
1F
100
AcDbEntity
  8
0-8
  6
JWW_CENTER1
 62
     7
370
     9
100
AcDbLine
 10
-241.1183855841966
 20
703.4944904690915
 30
0.0
 11
-241.1183855841966
 21
742.3549655158457
 31
0.0
  0
LINE
  5
18B
330
1F
100
AcDbEntity
  8
0-8
  6
Continuous
 62
     3
370
     9
100
AcDbLine
 10
-245.1183210141858
 20
650.9246304304814
 30
0.0
 11
-245.1183210141858
 21
674.9248029313862
 31
0.0
  0
LINE
  5
18C
330
1F
100
AcDbEntity
  8
0-8
  6
Continuous
 62
     3
370
     9
100
AcDbLine
 10
-249.1183964244174
 20
650.9246304304814
 30
0.0
 11
-249.1183964244174
 21
674.9248029313862
 31
0.0
  0
LINE
  5
18D
330
1F
100
AcDbEntity
  8
0-8
  6
Continuous
 62
     3
370
     9
100
AcDbLine
 10
-241.1183855841966
 20
650.9246304304814
 30
0.0
 11
-241.1183855841966
 21
674.9248029313862
 31
0.0
  0
LINE
  5
18E
330
1F
100
AcDbEntity
  8
0-8
  6
Continuous
 62
     3
370
     9
100
AcDbLine
 10
-237.1184501542075
 20
650.9246304304814
 30
0.0
 11
-237.1184501542075
 21
674.9248029313862
 31
0.0
  0
LINE
  5
18F
330
1F
100
AcDbEntity
  8
0-8
  6
Continuous
 62
     3
370
     9
100
AcDbLine
 10
-233.1183747439759
 20
650.9246304304814
 30
0.0
 11
-233.1183747439759
 21
674.9248029313862
 31
0.0
  0
LINE
  5
190
330
1F
100
AcDbEntity
  8
0-8
  6
Continuous
 62
     3
370
     9
100
AcDbLine
 10
-253.118471834649
 20
666.924652110923
 30
0.0
 11
-229.1182993337441
 21
666.924652110923
 31
0.0
  0
LINE
  5
191
330
1F
100
AcDbEntity
  8
0-8
  6
Continuous
 62
     3
370
     9
100
AcDbLine
 10
-253.118471834649
 20
670.9247275211546
 30
0.0
 11
-229.1182993337441
 21
670.9247275211546
 31
0.0
  0
LINE
  5
192
330
1F
100
AcDbEntity
  8
0-8
  6
Continuous
 62
     3
370
     9
100
AcDbLine
 10
-253.118471834649
 20
662.9247166809339
 30
0.0
 11
-229.1182993337441
 21
662.9247166809339
 31
0.0
  0
LINE
  5
193
330
1F
100
AcDbEntity
  8
0-8
  6
Continuous
 62
     3
370
     9
100
AcDbLine
 10
-253.118471834649
 20
658.9247812509448
 30
0.0
 11
-229.1182993337441
 21
658.9247812509448
 31
0.0
  0
LINE
  5
194
330
1F
100
AcDbEntity
  8
0-8
  6
Continuous
 62
     3
370
     9
100
AcDbLine
 10
-253.118471834649
 20
654.9247058407132
 30
0.0
 11
-229.1182993337441
 21
654.9247058407132
 31
0.0
  0
LINE
  5
195
330
1F
100
AcDbEntity
  8
0-8
  6
JWW_CENTER1
 62
     7
370
     9
100
AcDbLine
 10
-260.5486231075738
 20
662.9247166809339
 30
0.0
 11
-221.6881480608195
 21
662.9247166809339
 31
0.0
  0
LINE
  5
196
330
1F
100
AcDbEntity
  8
0-8
  6
JWW_CENTER1
 62
     7
370
     9
100
AcDbLine
 10
-241.1183855841966
 20
643.4944791575566
 30
0.0
 11
-241.1183855841966
 21
682.354954204311
 31
0.0
  0
LINE
  5
197
330
1F
100
AcDbEntity
  8
0-8
  6
Continuous
 62
     3
370
     9
100
AcDbLine
 10
-245.1183210141858
 20
590.9246191189466
 30
0.0
 11
-245.1183210141858
 21
614.9247916198515
 31
0.0
  0
LINE
  5
198
330
1F
100
AcDbEntity
  8
0-8
  6
Continuous
 62
     3
370
     9
100
AcDbLine
 10
-249.1183964244174
 20
590.9246191189466
 30
0.0
 11
-249.1183964244174
 21
614.9247916198515
 31
0.0
  0
LINE
  5
199
330
1F
100
AcDbEntity
  8
0-8
  6
Continuous
 62
     3
370
     9
100
AcDbLine
 10
-241.1183855841966
 20
590.9246191189466
 30
0.0
 11
-241.1183855841966
 21
614.9247916198515
 31
0.0
  0
LINE
  5
19A
330
1F
100
AcDbEntity
  8
0-8
  6
Continuous
 62
     3
370
     9
100
AcDbLine
 10
-237.1184501542075
 20
590.9246191189466
 30
0.0
 11
-237.1184501542075
 21
614.9247916198515
 31
0.0
  0
LINE
  5
19B
330
1F
100
AcDbEntity
  8
0-8
  6
Continuous
 62
     3
370
     9
100
AcDbLine
 10
-233.1183747439759
 20
590.9246191189466
 30
0.0
 11
-233.1183747439759
 21
614.9247916198515
 31
0.0
  0
LINE
  5
19C
330
1F
100
AcDbEntity
  8
0-8
  6
Continuous
 62
     3
370
     9
100
AcDbLine
 10
-253.118471834649
 20
606.9246407993882
 30
0.0
 11
-229.1182993337441
 21
606.9246407993882
 31
0.0
  0
LINE
  5
19D
330
1F
100
AcDbEntity
  8
0-8
  6
Continuous
 62
     3
370
     9
100
AcDbLine
 10
-253.118471834649
 20
610.9247162096199
 30
0.0
 11
-229.1182993337441
 21
610.9247162096199
 31
0.0
  0
LINE
  5
19E
330
1F
100
AcDbEntity
  8
0-8
  6
Continuous
 62
     3
370
     9
100
AcDbLine
 10
-253.118471834649
 20
602.924705369399
 30
0.0
 11
-229.1182993337441
 21
602.924705369399
 31
0.0
  0
LINE
  5
19F
330
1F
100
AcDbEntity
  8
0-8
  6
Continuous
 62
     3
370
     9
100
AcDbLine
 10
-253.118471834649
 20
598.9247699394099
 30
0.0
 11
-229.1182993337441
 21
598.9247699394099
 31
0.0
  0
LINE
  5
1A0
330
1F
100
AcDbEntity
  8
0-8
  6
Continuous
 62
     3
370
     9
100
AcDbLine
 10
-253.118471834649
 20
594.9246945291783
 30
0.0
 11
-229.1182993337441
 21
594.9246945291783
 31
0.0
  0
LINE
  5
1A1
330
1F
100
AcDbEntity
  8
0-8
  6
JWW_CENTER1
 62
     7
370
     9
100
AcDbLine
 10
-241.1183855841966
 20
583.4944678460218
 30
0.0
 11
-241.1183855841966
 21
622.3549428927763
 31
0.0
  0
LINE
  5
1A2
330
1F
100
AcDbEntity
  8
0-8
  6
Continuous
 62
     3
370
     9
100
AcDbLine
 10
-245.1183210141858
 20
530.9246078074118
 30
0.0
 11
-245.1183210141858
 21
554.9247803083168
 31
0.0
  0
LINE
  5
1A3
330
1F
100
AcDbEntity
  8
0-8
  6
Continuous
 62
     3
370
     9
100
AcDbLine
 10
-249.1183964244174
 20
530.9246078074118
 30
0.0
 11
-249.1183964244174
 21
554.9247803083168
 31
0.0
  0
LINE
  5
1A4
330
1F
100
AcDbEntity
  8
0-8
  6
Continuous
 62
     3
370
     9
100
AcDbLine
 10
-241.1183855841966
 20
530.9246078074118
 30
0.0
 11
-241.1183855841966
 21
554.9247803083168
 31
0.0
  0
LINE
  5
1A5
330
1F
100
AcDbEntity
  8
0-8
  6
Continuous
 62
     3
370
     9
100
AcDbLine
 10
-237.1184501542075
 20
530.9246078074118
 30
0.0
 11
-237.1184501542075
 21
554.9247803083168
 31
0.0
  0
LINE
  5
1A6
330
1F
100
AcDbEntity
  8
0-8
  6
Continuous
 62
     3
370
     9
100
AcDbLine
 10
-233.1183747439759
 20
530.9246078074118
 30
0.0
 11
-233.1183747439759
 21
554.9247803083168
 31
0.0
  0
LINE
  5
1A7
330
1F
100
AcDbEntity
  8
0-8
  6
Continuous
 62
     3
370
     9
100
AcDbLine
 10
-253.118471834649
 20
546.9246294878535
 30
0.0
 11
-229.1182993337441
 21
546.9246294878535
 31
0.0
  0
LINE
  5
1A8
330
1F
100
AcDbEntity
  8
0-8
  6
Continuous
 62
     3
370
     9
100
AcDbLine
 10
-253.118471834649
 20
550.9247048980851
 30
0.0
 11
-229.1182993337441
 21
550.9247048980851
 31
0.0
  0
LINE
  5
1A9
330
1F
100
AcDbEntity
  8
0-8
  6
Continuous
 62
     3
370
     9
100
AcDbLine
 10
-253.118471834649
 20
542.9246940578644
 30
0.0
 11
-229.1182993337441
 21
542.9246940578644
 31
0.0
  0
LINE
  5
1AA
330
1F
100
AcDbEntity
  8
0-8
  6
Continuous
 62
     3
370
     9
100
AcDbLine
 10
-253.118471834649
 20
538.9247586278751
 30
0.0
 11
-229.1182993337441
 21
538.9247586278751
 31
0.0
  0
LINE
  5
1AB
330
1F
100
AcDbEntity
  8
0-8
  6
Continuous
 62
     3
370
     9
100
AcDbLine
 10
-253.118471834649
 20
534.9246832176435
 30
0.0
 11
-229.1182993337441
 21
534.9246832176435
 31
0.0
  0
LINE
  5
1AC
330
1F
100
AcDbEntity
  8
0-8
  6
JWW_CENTER1
 62
     7
370
     9
100
AcDbLine
 10
-260.5486231075738
 20
542.9246940578644
 30
0.0
 11
-221.6881480608195
 21
542.9246940578644
 31
0.0
  0
LINE
  5
1AD
330
1F
100
AcDbEntity
  8
0-8
  6
JWW_CENTER1
 62
     7
370
     9
100
AcDbLine
 10
-241.1183855841966
 20
523.4944565344872
 30
0.0
 11
-241.1183855841966
 21
562.3549315812415
 31
0.0
  0
LINE
  5
1AE
330
1F
100
AcDbEntity
  8
0-8
  6
Continuous
 62
     3
370
     9
100
AcDbLine
 10
-195.1186382084727
 20
638.9251041009991
 30
0.0
 11
-127.1184760764745
 21
638.9251041009991
 31
0.0
  0
LINE
  5
1AF
330
1F
100
AcDbEntity
  8
0-8
  6
Continuous
 62
     3
370
     9
100
AcDbLine
 10
-195.1186382084727
 20
626.924317949334
 30
0.0
 11
-127.1184760764745
 21
626.924317949334
 31
0.0
  0
LINE
  5
1B0
330
1F
100
AcDbEntity
  8
0-8
  6
JWW_CENTER1
 62
     7
370
     9
100
AcDbLine
 10
-161.1185571424737
 20
642.96570379144
 30
0.0
 11
-161.1185571424737
 21
622.8837882490142
 31
0.0
  0
LINE
  5
1B1
330
1F
100
AcDbEntity
  8
0-8
  6
Continuous
 62
     3
370
     9
100
AcDbLine
 10
-195.1186382084727
 20
578.9250927894642
 30
0.0
 11
-127.1184760764745
 21
578.9250927894642
 31
0.0
  0
LINE
  5
1B2
330
1F
100
AcDbEntity
  8
0-8
  6
Continuous
 62
     3
370
     9
100
AcDbLine
 10
-195.1186382084727
 20
566.9243066377992
 30
0.0
 11
-127.1184760764745
 21
566.9243066377992
 31
0.0
  0
LINE
  5
1B3
330
1F
100
AcDbEntity
  8
0-8
  6
JWW_CENTER1
 62
     7
370
     9
100
AcDbLine
 10
-161.1185571424737
 20
582.9656924799052
 30
0.0
 11
-161.1185571424737
 21
562.8837769374795
 31
0.0
  0
LINE
  5
1B4
330
1F
100
AcDbEntity
  8
0-8
  6
JWW_CENTER1
 62
     7
370
     9
100
AcDbLine
 10
-205.8323060301727
 20
572.9247697037531
 30
0.0
 11
-116.4049482350169
 21
572.9247697037531
 31
0.0
  0
LINE
  5
1B5
330
1F
100
AcDbEntity
  8
0-8
  6
Continuous
 62
     3
370
     9
100
AcDbLine
 10
-35.11870136454171
 20
698.9251154125337
 30
0.0
 11
32.88146076745647
 21
698.9251154125337
 31
0.0
  0
LINE
  5
1B6
330
1F
100
AcDbEntity
  8
0-8
  6
Continuous
 62
     3
370
     9
100
AcDbLine
 10
-35.11870136454171
 20
686.9243292608687
 30
0.0
 11
32.88146076745647
 21
686.9243292608687
 31
0.0
  0
LINE
  5
1B7
330
1F
100
AcDbEntity
  8
0-8
  6
JWW_CENTER1
 62
     7
370
     9
100
AcDbLine
 10
-1.118620298542723
 20
702.9657151029749
 30
0.0
 11
-1.118620298542723
 21
682.8837995605489
 31
0.0
  0
LINE
  5
1B8
330
1F
100
AcDbEntity
  8
0-8
  6
JWW_CENTER1
 62
     7
370
     9
100
AcDbLine
 10
-45.83222920599926
 20
692.9247923268225
 30
0.0
 11
43.5951285891565
 21
692.9247923268225
 31
0.0
  0
LINE
  5
1B9
330
1F
100
AcDbEntity
  8
0-8
  6
Continuous
 62
     3
370
     9
100
AcDbLine
 10
-85.11824419001232
 20
710.9246417420162
 30
0.0
 11
-85.11824419001232
 21
734.9248142429211
 31
0.0
  0
LINE
  5
1BA
330
1F
100
AcDbEntity
  8
0-8
  6
Continuous
 62
     3
370
     9
100
AcDbLine
 10
-89.1183196002439
 20
710.9246417420162
 30
0.0
 11
-89.1183196002439
 21
734.9248142429211
 31
0.0
  0
LINE
  5
1BB
330
1F
100
AcDbEntity
  8
0-8
  6
Continuous
 62
     3
370
     9
100
AcDbLine
 10
-81.11844874026562
 20
710.9246417420162
 30
0.0
 11
-81.11844874026562
 21
734.9248142429211
 31
0.0
  0
LINE
  5
1BC
330
1F
100
AcDbEntity
  8
0-8
  6
Continuous
 62
     3
370
     9
100
AcDbLine
 10
-77.11837333003405
 20
710.9246417420162
 30
0.0
 11
-77.11837333003405
 21
734.9248142429211
 31
0.0
  0
LINE
  5
1BD
330
1F
100
AcDbEntity
  8
0-8
  6
Continuous
 62
     3
370
     9
100
AcDbLine
 10
-73.11829791980219
 20
710.9246417420162
 30
0.0
 11
-73.11829791980219
 21
734.9248142429211
 31
0.0
  0
LINE
  5
1BE
330
1F
100
AcDbEntity
  8
0-8
  6
Continuous
 62
     3
370
     9
100
AcDbLine
 10
-93.11839501047551
 20
726.9246634224577
 30
0.0
 11
-69.11822250957061
 21
726.9246634224577
 31
0.0
  0
LINE
  5
1BF
330
1F
100
AcDbEntity
  8
0-8
  6
Continuous
 62
     3
370
     9
100
AcDbLine
 10
-93.11839501047551
 20
730.9247388326894
 30
0.0
 11
-69.11822250957061
 21
730.9247388326894
 31
0.0
  0
LINE
  5
1C0
330
1F
100
AcDbEntity
  8
0-8
  6
Continuous
 62
     3
370
     9
100
AcDbLine
 10
-93.11839501047551
 20
722.9247279924685
 30
0.0
 11
-69.11822250957061
 21
722.9247279924685
 31
0.0
  0
LINE
  5
1C1
330
1F
100
AcDbEntity
  8
0-8
  6
Continuous
 62
     3
370
     9
100
AcDbLine
 10
-93.11839501047551
 20
718.9247925624794
 30
0.0
 11
-69.11822250957061
 21
718.9247925624794
 31
0.0
  0
LINE
  5
1C2
330
1F
100
AcDbEntity
  8
0-8
  6
Continuous
 62
     3
370
     9
100
AcDbLine
 10
-93.11839501047551
 20
714.9247171522478
 30
0.0
 11
-69.11822250957061
 21
714.9247171522478
 31
0.0
  0
LINE
  5
1C3
330
1F
100
AcDbEntity
  8
0-8
  6
JWW_CENTER1
 62
     7
370
     9
100
AcDbLine
 10
-100.5485462834004
 20
722.9247279924685
 30
0.0
 11
-61.68821121688847
 21
722.9247279924685
 31
0.0
  0
LINE
  5
1C4
330
1F
100
AcDbEntity
  8
0-8
  6
JWW_CENTER1
 62
     7
370
     9
100
AcDbLine
 10
-81.11844874026562
 20
703.4944904690915
 30
0.0
 11
-81.11844874026562
 21
742.3549655158457
 31
0.0
  0
LINE
  5
1C5
330
1F
100
AcDbEntity
  8
0-8
  6
Continuous
 62
     3
370
     9
100
AcDbLine
 10
-85.11824419001232
 20
650.9246304304814
 30
0.0
 11
-85.11824419001232
 21
674.9248029313862
 31
0.0
  0
LINE
  5
1C6
330
1F
100
AcDbEntity
  8
0-8
  6
Continuous
 62
     3
370
     9
100
AcDbLine
 10
-89.1183196002439
 20
650.9246304304814
 30
0.0
 11
-89.1183196002439
 21
674.9248029313862
 31
0.0
  0
LINE
  5
1C7
330
1F
100
AcDbEntity
  8
0-8
  6
Continuous
 62
     3
370
     9
100
AcDbLine
 10
-81.11844874026562
 20
650.9246304304814
 30
0.0
 11
-81.11844874026562
 21
674.9248029313862
 31
0.0
  0
LINE
  5
1C8
330
1F
100
AcDbEntity
  8
0-8
  6
Continuous
 62
     3
370
     9
100
AcDbLine
 10
-77.11837333003405
 20
650.9246304304814
 30
0.0
 11
-77.11837333003405
 21
674.9248029313862
 31
0.0
  0
LINE
  5
1C9
330
1F
100
AcDbEntity
  8
0-8
  6
Continuous
 62
     3
370
     9
100
AcDbLine
 10
-73.11829791980219
 20
650.9246304304814
 30
0.0
 11
-73.11829791980219
 21
674.9248029313862
 31
0.0
  0
LINE
  5
1CA
330
1F
100
AcDbEntity
  8
0-8
  6
Continuous
 62
     3
370
     9
100
AcDbLine
 10
-93.11839501047551
 20
666.924652110923
 30
0.0
 11
-69.11822250957061
 21
666.924652110923
 31
0.0
  0
LINE
  5
1CB
330
1F
100
AcDbEntity
  8
0-8
  6
Continuous
 62
     3
370
     9
100
AcDbLine
 10
-93.11839501047551
 20
670.9247275211546
 30
0.0
 11
-69.11822250957061
 21
670.9247275211546
 31
0.0
  0
LINE
  5
1CC
330
1F
100
AcDbEntity
  8
0-8
  6
Continuous
 62
     3
370
     9
100
AcDbLine
 10
-93.11839501047551
 20
662.9247166809339
 30
0.0
 11
-69.11822250957061
 21
662.9247166809339
 31
0.0
  0
LINE
  5
1CD
330
1F
100
AcDbEntity
  8
0-8
  6
Continuous
 62
     3
370
     9
100
AcDbLine
 10
-93.11839501047551
 20
658.9247812509448
 30
0.0
 11
-69.11822250957061
 21
658.9247812509448
 31
0.0
  0
LINE
  5
1CE
330
1F
100
AcDbEntity
  8
0-8
  6
Continuous
 62
     3
370
     9
100
AcDbLine
 10
-93.11839501047551
 20
654.9247058407132
 30
0.0
 11
-69.11822250957061
 21
654.9247058407132
 31
0.0
  0
LINE
  5
1CF
330
1F
100
AcDbEntity
  8
0-8
  6
JWW_CENTER1
 62
     7
370
     9
100
AcDbLine
 10
-100.5485462834004
 20
662.9247166809339
 30
0.0
 11
-61.68821121688847
 21
662.9247166809339
 31
0.0
  0
LINE
  5
1D0
330
1F
100
AcDbEntity
  8
0-8
  6
JWW_CENTER1
 62
     7
370
     9
100
AcDbLine
 10
-81.11844874026562
 20
643.4944791575566
 30
0.0
 11
-81.11844874026562
 21
682.354954204311
 31
0.0
  0
LINE
  5
1D1
330
1F
100
AcDbEntity
  8
0-8
  6
Continuous
 62
     3
370
     9
100
AcDbLine
 10
-85.11824419001232
 20
590.9246191189466
 30
0.0
 11
-85.11824419001232
 21
614.9247916198515
 31
0.0
  0
LINE
  5
1D2
330
1F
100
AcDbEntity
  8
0-8
  6
Continuous
 62
     3
370
     9
100
AcDbLine
 10
-89.1183196002439
 20
590.9246191189466
 30
0.0
 11
-89.1183196002439
 21
614.9247916198515
 31
0.0
  0
LINE
  5
1D3
330
1F
100
AcDbEntity
  8
0-8
  6
Continuous
 62
     3
370
     9
100
AcDbLine
 10
-81.11844874026562
 20
590.9246191189466
 30
0.0
 11
-81.11844874026562
 21
614.9247916198515
 31
0.0
  0
LINE
  5
1D4
330
1F
100
AcDbEntity
  8
0-8
  6
Continuous
 62
     3
370
     9
100
AcDbLine
 10
-77.11837333003405
 20
590.9246191189466
 30
0.0
 11
-77.11837333003405
 21
614.9247916198515
 31
0.0
  0
LINE
  5
1D5
330
1F
100
AcDbEntity
  8
0-8
  6
Continuous
 62
     3
370
     9
100
AcDbLine
 10
-73.11829791980219
 20
590.9246191189466
 30
0.0
 11
-73.11829791980219
 21
614.9247916198515
 31
0.0
  0
LINE
  5
1D6
330
1F
100
AcDbEntity
  8
0-8
  6
Continuous
 62
     3
370
     9
100
AcDbLine
 10
-93.11839501047551
 20
606.9246407993882
 30
0.0
 11
-69.11822250957061
 21
606.9246407993882
 31
0.0
  0
LINE
  5
1D7
330
1F
100
AcDbEntity
  8
0-8
  6
Continuous
 62
     3
370
     9
100
AcDbLine
 10
-93.11839501047551
 20
610.9247162096199
 30
0.0
 11
-69.11822250957061
 21
610.9247162096199
 31
0.0
  0
LINE
  5
1D8
330
1F
100
AcDbEntity
  8
0-8
  6
Continuous
 62
     3
370
     9
100
AcDbLine
 10
-93.11839501047551
 20
602.924705369399
 30
0.0
 11
-69.11822250957061
 21
602.924705369399
 31
0.0
  0
LINE
  5
1D9
330
1F
100
AcDbEntity
  8
0-8
  6
Continuous
 62
     3
370
     9
100
AcDbLine
 10
-93.11839501047551
 20
598.9247699394099
 30
0.0
 11
-69.11822250957061
 21
598.9247699394099
 31
0.0
  0
LINE
  5
1DA
330
1F
100
AcDbEntity
  8
0-8
  6
Continuous
 62
     3
370
     9
100
AcDbLine
 10
-93.11839501047551
 20
594.9246945291783
 30
0.0
 11
-69.11822250957061
 21
594.9246945291783
 31
0.0
  0
LINE
  5
1DB
330
1F
100
AcDbEntity
  8
0-8
  6
JWW_CENTER1
 62
     7
370
     9
100
AcDbLine
 10
-81.11844874026562
 20
583.4944678460218
 30
0.0
 11
-81.11844874026562
 21
622.3549428927763
 31
0.0
  0
LINE
  5
1DC
330
1F
100
AcDbEntity
  8
0-8
  6
Continuous
 62
     3
370
     9
100
AcDbLine
 10
-85.11824419001232
 20
530.9246078074118
 30
0.0
 11
-85.11824419001232
 21
554.9247803083168
 31
0.0
  0
LINE
  5
1DD
330
1F
100
AcDbEntity
  8
0-8
  6
Continuous
 62
     3
370
     9
100
AcDbLine
 10
-89.1183196002439
 20
530.9246078074118
 30
0.0
 11
-89.1183196002439
 21
554.9247803083168
 31
0.0
  0
LINE
  5
1DE
330
1F
100
AcDbEntity
  8
0-8
  6
Continuous
 62
     3
370
     9
100
AcDbLine
 10
-81.11844874026562
 20
530.9246078074118
 30
0.0
 11
-81.11844874026562
 21
554.9247803083168
 31
0.0
  0
LINE
  5
1DF
330
1F
100
AcDbEntity
  8
0-8
  6
Continuous
 62
     3
370
     9
100
AcDbLine
 10
-77.11837333003405
 20
530.9246078074118
 30
0.0
 11
-77.11837333003405
 21
554.9247803083168
 31
0.0
  0
LINE
  5
1E0
330
1F
100
AcDbEntity
  8
0-8
  6
Continuous
 62
     3
370
     9
100
AcDbLine
 10
-73.11829791980219
 20
530.9246078074118
 30
0.0
 11
-73.11829791980219
 21
554.9247803083168
 31
0.0
  0
LINE
  5
1E1
330
1F
100
AcDbEntity
  8
0-8
  6
Continuous
 62
     3
370
     9
100
AcDbLine
 10
-93.11839501047551
 20
546.9246294878535
 30
0.0
 11
-69.11822250957061
 21
546.9246294878535
 31
0.0
  0
LINE
  5
1E2
330
1F
100
AcDbEntity
  8
0-8
  6
Continuous
 62
     3
370
     9
100
AcDbLine
 10
-93.11839501047551
 20
550.9247048980851
 30
0.0
 11
-69.11822250957061
 21
550.9247048980851
 31
0.0
  0
LINE
  5
1E3
330
1F
100
AcDbEntity
  8
0-8
  6
Continuous
 62
     3
370
     9
100
AcDbLine
 10
-93.11839501047551
 20
542.9246940578644
 30
0.0
 11
-69.11822250957061
 21
542.9246940578644
 31
0.0
  0
LINE
  5
1E4
330
1F
100
AcDbEntity
  8
0-8
  6
Continuous
 62
     3
370
     9
100
AcDbLine
 10
-93.11839501047551
 20
538.9247586278751
 30
0.0
 11
-69.11822250957061
 21
538.9247586278751
 31
0.0
  0
LINE
  5
1E5
330
1F
100
AcDbEntity
  8
0-8
  6
Continuous
 62
     3
370
     9
100
AcDbLine
 10
-93.11839501047551
 20
534.9246832176435
 30
0.0
 11
-69.11822250957061
 21
534.9246832176435
 31
0.0
  0
LINE
  5
1E6
330
1F
100
AcDbEntity
  8
0-8
  6
JWW_CENTER1
 62
     7
370
     9
100
AcDbLine
 10
-100.5485462834004
 20
542.9246940578644
 30
0.0
 11
-61.68821121688847
 21
542.9246940578644
 31
0.0
  0
LINE
  5
1E7
330
1F
100
AcDbEntity
  8
0-8
  6
JWW_CENTER1
 62
     7
370
     9
100
AcDbLine
 10
-81.11844874026562
 20
523.4944565344872
 30
0.0
 11
-81.11844874026562
 21
562.3549315812415
 31
0.0
  0
LINE
  5
1E8
330
1F
100
AcDbEntity
  8
0-8
  6
Continuous
 62
     3
370
     9
100
AcDbLine
 10
-35.11870136454171
 20
638.9251041009991
 30
0.0
 11
32.88146076745647
 21
638.9251041009991
 31
0.0
  0
LINE
  5
1E9
330
1F
100
AcDbEntity
  8
0-8
  6
Continuous
 62
     3
370
     9
100
AcDbLine
 10
-35.11870136454171
 20
626.924317949334
 30
0.0
 11
32.88146076745647
 21
626.924317949334
 31
0.0
  0
LINE
  5
1EA
330
1F
100
AcDbEntity
  8
0-8
  6
JWW_CENTER1
 62
     7
370
     9
100
AcDbLine
 10
-1.118620298542723
 20
642.96570379144
 30
0.0
 11
-1.118620298542723
 21
622.8837882490142
 31
0.0
  0
LINE
  5
1EB
330
1F
100
AcDbEntity
  8
0-8
  6
Continuous
 62
     3
370
     9
100
AcDbLine
 10
-35.11870136454171
 20
578.9250927894642
 30
0.0
 11
32.88146076745647
 21
578.9250927894642
 31
0.0
  0
LINE
  5
1EC
330
1F
100
AcDbEntity
  8
0-8
  6
Continuous
 62
     3
370
     9
100
AcDbLine
 10
-35.11870136454171
 20
566.9243066377992
 30
0.0
 11
32.88146076745647
 21
566.9243066377992
 31
0.0
  0
LINE
  5
1ED
330
1F
100
AcDbEntity
  8
0-8
  6
JWW_CENTER1
 62
     7
370
     9
100
AcDbLine
 10
-1.118620298542723
 20
582.9656924799052
 30
0.0
 11
-1.118620298542723
 21
562.8837769374795
 31
0.0
  0
LINE
  5
1EE
330
1F
100
AcDbEntity
  8
0-8
  6
JWW_CENTER1
 62
     7
370
     9
100
AcDbLine
 10
-45.83222920599926
 20
572.9247697037531
 30
0.0
 11
43.5951285891565
 21
572.9247697037531
 31
0.0
  0
LINE
  5
1EF
330
1F
100
AcDbEntity
  8
0-8
  6
Continuous
 62
     3
370
     9
100
AcDbLine
 10
74.88169265391868
 20
710.9246417420162
 30
0.0
 11
74.88169265391868
 21
734.9248142429211
 31
0.0
  0
LINE
  5
1F0
330
1F
100
AcDbEntity
  8
0-8
  6
Continuous
 62
     3
370
     9
100
AcDbLine
 10
70.8816172436871
 20
710.9246417420162
 30
0.0
 11
70.8816172436871
 21
734.9248142429211
 31
0.0
  0
LINE
  5
1F1
330
1F
100
AcDbEntity
  8
0-8
  6
Continuous
 62
     3
370
     9
100
AcDbLine
 10
78.88148810366538
 20
710.9246417420162
 30
0.0
 11
78.88148810366538
 21
734.9248142429211
 31
0.0
  0
LINE
  5
1F2
330
1F
100
AcDbEntity
  8
0-8
  6
Continuous
 62
     3
370
     9
100
AcDbLine
 10
82.88156351389695
 20
710.9246417420162
 30
0.0
 11
82.88156351389695
 21
734.9248142429211
 31
0.0
  0
LINE
  5
1F3
330
1F
100
AcDbEntity
  8
0-8
  6
Continuous
 62
     3
370
     9
100
AcDbLine
 10
86.88163892412881
 20
710.9246417420162
 30
0.0
 11
86.88163892412881
 21
734.9248142429211
 31
0.0
  0
LINE
  5
1F4
330
1F
100
AcDbEntity
  8
0-8
  6
Continuous
 62
     3
370
     9
100
AcDbLine
 10
66.88154183345546
 20
726.9246634224577
 30
0.0
 11
90.88171433436038
 21
726.9246634224577
 31
0.0
  0
LINE
  5
1F5
330
1F
100
AcDbEntity
  8
0-8
  6
Continuous
 62
     3
370
     9
100
AcDbLine
 10
66.88154183345546
 20
730.9247388326894
 30
0.0
 11
90.88171433436038
 21
730.9247388326894
 31
0.0
  0
LINE
  5
1F6
330
1F
100
AcDbEntity
  8
0-8
  6
Continuous
 62
     3
370
     9
100
AcDbLine
 10
66.88154183345546
 20
722.9247279924685
 30
0.0
 11
90.88171433436038
 21
722.9247279924685
 31
0.0
  0
LINE
  5
1F7
330
1F
100
AcDbEntity
  8
0-8
  6
Continuous
 62
     3
370
     9
100
AcDbLine
 10
66.88154183345546
 20
718.9247925624794
 30
0.0
 11
90.88171433436038
 21
718.9247925624794
 31
0.0
  0
LINE
  5
1F8
330
1F
100
AcDbEntity
  8
0-8
  6
Continuous
 62
     3
370
     9
100
AcDbLine
 10
66.88154183345546
 20
714.9247171522478
 30
0.0
 11
90.88171433436038
 21
714.9247171522478
 31
0.0
  0
LINE
  5
1F9
330
1F
100
AcDbEntity
  8
0-8
  6
JWW_CENTER1
 62
     7
370
     9
100
AcDbLine
 10
59.45139056053065
 20
722.9247279924685
 30
0.0
 11
98.31186560728497
 21
722.9247279924685
 31
0.0
  0
LINE
  5
1FA
330
1F
100
AcDbEntity
  8
0-8
  6
JWW_CENTER1
 62
     7
370
     9
100
AcDbLine
 10
78.88148810366538
 20
703.4944904690915
 30
0.0
 11
78.88148810366538
 21
742.3549655158457
 31
0.0
  0
LINE
  5
1FB
330
1F
100
AcDbEntity
  8
0-8
  6
Continuous
 62
     3
370
     9
100
AcDbLine
 10
74.88169265391868
 20
650.9246304304814
 30
0.0
 11
74.88169265391868
 21
674.9248029313862
 31
0.0
  0
LINE
  5
1FC
330
1F
100
AcDbEntity
  8
0-8
  6
Continuous
 62
     3
370
     9
100
AcDbLine
 10
70.8816172436871
 20
650.9246304304814
 30
0.0
 11
70.8816172436871
 21
674.9248029313862
 31
0.0
  0
LINE
  5
1FD
330
1F
100
AcDbEntity
  8
0-8
  6
Continuous
 62
     3
370
     9
100
AcDbLine
 10
78.88148810366538
 20
650.9246304304814
 30
0.0
 11
78.88148810366538
 21
674.9248029313862
 31
0.0
  0
LINE
  5
1FE
330
1F
100
AcDbEntity
  8
0-8
  6
Continuous
 62
     3
370
     9
100
AcDbLine
 10
82.88156351389695
 20
650.9246304304814
 30
0.0
 11
82.88156351389695
 21
674.9248029313862
 31
0.0
  0
LINE
  5
1FF
330
1F
100
AcDbEntity
  8
0-8
  6
Continuous
 62
     3
370
     9
100
AcDbLine
 10
86.88163892412881
 20
650.9246304304814
 30
0.0
 11
86.88163892412881
 21
674.9248029313862
 31
0.0
  0
LINE
  5
200
330
1F
100
AcDbEntity
  8
0-8
  6
Continuous
 62
     3
370
     9
100
AcDbLine
 10
66.88154183345546
 20
666.924652110923
 30
0.0
 11
90.88171433436038
 21
666.924652110923
 31
0.0
  0
LINE
  5
201
330
1F
100
AcDbEntity
  8
0-8
  6
Continuous
 62
     3
370
     9
100
AcDbLine
 10
66.88154183345546
 20
670.9247275211546
 30
0.0
 11
90.88171433436038
 21
670.9247275211546
 31
0.0
  0
LINE
  5
202
330
1F
100
AcDbEntity
  8
0-8
  6
Continuous
 62
     3
370
     9
100
AcDbLine
 10
66.88154183345546
 20
662.9247166809339
 30
0.0
 11
90.88171433436038
 21
662.9247166809339
 31
0.0
  0
LINE
  5
203
330
1F
100
AcDbEntity
  8
0-8
  6
Continuous
 62
     3
370
     9
100
AcDbLine
 10
66.88154183345546
 20
658.9247812509448
 30
0.0
 11
90.88171433436038
 21
658.9247812509448
 31
0.0
  0
LINE
  5
204
330
1F
100
AcDbEntity
  8
0-8
  6
Continuous
 62
     3
370
     9
100
AcDbLine
 10
66.88154183345546
 20
654.9247058407132
 30
0.0
 11
90.88171433436038
 21
654.9247058407132
 31
0.0
  0
LINE
  5
205
330
1F
100
AcDbEntity
  8
0-8
  6
JWW_CENTER1
 62
     7
370
     9
100
AcDbLine
 10
59.45139056053065
 20
662.9247166809339
 30
0.0
 11
98.31186560728497
 21
662.9247166809339
 31
0.0
  0
LINE
  5
206
330
1F
100
AcDbEntity
  8
0-8
  6
JWW_CENTER1
 62
     7
370
     9
100
AcDbLine
 10
78.88148810366538
 20
643.4944791575566
 30
0.0
 11
78.88148810366538
 21
682.354954204311
 31
0.0
  0
LINE
  5
207
330
1F
100
AcDbEntity
  8
0-8
  6
Continuous
 62
     3
370
     9
100
AcDbLine
 10
74.88169265391868
 20
590.9246191189466
 30
0.0
 11
74.88169265391868
 21
614.9247916198515
 31
0.0
  0
LINE
  5
208
330
1F
100
AcDbEntity
  8
0-8
  6
Continuous
 62
     3
370
     9
100
AcDbLine
 10
70.8816172436871
 20
590.9246191189466
 30
0.0
 11
70.8816172436871
 21
614.9247916198515
 31
0.0
  0
LINE
  5
209
330
1F
100
AcDbEntity
  8
0-8
  6
Continuous
 62
     3
370
     9
100
AcDbLine
 10
78.88148810366538
 20
590.9246191189466
 30
0.0
 11
78.88148810366538
 21
614.9247916198515
 31
0.0
  0
LINE
  5
20A
330
1F
100
AcDbEntity
  8
0-8
  6
Continuous
 62
     3
370
     9
100
AcDbLine
 10
82.88156351389695
 20
590.9246191189466
 30
0.0
 11
82.88156351389695
 21
614.9247916198515
 31
0.0
  0
LINE
  5
20B
330
1F
100
AcDbEntity
  8
0-8
  6
Continuous
 62
     3
370
     9
100
AcDbLine
 10
86.88163892412881
 20
590.9246191189466
 30
0.0
 11
86.88163892412881
 21
614.9247916198515
 31
0.0
  0
LINE
  5
20C
330
1F
100
AcDbEntity
  8
0-8
  6
Continuous
 62
     3
370
     9
100
AcDbLine
 10
66.88154183345546
 20
606.9246407993882
 30
0.0
 11
90.88171433436038
 21
606.9246407993882
 31
0.0
  0
LINE
  5
20D
330
1F
100
AcDbEntity
  8
0-8
  6
Continuous
 62
     3
370
     9
100
AcDbLine
 10
66.88154183345546
 20
610.9247162096199
 30
0.0
 11
90.88171433436038
 21
610.9247162096199
 31
0.0
  0
LINE
  5
20E
330
1F
100
AcDbEntity
  8
0-8
  6
Continuous
 62
     3
370
     9
100
AcDbLine
 10
66.88154183345546
 20
602.924705369399
 30
0.0
 11
90.88171433436038
 21
602.924705369399
 31
0.0
  0
LINE
  5
20F
330
1F
100
AcDbEntity
  8
0-8
  6
Continuous
 62
     3
370
     9
100
AcDbLine
 10
66.88154183345546
 20
598.9247699394099
 30
0.0
 11
90.88171433436038
 21
598.9247699394099
 31
0.0
  0
LINE
  5
210
330
1F
100
AcDbEntity
  8
0-8
  6
Continuous
 62
     3
370
     9
100
AcDbLine
 10
66.88154183345546
 20
594.9246945291783
 30
0.0
 11
90.88171433436038
 21
594.9246945291783
 31
0.0
  0
LINE
  5
211
330
1F
100
AcDbEntity
  8
0-8
  6
JWW_CENTER1
 62
     7
370
     9
100
AcDbLine
 10
78.88148810366538
 20
583.4944678460218
 30
0.0
 11
78.88148810366538
 21
622.3549428927763
 31
0.0
  0
LINE
  5
212
330
1F
100
AcDbEntity
  8
0-8
  6
Continuous
 62
     3
370
     9
100
AcDbLine
 10
74.88169265391868
 20
530.9246078074118
 30
0.0
 11
74.88169265391868
 21
554.9247803083168
 31
0.0
  0
LINE
  5
213
330
1F
100
AcDbEntity
  8
0-8
  6
Continuous
 62
     3
370
     9
100
AcDbLine
 10
70.8816172436871
 20
530.9246078074118
 30
0.0
 11
70.8816172436871
 21
554.9247803083168
 31
0.0
  0
LINE
  5
214
330
1F
100
AcDbEntity
  8
0-8
  6
Continuous
 62
     3
370
     9
100
AcDbLine
 10
82.88156351389695
 20
530.9246078074118
 30
0.0
 11
82.88156351389695
 21
554.9247803083168
 31
0.0
  0
LINE
  5
215
330
1F
100
AcDbEntity
  8
0-8
  6
Continuous
 62
     3
370
     9
100
AcDbLine
 10
86.88163892412881
 20
530.9246078074118
 30
0.0
 11
86.88163892412881
 21
554.9247803083168
 31
0.0
  0
LINE
  5
216
330
1F
100
AcDbEntity
  8
0-8
  6
Continuous
 62
     3
370
     9
100
AcDbLine
 10
66.88154183345546
 20
546.9246294878535
 30
0.0
 11
90.88171433436038
 21
546.9246294878535
 31
0.0
  0
LINE
  5
217
330
1F
100
AcDbEntity
  8
0-8
  6
Continuous
 62
     3
370
     9
100
AcDbLine
 10
66.88154183345546
 20
550.9247048980851
 30
0.0
 11
90.88171433436038
 21
550.9247048980851
 31
0.0
  0
LINE
  5
218
330
1F
100
AcDbEntity
  8
0-8
  6
Continuous
 62
     3
370
     9
100
AcDbLine
 10
66.88154183345546
 20
542.9246940578644
 30
0.0
 11
90.88171433436038
 21
542.9246940578644
 31
0.0
  0
LINE
  5
219
330
1F
100
AcDbEntity
  8
0-8
  6
Continuous
 62
     3
370
     9
100
AcDbLine
 10
66.88154183345546
 20
538.9247586278751
 30
0.0
 11
90.88171433436038
 21
538.9247586278751
 31
0.0
  0
LINE
  5
21A
330
1F
100
AcDbEntity
  8
0-8
  6
Continuous
 62
     3
370
     9
100
AcDbLine
 10
66.88154183345546
 20
534.9246832176435
 30
0.0
 11
90.88171433436038
 21
534.9246832176435
 31
0.0
  0
LINE
  5
21B
330
1F
100
AcDbEntity
  8
0-8
  6
JWW_CENTER1
 62
     7
370
     9
100
AcDbLine
 10
59.45139056053065
 20
542.9246940578644
 30
0.0
 11
98.31186560728497
 21
542.9246940578644
 31
0.0
  0
LINE
  5
21C
330
1F
100
AcDbEntity
  8
0-8
  6
JWW_CENTER1
 62
     7
370
     9
100
AcDbLine
 10
78.88148810366538
 20
523.4944565344872
 30
0.0
 11
78.88148810366538
 21
562.3549315812415
 31
0.0
  0
LINE
  5
21D
330
1F
100
AcDbEntity
  8
0-0
  6
JWW_CENTER1
 62
     7
370
     9
100
AcDbLine
 10
-845.6808747439759
 20
632.9247810152877
 30
0.0
 11
203.4399673243761
 21
632.9247810152877
 31
0.0
  0
LINE
  5
21E
330
1F
100
AcDbEntity
  8
0-8
  6
JWW_CENTER1
 62
     7
370
     9
100
AcDbLine
 10
137.8795208392469
 20
652.3553684892713
 30
0.0
 11
137.8795208392469
 21
613.4948934425169
 31
0.0
  0
LINE
  5
21F
330
1F
100
AcDbEntity
  8
0-0
  6
JWW_CENTER1
 62
     7
370
     9
100
AcDbLine
 10
-321.1204537097999
 20
805.0782224554722
 30
0.0
 11
-321.1204537097999
 21
460.7714095652244
 31
0.0
  0
LINE
  5
220
330
1F
100
AcDbEntity
  8
0-8
  6
JWW_CENTER1
 62
     7
370
     9
100
AcDbLine
 10
-740.5486436097306
 20
602.924705369399
 30
0.0
 11
-701.6882385530973
 21
602.924705369399
 31
0.0
  0
LINE
  5
221
330
1F
100
AcDbEntity
  8
0-8
  6
JWW_CENTER1
 62
     7
370
     9
100
AcDbLine
 10
-580.5486367756782
 20
602.924705369399
 30
0.0
 11
-541.6882317190451
 21
602.924705369399
 31
0.0
  0
LINE
  5
222
330
1F
100
AcDbEntity
  8
0-8
  6
JWW_CENTER1
 62
     7
370
     9
100
AcDbLine
 10
-420.5486299416259
 20
602.924705369399
 30
0.0
 11
-381.6882248849929
 21
602.924705369399
 31
0.0
  0
LINE
  5
223
330
1F
100
AcDbEntity
  8
0-8
  6
JWW_CENTER1
 62
     7
370
     9
100
AcDbLine
 10
-260.5486231075738
 20
602.924705369399
 30
0.0
 11
-221.6881480608195
 21
602.924705369399
 31
0.0
  0
LINE
  5
224
330
1F
100
AcDbEntity
  8
0-8
  6
JWW_CENTER1
 62
     7
370
     9
100
AcDbLine
 10
-100.5486862636428
 20
602.924705369399
 30
0.0
 11
-61.68821121688847
 21
602.924705369399
 31
0.0
  0
ARC
  5
225
330
1F
100
AcDbEntity
  8
0-8
  6
Continuous
 62
     3
370
     9
100
AcDbCircle
 10
-607.1184965786313
 20
692.9247923268225
 30
0.0
 40
5.999999381400443
100
AcDbArc
 50
270.0
 51
90.0
  0
ARC
  5
226
330
1F
100
AcDbEntity
  8
0-8
  6
Continuous
 62
     3
370
     9
100
AcDbCircle
 10
-675.1186587106293
 20
692.9247923268225
 30
0.0
 40
5.999999381400443
100
AcDbArc
 50
90.0
 51
270.0
  0
CIRCLE
  5
227
330
1F
100
AcDbEntity
  8
0-8
  6
Continuous
 62
     3
370
     9
100
AcDbCircle
 10
-721.1184060863534
 20
722.9247279924685
 30
0.0
 40
14.99999845350111
  0
CIRCLE
  5
228
330
1F
100
AcDbEntity
  8
0-8
  6
Continuous
 62
     3
370
     9
100
AcDbCircle
 10
-721.1184060863534
 20
662.9247166809339
 30
0.0
 40
14.99999845350111
  0
CIRCLE
  5
229
330
1F
100
AcDbEntity
  8
0-8
  6
Continuous
 62
     3
370
     9
100
AcDbCircle
 10
-721.1184060863534
 20
602.924705369399
 30
0.0
 40
14.99999845350111
  0
CIRCLE
  5
22A
330
1F
100
AcDbEntity
  8
0-8
  6
Continuous
 62
     3
370
     9
100
AcDbCircle
 10
-721.1184060863534
 20
542.9246940578644
 30
0.0
 40
14.99999845350111
  0
ARC
  5
22B
330
1F
100
AcDbEntity
  8
0-8
  6
Continuous
 62
     3
370
     9
100
AcDbCircle
 10
-607.1184965786313
 20
632.9247810152877
 30
0.0
 40
5.999999381400443
100
AcDbArc
 50
270.0
 51
90.0
  0
ARC
  5
22C
330
1F
100
AcDbEntity
  8
0-8
  6
Continuous
 62
     3
370
     9
100
AcDbCircle
 10
-675.1186587106293
 20
632.9247810152877
 30
0.0
 40
5.999999381400443
100
AcDbArc
 50
90.0
 51
270.0
  0
ARC
  5
22D
330
1F
100
AcDbEntity
  8
0-8
  6
Continuous
 62
     3
370
     9
100
AcDbCircle
 10
-607.1184965786313
 20
572.9247697037531
 30
0.0
 40
5.999999381400443
100
AcDbArc
 50
270.0
 51
90.0
  0
ARC
  5
22E
330
1F
100
AcDbEntity
  8
0-8
  6
Continuous
 62
     3
370
     9
100
AcDbCircle
 10
-675.1186587106293
 20
572.9247697037531
 30
0.0
 40
5.999999381400443
100
AcDbArc
 50
90.0
 51
270.0
  0
ARC
  5
22F
330
1F
100
AcDbEntity
  8
0-8
  6
Continuous
 62
     3
370
     9
100
AcDbCircle
 10
-447.1184897445791
 20
692.9247923268225
 30
0.0
 40
5.999999381400443
100
AcDbArc
 50
270.0
 51
90.0
  0
ARC
  5
230
330
1F
100
AcDbEntity
  8
0-8
  6
Continuous
 62
     3
370
     9
100
AcDbCircle
 10
-515.1186518765771
 20
692.9247923268225
 30
0.0
 40
5.999999381400443
100
AcDbArc
 50
90.0
 51
270.0
  0
CIRCLE
  5
231
330
1F
100
AcDbEntity
  8
0-8
  6
Continuous
 62
     3
370
     9
100
AcDbCircle
 10
-561.1183992523011
 20
722.9247279924685
 30
0.0
 40
14.99999845350111
  0
CIRCLE
  5
232
330
1F
100
AcDbEntity
  8
0-8
  6
Continuous
 62
     3
370
     9
100
AcDbCircle
 10
-561.1183992523011
 20
662.9247166809339
 30
0.0
 40
14.99999845350111
  0
CIRCLE
  5
233
330
1F
100
AcDbEntity
  8
0-8
  6
Continuous
 62
     3
370
     9
100
AcDbCircle
 10
-561.1183992523011
 20
602.924705369399
 30
0.0
 40
14.99999845350111
  0
CIRCLE
  5
234
330
1F
100
AcDbEntity
  8
0-8
  6
Continuous
 62
     3
370
     9
100
AcDbCircle
 10
-561.1183992523011
 20
542.9246940578644
 30
0.0
 40
14.99999845350111
  0
ARC
  5
235
330
1F
100
AcDbEntity
  8
0-8
  6
Continuous
 62
     3
370
     9
100
AcDbCircle
 10
-447.1184897445791
 20
632.9247810152877
 30
0.0
 40
5.999999381400443
100
AcDbArc
 50
270.0
 51
90.0
  0
ARC
  5
236
330
1F
100
AcDbEntity
  8
0-8
  6
Continuous
 62
     3
370
     9
100
AcDbCircle
 10
-515.1186518765771
 20
632.9247810152877
 30
0.0
 40
5.999999381400443
100
AcDbArc
 50
90.0
 51
270.0
  0
ARC
  5
237
330
1F
100
AcDbEntity
  8
0-8
  6
Continuous
 62
     3
370
     9
100
AcDbCircle
 10
-447.1184897445791
 20
572.9247697037531
 30
0.0
 40
5.999999381400443
100
AcDbArc
 50
270.0
 51
90.0
  0
ARC
  5
238
330
1F
100
AcDbEntity
  8
0-8
  6
Continuous
 62
     3
370
     9
100
AcDbCircle
 10
-515.1186518765771
 20
572.9247697037531
 30
0.0
 40
5.999999381400443
100
AcDbArc
 50
90.0
 51
270.0
  0
ARC
  5
239
330
1F
100
AcDbEntity
  8
0-8
  6
Continuous
 62
     3
370
     9
100
AcDbCircle
 10
-287.1185529006482
 20
692.9247923268225
 30
0.0
 40
5.999999381400443
100
AcDbArc
 50
270.0
 51
90.0
  0
ARC
  5
23A
330
1F
100
AcDbEntity
  8
0-8
  6
Continuous
 62
     3
370
     9
100
AcDbCircle
 10
-355.1185750524037
 20
692.9247923268225
 30
0.0
 40
5.999999381400443
100
AcDbArc
 50
90.0
 51
270.0
  0
CIRCLE
  5
23B
330
1F
100
AcDbEntity
  8
0-8
  6
Continuous
 62
     3
370
     9
100
AcDbCircle
 10
-401.1183924182487
 20
722.9247279924685
 30
0.0
 40
14.99999845350111
  0
CIRCLE
  5
23C
330
1F
100
AcDbEntity
  8
0-8
  6
Continuous
 62
     3
370
     9
100
AcDbCircle
 10
-401.1183924182487
 20
662.9247166809339
 30
0.0
 40
14.99999845350111
  0
CIRCLE
  5
23D
330
1F
100
AcDbEntity
  8
0-8
  6
Continuous
 62
     3
370
     9
100
AcDbCircle
 10
-401.1183924182487
 20
602.924705369399
 30
0.0
 40
14.99999845350111
  0
CIRCLE
  5
23E
330
1F
100
AcDbEntity
  8
0-8
  6
Continuous
 62
     3
370
     9
100
AcDbCircle
 10
-401.1183924182487
 20
542.9246940578644
 30
0.0
 40
14.99999845350111
  0
ARC
  5
23F
330
1F
100
AcDbEntity
  8
0-8
  6
Continuous
 62
     3
370
     9
100
AcDbCircle
 10
-287.1185529006482
 20
632.9247810152877
 30
0.0
 40
5.999999381400443
100
AcDbArc
 50
270.0
 51
90.0
  0
ARC
  5
240
330
1F
100
AcDbEntity
  8
0-8
  6
Continuous
 62
     3
370
     9
100
AcDbCircle
 10
-355.1185750524037
 20
632.9247810152877
 30
0.0
 40
5.999999381400443
100
AcDbArc
 50
90.0
 51
270.0
  0
ARC
  5
241
330
1F
100
AcDbEntity
  8
0-8
  6
Continuous
 62
     3
370
     9
100
AcDbCircle
 10
-287.1185529006482
 20
572.9247697037531
 30
0.0
 40
5.999999381400443
100
AcDbArc
 50
270.0
 51
90.0
  0
ARC
  5
242
330
1F
100
AcDbEntity
  8
0-8
  6
Continuous
 62
     3
370
     9
100
AcDbCircle
 10
-355.1185750524037
 20
572.9247697037531
 30
0.0
 40
5.999999381400443
100
AcDbArc
 50
90.0
 51
270.0
  0
ARC
  5
243
330
1F
100
AcDbEntity
  8
0-8
  6
Continuous
 62
     3
370
     9
100
AcDbCircle
 10
-127.1184760764745
 20
692.9247923268225
 30
0.0
 40
5.999999381400443
100
AcDbArc
 50
270.0
 51
90.0
  0
ARC
  5
244
330
1F
100
AcDbEntity
  8
0-8
  6
Continuous
 62
     3
370
     9
100
AcDbCircle
 10
-195.1186382084727
 20
692.9247923268225
 30
0.0
 40
5.999999381400443
100
AcDbArc
 50
90.0
 51
270.0
  0
CIRCLE
  5
245
330
1F
100
AcDbEntity
  8
0-8
  6
Continuous
 62
     3
370
     9
100
AcDbCircle
 10
-241.1183855841966
 20
722.9247279924685
 30
0.0
 40
14.99999845350111
  0
CIRCLE
  5
246
330
1F
100
AcDbEntity
  8
0-8
  6
Continuous
 62
     3
370
     9
100
AcDbCircle
 10
-241.1183855841966
 20
662.9247166809339
 30
0.0
 40
14.99999845350111
  0
CIRCLE
  5
247
330
1F
100
AcDbEntity
  8
0-8
  6
Continuous
 62
     3
370
     9
100
AcDbCircle
 10
-241.1183855841966
 20
602.924705369399
 30
0.0
 40
14.99999845350111
  0
CIRCLE
  5
248
330
1F
100
AcDbEntity
  8
0-8
  6
Continuous
 62
     3
370
     9
100
AcDbCircle
 10
-241.1183855841966
 20
542.9246940578644
 30
0.0
 40
14.99999845350111
  0
ARC
  5
249
330
1F
100
AcDbEntity
  8
0-8
  6
Continuous
 62
     3
370
     9
100
AcDbCircle
 10
-127.1184760764745
 20
632.9247810152877
 30
0.0
 40
5.999999381400443
100
AcDbArc
 50
270.0
 51
90.0
  0
ARC
  5
24A
330
1F
100
AcDbEntity
  8
0-8
  6
Continuous
 62
     3
370
     9
100
AcDbCircle
 10
-195.1186382084727
 20
632.9247810152877
 30
0.0
 40
5.999999381400443
100
AcDbArc
 50
90.0
 51
270.0
  0
ARC
  5
24B
330
1F
100
AcDbEntity
  8
0-8
  6
Continuous
 62
     3
370
     9
100
AcDbCircle
 10
-127.1184760764745
 20
572.9247697037531
 30
0.0
 40
5.999999381400443
100
AcDbArc
 50
270.0
 51
90.0
  0
ARC
  5
24C
330
1F
100
AcDbEntity
  8
0-8
  6
Continuous
 62
     3
370
     9
100
AcDbCircle
 10
-195.1186382084727
 20
572.9247697037531
 30
0.0
 40
5.999999381400443
100
AcDbArc
 50
90.0
 51
270.0
  0
ARC
  5
24D
330
1F
100
AcDbEntity
  8
0-8
  6
Continuous
 62
     3
370
     9
100
AcDbCircle
 10
32.88146076745647
 20
692.9247923268225
 30
0.0
 40
5.999999381400443
100
AcDbArc
 50
270.0
 51
90.0
  0
ARC
  5
24E
330
1F
100
AcDbEntity
  8
0-8
  6
Continuous
 62
     3
370
     9
100
AcDbCircle
 10
-35.11870136454171
 20
692.9247923268225
 30
0.0
 40
5.999999381400443
100
AcDbArc
 50
90.0
 51
270.0
  0
CIRCLE
  5
24F
330
1F
100
AcDbEntity
  8
0-8
  6
Continuous
 62
     3
370
     9
100
AcDbCircle
 10
-81.11844874026562
 20
722.9247279924685
 30
0.0
 40
14.99999845350111
  0
CIRCLE
  5
250
330
1F
100
AcDbEntity
  8
0-8
  6
Continuous
 62
     3
370
     9
100
AcDbCircle
 10
-81.11844874026562
 20
662.9247166809339
 30
0.0
 40
14.99999845350111
  0
CIRCLE
  5
251
330
1F
100
AcDbEntity
  8
0-8
  6
Continuous
 62
     3
370
     9
100
AcDbCircle
 10
-81.11844874026562
 20
602.924705369399
 30
0.0
 40
14.99999845350111
  0
CIRCLE
  5
252
330
1F
100
AcDbEntity
  8
0-8
  6
Continuous
 62
     3
370
     9
100
AcDbCircle
 10
-81.11844874026562
 20
542.9246940578644
 30
0.0
 40
14.99999845350111
  0
ARC
  5
253
330
1F
100
AcDbEntity
  8
0-8
  6
Continuous
 62
     3
370
     9
100
AcDbCircle
 10
32.88146076745647
 20
632.9247810152877
 30
0.0
 40
5.999999381400443
100
AcDbArc
 50
270.0
 51
90.0
  0
ARC
  5
254
330
1F
100
AcDbEntity
  8
0-8
  6
Continuous
 62
     3
370
     9
100
AcDbCircle
 10
-35.11870136454171
 20
632.9247810152877
 30
0.0
 40
5.999999381400443
100
AcDbArc
 50
90.0
 51
270.0
  0
ARC
  5
255
330
1F
100
AcDbEntity
  8
0-8
  6
Continuous
 62
     3
370
     9
100
AcDbCircle
 10
32.88146076745647
 20
572.9247697037531
 30
0.0
 40
5.999999381400443
100
AcDbArc
 50
270.0
 51
90.0
  0
ARC
  5
256
330
1F
100
AcDbEntity
  8
0-8
  6
Continuous
 62
     3
370
     9
100
AcDbCircle
 10
-35.11870136454171
 20
572.9247697037531
 30
0.0
 40
5.999999381400443
100
AcDbArc
 50
90.0
 51
270.0
  0
CIRCLE
  5
257
330
1F
100
AcDbEntity
  8
0-8
  6
Continuous
 62
     3
370
     9
100
AcDbCircle
 10
78.88148810366538
 20
722.9247279924685
 30
0.0
 40
14.99999845350111
  0
CIRCLE
  5
258
330
1F
100
AcDbEntity
  8
0-8
  6
Continuous
 62
     3
370
     9
100
AcDbCircle
 10
78.88148810366538
 20
662.9247166809339
 30
0.0
 40
14.99999845350111
  0
CIRCLE
  5
259
330
1F
100
AcDbEntity
  8
0-8
  6
Continuous
 62
     3
370
     9
100
AcDbCircle
 10
78.88148810366538
 20
602.924705369399
 30
0.0
 40
14.99999845350111
  0
CIRCLE
  5
25A
330
1F
100
AcDbEntity
  8
0-8
  6
Continuous
 62
     3
370
     9
100
AcDbCircle
 10
78.88148810366538
 20
542.9246940578644
 30
0.0
 40
14.99999845350111
  0
CIRCLE
  5
25B
330
1F
100
AcDbEntity
  8
0-8
  6
Continuous
 62
     3
370
     9
100
AcDbCircle
 10
137.8795208392469
 20
632.924851005409
 30
0.0
 40
14.99999845350111
  0
LINE
  5
25C
330
1F
100
AcDbEntity
  8
A-4
  6
Continuous
 62
     7
370
     9
100
AcDbLine
 10
-641.1185776446304
 20
858.7132343986013
 30
0.0
 11
-1.118620298542723
 21
858.7132343986013
 31
0.0
  0
LINE
  5
25D
330
1F
100
AcDbEntity
  8
A-4
  6
Continuous
 62
     7
370
     9
100
AcDbLine
 10
-641.1185776446304
 20
858.7132343986013
 30
0.0
 11
-611.3752318034161
 21
862.6290201652029
 31
0.0
  0
LINE
  5
25E
330
1F
100
AcDbEntity
  8
A-4
  6
Continuous
 62
     7
370
     9
100
AcDbLine
 10
-641.1185776446304
 20
858.7132343986013
 30
0.0
 11
-611.3752318034161
 21
854.7974486319998
 31
0.0
  0
LINE
  5
25F
330
1F
100
AcDbEntity
  8
A-4
  6
Continuous
 62
     7
370
     9
100
AcDbLine
 10
-451.3752249693638
 20
854.7974486319998
 30
0.0
 11
-510.8619166517923
 21
862.6290201652029
 31
0.0
  0
LINE
  5
260
330
1F
100
AcDbEntity
  8
A-4
  6
Continuous
 62
     7
370
     9
100
AcDbLine
 10
-451.3752249693638
 20
862.6290201652029
 30
0.0
 11
-510.8619166517923
 21
854.7974486319998
 31
0.0
  0
LINE
  5
261
330
1F
100
AcDbEntity
  8
A-4
  6
Continuous
 62
     7
370
     9
100
AcDbLine
 10
-641.1185776446304
 20
861.7132345178106
 30
0.0
 11
-641.1185776446304
 21
793.9307269693724
 31
0.0
  0
LINE
  5
262
330
1F
100
AcDbEntity
  8
A-4
  6
Continuous
 62
     7
370
     9
100
AcDbLine
 10
-481.118570810578
 20
861.7132345178106
 30
0.0
 11
-481.118570810578
 21
793.9307269693724
 31
0.0
  0
TEXT
  5
263
330
1F
100
AcDbEntity
  8
A-4
  6
Continuous
 62
     2
370
   211
100
AcDbText
 10
-582.3685742276042
 20
869.3532343986013
 30
0.0
 40
30.48
  1
80
 41
1.0625
  7
ＭＳ ゴシック
100
AcDbText
  0
LINE
  5
264
330
1F
100
AcDbEntity
  8
A-4
  6
Continuous
 62
     7
370
     9
100
AcDbLine
 10
-291.3771078685857
 20
854.7974486319998
 30
0.0
 11
-350.8637995510142
 21
862.6290201652029
 31
0.0
  0
LINE
  5
265
330
1F
100
AcDbEntity
  8
A-4
  6
Continuous
 62
     7
370
     9
100
AcDbLine
 10
-291.3771078685857
 20
862.6290201652029
 30
0.0
 11
-350.8637995510142
 21
854.7974486319998
 31
0.0
  0
LINE
  5
266
330
1F
100
AcDbEntity
  8
A-4
  6
Continuous
 62
     7
370
     9
100
AcDbLine
 10
-321.1204537097999
 20
861.7132345178106
 30
0.0
 11
-321.1204537097999
 21
793.9307269693724
 31
0.0
  0
TEXT
  5
267
330
1F
100
AcDbEntity
  8
A-4
  6
Continuous
 62
     2
370
   211
100
AcDbText
 10
-422.369512260189
 20
869.3532343986013
 30
0.0
 40
30.48
  1
80
 41
1.0625
  7
ＭＳ ゴシック
100
AcDbText
  0
LINE
  5
268
330
1F
100
AcDbEntity
  8
A-4
  6
Continuous
 62
     7
370
     9
100
AcDbLine
 10
-131.3752113012594
 20
854.7974486319998
 30
0.0
 11
-190.861902983688
 21
862.6290201652029
 31
0.0
  0
LINE
  5
269
330
1F
100
AcDbEntity
  8
A-4
  6
Continuous
 62
     7
370
     9
100
AcDbLine
 10
-131.3752113012594
 20
862.6290201652029
 30
0.0
 11
-190.861902983688
 21
854.7974486319998
 31
0.0
  0
LINE
  5
26A
330
1F
100
AcDbEntity
  8
A-4
  6
Continuous
 62
     7
370
     9
100
AcDbLine
 10
-161.1185571424737
 20
861.7132345178106
 30
0.0
 11
-161.1185571424737
 21
793.9307269693724
 31
0.0
  0
TEXT
  5
26B
330
1F
100
AcDbEntity
  8
A-4
  6
Continuous
 62
     2
370
   211
100
AcDbText
 10
-262.3695054261368
 20
869.3532343986013
 30
0.0
 40
30.48
  1
80
 41
1.0625
  7
ＭＳ ゴシック
100
AcDbText
  0
LINE
  5
26C
330
1F
100
AcDbEntity
  8
A-4
  6
Continuous
 62
     7
370
     9
100
AcDbLine
 10
-1.118620298542723
 20
858.7132343986013
 30
0.0
 11
-30.86196613975703
 21
862.6290201652029
 31
0.0
  0
LINE
  5
26D
330
1F
100
AcDbEntity
  8
A-4
  6
Continuous
 62
     7
370
     9
100
AcDbLine
 10
-1.118620298542723
 20
858.7132343986013
 30
0.0
 11
-30.86196613975703
 21
854.7974486319998
 31
0.0
  0
LINE
  5
26E
330
1F
100
AcDbEntity
  8
A-4
  6
Continuous
 62
     7
370
     9
100
AcDbLine
 10
-1.118620298542723
 20
861.7132345178106
 30
0.0
 11
-1.118620298542723
 21
793.9307269693724
 31
0.0
  0
TEXT
  5
26F
330
1F
100
AcDbEntity
  8
A-4
  6
Continuous
 62
     2
370
   211
100
AcDbText
 10
-102.3685887205082
 20
869.3532343986013
 30
0.0
 40
30.48
  1
80
 41
1.0625
  7
ＭＳ ゴシック
100
AcDbText
  0
LINE
  5
270
330
1F
100
AcDbEntity
  8
A-4
  6
Continuous
 62
     7
370
     9
100
AcDbLine
 10
227.8794350601083
 20
858.7132343986013
 30
0.0
 11
87.87952083924687
 21
858.7132343986013
 31
0.0
  0
LINE
  5
271
330
1F
100
AcDbEntity
  8
A-4
  6
Continuous
 62
     7
370
     9
100
AcDbLine
 10
137.8795208392469
 20
858.7132343986013
 30
0.0
 11
108.1361749980326
 21
854.7974486319998
 31
0.0
  0
LINE
  5
272
330
1F
100
AcDbEntity
  8
A-4
  6
Continuous
 62
     7
370
     9
100
AcDbLine
 10
137.8795208392469
 20
858.7132343986013
 30
0.0
 11
108.1361749980326
 21
862.6290201652029
 31
0.0
  0
LINE
  5
273
330
1F
100
AcDbEntity
  8
A-4
  6
Continuous
 62
     7
370
     9
100
AcDbLine
 10
177.8794350601083
 20
858.7132343986013
 30
0.0
 11
207.6227809013226
 21
854.7974486319998
 31
0.0
  0
LINE
  5
274
330
1F
100
AcDbEntity
  8
A-4
  6
Continuous
 62
     7
370
     9
100
AcDbLine
 10
177.8794350601083
 20
858.7132343986013
 30
0.0
 11
207.6227809013226
 21
862.6290201652029
 31
0.0
  0
LINE
  5
275
330
1F
100
AcDbEntity
  8
A-4
  6
Continuous
 62
     7
370
     9
100
AcDbLine
 10
177.8794350601084
 20
928.8912107118965
 30
0.0
 11
177.8794350601083
 21
793.9307269693724
 31
0.0
  0
LINE
  5
276
330
1F
100
AcDbEntity
  8
A-4
  6
Continuous
 62
     7
370
     9
100
AcDbLine
 10
-820.1203424797081
 20
925.8912105926872
 30
0.0
 11
177.8794350601084
 21
925.8912105926872
 31
0.0
  0
LINE
  5
277
330
1F
100
AcDbEntity
  8
A-4
  6
Continuous
 62
     7
370
     9
100
AcDbLine
 10
-820.1203424797081
 20
925.8912105926872
 30
0.0
 11
-790.3769966384938
 21
929.8069963592887
 31
0.0
  0
LINE
  5
278
330
1F
100
AcDbEntity
  8
A-4
  6
Continuous
 62
     7
370
     9
100
AcDbLine
 10
-820.1203424797081
 20
925.8912105926872
 30
0.0
 11
-790.3769966384938
 21
921.9754248260857
 31
0.0
  0
LINE
  5
279
330
1F
100
AcDbEntity
  8
A-4
  6
Continuous
 62
     7
370
     9
100
AcDbLine
 10
177.8794350601084
 20
925.8912105926872
 30
0.0
 11
148.136089218894
 21
929.8069963592887
 31
0.0
  0
LINE
  5
27A
330
1F
100
AcDbEntity
  8
A-4
  6
Continuous
 62
     7
370
     9
100
AcDbLine
 10
177.8794350601084
 20
925.8912105926872
 30
0.0
 11
148.136089218894
 21
921.9754248260857
 31
0.0
  0
LINE
  5
27B
330
1F
100
AcDbEntity
  8
A-4
  6
Continuous
 62
     7
370
     9
100
AcDbLine
 10
-820.1203424797081
 20
928.8912107118965
 30
0.0
 11
-820.1203424797081
 21
793.9307269693724
 31
0.0
  0
TEXT
  5
27C
330
1F
100
AcDbEntity
  8
A-4
  6
Continuous
 62
     2
370
   211
100
AcDbText
 10
-353.6204537097999
 20
936.5312105926872
 30
0.0
 40
30.48
  1
499
 41
1.083333333333333
  7
ＭＳ ゴシック
100
AcDbText
  0
LINE
  5
27D
330
1F
100
AcDbEntity
  8
A-4
  6
Continuous
 62
     7
370
     9
100
AcDbLine
 10
-721.1184060863534
 20
412.1894833720557
 30
0.0
 11
78.88148810366545
 21
412.1894833720557
 31
0.0
  0
LINE
  5
27E
330
1F
100
AcDbEntity
  8
A-4
  6
Continuous
 62
     7
370
     9
100
AcDbLine
 10
-721.1184060863534
 20
412.1894833720557
 30
0.0
 11
-691.3750602451389
 21
416.1052691386573
 31
0.0
  0
LINE
  5
27F
330
1F
100
AcDbEntity
  8
A-4
  6
Continuous
 62
     7
370
     9
100
AcDbLine
 10
-721.1184060863534
 20
412.1894833720557
 30
0.0
 11
-691.3750602451389
 21
408.2736976054542
 31
0.0
  0
LINE
  5
280
330
1F
100
AcDbEntity
  8
A-4
  6
Continuous
 62
     7
370
     9
100
AcDbLine
 10
-531.3750534110868
 20
408.2736976054542
 30
0.0
 11
-590.8617450935153
 21
416.1052691386573
 31
0.0
  0
LINE
  5
281
330
1F
100
AcDbEntity
  8
A-4
  6
Continuous
 62
     7
370
     9
100
AcDbLine
 10
-531.3750534110868
 20
416.1052691386573
 30
0.0
 11
-590.8617450935153
 21
408.2736976054542
 31
0.0
  0
LINE
  5
282
330
1F
100
AcDbEntity
  8
A-4
  6
Continuous
 62
     7
370
     9
100
AcDbLine
 10
-721.1184060863534
 20
409.1894832528465
 30
0.0
 11
-721.1184060863534
 21
511.2097847256599
 31
0.0
  0
LINE
  5
283
330
1F
100
AcDbEntity
  8
A-4
  6
Continuous
 62
     7
370
     9
100
AcDbLine
 10
-561.1183992523011
 20
409.1894832528465
 30
0.0
 11
-561.1183992523011
 21
511.2097847256599
 31
0.0
  0
TEXT
  5
284
330
1F
100
AcDbEntity
  8
A-4
  6
Continuous
 62
     2
370
   211
100
AcDbText
 10
-662.3684026693272
 20
422.8294833720557
 30
0.0
 40
30.48
  1
80
 41
1.0625
  7
ＭＳ ゴシック
100
AcDbText
  0
LINE
  5
285
330
1F
100
AcDbEntity
  8
A-4
  6
Continuous
 62
     7
370
     9
100
AcDbLine
 10
-371.3750465770345
 20
408.2736976054542
 30
0.0
 11
-430.861738259463
 21
416.1052691386573
 31
0.0
  0
LINE
  5
286
330
1F
100
AcDbEntity
  8
A-4
  6
Continuous
 62
     7
370
     9
100
AcDbLine
 10
-371.3750465770345
 20
416.1052691386573
 30
0.0
 11
-430.861738259463
 21
408.2736976054542
 31
0.0
  0
LINE
  5
287
330
1F
100
AcDbEntity
  8
A-4
  6
Continuous
 62
     7
370
     9
100
AcDbLine
 10
-401.1183924182487
 20
409.1894832528465
 30
0.0
 11
-401.1183924182487
 21
511.2097847256599
 31
0.0
  0
TEXT
  5
288
330
1F
100
AcDbEntity
  8
A-4
  6
Continuous
 62
     2
370
   211
100
AcDbText
 10
-502.3683958352749
 20
422.8294833720557
 30
0.0
 40
30.48
  1
80
 41
1.0625
  7
ＭＳ ゴシック
100
AcDbText
  0
LINE
  5
289
330
1F
100
AcDbEntity
  8
A-4
  6
Continuous
 62
     7
370
     9
100
AcDbLine
 10
-211.3750397429823
 20
408.2736976054542
 30
0.0
 11
-270.8617314254109
 21
416.1052691386573
 31
0.0
  0
LINE
  5
28A
330
1F
100
AcDbEntity
  8
A-4
  6
Continuous
 62
     7
370
     9
100
AcDbLine
 10
-211.3750397429823
 20
416.1052691386573
 30
0.0
 11
-270.8617314254109
 21
408.2736976054542
 31
0.0
  0
LINE
  5
28B
330
1F
100
AcDbEntity
  8
A-4
  6
Continuous
 62
     7
370
     9
100
AcDbLine
 10
-241.1183855841966
 20
409.1894832528465
 30
0.0
 11
-241.1183855841966
 21
511.2097847256599
 31
0.0
  0
TEXT
  5
28C
330
1F
100
AcDbEntity
  8
A-4
  6
Continuous
 62
     2
370
   211
100
AcDbText
 10
-342.3683890012227
 20
422.8294833720557
 30
0.0
 40
30.48
  1
80
 41
1.062499999999999
  7
ＭＳ ゴシック
100
AcDbText
  0
LINE
  5
28D
330
1F
100
AcDbEntity
  8
A-4
  6
Continuous
 62
     7
370
     9
100
AcDbLine
 10
-51.37510289905129
 20
408.2736976054542
 30
0.0
 11
-110.8617945814799
 21
416.1052691386573
 31
0.0
  0
LINE
  5
28E
330
1F
100
AcDbEntity
  8
A-4
  6
Continuous
 62
     7
370
     9
100
AcDbLine
 10
-51.37510289905129
 20
416.1052691386573
 30
0.0
 11
-110.8617945814799
 21
408.2736976054542
 31
0.0
  0
LINE
  5
28F
330
1F
100
AcDbEntity
  8
A-4
  6
Continuous
 62
     7
370
     9
100
AcDbLine
 10
-81.11844874026559
 20
409.1894832528465
 30
0.0
 11
-81.11844874026559
 21
511.2097847256599
 31
0.0
  0
TEXT
  5
290
330
1F
100
AcDbEntity
  8
A-4
  6
Continuous
 62
     2
370
   211
100
AcDbText
 10
-182.3684171622311
 20
422.8294833720557
 30
0.0
 40
30.48
  1
80
 41
1.0625
  7
ＭＳ ゴシック
100
AcDbText
  0
LINE
  5
291
330
1F
100
AcDbEntity
  8
A-4
  6
Continuous
 62
     7
370
     9
100
AcDbLine
 10
78.88148810366545
 20
412.1894833720557
 30
0.0
 11
49.13814226245115
 21
416.1052691386573
 31
0.0
  0
LINE
  5
292
330
1F
100
AcDbEntity
  8
A-4
  6
Continuous
 62
     7
370
     9
100
AcDbLine
 10
78.88148810366545
 20
412.1894833720557
 30
0.0
 11
49.13814226245115
 21
408.2736976054542
 31
0.0
  0
LINE
  5
293
330
1F
100
AcDbEntity
  8
A-4
  6
Continuous
 62
     7
370
     9
100
AcDbLine
 10
78.88148810366545
 20
409.1894832528465
 30
0.0
 11
78.88148810366545
 21
511.2097847256599
 31
0.0
  0
TEXT
  5
294
330
1F
100
AcDbEntity
  8
A-4
  6
Continuous
 62
     2
370
   211
100
AcDbText
 10
-22.36848031830007
 20
422.8294833720557
 30
0.0
 40
30.48
  1
80
 41
1.0625
  7
ＭＳ ゴシック
100
AcDbText
  0
TEXT
  5
295
330
1F
100
AcDbEntity
  8
A-4
  6
Continuous
 62
     2
370
   211
100
AcDbText
 10
122.8877269169503
 20
869.071735616431
 30
0.0
 40
30.48
  1
20
 41
1.0625
  7
ＭＳ ゴシック
100
AcDbText
  0
LINE
  5
296
330
1F
100
AcDbEntity
  8
D-5
  6
Continuous
 62
     2
370
     9
100
AcDbLine
 10
655.7311302149744
 20
-764.6258379537651
 30
0.0
 11
430.7313590968107
 21
-764.6258379537651
 31
0.0
  0
LINE
  5
297
330
1F
100
AcDbEntity
  8
D-5
  6
Continuous
 62
     2
370
     9
100
AcDbLine
 10
655.7311302149744
 20
-714.6256063897201
 30
0.0
 11
655.7311302149744
 21
-764.6258379537651
 31
0.0
  0
LINE
  5
298
330
1F
100
AcDbEntity
  8
D-5
  6
Continuous
 62
     2
370
     9
100
AcDbLine
 10
430.7313590968107
 20
-714.6256063897201
 30
0.0
 11
655.7311302149744
 21
-714.6256063897201
 31
0.0
  0
LINE
  5
299
330
1F
100
AcDbEntity
  8
D-5
  6
Continuous
 62
     2
370
     9
100
AcDbLine
 10
430.7313590968107
 20
-764.6258379537651
 30
0.0
 11
430.7313590968107
 21
-714.6256063897201
 31
0.0
  0
TEXT
  5
29A
330
1F
100
AcDbEntity
  8
D-5
  6
Continuous
 62
     2
370
     9
100
AcDbText
 10
478.2309013331388
 20
-753.9855661565849
 30
0.0
 40
30.48
  1
仕　様
 41
1.083333333333331
  7
ＭＳ ゴシック
100
AcDbText
  0
TEXT
  5
29B
330
1F
100
AcDbEntity
  8
D-5
  6
Continuous
 62
     2
370
     9
100
AcDbText
 10
592.5332640427218
 20
-1010.718128281508
 30
0.0
 40
30.48
  1
処理：ヘアライン
 50
0.0000554111121398
 41
1.109375
  7
ＭＳ ゴシック
100
AcDbText
  0
TEXT
  5
29C
330
1F
100
AcDbEntity
  8
D-5
  6
Continuous
 62
     2
370
     9
100
AcDbText
 10
592.5332732570857
 20
-945.7176132973757
 30
0.0
 40
30.48
  1
材質：冷間圧延ステンレス鋼板　（ＳＵＳ３０４）
 50
359.9999618039849
 41
1.119565217391304
  7
ＭＳ ゴシック
100
AcDbText
  0
TEXT
  5
29D
330
1F
100
AcDbEntity
  8
D-5
  6
Continuous
 62
     2
370
     9
100
AcDbText
 10
585.0476323821628
 20
-817.3814583285146
 30
0.0
 40
30.48
  1
ノンスリップタイプステンレス製排水用蓋
 50
359.999975610655
 41
1.118421052631579
  7
ＭＳ ゴシック
100
AcDbText
  0
TEXT
  5
29E
330
1F
100
AcDbEntity
  8
D-5
  6
Continuous
 62
     2
370
     9
100
AcDbText
 10
927.0680671058634
 20
-881.2729589218769
 30
0.0
 40
30.48
  1
ＸＱ－Ｂ－１５　１５０Ｘ５００
 50
359.999975610655
 41
1.116666666666667
  7
ＭＳ ゴシック
100
AcDbText
  0
TEXT
  5
29F
330
1F
100
AcDbEntity
  8
A-5
  6
Continuous
 62
     2
370
     9
100
AcDbText
 10
331.6078614726201
 20
919.9497310120179
 30
0.0
 40
30.48
  1
指掛け穴：φ２０
 41
1.109375
  7
ＭＳ ゴシック
100
AcDbText
  0
TEXT
  5
2A0
330
1F
100
AcDbEntity
  8
A-5
  6
Continuous
 62
     2
370
     9
100
AcDbText
 10
338.1110073026462
 20
853.1522476760385
 30
0.0
 40
30.48
  1
１ヶ／枚
 41
1.09375
  7
ＭＳ ゴシック
100
AcDbText
  0
LINE
  5
2A1
330
1F
100
AcDbEntity
  8
A-5
  6
Continuous
 62
     7
370
     9
100
AcDbLine
 10
703.7197600380211
 20
902.7310154634755
 30
0.0
 11
302.9029010643779
 21
902.7310154634755
 31
0.0
  0
LINE
  5
2A2
330
1F
100
AcDbEntity
  8
A-5
  6
Continuous
 62
     7
370
     9
100
AcDbLine
 10
302.9029010643779
 20
902.7310154634755
 30
0.0
 11
145.7061970609092
 21
645.721065012931
 31
0.0
  0
LINE
  5
2A3
330
1F
100
AcDbEntity
  8
A-5
  6
Continuous
 62
     7
370
     9
100
AcDbLine
 10
187.9053397510838
 20
349.6645354711723
 30
0.0
 11
373.1166316183595
 21
349.6645354711723
 31
0.0
  0
TEXT
  5
2A4
330
1F
100
AcDbEntity
  8
A-5
  6
Continuous
 62
     2
370
     9
100
AcDbText
 10
191.4760854758769
 20
362.9327392303791
 30
0.0
 40
30.48
  1
滑り止め
 41
1.09375
  7
ＭＳ ゴシック
100
AcDbText
  0
LINE
  5
2A5
330
1F
100
AcDbEntity
  8
A-5
  6
Continuous
 62
     7
370
     9
100
AcDbLine
 10
86.25157697482413
 20
529.8601717307275
 30
0.0
 11
187.9053397510838
 21
349.6645354711723
 31
0.0
  0
LINE
  5
2A6
330
1F
100
AcDbEntity
  8
A-5
  6
Continuous
 62
     7
370
     9
100
AcDbLine
 10
86.25157697482413
 20
529.8601717307275
 30
0.0
 11
104.2761770165864
 21
505.8786414764984
 31
0.0
  0
LINE
  5
2A7
330
1F
100
AcDbEntity
  8
A-5
  6
Continuous
 62
     7
370
     9
100
AcDbLine
 10
86.25157697482413
 20
529.8601717307275
 30
0.0
 11
97.45512690319656
 21
502.0306825330713
 31
0.0
  0
LINE
  5
2A8
330
1F
100
AcDbEntity
  8
A-5
  6
Continuous
 62
     7
370
     9
100
AcDbLine
 10
145.7061970609092
 20
645.721065012931
 30
0.0
 11
157.8850852323086
 21
673.1377512260485
 31
0.0
  0
LINE
  5
2A9
330
1F
100
AcDbEntity
  8
A-5
  6
Continuous
 62
     7
370
     9
100
AcDbLine
 10
145.7061970609092
 20
645.721065012931
 30
0.0
 11
164.5660602267048
 21
669.0514220905128
 31
0.0
  0
LINE
  5
2AA
330
1F
100
AcDbEntity
  8
A-4
  6
Continuous
 62
     7
370
     9
100
AcDbLine
 10
957.3401840825774
 20
925.8912105926872
 30
0.0
 11
1007.340184082577
 21
925.8912105926872
 31
0.0
  0
LINE
  5
2AB
330
1F
100
AcDbEntity
  8
A-4
  6
Continuous
 62
     7
370
     9
100
AcDbLine
 10
927.3403184070525
 20
925.8912105926872
 30
0.0
 11
957.3401840825774
 21
925.8912105926872
 31
0.0
  0
LINE
  5
2AC
330
1F
100
AcDbEntity
  8
A-4
  6
Continuous
 62
     7
370
     9
100
AcDbLine
 10
933.3402915421574
 20
558.3203668809413
 30
0.0
 11
983.3402915421574
 21
558.3203668809413
 31
0.0
  0
LINE
  5
2AD
330
1F
100
AcDbEntity
  8
A-4
  6
Continuous
 62
     7
370
     9
100
AcDbLine
 10
927.3403184070525
 20
558.3203668809413
 30
0.0
 11
933.3402915421574
 21
558.3203668809413
 31
0.0
  0
LINE
  5
2AE
330
1F
100
AcDbEntity
  8
0-0
  6
Continuous
 62
     3
370
     9
100
AcDbLine
 10
957.3401840825774
 20
782.925229234852
 30
0.0
 11
957.3401840825774
 21
776.9251161195047
 31
0.0
  0
LINE
  5
2AF
330
1F
100
AcDbEntity
  8
0-0
  6
Continuous
 62
     3
370
     9
100
AcDbLine
 10
957.3401840825774
 20
488.9244459110708
 30
0.0
 11
957.3401840825774
 21
482.9243327957233
 31
0.0
  0
LINE
  5
2B0
330
1F
100
AcDbEntity
  8
0-0
  6
JWW_CENTER1
 62
     7
370
     9
100
AcDbLine
 10
913.4726157609073
 20
632.9247810152877
 30
0.0
 11
971.2081666892074
 21
632.9247810152877
 31
0.0
  0
LINE
  5
2B1
330
1F
100
AcDbEntity
  8
0-0
  6
Continuous
 62
     3
370
     9
100
AcDbLine
 10
933.9403868418377
 20
482.9244027858446
 30
0.0
 11
957.3401840825774
 21
482.9244027858446
 31
0.0
  0
LINE
  5
2B2
330
1F
100
AcDbEntity
  8
0-0
  6
Continuous
 62
     3
370
     9
100
AcDbLine
 10
927.3403184070525
 20
776.3252307901881
 30
0.0
 11
927.3403184070525
 21
489.5244012305085
 31
0.0
  0
LINE
  5
2B3
330
1F
100
AcDbEntity
  8
0-0
  6
Continuous
 62
     3
370
     9
100
AcDbLine
 10
933.9403868418377
 20
782.925229234852
 30
0.0
 11
957.3401840825774
 21
782.925229234852
 31
0.0
  0
LINE
  5
2B4
330
1F
100
AcDbEntity
  8
0-0
  6
Continuous
 62
     3
370
     9
100
AcDbLine
 10
937.9403222718265
 20
776.9251161195047
 30
0.0
 11
957.3401840825774
 21
776.9251161195047
 31
0.0
  0
LINE
  5
2B5
330
1F
100
AcDbEntity
  8
0-0
  6
Continuous
 62
     3
370
     9
100
AcDbLine
 10
933.3402915421574
 20
493.5244766407402
 30
0.0
 11
933.3402915421574
 21
772.3250853898353
 31
0.0
  0
LINE
  5
2B6
330
1F
100
AcDbEntity
  8
0-0
  6
Continuous
 62
     3
370
     9
100
AcDbLine
 10
937.9403222718265
 20
488.9244459110708
 30
0.0
 11
957.3401840825774
 21
488.9244459110708
 31
0.0
  0
ARC
  5
2B7
330
1F
100
AcDbEntity
  8
0-0
  6
Continuous
 62
     3
370
     9
100
AcDbCircle
 10
933.9403868418377
 20
489.5244012305085
 30
0.0
 40
6.600000085057439
100
AcDbArc
 50
180.0
 51
270.0
  0
ARC
  5
2B8
330
1F
100
AcDbEntity
  8
0-0
  6
Continuous
 62
     3
370
     9
100
AcDbCircle
 10
933.9403868418377
 20
776.3252307901881
 30
0.0
 40
6.600000085057439
100
AcDbArc
 50
90.0
 51
180.0
  0
ARC
  5
2B9
330
1F
100
AcDbEntity
  8
0-0
  6
Continuous
 62
     3
370
     9
100
AcDbCircle
 10
937.9403222718265
 20
772.3250853898353
 30
0.0
 40
4.60000010899135
100
AcDbArc
 50
90.0
 51
180.0
  0
ARC
  5
2BA
330
1F
100
AcDbEntity
  8
0-0
  6
Continuous
 62
     3
370
     9
100
AcDbCircle
 10
937.9403222718265
 20
493.5244766407402
 30
0.0
 40
4.60000010899135
100
AcDbArc
 50
180.0
 51
270.0
  0
LINE
  5
2BB
330
1F
100
AcDbEntity
  8
A-4
  6
Continuous
 62
     7
370
     9
100
AcDbLine
 10
1007.340184082577
 20
925.8912105926872
 30
0.0
 11
877.3403184070525
 21
925.8912105926872
 31
0.0
  0
LINE
  5
2BC
330
1F
100
AcDbEntity
  8
A-4
  6
Continuous
 62
     7
370
     9
100
AcDbLine
 10
927.3403184070525
 20
925.8912105926872
 30
0.0
 11
897.5969725658381
 21
921.9754248260857
 31
0.0
  0
LINE
  5
2BD
330
1F
100
AcDbEntity
  8
A-4
  6
Continuous
 62
     7
370
     9
100
AcDbLine
 10
927.3403184070525
 20
925.8912105926872
 30
0.0
 11
897.5969725658381
 21
929.8069963592887
 31
0.0
  0
LINE
  5
2BE
330
1F
100
AcDbEntity
  8
A-4
  6
Continuous
 62
     7
370
     9
100
AcDbLine
 10
957.3401840825774
 20
925.8912105926872
 30
0.0
 11
987.0835299237917
 21
921.9754248260857
 31
0.0
  0
LINE
  5
2BF
330
1F
100
AcDbEntity
  8
A-4
  6
Continuous
 62
     7
370
     9
100
AcDbLine
 10
957.3401840825774
 20
925.8912105926872
 30
0.0
 11
987.0835299237917
 21
929.8069963592887
 31
0.0
  0
LINE
  5
2C0
330
1F
100
AcDbEntity
  8
A-4
  6
Continuous
 62
     7
370
     9
100
AcDbLine
 10
927.3403184070525
 20
928.8912107118965
 30
0.0
 11
927.3403184070525
 21
793.9307269693724
 31
0.0
  0
LINE
  5
2C1
330
1F
100
AcDbEntity
  8
A-4
  6
Continuous
 62
     7
370
     9
100
AcDbLine
 10
957.3401840825774
 20
928.8912107118965
 30
0.0
 11
957.3401840825774
 21
793.9307269693724
 31
0.0
  0
TEXT
  5
2C2
330
1F
100
AcDbEntity
  8
A-4
  6
Continuous
 62
     2
370
   211
100
AcDbText
 10
921.0902512448148
 20
936.5312105926872
 30
0.0
 40
30.48
  1
15
 41
1.0625
  7
ＭＳ ゴシック
100
AcDbText
  0
LINE
  5
2C3
330
1F
100
AcDbEntity
  8
A-4
  6
Continuous
 62
     7
370
     9
100
AcDbLine
 10
983.3402915421574
 20
558.3203668809413
 30
0.0
 11
877.3403184070525
 21
558.3203668809413
 31
0.0
  0
LINE
  5
2C4
330
1F
100
AcDbEntity
  8
A-4
  6
Continuous
 62
     7
370
     9
100
AcDbLine
 10
927.3403184070525
 20
558.3203668809413
 30
0.0
 11
897.5969725658381
 21
554.4045811143396
 31
0.0
  0
LINE
  5
2C5
330
1F
100
AcDbEntity
  8
A-4
  6
Continuous
 62
     7
370
     9
100
AcDbLine
 10
927.3403184070525
 20
558.3203668809413
 30
0.0
 11
897.5969725658381
 21
562.2361526475427
 31
0.0
  0
LINE
  5
2C6
330
1F
100
AcDbEntity
  8
A-4
  6
Continuous
 62
     7
370
     9
100
AcDbLine
 10
933.3402915421574
 20
558.3203668809413
 30
0.0
 11
963.0836373833718
 21
554.4045811143396
 31
0.0
  0
LINE
  5
2C7
330
1F
100
AcDbEntity
  8
A-4
  6
Continuous
 62
     7
370
     9
100
AcDbLine
 10
933.3402915421574
 20
558.3203668809413
 30
0.0
 11
963.0836373833718
 21
562.2361526475427
 31
0.0
  0
TEXT
  5
2C8
330
1F
100
AcDbEntity
  8
A-4
  6
Continuous
 62
     2
370
   211
100
AcDbText
 10
889.9624314345102
 20
570.9716461657046
 30
0.0
 40
30.48
  1
3
 41
0.9999999999999998
  7
ＭＳ ゴシック
100
AcDbText
  0
LINE
  5
2C9
330
1F
100
AcDbEntity
  8
A-4
  6
Continuous
 62
     7
370
     9
100
AcDbLine
 10
841.6876796856251
 20
482.9243327957233
 30
0.0
 11
841.6876796856251
 21
782.925229234852
 31
0.0
  0
LINE
  5
2CA
330
1F
100
AcDbEntity
  8
A-4
  6
Continuous
 62
     7
370
     9
100
AcDbLine
 10
841.6876796856251
 20
482.9243327957233
 30
0.0
 11
837.7718939190236
 21
512.6676786369377
 31
0.0
  0
LINE
  5
2CB
330
1F
100
AcDbEntity
  8
A-4
  6
Continuous
 62
     7
370
     9
100
AcDbLine
 10
841.6876796856251
 20
482.9243327957233
 30
0.0
 11
845.6034654522266
 21
512.6676786369377
 31
0.0
  0
LINE
  5
2CC
330
1F
100
AcDbEntity
  8
A-4
  6
Continuous
 62
     7
370
     9
100
AcDbLine
 10
841.6876796856251
 20
782.925229234852
 30
0.0
 11
837.7718939190236
 21
753.1818833936377
 31
0.0
  0
LINE
  5
2CD
330
1F
100
AcDbEntity
  8
A-4
  6
Continuous
 62
     7
370
     9
100
AcDbLine
 10
841.6876796856251
 20
782.925229234852
 30
0.0
 11
845.6034654522266
 21
753.1818833936377
 31
0.0
  0
LINE
  5
2CE
330
1F
100
AcDbEntity
  8
A-4
  6
Continuous
 62
     7
370
     9
100
AcDbLine
 10
838.6876795664158
 20
482.9243327957233
 30
0.0
 11
908.9661911960981
 21
482.9243327957233
 31
0.0
  0
LINE
  5
2CF
330
1F
100
AcDbEntity
  8
A-4
  6
Continuous
 62
     7
370
     9
100
AcDbLine
 10
838.6876795664158
 20
782.925229234852
 30
0.0
 11
908.9661911960981
 21
782.925229234852
 31
0.0
  0
TEXT
  5
2D0
330
1F
100
AcDbEntity
  8
A-4
  6
Continuous
 62
     2
370
   211
100
AcDbText
 10
831.0476796856251
 20
600.4247810152877
 30
0.0
 40
30.48
  1
150
 50
90.0
 41
1.083333333333333
  7
ＭＳ ゴシック
100
AcDbText
  0
TEXT
  5
2D1
330
1F
100
AcDbEntity
  8
A-5
  6
Continuous
 62
     2
370
     9
100
AcDbText
 10
184.3147183641976
 20
226.3153472222224
 30
0.0
 40
30.48
  1
詳細図　Ｓ＝１：５
 41
1.111111111111111
  7
ＭＳ ゴシック
100
AcDbText
  0
LINE
  5
2D2
330
1F
100
AcDbEntity
  8
A-5
  6
Continuous
 62
     7
370
     9
100
AcDbLine
 10
101.8779753600429
 20
269.0324499334829
 30
0.0
 11
666.7514613683522
 21
269.0324499334829
 31
0.0
  0
LINE
  5
2D3
330
1F
100
AcDbEntity
  8
A-5
  6
Continuous
 62
     7
370
     9
100
AcDbLine
 10
666.7514613683522
 20
212.3182445109619
 30
0.0
 11
101.8779753600429
 21
212.3182445109619
 31
0.0
  0
LINE
  5
2D4
330
1F
100
AcDbEntity
  8
A-5
  6
Continuous
 62
     7
370
     9
100
AcDbLine
 10
101.8779753600429
 20
212.3182445109619
 30
0.0
 11
101.8779753600429
 21
269.0324499334829
 31
0.0
  0
LINE
  5
2D5
330
1F
100
AcDbEntity
  8
A-5
  6
Continuous
 62
     7
370
     9
100
AcDbLine
 10
666.7514613683522
 20
269.0324499334829
 30
0.0
 11
666.7514613683522
 21
212.3182445109619
 31
0.0
  0
LINE
  5
2D6
330
1F
100
AcDbEntity
  8
A-4
  6
Continuous
 62
     7
370
     9
100
AcDbLine
 10
-901.3472222222222
 20
572.9247697037531
 30
0.0
 11
-901.3472222222222
 21
522.9247697037531
 31
0.0
  0
LINE
  5
2D7
330
1F
100
AcDbEntity
  8
A-4
  6
Continuous
 62
     7
370
     9
100
AcDbLine
 10
-901.3472222222222
 20
632.9247810152877
 30
0.0
 11
-901.3472222222222
 21
682.9247810152877
 31
0.0
  0
LINE
  5
2D8
330
1F
100
AcDbEntity
  8
A-4
  6
Continuous
 62
     7
370
     9
100
AcDbLine
 10
-901.3472222222222
 20
572.9247697037531
 30
0.0
 11
-901.3472222222222
 21
632.9247810152877
 31
0.0
  0
LINE
  5
2D9
330
1F
100
AcDbEntity
  8
A-4
  6
Continuous
 62
     7
370
     9
100
AcDbLine
 10
-901.3472222222222
 20
572.9247697037531
 30
0.0
 11
-897.4314364556208
 21
543.1814238625387
 31
0.0
  0
LINE
  5
2DA
330
1F
100
AcDbEntity
  8
A-4
  6
Continuous
 62
     7
370
     9
100
AcDbLine
 10
-901.3472222222222
 20
572.9247697037531
 30
0.0
 11
-905.2630079888238
 21
543.1814238625387
 31
0.0
  0
LINE
  5
2DB
330
1F
100
AcDbEntity
  8
A-4
  6
Continuous
 62
     7
370
     9
100
AcDbLine
 10
-904.3472222222222
 20
572.9247697037531
 30
0.0
 11
-832.837962962963
 21
572.9247697037531
 31
0.0
  0
LINE
  5
2DC
330
1F
100
AcDbEntity
  8
A-4
  6
Continuous
 62
     7
370
     9
100
AcDbLine
 10
-904.3472222222222
 20
632.9247810152877
 30
0.0
 11
-832.837962962963
 21
632.9247810152877
 31
0.0
  0
TEXT
  5
2DD
330
1F
100
AcDbEntity
  8
A-4
  6
Continuous
 62
     2
370
   211
100
AcDbText
 10
-911.9872222222222
 20
581.6747753595204
 30
0.0
 40
30.48
  1
30
 50
90.0
 41
1.0625
  7
ＭＳ ゴシック
100
AcDbText
  0
LINE
  5
2DE
330
1F
100
AcDbEntity
  8
A-4
  6
Continuous
 62
     7
370
     9
100
AcDbLine
 10
-901.3472222222222
 20
632.9247810152877
 30
0.0
 11
-901.3472222222222
 21
582.9247810152877
 31
0.0
  0
LINE
  5
2DF
330
1F
100
AcDbEntity
  8
A-4
  6
Continuous
 62
     7
370
     9
100
AcDbLine
 10
-901.3472222222222
 20
692.9247923268225
 30
0.0
 11
-901.3472222222222
 21
742.9247923268225
 31
0.0
  0
LINE
  5
2E0
330
1F
100
AcDbEntity
  8
A-4
  6
Continuous
 62
     7
370
     9
100
AcDbLine
 10
-901.3472222222222
 20
632.9247810152877
 30
0.0
 11
-901.3472222222222
 21
692.9247923268225
 31
0.0
  0
LINE
  5
2E1
330
1F
100
AcDbEntity
  8
A-4
  6
Continuous
 62
     7
370
     9
100
AcDbLine
 10
-901.3472222222222
 20
692.9247923268225
 30
0.0
 11
-897.4314364556208
 21
722.6681381680369
 31
0.0
  0
LINE
  5
2E2
330
1F
100
AcDbEntity
  8
A-4
  6
Continuous
 62
     7
370
     9
100
AcDbLine
 10
-901.3472222222222
 20
692.9247923268225
 30
0.0
 11
-905.2630079888238
 21
722.6681381680369
 31
0.0
  0
LINE
  5
2E3
330
1F
100
AcDbEntity
  8
A-4
  6
Continuous
 62
     7
370
     9
100
AcDbLine
 10
-904.3472222222222
 20
692.9247923268225
 30
0.0
 11
-832.837962962963
 21
692.9247923268225
 31
0.0
  0
TEXT
  5
2E4
330
1F
100
AcDbEntity
  8
A-4
  6
Continuous
 62
     2
370
   211
100
AcDbText
 10
-911.9872222222222
 20
641.6747866710551
 30
0.0
 40
30.48
  1
30
 50
90.0
 41
1.0625
  7
ＭＳ ゴシック
100
AcDbText
  0
LINE
  5
2E5
330
1F
100
AcDbEntity
  8
A-4
  6
Continuous
 62
     7
370
     9
100
AcDbLine
 10
258.4166666666666
 20
542.9246940578644
 30
0.0
 11
258.4166666666666
 21
592.9246940578644
 31
0.0
  0
LINE
  5
2E6
330
1F
100
AcDbEntity
  8
A-4
  6
Continuous
 62
     7
370
     9
100
AcDbLine
 10
258.4166666666666
 20
482.9244027858446
 30
0.0
 11
258.4166666666666
 21
542.9246940578644
 31
0.0
  0
LINE
  5
2E7
330
1F
100
AcDbEntity
  8
A-4
  6
Continuous
 62
     7
370
     9
100
AcDbLine
 10
261.4166666666666
 20
542.9246940578644
 30
0.0
 11
188.2762345679012
 21
542.9246940578644
 31
0.0
  0
LINE
  5
2E8
330
1F
100
AcDbEntity
  8
A-4
  6
Continuous
 62
     7
370
     9
100
AcDbLine
 10
258.4166666666666
 20
542.9246940578644
 30
0.0
 11
258.4166666666666
 21
492.9246940578644
 31
0.0
  0
LINE
  5
2E9
330
1F
100
AcDbEntity
  8
A-4
  6
Continuous
 62
     7
370
     9
100
AcDbLine
 10
258.4166666666666
 20
602.924705369399
 30
0.0
 11
258.4166666666666
 21
652.924705369399
 31
0.0
  0
LINE
  5
2EA
330
1F
100
AcDbEntity
  8
A-4
  6
Continuous
 62
     7
370
     9
100
AcDbLine
 10
258.4166666666666
 20
542.9246940578644
 30
0.0
 11
258.4166666666666
 21
602.924705369399
 31
0.0
  0
LINE
  5
2EB
330
1F
100
AcDbEntity
  8
A-4
  6
Continuous
 62
     7
370
     9
100
AcDbLine
 10
258.4166666666666
 20
542.9246940578644
 30
0.0
 11
262.3324524332681
 21
513.1813482166501
 31
0.0
  0
LINE
  5
2EC
330
1F
100
AcDbEntity
  8
A-4
  6
Continuous
 62
     7
370
     9
100
AcDbLine
 10
258.4166666666666
 20
542.9246940578644
 30
0.0
 11
254.500880900065
 21
513.1813482166501
 31
0.0
  0
LINE
  5
2ED
330
1F
100
AcDbEntity
  8
A-4
  6
Continuous
 62
     7
370
     9
100
AcDbLine
 10
261.4166666666666
 20
602.924705369399
 30
0.0
 11
188.2762345679012
 21
602.924705369399
 31
0.0
  0
TEXT
  5
2EE
330
1F
100
AcDbEntity
  8
A-4
  6
Continuous
 62
     2
370
   211
100
AcDbText
 10
247.7766666666666
 20
551.6746997136318
 30
0.0
 40
30.48
  1
30
 50
90.0
 41
1.0625
  7
ＭＳ ゴシック
100
AcDbText
  0
LINE
  5
2EF
330
1F
100
AcDbEntity
  8
A-4
  6
Continuous
 62
     7
370
     9
100
AcDbLine
 10
258.4166666666666
 20
602.924705369399
 30
0.0
 11
258.4166666666666
 21
552.924705369399
 31
0.0
  0
LINE
  5
2F0
330
1F
100
AcDbEntity
  8
A-4
  6
Continuous
 62
     7
370
     9
100
AcDbLine
 10
258.4166666666666
 20
662.9247166809339
 30
0.0
 11
258.4166666666666
 21
712.9247166809339
 31
0.0
  0
LINE
  5
2F1
330
1F
100
AcDbEntity
  8
A-4
  6
Continuous
 62
     7
370
     9
100
AcDbLine
 10
258.4166666666666
 20
602.924705369399
 30
0.0
 11
258.4166666666666
 21
662.9247166809339
 31
0.0
  0
LINE
  5
2F2
330
1F
100
AcDbEntity
  8
A-4
  6
Continuous
 62
     7
370
     9
100
AcDbLine
 10
261.4166666666666
 20
662.9247166809339
 30
0.0
 11
188.2762345679012
 21
662.9247166809339
 31
0.0
  0
TEXT
  5
2F3
330
1F
100
AcDbEntity
  8
A-4
  6
Continuous
 62
     2
370
   211
100
AcDbText
 10
247.7766666666666
 20
611.6747110251664
 30
0.0
 40
30.48
  1
30
 50
90.0
 41
1.0625
  7
ＭＳ ゴシック
100
AcDbText
  0
LINE
  5
2F4
330
1F
100
AcDbEntity
  8
A-4
  6
Continuous
 62
     7
370
     9
100
AcDbLine
 10
258.4166666666666
 20
662.9247166809339
 30
0.0
 11
258.4166666666666
 21
612.9247166809339
 31
0.0
  0
LINE
  5
2F5
330
1F
100
AcDbEntity
  8
A-4
  6
Continuous
 62
     7
370
     9
100
AcDbLine
 10
258.4166666666666
 20
722.9247279924685
 30
0.0
 11
258.4166666666666
 21
772.9247279924685
 31
0.0
  0
LINE
  5
2F6
330
1F
100
AcDbEntity
  8
A-4
  6
Continuous
 62
     7
370
     9
100
AcDbLine
 10
258.4166666666666
 20
662.9247166809339
 30
0.0
 11
258.4166666666666
 21
722.9247279924685
 31
0.0
  0
LINE
  5
2F7
330
1F
100
AcDbEntity
  8
A-4
  6
Continuous
 62
     7
370
     9
100
AcDbLine
 10
258.4166666666666
 20
722.9247279924685
 30
0.0
 11
262.3324524332681
 21
752.6680738336829
 31
0.0
  0
LINE
  5
2F8
330
1F
100
AcDbEntity
  8
A-4
  6
Continuous
 62
     7
370
     9
100
AcDbLine
 10
258.4166666666666
 20
722.9247279924685
 30
0.0
 11
254.500880900065
 21
752.6680738336829
 31
0.0
  0
LINE
  5
2F9
330
1F
100
AcDbEntity
  8
A-4
  6
Continuous
 62
     7
370
     9
100
AcDbLine
 10
261.4166666666666
 20
722.9247279924685
 30
0.0
 11
188.2762345679012
 21
722.9247279924685
 31
0.0
  0
LWPOLYLINE
  5
2FA
330
1F
100
AcDbEntity
  8
A-4
  6
Continuous
 62
     7
370
     9
100
AcDbPolyline
 90
        4
 70
     1
 43
1.0
 10
258.9166666666666
 20
662.9247166809339
 42
0.4142135623731
 10
258.4166666666666
 20
663.4247166809338
 42
0.4142135623731
 10
257.9166666666666
 20
662.9247166809339
 42
0.4142135623731
 10
258.4166666666666
 20
662.4247166809339
 42
0.4142135623731
  0
LWPOLYLINE
  5
2FB
330
1F
100
AcDbEntity
  8
A-4
  6
Continuous
 62
     7
370
     9
100
AcDbPolyline
 90
        4
 70
     1
 43
1.0
 10
258.9166666666666
 20
602.924705369399
 42
0.4142135623731
 10
258.4166666666666
 20
603.424705369399
 42
0.4142135623731
 10
257.9166666666666
 20
602.924705369399
 42
0.4142135623731
 10
258.4166666666666
 20
602.424705369399
 42
0.4142135623731
  0
LINE
  5
2FC
330
1F
100
AcDbEntity
  8
0-8
  6
JWW_CENTER1
 62
     7
370
     9
100
AcDbLine
 10
59.45131373635718
 20
602.924705369399
 30
0.0
 11
98.31178878311152
 21
602.924705369399
 31
0.0
  0
LINE
  5
2FD
330
1F
100
AcDbEntity
  8
A-4
  6
Continuous
 62
     7
370
     9
100
AcDbLine
 10
137.8795208392469
 20
861.7132345178106
 30
0.0
 11
137.8795208392469
 21
697.357828560893
 31
0.0
  0
LWPOLYLINE
  5
2FE
330
1F
100
AcDbEntity
  8
A-4
  6
Continuous
 62
     7
370
     9
100
AcDbPolyline
 90
        4
 70
     1
 43
1.0
 10
-900.8472222222223
 20
632.9247810152877
 42
0.4142135623731
 10
-901.3472222222222
 20
633.4247810152876
 42
0.4142135623731
 10
-901.8472222222222
 20
632.9247810152877
 42
0.4142135623731
 10
-901.3472222222222
 20
632.4247810152877
 42
0.4142135623731
  0
ENDSEC
  0
SECTION
  2
OBJECTS
  0
DICTIONARY
  5
C
330
0
100
AcDbDictionary
281
     1
  3
ACAD_GROUP
350
D
  3
ACAD_LAYOUT
350
1A
  3
ACAD_MLEADERSTYLE
350
300
  3
ACAD_MLINESTYLE
350
17
  3
ACAD_PLOTSETTINGS
350
19
  3
ACAD_PLOTSTYLENAME
350
E
  3
ACAD_TABLESTYLE
350
2FF
  3
ACAD_VISUALSTYLE
350
2A
  0
DICTIONARY
  5
D
102
{ACAD_REACTORS
330
C
102
}
330
C
100
AcDbDictionary
281
     1
  0
DICTIONARY
  5
1A
102
{ACAD_REACTORS
330
C
102
}
330
C
100
AcDbDictionary
281
     1
  3
Layout1
350
1E
  3
Layout2
350
26
  3
Model
350
22
  0
DICTIONARY
  5
300
102
{ACAD_REACTORS
330
C
102
}
330
C
100
AcDbDictionary
281
     1
  0
DICTIONARY
  5
17
102
{ACAD_REACTORS
330
C
102
}
330
C
100
AcDbDictionary
281
     1
  3
Standard
350
18
  0
DICTIONARY
  5
19
102
{ACAD_REACTORS
330
C
102
}
330
C
100
AcDbDictionary
281
     1
  0
ACDBDICTIONARYWDFLT
  5
E
102
{ACAD_REACTORS
330
C
102
}
330
C
100
AcDbDictionary
281
     1
  3
Normal
350
F
100
AcDbDictionaryWithDefault
340
F
  0
DICTIONARY
  5
2FF
102
{ACAD_REACTORS
330
C
102
}
330
C
100
AcDbDictionary
281
     1
  0
DICTIONARY
  5
2A
102
{ACAD_REACTORS
330
C
102
}
330
C
100
AcDbDictionary
281
     1
  3
2dWireframe
350
2F
  3
3D Hidden
350
31
  3
3dWireframe
350
30
  3
Basic
350
32
  3
Brighten
350
36
  3
ColorChange
350
3A
  3
Conceptual
350
34
  3
Dim
350
35
  3
Facepattern
350
39
  3
Flat
350
2B
  3
FlatWithEdges
350
2C
  3
Gouraud
350
2D
  3
GouraudWithEdges
350
2E
  3
Linepattern
350
38
  3
Realistic
350
33
  3
Thicken
350
37
  0
LAYOUT
  5
1E
102
{ACAD_REACTORS
330
1A
102
}
330
1A
100
AcDbPlotSettings
  1

  2
none_device
  4

  6

 40
0.0
 41
0.0
 42
0.0
 43
0.0
 44
0.0
 45
0.0
 46
0.0
 47
0.0
 48
0.0
 49
0.0
140
0.0
141
0.0
142
1.0
143
1.0
 70
   688
 72
     0
 73
     0
 74
     5
  7

 75
    16
 76
     0
 77
     5
 78
   300
147
1.0
148
0.0
149
0.0
100
AcDbLayout
  1
Layout1
 70
     1
 71
     1
 10
0.0
 20
0.0
 11
420.0
 21
297.0
 12
0.0
 22
0.0
 32
0.0
 14
1.000000000000000E+20
 24
1.000000000000000E+20
 34
1.000000000000000E+20
 15
-1.000000000000000E+20
 25
-1.000000000000000E+20
 35
-1.000000000000000E+20
146
0.0
 13
0.0
 23
0.0
 33
0.0
 16
1.0
 26
0.0
 36
0.0
 17
0.0
 27
1.0
 37
0.0
 76
     0
330
1B
  0
LAYOUT
  5
26
102
{ACAD_REACTORS
330
1A
102
}
330
1A
100
AcDbPlotSettings
  1

  2
none_device
  4

  6

 40
0.0
 41
0.0
 42
0.0
 43
0.0
 44
0.0
 45
0.0
 46
0.0
 47
0.0
 48
0.0
 49
0.0
140
0.0
141
0.0
142
1.0
143
1.0
 70
   688
 72
     0
 73
     0
 74
     5
  7

 75
    16
 76
     0
 77
     5
 78
   300
147
1.0
148
0.0
149
0.0
100
AcDbLayout
  1
Layout2
 70
     1
 71
     2
 10
0.0
 20
0.0
 11
0.0
 21
0.0
 12
0.0
 22
0.0
 32
0.0
 14
0.0
 24
0.0
 34
0.0
 15
0.0
 25
0.0
 35
0.0
146
0.0
 13
0.0
 23
0.0
 33
0.0
 16
1.0
 26
0.0
 36
0.0
 17
0.0
 27
1.0
 37
0.0
 76
     0
330
23
  0
LAYOUT
  5
22
102
{ACAD_REACTORS
330
1A
102
}
330
1A
100
AcDbPlotSettings
  1

  2
none_device
  4

  6

 40
0.0
 41
0.0
 42
0.0
 43
0.0
 44
0.0
 45
0.0
 46
0.0
 47
0.0
 48
0.0
 49
0.0
140
0.0
141
0.0
142
1.0
143
1.0
 70
  1712
 72
     0
 73
     0
 74
     0
  7

 75
     0
 76
     0
 77
     5
 78
   300
147
1.0
148
0.0
149
0.0
100
AcDbLayout
  1
Model
 70
     1
 71
     0
 10
-2100.0
 20
-1485.0
 11
2100.0
 21
1485.0
 12
0.0
 22
0.0
 32
0.0
 14
-2100.0
 24
-1485.0
 34
0.0
 15
2100.0
 25
1485.0
 35
0.0
146
0.0
 13
0.0
 23
0.0
 33
0.0
 16
1.0
 26
0.0
 36
0.0
 17
0.0
 27
1.0
 37
0.0
 76
     0
330
1F
331
29
  0
MLINESTYLE
  5
18
102
{ACAD_REACTORS
330
17
102
}
330
17
100
AcDbMlineStyle
  2
Standard
 70
     0
  3

 62
   256
 51
90.0
 52
90.0
 71
     2
 49
0.5
 62
   256
  6
BYLAYER
 49
-0.5
 62
   256
  6
BYLAYER
  0
ACDBPLACEHOLDER
  5
F
102
{ACAD_REACTORS
330
E
102
}
330
E
  0
VISUALSTYLE
  5
2F
102
{ACAD_REACTORS
330
2A
102
}
330
2A
100
AcDbVisualStyle
  2
2dWireframe
 70
     4
 71
     0
 72
     2
 73
     0
 90
        0
 40
-0.6
 41
-30.0
 62
     5
 63
     7
421
 16777215
 74
     1
 91
        4
 64
     7
 65
   257
 75
     1
175
     1
 42
1.0
 92
        0
 66
   257
 43
1.0
 76
     1
 77
     6
 78
     2
 67
     7
 79
     5
170
     0
171
     0
290
     0
174
     0
 93
        1
 44
0.0
173
     0
291
     0
 45
0.0
1001
ACAD
1000
AcDbSavedByObjectVersion
1070
     0
  0
VISUALSTYLE
  5
31
102
{ACAD_REACTORS
330
2A
102
}
330
2A
100
AcDbVisualStyle
  2
3D Hidden
 70
     6
 71
     1
 72
     2
 73
     2
 90
        0
 40
-0.6
 41
-30.0
 62
     5
 63
     7
421
 16777215
 74
     2
 91
        2
 64
     7
 65
   257
 75
     2
175
     1
 42
40.0
 92
        0
 66
   257
 43
1.0
 76
     1
 77
     6
 78
     2
 67
     7
 79
     3
170
     0
171
     0
290
     0
174
     0
 93
        1
 44
0.0
173
     0
291
     0
 45
0.0
1001
ACAD
1000
AcDbSavedByObjectVersion
1070
     0
  0
VISUALSTYLE
  5
30
102
{ACAD_REACTORS
330
2A
102
}
330
2A
100
AcDbVisualStyle
  2
3dWireframe
 70
     5
 71
     0
 72
     2
 73
     0
 90
        0
 40
-0.6
 41
-30.0
 62
     5
 63
     7
421
 16777215
 74
     1
 91
        4
 64
     7
 65
   257
 75
     1
175
     1
 42
1.0
 92
        0
 66
   257
 43
1.0
 76
     1
 77
     6
 78
     2
 67
     7
 79
     5
170
     0
171
     0
290
     0
174
     0
 93
        1
 44
0.0
173
     0
291
     0
 45
0.0
1001
ACAD
1000
AcDbSavedByObjectVersion
1070
     0
  0
VISUALSTYLE
  5
32
102
{ACAD_REACTORS
330
2A
102
}
330
2A
100
AcDbVisualStyle
  2
Basic
 70
     7
 71
     1
 72
     0
 73
     1
 90
        0
 40
-0.6
 41
-30.0
 62
     5
 63
     7
421
 16777215
 74
     0
 91
        4
 64
     7
 65
   257
 75
     1
175
     1
 42
1.0
 92
        8
 66
     7
 43
1.0
 76
     1
 77
     6
 78
     2
 67
     7
 79
     5
170
     0
171
     0
290
     0
174
     0
 93
        1
 44
0.0
173
     0
291
     1
 45
0.0
1001
ACAD
1000
AcDbSavedByObjectVersion
1070
     0
  0
VISUALSTYLE
  5
36
102
{ACAD_REACTORS
330
2A
102
}
330
2A
100
AcDbVisualStyle
  2
Brighten
 70
    12
 71
     2
 72
     2
 73
     0
 90
        0
 40
-0.6
 41
-30.0
 62
     5
 63
     7
421
 16777215
 74
     1
 91
        4
 64
     7
 65
   257
 75
     1
175
     1
 42
1.0
 92
        8
 66
     7
 43
1.0
 76
     1
 77
     6
 78
     2
 67
     7
 79
     5
170
     0
171
     0
290
     0
174
     0
 93
        1
 44
50.0
173
     0
291
     1
 45
0.0
1001
ACAD
1000
AcDbSavedByObjectVersion
1070
     0
  0
VISUALSTYLE
  5
3A
102
{ACAD_REACTORS
330
2A
102
}
330
2A
100
AcDbVisualStyle
  2
ColorChange
 70
    16
 71
     2
 72
     2
 73
     3
 90
        0
 40
-0.6
 41
-30.0
 62
     5
 63
     8
421
  8421504
 74
     1
 91
        4
 64
     7
 65
   257
 75
     1
175
     1
 42
1.0
 92
        8
 66
     8
424
  8421504
 43
1.0
 76
     1
 77
     6
 78
     2
 67
     7
 79
     5
170
     0
171
     0
290
     0
174
     0
 93
        1
 44
0.0
173
     0
291
     1
 45
0.0
1001
ACAD
1000
AcDbSavedByObjectVersion
1070
     0
  0
VISUALSTYLE
  5
34
102
{ACAD_REACTORS
330
2A
102
}
330
2A
100
AcDbVisualStyle
  2
Conceptual
 70
     9
 71
     3
 72
     2
 73
     0
 90
        0
 40
-0.6
 41
-30.0
 62
     5
 63
     7
421
 16777215
 74
     2
 91
        2
 64
     7
 65
   257
 75
     1
175
     1
 42
40.0
 92
        8
 66
     7
 43
1.0
 76
     1
 77
     6
 78
     2
 67
     7
 79
     3
170
     0
171
     0
290
     0
174
     0
 93
        1
 44
0.0
173
     0
291
     0
 45
0.0
1001
ACAD
1000
AcDbSavedByObjectVersion
1070
     0
  0
VISUALSTYLE
  5
35
102
{ACAD_REACTORS
330
2A
102
}
330
2A
100
AcDbVisualStyle
  2
Dim
 70
    11
 71
     2
 72
     2
 73
     0
 90
        0
 40
-0.6
 41
-30.0
 62
     5
 63
     7
421
 16777215
 74
     1
 91
        4
 64
     7
 65
   257
 75
     1
175
     1
 42
1.0
 92
        8
 66
     7
 43
1.0
 76
     1
 77
     6
 78
     2
 67
     7
 79
     5
170
     0
171
     0
290
     0
174
     0
 93
        1
 44
-50.0
173
     0
291
     1
 45
0.0
1001
ACAD
1000
AcDbSavedByObjectVersion
1070
     0
  0
VISUALSTYLE
  5
39
102
{ACAD_REACTORS
330
2A
102
}
330
2A
100
AcDbVisualStyle
  2
Facepattern
 70
    15
 71
     2
 72
     2
 73
     0
 90
        0
 40
-0.6
 41
-30.0
 62
     5
 63
     7
421
 16777215
 74
     1
 91
        4
 64
     7
 65
   257
 75
     1
175
     1
 42
1.0
 92
        8
 66
     7
 43
1.0
 76
     1
 77
     6
 78
     2
 67
     7
 79
     5
170
     0
171
     0
290
     0
174
     0
 93
        1
 44
0.0
173
     0
291
     1
 45
0.0
1001
ACAD
1000
AcDbSavedByObjectVersion
1070
     0
  0
VISUALSTYLE
  5
2B
102
{ACAD_REACTORS
330
2A
102
}
330
2A
100
AcDbVisualStyle
  2
Flat
 70
     0
 71
     2
 72
     1
 73
     1
 90
        2
 40
-0.6
 41
30.0
 62
     5
 63
     7
421
 16777215
 74
     0
 91
        4
 64
     7
 65
   257
 75
     1
175
     1
 42
1.0
 92
        8
 66
     7
 43
1.0
 76
     1
 77
     6
 78
     2
 67
     7
 79
     5
170
     0
171
     0
290
     0
174
     0
 93
       13
 44
0.0
173
     0
291
     1
 45
0.0
1001
ACAD
1000
AcDbSavedByObjectVersion
1070
     0
  0
VISUALSTYLE
  5
2C
102
{ACAD_REACTORS
330
2A
102
}
330
2A
100
AcDbVisualStyle
  2
FlatWithEdges
 70
     1
 71
     2
 72
     1
 73
     1
 90
        2
 40
-0.6
 41
30.0
 62
     5
 63
     7
421
 16777215
 74
     1
 91
        4
 64
     7
 65
   257
 75
     1
175
     1
 42
1.0
 92
        0
 66
   257
 43
1.0
 76
     1
 77
     6
 78
     2
 67
     7
 79
     5
170
     0
171
     0
290
     0
174
     0
 93
       13
 44
0.0
173
     0
291
     1
 45
0.0
1001
ACAD
1000
AcDbSavedByObjectVersion
1070
     0
  0
VISUALSTYLE
  5
2D
102
{ACAD_REACTORS
330
2A
102
}
330
2A
100
AcDbVisualStyle
  2
Gouraud
 70
     2
 71
     2
 72
     2
 73
     1
 90
        2
 40
-0.6
 41
30.0
 62
     5
 63
     7
421
 16777215
 74
     0
 91
        4
 64
     7
 65
   257
 75
     1
175
     1
 42
1.0
 92
        0
 66
     7
 43
1.0
 76
     1
 77
     6
 78
     2
 67
     7
 79
     5
170
     0
171
     0
290
     0
174
     0
 93
       13
 44
0.0
173
     0
291
     1
 45
0.0
1001
ACAD
1000
AcDbSavedByObjectVersion
1070
     0
  0
VISUALSTYLE
  5
2E
102
{ACAD_REACTORS
330
2A
102
}
330
2A
100
AcDbVisualStyle
  2
GouraudWithEdges
 70
     3
 71
     2
 72
     2
 73
     1
 90
        2
 40
-0.6
 41
30.0
 62
     5
 63
     7
421
 16777215
 74
     1
 91
        4
 64
     7
 65
   257
 75
     1
175
     1
 42
1.0
 92
        0
 66
   257
 43
1.0
 76
     1
 77
     6
 78
     2
 67
     7
 79
     5
170
     0
171
     0
290
     0
174
     0
 93
       13
 44
0.0
173
     0
291
     1
 45
0.0
1001
ACAD
1000
AcDbSavedByObjectVersion
1070
     0
  0
VISUALSTYLE
  5
38
102
{ACAD_REACTORS
330
2A
102
}
330
2A
100
AcDbVisualStyle
  2
Linepattern
 70
    14
 71
     2
 72
     2
 73
     0
 90
        0
 40
-0.6
 41
-30.0
 62
     5
 63
     7
421
 16777215
 74
     1
 91
        4
 64
     7
 65
   257
 75
     7
175
     7
 42
1.0
 92
        8
 66
     7
 43
1.0
 76
     1
 77
     6
 78
     2
 67
     7
 79
     5
170
     0
171
     0
290
     0
174
     0
 93
        1
 44
0.0
173
     0
291
     1
 45
0.0
1001
ACAD
1000
AcDbSavedByObjectVersion
1070
     0
  0
VISUALSTYLE
  5
33
102
{ACAD_REACTORS
330
2A
102
}
330
2A
100
AcDbVisualStyle
  2
Realistic
 70
     8
 71
     2
 72
     2
 73
     0
 90
        0
 40
-0.6
 41
-30.0
 62
     5
 63
     7
421
 16777215
 74
     1
 91
        0
 64
     7
 65
   257
 75
     1
175
     1
 42
1.0
 92
        8
 66
     8
424
  7895160
 43
1.0
 76
     1
 77
     6
 78
     2
 67
     7
 79
     5
170
     0
171
     0
290
     0
174
     0
 93
       13
 44
0.0
173
     0
291
     0
 45
0.0
1001
ACAD
1000
AcDbSavedByObjectVersion
1070
     0
  0
VISUALSTYLE
  5
37
102
{ACAD_REACTORS
330
2A
102
}
330
2A
100
AcDbVisualStyle
  2
Thicken
 70
    13
 71
     2
 72
     2
 73
     0
 90
        0
 40
-0.6
 41
-30.0
 62
     5
 63
     7
421
 16777215
 74
     1
 91
        4
 64
     7
 65
   257
 75
     1
175
     1
 42
1.0
 92
       12
 66
     7
 43
1.0
 76
     1
 77
     6
 78
     2
 67
     7
 79
     5
170
     0
171
     0
290
     0
174
     0
 93
        1
 44
0.0
173
     0
291
     1
 45
0.0
1001
ACAD
1000
AcDbSavedByObjectVersion
1070
     0
  0
ENDSEC
  0
EOF
