  0
SECTION
  2
HEADER
  9
$ACADVER
  1
AC1018
  9
$ACADMAINTVER
 70
     0
  9
$DWGCODEPAGE
  3
ANSI_932
  9
$INSBASE
 10
0.0
 20
0.0
 30
0.0
  9
$EXTMIN
 10
-630.0
 20
-445.5
 30
0.0
  9
$EXTMAX
 10
630.0
 20
445.5
 30
0.0
  9
$LIMMIN
 10
-630.0
 20
-445.5
  9
$LIMMAX
 10
630.0
 20
445.5
  9
$ORTHOMODE
 70
     0
  9
$REGENMODE
 70
     1
  9
$FILLMODE
 70
     1
  9
$QTEXTMODE
 70
     0
  9
$MIRRTEXT
 70
     1
  9
$LTSCALE
 40
3.0
  9
$ATTMODE
 70
     1
  9
$TEXTSIZE
 40
2.5
  9
$TRACEWID
 40
1.0
  9
$TEXTSTYLE
  7
Standard
  9
$CLAYER
  8
0
  9
$CELTYPE
  6
ByLayer
  9
$CECOLOR
 62
   256
  9
$CELTSCALE
 40
1.0
  9
$DISPSILH
 70
     0
  9
$DIMSCALE
 40
1.0
  9
$DIMASZ
 40
2.5
  9
$DIMEXO
 40
0.625
  9
$DIMDLI
 40
3.75
  9
$DIMRND
 40
0.0
  9
$DIMDLE
 40
0.0
  9
$DIMEXE
 40
1.25
  9
$DIMTP
 40
0.0
  9
$DIMTM
 40
0.0
  9
$DIMTXT
 40
2.5
  9
$DIMCEN
 40
2.5
  9
$DIMTSZ
 40
0.0
  9
$DIMTOL
 70
     0
  9
$DIMLIM
 70
     0
  9
$DIMTIH
 70
     0
  9
$DIMTOH
 70
     0
  9
$DIMSE1
 70
     0
  9
$DIMSE2
 70
     0
  9
$DIMTAD
 70
     1
  9
$DIMZIN
 70
     8
  9
$DIMBLK
  1

  9
$DIMASO
 70
     1
  9
$DIMSHO
 70
     1
  9
$DIMPOST
  1

  9
$DIMAPOST
  1

  9
$DIMALT
 70
     0
  9
$DIMALTD
 70
     3
  9
$DIMALTF
 40
0.03937007874016
  9
$DIMLFAC
 40
1.0
  9
$DIMTOFL
 70
     1
  9
$DIMTVP
 40
0.0
  9
$DIMTIX
 70
     0
  9
$DIMSOXD
 70
     0
  9
$DIMSAH
 70
     0
  9
$DIMBLK1
  1

  9
$DIMBLK2
  1

  9
$DIMSTYLE
  2
ISO-25
  9
$DIMCLRD
 70
     0
  9
$DIMCLRE
 70
     0
  9
$DIMCLRT
 70
     0
  9
$DIMTFAC
 40
1.0
  9
$DIMGAP
 40
0.625
  9
$DIMJUST
 70
     0
  9
$DIMSD1
 70
     0
  9
$DIMSD2
 70
     0
  9
$DIMTOLJ
 70
     0
  9
$DIMTZIN
 70
     8
  9
$DIMALTZ
 70
     0
  9
$DIMALTTZ
 70
     0
  9
$DIMUPT
 70
     0
  9
$DIMDEC
 70
     2
  9
$DIMTDEC
 70
     2
  9
$DIMALTU
 70
     2
  9
$DIMALTTD
 70
     3
  9
$DIMTXSTY
  7
Standard
  9
$DIMAUNIT
 70
     0
  9
$DIMADEC
 70
     0
  9
$DIMALTRND
 40
0.0
  9
$DIMAZIN
 70
     0
  9
$DIMDSEP
 70
    44
  9
$DIMATFIT
 70
     3
  9
$DIMFRAC
 70
     0
  9
$DIMLDRBLK
  1

  9
$DIMLUNIT
 70
     2
  9
$DIMLWD
 70
    -2
  9
$DIMLWE
 70
    -2
  9
$DIMTMOVE
 70
     0
  9
$LUNITS
 70
     2
  9
$LUPREC
 70
     4
  9
$SKETCHINC
 40
1.0
  9
$FILLETRAD
 40
10.0
  9
$AUNITS
 70
     0
  9
$AUPREC
 70
     0
  9
$MENU
  1
.
  9
$ELEVATION
 40
0.0
  9
$PELEVATION
 40
0.0
  9
$THICKNESS
 40
0.0
  9
$LIMCHECK
 70
     0
  9
$CHAMFERA
 40
10.0
  9
$CHAMFERB
 40
10.0
  9
$CHAMFERC
 40
20.0
  9
$CHAMFERD
 40
0.0
  9
$SKPOLY
 70
     0
  9
$TDCREATE
 40
2456499.588084757
  9
$TDUCREATE
 40
2456499.213084757
  9
$TDUPDATE
 40
2456499.588084769
  9
$TDUUPDATE
 40
2456499.213084769
  9
$TDINDWG
 40
0.0000000116
  9
$TDUSRTIMER
 40
0.0000000116
  9
$USRTIMER
 70
     1
  9
$ANGBASE
 50
0.0
  9
$ANGDIR
 70
     0
  9
$PDMODE
 70
     0
  9
$PDSIZE
 40
0.0
  9
$PLINEWID
 40
0.0
  9
$SPLFRAME
 70
     0
  9
$SPLINETYPE
 70
     6
  9
$SPLINESEGS
 70
     8
  9
$HANDSEED
  5
2AE
  9
$SURFTAB1
 70
     6
  9
$SURFTAB2
 70
     6
  9
$SURFTYPE
 70
     6
  9
$SURFU
 70
     6
  9
$SURFV
 70
     6
  9
$UCSBASE
  2

  9
$UCSNAME
  2

  9
$UCSORG
 10
0.0
 20
0.0
 30
0.0
  9
$UCSXDIR
 10
1.0
 20
0.0
 30
0.0
  9
$UCSYDIR
 10
0.0
 20
1.0
 30
0.0
  9
$UCSORTHOREF
  2

  9
$UCSORTHOVIEW
 70
     0
  9
$UCSORGTOP
 10
0.0
 20
0.0
 30
0.0
  9
$UCSORGBOTTOM
 10
0.0
 20
0.0
 30
0.0
  9
$UCSORGLEFT
 10
0.0
 20
0.0
 30
0.0
  9
$UCSORGRIGHT
 10
0.0
 20
0.0
 30
0.0
  9
$UCSORGFRONT
 10
0.0
 20
0.0
 30
0.0
  9
$UCSORGBACK
 10
0.0
 20
0.0
 30
0.0
  9
$PUCSBASE
  2

  9
$PUCSNAME
  2

  9
$PUCSORG
 10
0.0
 20
0.0
 30
0.0
  9
$PUCSXDIR
 10
1.0
 20
0.0
 30
0.0
  9
$PUCSYDIR
 10
0.0
 20
1.0
 30
0.0
  9
$PUCSORTHOREF
  2

  9
$PUCSORTHOVIEW
 70
     0
  9
$PUCSORGTOP
 10
0.0
 20
0.0
 30
0.0
  9
$PUCSORGBOTTOM
 10
0.0
 20
0.0
 30
0.0
  9
$PUCSORGLEFT
 10
0.0
 20
0.0
 30
0.0
  9
$PUCSORGRIGHT
 10
0.0
 20
0.0
 30
0.0
  9
$PUCSORGFRONT
 10
0.0
 20
0.0
 30
0.0
  9
$PUCSORGBACK
 10
0.0
 20
0.0
 30
0.0
  9
$USERI1
 70
     0
  9
$USERI2
 70
     0
  9
$USERI3
 70
     0
  9
$USERI4
 70
     0
  9
$USERI5
 70
     0
  9
$USERR1
 40
0.0
  9
$USERR2
 40
0.0
  9
$USERR3
 40
0.0
  9
$USERR4
 40
0.0
  9
$USERR5
 40
0.0
  9
$WORLDVIEW
 70
     1
  9
$SHADEDGE
 70
     3
  9
$SHADEDIF
 70
    70
  9
$TILEMODE
 70
     1
  9
$MAXACTVP
 70
    64
  9
$PINSBASE
 10
0.0
 20
0.0
 30
0.0
  9
$PLIMCHECK
 70
     0
  9
$PEXTMIN
 10
1.000000000000000E+20
 20
1.000000000000000E+20
 30
1.000000000000000E+20
  9
$PEXTMAX
 10
-1.000000000000000E+20
 20
-1.000000000000000E+20
 30
-1.000000000000000E+20
  9
$PLIMMIN
 10
0.0
 20
0.0
  9
$PLIMMAX
 10
420.0
 20
297.0
  9
$UNITMODE
 70
     0
  9
$VISRETAIN
 70
     1
  9
$PLINEGEN
 70
     0
  9
$PSLTSCALE
 70
     1
  9
$TREEDEPTH
 70
  3020
  9
$CMLSTYLE
  2
Standard
  9
$CMLJUST
 70
     0
  9
$CMLSCALE
 40
20.0
  9
$PROXYGRAPHICS
 70
     1
  9
$MEASUREMENT
 70
     1
  9
$CELWEIGHT
370
    -1
  9
$ENDCAPS
280
     0
  9
$JOINSTYLE
280
     0
  9
$LWDISPLAY
290
     0
  9
$INSUNITS
 70
     4
  9
$HYPERLINKBASE
  1

  9
$STYLESHEET
  1

  9
$XEDIT
290
     1
  9
$CEPSNTYPE
380
     0
  9
$PSTYLEMODE
290
     1
  9
$FINGERPRINTGUID
  2
{8794A00D-DA45-439C-A9A1-EB7B8575A6E2}
  9
$VERSIONGUID
  2
{FAEB1C32-E019-11D5-929B-00C0DF256EC4}
  9
$EXTNAMES
290
     1
  9
$PSVPSCALE
 40
0.0
  9
$OLESTARTUP
290
     0
  9
$SORTENTS
280
   127
  9
$INDEXCTL
280
     0
  9
$HIDETEXT
280
     1
  9
$XCLIPFRAME
290
     0
  9
$HALOGAP
280
     0
  9
$OBSCOLOR
 70
   257
  9
$OBSLTYPE
280
     0
  9
$INTERSECTIONDISPLAY
280
     0
  9
$INTERSECTIONCOLOR
 70
   257
  9
$DIMASSOC
280
     2
  9
$PROJECTNAME
  1

  0
ENDSEC
  0
SECTION
  2
CLASSES
  0
CLASS
  1
ACDBDICTIONARYWDFLT
  2
AcDbDictionaryWithDefault
  3
ObjectDBX Classes
 90
        0
 91
        4
280
     0
281
     0
  0
CLASS
  1
VISUALSTYLE
  2
AcDbVisualStyle
  3
ObjectDBX Classes
 90
     4095
 91
        4
280
     0
281
     0
  0
ENDSEC
  0
SECTION
  2
TABLES
  0
TABLE
  2
VPORT
  5
8
330
0
100
AcDbSymbolTable
 70
     1
  0
VPORT
  5
29
330
8
100
AcDbSymbolTableRecord
100
AcDbViewportTableRecord
  2
*Active
 70
     0
 10
0.0
 20
0.0
 11
1.0
 21
1.0
 12
0.0
 22
0.0
 13
0.0
 23
0.0
 14
10.0
 24
10.0
 15
10.0
 25
10.0
 16
0.0
 26
0.0
 36
1.0
 17
0.0
 27
0.0
 37
0.0
 40
980.1
 41
1.414141414141414
 42
50.0
 43
0.0
 44
0.0
 50
0.0
 51
0.0
 71
     0
 72
 10000
 73
     1
 74
     3
 75
     0
 76
     0
 77
     0
 78
     0
281
     0
 65
     1
110
0.0
120
0.0
130
0.0
111
1.0
121
0.0
131
0.0
112
0.0
122
1.0
132
0.0
 79
     0
146
0.0
  0
ENDTAB
  0
TABLE
  2
LTYPE
  5
5
330
0
100
AcDbSymbolTable
 70
     3
  0
LTYPE
  5
14
330
5
100
AcDbSymbolTableRecord
100
AcDbLinetypeTableRecord
  2
ByBlock
 70
     0
  3

 72
    65
 73
     0
 40
0.0
  0
LTYPE
  5
15
330
5
100
AcDbSymbolTableRecord
100
AcDbLinetypeTableRecord
  2
ByLayer
 70
     0
  3

 72
    65
 73
     0
 40
0.0
  0
LTYPE
  5
16
330
5
100
AcDbSymbolTableRecord
100
AcDbLinetypeTableRecord
  2
Continuous
 70
     0
  3
Solid line
 72
    65
 73
     0
 40
0.0
  0
LTYPE
  5
3C
330
5
100
AcDbSymbolTableRecord
100
AcDbLinetypeTableRecord
  2
JWW_CENTER1
 70
     0
  3
-----  --  ----------  --  -----
 72
    65
 73
     4
 40
6.773333333333333
 49
4.233333333333333
 74
     0
 49
-0.8466666666666667
 74
     0
 49
0.8466666666666667
 74
     0
 49
-0.8466666666666667
 74
     0
  0
LTYPE
  5
3D
330
5
100
AcDbSymbolTableRecord
100
AcDbLinetypeTableRecord
  2
JWW_DASHED2
 70
     0
  3
--    ----    ----    ----    --
 72
    65
 73
     2
 40
3.386666666666667
 49
1.693333333333333
 74
     0
 49
-1.693333333333333
 74
     0
  0
ENDTAB
  0
TABLE
  2
LAYER
  5
2
330
0
100
AcDbSymbolTable
 70
    15
  0
LAYER
  5
10
330
2
100
AcDbSymbolTableRecord
100
AcDbLayerTableRecord
  2
0
 70
     0
 62
     7
  6
Continuous
370
    -3
390
F
  0
LAYER
  5
3E
330
2
100
AcDbSymbolTableRecord
100
AcDbLayerTableRecord
  2
D-5
 70
     0
 62
     7
  6
Continuous
370
    -3
390
F
  0
LAYER
  5
3F
330
2
100
AcDbSymbolTableRecord
100
AcDbLayerTableRecord
  2
1-0ﾚｲﾔ
 70
     0
 62
     7
  6
Continuous
370
    -3
390
F
  0
LAYER
  5
40
330
2
100
AcDbSymbolTableRecord
100
AcDbLayerTableRecord
  2
1-F
 70
     0
 62
     7
  6
Continuous
370
    -3
390
F
  0
LAYER
  5
41
330
2
100
AcDbSymbolTableRecord
100
AcDbLayerTableRecord
  2
1-4ﾚｲﾔ
 70
     0
 62
     7
  6
Continuous
370
    -3
390
F
  0
LAYER
  5
42
330
2
100
AcDbSymbolTableRecord
100
AcDbLayerTableRecord
  2
1-5ﾚｲﾔ
 70
     0
 62
     7
  6
Continuous
370
    -3
390
F
  0
LAYER
  5
43
330
2
100
AcDbSymbolTableRecord
100
AcDbLayerTableRecord
  2
F-5ﾚｲﾔ
 70
     0
 62
     7
  6
Continuous
370
    -3
390
F
  0
LAYER
  5
44
330
2
100
AcDbSymbolTableRecord
100
AcDbLayerTableRecord
  2
B-0
 70
     0
 62
     7
  6
Continuous
370
    -3
390
F
  0
LAYER
  5
45
330
2
100
AcDbSymbolTableRecord
100
AcDbLayerTableRecord
  2
B-3
 70
     0
 62
     7
  6
Continuous
370
    -3
390
F
  0
LAYER
  5
46
330
2
100
AcDbSymbolTableRecord
100
AcDbLayerTableRecord
  2
B-4
 70
     0
 62
     7
  6
Continuous
370
    -3
390
F
  0
LAYER
  5
47
330
2
100
AcDbSymbolTableRecord
100
AcDbLayerTableRecord
  2
B-5
 70
     0
 62
     7
  6
Continuous
370
    -3
390
F
  0
LAYER
  5
48
330
2
100
AcDbSymbolTableRecord
100
AcDbLayerTableRecord
  2
2-0
 70
     0
 62
     7
  6
Continuous
370
    -3
390
F
  0
LAYER
  5
49
330
2
100
AcDbSymbolTableRecord
100
AcDbLayerTableRecord
  2
2-Fﾚｲﾔ
 70
     0
 62
     7
  6
Continuous
370
    -3
390
F
  0
LAYER
  5
4A
330
2
100
AcDbSymbolTableRecord
100
AcDbLayerTableRecord
  2
2-4
 70
     0
 62
     7
  6
Continuous
370
    -3
390
F
  0
LAYER
  5
4B
330
2
100
AcDbSymbolTableRecord
100
AcDbLayerTableRecord
  2
2-5
 70
     0
 62
     7
  6
Continuous
370
    -3
390
F
  0
ENDTAB
  0
TABLE
  2
STYLE
  5
3
330
0
100
AcDbSymbolTable
 70
     2
  0
STYLE
  5
11
330
3
100
AcDbSymbolTableRecord
100
AcDbTextStyleTableRecord
  2
Standard
 70
     0
 40
0.0
 41
1.0
 50
0.0
 71
     0
 42
2.5
  3
txt
  4

1001
ACAD
1000

1071
        0
  0
STYLE
  5
3B
330
3
100
AcDbSymbolTableRecord
100
AcDbTextStyleTableRecord
  2
ＭＳ ゴシック
 70
     0
 40
1.0
 41
1.0
 50
0.0
 71
     0
 42
10.0
  3

  4

1001
ACAD
1000
MS Gothic
1071
    32817
  0
ENDTAB
  0
TABLE
  2
VIEW
  5
6
330
0
100
AcDbSymbolTable
 70
     0
  0
ENDTAB
  0
TABLE
  2
UCS
  5
7
330
0
100
AcDbSymbolTable
 70
     0
  0
ENDTAB
  0
TABLE
  2
APPID
  5
9
330
0
100
AcDbSymbolTable
 70
     1
  0
APPID
  5
12
330
9
100
AcDbSymbolTableRecord
100
AcDbRegAppTableRecord
  2
ACAD
 70
     0
  0
ENDTAB
  0
TABLE
  2
DIMSTYLE
  5
A
330
0
100
AcDbSymbolTable
 70
     1
100
AcDbDimStyleTable
  0
DIMSTYLE
105
27
330
A
100
AcDbSymbolTableRecord
100
AcDbDimStyleTableRecord
  2
ISO-25
 70
     0
 41
2.5
 42
0.625
 43
3.75
 44
1.25
 73
     0
 74
     0
 77
     1
 78
     8
140
2.5
141
2.5
143
0.03937007874016
147
0.625
171
     3
172
     1
271
     2
272
     2
274
     3
278
    44
283
     0
284
     8
340
11
  0
ENDTAB
  0
TABLE
  2
BLOCK_RECORD
  5
1
330
0
100
AcDbSymbolTable
 70
     1
  0
BLOCK_RECORD
  5
1F
330
1
100
AcDbSymbolTableRecord
100
AcDbBlockTableRecord
  2
*Model_Space
340
22
  0
BLOCK_RECORD
  5
1B
330
1
100
AcDbSymbolTableRecord
100
AcDbBlockTableRecord
  2
*Paper_Space
340
1E
  0
BLOCK_RECORD
  5
23
330
1
100
AcDbSymbolTableRecord
100
AcDbBlockTableRecord
  2
*Paper_Space0
340
26
  0
ENDTAB
  0
ENDSEC
  0
SECTION
  2
BLOCKS
  0
BLOCK
  5
20
330
1F
100
AcDbEntity
  8
0
100
AcDbBlockBegin
  2
*Model_Space
 70
     0
 10
0.0
 20
0.0
 30
0.0
  3
*Model_Space
  1

  0
ENDBLK
  5
21
330
1F
100
AcDbEntity
  8
0
100
AcDbBlockEnd
  0
BLOCK
  5
1C
330
1B
100
AcDbEntity
 67
     1
  8
0
100
AcDbBlockBegin
  2
*Paper_Space
 70
     0
 10
0.0
 20
0.0
 30
0.0
  3
*Paper_Space
  1

  0
ENDBLK
  5
1D
330
1B
100
AcDbEntity
 67
     1
  8
0
100
AcDbBlockEnd
  0
BLOCK
  5
24
330
23
100
AcDbEntity
  8
0
100
AcDbBlockBegin
  2
*Paper_Space0
 70
     0
 10
0.0
 20
0.0
 30
0.0
  3
*Paper_Space0
  1

  0
ENDBLK
  5
25
330
23
100
AcDbEntity
  8
0
100
AcDbBlockEnd
  0
ENDSEC
  0
SECTION
  2
ENTITIES
  0
LINE
  5
4C
330
1F
100
AcDbEntity
  8
D-5
  6
Continuous
 62
     2
370
    13
100
AcDbLine
 10
196.7193390644923
 20
-229.3877513861295
 30
0.0
 11
129.2194077290432
 21
-229.3877513861295
 31
0.0
  0
LINE
  5
4D
330
1F
100
AcDbEntity
  8
D-5
  6
Continuous
 62
     2
370
    13
100
AcDbLine
 10
196.7193390644923
 20
-214.387681916916
 30
0.0
 11
196.7193390644923
 21
-229.3877513861295
 31
0.0
  0
LINE
  5
4E
330
1F
100
AcDbEntity
  8
D-5
  6
Continuous
 62
     2
370
    13
100
AcDbLine
 10
129.2194077290432
 20
-214.387681916916
 30
0.0
 11
196.7193390644923
 21
-214.387681916916
 31
0.0
  0
LINE
  5
4F
330
1F
100
AcDbEntity
  8
D-5
  6
Continuous
 62
     2
370
    13
100
AcDbLine
 10
129.2194077290432
 20
-229.3877513861295
 30
0.0
 11
129.2194077290432
 21
-214.387681916916
 31
0.0
  0
TEXT
  5
50
330
1F
100
AcDbEntity
  8
D-5
  6
Continuous
 62
     2
370
    13
100
AcDbText
 10
143.4692703999416
 20
-226.1956698469754
 30
0.0
 40
9.144
  1
仕　様
 41
1.083333333333331
  7
ＭＳ ゴシック
100
AcDbText
  0
TEXT
  5
51
330
1F
100
AcDbEntity
  8
D-5
  6
Continuous
 62
     2
370
    13
100
AcDbText
 10
177.7599792128165
 20
-303.2154384844524
 30
0.0
 40
9.144
  1
処理：ヘアライン
 50
0.0000554111121398
 41
1.109375
  7
ＭＳ ゴシック
100
AcDbText
  0
TEXT
  5
52
330
1F
100
AcDbEntity
  8
D-5
  6
Continuous
 62
     2
370
    13
100
AcDbText
 10
177.7599819771257
 20
-283.7152839892128
 30
0.0
 40
9.144
  1
材質：冷間圧延ステンレス鋼板　（ＳＵＳ３０４）
 50
359.9999618039849
 41
1.119565217391304
  7
ＭＳ ゴシック
100
AcDbText
  0
TEXT
  5
53
330
1F
100
AcDbEntity
  8
D-5
  6
Continuous
 62
     2
370
    13
100
AcDbText
 10
175.5142897146488
 20
-245.2144374985544
 30
0.0
 40
9.144
  1
ノンスリップタイプステンレス製排水用蓋
 50
359.999975610655
 41
1.118421052631579
  7
ＭＳ ゴシック
100
AcDbText
  0
LINE
  5
54
330
1F
100
AcDbEntity
  8
1-0ﾚｲﾔ
  6
Continuous
 62
     3
370
    13
100
AcDbLine
 10
-238.4318286555074
 20
-224.4642438479768
 30
0.0
 11
-340.4318618831408
 21
-224.4642438479768
 31
0.0
  0
LINE
  5
55
330
1F
100
AcDbEntity
  8
1-0ﾚｲﾔ
  6
Continuous
 62
     3
370
    13
100
AcDbLine
 10
-340.4318618831408
 20
-206.4642194574799
 30
0.0
 11
-238.4318286555074
 21
-206.4642194574799
 31
0.0
  0
LINE
  5
56
330
1F
100
AcDbEntity
  8
1-F
  6
JWW_CENTER1
 62
     7
370
    13
100
AcDbLine
 10
-289.431845269324
 20
-199.1998747818193
 30
0.0
 11
-289.431845269324
 21
-231.7285885236373
 31
0.0
  0
LINE
  5
57
330
1F
100
AcDbEntity
  8
1-F
  6
JWW_CENTER1
 62
     7
370
    13
100
AcDbLine
 10
-357.4686472298015
 20
-215.4642316527284
 30
0.0
 11
-221.3950433088465
 21
-215.4642316527284
 31
0.0
  0
ARC
  5
58
330
1F
100
AcDbEntity
  8
1-0ﾚｲﾔ
  6
Continuous
 62
     3
370
    13
100
AcDbCircle
 10
-340.4318618831408
 20
-215.4642316527284
 30
0.0
 40
8.9999998922974
100
AcDbArc
 50
90.0
 51
270.0
  0
ARC
  5
59
330
1F
100
AcDbEntity
  8
1-0ﾚｲﾔ
  6
Continuous
 62
     3
370
    13
100
AcDbCircle
 10
-238.4318286555074
 20
-215.4642316527284
 30
0.0
 40
8.9999998922974
100
AcDbArc
 50
270.0
 51
90.0
  0
LINE
  5
5A
330
1F
100
AcDbEntity
  8
1-4ﾚｲﾔ
  6
Continuous
 62
     7
370
    13
100
AcDbLine
 10
-372.8727827564767
 20
-224.4642315450257
 30
0.0
 11
-372.8727827564767
 21
-206.4642317604309
 31
0.0
  0
LWPOLYLINE
  5
5B
330
1F
100
AcDbEntity
  8
1-4ﾚｲﾔ
  6
Continuous
 62
     7
370
    13
100
AcDbPolyline
 90
        4
 70
     1
 43
0.3
 10
-372.7227827564767
 20
-224.4642315450257
 42
0.4142135623731
 10
-372.8727827564767
 20
-224.3142315450257
 42
0.4142135623731
 10
-373.0227827564767
 20
-224.4642315450257
 42
0.4142135623731
 10
-372.8727827564767
 20
-224.6142315450257
 42
0.4142135623731
  0
LWPOLYLINE
  5
5C
330
1F
100
AcDbEntity
  8
1-4ﾚｲﾔ
  6
Continuous
 62
     7
370
    13
100
AcDbPolyline
 90
        4
 70
     1
 43
0.3
 10
-372.7227827564767
 20
-206.4642317604309
 42
0.4142135623731
 10
-372.8727827564767
 20
-206.314231760431
 42
0.4142135623731
 10
-373.0227827564767
 20
-206.4642317604309
 42
0.4142135623731
 10
-372.8727827564767
 20
-206.6142317604309
 42
0.4142135623731
  0
LINE
  5
5D
330
1F
100
AcDbEntity
  8
1-4ﾚｲﾔ
  6
Continuous
 62
     7
370
    13
100
AcDbLine
 10
-373.7727827564768
 20
-224.4642315450257
 30
0.0
 11
-346.4318618831408
 21
-224.4642315450257
 31
0.0
  0
LINE
  5
5E
330
1F
100
AcDbEntity
  8
1-4ﾚｲﾔ
  6
Continuous
 62
     7
370
    13
100
AcDbLine
 10
-373.7727827564768
 20
-206.4642317604309
 30
0.0
 11
-346.4318618831408
 21
-206.4642317604309
 31
0.0
  0
TEXT
  5
5F
330
1F
100
AcDbEntity
  8
1-4ﾚｲﾔ
  6
Continuous
 62
     2
370
   211
100
AcDbText
 10
-376.3647827564767
 20
-218.4642316527284
 30
0.0
 40
9.144
  1
6
 50
90.0
  7
ＭＳ ゴシック
100
AcDbText
  0
LINE
  5
60
330
1F
100
AcDbEntity
  8
1-4ﾚｲﾔ
  6
Continuous
 62
     7
370
    13
100
AcDbLine
 10
-349.4318617754381
 20
-253.0803592164048
 30
0.0
 11
-229.43182876321
 21
-253.0803592164048
 31
0.0
  0
LWPOLYLINE
  5
61
330
1F
100
AcDbEntity
  8
1-4ﾚｲﾔ
  6
Continuous
 62
     7
370
    13
100
AcDbPolyline
 90
        4
 70
     1
 43
0.3
 10
-349.2818617754381
 20
-253.0803592164048
 42
0.4142135623731
 10
-349.4318617754381
 20
-252.9303592164048
 42
0.4142135623731
 10
-349.5818617754381
 20
-253.0803592164048
 42
0.4142135623731
 10
-349.4318617754381
 20
-253.2303592164047
 42
0.4142135623731
  0
LWPOLYLINE
  5
62
330
1F
100
AcDbEntity
  8
1-4ﾚｲﾔ
  6
Continuous
 62
     7
370
    13
100
AcDbPolyline
 90
        4
 70
     1
 43
0.3
 10
-229.28182876321
 20
-253.0803592164048
 42
0.4142135623731
 10
-229.43182876321
 20
-252.9303592164048
 42
0.4142135623731
 10
-229.58182876321
 20
-253.0803592164048
 42
0.4142135623731
 10
-229.43182876321
 20
-253.2303592164047
 42
0.4142135623731
  0
LINE
  5
63
330
1F
100
AcDbEntity
  8
1-4ﾚｲﾔ
  6
Continuous
 62
     7
370
    13
100
AcDbLine
 10
-349.4318617754381
 20
-253.9803592164048
 30
0.0
 11
-349.4318617754381
 21
-221.4642316527284
 31
0.0
  0
LINE
  5
64
330
1F
100
AcDbEntity
  8
1-4ﾚｲﾔ
  6
Continuous
 62
     7
370
    13
100
AcDbLine
 10
-229.43182876321
 20
-253.9803592164048
 30
0.0
 11
-229.43182876321
 21
-221.4642316527284
 31
0.0
  0
TEXT
  5
65
330
1F
100
AcDbEntity
  8
1-4ﾚｲﾔ
  6
Continuous
 62
     2
370
   211
100
AcDbText
 10
-295.8068452693241
 20
-249.5883592164048
 30
0.0
 40
9.144
  1
40
 41
1.0625
  7
ＭＳ ゴシック
100
AcDbText
  0
TEXT
  5
66
330
1F
100
AcDbEntity
  8
1-5ﾚｲﾔ
  6
Continuous
 62
     2
370
    13
100
AcDbText
 10
-370.9882567828284
 20
-297.5393107151718
 30
0.0
 40
9.144
  1
排水穴詳細図　Ｓ＝１：１
 41
1.114583333333333
  7
ＭＳ ゴシック
100
AcDbText
  0
LINE
  5
67
330
1F
100
AcDbEntity
  8
1-5ﾚｲﾔ
  6
Continuous
 62
     7
370
    13
100
AcDbLine
 10
-376.3882567828284
 20
-282.7313107151718
 30
0.0
 11
-205.0882567828284
 21
-282.7313107151718
 31
0.0
  0
LINE
  5
68
330
1F
100
AcDbEntity
  8
1-5ﾚｲﾔ
  6
Continuous
 62
     7
370
    13
100
AcDbLine
 10
-376.3882567828284
 20
-303.7313107151718
 30
0.0
 11
-205.0882567828284
 21
-303.7313107151718
 31
0.0
  0
LINE
  5
69
330
1F
100
AcDbEntity
  8
1-5ﾚｲﾔ
  6
Continuous
 62
     7
370
    13
100
AcDbLine
 10
-376.3882567828284
 20
-282.7313107151718
 30
0.0
 11
-376.3882567828284
 21
-303.7313107151718
 31
0.0
  0
LINE
  5
6A
330
1F
100
AcDbEntity
  8
1-5ﾚｲﾔ
  6
Continuous
 62
     7
370
    13
100
AcDbLine
 10
-205.0882567828284
 20
-282.7313107151718
 30
0.0
 11
-205.0882567828284
 21
-303.7313107151718
 31
0.0
  0
TEXT
  5
6B
330
1F
100
AcDbEntity
  8
D-5
  6
Continuous
 62
     2
370
    13
100
AcDbText
 10
278.120420131759
 20
-264.3818876765631
 30
0.0
 40
9.144
  1
ＸＱ－Ｂ－１５　２５０Ｘ２５０
 50
359.999975610655
 41
1.116666666666667
  7
ＭＳ ゴシック
100
AcDbText
  0
TEXT
  5
6C
330
1F
100
AcDbEntity
  8
F-5ﾚｲﾔ
  6
Continuous
 62
     2
370
    13
100
AcDbText
 10
-250.500086603938
 20
-404.2404887249921
 30
0.0
 40
9.144
  1
ステンレス製排水蓋　ＸＱ－Ｂ－１５　２５０Ｘ２５０
 41
1.12
  7
ＭＳ ゴシック
100
AcDbText
  0
LINE
  5
6D
330
1F
100
AcDbEntity
  8
B-0
  6
Continuous
 62
     3
370
    13
100
AcDbLine
 10
-14.54204572767947
 20
236.5695349469006
 30
0.0
 11
-14.54204572767947
 21
-13.43094343675627
 31
0.0
  0
LINE
  5
6E
330
1F
100
AcDbEntity
  8
B-0
  6
Continuous
 62
     3
370
    13
100
AcDbLine
 10
-221.5419368541576
 20
197.5695052541221
 30
0.0
 11
-221.5419368541576
 21
209.5695448444937
 31
0.0
  0
LINE
  5
6F
330
1F
100
AcDbEntity
  8
B-0
  6
Continuous
 62
     3
370
    13
100
AcDbLine
 10
-223.542042428482
 20
197.5695052541221
 30
0.0
 11
-223.542042428482
 21
209.5695448444937
 31
0.0
  0
LINE
  5
70
330
1F
100
AcDbEntity
  8
B-0
  6
Continuous
 62
     3
370
    13
100
AcDbLine
 10
-219.5418312798332
 20
197.5695052541221
 30
0.0
 11
-219.5418312798332
 21
209.5695448444937
 31
0.0
  0
LINE
  5
71
330
1F
100
AcDbEntity
  8
B-0
  6
Continuous
 62
     3
370
    13
100
AcDbLine
 10
-217.542022633296
 20
197.5695052541221
 30
0.0
 11
-217.542022633296
 21
209.5695448444937
 31
0.0
  0
LINE
  5
72
330
1F
100
AcDbEntity
  8
B-0
  6
Continuous
 62
     3
370
    13
100
AcDbLine
 10
-215.5422139867588
 20
197.5695052541221
 30
0.0
 11
-215.5422139867588
 21
209.5695448444937
 31
0.0
  0
LINE
  5
73
330
1F
100
AcDbEntity
  8
B-0
  6
Continuous
 62
     3
370
    13
100
AcDbLine
 10
-225.5421480028062
 20
205.5694821597385
 30
0.0
 11
-213.5421084124346
 21
205.5694821597385
 31
0.0
  0
LINE
  5
74
330
1F
100
AcDbEntity
  8
B-0
  6
Continuous
 62
     3
370
    13
100
AcDbLine
 10
-225.5421480028062
 20
207.569587734063
 30
0.0
 11
-213.5421084124346
 21
207.569587734063
 31
0.0
  0
LINE
  5
75
330
1F
100
AcDbEntity
  8
B-0
  6
Continuous
 62
     3
370
    13
100
AcDbLine
 10
-225.5421480028062
 20
203.5695250493078
 30
0.0
 11
-213.5421084124346
 21
203.5695250493078
 31
0.0
  0
LINE
  5
76
330
1F
100
AcDbEntity
  8
B-0
  6
Continuous
 62
     3
370
    13
100
AcDbLine
 10
-225.5421480028062
 20
201.5695679388771
 30
0.0
 11
-213.5421084124346
 21
201.5695679388771
 31
0.0
  0
LINE
  5
77
330
1F
100
AcDbEntity
  8
B-0
  6
Continuous
 62
     3
370
    13
100
AcDbLine
 10
-225.5421480028062
 20
199.5696108284463
 30
0.0
 11
-213.5421084124346
 21
199.5696108284463
 31
0.0
  0
LINE
  5
78
330
1F
100
AcDbEntity
  8
B-3
  6
JWW_CENTER1
 62
     7
370
    13
100
AcDbLine
 10
-229.257011547992
 20
203.5695250493078
 30
0.0
 11
-209.826700499639
 21
203.5695250493078
 31
0.0
  0
LINE
  5
79
330
1F
100
AcDbEntity
  8
B-0
  6
Continuous
 62
     3
370
    13
100
AcDbLine
 10
-221.5419368541576
 20
151.5695266989067
 30
0.0
 11
-221.5419368541576
 21
163.5695662892784
 31
0.0
  0
LINE
  5
7A
330
1F
100
AcDbEntity
  8
B-0
  6
Continuous
 62
     3
370
    13
100
AcDbLine
 10
-223.542042428482
 20
151.5695266989067
 30
0.0
 11
-223.542042428482
 21
163.5695662892784
 31
0.0
  0
LINE
  5
7B
330
1F
100
AcDbEntity
  8
B-0
  6
Continuous
 62
     3
370
    13
100
AcDbLine
 10
-219.5418312798332
 20
151.5695266989067
 30
0.0
 11
-219.5418312798332
 21
163.5695662892784
 31
0.0
  0
LINE
  5
7C
330
1F
100
AcDbEntity
  8
B-0
  6
Continuous
 62
     3
370
    13
100
AcDbLine
 10
-217.542022633296
 20
151.5695266989067
 30
0.0
 11
-217.542022633296
 21
163.5695662892784
 31
0.0
  0
LINE
  5
7D
330
1F
100
AcDbEntity
  8
B-0
  6
Continuous
 62
     3
370
    13
100
AcDbLine
 10
-215.5422139867588
 20
151.5695266989067
 30
0.0
 11
-215.5422139867588
 21
163.5695662892784
 31
0.0
  0
LINE
  5
7E
330
1F
100
AcDbEntity
  8
B-0
  6
Continuous
 62
     3
370
    13
100
AcDbLine
 10
-225.5421480028062
 20
159.5695036045231
 30
0.0
 11
-213.5421084124346
 21
159.5695036045231
 31
0.0
  0
LINE
  5
7F
330
1F
100
AcDbEntity
  8
B-0
  6
Continuous
 62
     3
370
    13
100
AcDbLine
 10
-225.5421480028062
 20
161.5694607149539
 30
0.0
 11
-213.5421084124346
 21
161.5694607149539
 31
0.0
  0
LINE
  5
80
330
1F
100
AcDbEntity
  8
B-0
  6
Continuous
 62
     3
370
    13
100
AcDbLine
 10
-225.5421480028062
 20
157.5695464940924
 30
0.0
 11
-213.5421084124346
 21
157.5695464940924
 31
0.0
  0
LINE
  5
81
330
1F
100
AcDbEntity
  8
B-0
  6
Continuous
 62
     3
370
    13
100
AcDbLine
 10
-225.5421480028062
 20
155.5695893836617
 30
0.0
 11
-213.5421084124346
 21
155.5695893836617
 31
0.0
  0
LINE
  5
82
330
1F
100
AcDbEntity
  8
B-0
  6
Continuous
 62
     3
370
    13
100
AcDbLine
 10
-225.5421480028062
 20
153.5694838093375
 30
0.0
 11
-213.5421084124346
 21
153.5694838093375
 31
0.0
  0
LINE
  5
83
330
1F
100
AcDbEntity
  8
B-3
  6
JWW_CENTER1
 62
     7
370
    13
100
AcDbLine
 10
-229.257011547992
 20
157.5695464940924
 30
0.0
 11
-209.826700499639
 21
157.5695464940924
 31
0.0
  0
LINE
  5
84
330
1F
100
AcDbEntity
  8
B-3
  6
JWW_CENTER1
 62
     7
370
    13
100
AcDbLine
 10
-219.5418312798332
 20
147.8543909699161
 30
0.0
 11
-219.5418312798332
 21
167.284702018269
 31
0.0
  0
LINE
  5
85
330
1F
100
AcDbEntity
  8
B-0
  6
Continuous
 62
     3
370
    13
100
AcDbLine
 10
-221.5419368541576
 20
105.5695481436911
 30
0.0
 11
-221.5419368541576
 21
117.5696124780453
 31
0.0
  0
LINE
  5
86
330
1F
100
AcDbEntity
  8
B-0
  6
Continuous
 62
     3
370
    13
100
AcDbLine
 10
-223.542042428482
 20
105.5695481436911
 30
0.0
 11
-223.542042428482
 21
117.5696124780453
 31
0.0
  0
LINE
  5
87
330
1F
100
AcDbEntity
  8
B-0
  6
Continuous
 62
     3
370
    13
100
AcDbLine
 10
-219.5418312798332
 20
105.5695481436911
 30
0.0
 11
-219.5418312798332
 21
117.5696124780453
 31
0.0
  0
LINE
  5
88
330
1F
100
AcDbEntity
  8
B-0
  6
Continuous
 62
     3
370
    13
100
AcDbLine
 10
-217.542022633296
 20
105.5695481436911
 30
0.0
 11
-217.542022633296
 21
117.5696124780453
 31
0.0
  0
LINE
  5
89
330
1F
100
AcDbEntity
  8
B-0
  6
Continuous
 62
     3
370
    13
100
AcDbLine
 10
-215.5422139867588
 20
105.5695481436911
 30
0.0
 11
-215.5422139867588
 21
117.5696124780453
 31
0.0
  0
LINE
  5
8A
330
1F
100
AcDbEntity
  8
B-0
  6
Continuous
 62
     3
370
    13
100
AcDbLine
 10
-225.5421480028062
 20
113.5695497932901
 30
0.0
 11
-213.5421084124346
 21
113.5695497932901
 31
0.0
  0
LINE
  5
8B
330
1F
100
AcDbEntity
  8
B-0
  6
Continuous
 62
     3
370
    13
100
AcDbLine
 10
-225.5421480028062
 20
115.5695069037208
 30
0.0
 11
-213.5421084124346
 21
115.5695069037208
 31
0.0
  0
LINE
  5
8C
330
1F
100
AcDbEntity
  8
B-0
  6
Continuous
 62
     3
370
    13
100
AcDbLine
 10
-225.5421480028062
 20
111.569567938877
 30
0.0
 11
-213.5421084124346
 21
111.569567938877
 31
0.0
  0
LINE
  5
8D
330
1F
100
AcDbEntity
  8
B-0
  6
Continuous
 62
     3
370
    13
100
AcDbLine
 10
-225.5421480028062
 20
109.5696108284463
 30
0.0
 11
-213.5421084124346
 21
109.5696108284463
 31
0.0
  0
LINE
  5
8E
330
1F
100
AcDbEntity
  8
B-0
  6
Continuous
 62
     3
370
    13
100
AcDbLine
 10
-225.5421480028062
 20
107.5695052541221
 30
0.0
 11
-213.5421084124346
 21
107.5695052541221
 31
0.0
  0
LINE
  5
8F
330
1F
100
AcDbEntity
  8
B-3
  6
JWW_CENTER1
 62
     7
370
    13
100
AcDbLine
 10
-219.5418312798332
 20
101.8544371586828
 30
0.0
 11
-219.5418312798332
 21
121.2845997431421
 31
0.0
  0
LINE
  5
90
330
1F
100
AcDbEntity
  8
B-0
  6
Continuous
 62
     3
370
    13
100
AcDbLine
 10
-221.5419368541576
 20
59.56944586856454
 30
0.0
 11
-221.5419368541576
 21
71.56948545893616
 31
0.0
  0
LINE
  5
91
330
1F
100
AcDbEntity
  8
B-0
  6
Continuous
 62
     3
370
    13
100
AcDbLine
 10
-223.542042428482
 20
59.56944586856454
 30
0.0
 11
-223.542042428482
 21
71.56948545893616
 31
0.0
  0
LINE
  5
92
330
1F
100
AcDbEntity
  8
B-0
  6
Continuous
 62
     3
370
    13
100
AcDbLine
 10
-219.5418312798332
 20
59.56944586856454
 30
0.0
 11
-219.5418312798332
 21
71.56948545893616
 31
0.0
  0
LINE
  5
93
330
1F
100
AcDbEntity
  8
B-0
  6
Continuous
 62
     3
370
    13
100
AcDbLine
 10
-217.542022633296
 20
59.56944586856454
 30
0.0
 11
-217.542022633296
 21
71.56948545893616
 31
0.0
  0
LINE
  5
94
330
1F
100
AcDbEntity
  8
B-0
  6
Continuous
 62
     3
370
    13
100
AcDbLine
 10
-215.5422139867588
 20
59.56944586856454
 30
0.0
 11
-215.5422139867588
 21
71.56948545893616
 31
0.0
  0
LINE
  5
95
330
1F
100
AcDbEntity
  8
B-0
  6
Continuous
 62
     3
370
    13
100
AcDbLine
 10
-225.5421480028062
 20
67.56942277418122
 30
0.0
 11
-213.5421084124346
 21
67.56942277418122
 31
0.0
  0
LINE
  5
96
330
1F
100
AcDbEntity
  8
B-0
  6
Continuous
 62
     3
370
    13
100
AcDbLine
 10
-225.5421480028062
 20
69.56952834850543
 30
0.0
 11
-213.5421084124346
 21
69.56952834850543
 31
0.0
  0
LINE
  5
97
330
1F
100
AcDbEntity
  8
B-0
  6
Continuous
 62
     3
370
    13
100
AcDbLine
 10
-225.5421480028062
 20
65.56946566375049
 30
0.0
 11
-213.5421084124346
 21
65.56946566375049
 31
0.0
  0
LINE
  5
98
330
1F
100
AcDbEntity
  8
B-0
  6
Continuous
 62
     3
370
    13
100
AcDbLine
 10
-225.5421480028062
 20
63.56950855331976
 30
0.0
 11
-213.5421084124346
 21
63.56950855331976
 31
0.0
  0
LINE
  5
99
330
1F
100
AcDbEntity
  8
B-0
  6
Continuous
 62
     3
370
    13
100
AcDbLine
 10
-225.5421480028062
 20
61.56955144288904
 30
0.0
 11
-213.5421084124346
 21
61.56955144288904
 31
0.0
  0
LINE
  5
9A
330
1F
100
AcDbEntity
  8
B-3
  6
JWW_CENTER1
 62
     7
370
    13
100
AcDbLine
 10
-229.257011547992
 20
65.56946566375049
 30
0.0
 11
-209.826700499639
 21
65.56946566375049
 31
0.0
  0
LINE
  5
9B
330
1F
100
AcDbEntity
  8
B-3
  6
JWW_CENTER1
 62
     7
370
    13
100
AcDbLine
 10
-219.5418312798332
 20
55.85433488355622
 30
0.0
 11
-219.5418312798332
 21
75.28462118792706
 31
0.0
  0
LINE
  5
9C
330
1F
100
AcDbEntity
  8
B-0
  6
Continuous
 62
     3
370
    13
100
AcDbLine
 10
-221.5419368541576
 20
13.56949205733148
 30
0.0
 11
-221.5419368541576
 21
25.56953164770309
 31
0.0
  0
LINE
  5
9D
330
1F
100
AcDbEntity
  8
B-0
  6
Continuous
 62
     3
370
    13
100
AcDbLine
 10
-223.542042428482
 20
13.56949205733148
 30
0.0
 11
-223.542042428482
 21
25.56953164770309
 31
0.0
  0
LINE
  5
9E
330
1F
100
AcDbEntity
  8
B-0
  6
Continuous
 62
     3
370
    13
100
AcDbLine
 10
-219.5418312798332
 20
13.56949205733148
 30
0.0
 11
-219.5418312798332
 21
25.56953164770309
 31
0.0
  0
LINE
  5
9F
330
1F
100
AcDbEntity
  8
B-0
  6
Continuous
 62
     3
370
    13
100
AcDbLine
 10
-217.542022633296
 20
13.56949205733148
 30
0.0
 11
-217.542022633296
 21
25.56953164770309
 31
0.0
  0
LINE
  5
A0
330
1F
100
AcDbEntity
  8
B-0
  6
Continuous
 62
     3
370
    13
100
AcDbLine
 10
-215.5422139867588
 20
13.56949205733148
 30
0.0
 11
-215.5422139867588
 21
25.56953164770309
 31
0.0
  0
LINE
  5
A1
330
1F
100
AcDbEntity
  8
B-0
  6
Continuous
 62
     3
370
    13
100
AcDbLine
 10
-225.5421480028062
 20
21.56946896294787
 30
0.0
 11
-213.5421084124346
 21
21.56946896294787
 31
0.0
  0
LINE
  5
A2
330
1F
100
AcDbEntity
  8
B-0
  6
Continuous
 62
     3
370
    13
100
AcDbLine
 10
-225.5421480028062
 20
23.56957453727236
 30
0.0
 11
-213.5421084124346
 21
23.56957453727236
 31
0.0
  0
LINE
  5
A3
330
1F
100
AcDbEntity
  8
B-0
  6
Continuous
 62
     3
370
    13
100
AcDbLine
 10
-225.5421480028062
 20
19.56951185251714
 30
0.0
 11
-213.5421084124346
 21
19.56951185251714
 31
0.0
  0
LINE
  5
A4
330
1F
100
AcDbEntity
  8
B-0
  6
Continuous
 62
     3
370
    13
100
AcDbLine
 10
-225.5421480028062
 20
17.56955474208641
 30
0.0
 11
-213.5421084124346
 21
17.56955474208641
 31
0.0
  0
LINE
  5
A5
330
1F
100
AcDbEntity
  8
B-0
  6
Continuous
 62
     3
370
    13
100
AcDbLine
 10
-225.5421480028062
 20
15.5694491677622
 30
0.0
 11
-213.5421084124346
 21
15.5694491677622
 31
0.0
  0
LINE
  5
A6
330
1F
100
AcDbEntity
  8
B-3
  6
JWW_CENTER1
 62
     7
370
    13
100
AcDbLine
 10
-229.257011547992
 20
19.56951185251714
 30
0.0
 11
-209.826700499639
 21
19.56951185251714
 31
0.0
  0
LINE
  5
A7
330
1F
100
AcDbEntity
  8
B-3
  6
JWW_CENTER1
 62
     7
370
    13
100
AcDbLine
 10
-219.5418312798332
 20
9.85435632834086
 30
0.0
 11
-219.5418312798332
 21
29.28464263271141
 31
0.0
  0
LINE
  5
A8
330
1F
100
AcDbEntity
  8
B-0
  6
Continuous
 62
     3
370
    13
100
AcDbLine
 10
-141.5417718942759
 20
197.5695052541221
 30
0.0
 11
-141.5417718942759
 21
209.5695448444937
 31
0.0
  0
LINE
  5
A9
330
1F
100
AcDbEntity
  8
B-0
  6
Continuous
 62
     3
370
    13
100
AcDbLine
 10
-143.5418774686001
 20
197.5695052541221
 30
0.0
 11
-143.5418774686001
 21
209.5695448444937
 31
0.0
  0
LINE
  5
AA
330
1F
100
AcDbEntity
  8
B-0
  6
Continuous
 62
     3
370
    13
100
AcDbLine
 10
-139.5419632477387
 20
197.5695052541221
 30
0.0
 11
-139.5419632477387
 21
209.5695448444937
 31
0.0
  0
LINE
  5
AB
330
1F
100
AcDbEntity
  8
B-0
  6
Continuous
 62
     3
370
    13
100
AcDbLine
 10
-137.5421546012015
 20
197.5695052541221
 30
0.0
 11
-137.5421546012015
 21
209.5695448444937
 31
0.0
  0
LINE
  5
AC
330
1F
100
AcDbEntity
  8
B-0
  6
Continuous
 62
     3
370
    13
100
AcDbLine
 10
-135.5420490268771
 20
197.5695052541221
 30
0.0
 11
-135.5420490268771
 21
209.5695448444937
 31
0.0
  0
LINE
  5
AD
330
1F
100
AcDbEntity
  8
B-0
  6
Continuous
 62
     3
370
    13
100
AcDbLine
 10
-145.5419830429245
 20
205.5694821597385
 30
0.0
 11
-133.5419434525529
 21
205.5694821597385
 31
0.0
  0
LINE
  5
AE
330
1F
100
AcDbEntity
  8
B-0
  6
Continuous
 62
     3
370
    13
100
AcDbLine
 10
-145.5419830429245
 20
207.569587734063
 30
0.0
 11
-133.5419434525529
 21
207.569587734063
 31
0.0
  0
LINE
  5
AF
330
1F
100
AcDbEntity
  8
B-0
  6
Continuous
 62
     3
370
    13
100
AcDbLine
 10
-145.5419830429245
 20
203.5695250493078
 30
0.0
 11
-133.5419434525529
 21
203.5695250493078
 31
0.0
  0
LINE
  5
B0
330
1F
100
AcDbEntity
  8
B-0
  6
Continuous
 62
     3
370
    13
100
AcDbLine
 10
-145.5419830429245
 20
201.5695679388771
 30
0.0
 11
-133.5419434525529
 21
201.5695679388771
 31
0.0
  0
LINE
  5
B1
330
1F
100
AcDbEntity
  8
B-0
  6
Continuous
 62
     3
370
    13
100
AcDbLine
 10
-145.5419830429245
 20
199.5696108284463
 30
0.0
 11
-133.5419434525529
 21
199.5696108284463
 31
0.0
  0
LINE
  5
B2
330
1F
100
AcDbEntity
  8
B-3
  6
JWW_CENTER1
 62
     7
370
    13
100
AcDbLine
 10
-149.2571187719153
 20
203.5695250493078
 30
0.0
 11
-129.8271046513493
 21
203.5695250493078
 31
0.0
  0
LINE
  5
B3
330
1F
100
AcDbEntity
  8
B-0
  6
Continuous
 62
     3
370
    13
100
AcDbLine
 10
-141.5417718942759
 20
151.5695266989067
 30
0.0
 11
-141.5417718942759
 21
163.5695662892784
 31
0.0
  0
LINE
  5
B4
330
1F
100
AcDbEntity
  8
B-0
  6
Continuous
 62
     3
370
    13
100
AcDbLine
 10
-143.5418774686001
 20
151.5695266989067
 30
0.0
 11
-143.5418774686001
 21
163.5695662892784
 31
0.0
  0
LINE
  5
B5
330
1F
100
AcDbEntity
  8
B-0
  6
Continuous
 62
     3
370
    13
100
AcDbLine
 10
-139.5419632477387
 20
151.5695266989067
 30
0.0
 11
-139.5419632477387
 21
163.5695662892784
 31
0.0
  0
LINE
  5
B6
330
1F
100
AcDbEntity
  8
B-0
  6
Continuous
 62
     3
370
    13
100
AcDbLine
 10
-137.5421546012015
 20
151.5695266989067
 30
0.0
 11
-137.5421546012015
 21
163.5695662892784
 31
0.0
  0
LINE
  5
B7
330
1F
100
AcDbEntity
  8
B-0
  6
Continuous
 62
     3
370
    13
100
AcDbLine
 10
-135.5420490268771
 20
151.5695266989067
 30
0.0
 11
-135.5420490268771
 21
163.5695662892784
 31
0.0
  0
LINE
  5
B8
330
1F
100
AcDbEntity
  8
B-0
  6
Continuous
 62
     3
370
    13
100
AcDbLine
 10
-145.5419830429245
 20
159.5695036045231
 30
0.0
 11
-133.5419434525529
 21
159.5695036045231
 31
0.0
  0
LINE
  5
B9
330
1F
100
AcDbEntity
  8
B-0
  6
Continuous
 62
     3
370
    13
100
AcDbLine
 10
-145.5419830429245
 20
161.5694607149539
 30
0.0
 11
-133.5419434525529
 21
161.5694607149539
 31
0.0
  0
LINE
  5
BA
330
1F
100
AcDbEntity
  8
B-0
  6
Continuous
 62
     3
370
    13
100
AcDbLine
 10
-145.5419830429245
 20
157.5695464940924
 30
0.0
 11
-133.5419434525529
 21
157.5695464940924
 31
0.0
  0
LINE
  5
BB
330
1F
100
AcDbEntity
  8
B-0
  6
Continuous
 62
     3
370
    13
100
AcDbLine
 10
-145.5419830429245
 20
155.5695893836617
 30
0.0
 11
-133.5419434525529
 21
155.5695893836617
 31
0.0
  0
LINE
  5
BC
330
1F
100
AcDbEntity
  8
B-0
  6
Continuous
 62
     3
370
    13
100
AcDbLine
 10
-145.5419830429245
 20
153.5694838093375
 30
0.0
 11
-133.5419434525529
 21
153.5694838093375
 31
0.0
  0
LINE
  5
BD
330
1F
100
AcDbEntity
  8
B-3
  6
JWW_CENTER1
 62
     7
370
    13
100
AcDbLine
 10
-149.2571187719153
 20
157.5695464940924
 30
0.0
 11
-129.8271046513493
 21
157.5695464940924
 31
0.0
  0
LINE
  5
BE
330
1F
100
AcDbEntity
  8
B-0
  6
Continuous
 62
     3
370
    13
100
AcDbLine
 10
-141.5417718942759
 20
105.5695481436911
 30
0.0
 11
-141.5417718942759
 21
117.5696124780453
 31
0.0
  0
LINE
  5
BF
330
1F
100
AcDbEntity
  8
B-0
  6
Continuous
 62
     3
370
    13
100
AcDbLine
 10
-143.5418774686001
 20
105.5695481436911
 30
0.0
 11
-143.5418774686001
 21
117.5696124780453
 31
0.0
  0
LINE
  5
C0
330
1F
100
AcDbEntity
  8
B-0
  6
Continuous
 62
     3
370
    13
100
AcDbLine
 10
-139.5419632477387
 20
105.5695481436911
 30
0.0
 11
-139.5419632477387
 21
117.5696124780453
 31
0.0
  0
LINE
  5
C1
330
1F
100
AcDbEntity
  8
B-0
  6
Continuous
 62
     3
370
    13
100
AcDbLine
 10
-137.5421546012015
 20
105.5695481436911
 30
0.0
 11
-137.5421546012015
 21
117.5696124780453
 31
0.0
  0
LINE
  5
C2
330
1F
100
AcDbEntity
  8
B-0
  6
Continuous
 62
     3
370
    13
100
AcDbLine
 10
-135.5420490268771
 20
105.5695481436911
 30
0.0
 11
-135.5420490268771
 21
117.5696124780453
 31
0.0
  0
LINE
  5
C3
330
1F
100
AcDbEntity
  8
B-0
  6
Continuous
 62
     3
370
    13
100
AcDbLine
 10
-145.5419830429245
 20
113.5695497932901
 30
0.0
 11
-133.5419434525529
 21
113.5695497932901
 31
0.0
  0
LINE
  5
C4
330
1F
100
AcDbEntity
  8
B-0
  6
Continuous
 62
     3
370
    13
100
AcDbLine
 10
-145.5419830429245
 20
115.5695069037208
 30
0.0
 11
-133.5419434525529
 21
115.5695069037208
 31
0.0
  0
LINE
  5
C5
330
1F
100
AcDbEntity
  8
B-0
  6
Continuous
 62
     3
370
    13
100
AcDbLine
 10
-145.5419830429245
 20
111.569567938877
 30
0.0
 11
-133.5419434525529
 21
111.569567938877
 31
0.0
  0
LINE
  5
C6
330
1F
100
AcDbEntity
  8
B-0
  6
Continuous
 62
     3
370
    13
100
AcDbLine
 10
-145.5419830429245
 20
109.5696108284463
 30
0.0
 11
-133.5419434525529
 21
109.5696108284463
 31
0.0
  0
LINE
  5
C7
330
1F
100
AcDbEntity
  8
B-0
  6
Continuous
 62
     3
370
    13
100
AcDbLine
 10
-145.5419830429245
 20
107.5695052541221
 30
0.0
 11
-133.5419434525529
 21
107.5695052541221
 31
0.0
  0
LINE
  5
C8
330
1F
100
AcDbEntity
  8
B-0
  6
Continuous
 62
     3
370
    13
100
AcDbLine
 10
-141.5417718942759
 20
59.56944586856454
 30
0.0
 11
-141.5417718942759
 21
71.56948545893616
 31
0.0
  0
LINE
  5
C9
330
1F
100
AcDbEntity
  8
B-0
  6
Continuous
 62
     3
370
    13
100
AcDbLine
 10
-143.5418774686001
 20
59.56944586856454
 30
0.0
 11
-143.5418774686001
 21
71.56948545893616
 31
0.0
  0
LINE
  5
CA
330
1F
100
AcDbEntity
  8
B-0
  6
Continuous
 62
     3
370
    13
100
AcDbLine
 10
-139.5419632477387
 20
59.56944586856454
 30
0.0
 11
-139.5419632477387
 21
71.56948545893616
 31
0.0
  0
LINE
  5
CB
330
1F
100
AcDbEntity
  8
B-0
  6
Continuous
 62
     3
370
    13
100
AcDbLine
 10
-137.5421546012015
 20
59.56944586856454
 30
0.0
 11
-137.5421546012015
 21
71.56948545893616
 31
0.0
  0
LINE
  5
CC
330
1F
100
AcDbEntity
  8
B-0
  6
Continuous
 62
     3
370
    13
100
AcDbLine
 10
-135.5420490268771
 20
59.56944586856454
 30
0.0
 11
-135.5420490268771
 21
71.56948545893616
 31
0.0
  0
LINE
  5
CD
330
1F
100
AcDbEntity
  8
B-0
  6
Continuous
 62
     3
370
    13
100
AcDbLine
 10
-145.5419830429245
 20
67.56942277418122
 30
0.0
 11
-133.5419434525529
 21
67.56942277418122
 31
0.0
  0
LINE
  5
CE
330
1F
100
AcDbEntity
  8
B-0
  6
Continuous
 62
     3
370
    13
100
AcDbLine
 10
-145.5419830429245
 20
69.56952834850543
 30
0.0
 11
-133.5419434525529
 21
69.56952834850543
 31
0.0
  0
LINE
  5
CF
330
1F
100
AcDbEntity
  8
B-0
  6
Continuous
 62
     3
370
    13
100
AcDbLine
 10
-145.5419830429245
 20
65.56946566375049
 30
0.0
 11
-133.5419434525529
 21
65.56946566375049
 31
0.0
  0
LINE
  5
D0
330
1F
100
AcDbEntity
  8
B-0
  6
Continuous
 62
     3
370
    13
100
AcDbLine
 10
-145.5419830429245
 20
63.56950855331976
 30
0.0
 11
-133.5419434525529
 21
63.56950855331976
 31
0.0
  0
LINE
  5
D1
330
1F
100
AcDbEntity
  8
B-0
  6
Continuous
 62
     3
370
    13
100
AcDbLine
 10
-145.5419830429245
 20
61.56955144288904
 30
0.0
 11
-133.5419434525529
 21
61.56955144288904
 31
0.0
  0
LINE
  5
D2
330
1F
100
AcDbEntity
  8
B-3
  6
JWW_CENTER1
 62
     7
370
    13
100
AcDbLine
 10
-149.2571187719153
 20
65.56946566375049
 30
0.0
 11
-129.8271046513493
 21
65.56946566375049
 31
0.0
  0
LINE
  5
D3
330
1F
100
AcDbEntity
  8
B-0
  6
Continuous
 62
     3
370
    13
100
AcDbLine
 10
-141.5417718942759
 20
13.56949205733148
 30
0.0
 11
-141.5417718942759
 21
25.56953164770309
 31
0.0
  0
LINE
  5
D4
330
1F
100
AcDbEntity
  8
B-0
  6
Continuous
 62
     3
370
    13
100
AcDbLine
 10
-143.5418774686001
 20
13.56949205733148
 30
0.0
 11
-143.5418774686001
 21
25.56953164770309
 31
0.0
  0
LINE
  5
D5
330
1F
100
AcDbEntity
  8
B-0
  6
Continuous
 62
     3
370
    13
100
AcDbLine
 10
-139.5419632477387
 20
13.56949205733148
 30
0.0
 11
-139.5419632477387
 21
25.56953164770309
 31
0.0
  0
LINE
  5
D6
330
1F
100
AcDbEntity
  8
B-0
  6
Continuous
 62
     3
370
    13
100
AcDbLine
 10
-137.5421546012015
 20
13.56949205733148
 30
0.0
 11
-137.5421546012015
 21
25.56953164770309
 31
0.0
  0
LINE
  5
D7
330
1F
100
AcDbEntity
  8
B-0
  6
Continuous
 62
     3
370
    13
100
AcDbLine
 10
-135.5420490268771
 20
13.56949205733148
 30
0.0
 11
-135.5420490268771
 21
25.56953164770309
 31
0.0
  0
LINE
  5
D8
330
1F
100
AcDbEntity
  8
B-0
  6
Continuous
 62
     3
370
    13
100
AcDbLine
 10
-145.5419830429245
 20
21.56946896294787
 30
0.0
 11
-133.5419434525529
 21
21.56946896294787
 31
0.0
  0
LINE
  5
D9
330
1F
100
AcDbEntity
  8
B-0
  6
Continuous
 62
     3
370
    13
100
AcDbLine
 10
-145.5419830429245
 20
23.56957453727236
 30
0.0
 11
-133.5419434525529
 21
23.56957453727236
 31
0.0
  0
LINE
  5
DA
330
1F
100
AcDbEntity
  8
B-0
  6
Continuous
 62
     3
370
    13
100
AcDbLine
 10
-145.5419830429245
 20
19.56951185251714
 30
0.0
 11
-133.5419434525529
 21
19.56951185251714
 31
0.0
  0
LINE
  5
DB
330
1F
100
AcDbEntity
  8
B-0
  6
Continuous
 62
     3
370
    13
100
AcDbLine
 10
-145.5419830429245
 20
17.56955474208641
 30
0.0
 11
-133.5419434525529
 21
17.56955474208641
 31
0.0
  0
LINE
  5
DC
330
1F
100
AcDbEntity
  8
B-0
  6
Continuous
 62
     3
370
    13
100
AcDbLine
 10
-145.5419830429245
 20
15.5694491677622
 30
0.0
 11
-133.5419434525529
 21
15.5694491677622
 31
0.0
  0
LINE
  5
DD
330
1F
100
AcDbEntity
  8
B-3
  6
JWW_CENTER1
 62
     7
370
    13
100
AcDbLine
 10
-149.2571187719153
 20
19.56951185251714
 30
0.0
 11
-129.8271046513493
 21
19.56951185251714
 31
0.0
  0
LINE
  5
DE
330
1F
100
AcDbEntity
  8
B-0
  6
Continuous
 62
     3
370
    13
100
AcDbLine
 10
-61.54190386218119
 20
197.5695052541221
 30
0.0
 11
-61.54190386218119
 21
209.5695448444937
 31
0.0
  0
LINE
  5
DF
330
1F
100
AcDbEntity
  8
B-0
  6
Continuous
 62
     3
370
    13
100
AcDbLine
 10
-63.54200943650574
 20
197.5695052541221
 30
0.0
 11
-63.54200943650574
 21
209.5695448444937
 31
0.0
  0
LINE
  5
E0
330
1F
100
AcDbEntity
  8
B-0
  6
Continuous
 62
     3
370
    13
100
AcDbLine
 10
-59.542095215644
 20
197.5695052541221
 30
0.0
 11
-59.542095215644
 21
209.5695448444937
 31
0.0
  0
LINE
  5
E1
330
1F
100
AcDbEntity
  8
B-0
  6
Continuous
 62
     3
370
    13
100
AcDbLine
 10
-57.54198964131979
 20
197.5695052541221
 30
0.0
 11
-57.54198964131979
 21
209.5695448444937
 31
0.0
  0
LINE
  5
E2
330
1F
100
AcDbEntity
  8
B-0
  6
Continuous
 62
     3
370
    13
100
AcDbLine
 10
-55.54188406699524
 20
197.5695052541221
 30
0.0
 11
-55.54188406699524
 21
209.5695448444937
 31
0.0
  0
LINE
  5
E3
330
1F
100
AcDbEntity
  8
B-0
  6
Continuous
 62
     3
370
    13
100
AcDbLine
 10
-65.54181808304276
 20
205.5694821597385
 30
0.0
 11
-53.54177849267104
 21
205.5694821597385
 31
0.0
  0
LINE
  5
E4
330
1F
100
AcDbEntity
  8
B-0
  6
Continuous
 62
     3
370
    13
100
AcDbLine
 10
-65.54181808304276
 20
207.569587734063
 30
0.0
 11
-53.54177849267104
 21
207.569587734063
 31
0.0
  0
LINE
  5
E5
330
1F
100
AcDbEntity
  8
B-0
  6
Continuous
 62
     3
370
    13
100
AcDbLine
 10
-65.54181808304276
 20
203.5695250493078
 30
0.0
 11
-53.54177849267104
 21
203.5695250493078
 31
0.0
  0
LINE
  5
E6
330
1F
100
AcDbEntity
  8
B-0
  6
Continuous
 62
     3
370
    13
100
AcDbLine
 10
-65.54181808304276
 20
201.5695679388771
 30
0.0
 11
-53.54177849267104
 21
201.5695679388771
 31
0.0
  0
LINE
  5
E7
330
1F
100
AcDbEntity
  8
B-0
  6
Continuous
 62
     3
370
    13
100
AcDbLine
 10
-65.54181808304276
 20
199.5696108284463
 30
0.0
 11
-53.54177849267104
 21
199.5696108284463
 31
0.0
  0
LINE
  5
E8
330
1F
100
AcDbEntity
  8
B-3
  6
JWW_CENTER1
 62
     7
370
    13
100
AcDbLine
 10
-69.25727548380291
 20
203.5695250493078
 30
0.0
 11
-49.82696443544979
 21
203.5695250493078
 31
0.0
  0
LINE
  5
E9
330
1F
100
AcDbEntity
  8
B-3
  6
JWW_CENTER1
 62
     7
370
    13
100
AcDbLine
 10
-59.542095215644
 20
193.8543447811492
 30
0.0
 11
-59.542095215644
 21
213.2846558295021
 31
0.0
  0
LINE
  5
EA
330
1F
100
AcDbEntity
  8
B-0
  6
Continuous
 62
     3
370
    13
100
AcDbLine
 10
-61.54190386218119
 20
151.5695266989067
 30
0.0
 11
-61.54190386218119
 21
163.5695662892784
 31
0.0
  0
LINE
  5
EB
330
1F
100
AcDbEntity
  8
B-0
  6
Continuous
 62
     3
370
    13
100
AcDbLine
 10
-63.54200943650574
 20
151.5695266989067
 30
0.0
 11
-63.54200943650574
 21
163.5695662892784
 31
0.0
  0
LINE
  5
EC
330
1F
100
AcDbEntity
  8
B-0
  6
Continuous
 62
     3
370
    13
100
AcDbLine
 10
-59.542095215644
 20
151.5695266989067
 30
0.0
 11
-59.542095215644
 21
163.5695662892784
 31
0.0
  0
LINE
  5
ED
330
1F
100
AcDbEntity
  8
B-0
  6
Continuous
 62
     3
370
    13
100
AcDbLine
 10
-57.54198964131979
 20
151.5695266989067
 30
0.0
 11
-57.54198964131979
 21
163.5695662892784
 31
0.0
  0
LINE
  5
EE
330
1F
100
AcDbEntity
  8
B-0
  6
Continuous
 62
     3
370
    13
100
AcDbLine
 10
-55.54188406699524
 20
151.5695266989067
 30
0.0
 11
-55.54188406699524
 21
163.5695662892784
 31
0.0
  0
LINE
  5
EF
330
1F
100
AcDbEntity
  8
B-0
  6
Continuous
 62
     3
370
    13
100
AcDbLine
 10
-65.54181808304276
 20
159.5695036045231
 30
0.0
 11
-53.54177849267104
 21
159.5695036045231
 31
0.0
  0
LINE
  5
F0
330
1F
100
AcDbEntity
  8
B-0
  6
Continuous
 62
     3
370
    13
100
AcDbLine
 10
-65.54181808304276
 20
161.5694607149539
 30
0.0
 11
-53.54177849267104
 21
161.5694607149539
 31
0.0
  0
LINE
  5
F1
330
1F
100
AcDbEntity
  8
B-0
  6
Continuous
 62
     3
370
    13
100
AcDbLine
 10
-65.54181808304276
 20
157.5695464940924
 30
0.0
 11
-53.54177849267104
 21
157.5695464940924
 31
0.0
  0
LINE
  5
F2
330
1F
100
AcDbEntity
  8
B-0
  6
Continuous
 62
     3
370
    13
100
AcDbLine
 10
-65.54181808304276
 20
155.5695893836617
 30
0.0
 11
-53.54177849267104
 21
155.5695893836617
 31
0.0
  0
LINE
  5
F3
330
1F
100
AcDbEntity
  8
B-0
  6
Continuous
 62
     3
370
    13
100
AcDbLine
 10
-65.54181808304276
 20
153.5694838093375
 30
0.0
 11
-53.54177849267104
 21
153.5694838093375
 31
0.0
  0
LINE
  5
F4
330
1F
100
AcDbEntity
  8
B-3
  6
JWW_CENTER1
 62
     7
370
    13
100
AcDbLine
 10
-69.25727548380291
 20
157.5695464940924
 30
0.0
 11
-49.82696443544979
 21
157.5695464940924
 31
0.0
  0
LINE
  5
F5
330
1F
100
AcDbEntity
  8
B-3
  6
JWW_CENTER1
 62
     7
370
    13
100
AcDbLine
 10
-59.542095215644
 20
147.8543909699161
 30
0.0
 11
-59.542095215644
 21
167.284702018269
 31
0.0
  0
LINE
  5
F6
330
1F
100
AcDbEntity
  8
B-0
  6
Continuous
 62
     3
370
    13
100
AcDbLine
 10
-61.54190386218119
 20
105.5695481436911
 30
0.0
 11
-61.54190386218119
 21
117.5696124780453
 31
0.0
  0
LINE
  5
F7
330
1F
100
AcDbEntity
  8
B-0
  6
Continuous
 62
     3
370
    13
100
AcDbLine
 10
-63.54200943650574
 20
105.5695481436911
 30
0.0
 11
-63.54200943650574
 21
117.5696124780453
 31
0.0
  0
LINE
  5
F8
330
1F
100
AcDbEntity
  8
B-0
  6
Continuous
 62
     3
370
    13
100
AcDbLine
 10
-59.542095215644
 20
105.5695481436911
 30
0.0
 11
-59.542095215644
 21
117.5696124780453
 31
0.0
  0
LINE
  5
F9
330
1F
100
AcDbEntity
  8
B-0
  6
Continuous
 62
     3
370
    13
100
AcDbLine
 10
-57.54198964131979
 20
105.5695481436911
 30
0.0
 11
-57.54198964131979
 21
117.5696124780453
 31
0.0
  0
LINE
  5
FA
330
1F
100
AcDbEntity
  8
B-0
  6
Continuous
 62
     3
370
    13
100
AcDbLine
 10
-55.54188406699524
 20
105.5695481436911
 30
0.0
 11
-55.54188406699524
 21
117.5696124780453
 31
0.0
  0
LINE
  5
FB
330
1F
100
AcDbEntity
  8
B-0
  6
Continuous
 62
     3
370
    13
100
AcDbLine
 10
-65.54181808304276
 20
113.5695497932901
 30
0.0
 11
-53.54177849267104
 21
113.5695497932901
 31
0.0
  0
LINE
  5
FC
330
1F
100
AcDbEntity
  8
B-0
  6
Continuous
 62
     3
370
    13
100
AcDbLine
 10
-65.54181808304276
 20
115.5695069037208
 30
0.0
 11
-53.54177849267104
 21
115.5695069037208
 31
0.0
  0
LINE
  5
FD
330
1F
100
AcDbEntity
  8
B-0
  6
Continuous
 62
     3
370
    13
100
AcDbLine
 10
-65.54181808304276
 20
111.569567938877
 30
0.0
 11
-53.54177849267104
 21
111.569567938877
 31
0.0
  0
LINE
  5
FE
330
1F
100
AcDbEntity
  8
B-0
  6
Continuous
 62
     3
370
    13
100
AcDbLine
 10
-65.54181808304276
 20
109.5696108284463
 30
0.0
 11
-53.54177849267104
 21
109.5696108284463
 31
0.0
  0
LINE
  5
FF
330
1F
100
AcDbEntity
  8
B-0
  6
Continuous
 62
     3
370
    13
100
AcDbLine
 10
-65.54181808304276
 20
107.5695052541221
 30
0.0
 11
-53.54177849267104
 21
107.5695052541221
 31
0.0
  0
LINE
  5
100
330
1F
100
AcDbEntity
  8
B-3
  6
JWW_CENTER1
 62
     7
370
    13
100
AcDbLine
 10
-59.542095215644
 20
101.8544371586828
 30
0.0
 11
-59.542095215644
 21
121.2845997431421
 31
0.0
  0
LINE
  5
101
330
1F
100
AcDbEntity
  8
B-0
  6
Continuous
 62
     3
370
    13
100
AcDbLine
 10
-61.54190386218119
 20
59.56944586856454
 30
0.0
 11
-61.54190386218119
 21
71.56948545893616
 31
0.0
  0
LINE
  5
102
330
1F
100
AcDbEntity
  8
B-0
  6
Continuous
 62
     3
370
    13
100
AcDbLine
 10
-63.54200943650574
 20
59.56944586856454
 30
0.0
 11
-63.54200943650574
 21
71.56948545893616
 31
0.0
  0
LINE
  5
103
330
1F
100
AcDbEntity
  8
B-0
  6
Continuous
 62
     3
370
    13
100
AcDbLine
 10
-59.542095215644
 20
59.56944586856454
 30
0.0
 11
-59.542095215644
 21
71.56948545893616
 31
0.0
  0
LINE
  5
104
330
1F
100
AcDbEntity
  8
B-0
  6
Continuous
 62
     3
370
    13
100
AcDbLine
 10
-57.54198964131979
 20
59.56944586856454
 30
0.0
 11
-57.54198964131979
 21
71.56948545893616
 31
0.0
  0
LINE
  5
105
330
1F
100
AcDbEntity
  8
B-0
  6
Continuous
 62
     3
370
    13
100
AcDbLine
 10
-55.54188406699524
 20
59.56944586856454
 30
0.0
 11
-55.54188406699524
 21
71.56948545893616
 31
0.0
  0
LINE
  5
106
330
1F
100
AcDbEntity
  8
B-0
  6
Continuous
 62
     3
370
    13
100
AcDbLine
 10
-65.54181808304276
 20
67.56942277418122
 30
0.0
 11
-53.54177849267104
 21
67.56942277418122
 31
0.0
  0
LINE
  5
107
330
1F
100
AcDbEntity
  8
B-0
  6
Continuous
 62
     3
370
    13
100
AcDbLine
 10
-65.54181808304276
 20
69.56952834850543
 30
0.0
 11
-53.54177849267104
 21
69.56952834850543
 31
0.0
  0
LINE
  5
108
330
1F
100
AcDbEntity
  8
B-0
  6
Continuous
 62
     3
370
    13
100
AcDbLine
 10
-65.54181808304276
 20
65.56946566375049
 30
0.0
 11
-53.54177849267104
 21
65.56946566375049
 31
0.0
  0
LINE
  5
109
330
1F
100
AcDbEntity
  8
B-0
  6
Continuous
 62
     3
370
    13
100
AcDbLine
 10
-65.54181808304276
 20
63.56950855331976
 30
0.0
 11
-53.54177849267104
 21
63.56950855331976
 31
0.0
  0
LINE
  5
10A
330
1F
100
AcDbEntity
  8
B-0
  6
Continuous
 62
     3
370
    13
100
AcDbLine
 10
-65.54181808304276
 20
61.56955144288904
 30
0.0
 11
-53.54177849267104
 21
61.56955144288904
 31
0.0
  0
LINE
  5
10B
330
1F
100
AcDbEntity
  8
B-3
  6
JWW_CENTER1
 62
     7
370
    13
100
AcDbLine
 10
-69.25727548380291
 20
65.56946566375049
 30
0.0
 11
-49.82696443544979
 21
65.56946566375049
 31
0.0
  0
LINE
  5
10C
330
1F
100
AcDbEntity
  8
B-3
  6
JWW_CENTER1
 62
     7
370
    13
100
AcDbLine
 10
-59.542095215644
 20
55.85433488355622
 30
0.0
 11
-59.542095215644
 21
75.28462118792706
 31
0.0
  0
LINE
  5
10D
330
1F
100
AcDbEntity
  8
B-0
  6
Continuous
 62
     3
370
    13
100
AcDbLine
 10
-61.54190386218119
 20
13.56949205733148
 30
0.0
 11
-61.54190386218119
 21
25.56953164770309
 31
0.0
  0
LINE
  5
10E
330
1F
100
AcDbEntity
  8
B-0
  6
Continuous
 62
     3
370
    13
100
AcDbLine
 10
-63.54200943650574
 20
13.56949205733148
 30
0.0
 11
-63.54200943650574
 21
25.56953164770309
 31
0.0
  0
LINE
  5
10F
330
1F
100
AcDbEntity
  8
B-0
  6
Continuous
 62
     3
370
    13
100
AcDbLine
 10
-59.542095215644
 20
13.56949205733148
 30
0.0
 11
-59.542095215644
 21
25.56953164770309
 31
0.0
  0
LINE
  5
110
330
1F
100
AcDbEntity
  8
B-0
  6
Continuous
 62
     3
370
    13
100
AcDbLine
 10
-57.54198964131979
 20
13.56949205733148
 30
0.0
 11
-57.54198964131979
 21
25.56953164770309
 31
0.0
  0
LINE
  5
111
330
1F
100
AcDbEntity
  8
B-0
  6
Continuous
 62
     3
370
    13
100
AcDbLine
 10
-55.54188406699524
 20
13.56949205733148
 30
0.0
 11
-55.54188406699524
 21
25.56953164770309
 31
0.0
  0
LINE
  5
112
330
1F
100
AcDbEntity
  8
B-0
  6
Continuous
 62
     3
370
    13
100
AcDbLine
 10
-65.54181808304276
 20
21.56946896294787
 30
0.0
 11
-53.54177849267104
 21
21.56946896294787
 31
0.0
  0
LINE
  5
113
330
1F
100
AcDbEntity
  8
B-0
  6
Continuous
 62
     3
370
    13
100
AcDbLine
 10
-65.54181808304276
 20
23.56957453727236
 30
0.0
 11
-53.54177849267104
 21
23.56957453727236
 31
0.0
  0
LINE
  5
114
330
1F
100
AcDbEntity
  8
B-0
  6
Continuous
 62
     3
370
    13
100
AcDbLine
 10
-65.54181808304276
 20
19.56951185251714
 30
0.0
 11
-53.54177849267104
 21
19.56951185251714
 31
0.0
  0
LINE
  5
115
330
1F
100
AcDbEntity
  8
B-0
  6
Continuous
 62
     3
370
    13
100
AcDbLine
 10
-65.54181808304276
 20
17.56955474208641
 30
0.0
 11
-53.54177849267104
 21
17.56955474208641
 31
0.0
  0
LINE
  5
116
330
1F
100
AcDbEntity
  8
B-0
  6
Continuous
 62
     3
370
    13
100
AcDbLine
 10
-65.54181808304276
 20
15.5694491677622
 30
0.0
 11
-53.54177849267104
 21
15.5694491677622
 31
0.0
  0
LINE
  5
117
330
1F
100
AcDbEntity
  8
B-3
  6
JWW_CENTER1
 62
     7
370
    13
100
AcDbLine
 10
-69.25727548380291
 20
19.56951185251714
 30
0.0
 11
-49.82696443544979
 21
19.56951185251714
 31
0.0
  0
LINE
  5
118
330
1F
100
AcDbEntity
  8
B-3
  6
JWW_CENTER1
 62
     7
370
    13
100
AcDbLine
 10
-59.542095215644
 20
9.85435632834086
 30
0.0
 11
-59.542095215644
 21
29.28464263271141
 31
0.0
  0
LINE
  5
119
330
1F
100
AcDbEntity
  8
B-0
  6
Continuous
 62
     3
370
    13
100
AcDbLine
 10
-196.5420770700571
 20
183.5696075292486
 30
0.0
 11
-162.542014385302
 21
183.5696075292486
 31
0.0
  0
LINE
  5
11A
330
1F
100
AcDbEntity
  8
B-0
  6
Continuous
 62
     3
370
    13
100
AcDbLine
 10
-196.5420770700571
 20
177.5692908062757
 30
0.0
 11
-162.542014385302
 21
177.5692908062757
 31
0.0
  0
LINE
  5
11B
330
1F
100
AcDbEntity
  8
B-3
  6
JWW_CENTER1
 62
     7
370
    13
100
AcDbLine
 10
-179.5420457276795
 20
185.5899041931
 30
0.0
 11
-179.5420457276795
 21
175.5489941424244
 31
0.0
  0
LINE
  5
11C
330
1F
100
AcDbEntity
  8
B-3
  6
JWW_CENTER1
 62
     7
370
    13
100
AcDbLine
 10
-201.8987780703739
 20
180.5694491677622
 30
0.0
 11
-157.1853133849852
 21
180.5694491677622
 31
0.0
  0
LINE
  5
11D
330
1F
100
AcDbEntity
  8
B-0
  6
Continuous
 62
     3
370
    13
100
AcDbLine
 10
-196.5420770700571
 20
137.5696537180156
 30
0.0
 11
-162.542014385302
 21
137.5696537180156
 31
0.0
  0
LINE
  5
11E
330
1F
100
AcDbEntity
  8
B-0
  6
Continuous
 62
     3
370
    13
100
AcDbLine
 10
-196.5420770700571
 20
131.5693369950426
 30
0.0
 11
-162.542014385302
 21
131.5693369950426
 31
0.0
  0
LINE
  5
11F
330
1F
100
AcDbEntity
  8
B-3
  6
JWW_CENTER1
 62
     7
370
    13
100
AcDbLine
 10
-179.5420457276795
 20
139.5899751258492
 30
0.0
 11
-179.5420457276795
 21
129.5489908432268
 31
0.0
  0
LINE
  5
120
330
1F
100
AcDbEntity
  8
B-3
  6
JWW_CENTER1
 62
     7
370
    13
100
AcDbLine
 10
-201.8987780703739
 20
134.5694953565291
 30
0.0
 11
-157.1853133849852
 21
134.5694953565291
 31
0.0
  0
LINE
  5
121
330
1F
100
AcDbEntity
  8
B-0
  6
Continuous
 62
     3
370
    13
100
AcDbLine
 10
-196.5420770700571
 20
91.5696999067825
 30
0.0
 11
-162.542014385302
 21
91.5696999067825
 31
0.0
  0
LINE
  5
122
330
1F
100
AcDbEntity
  8
B-0
  6
Continuous
 62
     3
370
    13
100
AcDbLine
 10
-196.5420770700571
 20
85.56935843982731
 30
0.0
 11
-162.542014385302
 21
85.56935843982731
 31
0.0
  0
LINE
  5
123
330
1F
100
AcDbEntity
  8
B-3
  6
JWW_CENTER1
 62
     7
370
    13
100
AcDbLine
 10
-179.5420457276795
 20
93.5900213146161
 30
0.0
 11
-179.5420457276795
 21
83.54903703199372
 31
0.0
  0
LINE
  5
124
330
1F
100
AcDbEntity
  8
B-3
  6
JWW_CENTER1
 62
     7
370
    13
100
AcDbLine
 10
-201.8987780703739
 20
88.56954154529606
 30
0.0
 11
-157.1853133849852
 21
88.56954154529606
 31
0.0
  0
LINE
  5
125
330
1F
100
AcDbEntity
  8
B-0
  6
Continuous
 62
     3
370
    13
100
AcDbLine
 10
-196.5420770700571
 20
45.56972135156715
 30
0.0
 11
-162.542014385302
 21
45.56972135156715
 31
0.0
  0
LINE
  5
126
330
1F
100
AcDbEntity
  8
B-0
  6
Continuous
 62
     3
370
    13
100
AcDbLine
 10
-196.5420770700571
 20
39.56923142071818
 30
0.0
 11
-162.542014385302
 21
39.56923142071818
 31
0.0
  0
LINE
  5
127
330
1F
100
AcDbEntity
  8
B-3
  6
JWW_CENTER1
 62
     7
370
    13
100
AcDbLine
 10
-179.5420457276795
 20
47.58989429550726
 30
0.0
 11
-179.5420457276795
 21
37.54893475686688
 31
0.0
  0
LINE
  5
128
330
1F
100
AcDbEntity
  8
B-3
  6
JWW_CENTER1
 62
     7
370
    13
100
AcDbLine
 10
-201.8987780703739
 20
42.56941452618693
 30
0.0
 11
-157.1853133849852
 21
42.56941452618693
 31
0.0
  0
LINE
  5
129
330
1F
100
AcDbEntity
  8
B-0
  6
Continuous
 62
     3
370
    13
100
AcDbLine
 10
-116.5422090379624
 20
183.5696075292486
 30
0.0
 11
-82.54214635320727
 21
183.5696075292486
 31
0.0
  0
LINE
  5
12A
330
1F
100
AcDbEntity
  8
B-0
  6
Continuous
 62
     3
370
    13
100
AcDbLine
 10
-116.5422090379624
 20
177.5692908062757
 30
0.0
 11
-82.54214635320727
 21
177.5692908062757
 31
0.0
  0
LINE
  5
12B
330
1F
100
AcDbEntity
  8
B-3
  6
JWW_CENTER1
 62
     7
370
    13
100
AcDbLine
 10
-99.54188076779792
 20
185.5899041931
 30
0.0
 11
-99.54188076779792
 21
175.5489941424244
 31
0.0
  0
LINE
  5
12C
330
1F
100
AcDbEntity
  8
B-3
  6
JWW_CENTER1
 62
     7
370
    13
100
AcDbLine
 10
-121.8989100382793
 20
180.5694491677622
 30
0.0
 11
-77.1851484251037
 21
180.5694491677622
 31
0.0
  0
LINE
  5
12D
330
1F
100
AcDbEntity
  8
B-0
  6
Continuous
 62
     3
370
    13
100
AcDbLine
 10
-116.5422090379624
 20
137.5696537180156
 30
0.0
 11
-82.54214635320727
 21
137.5696537180156
 31
0.0
  0
LINE
  5
12E
330
1F
100
AcDbEntity
  8
B-0
  6
Continuous
 62
     3
370
    13
100
AcDbLine
 10
-116.5422090379624
 20
131.5693369950426
 30
0.0
 11
-82.54214635320727
 21
131.5693369950426
 31
0.0
  0
LINE
  5
12F
330
1F
100
AcDbEntity
  8
B-3
  6
JWW_CENTER1
 62
     7
370
    13
100
AcDbLine
 10
-99.54188076779792
 20
139.5899751258492
 30
0.0
 11
-99.54188076779792
 21
129.5489908432268
 31
0.0
  0
LINE
  5
130
330
1F
100
AcDbEntity
  8
B-3
  6
JWW_CENTER1
 62
     7
370
    13
100
AcDbLine
 10
-121.8989100382793
 20
134.5694953565291
 30
0.0
 11
-77.1851484251037
 21
134.5694953565291
 31
0.0
  0
LINE
  5
131
330
1F
100
AcDbEntity
  8
B-0
  6
Continuous
 62
     3
370
    13
100
AcDbLine
 10
-116.5422090379624
 20
91.5696999067825
 30
0.0
 11
-82.54214635320727
 21
91.5696999067825
 31
0.0
  0
LINE
  5
132
330
1F
100
AcDbEntity
  8
B-0
  6
Continuous
 62
     3
370
    13
100
AcDbLine
 10
-116.5422090379624
 20
85.56935843982731
 30
0.0
 11
-82.54214635320727
 21
85.56935843982731
 31
0.0
  0
LINE
  5
133
330
1F
100
AcDbEntity
  8
B-3
  6
JWW_CENTER1
 62
     7
370
    13
100
AcDbLine
 10
-99.54188076779792
 20
93.5900213146161
 30
0.0
 11
-99.54188076779792
 21
83.54903703199372
 31
0.0
  0
LINE
  5
134
330
1F
100
AcDbEntity
  8
B-3
  6
JWW_CENTER1
 62
     7
370
    13
100
AcDbLine
 10
-121.8989100382793
 20
88.56954154529606
 30
0.0
 11
-77.1851484251037
 21
88.56954154529606
 31
0.0
  0
LINE
  5
135
330
1F
100
AcDbEntity
  8
B-0
  6
Continuous
 62
     3
370
    13
100
AcDbLine
 10
-116.5422090379624
 20
45.56972135156715
 30
0.0
 11
-82.54214635320727
 21
45.56972135156715
 31
0.0
  0
LINE
  5
136
330
1F
100
AcDbEntity
  8
B-0
  6
Continuous
 62
     3
370
    13
100
AcDbLine
 10
-116.5422090379624
 20
39.56923142071818
 30
0.0
 11
-82.54214635320727
 21
39.56923142071818
 31
0.0
  0
LINE
  5
137
330
1F
100
AcDbEntity
  8
B-3
  6
JWW_CENTER1
 62
     7
370
    13
100
AcDbLine
 10
-99.54188076779792
 20
47.58989429550726
 30
0.0
 11
-99.54188076779792
 21
37.54893475686688
 31
0.0
  0
LINE
  5
138
330
1F
100
AcDbEntity
  8
B-3
  6
JWW_CENTER1
 62
     7
370
    13
100
AcDbLine
 10
-121.8989100382793
 20
42.56941452618693
 30
0.0
 11
-77.1851484251037
 21
42.56941452618693
 31
0.0
  0
LINE
  5
139
330
1F
100
AcDbEntity
  8
B-0
  6
Continuous
 62
     3
370
    13
100
AcDbLine
 10
-264.5419302557623
 20
236.5695349469006
 30
0.0
 11
-264.5419302557623
 21
-13.43094343675627
 31
0.0
  0
LINE
  5
13A
330
1F
100
AcDbEntity
  8
B-0
  6
Continuous
 62
     3
370
    13
100
AcDbLine
 10
-264.5419302557623
 20
236.5695349469006
 30
0.0
 11
-14.54204572767947
 21
236.5695349469006
 31
0.0
  0
LINE
  5
13B
330
1F
100
AcDbEntity
  8
B-0
  6
Continuous
 62
     3
370
    13
100
AcDbLine
 10
-14.54204572767947
 20
-13.43094343675627
 30
0.0
 11
-264.5419302557623
 21
-13.43094343675627
 31
0.0
  0
LINE
  5
13C
330
1F
100
AcDbEntity
  8
B-0
  6
JWW_DASHED2
 62
     3
370
    13
100
AcDbLine
 10
-264.5419302557623
 20
233.5694755613432
 30
0.0
 11
-14.54204572767947
 21
233.5694755613432
 31
0.0
  0
LINE
  5
13D
330
1F
100
AcDbEntity
  8
B-0
  6
JWW_DASHED2
 62
     3
370
    13
100
AcDbLine
 10
-14.54204572767947
 20
-10.43093353916359
 30
0.0
 11
-264.5419302557623
 21
-10.43093353916359
 31
0.0
  0
LINE
  5
13E
330
1F
100
AcDbEntity
  8
B-3
  6
JWW_CENTER1
 62
     7
370
    13
100
AcDbLine
 10
-219.5418312798332
 20
193.8543447811492
 30
0.0
 11
-219.5418312798332
 21
213.2846558295021
 31
0.0
  0
LINE
  5
13F
330
1F
100
AcDbEntity
  8
B-3
  6
JWW_CENTER1
 62
     7
370
    13
100
AcDbLine
 10
-34.54191375977417
 20
125.1441166086406
 30
0.0
 11
-34.54191375977417
 21
97.99445015752157
 31
0.0
  0
CIRCLE
  5
140
330
1F
100
AcDbEntity
  8
B-0
  6
Continuous
 62
     3
370
    13
100
AcDbCircle
 10
-219.5418312798332
 20
203.5695250493078
 30
0.0
 40
7.499999226750554
  0
CIRCLE
  5
141
330
1F
100
AcDbEntity
  8
B-0
  6
Continuous
 62
     3
370
    13
100
AcDbCircle
 10
-219.5418312798332
 20
157.5695464940924
 30
0.0
 40
7.499999226750554
  0
CIRCLE
  5
142
330
1F
100
AcDbEntity
  8
B-0
  6
Continuous
 62
     3
370
    13
100
AcDbCircle
 10
-219.5418312798332
 20
111.569567938877
 30
0.0
 40
7.499999226750554
  0
CIRCLE
  5
143
330
1F
100
AcDbEntity
  8
B-0
  6
Continuous
 62
     3
370
    13
100
AcDbCircle
 10
-219.5418312798332
 20
65.56946566375049
 30
0.0
 40
7.499999226750554
  0
CIRCLE
  5
144
330
1F
100
AcDbEntity
  8
B-0
  6
Continuous
 62
     3
370
    13
100
AcDbCircle
 10
-219.5418312798332
 20
19.56951185251714
 30
0.0
 40
7.499999226750554
  0
CIRCLE
  5
145
330
1F
100
AcDbEntity
  8
B-0
  6
Continuous
 62
     3
370
    13
100
AcDbCircle
 10
-139.5419632477387
 20
203.5695250493078
 30
0.0
 40
7.499999226750554
  0
CIRCLE
  5
146
330
1F
100
AcDbEntity
  8
B-0
  6
Continuous
 62
     3
370
    13
100
AcDbCircle
 10
-139.5419632477387
 20
157.5695464940924
 30
0.0
 40
7.499999226750554
  0
CIRCLE
  5
147
330
1F
100
AcDbEntity
  8
B-0
  6
Continuous
 62
     3
370
    13
100
AcDbCircle
 10
-139.5419632477387
 20
111.569567938877
 30
0.0
 40
7.499999226750554
  0
CIRCLE
  5
148
330
1F
100
AcDbEntity
  8
B-0
  6
Continuous
 62
     3
370
    13
100
AcDbCircle
 10
-139.5419632477387
 20
65.56946566375049
 30
0.0
 40
7.499999226750554
  0
CIRCLE
  5
149
330
1F
100
AcDbEntity
  8
B-0
  6
Continuous
 62
     3
370
    13
100
AcDbCircle
 10
-139.5419632477387
 20
19.56951185251714
 30
0.0
 40
7.499999226750554
  0
CIRCLE
  5
14A
330
1F
100
AcDbEntity
  8
B-0
  6
Continuous
 62
     3
370
    13
100
AcDbCircle
 10
-59.542095215644
 20
203.5695250493078
 30
0.0
 40
7.499999226750554
  0
CIRCLE
  5
14B
330
1F
100
AcDbEntity
  8
B-0
  6
Continuous
 62
     3
370
    13
100
AcDbCircle
 10
-59.542095215644
 20
157.5695464940924
 30
0.0
 40
7.499999226750554
  0
CIRCLE
  5
14C
330
1F
100
AcDbEntity
  8
B-0
  6
Continuous
 62
     3
370
    13
100
AcDbCircle
 10
-59.542095215644
 20
111.569567938877
 30
0.0
 40
7.499999226750554
  0
CIRCLE
  5
14D
330
1F
100
AcDbEntity
  8
B-0
  6
Continuous
 62
     3
370
    13
100
AcDbCircle
 10
-59.542095215644
 20
65.56946566375049
 30
0.0
 40
7.499999226750554
  0
CIRCLE
  5
14E
330
1F
100
AcDbEntity
  8
B-0
  6
Continuous
 62
     3
370
    13
100
AcDbCircle
 10
-59.542095215644
 20
19.56951185251714
 30
0.0
 40
7.499999226750554
  0
ARC
  5
14F
330
1F
100
AcDbEntity
  8
B-0
  6
Continuous
 62
     3
370
    13
100
AcDbCircle
 10
-162.542014385302
 20
180.5694491677622
 30
0.0
 40
2.999999845350112
100
AcDbArc
 50
270.0
 51
90.0
  0
ARC
  5
150
330
1F
100
AcDbEntity
  8
B-0
  6
Continuous
 62
     3
370
    13
100
AcDbCircle
 10
-196.5420770700571
 20
180.5694491677622
 30
0.0
 40
2.999999845350112
100
AcDbArc
 50
90.0
 51
270.0
  0
ARC
  5
151
330
1F
100
AcDbEntity
  8
B-0
  6
Continuous
 62
     3
370
    13
100
AcDbCircle
 10
-162.542014385302
 20
134.5694953565291
 30
0.0
 40
2.999999845350112
100
AcDbArc
 50
270.0
 51
90.0
  0
ARC
  5
152
330
1F
100
AcDbEntity
  8
B-0
  6
Continuous
 62
     3
370
    13
100
AcDbCircle
 10
-196.5420770700571
 20
134.5694953565291
 30
0.0
 40
2.999999845350112
100
AcDbArc
 50
90.0
 51
270.0
  0
ARC
  5
153
330
1F
100
AcDbEntity
  8
B-0
  6
Continuous
 62
     3
370
    13
100
AcDbCircle
 10
-162.542014385302
 20
88.56954154529606
 30
0.0
 40
2.999999845350112
100
AcDbArc
 50
270.0
 51
90.0
  0
ARC
  5
154
330
1F
100
AcDbEntity
  8
B-0
  6
Continuous
 62
     3
370
    13
100
AcDbCircle
 10
-196.5420770700571
 20
88.56954154529606
 30
0.0
 40
2.999999845350112
100
AcDbArc
 50
90.0
 51
270.0
  0
ARC
  5
155
330
1F
100
AcDbEntity
  8
B-0
  6
Continuous
 62
     3
370
    13
100
AcDbCircle
 10
-162.542014385302
 20
42.56941452618693
 30
0.0
 40
2.999999845350112
100
AcDbArc
 50
270.0
 51
90.0
  0
ARC
  5
156
330
1F
100
AcDbEntity
  8
B-0
  6
Continuous
 62
     3
370
    13
100
AcDbCircle
 10
-196.5420770700571
 20
42.56941452618693
 30
0.0
 40
2.999999845350112
100
AcDbArc
 50
90.0
 51
270.0
  0
ARC
  5
157
330
1F
100
AcDbEntity
  8
B-0
  6
Continuous
 62
     3
370
    13
100
AcDbCircle
 10
-82.54214635320727
 20
180.5694491677622
 30
0.0
 40
2.999999845350112
100
AcDbArc
 50
270.0
 51
90.0
  0
ARC
  5
158
330
1F
100
AcDbEntity
  8
B-0
  6
Continuous
 62
     3
370
    13
100
AcDbCircle
 10
-116.5422090379624
 20
180.5694491677622
 30
0.0
 40
2.999999845350112
100
AcDbArc
 50
90.0
 51
270.0
  0
ARC
  5
159
330
1F
100
AcDbEntity
  8
B-0
  6
Continuous
 62
     3
370
    13
100
AcDbCircle
 10
-82.54214635320727
 20
134.5694953565291
 30
0.0
 40
2.999999845350112
100
AcDbArc
 50
270.0
 51
90.0
  0
ARC
  5
15A
330
1F
100
AcDbEntity
  8
B-0
  6
Continuous
 62
     3
370
    13
100
AcDbCircle
 10
-116.5422090379624
 20
134.5694953565291
 30
0.0
 40
2.999999845350112
100
AcDbArc
 50
90.0
 51
270.0
  0
ARC
  5
15B
330
1F
100
AcDbEntity
  8
B-0
  6
Continuous
 62
     3
370
    13
100
AcDbCircle
 10
-82.54214635320727
 20
88.56954154529606
 30
0.0
 40
2.999999845350112
100
AcDbArc
 50
270.0
 51
90.0
  0
ARC
  5
15C
330
1F
100
AcDbEntity
  8
B-0
  6
Continuous
 62
     3
370
    13
100
AcDbCircle
 10
-116.5422090379624
 20
88.56954154529606
 30
0.0
 40
2.999999845350112
100
AcDbArc
 50
90.0
 51
270.0
  0
ARC
  5
15D
330
1F
100
AcDbEntity
  8
B-0
  6
Continuous
 62
     3
370
    13
100
AcDbCircle
 10
-82.54214635320727
 20
42.56941452618693
 30
0.0
 40
2.999999845350112
100
AcDbArc
 50
270.0
 51
90.0
  0
ARC
  5
15E
330
1F
100
AcDbEntity
  8
B-0
  6
Continuous
 62
     3
370
    13
100
AcDbCircle
 10
-116.5422090379624
 20
42.56941452618693
 30
0.0
 40
2.999999845350112
100
AcDbArc
 50
90.0
 51
270.0
  0
CIRCLE
  5
15F
330
1F
100
AcDbEntity
  8
B-0
  6
Continuous
 62
     3
370
    13
100
AcDbCircle
 10
-34.54191375977417
 20
111.5692710110901
 30
0.0
 40
9.999999742250186
  0
LINE
  5
160
330
1F
100
AcDbEntity
  8
B-3
  6
JWW_CENTER1
 62
     7
370
    13
100
AcDbLine
 10
-273.0674940886381
 20
111.5692710110901
 30
0.0
 11
-6.016481894803691
 21
111.5692710110901
 31
0.0
  0
LINE
  5
161
330
1F
100
AcDbEntity
  8
B-3
  6
JWW_CENTER1
 62
     7
370
    13
100
AcDbLine
 10
-139.5419632477387
 20
-22.05657193390563
 30
0.0
 11
-139.5419632477387
 21
245.195113956086
 31
0.0
  0
LINE
  5
162
330
1F
100
AcDbEntity
  8
B-4
  6
Continuous
 62
     7
370
    13
100
AcDbLine
 10
-179.5420457276795
 20
-45.85528797088163
 30
0.0
 11
-99.54188076779792
 21
-45.85528797088163
 31
0.0
  0
LINE
  5
163
330
1F
100
AcDbEntity
  8
B-4
  6
Continuous
 62
     7
370
    13
100
AcDbLine
 10
-179.5420457276795
 20
-46.75528797088162
 30
0.0
 11
-179.5420457276795
 21
31.54893475686689
 31
0.0
  0
LINE
  5
164
330
1F
100
AcDbEntity
  8
B-4
  6
Continuous
 62
     7
370
    13
100
AcDbLine
 10
-99.54188076779792
 20
-46.75528797088162
 30
0.0
 11
-99.54188076779792
 21
31.54893475686689
 31
0.0
  0
LWPOLYLINE
  5
165
330
1F
100
AcDbEntity
  8
B-4
  6
Continuous
 62
     7
370
    13
100
AcDbPolyline
 90
        4
 70
     1
 43
0.3
 10
-179.3920457276795
 20
-45.85528797088163
 42
0.4142135623731
 10
-179.5420457276795
 20
-45.70528797088163
 42
0.4142135623731
 10
-179.6920457276794
 20
-45.85528797088163
 42
0.4142135623731
 10
-179.5420457276795
 20
-46.00528797088162
 42
0.4142135623731
  0
LWPOLYLINE
  5
166
330
1F
100
AcDbEntity
  8
B-4
  6
Continuous
 62
     7
370
    13
100
AcDbPolyline
 90
        4
 70
     1
 43
0.3
 10
-99.39188076779794
 20
-45.85528797088163
 42
0.4142135623731
 10
-99.54188076779792
 20
-45.70528797088163
 42
0.4142135623731
 10
-99.69188076779793
 20
-45.85528797088163
 42
0.4142135623731
 10
-99.54188076779792
 20
-46.00528797088162
 42
0.4142135623731
  0
TEXT
  5
167
330
1F
100
AcDbEntity
  8
B-4
  6
Continuous
 62
     2
370
   211
100
AcDbText
 10
-145.9169632477387
 20
-42.36328797088162
 30
0.0
 40
9.144
  1
80
 41
1.0625
  7
ＭＳ ゴシック
100
AcDbText
  0
LINE
  5
168
330
1F
100
AcDbEntity
  8
B-4
  6
Continuous
 62
     7
370
    13
100
AcDbLine
 10
-290.7436414634291
 20
42.56941452618695
 30
0.0
 11
-290.7436414634291
 21
88.56954154529606
 31
0.0
  0
LWPOLYLINE
  5
169
330
1F
100
AcDbEntity
  8
B-4
  6
Continuous
 62
     7
370
    13
100
AcDbPolyline
 90
        4
 70
     1
 43
0.3
 10
-290.5936414634291
 20
42.56941452618695
 42
0.4142135623731
 10
-290.7436414634291
 20
42.71941452618695
 42
0.4142135623731
 10
-290.893641463429
 20
42.56941452618695
 42
0.4142135623731
 10
-290.7436414634291
 20
42.41941452618694
 42
0.4142135623731
  0
LWPOLYLINE
  5
16A
330
1F
100
AcDbEntity
  8
B-4
  6
Continuous
 62
     7
370
    13
100
AcDbPolyline
 90
        4
 70
     1
 43
0.3
 10
-290.5936414634291
 20
88.56954154529606
 42
0.4142135623731
 10
-290.7436414634291
 20
88.71954154529607
 42
0.4142135623731
 10
-290.893641463429
 20
88.56954154529606
 42
0.4142135623731
 10
-290.7436414634291
 20
88.41954154529606
 42
0.4142135623731
  0
LINE
  5
16B
330
1F
100
AcDbEntity
  8
B-4
  6
Continuous
 62
     7
370
    13
100
AcDbLine
 10
-291.6436414634291
 20
42.56941452618695
 30
0.0
 11
-207.8987780703739
 21
42.56941452618693
 31
0.0
  0
LINE
  5
16C
330
1F
100
AcDbEntity
  8
B-4
  6
Continuous
 62
     7
370
    13
100
AcDbLine
 10
-291.6436414634291
 20
88.56954154529606
 30
0.0
 11
-207.8987780703739
 21
88.56954154529606
 31
0.0
  0
TEXT
  5
16D
330
1F
100
AcDbEntity
  8
B-4
  6
Continuous
 62
     2
370
   211
100
AcDbText
 10
-294.2356414634291
 20
59.1944780357415
 30
0.0
 40
9.144
  1
46
 50
90.0
 41
1.0625
  7
ＭＳ ゴシック
100
AcDbText
  0
LINE
  5
16E
330
1F
100
AcDbEntity
  8
B-4
  6
Continuous
 62
     7
370
    13
100
AcDbLine
 10
-14.54204572767947
 20
266.8125799443079
 30
0.0
 11
-34.54191375977417
 21
266.8125799443079
 31
0.0
  0
LWPOLYLINE
  5
16F
330
1F
100
AcDbEntity
  8
B-4
  6
Continuous
 62
     7
370
    13
100
AcDbPolyline
 90
        4
 70
     1
 43
0.3
 10
-14.39204572767947
 20
266.8125799443079
 42
0.4142135623731
 10
-14.54204572767947
 20
266.9625799443078
 42
0.4142135623731
 10
-14.69204572767947
 20
266.8125799443079
 42
0.4142135623731
 10
-14.54204572767947
 20
266.6625799443079
 42
0.4142135623731
  0
LWPOLYLINE
  5
170
330
1F
100
AcDbEntity
  8
B-4
  6
Continuous
 62
     7
370
    13
100
AcDbPolyline
 90
        4
 70
     1
 43
0.3
 10
-34.39191375977417
 20
266.8125799443079
 42
0.4142135623731
 10
-34.54191375977417
 20
266.9625799443078
 42
0.4142135623731
 10
-34.69191375977417
 20
266.8125799443079
 42
0.4142135623731
 10
-34.54191375977417
 20
266.6625799443079
 42
0.4142135623731
  0
LINE
  5
171
330
1F
100
AcDbEntity
  8
B-4
  6
Continuous
 62
     7
370
    13
100
AcDbLine
 10
-34.54191375977417
 20
267.7125799443079
 30
0.0
 11
-34.54191375977417
 21
131.1441166086406
 31
0.0
  0
TEXT
  5
172
330
1F
100
AcDbEntity
  8
B-4
  6
Continuous
 62
     2
370
   211
100
AcDbText
 10
-30.91697974372682
 20
270.3045799443079
 30
0.0
 40
9.144
  1
20
 41
1.0625
  7
ＭＳ ゴシック
100
AcDbText
  0
LINE
  5
173
330
1F
100
AcDbEntity
  8
B-4
  6
Continuous
 62
     7
370
    13
100
AcDbLine
 10
-264.5419302557623
 20
289.8921753228974
 30
0.0
 11
-14.54204572767947
 21
289.8921753228974
 31
0.0
  0
LWPOLYLINE
  5
174
330
1F
100
AcDbEntity
  8
B-4
  6
Continuous
 62
     7
370
    13
100
AcDbPolyline
 90
        4
 70
     1
 43
0.3
 10
-264.3919302557623
 20
289.8921753228974
 42
0.4142135623731
 10
-264.5419302557623
 20
290.0421753228974
 42
0.4142135623731
 10
-264.6919302557623
 20
289.8921753228974
 42
0.4142135623731
 10
-264.5419302557623
 20
289.7421753228974
 42
0.4142135623731
  0
LWPOLYLINE
  5
175
330
1F
100
AcDbEntity
  8
B-4
  6
Continuous
 62
     7
370
    13
100
AcDbPolyline
 90
        4
 70
     1
 43
0.3
 10
-14.39204572767947
 20
289.8921753228974
 42
0.4142135623731
 10
-14.54204572767947
 20
290.0421753228974
 42
0.4142135623731
 10
-14.69204572767947
 20
289.8921753228974
 42
0.4142135623731
 10
-14.54204572767947
 20
289.7421753228974
 42
0.4142135623731
  0
LINE
  5
176
330
1F
100
AcDbEntity
  8
B-4
  6
Continuous
 62
     7
370
    13
100
AcDbLine
 10
-264.5419302557623
 20
290.7921753228973
 30
0.0
 11
-264.5419302557623
 21
242.5695349469006
 31
0.0
  0
LINE
  5
177
330
1F
100
AcDbEntity
  8
B-4
  6
Continuous
 62
     7
370
    13
100
AcDbLine
 10
-14.54204572767947
 20
290.7921753228973
 30
0.0
 11
-14.54204572767947
 21
242.5695349469006
 31
0.0
  0
TEXT
  5
178
330
1F
100
AcDbEntity
  8
B-4
  6
Continuous
 62
     2
370
   211
100
AcDbText
 10
-149.2919879917209
 20
293.3841753228974
 30
0.0
 40
9.144
  1
250
 41
1.083333333333333
  7
ＭＳ ゴシック
100
AcDbText
  0
LINE
  5
179
330
1F
100
AcDbEntity
  8
B-5
  6
Continuous
 62
     7
370
    13
100
AcDbLine
 10
-21.93972073963363
 20
-53.33553688795322
 30
0.0
 11
33.62366682054898
 21
-53.33553688795322
 31
0.0
  0
TEXT
  5
17A
330
1F
100
AcDbEntity
  8
B-5
  6
Continuous
 62
     2
370
    13
100
AcDbText
 10
-20.86849702219575
 20
-49.35507576019117
 30
0.0
 40
9.144
  1
滑り止め
 41
1.09375
  7
ＭＳ ゴシック
100
AcDbText
  0
LINE
  5
17B
330
1F
100
AcDbEntity
  8
B-5
  6
Continuous
 62
     7
370
    13
100
AcDbLine
 10
-21.93972073963363
 20
-53.3355368879533
 30
0.0
 11
-56.11597904380233
 21
12.8978016985683
 31
0.0
  0
LINE
  5
17C
330
1F
100
AcDbEntity
  8
B-5
  6
Continuous
 62
     7
370
    13
100
AcDbLine
 10
-56.11597904380233
 20
12.8978016985683
 30
0.0
 11
-51.83631143290103
 21
6.73870719205172
 31
0.0
  0
LINE
  5
17D
330
1F
100
AcDbEntity
  8
B-5
  6
Continuous
 62
     7
370
    13
100
AcDbLine
 10
-56.11597904380233
 20
12.8978016985683
 30
0.0
 11
-53.57622852937272
 21
5.840913763759129
 31
0.0
  0
TEXT
  5
17E
330
1F
100
AcDbEntity
  8
B-5
  6
Continuous
 62
     2
370
    13
100
AcDbText
 10
38.53085464757492
 20
287.5105509504763
 30
0.0
 40
9.144
  1
指掛け穴：φ２０
 41
1.109375
  7
ＭＳ ゴシック
100
AcDbText
  0
LINE
  5
17F
330
1F
100
AcDbEntity
  8
B-5
  6
Continuous
 62
     7
370
    13
100
AcDbLine
 10
150.1644242171952
 20
282.3449362859136
 30
0.0
 11
29.9193665251023
 21
282.3449362859136
 31
0.0
  0
LINE
  5
180
330
1F
100
AcDbEntity
  8
B-5
  6
Continuous
 62
     7
370
    13
100
AcDbLine
 10
29.9193665251023
 20
282.3449362859137
 30
0.0
 11
-30.78330345603309
 21
120.8360311477083
 31
0.0
  0
LINE
  5
181
330
1F
100
AcDbEntity
  8
B-5
  6
Continuous
 62
     7
370
    13
100
AcDbLine
 10
-30.78330345603309
 20
120.8360311477083
 30
0.0
 11
-29.08359842804715
 21
128.1408927355715
 31
0.0
  0
LINE
  5
182
330
1F
100
AcDbEntity
  8
B-5
  6
Continuous
 62
     7
370
    13
100
AcDbLine
 10
-30.78330345603309
 20
120.8360311477083
 30
0.0
 11
-27.25087717165116
 21
127.452069580593
 31
0.0
  0
LINE
  5
183
330
1F
100
AcDbEntity
  8
B-0
  6
Continuous
 62
     3
370
    13
100
AcDbLine
 10
228.5712320646446
 20
236.5694359709714
 30
0.0
 11
228.5712320646446
 21
233.5693765854143
 31
0.0
  0
LINE
  5
184
330
1F
100
AcDbEntity
  8
B-0
  6
Continuous
 62
     3
370
    13
100
AcDbLine
 10
228.5712320646446
 20
-10.43093353916359
 30
0.0
 11
228.5712320646446
 21
-13.43099292472084
 31
0.0
  0
LINE
  5
185
330
1F
100
AcDbEntity
  8
B-0
  6
JWW_CENTER1
 62
     7
370
    13
100
AcDbLine
 10
206.6374733547627
 20
111.5692710110901
 30
0.0
 11
235.5052382143488
 21
111.5692710110901
 31
0.0
  0
LINE
  5
186
330
1F
100
AcDbEntity
  8
B-0
  6
Continuous
 62
     3
370
    13
100
AcDbLine
 10
218.8712940895601
 20
233.5693765854143
 30
0.0
 11
228.5712320646446
 21
233.5693765854143
 31
0.0
  0
LINE
  5
187
330
1F
100
AcDbEntity
  8
B-0
  6
Continuous
 62
     3
370
    13
100
AcDbLine
 10
216.571291450202
 20
-8.130930899805232
 30
0.0
 11
216.571291450202
 21
231.2693739460562
 31
0.0
  0
LINE
  5
188
330
1F
100
AcDbEntity
  8
B-0
  6
Continuous
 62
     3
370
    13
100
AcDbLine
 10
218.8712940895601
 20
-10.43093353916359
 30
0.0
 11
228.5712320646446
 21
-10.43093353916359
 31
0.0
  0
LINE
  5
189
330
1F
100
AcDbEntity
  8
B-0
  6
Continuous
 62
     3
370
    13
100
AcDbLine
 10
215.0713112453877
 20
198.6751158696203
 30
0.0
 11
215.0713112453877
 21
208.4639837169599
 31
0.0
  0
LINE
  5
18A
330
1F
100
AcDbEntity
  8
B-0
  6
Continuous
 62
     3
370
    13
100
AcDbLine
 10
216.1259987453877
 20
197.9719908696203
 30
0.0
 11
215.0713112453877
 21
198.6751158696203
 31
0.0
  0
LINE
  5
18B
330
1F
100
AcDbEntity
  8
B-0
  6
Continuous
 62
     3
370
    13
100
AcDbLine
 10
216.1259987453877
 20
209.1671582049244
 30
0.0
 11
215.0713112453877
 21
208.4639837169599
 31
0.0
  0
LINE
  5
18C
330
1F
100
AcDbEntity
  8
B-0
  6
Continuous
 62
     3
370
    13
100
AcDbLine
 10
212.1575588699655
 20
209.9833137159041
 30
0.0
 11
212.5006094400667
 21
209.6402631458029
 31
0.0
  0
LINE
  5
18D
330
1F
100
AcDbEntity
  8
B-0
  6
Continuous
 62
     3
370
    13
100
AcDbLine
 10
212.1575588699655
 20
197.155785870676
 30
0.0
 11
212.5006094400667
 21
197.4988364407776
 31
0.0
  0
LINE
  5
18E
330
1F
100
AcDbEntity
  8
B-0
  6
Continuous
 62
     3
370
    13
100
AcDbLine
 10
212.0713013477949
 20
198.0695316477031
 30
0.0
 11
212.5006094400667
 21
197.6402235554312
 31
0.0
  0
LINE
  5
18F
330
1F
100
AcDbEntity
  8
B-0
  6
Continuous
 62
     3
370
    13
100
AcDbLine
 10
212.0713013477949
 20
199.0695349469007
 30
0.0
 11
212.0713013477949
 21
198.0695316477031
 31
0.0
  0
LINE
  5
190
330
1F
100
AcDbEntity
  8
B-0
  6
Continuous
 62
     3
370
    13
100
AcDbLine
 10
212.0713013477949
 20
199.0695349469007
 30
0.0
 11
212.5006094400667
 21
199.4988430391726
 31
0.0
  0
LINE
  5
191
330
1F
100
AcDbEntity
  8
B-0
  6
Continuous
 62
     3
370
    13
100
AcDbLine
 10
212.0713013477949
 20
200.0695382460984
 30
0.0
 11
212.5006094400667
 21
199.6402301538265
 31
0.0
  0
LINE
  5
192
330
1F
100
AcDbEntity
  8
B-0
  6
Continuous
 62
     3
370
    13
100
AcDbLine
 10
212.0713013477949
 20
201.0695415452961
 30
0.0
 11
212.0713013477949
 21
200.0695382460984
 31
0.0
  0
LINE
  5
193
330
1F
100
AcDbEntity
  8
B-0
  6
Continuous
 62
     3
370
    13
100
AcDbLine
 10
212.0713013477949
 20
201.0695415452961
 30
0.0
 11
212.5006094400667
 21
201.4988496375679
 31
0.0
  0
LINE
  5
194
330
1F
100
AcDbEntity
  8
B-0
  6
Continuous
 62
     3
370
    13
100
AcDbLine
 10
212.0713013477949
 20
202.0695448444937
 30
0.0
 11
212.5006094400667
 21
201.6402367522216
 31
0.0
  0
LINE
  5
195
330
1F
100
AcDbEntity
  8
B-0
  6
Continuous
 62
     3
370
    13
100
AcDbLine
 10
212.0713013477949
 20
203.0695481436914
 30
0.0
 11
212.0713013477949
 21
202.0695448444937
 31
0.0
  0
LINE
  5
196
330
1F
100
AcDbEntity
  8
B-0
  6
Continuous
 62
     3
370
    13
100
AcDbLine
 10
212.0713013477949
 20
203.0695481436914
 30
0.0
 11
212.5006094400667
 21
203.4988067479986
 31
0.0
  0
LINE
  5
197
330
1F
100
AcDbEntity
  8
B-0
  6
Continuous
 62
     3
370
    13
100
AcDbLine
 10
212.0713013477949
 20
204.069551442889
 30
0.0
 11
212.5006094400667
 21
203.6402433506169
 31
0.0
  0
LINE
  5
198
330
1F
100
AcDbEntity
  8
B-0
  6
Continuous
 62
     3
370
    13
100
AcDbLine
 10
212.0713013477949
 20
205.0695547420867
 30
0.0
 11
212.0713013477949
 21
204.069551442889
 31
0.0
  0
LINE
  5
199
330
1F
100
AcDbEntity
  8
B-0
  6
Continuous
 62
     3
370
    13
100
AcDbLine
 10
212.0713013477949
 20
205.0695547420867
 30
0.0
 11
212.5006094400667
 21
205.4988133463939
 31
0.0
  0
LINE
  5
19A
330
1F
100
AcDbEntity
  8
B-0
  6
Continuous
 62
     3
370
    13
100
AcDbLine
 10
212.0713013477949
 20
206.0695085533197
 30
0.0
 11
212.5006094400667
 21
205.6402499490122
 31
0.0
  0
LINE
  5
19B
330
1F
100
AcDbEntity
  8
B-0
  6
Continuous
 62
     3
370
    13
100
AcDbLine
 10
212.0713013477949
 20
207.0695613404818
 30
0.0
 11
212.0713013477949
 21
206.0695085533197
 31
0.0
  0
LINE
  5
19C
330
1F
100
AcDbEntity
  8
B-0
  6
Continuous
 62
     3
370
    13
100
AcDbLine
 10
212.0713013477949
 20
207.0695613404818
 30
0.0
 11
212.5006094400667
 21
207.4988199447893
 31
0.0
  0
LINE
  5
19D
330
1F
100
AcDbEntity
  8
B-0
  6
Continuous
 62
     3
370
    13
100
AcDbLine
 10
212.0713013477949
 20
208.0695151517151
 30
0.0
 11
212.5006094400667
 21
207.6402565474075
 31
0.0
  0
LINE
  5
19E
330
1F
100
AcDbEntity
  8
B-0
  6
Continuous
 62
     3
370
    13
100
AcDbLine
 10
212.0713013477949
 20
209.0695679388771
 30
0.0
 11
212.0713013477949
 21
208.0695151517151
 31
0.0
  0
LINE
  5
19F
330
1F
100
AcDbEntity
  8
B-0
  6
Continuous
 62
     3
370
    13
100
AcDbLine
 10
212.0713013477949
 20
209.0695679388771
 30
0.0
 11
212.5006094400667
 21
209.4988265431846
 31
0.0
  0
LINE
  5
1A0
330
1F
100
AcDbEntity
  8
B-0
  6
Continuous
 62
     3
370
    13
100
AcDbLine
 10
215.0713112453877
 20
152.6750878264403
 30
0.0
 11
215.0713112453877
 21
162.4639556737799
 31
0.0
  0
LINE
  5
1A1
330
1F
100
AcDbEntity
  8
B-0
  6
Continuous
 62
     3
370
    13
100
AcDbLine
 10
216.1259987453877
 20
151.9719628264403
 30
0.0
 11
215.0713112453877
 21
152.6750878264403
 31
0.0
  0
LINE
  5
1A2
330
1F
100
AcDbEntity
  8
B-0
  6
Continuous
 62
     3
370
    13
100
AcDbLine
 10
216.1259987453877
 20
163.1671301617445
 30
0.0
 11
215.0713112453877
 21
162.4639556737799
 31
0.0
  0
LINE
  5
1A3
330
1F
100
AcDbEntity
  8
B-0
  6
Continuous
 62
     3
370
    13
100
AcDbLine
 10
212.1575588699655
 20
163.9832856727242
 30
0.0
 11
212.5006094400667
 21
163.6402351026229
 31
0.0
  0
LINE
  5
1A4
330
1F
100
AcDbEntity
  8
B-0
  6
Continuous
 62
     3
370
    13
100
AcDbLine
 10
212.1575588699655
 20
151.155757827496
 30
0.0
 11
212.5006094400667
 21
151.4988083975976
 31
0.0
  0
LINE
  5
1A5
330
1F
100
AcDbEntity
  8
B-0
  6
Continuous
 62
     3
370
    13
100
AcDbLine
 10
212.0713013477949
 20
152.0695036045231
 30
0.0
 11
212.5006094400667
 21
151.6401955122512
 31
0.0
  0
LINE
  5
1A6
330
1F
100
AcDbEntity
  8
B-0
  6
Continuous
 62
     3
370
    13
100
AcDbLine
 10
212.0713013477949
 20
153.0695069037208
 30
0.0
 11
212.0713013477949
 21
152.0695036045231
 31
0.0
  0
LINE
  5
1A7
330
1F
100
AcDbEntity
  8
B-0
  6
Continuous
 62
     3
370
    13
100
AcDbLine
 10
212.0713013477949
 20
153.0695069037208
 30
0.0
 11
212.5006094400667
 21
153.4988149959929
 31
0.0
  0
LINE
  5
1A8
330
1F
100
AcDbEntity
  8
B-0
  6
Continuous
 62
     3
370
    13
100
AcDbLine
 10
212.0713013477949
 20
154.0695102029185
 30
0.0
 11
212.5006094400667
 21
153.6402021106466
 31
0.0
  0
LINE
  5
1A9
330
1F
100
AcDbEntity
  8
B-0
  6
Continuous
 62
     3
370
    13
100
AcDbLine
 10
212.0713013477949
 20
155.0695135021161
 30
0.0
 11
212.0713013477949
 21
154.0695102029185
 31
0.0
  0
LINE
  5
1AA
330
1F
100
AcDbEntity
  8
B-0
  6
Continuous
 62
     3
370
    13
100
AcDbLine
 10
212.0713013477949
 20
155.0695135021161
 30
0.0
 11
212.5006094400667
 21
155.498821594388
 31
0.0
  0
LINE
  5
1AB
330
1F
100
AcDbEntity
  8
B-0
  6
Continuous
 62
     3
370
    13
100
AcDbLine
 10
212.0713013477949
 20
156.0695168013138
 30
0.0
 11
212.5006094400667
 21
155.6402087090419
 31
0.0
  0
LINE
  5
1AC
330
1F
100
AcDbEntity
  8
B-0
  6
Continuous
 62
     3
370
    13
100
AcDbLine
 10
212.0713013477949
 20
157.0695201005114
 30
0.0
 11
212.0713013477949
 21
156.0695168013138
 31
0.0
  0
LINE
  5
1AD
330
1F
100
AcDbEntity
  8
B-0
  6
Continuous
 62
     3
370
    13
100
AcDbLine
 10
212.0713013477949
 20
157.0695201005114
 30
0.0
 11
212.5006094400667
 21
157.4987787048187
 31
0.0
  0
LINE
  5
1AE
330
1F
100
AcDbEntity
  8
B-0
  6
Continuous
 62
     3
370
    13
100
AcDbLine
 10
212.0713013477949
 20
158.0695233997091
 30
0.0
 11
212.5006094400667
 21
157.6402153074369
 31
0.0
  0
LINE
  5
1AF
330
1F
100
AcDbEntity
  8
B-0
  6
Continuous
 62
     3
370
    13
100
AcDbLine
 10
212.0713013477949
 20
159.0695266989067
 30
0.0
 11
212.0713013477949
 21
158.0695233997091
 31
0.0
  0
LINE
  5
1B0
330
1F
100
AcDbEntity
  8
B-0
  6
Continuous
 62
     3
370
    13
100
AcDbLine
 10
212.0713013477949
 20
159.0695266989067
 30
0.0
 11
212.5006094400667
 21
159.498785303214
 31
0.0
  0
LINE
  5
1B1
330
1F
100
AcDbEntity
  8
B-0
  6
Continuous
 62
     3
370
    13
100
AcDbLine
 10
212.0713013477949
 20
160.0694805101398
 30
0.0
 11
212.5006094400667
 21
159.6402219058322
 31
0.0
  0
LINE
  5
1B2
330
1F
100
AcDbEntity
  8
B-0
  6
Continuous
 62
     3
370
    13
100
AcDbLine
 10
212.0713013477949
 20
161.0695332973021
 30
0.0
 11
212.0713013477949
 21
160.0694805101398
 31
0.0
  0
LINE
  5
1B3
330
1F
100
AcDbEntity
  8
B-0
  6
Continuous
 62
     3
370
    13
100
AcDbLine
 10
212.0713013477949
 20
161.0695332973021
 30
0.0
 11
212.5006094400667
 21
161.4987919016093
 31
0.0
  0
LINE
  5
1B4
330
1F
100
AcDbEntity
  8
B-0
  6
Continuous
 62
     3
370
    13
100
AcDbLine
 10
212.0713013477949
 20
162.0694871085351
 30
0.0
 11
212.5006094400667
 21
161.6402285042276
 31
0.0
  0
LINE
  5
1B5
330
1F
100
AcDbEntity
  8
B-0
  6
Continuous
 62
     3
370
    13
100
AcDbLine
 10
212.0713013477949
 20
163.0695398956971
 30
0.0
 11
212.0713013477949
 21
162.0694871085351
 31
0.0
  0
LINE
  5
1B6
330
1F
100
AcDbEntity
  8
B-0
  6
Continuous
 62
     3
370
    13
100
AcDbLine
 10
212.0713013477949
 20
163.0695398956971
 30
0.0
 11
212.5006094400667
 21
163.4987985000046
 31
0.0
  0
LINE
  5
1B7
330
1F
100
AcDbEntity
  8
B-0
  6
Continuous
 62
     3
370
    13
100
AcDbLine
 10
215.0713112453877
 20
106.674812343438
 30
0.0
 11
215.0713112453877
 21
116.4636801907776
 31
0.0
  0
LINE
  5
1B8
330
1F
100
AcDbEntity
  8
B-0
  6
Continuous
 62
     3
370
    13
100
AcDbLine
 10
216.1259987453877
 20
105.971687343438
 30
0.0
 11
215.0713112453877
 21
106.674812343438
 31
0.0
  0
LINE
  5
1B9
330
1F
100
AcDbEntity
  8
B-0
  6
Continuous
 62
     3
370
    13
100
AcDbLine
 10
216.1259987453877
 20
117.1668546787419
 30
0.0
 11
215.0713112453877
 21
116.4636801907776
 31
0.0
  0
LINE
  5
1BA
330
1F
100
AcDbEntity
  8
B-0
  6
Continuous
 62
     3
370
    13
100
AcDbLine
 10
212.1575588699655
 20
117.9830101897219
 30
0.0
 11
212.5006094400667
 21
117.6399596196203
 31
0.0
  0
LINE
  5
1BB
330
1F
100
AcDbEntity
  8
B-0
  6
Continuous
 62
     3
370
    13
100
AcDbLine
 10
212.1575588699655
 20
105.1554823444937
 30
0.0
 11
212.5006094400667
 21
105.498532914595
 31
0.0
  0
LINE
  5
1BC
330
1F
100
AcDbEntity
  8
B-0
  6
Continuous
 62
     3
370
    13
100
AcDbLine
 10
212.0713013477949
 20
106.0692281215208
 30
0.0
 11
212.5006094400667
 21
105.6399200292487
 31
0.0
  0
LINE
  5
1BD
330
1F
100
AcDbEntity
  8
B-0
  6
Continuous
 62
     3
370
    13
100
AcDbLine
 10
212.0713013477949
 20
107.0692314207182
 30
0.0
 11
212.0713013477949
 21
106.0692281215208
 31
0.0
  0
LINE
  5
1BE
330
1F
100
AcDbEntity
  8
B-0
  6
Continuous
 62
     3
370
    13
100
AcDbLine
 10
212.0713013477949
 20
107.0692314207182
 30
0.0
 11
212.5006094400667
 21
107.4985395129903
 31
0.0
  0
LINE
  5
1BF
330
1F
100
AcDbEntity
  8
B-0
  6
Continuous
 62
     3
370
    13
100
AcDbLine
 10
212.0713013477949
 20
108.0692347199161
 30
0.0
 11
212.5006094400667
 21
107.639926627644
 31
0.0
  0
LINE
  5
1C0
330
1F
100
AcDbEntity
  8
B-0
  6
Continuous
 62
     3
370
    13
100
AcDbLine
 10
212.0713013477949
 20
109.0692380191135
 30
0.0
 11
212.0713013477949
 21
108.0692347199161
 31
0.0
  0
LINE
  5
1C1
330
1F
100
AcDbEntity
  8
B-0
  6
Continuous
 62
     3
370
    13
100
AcDbLine
 10
212.0713013477949
 20
109.0692380191135
 30
0.0
 11
212.5006094400667
 21
109.4985461113854
 31
0.0
  0
LINE
  5
1C2
330
1F
100
AcDbEntity
  8
B-0
  6
Continuous
 62
     3
370
    13
100
AcDbLine
 10
212.0713013477949
 20
110.0692413183112
 30
0.0
 11
212.5006094400667
 21
109.6399332260393
 31
0.0
  0
LINE
  5
1C3
330
1F
100
AcDbEntity
  8
B-0
  6
Continuous
 62
     3
370
    13
100
AcDbLine
 10
212.0713013477949
 20
111.0692446175088
 30
0.0
 11
212.0713013477949
 21
110.0692413183112
 31
0.0
  0
LINE
  5
1C4
330
1F
100
AcDbEntity
  8
B-0
  6
Continuous
 62
     3
370
    13
100
AcDbLine
 10
212.0713013477949
 20
111.0692446175088
 30
0.0
 11
212.5006094400667
 21
111.4985032218161
 31
0.0
  0
LINE
  5
1C5
330
1F
100
AcDbEntity
  8
B-0
  6
Continuous
 62
     3
370
    13
100
AcDbLine
 10
212.0713013477949
 20
112.0692479167065
 30
0.0
 11
212.5006094400667
 21
111.6399398244346
 31
0.0
  0
LINE
  5
1C6
330
1F
100
AcDbEntity
  8
B-0
  6
Continuous
 62
     3
370
    13
100
AcDbLine
 10
212.0713013477949
 20
113.0692512159041
 30
0.0
 11
212.0713013477949
 21
112.0692479167065
 31
0.0
  0
LINE
  5
1C7
330
1F
100
AcDbEntity
  8
B-0
  6
Continuous
 62
     3
370
    13
100
AcDbLine
 10
212.0713013477949
 20
113.0692512159041
 30
0.0
 11
212.5006094400667
 21
113.4985098202114
 31
0.0
  0
LINE
  5
1C8
330
1F
100
AcDbEntity
  8
B-0
  6
Continuous
 62
     3
370
    13
100
AcDbLine
 10
212.0713013477949
 20
114.0692050271372
 30
0.0
 11
212.5006094400667
 21
113.6399464228296
 31
0.0
  0
LINE
  5
1C9
330
1F
100
AcDbEntity
  8
B-0
  6
Continuous
 62
     3
370
    13
100
AcDbLine
 10
212.0713013477949
 20
115.0692578142994
 30
0.0
 11
212.0713013477949
 21
114.0692050271372
 31
0.0
  0
LINE
  5
1CA
330
1F
100
AcDbEntity
  8
B-0
  6
Continuous
 62
     3
370
    13
100
AcDbLine
 10
212.0713013477949
 20
115.0692578142994
 30
0.0
 11
212.5006094400667
 21
115.4985164186067
 31
0.0
  0
LINE
  5
1CB
330
1F
100
AcDbEntity
  8
B-0
  6
Continuous
 62
     3
370
    13
100
AcDbLine
 10
212.0713013477949
 20
116.0692116255325
 30
0.0
 11
212.5006094400667
 21
115.639953021225
 31
0.0
  0
LINE
  5
1CC
330
1F
100
AcDbEntity
  8
B-0
  6
Continuous
 62
     3
370
    13
100
AcDbLine
 10
212.0713013477949
 20
117.0692644126948
 30
0.0
 11
212.0713013477949
 21
116.0692116255325
 31
0.0
  0
LINE
  5
1CD
330
1F
100
AcDbEntity
  8
B-0
  6
Continuous
 62
     3
370
    13
100
AcDbLine
 10
212.0713013477949
 20
117.0692644126948
 30
0.0
 11
212.5006094400667
 21
117.498523017002
 31
0.0
  0
LINE
  5
1CE
330
1F
100
AcDbEntity
  8
B-0
  6
Continuous
 62
     3
370
    13
100
AcDbLine
 10
215.0713112453877
 20
60.6750069960984
 30
0.0
 11
215.0713112453877
 21
70.46387484343799
 31
0.0
  0
LINE
  5
1CF
330
1F
100
AcDbEntity
  8
B-0
  6
Continuous
 62
     3
370
    13
100
AcDbLine
 10
216.1259987453877
 20
59.9718819960984
 30
0.0
 11
215.0713112453877
 21
60.6750069960984
 31
0.0
  0
LINE
  5
1D0
330
1F
100
AcDbEntity
  8
B-0
  6
Continuous
 62
     3
370
    13
100
AcDbLine
 10
216.1259987453877
 20
71.16704933140258
 30
0.0
 11
215.0713112453877
 21
70.46387484343799
 31
0.0
  0
LINE
  5
1D1
330
1F
100
AcDbEntity
  8
B-0
  6
Continuous
 62
     3
370
    13
100
AcDbLine
 10
212.1575588699655
 20
71.98320484238226
 30
0.0
 11
212.5006094400667
 21
71.64015427228068
 31
0.0
  0
LINE
  5
1D2
330
1F
100
AcDbEntity
  8
B-0
  6
Continuous
 62
     3
370
    13
100
AcDbLine
 10
212.1575588699655
 20
59.15567699715413
 30
0.0
 11
212.5006094400667
 21
59.49872756725543
 31
0.0
  0
LINE
  5
1D3
330
1F
100
AcDbEntity
  8
B-0
  6
Continuous
 62
     3
370
    13
100
AcDbLine
 10
212.0713013477949
 20
60.06942277418122
 30
0.0
 11
212.5006094400667
 21
59.64011468190935
 31
0.0
  0
LINE
  5
1D4
330
1F
100
AcDbEntity
  8
B-0
  6
Continuous
 62
     3
370
    13
100
AcDbLine
 10
212.0713013477949
 20
61.06942607337859
 30
0.0
 11
212.0713013477949
 21
60.06942277418122
 31
0.0
  0
LINE
  5
1D5
330
1F
100
AcDbEntity
  8
B-0
  6
Continuous
 62
     3
370
    13
100
AcDbLine
 10
212.0713013477949
 20
61.06942607337859
 30
0.0
 11
212.5006094400667
 21
61.49873416565075
 31
0.0
  0
LINE
  5
1D6
330
1F
100
AcDbEntity
  8
B-0
  6
Continuous
 62
     3
370
    13
100
AcDbLine
 10
212.0713013477949
 20
62.06942937257654
 30
0.0
 11
212.5006094400667
 21
61.64012128030438
 31
0.0
  0
LINE
  5
1D7
330
1F
100
AcDbEntity
  8
B-0
  6
Continuous
 62
     3
370
    13
100
AcDbLine
 10
212.0713013477949
 20
63.06943267177391
 30
0.0
 11
212.0713013477949
 21
62.06942937257654
 31
0.0
  0
LINE
  5
1D8
330
1F
100
AcDbEntity
  8
B-0
  6
Continuous
 62
     3
370
    13
100
AcDbLine
 10
212.0713013477949
 20
63.06943267177391
 30
0.0
 11
212.5006094400667
 21
63.49874076404606
 31
0.0
  0
LINE
  5
1D9
330
1F
100
AcDbEntity
  8
B-0
  6
Continuous
 62
     3
370
    13
100
AcDbLine
 10
212.0713013477949
 20
64.06943597097185
 30
0.0
 11
212.5006094400667
 21
63.6401278786997
 31
0.0
  0
LINE
  5
1DA
330
1F
100
AcDbEntity
  8
B-0
  6
Continuous
 62
     3
370
    13
100
AcDbLine
 10
212.0713013477949
 20
65.06943927016923
 30
0.0
 11
212.0713013477949
 21
64.06943597097185
 31
0.0
  0
LINE
  5
1DB
330
1F
100
AcDbEntity
  8
B-0
  6
Continuous
 62
     3
370
    13
100
AcDbLine
 10
212.0713013477949
 20
65.06943927016923
 30
0.0
 11
212.5006094400667
 21
65.49869787447679
 31
0.0
  0
LINE
  5
1DC
330
1F
100
AcDbEntity
  8
B-0
  6
Continuous
 62
     3
370
    13
100
AcDbLine
 10
212.0713013477949
 20
66.06944256936688
 30
0.0
 11
212.5006094400667
 21
65.64013447709502
 31
0.0
  0
LINE
  5
1DD
330
1F
100
AcDbEntity
  8
B-0
  6
Continuous
 62
     3
370
    13
100
AcDbLine
 10
212.0713013477949
 20
67.06944586856454
 30
0.0
 11
212.0713013477949
 21
66.06944256936688
 31
0.0
  0
LINE
  5
1DE
330
1F
100
AcDbEntity
  8
B-0
  6
Continuous
 62
     3
370
    13
100
AcDbLine
 10
212.0713013477949
 20
67.06944586856454
 30
0.0
 11
212.5006094400667
 21
67.4987044728721
 31
0.0
  0
LINE
  5
1DF
330
1F
100
AcDbEntity
  8
B-0
  6
Continuous
 62
     3
370
    13
100
AcDbLine
 10
212.0713013477949
 20
68.0693996797979
 30
0.0
 11
212.5006094400667
 21
67.64014107549033
 31
0.0
  0
LINE
  5
1E0
330
1F
100
AcDbEntity
  8
B-0
  6
Continuous
 62
     3
370
    13
100
AcDbLine
 10
212.0713013477949
 20
69.06945246695986
 30
0.0
 11
212.0713013477949
 21
68.0693996797979
 31
0.0
  0
LINE
  5
1E1
330
1F
100
AcDbEntity
  8
B-0
  6
Continuous
 62
     3
370
    13
100
AcDbLine
 10
212.0713013477949
 20
69.06945246695986
 30
0.0
 11
212.5006094400667
 21
69.49871107126714
 31
0.0
  0
LINE
  5
1E2
330
1F
100
AcDbEntity
  8
B-0
  6
Continuous
 62
     3
370
    13
100
AcDbLine
 10
212.0713013477949
 20
70.06940627819293
 30
0.0
 11
212.5006094400667
 21
69.64014767388537
 31
0.0
  0
LINE
  5
1E3
330
1F
100
AcDbEntity
  8
B-0
  6
Continuous
 62
     3
370
    13
100
AcDbLine
 10
212.0713013477949
 20
71.06945906535518
 30
0.0
 11
212.0713013477949
 21
70.06940627819293
 31
0.0
  0
LINE
  5
1E4
330
1F
100
AcDbEntity
  8
B-0
  6
Continuous
 62
     3
370
    13
100
AcDbLine
 10
212.0713013477949
 20
71.06945906535518
 30
0.0
 11
212.5006094400667
 21
71.49871766966245
 31
0.0
  0
LINE
  5
1E5
330
1F
100
AcDbEntity
  8
B-0
  6
Continuous
 62
     3
370
    13
100
AcDbLine
 10
215.0713112453877
 20
14.67505318486533
 30
0.0
 11
215.0713112453877
 21
24.46392103220464
 31
0.0
  0
LINE
  5
1E6
330
1F
100
AcDbEntity
  8
B-0
  6
Continuous
 62
     3
370
    13
100
AcDbLine
 10
216.1259987453877
 20
13.97192818486533
 30
0.0
 11
215.0713112453877
 21
14.67505318486533
 31
0.0
  0
LINE
  5
1E7
330
1F
100
AcDbEntity
  8
B-0
  6
Continuous
 62
     3
370
    13
100
AcDbLine
 10
216.1259987453877
 20
25.16709552016922
 30
0.0
 11
215.0713112453877
 21
24.46392103220464
 31
0.0
  0
LINE
  5
1E8
330
1F
100
AcDbEntity
  8
B-0
  6
Continuous
 62
     3
370
    13
100
AcDbLine
 10
212.1575588699655
 20
25.98325103114891
 30
0.0
 11
212.5006094400667
 21
25.6402004610479
 31
0.0
  0
LINE
  5
1E9
330
1F
100
AcDbEntity
  8
B-0
  6
Continuous
 62
     3
370
    13
100
AcDbLine
 10
212.1575588699655
 20
13.15572318592107
 30
0.0
 11
212.5006094400667
 21
13.49877375602236
 31
0.0
  0
LINE
  5
1EA
330
1F
100
AcDbEntity
  8
B-0
  6
Continuous
 62
     3
370
    13
100
AcDbLine
 10
212.1728011630397
 20
26.13715860082809
 30
0.0
 11
213.5712815526089
 21
27.06946236455283
 31
0.0
  0
LINE
  5
1EB
330
1F
100
AcDbEntity
  8
B-0
  6
Continuous
 62
     3
370
    13
100
AcDbLine
 10
213.5712815526089
 20
12.06946236455283
 30
0.0
 11
212.1728011630397
 21
13.00181561624188
 31
0.0
  0
LINE
  5
1EC
330
1F
100
AcDbEntity
  8
B-0
  6
Continuous
 62
     3
370
    13
100
AcDbLine
 10
212.0713013477949
 20
14.06946896294787
 30
0.0
 11
212.5006094400667
 21
13.640160870676
 31
0.0
  0
LINE
  5
1ED
330
1F
100
AcDbEntity
  8
B-0
  6
Continuous
 62
     3
370
    13
100
AcDbLine
 10
212.0713013477949
 20
15.0694722621458
 30
0.0
 11
212.0713013477949
 21
14.06946896294787
 31
0.0
  0
LINE
  5
1EE
330
1F
100
AcDbEntity
  8
B-0
  6
Continuous
 62
     3
370
    13
100
AcDbLine
 10
212.0713013477949
 20
15.0694722621458
 30
0.0
 11
212.5006094400667
 21
15.49878035441767
 31
0.0
  0
LINE
  5
1EF
330
1F
100
AcDbEntity
  8
B-0
  6
Continuous
 62
     3
370
    13
100
AcDbLine
 10
212.0713013477949
 20
16.06947556134319
 30
0.0
 11
212.5006094400667
 21
15.64016746907132
 31
0.0
  0
LINE
  5
1F0
330
1F
100
AcDbEntity
  8
B-0
  6
Continuous
 62
     3
370
    13
100
AcDbLine
 10
212.0713013477949
 20
17.06947886054112
 30
0.0
 11
212.0713013477949
 21
16.06947556134319
 31
0.0
  0
LINE
  5
1F1
330
1F
100
AcDbEntity
  8
B-0
  6
Continuous
 62
     3
370
    13
100
AcDbLine
 10
212.0713013477949
 20
17.06947886054112
 30
0.0
 11
212.5006094400667
 21
17.49878695281299
 31
0.0
  0
LINE
  5
1F2
330
1F
100
AcDbEntity
  8
B-0
  6
Continuous
 62
     3
370
    13
100
AcDbLine
 10
212.0713013477949
 20
18.0694821597385
 30
0.0
 11
212.5006094400667
 21
17.64017406746663
 31
0.0
  0
LINE
  5
1F3
330
1F
100
AcDbEntity
  8
B-0
  6
Continuous
 62
     3
370
    13
100
AcDbLine
 10
212.0713013477949
 20
19.06948545893616
 30
0.0
 11
212.0713013477949
 21
18.0694821597385
 31
0.0
  0
LINE
  5
1F4
330
1F
100
AcDbEntity
  8
B-0
  6
Continuous
 62
     3
370
    13
100
AcDbLine
 10
212.0713013477949
 20
19.06948545893616
 30
0.0
 11
212.5006094400667
 21
19.49874406324372
 31
0.0
  0
LINE
  5
1F5
330
1F
100
AcDbEntity
  8
B-0
  6
Continuous
 62
     3
370
    13
100
AcDbLine
 10
212.0713013477949
 20
20.06948875813382
 30
0.0
 11
212.5006094400667
 21
19.64018066586195
 31
0.0
  0
LINE
  5
1F6
330
1F
100
AcDbEntity
  8
B-0
  6
Continuous
 62
     3
370
    13
100
AcDbLine
 10
212.0713013477949
 20
21.06949205733148
 30
0.0
 11
212.0713013477949
 21
20.06948875813382
 31
0.0
  0
LINE
  5
1F7
330
1F
100
AcDbEntity
  8
B-0
  6
Continuous
 62
     3
370
    13
100
AcDbLine
 10
212.0713013477949
 20
21.06949205733148
 30
0.0
 11
212.5006094400667
 21
21.49875066163904
 31
0.0
  0
LINE
  5
1F8
330
1F
100
AcDbEntity
  8
B-0
  6
Continuous
 62
     3
370
    13
100
AcDbLine
 10
212.0713013477949
 20
22.06944586856454
 30
0.0
 11
212.5006094400667
 21
21.64018726425727
 31
0.0
  0
LINE
  5
1F9
330
1F
100
AcDbEntity
  8
B-0
  6
Continuous
 62
     3
370
    13
100
AcDbLine
 10
212.0713013477949
 20
23.06949865572679
 30
0.0
 11
212.0713013477949
 21
22.06944586856454
 31
0.0
  0
LINE
  5
1FA
330
1F
100
AcDbEntity
  8
B-0
  6
Continuous
 62
     3
370
    13
100
AcDbLine
 10
212.0713013477949
 20
23.06949865572679
 30
0.0
 11
212.5006094400667
 21
23.49875726003435
 31
0.0
  0
LINE
  5
1FB
330
1F
100
AcDbEntity
  8
B-0
  6
Continuous
 62
     3
370
    13
100
AcDbLine
 10
212.0713013477949
 20
24.06945246695986
 30
0.0
 11
212.5006094400667
 21
23.64019386265258
 31
0.0
  0
LINE
  5
1FC
330
1F
100
AcDbEntity
  8
B-0
  6
Continuous
 62
     3
370
    13
100
AcDbLine
 10
212.0713013477949
 20
25.06950525412211
 30
0.0
 11
212.0713013477949
 21
24.06945246695986
 31
0.0
  0
LINE
  5
1FD
330
1F
100
AcDbEntity
  8
B-0
  6
Continuous
 62
     3
370
    13
100
AcDbLine
 10
212.0713013477949
 20
25.06950525412211
 30
0.0
 11
212.5006094400667
 21
25.49876385842938
 31
0.0
  0
LINE
  5
1FE
330
1F
100
AcDbEntity
  8
B-0
  6
Continuous
 62
     3
370
    13
100
AcDbLine
 10
213.1260383357592
 20
210.7726962380747
 30
0.0
 11
212.1728011630397
 21
210.1372212855833
 31
0.0
  0
LINE
  5
1FF
330
1F
100
AcDbEntity
  8
B-0
  6
Continuous
 62
     3
370
    13
100
AcDbLine
 10
213.1260383357592
 20
196.3663538605408
 30
0.0
 11
212.1728011630397
 21
197.0018783009971
 31
0.0
  0
LINE
  5
200
330
1F
100
AcDbEntity
  8
B-0
  6
Continuous
 62
     3
370
    13
100
AcDbLine
 10
213.1260383357592
 20
150.3663258173609
 30
0.0
 11
212.1728011630397
 21
151.0018502578172
 31
0.0
  0
LINE
  5
201
330
1F
100
AcDbEntity
  8
B-0
  6
Continuous
 62
     3
370
    13
100
AcDbLine
 10
213.1260383357592
 20
164.7726681948947
 30
0.0
 11
212.1728011630397
 21
164.1371932424034
 31
0.0
  0
LINE
  5
202
330
1F
100
AcDbEntity
  8
B-0
  6
Continuous
 62
     3
370
    13
100
AcDbLine
 10
213.5713310405736
 20
165.6047093424877
 30
0.0
 11
213.5713310405736
 21
195.5343127129482
 31
0.0
  0
LINE
  5
203
330
1F
100
AcDbEntity
  8
B-0
  6
Continuous
 62
     3
370
    13
100
AcDbLine
 10
213.1260383357592
 20
118.7723927118921
 30
0.0
 11
212.1728011630397
 21
118.1369177594007
 31
0.0
  0
LINE
  5
204
330
1F
100
AcDbEntity
  8
B-0
  6
Continuous
 62
     3
370
    13
100
AcDbLine
 10
213.5713310405736
 20
119.6044338594854
 30
0.0
 11
213.5713310405736
 21
149.5343094137505
 31
0.0
  0
LINE
  5
205
330
1F
100
AcDbEntity
  8
B-0
  6
Continuous
 62
     3
370
    13
100
AcDbLine
 10
213.1260383357592
 20
104.3660503343586
 30
0.0
 11
212.1728011630397
 21
105.0015747748145
 31
0.0
  0
LINE
  5
206
330
1F
100
AcDbEntity
  8
B-0
  6
Continuous
 62
     3
370
    13
100
AcDbLine
 10
213.1260383357592
 20
72.77258736455283
 30
0.0
 11
212.1728011630397
 21
72.13711241206116
 31
0.0
  0
LINE
  5
207
330
1F
100
AcDbEntity
  8
B-0
  6
Continuous
 62
     3
370
    13
100
AcDbLine
 10
213.5713310405736
 20
73.60462851214581
 30
0.0
 11
213.5713310405736
 21
103.5340339307479
 31
0.0
  0
LINE
  5
208
330
1F
100
AcDbEntity
  8
B-0
  6
Continuous
 62
     3
370
    13
100
AcDbLine
 10
213.1260383357592
 20
58.36624498701897
 30
0.0
 11
212.1728011630397
 21
59.00176942747495
 31
0.0
  0
LINE
  5
209
330
1F
100
AcDbEntity
  8
B-0
  6
Continuous
 62
     3
370
    13
100
AcDbLine
 10
213.5713310405736
 20
57.53422858340829
 30
0.0
 11
213.5713310405736
 21
27.06948710853484
 31
0.0
  0
LINE
  5
20A
330
1F
100
AcDbEntity
  8
B-0
  6
Continuous
 62
     3
370
    13
100
AcDbLine
 10
218.8712940895601
 20
-13.43099292472084
 30
0.0
 11
228.5712320646446
 21
-13.43099292472084
 31
0.0
  0
LINE
  5
20B
330
1F
100
AcDbEntity
  8
B-0
  6
Continuous
 62
     3
370
    13
100
AcDbLine
 10
213.5713310405736
 20
12.06946236455283
 30
0.0
 11
213.5713310405736
 21
-8.130930899805232
 31
0.0
  0
LINE
  5
20C
330
1F
100
AcDbEntity
  8
B-0
  6
Continuous
 62
     3
370
    13
100
AcDbLine
 10
213.5713310405736
 20
211.6047868736322
 30
0.0
 11
213.5713310405736
 21
231.2693739460562
 31
0.0
  0
LINE
  5
20D
330
1F
100
AcDbEntity
  8
B-0
  6
Continuous
 62
     3
370
    13
100
AcDbLine
 10
218.8712940895601
 20
236.5694359709714
 30
0.0
 11
228.5712320646446
 21
236.5694359709714
 31
0.0
  0
ARC
  5
20E
330
1F
100
AcDbEntity
  8
B-0
  6
Continuous
 62
     3
370
    13
100
AcDbCircle
 10
218.8712940895601
 20
231.2693739460562
 30
0.0
 40
2.299999932985048
100
AcDbArc
 50
90.0
 51
180.0
  0
ARC
  5
20F
330
1F
100
AcDbEntity
  8
B-0
  6
Continuous
 62
     3
370
    13
100
AcDbCircle
 10
218.8712940895601
 20
-8.130930899805232
 30
0.0
 40
2.299999932985048
100
AcDbArc
 50
180.0
 51
270.0
  0
ARC
  5
210
330
1F
100
AcDbEntity
  8
B-0
  6
Continuous
 62
     3
370
    13
100
AcDbCircle
 10
215.5712881510043
 20
197.139900234063
 30
0.0
 40
1.000000012887491
100
AcDbArc
 50
0.0
 51
56.30958557128906
  0
ARC
  5
211
330
1F
100
AcDbEntity
  8
B-0
  6
Continuous
 62
     3
370
    13
100
AcDbCircle
 10
215.5712881510043
 20
209.9991498645529
 30
0.0
 40
1.000000012887491
100
AcDbArc
 50
303.6904144287109
 51
0.0000000000000254
  0
ARC
  5
212
330
1F
100
AcDbEntity
  8
B-0
  6
Continuous
 62
     3
370
    13
100
AcDbCircle
 10
212.4298911387577
 20
197.5695547420867
 30
0.0
 40
0.1000000012887491
100
AcDbArc
 50
315.0017700195312
 51
44.99822998046876
  0
ARC
  5
213
330
1F
100
AcDbEntity
  8
B-0
  6
Continuous
 62
     3
370
    13
100
AcDbCircle
 10
212.4298911387577
 20
199.5695613404818
 30
0.0
 40
0.1000000012887491
100
AcDbArc
 50
315.0
 51
45.0
  0
ARC
  5
214
330
1F
100
AcDbEntity
  8
B-0
  6
Continuous
 62
     3
370
    13
100
AcDbCircle
 10
212.4298911387577
 20
201.5695679388771
 30
0.0
 40
0.1000000012887491
100
AcDbArc
 50
315.0
 51
45.0
  0
ARC
  5
215
330
1F
100
AcDbEntity
  8
B-0
  6
Continuous
 62
     3
370
    13
100
AcDbCircle
 10
212.4298911387577
 20
203.5695745372724
 30
0.0
 40
0.1000000012887491
100
AcDbArc
 50
315.0
 51
45.0
  0
ARC
  5
216
330
1F
100
AcDbEntity
  8
B-0
  6
Continuous
 62
     3
370
    13
100
AcDbCircle
 10
212.4298911387577
 20
205.5695811356677
 30
0.0
 40
0.1000000012887491
100
AcDbArc
 50
315.0
 51
45.0
  0
ARC
  5
217
330
1F
100
AcDbEntity
  8
B-0
  6
Continuous
 62
     3
370
    13
100
AcDbCircle
 10
212.4298911387577
 20
207.569587734063
 30
0.0
 40
0.1000000012887491
100
AcDbArc
 50
315.0
 51
45.0
  0
ARC
  5
218
330
1F
100
AcDbEntity
  8
B-0
  6
Continuous
 62
     3
370
    13
100
AcDbCircle
 10
212.4298911387577
 20
209.5695943324583
 30
0.0
 40
0.1000000012887491
100
AcDbArc
 50
315.0
 51
45.0
  0
ARC
  5
219
330
1F
100
AcDbEntity
  8
B-0
  6
Continuous
 62
     3
370
    13
100
AcDbCircle
 10
212.2282771712746
 20
210.0539825292486
 30
0.0
 40
0.1000000012887491
100
AcDbArc
 50
123.6893768310547
 51
224.9982299804687
  0
ARC
  5
21A
330
1F
100
AcDbEntity
  8
B-0
  6
Continuous
 62
     3
370
    13
100
AcDbCircle
 10
212.2282771712746
 20
197.0850675693669
 30
0.0
 40
0.1000000012887491
100
AcDbArc
 50
135.0017700195312
 51
236.3127136230469
  0
ARC
  5
21B
330
1F
100
AcDbEntity
  8
B-0
  6
Continuous
 62
     3
370
    13
100
AcDbCircle
 10
215.5712881510043
 20
151.139872190883
 30
0.0
 40
1.000000012887491
100
AcDbArc
 50
0.0
 51
56.30958557128906
  0
ARC
  5
21C
330
1F
100
AcDbEntity
  8
B-0
  6
Continuous
 62
     3
370
    13
100
AcDbCircle
 10
215.5712881510043
 20
163.9991218213729
 30
0.0
 40
1.000000012887491
100
AcDbArc
 50
303.6904144287109
 51
0.0000000000000254
  0
ARC
  5
21D
330
1F
100
AcDbEntity
  8
B-0
  6
Continuous
 62
     3
370
    13
100
AcDbCircle
 10
212.4298911387577
 20
151.5695266989067
 30
0.0
 40
0.1000000012887491
100
AcDbArc
 50
315.0017700195312
 51
44.99822998046876
  0
ARC
  5
21E
330
1F
100
AcDbEntity
  8
B-0
  6
Continuous
 62
     3
370
    13
100
AcDbCircle
 10
212.4298911387577
 20
153.5695332973021
 30
0.0
 40
0.1000000012887491
100
AcDbArc
 50
315.0
 51
45.0
  0
ARC
  5
21F
330
1F
100
AcDbEntity
  8
B-0
  6
Continuous
 62
     3
370
    13
100
AcDbCircle
 10
212.4298911387577
 20
155.5695398956971
 30
0.0
 40
0.1000000012887491
100
AcDbArc
 50
315.0
 51
45.0
  0
ARC
  5
220
330
1F
100
AcDbEntity
  8
B-0
  6
Continuous
 62
     3
370
    13
100
AcDbCircle
 10
212.4298911387577
 20
157.5695464940924
 30
0.0
 40
0.1000000012887491
100
AcDbArc
 50
315.0
 51
45.0
  0
ARC
  5
221
330
1F
100
AcDbEntity
  8
B-0
  6
Continuous
 62
     3
370
    13
100
AcDbCircle
 10
212.4298911387577
 20
159.5695530924877
 30
0.0
 40
0.1000000012887491
100
AcDbArc
 50
315.0
 51
45.0
  0
ARC
  5
222
330
1F
100
AcDbEntity
  8
B-0
  6
Continuous
 62
     3
370
    13
100
AcDbCircle
 10
212.4298911387577
 20
161.569559690883
 30
0.0
 40
0.1000000012887491
100
AcDbArc
 50
315.0
 51
45.0
  0
ARC
  5
223
330
1F
100
AcDbEntity
  8
B-0
  6
Continuous
 62
     3
370
    13
100
AcDbCircle
 10
212.4298911387577
 20
163.5695662892784
 30
0.0
 40
0.1000000012887491
100
AcDbArc
 50
315.0
 51
45.0
  0
ARC
  5
224
330
1F
100
AcDbEntity
  8
B-0
  6
Continuous
 62
     3
370
    13
100
AcDbCircle
 10
212.2282771712746
 20
164.0539544860687
 30
0.0
 40
0.1000000012887491
100
AcDbArc
 50
123.6893768310547
 51
224.9982299804687
  0
ARC
  5
225
330
1F
100
AcDbEntity
  8
B-0
  6
Continuous
 62
     3
370
    13
100
AcDbCircle
 10
212.2282771712746
 20
151.0850395261869
 30
0.0
 40
0.1000000012887491
100
AcDbArc
 50
135.0017700195312
 51
236.3127136230469
  0
ARC
  5
226
330
1F
100
AcDbEntity
  8
B-0
  6
Continuous
 62
     3
370
    13
100
AcDbCircle
 10
215.5712881510043
 20
105.1395967078804
 30
0.0
 40
1.000000012887491
100
AcDbArc
 50
0.0
 51
56.30958557128906
  0
ARC
  5
227
330
1F
100
AcDbEntity
  8
B-0
  6
Continuous
 62
     3
370
    13
100
AcDbCircle
 10
215.5712881510043
 20
117.9988463383703
 30
0.0
 40
1.000000012887491
100
AcDbArc
 50
303.6904144287109
 51
0.0000000000000254
  0
ARC
  5
228
330
1F
100
AcDbEntity
  8
B-0
  6
Continuous
 62
     3
370
    13
100
AcDbCircle
 10
212.4298911387577
 20
105.5692512159041
 30
0.0
 40
0.1000000012887491
100
AcDbArc
 50
315.0017700195312
 51
44.99822998046876
  0
ARC
  5
229
330
1F
100
AcDbEntity
  8
B-0
  6
Continuous
 62
     3
370
    13
100
AcDbCircle
 10
212.4298911387577
 20
107.5692578142994
 30
0.0
 40
0.1000000012887491
100
AcDbArc
 50
315.0
 51
45.0
  0
ARC
  5
22A
330
1F
100
AcDbEntity
  8
B-0
  6
Continuous
 62
     3
370
    13
100
AcDbCircle
 10
212.4298911387577
 20
109.5692644126948
 30
0.0
 40
0.1000000012887491
100
AcDbArc
 50
315.0
 51
45.0
  0
ARC
  5
22B
330
1F
100
AcDbEntity
  8
B-0
  6
Continuous
 62
     3
370
    13
100
AcDbCircle
 10
212.4298911387577
 20
111.5692710110901
 30
0.0
 40
0.1000000012887491
100
AcDbArc
 50
315.0
 51
45.0
  0
ARC
  5
22C
330
1F
100
AcDbEntity
  8
B-0
  6
Continuous
 62
     3
370
    13
100
AcDbCircle
 10
212.4298911387577
 20
113.5692776094854
 30
0.0
 40
0.1000000012887491
100
AcDbArc
 50
315.0
 51
45.0
  0
ARC
  5
22D
330
1F
100
AcDbEntity
  8
B-0
  6
Continuous
 62
     3
370
    13
100
AcDbCircle
 10
212.4298911387577
 20
115.5692842078804
 30
0.0
 40
0.1000000012887491
100
AcDbArc
 50
315.0
 51
45.0
  0
ARC
  5
22E
330
1F
100
AcDbEntity
  8
B-0
  6
Continuous
 62
     3
370
    13
100
AcDbCircle
 10
212.4298911387577
 20
117.5692908062757
 30
0.0
 40
0.1000000012887491
100
AcDbArc
 50
315.0
 51
45.0
  0
ARC
  5
22F
330
1F
100
AcDbEntity
  8
B-0
  6
Continuous
 62
     3
370
    13
100
AcDbCircle
 10
212.2282771712746
 20
118.0536790030661
 30
0.0
 40
0.1000000012887491
100
AcDbArc
 50
123.6893768310547
 51
224.9982299804687
  0
ARC
  5
230
330
1F
100
AcDbEntity
  8
B-0
  6
Continuous
 62
     3
370
    13
100
AcDbCircle
 10
212.2282771712746
 20
105.0847640431846
 30
0.0
 40
0.1000000012887491
100
AcDbArc
 50
135.0017700195312
 51
236.3127136230469
  0
ARC
  5
231
330
1F
100
AcDbEntity
  8
B-0
  6
Continuous
 62
     3
370
    13
100
AcDbCircle
 10
215.5712881510043
 20
59.13979136054112
 30
0.0
 40
1.000000012887491
100
AcDbArc
 50
0.0
 51
56.30958557128906
  0
ARC
  5
232
330
1F
100
AcDbEntity
  8
B-0
  6
Continuous
 62
     3
370
    13
100
AcDbCircle
 10
215.5712881510043
 20
71.99904099103068
 30
0.0
 40
1.000000012887491
100
AcDbArc
 50
303.6904144287109
 51
0.0000000000000254
  0
ARC
  5
233
330
1F
100
AcDbEntity
  8
B-0
  6
Continuous
 62
     3
370
    13
100
AcDbCircle
 10
212.4298911387577
 20
59.56944586856454
 30
0.0
 40
0.1000000012887491
100
AcDbArc
 50
315.0017700195312
 51
44.99822998046876
  0
ARC
  5
234
330
1F
100
AcDbEntity
  8
B-0
  6
Continuous
 62
     3
370
    13
100
AcDbCircle
 10
212.4298911387577
 20
61.56945246695986
 30
0.0
 40
0.1000000012887491
100
AcDbArc
 50
315.0
 51
45.0
  0
ARC
  5
235
330
1F
100
AcDbEntity
  8
B-0
  6
Continuous
 62
     3
370
    13
100
AcDbCircle
 10
212.4298911387577
 20
63.56945906535518
 30
0.0
 40
0.1000000012887491
100
AcDbArc
 50
315.0
 51
45.0
  0
ARC
  5
236
330
1F
100
AcDbEntity
  8
B-0
  6
Continuous
 62
     3
370
    13
100
AcDbCircle
 10
212.4298911387577
 20
65.56946566375049
 30
0.0
 40
0.1000000012887491
100
AcDbArc
 50
315.0
 51
45.0
  0
ARC
  5
237
330
1F
100
AcDbEntity
  8
B-0
  6
Continuous
 62
     3
370
    13
100
AcDbCircle
 10
212.4298911387577
 20
67.56947226214581
 30
0.0
 40
0.1000000012887491
100
AcDbArc
 50
315.0
 51
45.0
  0
ARC
  5
238
330
1F
100
AcDbEntity
  8
B-0
  6
Continuous
 62
     3
370
    13
100
AcDbCircle
 10
212.4298911387577
 20
69.56947886054112
 30
0.0
 40
0.1000000012887491
100
AcDbArc
 50
315.0
 51
45.0
  0
ARC
  5
239
330
1F
100
AcDbEntity
  8
B-0
  6
Continuous
 62
     3
370
    13
100
AcDbCircle
 10
212.4298911387577
 20
71.56948545893616
 30
0.0
 40
0.1000000012887491
100
AcDbArc
 50
315.0
 51
45.0
  0
ARC
  5
23A
330
1F
100
AcDbEntity
  8
B-0
  6
Continuous
 62
     3
370
    13
100
AcDbCircle
 10
212.2282771712746
 20
72.05387365572679
 30
0.0
 40
0.1000000012887491
100
AcDbArc
 50
123.6893768310547
 51
224.9982299804687
  0
ARC
  5
23B
330
1F
100
AcDbEntity
  8
B-0
  6
Continuous
 62
     3
370
    13
100
AcDbCircle
 10
212.2282771712746
 20
59.08495869584502
 30
0.0
 40
0.1000000012887491
100
AcDbArc
 50
135.0017700195312
 51
236.3127136230469
  0
ARC
  5
23C
330
1F
100
AcDbEntity
  8
B-0
  6
Continuous
 62
     3
370
    13
100
AcDbCircle
 10
215.5712881510043
 20
13.13983754930778
 30
0.0
 40
1.000000012887491
100
AcDbArc
 50
0.0
 51
56.30958557128906
  0
ARC
  5
23D
330
1F
100
AcDbEntity
  8
B-0
  6
Continuous
 62
     3
370
    13
100
AcDbCircle
 10
215.5712881510043
 20
25.9990871797979
 30
0.0
 40
1.000000012887491
100
AcDbArc
 50
303.6904144287109
 51
0.0000000000000254
  0
ARC
  5
23E
330
1F
100
AcDbEntity
  8
B-0
  6
Continuous
 62
     3
370
    13
100
AcDbCircle
 10
212.4298911387577
 20
13.56949205733148
 30
0.0
 40
0.1000000012887491
100
AcDbArc
 50
315.0017700195312
 51
44.99822998046876
  0
ARC
  5
23F
330
1F
100
AcDbEntity
  8
B-0
  6
Continuous
 62
     3
370
    13
100
AcDbCircle
 10
212.4298911387577
 20
15.56949865572679
 30
0.0
 40
0.1000000012887491
100
AcDbArc
 50
315.0
 51
45.0
  0
ARC
  5
240
330
1F
100
AcDbEntity
  8
B-0
  6
Continuous
 62
     3
370
    13
100
AcDbCircle
 10
212.4298911387577
 20
17.56950525412211
 30
0.0
 40
0.1000000012887491
100
AcDbArc
 50
315.0
 51
45.0
  0
ARC
  5
241
330
1F
100
AcDbEntity
  8
B-0
  6
Continuous
 62
     3
370
    13
100
AcDbCircle
 10
212.4298911387577
 20
19.56951185251714
 30
0.0
 40
0.1000000012887491
100
AcDbArc
 50
315.0
 51
45.0
  0
ARC
  5
242
330
1F
100
AcDbEntity
  8
B-0
  6
Continuous
 62
     3
370
    13
100
AcDbCircle
 10
212.4298911387577
 20
21.56951845091245
 30
0.0
 40
0.1000000012887491
100
AcDbArc
 50
315.0
 51
45.0
  0
ARC
  5
243
330
1F
100
AcDbEntity
  8
B-0
  6
Continuous
 62
     3
370
    13
100
AcDbCircle
 10
212.4298911387577
 20
23.56952504930777
 30
0.0
 40
0.1000000012887491
100
AcDbArc
 50
315.0
 51
45.0
  0
ARC
  5
244
330
1F
100
AcDbEntity
  8
B-0
  6
Continuous
 62
     3
370
    13
100
AcDbCircle
 10
212.4298911387577
 20
25.56953164770309
 30
0.0
 40
0.1000000012887491
100
AcDbArc
 50
315.0
 51
45.0
  0
ARC
  5
245
330
1F
100
AcDbEntity
  8
B-0
  6
Continuous
 62
     3
370
    13
100
AcDbCircle
 10
212.2282771712746
 20
26.05391984449372
 30
0.0
 40
0.1000000012887491
100
AcDbArc
 50
123.6893768310547
 51
224.9982299804687
  0
ARC
  5
246
330
1F
100
AcDbEntity
  8
B-0
  6
Continuous
 62
     3
370
    13
100
AcDbCircle
 10
212.2282771712746
 20
13.08500488461195
 30
0.0
 40
0.1000000012887491
100
AcDbArc
 50
135.0017700195312
 51
236.3127136230469
  0
ARC
  5
247
330
1F
100
AcDbEntity
  8
B-0
  6
Continuous
 62
     3
370
    13
100
AcDbCircle
 10
212.5713277413758
 20
211.6047868736322
 30
0.0
 40
1.000000012887491
100
AcDbArc
 50
303.6892852783203
 51
0.0
  0
ARC
  5
248
330
1F
100
AcDbEntity
  8
B-0
  6
Continuous
 62
     3
370
    13
100
AcDbCircle
 10
212.5713277413758
 20
195.5343127129482
 30
0.0
 40
1.000000012887491
100
AcDbArc
 50
0.0
 51
56.30914306640624
  0
ARC
  5
249
330
1F
100
AcDbEntity
  8
B-0
  6
Continuous
 62
     3
370
    13
100
AcDbCircle
 10
212.5713277413758
 20
149.5343094137505
 30
0.0
 40
1.000000012887491
100
AcDbArc
 50
0.0
 51
56.30836486816406
  0
ARC
  5
24A
330
1F
100
AcDbEntity
  8
B-0
  6
Continuous
 62
     3
370
    13
100
AcDbCircle
 10
212.5713277413758
 20
165.6047093424877
 30
0.0
 40
1.000000012887491
100
AcDbArc
 50
303.6908569335938
 51
0.0
  0
ARC
  5
24B
330
1F
100
AcDbEntity
  8
B-0
  6
Continuous
 62
     3
370
    13
100
AcDbCircle
 10
212.5713277413758
 20
119.6044338594854
 30
0.0
 40
1.000000012887491
100
AcDbArc
 50
303.6908569335938
 51
0.0
  0
ARC
  5
24C
330
1F
100
AcDbEntity
  8
B-0
  6
Continuous
 62
     3
370
    13
100
AcDbCircle
 10
212.5713277413758
 20
103.5340339307479
 30
0.0
 40
1.000000012887491
100
AcDbArc
 50
0.0
 51
56.30836486816406
  0
ARC
  5
24D
330
1F
100
AcDbEntity
  8
B-0
  6
Continuous
 62
     3
370
    13
100
AcDbCircle
 10
212.5713277413758
 20
73.60462851214581
 30
0.0
 40
1.000000012887491
100
AcDbArc
 50
303.6908569335938
 51
0.0
  0
ARC
  5
24E
330
1F
100
AcDbEntity
  8
B-0
  6
Continuous
 62
     3
370
    13
100
AcDbCircle
 10
212.5713277413758
 20
57.53422858340829
 30
0.0
 40
1.000000012887491
100
AcDbArc
 50
0.0
 51
56.30836486816406
  0
ARC
  5
24F
330
1F
100
AcDbEntity
  8
B-0
  6
Continuous
 62
     3
370
    13
100
AcDbCircle
 10
218.8712940895601
 20
-8.130930899805232
 30
0.0
 40
5.300000164959883
100
AcDbArc
 50
180.0
 51
270.0
  0
ARC
  5
250
330
1F
100
AcDbEntity
  8
B-0
  6
Continuous
 62
     3
370
    13
100
AcDbCircle
 10
218.8712940895601
 20
231.2693739460562
 30
0.0
 40
5.300000164959883
100
AcDbArc
 50
90.0
 51
180.0
  0
LINE
  5
251
330
1F
100
AcDbEntity
  8
B-4
  6
Continuous
 62
     7
370
    13
100
AcDbLine
 10
213.5712939246002
 20
271.5292808258155
 30
0.0
 11
228.5712320646446
 21
271.5292808258155
 31
0.0
  0
LWPOLYLINE
  5
252
330
1F
100
AcDbEntity
  8
B-4
  6
Continuous
 62
     7
370
    13
100
AcDbPolyline
 90
        4
 70
     1
 43
0.3
 10
213.7212939246002
 20
271.5292808258155
 42
0.4142135623731
 10
213.5712939246002
 20
271.6792808258155
 42
0.4142135623731
 10
213.4212939246002
 20
271.5292808258155
 42
0.4142135623731
 10
213.5712939246002
 20
271.3792808258154
 42
0.4142135623731
  0
LWPOLYLINE
  5
253
330
1F
100
AcDbEntity
  8
B-4
  6
Continuous
 62
     7
370
    13
100
AcDbPolyline
 90
        4
 70
     1
 43
0.3
 10
228.7212320646446
 20
271.5292808258155
 42
0.4142135623731
 10
228.5712320646446
 20
271.6792808258155
 42
0.4142135623731
 10
228.4212320646446
 20
271.5292808258155
 42
0.4142135623731
 10
228.5712320646446
 20
271.3792808258154
 42
0.4142135623731
  0
LINE
  5
254
330
1F
100
AcDbEntity
  8
B-4
  6
Continuous
 62
     7
370
    13
100
AcDbLine
 10
228.5712320646446
 20
272.4292808258154
 30
0.0
 11
228.5712320646446
 21
242.5694359709714
 31
0.0
  0
TEXT
  5
255
330
1F
100
AcDbEntity
  8
B-4
  6
Continuous
 62
     2
370
   211
100
AcDbText
 10
214.6962629946224
 20
275.0212808258154
 30
0.0
 40
9.144
  1
15
 41
1.062500000000004
  7
ＭＳ ゴシック
100
AcDbText
  0
LINE
  5
256
330
1F
100
AcDbEntity
  8
B-4
  6
Continuous
 62
     7
370
    13
100
AcDbLine
 10
213.5712939246002
 20
272.4292808258154
 30
0.0
 11
213.5712939246002
 21
242.5694359709714
 31
0.0
  0
LINE
  5
257
330
1F
100
AcDbEntity
  8
B-4
  6
Continuous
 62
     7
370
    13
100
AcDbLine
 10
213.5713310405736
 20
40.42611755602407
 30
0.0
 11
216.571291450202
 21
40.42611755602407
 31
0.0
  0
LWPOLYLINE
  5
258
330
1F
100
AcDbEntity
  8
B-4
  6
Continuous
 62
     7
370
    13
100
AcDbPolyline
 90
        4
 70
     1
 43
0.3
 10
213.7213310405736
 20
40.42611755602407
 42
0.4142135623731
 10
213.5713310405736
 20
40.57611755602407
 42
0.4142135623731
 10
213.4213310405736
 20
40.42611755602407
 42
0.4142135623731
 10
213.5713310405736
 20
40.27611755602406
 42
0.4142135623731
  0
LWPOLYLINE
  5
259
330
1F
100
AcDbEntity
  8
B-4
  6
Continuous
 62
     7
370
    13
100
AcDbPolyline
 90
        4
 70
     1
 43
0.3
 10
216.7212914502019
 20
40.42611755602407
 42
0.4142135623731
 10
216.571291450202
 20
40.57611755602407
 42
0.4142135623731
 10
216.4212914502019
 20
40.42611755602407
 42
0.4142135623731
 10
216.571291450202
 20
40.27611755602406
 42
0.4142135623731
  0
TEXT
  5
25A
330
1F
100
AcDbEntity
  8
B-4
  6
Continuous
 62
     2
370
   211
100
AcDbText
 10
200.5230039368482
 20
43.91811755602406
 30
0.0
 40
9.144
  1
3
  7
ＭＳ ゴシック
100
AcDbText
  0
LINE
  5
25B
330
1F
100
AcDbEntity
  8
B-4
  6
Continuous
 62
     7
370
    13
100
AcDbLine
 10
213.5713310405736
 20
40.42611755602407
 30
0.0
 11
196.8100599514216
 21
40.42611755602407
 31
0.0
  0
LINE
  5
25C
330
1F
100
AcDbEntity
  8
B-4
  6
Continuous
 62
     7
370
    13
100
AcDbLine
 10
166.5382068444357
 20
-13.43093106476512
 30
0.0
 11
166.5382068444357
 21
236.5694359709714
 31
0.0
  0
LWPOLYLINE
  5
25D
330
1F
100
AcDbEntity
  8
B-4
  6
Continuous
 62
     7
370
    13
100
AcDbPolyline
 90
        4
 70
     1
 43
0.3
 10
166.6882068444357
 20
-13.43093106476512
 42
0.4142135623731
 10
166.5382068444357
 20
-13.28093106476512
 42
0.4142135623731
 10
166.3882068444357
 20
-13.43093106476512
 42
0.4142135623731
 10
166.5382068444357
 20
-13.58093106476511
 42
0.4142135623731
  0
LWPOLYLINE
  5
25E
330
1F
100
AcDbEntity
  8
B-4
  6
Continuous
 62
     7
370
    13
100
AcDbPolyline
 90
        4
 70
     1
 43
0.3
 10
166.6882068444357
 20
236.5694359709714
 42
0.4142135623731
 10
166.5382068444357
 20
236.7194359709714
 42
0.4142135623731
 10
166.3882068444357
 20
236.5694359709714
 42
0.4142135623731
 10
166.5382068444357
 20
236.4194359709714
 42
0.4142135623731
  0
TEXT
  5
25F
330
1F
100
AcDbEntity
  8
B-4
  6
Continuous
 62
     2
370
   211
100
AcDbText
 10
163.0462068444357
 20
101.8192524531032
 30
0.0
 40
9.144
  1
250
 50
90.0
 41
1.083333333333333
  7
ＭＳ ゴシック
100
AcDbText
  0
LINE
  5
260
330
1F
100
AcDbEntity
  8
B-4
  6
Continuous
 62
     7
370
    13
100
AcDbLine
 10
165.6382068444357
 20
236.5694359709714
 30
0.0
 11
206.6308710811799
 21
236.5694359709714
 31
0.0
  0
LINE
  5
261
330
1F
100
AcDbEntity
  8
B-4
  6
Continuous
 62
     7
370
    13
100
AcDbLine
 10
165.6382068444357
 20
-13.43093106476512
 30
0.0
 11
206.6308710811799
 21
-13.43093106476512
 31
0.0
  0
LINE
  5
262
330
1F
100
AcDbEntity
  8
2-0
  6
Continuous
 62
     3
370
    13
100
AcDbLine
 10
-51.68955594703635
 20
-230.6843271656782
 30
0.0
 11
7.043774149941044
 21
-230.6843271656782
 31
0.0
  0
LINE
  5
263
330
1F
100
AcDbEntity
  8
2-0
  6
Continuous
 62
     3
370
    13
100
AcDbLine
 10
-55.90828049608331
 20
-237.0125452207258
 30
0.0
 11
-51.68955594703635
 21
-230.6843271656782
 31
0.0
  0
LINE
  5
264
330
1F
100
AcDbEntity
  8
2-0
  6
Continuous
 62
     3
370
    13
100
AcDbLine
 10
11.2627086693517
 20
-237.0125452207258
 30
0.0
 11
7.043774149941044
 21
-230.6843271656782
 31
0.0
  0
LINE
  5
265
330
1F
100
AcDbEntity
  8
2-Fﾚｲﾔ
  6
Continuous
 62
     7
370
    13
100
AcDbLine
 10
-19.32283434087395
 20
-206.6843208913112
 30
0.0
 11
-19.32283434087395
 21
-187.9803183636545
 31
0.0
  0
LINE
  5
266
330
1F
100
AcDbEntity
  8
2-Fﾚｲﾔ
  6
Continuous
 62
     7
370
    13
100
AcDbLine
 10
-25.32273748585766
 20
-206.6843208913112
 30
0.0
 11
-25.32273748585766
 21
-187.9803183636545
 31
0.0
  0
LINE
  5
267
330
1F
100
AcDbEntity
  8
2-Fﾚｲﾔ
  6
Continuous
 62
     7
370
    13
100
AcDbLine
 10
-31.32285060120506
 20
-206.6843208913112
 30
0.0
 11
-31.32285060120506
 21
-187.9803183636545
 31
0.0
  0
LINE
  5
268
330
1F
100
AcDbEntity
  8
2-0
  6
Continuous
 62
     3
370
    13
100
AcDbLine
 10
-60.90053586529172
 20
-239.6843393609266
 30
0.0
 11
-92.70285713361648
 21
-239.6843393609266
 31
0.0
  0
LINE
  5
269
330
1F
100
AcDbEntity
  8
2-0
  6
Continuous
 62
     3
370
    13
100
AcDbLine
 10
16.25496403856027
 20
-239.6843393609266
 30
0.0
 11
48.05718032170302
 21
-239.6843393609266
 31
0.0
  0
LINE
  5
26A
330
1F
100
AcDbEntity
  8
2-0
  6
Continuous
 62
     3
370
    13
100
AcDbLine
 10
16.15974247858645
 20
-213.201853475601
 30
0.0
 11
14.10150798764329
 21
-215.2600617202488
 31
0.0
  0
LINE
  5
26B
330
1F
100
AcDbEntity
  8
2-0
  6
Continuous
 62
     3
370
    13
100
AcDbLine
 10
-60.80531430531789
 20
-213.2018272293055
 30
0.0
 11
-58.74707981437473
 21
-215.2600354739533
 31
0.0
  0
LINE
  5
26C
330
1F
100
AcDbEntity
  8
2-0
  6
Continuous
 62
     3
370
    13
100
AcDbLine
 10
48.05718032170302
 20
-221.6843412167252
 30
0.0
 11
22.67711758510342
 21
-221.6843412167252
 31
0.0
  0
LINE
  5
26D
330
1F
100
AcDbEntity
  8
2-0
  6
Continuous
 62
     3
370
    13
100
AcDbLine
 10
17.08329712366822
 20
-213.2932955690268
 30
0.0
 11
22.67711758510342
 21
-221.6843412167252
 31
0.0
  0
LINE
  5
26E
330
1F
100
AcDbEntity
  8
2-0
  6
Continuous
 62
     3
370
    13
100
AcDbLine
 10
-67.32289938219873
 20
-221.6843412167252
 30
0.0
 11
-92.70285713361648
 21
-221.6843412167252
 31
0.0
  0
LINE
  5
26F
330
1F
100
AcDbEntity
  8
2-0
  6
Continuous
 62
     3
370
    13
100
AcDbLine
 10
-67.32289938219873
 20
-221.6843412167252
 30
0.0
 11
-61.72886895039966
 21
-213.2932955690268
 31
0.0
  0
LINE
  5
270
330
1F
100
AcDbEntity
  8
2-0
  6
Continuous
 62
     3
370
    13
100
AcDbLine
 10
-55.32288312186745
 20
-212.6843290214769
 30
0.0
 11
-57.89858957434404
 21
-215.2600354739533
 31
0.0
  0
LINE
  5
271
330
1F
100
AcDbEntity
  8
2-0
  6
Continuous
 62
     3
370
    13
100
AcDbLine
 10
-49.32277000652005
 20
-212.6843290214769
 30
0.0
 11
-55.32288312186745
 21
-212.6843290214769
 31
0.0
  0
LINE
  5
272
330
1F
100
AcDbEntity
  8
2-0
  6
Continuous
 62
     3
370
    13
100
AcDbLine
 10
-49.32277000652005
 20
-212.6843290214769
 30
0.0
 11
-46.74706355404362
 21
-215.2600617202488
 31
0.0
  0
LINE
  5
273
330
1F
100
AcDbEntity
  8
2-0
  6
Continuous
 62
     3
370
    13
100
AcDbLine
 10
-43.32286686153634
 20
-212.6843290214769
 30
0.0
 11
-45.89857331401276
 21
-215.2600617202488
 31
0.0
  0
LINE
  5
274
330
1F
100
AcDbEntity
  8
2-0
  6
Continuous
 62
     3
370
    13
100
AcDbLine
 10
-37.32275374618877
 20
-212.6843290214769
 30
0.0
 11
-43.32286686153634
 21
-212.6843290214769
 31
0.0
  0
LINE
  5
275
330
1F
100
AcDbEntity
  8
2-0
  6
Continuous
 62
     3
370
    13
100
AcDbLine
 10
-37.32275374618877
 20
-212.6843290214769
 30
0.0
 11
-34.74704729371234
 21
-215.2600617202488
 31
0.0
  0
LINE
  5
276
330
1F
100
AcDbEntity
  8
2-0
  6
Continuous
 62
     3
370
    13
100
AcDbLine
 10
-31.32285060120506
 20
-212.6843290214769
 30
0.0
 11
-33.89855705368166
 21
-215.2600617202488
 31
0.0
  0
LINE
  5
277
330
1F
100
AcDbEntity
  8
2-0
  6
Continuous
 62
     3
370
    13
100
AcDbLine
 10
-25.32273748585766
 20
-212.6843290214769
 30
0.0
 11
-31.32285060120506
 21
-212.6843290214769
 31
0.0
  0
LINE
  5
278
330
1F
100
AcDbEntity
  8
2-0
  6
Continuous
 62
     3
370
    13
100
AcDbLine
 10
-25.32273748585766
 20
-212.6843290214769
 30
0.0
 11
-22.74703103338106
 21
-215.2600617202488
 31
0.0
  0
LINE
  5
279
330
1F
100
AcDbEntity
  8
2-0
  6
Continuous
 62
     3
370
    13
100
AcDbLine
 10
-19.32283434087395
 20
-212.6843290214769
 30
0.0
 11
-21.89854079335038
 21
-215.2600617202488
 31
0.0
  0
LINE
  5
27A
330
1F
100
AcDbEntity
  8
2-0
  6
Continuous
 62
     3
370
    13
100
AcDbLine
 10
-13.32272122552638
 20
-212.6843290214769
 30
0.0
 11
-19.32283434087395
 21
-212.6843290214769
 31
0.0
  0
LINE
  5
27B
330
1F
100
AcDbEntity
  8
2-0
  6
Continuous
 62
     3
370
    13
100
AcDbLine
 10
-13.32272122552638
 20
-212.6843290214769
 30
0.0
 11
-10.74701477304995
 21
-215.2600617202488
 31
0.0
  0
LINE
  5
27C
330
1F
100
AcDbEntity
  8
2-0
  6
Continuous
 62
     3
370
    13
100
AcDbLine
 10
-7.322818080542675
 20
-212.6843290214769
 30
0.0
 11
-9.8985245330191
 21
-215.2600617202488
 31
0.0
  0
LINE
  5
27D
330
1F
100
AcDbEntity
  8
2-0
  6
Continuous
 62
     3
370
    13
100
AcDbLine
 10
-1.322704965195271
 20
-212.6843290214769
 30
0.0
 11
-7.322818080542675
 21
-212.6843290214769
 31
0.0
  0
LINE
  5
27E
330
1F
100
AcDbEntity
  8
2-0
  6
Continuous
 62
     3
370
    13
100
AcDbLine
 10
-1.322704965195271
 20
-212.6843290214769
 30
0.0
 11
1.253001487281324
 21
-215.2600617202488
 31
0.0
  0
LINE
  5
27F
330
1F
100
AcDbEntity
  8
2-0
  6
Continuous
 62
     3
370
    13
100
AcDbLine
 10
4.677198179788434
 20
-212.6843290214769
 30
0.0
 11
2.101491727312009
 21
-215.2600617202488
 31
0.0
  0
LINE
  5
280
330
1F
100
AcDbEntity
  8
2-0
  6
Continuous
 62
     3
370
    13
100
AcDbLine
 10
10.67731129513601
 20
-212.6843290214769
 30
0.0
 11
4.677198179788434
 21
-212.6843290214769
 31
0.0
  0
LINE
  5
281
330
1F
100
AcDbEntity
  8
2-0
  6
Continuous
 62
     3
370
    13
100
AcDbLine
 10
10.67731129513601
 20
-212.6843290214769
 30
0.0
 11
13.25301774761243
 21
-215.2600617202488
 31
0.0
  0
LINE
  5
282
330
1F
100
AcDbEntity
  8
2-Fﾚｲﾔ
  6
Continuous
 62
     7
370
    13
100
AcDbLine
 10
-72.03652407867247
 20
-215.6842805939687
 30
0.0
 11
-117.0771618277147
 21
-215.6842805939687
 31
0.0
  0
ARC
  5
283
330
1F
100
AcDbEntity
  8
2-0
  6
Continuous
 62
     3
370
    13
100
AcDbCircle
 10
-60.90053586529172
 20
-233.684331230761
 30
0.0
 40
5.999999928198266
100
AcDbArc
 50
270.0
 51
326.3095855712891
  0
ARC
  5
284
330
1F
100
AcDbEntity
  8
2-0
  6
Continuous
 62
     3
370
    13
100
AcDbCircle
 10
16.25496403856027
 20
-233.684331230761
 30
0.0
 40
5.999999928198266
100
AcDbArc
 50
213.690414428711
 51
270.0
  0
ARC
  5
285
330
1F
100
AcDbEntity
  8
2-0
  6
Continuous
 62
     3
370
    13
100
AcDbCircle
 10
-58.3228346943593
 20
-214.8357641076424
 30
0.0
 40
0.6000000030722857
100
AcDbArc
 50
225.0017700195312
 51
314.9982299804688
  0
ARC
  5
286
330
1F
100
AcDbEntity
  8
2-0
  6
Continuous
 62
     3
370
    13
100
AcDbCircle
 10
-46.32281843402819
 20
-214.8358166002334
 30
0.0
 40
0.6000000030722857
100
AcDbArc
 50
225.0
 51
315.0
  0
ARC
  5
287
330
1F
100
AcDbEntity
  8
2-0
  6
Continuous
 62
     3
370
    13
100
AcDbCircle
 10
-34.32280217369691
 20
-214.8358166002334
 30
0.0
 40
0.6000000030722857
100
AcDbArc
 50
225.0
 51
315.0
  0
ARC
  5
288
330
1F
100
AcDbEntity
  8
2-0
  6
Continuous
 62
     3
370
    13
100
AcDbCircle
 10
-22.32278591336581
 20
-214.8358166002334
 30
0.0
 40
0.6000000030722857
100
AcDbArc
 50
225.0
 51
315.0
  0
ARC
  5
289
330
1F
100
AcDbEntity
  8
2-0
  6
Continuous
 62
     3
370
    13
100
AcDbCircle
 10
-10.32276965303453
 20
-214.8358166002334
 30
0.0
 40
0.6000000030722857
100
AcDbArc
 50
225.0
 51
315.0
  0
ARC
  5
28A
330
1F
100
AcDbEntity
  8
2-0
  6
Continuous
 62
     3
370
    13
100
AcDbCircle
 10
1.677246607296581
 20
-214.8358166002334
 30
0.0
 40
0.6000000030722857
100
AcDbArc
 50
225.0
 51
315.0
  0
ARC
  5
28B
330
1F
100
AcDbEntity
  8
2-0
  6
Continuous
 62
     3
370
    13
100
AcDbCircle
 10
13.67726286762786
 20
-214.8358166002334
 30
0.0
 40
0.6000000030722857
100
AcDbArc
 50
225.0
 51
315.0
  0
ARC
  5
28C
330
1F
100
AcDbEntity
  8
2-0
  6
Continuous
 62
     3
370
    13
100
AcDbCircle
 10
16.58398759860188
 20
-213.6261248419119
 30
0.0
 40
0.6000000030722857
100
AcDbArc
 50
33.68937683105469
 51
134.9982299804688
  0
ARC
  5
28D
330
1F
100
AcDbEntity
  8
2-0
  6
Continuous
 62
     3
370
    13
100
AcDbCircle
 10
-61.22955942533332
 20
-213.6260985956164
 30
0.0
 40
0.6000000030722857
100
AcDbArc
 50
45.00177001953125
 51
146.3127136230469
  0
LWPOLYLINE
  5
28E
330
1F
100
AcDbEntity
  8
2-Fﾚｲﾔ
  6
Continuous
 62
     7
370
    13
100
AcDbPolyline
 90
        4
 70
     1
 43
0.3
 10
-25.17273748585766
 20
-188.8803300816975
 42
0.4142135623731
 10
-25.32273748585766
 20
-188.7303300816976
 42
0.4142135623731
 10
-25.47273748585766
 20
-188.8803300816975
 42
0.4142135623731
 10
-25.32273748585766
 20
-189.0303300816975
 42
0.4142135623731
  0
LWPOLYLINE
  5
28F
330
1F
100
AcDbEntity
  8
2-Fﾚｲﾔ
  6
Continuous
 62
     7
370
    13
100
AcDbPolyline
 90
        4
 70
     1
 43
0.3
 10
-19.17283434087395
 20
-188.8803300816975
 42
0.4142135623731
 10
-19.32283434087395
 20
-188.7303300816976
 42
0.4142135623731
 10
-19.47283434087395
 20
-188.8803300816975
 42
0.4142135623731
 10
-19.32283434087395
 20
-189.0303300816975
 42
0.4142135623731
  0
LWPOLYLINE
  5
290
330
1F
100
AcDbEntity
  8
2-Fﾚｲﾔ
  6
Continuous
 62
     7
370
    13
100
AcDbPolyline
 90
        4
 70
     1
 43
0.3
 10
-31.17285060120506
 20
-188.8803300816975
 42
0.4142135623731
 10
-31.32285060120506
 20
-188.7303300816976
 42
0.4142135623731
 10
-31.47285060120506
 20
-188.8803300816975
 42
0.4142135623731
 10
-31.32285060120506
 20
-189.0303300816975
 42
0.4142135623731
  0
TEXT
  5
291
330
1F
100
AcDbEntity
  8
2-Fﾚｲﾔ
  6
Continuous
 62
     2
370
    13
100
AcDbText
 10
-42.01955145398913
 20
-185.6883280491562
 30
0.0
 40
9.144
  1
1
  7
ＭＳ ゴシック
100
AcDbText
  0
LINE
  5
292
330
1F
100
AcDbEntity
  8
2-Fﾚｲﾔ
  6
Continuous
 62
     7
370
    13
100
AcDbLine
 10
-7.258917579145745
 20
-188.8803300816975
 30
0.0
 11
-25.32273748585766
 21
-188.8803300816975
 31
0.0
  0
TEXT
  5
293
330
1F
100
AcDbEntity
  8
2-Fﾚｲﾔ
  6
Continuous
 62
     2
370
    13
100
AcDbText
 10
-13.30543007980559
 20
-185.6883280491562
 30
0.0
 40
9.144
  1
1
  7
ＭＳ ゴシック
100
AcDbText
  0
LINE
  5
294
330
1F
100
AcDbEntity
  8
2-Fﾚｲﾔ
  6
Continuous
 62
     7
370
    13
100
AcDbLine
 10
-7.258917579145745
 20
-188.8803300816975
 30
0.0
 11
-42.62007075947978
 21
-188.8803300816975
 31
0.0
  0
LINE
  5
295
330
1F
100
AcDbEntity
  8
2-4
  6
Continuous
 62
     7
370
    13
100
AcDbLine
 10
-137.1958567546769
 20
-221.6843412167252
 30
0.0
 11
-137.1958567546769
 21
-212.6843290214769
 31
0.0
  0
LWPOLYLINE
  5
296
330
1F
100
AcDbEntity
  8
2-4
  6
Continuous
 62
     7
370
    13
100
AcDbPolyline
 90
        4
 70
     1
 43
0.3
 10
-137.0458567546769
 20
-221.6843412167252
 42
0.4142135623731
 10
-137.1958567546769
 20
-221.5343412167252
 42
0.4142135623731
 10
-137.3458567546769
 20
-221.6843412167252
 42
0.4142135623731
 10
-137.1958567546769
 20
-221.8343412167252
 42
0.4142135623731
  0
LWPOLYLINE
  5
297
330
1F
100
AcDbEntity
  8
2-4
  6
Continuous
 62
     7
370
    13
100
AcDbPolyline
 90
        4
 70
     1
 43
0.3
 10
-137.0458567546769
 20
-212.6843290214769
 42
0.4142135623731
 10
-137.1958567546769
 20
-212.5343290214769
 42
0.4142135623731
 10
-137.3458567546769
 20
-212.6843290214769
 42
0.4142135623731
 10
-137.1958567546769
 20
-212.8343290214768
 42
0.4142135623731
  0
LINE
  5
298
330
1F
100
AcDbEntity
  8
2-4
  6
Continuous
 62
     7
370
    13
100
AcDbLine
 10
-138.0958567546769
 20
-221.6843412167252
 30
0.0
 11
-98.70285713361648
 21
-221.6843412167252
 31
0.0
  0
LINE
  5
299
330
1F
100
AcDbEntity
  8
2-4
  6
Continuous
 62
     7
370
    13
100
AcDbLine
 10
-116.0366019023223
 20
-215.6842805939687
 30
0.0
 11
-116.0366019023223
 21
-212.6843290214769
 31
0.0
  0
LWPOLYLINE
  5
29A
330
1F
100
AcDbEntity
  8
2-4
  6
Continuous
 62
     7
370
    13
100
AcDbPolyline
 90
        4
 70
     1
 43
0.3
 10
-115.8866019023224
 20
-215.6842805939687
 42
0.4142135623731
 10
-116.0366019023223
 20
-215.5342805939687
 42
0.4142135623731
 10
-116.1866019023223
 20
-215.6842805939687
 42
0.4142135623731
 10
-116.0366019023223
 20
-215.8342805939687
 42
0.4142135623731
  0
LWPOLYLINE
  5
29B
330
1F
100
AcDbEntity
  8
2-4
  6
Continuous
 62
     7
370
    13
100
AcDbPolyline
 90
        4
 70
     1
 43
0.3
 10
-115.8866019023224
 20
-212.6843290214769
 42
0.4142135623731
 10
-116.0366019023223
 20
-212.5343290214769
 42
0.4142135623731
 10
-116.1866019023223
 20
-212.6843290214769
 42
0.4142135623731
 10
-116.0366019023223
 20
-212.8343290214768
 42
0.4142135623731
  0
TEXT
  5
29C
330
1F
100
AcDbEntity
  8
2-4
  6
Continuous
 62
     2
370
   211
100
AcDbText
 10
-119.5286019023224
 20
-209.1333220805839
 30
0.0
 40
9.144
  1
0.5
 50
90.0
 41
1.083333333333333
  7
ＭＳ ゴシック
100
AcDbText
  0
TEXT
  5
29D
330
1F
100
AcDbEntity
  8
2-4
  6
Continuous
 62
     2
370
   211
100
AcDbText
 10
-140.6878567546769
 20
-210.740270953597
 30
0.0
 40
9.144
  1
1.5
 50
90.0
 41
1.083333333333333
  7
ＭＳ ゴシック
100
AcDbText
  0
LINE
  5
29E
330
1F
100
AcDbEntity
  8
2-4
  6
Continuous
 62
     7
370
    13
100
AcDbLine
 10
-137.1958567546769
 20
-212.6843290214769
 30
0.0
 11
-137.1958567546769
 21
-191.0551472591873
 31
0.0
  0
LINE
  5
29F
330
1F
100
AcDbEntity
  8
2-4
  6
Continuous
 62
     7
370
    13
100
AcDbLine
 10
-116.0366019023223
 20
-212.6843290214769
 30
0.0
 11
-116.0366019023223
 21
-190.2516728226807
 31
0.0
  0
LINE
  5
2A0
330
1F
100
AcDbEntity
  8
2-4
  6
Continuous
 62
     7
370
    13
100
AcDbLine
 10
-138.0958567546769
 20
-212.6843290214769
 30
0.0
 11
-72.03652407867247
 21
-212.6843290214769
 31
0.0
  0
LINE
  5
2A1
330
1F
100
AcDbEntity
  8
2-4
  6
Continuous
 62
     7
370
    13
100
AcDbLine
 10
-67.32289938219873
 20
-163.4826606491043
 30
0.0
 11
22.67711758510342
 21
-163.4826606491043
 31
0.0
  0
LWPOLYLINE
  5
2A2
330
1F
100
AcDbEntity
  8
2-4
  6
Continuous
 62
     7
370
    13
100
AcDbPolyline
 90
        4
 70
     1
 43
0.3
 10
-67.17289938219872
 20
-163.4826606491043
 42
0.4142135623731
 10
-67.32289938219873
 20
-163.3326606491043
 42
0.4142135623731
 10
-67.47289938219873
 20
-163.4826606491043
 42
0.4142135623731
 10
-67.32289938219873
 20
-163.6326606491043
 42
0.4142135623731
  0
LWPOLYLINE
  5
2A3
330
1F
100
AcDbEntity
  8
2-4
  6
Continuous
 62
     7
370
    13
100
AcDbPolyline
 90
        4
 70
     1
 43
0.3
 10
22.82711758510342
 20
-163.4826606491043
 42
0.4142135623731
 10
22.67711758510342
 20
-163.3326606491043
 42
0.4142135623731
 10
22.52711758510342
 20
-163.4826606491043
 42
0.4142135623731
 10
22.67711758510342
 20
-163.6326606491043
 42
0.4142135623731
  0
TEXT
  5
2A4
330
1F
100
AcDbEntity
  8
2-4
  6
Continuous
 62
     2
370
   211
100
AcDbText
 10
-35.44789089854766
 20
-159.9906606491043
 30
0.0
 40
9.144
  1
Φ15
 41
1.09375
  7
ＭＳ ゴシック
100
AcDbText
  0
LINE
  5
2A5
330
1F
100
AcDbEntity
  8
2-4
  6
Continuous
 62
     7
370
    13
100
AcDbLine
 10
-67.32289938219873
 20
-162.5826606491043
 30
0.0
 11
-67.32289938219873
 21
-205.5052025359174
 31
0.0
  0
LINE
  5
2A6
330
1F
100
AcDbEntity
  8
2-4
  6
Continuous
 62
     7
370
    13
100
AcDbLine
 10
22.67711758510342
 20
-162.5826606491043
 30
0.0
 11
22.67711758510342
 21
-205.5052025359174
 31
0.0
  0
TEXT
  5
2A7
330
1F
100
AcDbEntity
  8
2-5
  6
Continuous
 62
     2
370
    13
100
AcDbText
 10
-109.3228384059567
 20
-298.8459064910859
 30
0.0
 40
9.144
  1
滑り止め詳細図　Ｓ＝２：１
 41
1.115384615384615
  7
ＭＳ ゴシック
100
AcDbText
  0
LINE
  5
2A8
330
1F
100
AcDbEntity
  8
2-5
  6
Continuous
 62
     7
370
    13
100
AcDbLine
 10
-114.7228384059567
 20
-284.0379064910859
 30
0.0
 11
70.07716159404326
 21
-284.0379064910859
 31
0.0
  0
LINE
  5
2A9
330
1F
100
AcDbEntity
  8
2-5
  6
Continuous
 62
     7
370
    13
100
AcDbLine
 10
-114.7228384059567
 20
-305.0379064910859
 30
0.0
 11
70.07716159404326
 21
-305.0379064910859
 31
0.0
  0
LINE
  5
2AA
330
1F
100
AcDbEntity
  8
2-5
  6
Continuous
 62
     7
370
    13
100
AcDbLine
 10
-114.7228384059567
 20
-284.0379064910859
 30
0.0
 11
-114.7228384059567
 21
-305.0379064910859
 31
0.0
  0
LINE
  5
2AB
330
1F
100
AcDbEntity
  8
2-5
  6
Continuous
 62
     7
370
    13
100
AcDbLine
 10
70.07716159404326
 20
-284.0379064910859
 30
0.0
 11
70.07716159404326
 21
-305.0379064910859
 31
0.0
  0
ENDSEC
  0
SECTION
  2
OBJECTS
  0
DICTIONARY
  5
C
330
0
100
AcDbDictionary
281
     1
  3
ACAD_GROUP
350
D
  3
ACAD_LAYOUT
350
1A
  3
ACAD_MLEADERSTYLE
350
2AD
  3
ACAD_MLINESTYLE
350
17
  3
ACAD_PLOTSETTINGS
350
19
  3
ACAD_PLOTSTYLENAME
350
E
  3
ACAD_TABLESTYLE
350
2AC
  3
ACAD_VISUALSTYLE
350
2A
  0
DICTIONARY
  5
D
102
{ACAD_REACTORS
330
C
102
}
330
C
100
AcDbDictionary
281
     1
  0
DICTIONARY
  5
1A
102
{ACAD_REACTORS
330
C
102
}
330
C
100
AcDbDictionary
281
     1
  3
Layout1
350
1E
  3
Layout2
350
26
  3
Model
350
22
  0
DICTIONARY
  5
2AD
102
{ACAD_REACTORS
330
C
102
}
330
C
100
AcDbDictionary
281
     1
  0
DICTIONARY
  5
17
102
{ACAD_REACTORS
330
C
102
}
330
C
100
AcDbDictionary
281
     1
  3
Standard
350
18
  0
DICTIONARY
  5
19
102
{ACAD_REACTORS
330
C
102
}
330
C
100
AcDbDictionary
281
     1
  0
ACDBDICTIONARYWDFLT
  5
E
102
{ACAD_REACTORS
330
C
102
}
330
C
100
AcDbDictionary
281
     1
  3
Normal
350
F
100
AcDbDictionaryWithDefault
340
F
  0
DICTIONARY
  5
2AC
102
{ACAD_REACTORS
330
C
102
}
330
C
100
AcDbDictionary
281
     1
  0
DICTIONARY
  5
2A
102
{ACAD_REACTORS
330
C
102
}
330
C
100
AcDbDictionary
281
     1
  3
2dWireframe
350
2F
  3
3D Hidden
350
31
  3
3dWireframe
350
30
  3
Basic
350
32
  3
Brighten
350
36
  3
ColorChange
350
3A
  3
Conceptual
350
34
  3
Dim
350
35
  3
Facepattern
350
39
  3
Flat
350
2B
  3
FlatWithEdges
350
2C
  3
Gouraud
350
2D
  3
GouraudWithEdges
350
2E
  3
Linepattern
350
38
  3
Realistic
350
33
  3
Thicken
350
37
  0
LAYOUT
  5
1E
102
{ACAD_REACTORS
330
1A
102
}
330
1A
100
AcDbPlotSettings
  1

  2
none_device
  4

  6

 40
0.0
 41
0.0
 42
0.0
 43
0.0
 44
0.0
 45
0.0
 46
0.0
 47
0.0
 48
0.0
 49
0.0
140
0.0
141
0.0
142
1.0
143
1.0
 70
   688
 72
     0
 73
     0
 74
     5
  7

 75
    16
 76
     0
 77
     5
 78
   300
147
1.0
148
0.0
149
0.0
100
AcDbLayout
  1
Layout1
 70
     1
 71
     1
 10
0.0
 20
0.0
 11
420.0
 21
297.0
 12
0.0
 22
0.0
 32
0.0
 14
1.000000000000000E+20
 24
1.000000000000000E+20
 34
1.000000000000000E+20
 15
-1.000000000000000E+20
 25
-1.000000000000000E+20
 35
-1.000000000000000E+20
146
0.0
 13
0.0
 23
0.0
 33
0.0
 16
1.0
 26
0.0
 36
0.0
 17
0.0
 27
1.0
 37
0.0
 76
     0
330
1B
  0
LAYOUT
  5
26
102
{ACAD_REACTORS
330
1A
102
}
330
1A
100
AcDbPlotSettings
  1

  2
none_device
  4

  6

 40
0.0
 41
0.0
 42
0.0
 43
0.0
 44
0.0
 45
0.0
 46
0.0
 47
0.0
 48
0.0
 49
0.0
140
0.0
141
0.0
142
1.0
143
1.0
 70
   688
 72
     0
 73
     0
 74
     5
  7

 75
    16
 76
     0
 77
     5
 78
   300
147
1.0
148
0.0
149
0.0
100
AcDbLayout
  1
Layout2
 70
     1
 71
     2
 10
0.0
 20
0.0
 11
0.0
 21
0.0
 12
0.0
 22
0.0
 32
0.0
 14
0.0
 24
0.0
 34
0.0
 15
0.0
 25
0.0
 35
0.0
146
0.0
 13
0.0
 23
0.0
 33
0.0
 16
1.0
 26
0.0
 36
0.0
 17
0.0
 27
1.0
 37
0.0
 76
     0
330
23
  0
LAYOUT
  5
22
102
{ACAD_REACTORS
330
1A
102
}
330
1A
100
AcDbPlotSettings
  1

  2
none_device
  4

  6

 40
0.0
 41
0.0
 42
0.0
 43
0.0
 44
0.0
 45
0.0
 46
0.0
 47
0.0
 48
0.0
 49
0.0
140
0.0
141
0.0
142
1.0
143
1.0
 70
  1712
 72
     0
 73
     0
 74
     0
  7

 75
     0
 76
     0
 77
     5
 78
   300
147
1.0
148
0.0
149
0.0
100
AcDbLayout
  1
Model
 70
     1
 71
     0
 10
-630.0
 20
-445.5
 11
630.0
 21
445.5
 12
0.0
 22
0.0
 32
0.0
 14
-630.0
 24
-445.5
 34
0.0
 15
630.0
 25
445.5
 35
0.0
146
0.0
 13
0.0
 23
0.0
 33
0.0
 16
1.0
 26
0.0
 36
0.0
 17
0.0
 27
1.0
 37
0.0
 76
     0
330
1F
331
29
  0
MLINESTYLE
  5
18
102
{ACAD_REACTORS
330
17
102
}
330
17
100
AcDbMlineStyle
  2
Standard
 70
     0
  3

 62
   256
 51
90.0
 52
90.0
 71
     2
 49
0.5
 62
   256
  6
BYLAYER
 49
-0.5
 62
   256
  6
BYLAYER
  0
ACDBPLACEHOLDER
  5
F
102
{ACAD_REACTORS
330
E
102
}
330
E
  0
VISUALSTYLE
  5
2F
102
{ACAD_REACTORS
330
2A
102
}
330
2A
100
AcDbVisualStyle
  2
2dWireframe
 70
     4
 71
     0
 72
     2
 73
     0
 90
        0
 40
-0.6
 41
-30.0
 62
     5
 63
     7
421
 16777215
 74
     1
 91
        4
 64
     7
 65
   257
 75
     1
175
     1
 42
1.0
 92
        0
 66
   257
 43
1.0
 76
     1
 77
     6
 78
     2
 67
     7
 79
     5
170
     0
171
     0
290
     0
174
     0
 93
        1
 44
0.0
173
     0
291
     0
 45
0.0
1001
ACAD
1000
AcDbSavedByObjectVersion
1070
     0
  0
VISUALSTYLE
  5
31
102
{ACAD_REACTORS
330
2A
102
}
330
2A
100
AcDbVisualStyle
  2
3D Hidden
 70
     6
 71
     1
 72
     2
 73
     2
 90
        0
 40
-0.6
 41
-30.0
 62
     5
 63
     7
421
 16777215
 74
     2
 91
        2
 64
     7
 65
   257
 75
     2
175
     1
 42
40.0
 92
        0
 66
   257
 43
1.0
 76
     1
 77
     6
 78
     2
 67
     7
 79
     3
170
     0
171
     0
290
     0
174
     0
 93
        1
 44
0.0
173
     0
291
     0
 45
0.0
1001
ACAD
1000
AcDbSavedByObjectVersion
1070
     0
  0
VISUALSTYLE
  5
30
102
{ACAD_REACTORS
330
2A
102
}
330
2A
100
AcDbVisualStyle
  2
3dWireframe
 70
     5
 71
     0
 72
     2
 73
     0
 90
        0
 40
-0.6
 41
-30.0
 62
     5
 63
     7
421
 16777215
 74
     1
 91
        4
 64
     7
 65
   257
 75
     1
175
     1
 42
1.0
 92
        0
 66
   257
 43
1.0
 76
     1
 77
     6
 78
     2
 67
     7
 79
     5
170
     0
171
     0
290
     0
174
     0
 93
        1
 44
0.0
173
     0
291
     0
 45
0.0
1001
ACAD
1000
AcDbSavedByObjectVersion
1070
     0
  0
VISUALSTYLE
  5
32
102
{ACAD_REACTORS
330
2A
102
}
330
2A
100
AcDbVisualStyle
  2
Basic
 70
     7
 71
     1
 72
     0
 73
     1
 90
        0
 40
-0.6
 41
-30.0
 62
     5
 63
     7
421
 16777215
 74
     0
 91
        4
 64
     7
 65
   257
 75
     1
175
     1
 42
1.0
 92
        8
 66
     7
 43
1.0
 76
     1
 77
     6
 78
     2
 67
     7
 79
     5
170
     0
171
     0
290
     0
174
     0
 93
        1
 44
0.0
173
     0
291
     1
 45
0.0
1001
ACAD
1000
AcDbSavedByObjectVersion
1070
     0
  0
VISUALSTYLE
  5
36
102
{ACAD_REACTORS
330
2A
102
}
330
2A
100
AcDbVisualStyle
  2
Brighten
 70
    12
 71
     2
 72
     2
 73
     0
 90
        0
 40
-0.6
 41
-30.0
 62
     5
 63
     7
421
 16777215
 74
     1
 91
        4
 64
     7
 65
   257
 75
     1
175
     1
 42
1.0
 92
        8
 66
     7
 43
1.0
 76
     1
 77
     6
 78
     2
 67
     7
 79
     5
170
     0
171
     0
290
     0
174
     0
 93
        1
 44
50.0
173
     0
291
     1
 45
0.0
1001
ACAD
1000
AcDbSavedByObjectVersion
1070
     0
  0
VISUALSTYLE
  5
3A
102
{ACAD_REACTORS
330
2A
102
}
330
2A
100
AcDbVisualStyle
  2
ColorChange
 70
    16
 71
     2
 72
     2
 73
     3
 90
        0
 40
-0.6
 41
-30.0
 62
     5
 63
     8
421
  8421504
 74
     1
 91
        4
 64
     7
 65
   257
 75
     1
175
     1
 42
1.0
 92
        8
 66
     8
424
  8421504
 43
1.0
 76
     1
 77
     6
 78
     2
 67
     7
 79
     5
170
     0
171
     0
290
     0
174
     0
 93
        1
 44
0.0
173
     0
291
     1
 45
0.0
1001
ACAD
1000
AcDbSavedByObjectVersion
1070
     0
  0
VISUALSTYLE
  5
34
102
{ACAD_REACTORS
330
2A
102
}
330
2A
100
AcDbVisualStyle
  2
Conceptual
 70
     9
 71
     3
 72
     2
 73
     0
 90
        0
 40
-0.6
 41
-30.0
 62
     5
 63
     7
421
 16777215
 74
     2
 91
        2
 64
     7
 65
   257
 75
     1
175
     1
 42
40.0
 92
        8
 66
     7
 43
1.0
 76
     1
 77
     6
 78
     2
 67
     7
 79
     3
170
     0
171
     0
290
     0
174
     0
 93
        1
 44
0.0
173
     0
291
     0
 45
0.0
1001
ACAD
1000
AcDbSavedByObjectVersion
1070
     0
  0
VISUALSTYLE
  5
35
102
{ACAD_REACTORS
330
2A
102
}
330
2A
100
AcDbVisualStyle
  2
Dim
 70
    11
 71
     2
 72
     2
 73
     0
 90
        0
 40
-0.6
 41
-30.0
 62
     5
 63
     7
421
 16777215
 74
     1
 91
        4
 64
     7
 65
   257
 75
     1
175
     1
 42
1.0
 92
        8
 66
     7
 43
1.0
 76
     1
 77
     6
 78
     2
 67
     7
 79
     5
170
     0
171
     0
290
     0
174
     0
 93
        1
 44
-50.0
173
     0
291
     1
 45
0.0
1001
ACAD
1000
AcDbSavedByObjectVersion
1070
     0
  0
VISUALSTYLE
  5
39
102
{ACAD_REACTORS
330
2A
102
}
330
2A
100
AcDbVisualStyle
  2
Facepattern
 70
    15
 71
     2
 72
     2
 73
     0
 90
        0
 40
-0.6
 41
-30.0
 62
     5
 63
     7
421
 16777215
 74
     1
 91
        4
 64
     7
 65
   257
 75
     1
175
     1
 42
1.0
 92
        8
 66
     7
 43
1.0
 76
     1
 77
     6
 78
     2
 67
     7
 79
     5
170
     0
171
     0
290
     0
174
     0
 93
        1
 44
0.0
173
     0
291
     1
 45
0.0
1001
ACAD
1000
AcDbSavedByObjectVersion
1070
     0
  0
VISUALSTYLE
  5
2B
102
{ACAD_REACTORS
330
2A
102
}
330
2A
100
AcDbVisualStyle
  2
Flat
 70
     0
 71
     2
 72
     1
 73
     1
 90
        2
 40
-0.6
 41
30.0
 62
     5
 63
     7
421
 16777215
 74
     0
 91
        4
 64
     7
 65
   257
 75
     1
175
     1
 42
1.0
 92
        8
 66
     7
 43
1.0
 76
     1
 77
     6
 78
     2
 67
     7
 79
     5
170
     0
171
     0
290
     0
174
     0
 93
       13
 44
0.0
173
     0
291
     1
 45
0.0
1001
ACAD
1000
AcDbSavedByObjectVersion
1070
     0
  0
VISUALSTYLE
  5
2C
102
{ACAD_REACTORS
330
2A
102
}
330
2A
100
AcDbVisualStyle
  2
FlatWithEdges
 70
     1
 71
     2
 72
     1
 73
     1
 90
        2
 40
-0.6
 41
30.0
 62
     5
 63
     7
421
 16777215
 74
     1
 91
        4
 64
     7
 65
   257
 75
     1
175
     1
 42
1.0
 92
        0
 66
   257
 43
1.0
 76
     1
 77
     6
 78
     2
 67
     7
 79
     5
170
     0
171
     0
290
     0
174
     0
 93
       13
 44
0.0
173
     0
291
     1
 45
0.0
1001
ACAD
1000
AcDbSavedByObjectVersion
1070
     0
  0
VISUALSTYLE
  5
2D
102
{ACAD_REACTORS
330
2A
102
}
330
2A
100
AcDbVisualStyle
  2
Gouraud
 70
     2
 71
     2
 72
     2
 73
     1
 90
        2
 40
-0.6
 41
30.0
 62
     5
 63
     7
421
 16777215
 74
     0
 91
        4
 64
     7
 65
   257
 75
     1
175
     1
 42
1.0
 92
        0
 66
     7
 43
1.0
 76
     1
 77
     6
 78
     2
 67
     7
 79
     5
170
     0
171
     0
290
     0
174
     0
 93
       13
 44
0.0
173
     0
291
     1
 45
0.0
1001
ACAD
1000
AcDbSavedByObjectVersion
1070
     0
  0
VISUALSTYLE
  5
2E
102
{ACAD_REACTORS
330
2A
102
}
330
2A
100
AcDbVisualStyle
  2
GouraudWithEdges
 70
     3
 71
     2
 72
     2
 73
     1
 90
        2
 40
-0.6
 41
30.0
 62
     5
 63
     7
421
 16777215
 74
     1
 91
        4
 64
     7
 65
   257
 75
     1
175
     1
 42
1.0
 92
        0
 66
   257
 43
1.0
 76
     1
 77
     6
 78
     2
 67
     7
 79
     5
170
     0
171
     0
290
     0
174
     0
 93
       13
 44
0.0
173
     0
291
     1
 45
0.0
1001
ACAD
1000
AcDbSavedByObjectVersion
1070
     0
  0
VISUALSTYLE
  5
38
102
{ACAD_REACTORS
330
2A
102
}
330
2A
100
AcDbVisualStyle
  2
Linepattern
 70
    14
 71
     2
 72
     2
 73
     0
 90
        0
 40
-0.6
 41
-30.0
 62
     5
 63
     7
421
 16777215
 74
     1
 91
        4
 64
     7
 65
   257
 75
     7
175
     7
 42
1.0
 92
        8
 66
     7
 43
1.0
 76
     1
 77
     6
 78
     2
 67
     7
 79
     5
170
     0
171
     0
290
     0
174
     0
 93
        1
 44
0.0
173
     0
291
     1
 45
0.0
1001
ACAD
1000
AcDbSavedByObjectVersion
1070
     0
  0
VISUALSTYLE
  5
33
102
{ACAD_REACTORS
330
2A
102
}
330
2A
100
AcDbVisualStyle
  2
Realistic
 70
     8
 71
     2
 72
     2
 73
     0
 90
        0
 40
-0.6
 41
-30.0
 62
     5
 63
     7
421
 16777215
 74
     1
 91
        0
 64
     7
 65
   257
 75
     1
175
     1
 42
1.0
 92
        8
 66
     8
424
  7895160
 43
1.0
 76
     1
 77
     6
 78
     2
 67
     7
 79
     5
170
     0
171
     0
290
     0
174
     0
 93
       13
 44
0.0
173
     0
291
     0
 45
0.0
1001
ACAD
1000
AcDbSavedByObjectVersion
1070
     0
  0
VISUALSTYLE
  5
37
102
{ACAD_REACTORS
330
2A
102
}
330
2A
100
AcDbVisualStyle
  2
Thicken
 70
    13
 71
     2
 72
     2
 73
     0
 90
        0
 40
-0.6
 41
-30.0
 62
     5
 63
     7
421
 16777215
 74
     1
 91
        4
 64
     7
 65
   257
 75
     1
175
     1
 42
1.0
 92
       12
 66
     7
 43
1.0
 76
     1
 77
     6
 78
     2
 67
     7
 79
     5
170
     0
171
     0
290
     0
174
     0
 93
        1
 44
0.0
173
     0
291
     1
 45
0.0
1001
ACAD
1000
AcDbSavedByObjectVersion
1070
     0
  0
ENDSEC
  0
EOF
