  0
SECTION
  2
HEADER
  9
$ACADVER
  1
AC1018
  9
$ACADMAINTVER
 70
     0
  9
$DWGCODEPAGE
  3
ANSI_932
  9
$INSBASE
 10
0.0
 20
0.0
 30
0.0
  9
$EXTMIN
 10
-2100.0
 20
-1485.0
 30
0.0
  9
$EXTMAX
 10
2100.0
 20
1485.0
 30
0.0
  9
$LIMMIN
 10
-2100.0
 20
-1485.0
  9
$LIMMAX
 10
2100.0
 20
1485.0
  9
$ORTHOMODE
 70
     0
  9
$REGENMODE
 70
     1
  9
$FILLMODE
 70
     1
  9
$QTEXTMODE
 70
     0
  9
$MIRRTEXT
 70
     1
  9
$LTSCALE
 40
10.0
  9
$ATTMODE
 70
     1
  9
$TEXTSIZE
 40
2.5
  9
$TRACEWID
 40
1.0
  9
$TEXTSTYLE
  7
Standard
  9
$CLAYER
  8
0
  9
$CELTYPE
  6
ByLayer
  9
$CECOLOR
 62
   256
  9
$CELTSCALE
 40
1.0
  9
$DISPSILH
 70
     0
  9
$DIMSCALE
 40
1.0
  9
$DIMASZ
 40
2.5
  9
$DIMEXO
 40
0.625
  9
$DIMDLI
 40
3.75
  9
$DIMRND
 40
0.0
  9
$DIMDLE
 40
0.0
  9
$DIMEXE
 40
1.25
  9
$DIMTP
 40
0.0
  9
$DIMTM
 40
0.0
  9
$DIMTXT
 40
2.5
  9
$DIMCEN
 40
2.5
  9
$DIMTSZ
 40
0.0
  9
$DIMTOL
 70
     0
  9
$DIMLIM
 70
     0
  9
$DIMTIH
 70
     0
  9
$DIMTOH
 70
     0
  9
$DIMSE1
 70
     0
  9
$DIMSE2
 70
     0
  9
$DIMTAD
 70
     1
  9
$DIMZIN
 70
     8
  9
$DIMBLK
  1

  9
$DIMASO
 70
     1
  9
$DIMSHO
 70
     1
  9
$DIMPOST
  1

  9
$DIMAPOST
  1

  9
$DIMALT
 70
     0
  9
$DIMALTD
 70
     3
  9
$DIMALTF
 40
0.03937007874016
  9
$DIMLFAC
 40
1.0
  9
$DIMTOFL
 70
     1
  9
$DIMTVP
 40
0.0
  9
$DIMTIX
 70
     0
  9
$DIMSOXD
 70
     0
  9
$DIMSAH
 70
     0
  9
$DIMBLK1
  1

  9
$DIMBLK2
  1

  9
$DIMSTYLE
  2
ISO-25
  9
$DIMCLRD
 70
     0
  9
$DIMCLRE
 70
     0
  9
$DIMCLRT
 70
     0
  9
$DIMTFAC
 40
1.0
  9
$DIMGAP
 40
0.625
  9
$DIMJUST
 70
     0
  9
$DIMSD1
 70
     0
  9
$DIMSD2
 70
     0
  9
$DIMTOLJ
 70
     0
  9
$DIMTZIN
 70
     8
  9
$DIMALTZ
 70
     0
  9
$DIMALTTZ
 70
     0
  9
$DIMUPT
 70
     0
  9
$DIMDEC
 70
     2
  9
$DIMTDEC
 70
     2
  9
$DIMALTU
 70
     2
  9
$DIMALTTD
 70
     3
  9
$DIMTXSTY
  7
Standard
  9
$DIMAUNIT
 70
     0
  9
$DIMADEC
 70
     0
  9
$DIMALTRND
 40
0.0
  9
$DIMAZIN
 70
     0
  9
$DIMDSEP
 70
    44
  9
$DIMATFIT
 70
     3
  9
$DIMFRAC
 70
     0
  9
$DIMLDRBLK
  1

  9
$DIMLUNIT
 70
     2
  9
$DIMLWD
 70
    -2
  9
$DIMLWE
 70
    -2
  9
$DIMTMOVE
 70
     0
  9
$LUNITS
 70
     2
  9
$LUPREC
 70
     4
  9
$SKETCHINC
 40
1.0
  9
$FILLETRAD
 40
10.0
  9
$AUNITS
 70
     0
  9
$AUPREC
 70
     0
  9
$MENU
  1
.
  9
$ELEVATION
 40
0.0
  9
$PELEVATION
 40
0.0
  9
$THICKNESS
 40
0.0
  9
$LIMCHECK
 70
     0
  9
$CHAMFERA
 40
10.0
  9
$CHAMFERB
 40
10.0
  9
$CHAMFERC
 40
20.0
  9
$CHAMFERD
 40
0.0
  9
$SKPOLY
 70
     0
  9
$TDCREATE
 40
2456499.588086748
  9
$TDUCREATE
 40
2456499.213086748
  9
$TDUPDATE
 40
2456499.588086759
  9
$TDUUPDATE
 40
2456499.213086759
  9
$TDINDWG
 40
0.0000000116
  9
$TDUSRTIMER
 40
0.0000000116
  9
$USRTIMER
 70
     1
  9
$ANGBASE
 50
0.0
  9
$ANGDIR
 70
     0
  9
$PDMODE
 70
     0
  9
$PDSIZE
 40
0.0
  9
$PLINEWID
 40
0.0
  9
$SPLFRAME
 70
     0
  9
$SPLINETYPE
 70
     6
  9
$SPLINESEGS
 70
     8
  9
$HANDSEED
  5
34F
  9
$SURFTAB1
 70
     6
  9
$SURFTAB2
 70
     6
  9
$SURFTYPE
 70
     6
  9
$SURFU
 70
     6
  9
$SURFV
 70
     6
  9
$UCSBASE
  2

  9
$UCSNAME
  2

  9
$UCSORG
 10
0.0
 20
0.0
 30
0.0
  9
$UCSXDIR
 10
1.0
 20
0.0
 30
0.0
  9
$UCSYDIR
 10
0.0
 20
1.0
 30
0.0
  9
$UCSORTHOREF
  2

  9
$UCSORTHOVIEW
 70
     0
  9
$UCSORGTOP
 10
0.0
 20
0.0
 30
0.0
  9
$UCSORGBOTTOM
 10
0.0
 20
0.0
 30
0.0
  9
$UCSORGLEFT
 10
0.0
 20
0.0
 30
0.0
  9
$UCSORGRIGHT
 10
0.0
 20
0.0
 30
0.0
  9
$UCSORGFRONT
 10
0.0
 20
0.0
 30
0.0
  9
$UCSORGBACK
 10
0.0
 20
0.0
 30
0.0
  9
$PUCSBASE
  2

  9
$PUCSNAME
  2

  9
$PUCSORG
 10
0.0
 20
0.0
 30
0.0
  9
$PUCSXDIR
 10
1.0
 20
0.0
 30
0.0
  9
$PUCSYDIR
 10
0.0
 20
1.0
 30
0.0
  9
$PUCSORTHOREF
  2

  9
$PUCSORTHOVIEW
 70
     0
  9
$PUCSORGTOP
 10
0.0
 20
0.0
 30
0.0
  9
$PUCSORGBOTTOM
 10
0.0
 20
0.0
 30
0.0
  9
$PUCSORGLEFT
 10
0.0
 20
0.0
 30
0.0
  9
$PUCSORGRIGHT
 10
0.0
 20
0.0
 30
0.0
  9
$PUCSORGFRONT
 10
0.0
 20
0.0
 30
0.0
  9
$PUCSORGBACK
 10
0.0
 20
0.0
 30
0.0
  9
$USERI1
 70
     0
  9
$USERI2
 70
     0
  9
$USERI3
 70
     0
  9
$USERI4
 70
     0
  9
$USERI5
 70
     0
  9
$USERR1
 40
0.0
  9
$USERR2
 40
0.0
  9
$USERR3
 40
0.0
  9
$USERR4
 40
0.0
  9
$USERR5
 40
0.0
  9
$WORLDVIEW
 70
     1
  9
$SHADEDGE
 70
     3
  9
$SHADEDIF
 70
    70
  9
$TILEMODE
 70
     1
  9
$MAXACTVP
 70
    64
  9
$PINSBASE
 10
0.0
 20
0.0
 30
0.0
  9
$PLIMCHECK
 70
     0
  9
$PEXTMIN
 10
1.000000000000000E+20
 20
1.000000000000000E+20
 30
1.000000000000000E+20
  9
$PEXTMAX
 10
-1.000000000000000E+20
 20
-1.000000000000000E+20
 30
-1.000000000000000E+20
  9
$PLIMMIN
 10
0.0
 20
0.0
  9
$PLIMMAX
 10
420.0
 20
297.0
  9
$UNITMODE
 70
     0
  9
$VISRETAIN
 70
     1
  9
$PLINEGEN
 70
     0
  9
$PSLTSCALE
 70
     1
  9
$TREEDEPTH
 70
  3020
  9
$CMLSTYLE
  2
Standard
  9
$CMLJUST
 70
     0
  9
$CMLSCALE
 40
20.0
  9
$PROXYGRAPHICS
 70
     1
  9
$MEASUREMENT
 70
     1
  9
$CELWEIGHT
370
    -1
  9
$ENDCAPS
280
     0
  9
$JOINSTYLE
280
     0
  9
$LWDISPLAY
290
     0
  9
$INSUNITS
 70
     4
  9
$HYPERLINKBASE
  1

  9
$STYLESHEET
  1

  9
$XEDIT
290
     1
  9
$CEPSNTYPE
380
     0
  9
$PSTYLEMODE
290
     1
  9
$FINGERPRINTGUID
  2
{7318130D-9936-4C44-98F8-3B859626C286}
  9
$VERSIONGUID
  2
{FAEB1C32-E019-11D5-929B-00C0DF256EC4}
  9
$EXTNAMES
290
     1
  9
$PSVPSCALE
 40
0.0
  9
$OLESTARTUP
290
     0
  9
$SORTENTS
280
   127
  9
$INDEXCTL
280
     0
  9
$HIDETEXT
280
     1
  9
$XCLIPFRAME
290
     0
  9
$HALOGAP
280
     0
  9
$OBSCOLOR
 70
   257
  9
$OBSLTYPE
280
     0
  9
$INTERSECTIONDISPLAY
280
     0
  9
$INTERSECTIONCOLOR
 70
   257
  9
$DIMASSOC
280
     2
  9
$PROJECTNAME
  1

  0
ENDSEC
  0
SECTION
  2
CLASSES
  0
CLASS
  1
ACDBDICTIONARYWDFLT
  2
AcDbDictionaryWithDefault
  3
ObjectDBX Classes
 90
        0
 91
        4
280
     0
281
     0
  0
CLASS
  1
VISUALSTYLE
  2
AcDbVisualStyle
  3
ObjectDBX Classes
 90
     4095
 91
        4
280
     0
281
     0
  0
ENDSEC
  0
SECTION
  2
TABLES
  0
TABLE
  2
VPORT
  5
8
330
0
100
AcDbSymbolTable
 70
     1
  0
VPORT
  5
29
330
8
100
AcDbSymbolTableRecord
100
AcDbViewportTableRecord
  2
*Active
 70
     0
 10
0.0
 20
0.0
 11
1.0
 21
1.0
 12
0.0
 22
0.0
 13
0.0
 23
0.0
 14
10.0
 24
10.0
 15
10.0
 25
10.0
 16
0.0
 26
0.0
 36
1.0
 17
0.0
 27
0.0
 37
0.0
 40
3267.0
 41
1.414141414141414
 42
50.0
 43
0.0
 44
0.0
 50
0.0
 51
0.0
 71
     0
 72
 10000
 73
     1
 74
     3
 75
     0
 76
     0
 77
     0
 78
     0
281
     0
 65
     1
110
0.0
120
0.0
130
0.0
111
1.0
121
0.0
131
0.0
112
0.0
122
1.0
132
0.0
 79
     0
146
0.0
  0
ENDTAB
  0
TABLE
  2
LTYPE
  5
5
330
0
100
AcDbSymbolTable
 70
     3
  0
LTYPE
  5
14
330
5
100
AcDbSymbolTableRecord
100
AcDbLinetypeTableRecord
  2
ByBlock
 70
     0
  3

 72
    65
 73
     0
 40
0.0
  0
LTYPE
  5
15
330
5
100
AcDbSymbolTableRecord
100
AcDbLinetypeTableRecord
  2
ByLayer
 70
     0
  3

 72
    65
 73
     0
 40
0.0
  0
LTYPE
  5
16
330
5
100
AcDbSymbolTableRecord
100
AcDbLinetypeTableRecord
  2
Continuous
 70
     0
  3
Solid line
 72
    65
 73
     0
 40
0.0
  0
LTYPE
  5
3C
330
5
100
AcDbSymbolTableRecord
100
AcDbLinetypeTableRecord
  2
JWW_CENTER1
 70
     0
  3
-----  --  ----------  --  -----
 72
    65
 73
     4
 40
6.773333333333333
 49
4.233333333333333
 74
     0
 49
-0.8466666666666667
 74
     0
 49
0.8466666666666667
 74
     0
 49
-0.8466666666666667
 74
     0
  0
LTYPE
  5
3D
330
5
100
AcDbSymbolTableRecord
100
AcDbLinetypeTableRecord
  2
JWW_DASHED2
 70
     0
  3
--    ----    ----    ----    --
 72
    65
 73
     2
 40
1.354666666666667
 49
0.6773333333333333
 74
     0
 49
-0.6773333333333333
 74
     0
  0
ENDTAB
  0
TABLE
  2
LAYER
  5
2
330
0
100
AcDbSymbolTable
 70
    11
  0
LAYER
  5
10
330
2
100
AcDbSymbolTableRecord
100
AcDbLayerTableRecord
  2
0
 70
     0
 62
     7
  6
Continuous
370
    -3
390
F
  0
LAYER
  5
3E
330
2
100
AcDbSymbolTableRecord
100
AcDbLayerTableRecord
  2
D-5
 70
     0
 62
     7
  6
Continuous
370
    -3
390
F
  0
LAYER
  5
3F
330
2
100
AcDbSymbolTableRecord
100
AcDbLayerTableRecord
  2
1-0
 70
     0
 62
     7
  6
Continuous
370
    -3
390
F
  0
LAYER
  5
40
330
2
100
AcDbSymbolTableRecord
100
AcDbLayerTableRecord
  2
1-F
 70
     0
 62
     7
  6
Continuous
370
    -3
390
F
  0
LAYER
  5
41
330
2
100
AcDbSymbolTableRecord
100
AcDbLayerTableRecord
  2
2-F
 70
     0
 62
     7
  6
Continuous
370
    -3
390
F
  0
LAYER
  5
42
330
2
100
AcDbSymbolTableRecord
100
AcDbLayerTableRecord
  2
2-0
 70
     0
 62
     7
  6
Continuous
370
    -3
390
F
  0
LAYER
  5
43
330
2
100
AcDbSymbolTableRecord
100
AcDbLayerTableRecord
  2
F-5
 70
     0
 62
     7
  6
Continuous
370
    -3
390
F
  0
LAYER
  5
44
330
2
100
AcDbSymbolTableRecord
100
AcDbLayerTableRecord
  2
0-5
 70
     0
 62
     7
  6
Continuous
370
    -3
390
F
  0
LAYER
  5
45
330
2
100
AcDbSymbolTableRecord
100
AcDbLayerTableRecord
  2
0-0
 70
     0
 62
     7
  6
Continuous
370
    -3
390
F
  0
LAYER
  5
46
330
2
100
AcDbSymbolTableRecord
100
AcDbLayerTableRecord
  2
0-8
 70
     0
 62
     7
  6
Continuous
370
    -3
390
F
  0
LAYER
  5
47
330
2
100
AcDbSymbolTableRecord
100
AcDbLayerTableRecord
  2
0-4
 70
     0
 62
     7
  6
Continuous
370
    -3
390
F
  0
ENDTAB
  0
TABLE
  2
STYLE
  5
3
330
0
100
AcDbSymbolTable
 70
     2
  0
STYLE
  5
11
330
3
100
AcDbSymbolTableRecord
100
AcDbTextStyleTableRecord
  2
Standard
 70
     0
 40
0.0
 41
1.0
 50
0.0
 71
     0
 42
2.5
  3
txt
  4

1001
ACAD
1000

1071
        0
  0
STYLE
  5
3B
330
3
100
AcDbSymbolTableRecord
100
AcDbTextStyleTableRecord
  2
ＭＳ ゴシック
 70
     0
 40
1.0
 41
1.0
 50
0.0
 71
     0
 42
10.0
  3

  4

1001
ACAD
1000
MS Gothic
1071
    32817
  0
ENDTAB
  0
TABLE
  2
VIEW
  5
6
330
0
100
AcDbSymbolTable
 70
     0
  0
ENDTAB
  0
TABLE
  2
UCS
  5
7
330
0
100
AcDbSymbolTable
 70
     0
  0
ENDTAB
  0
TABLE
  2
APPID
  5
9
330
0
100
AcDbSymbolTable
 70
     1
  0
APPID
  5
12
330
9
100
AcDbSymbolTableRecord
100
AcDbRegAppTableRecord
  2
ACAD
 70
     0
  0
ENDTAB
  0
TABLE
  2
DIMSTYLE
  5
A
330
0
100
AcDbSymbolTable
 70
     1
100
AcDbDimStyleTable
  0
DIMSTYLE
105
27
330
A
100
AcDbSymbolTableRecord
100
AcDbDimStyleTableRecord
  2
ISO-25
 70
     0
 41
2.5
 42
0.625
 43
3.75
 44
1.25
 73
     0
 74
     0
 77
     1
 78
     8
140
2.5
141
2.5
143
0.03937007874016
147
0.625
171
     3
172
     1
271
     2
272
     2
274
     3
278
    44
283
     0
284
     8
340
11
  0
ENDTAB
  0
TABLE
  2
BLOCK_RECORD
  5
1
330
0
100
AcDbSymbolTable
 70
     1
  0
BLOCK_RECORD
  5
1F
330
1
100
AcDbSymbolTableRecord
100
AcDbBlockTableRecord
  2
*Model_Space
340
22
  0
BLOCK_RECORD
  5
1B
330
1
100
AcDbSymbolTableRecord
100
AcDbBlockTableRecord
  2
*Paper_Space
340
1E
  0
BLOCK_RECORD
  5
23
330
1
100
AcDbSymbolTableRecord
100
AcDbBlockTableRecord
  2
*Paper_Space0
340
26
  0
ENDTAB
  0
ENDSEC
  0
SECTION
  2
BLOCKS
  0
BLOCK
  5
20
330
1F
100
AcDbEntity
  8
0
100
AcDbBlockBegin
  2
*Model_Space
 70
     0
 10
0.0
 20
0.0
 30
0.0
  3
*Model_Space
  1

  0
ENDBLK
  5
21
330
1F
100
AcDbEntity
  8
0
100
AcDbBlockEnd
  0
BLOCK
  5
1C
330
1B
100
AcDbEntity
 67
     1
  8
0
100
AcDbBlockBegin
  2
*Paper_Space
 70
     0
 10
0.0
 20
0.0
 30
0.0
  3
*Paper_Space
  1

  0
ENDBLK
  5
1D
330
1B
100
AcDbEntity
 67
     1
  8
0
100
AcDbBlockEnd
  0
BLOCK
  5
24
330
23
100
AcDbEntity
  8
0
100
AcDbBlockBegin
  2
*Paper_Space0
 70
     0
 10
0.0
 20
0.0
 30
0.0
  3
*Paper_Space0
  1

  0
ENDBLK
  5
25
330
23
100
AcDbEntity
  8
0
100
AcDbBlockEnd
  0
ENDSEC
  0
SECTION
  2
ENTITIES
  0
LINE
  5
48
330
1F
100
AcDbEntity
  8
D-5
  6
Continuous
 62
     2
370
     9
100
AcDbLine
 10
873.2821408152031
 20
-832.489440637907
 30
0.0
 11
648.2823696970394
 21
-832.489440637907
 31
0.0
  0
LINE
  5
49
330
1F
100
AcDbEntity
  8
D-5
  6
Continuous
 62
     2
370
     9
100
AcDbLine
 10
873.2821408152031
 20
-782.4892090738621
 30
0.0
 11
873.2821408152031
 21
-832.489440637907
 31
0.0
  0
LINE
  5
4A
330
1F
100
AcDbEntity
  8
D-5
  6
Continuous
 62
     2
370
     9
100
AcDbLine
 10
648.2823696970394
 20
-782.4892090738621
 30
0.0
 11
873.2821408152031
 21
-782.4892090738621
 31
0.0
  0
LINE
  5
4B
330
1F
100
AcDbEntity
  8
D-5
  6
Continuous
 62
     2
370
     9
100
AcDbLine
 10
648.2823696970394
 20
-832.489440637907
 30
0.0
 11
648.2823696970394
 21
-782.4892090738621
 31
0.0
  0
TEXT
  5
4C
330
1F
100
AcDbEntity
  8
D-5
  6
Continuous
 62
     2
370
     9
100
AcDbText
 10
695.7819119333675
 20
-821.8491688407269
 30
0.0
 40
30.48
  1
仕　様
 41
1.083333333333331
  7
ＭＳ ゴシック
100
AcDbText
  0
TEXT
  5
4D
330
1F
100
AcDbEntity
  8
D-5
  6
Continuous
 62
     2
370
     9
100
AcDbText
 10
810.0842746429505
 20
-1078.58173096565
 30
0.0
 40
30.48
  1
処理：ヘアライン
 50
0.0000554111121398
 41
1.109375
  7
ＭＳ ゴシック
100
AcDbText
  0
TEXT
  5
4E
330
1F
100
AcDbEntity
  8
D-5
  6
Continuous
 62
     2
370
     9
100
AcDbText
 10
810.0842838573144
 20
-1013.581215981518
 30
0.0
 40
30.48
  1
材質：冷間圧延ステンレス鋼板　（ＳＵＳ３０４）
 50
359.9999618039849
 41
1.119565217391304
  7
ＭＳ ゴシック
100
AcDbText
  0
TEXT
  5
4F
330
1F
100
AcDbEntity
  8
D-5
  6
Continuous
 62
     2
370
     9
100
AcDbText
 10
802.5986429823914
 20
-885.2450610126565
 30
0.0
 40
30.48
  1
ノンスリップタイプステンレス製排水用蓋
 50
359.999975610655
 41
1.118421052631579
  7
ＭＳ ゴシック
100
AcDbText
  0
LINE
  5
50
330
1F
100
AcDbEntity
  8
1-0
  6
Continuous
 62
     3
370
     9
100
AcDbLine
 10
-497.0095422349625
 20
-345.1240967868026
 30
0.0
 11
-837.0096529937402
 21
-345.1240967868026
 31
0.0
  0
LINE
  5
51
330
1F
100
AcDbEntity
  8
1-0
  6
Continuous
 62
     3
370
     9
100
AcDbLine
 10
-837.0096529937402
 20
-285.1240154851465
 30
0.0
 11
-497.0095422349625
 21
-285.1240154851465
 31
0.0
  0
LINE
  5
52
330
1F
100
AcDbEntity
  8
1-F
  6
JWW_CENTER1
 62
     7
370
     9
100
AcDbLine
 10
-667.0095976143512
 20
-260.9095332329446
 30
0.0
 11
-667.0095976143512
 21
-369.3385790390045
 31
0.0
  0
LINE
  5
53
330
1F
100
AcDbEntity
  8
1-F
  6
JWW_CENTER1
 62
     7
370
     9
100
AcDbLine
 10
-893.7989374826094
 20
-315.1240561359745
 30
0.0
 11
-440.220257746093
 21
-315.1240561359745
 31
0.0
  0
LINE
  5
54
330
1F
100
AcDbEntity
  8
1-F
  6
Continuous
 62
     7
370
     9
100
AcDbLine
 10
-857.009680094292
 20
-285.1240154851465
 30
0.0
 11
-971.2671532482498
 21
-285.1240154851465
 31
0.0
  0
LINE
  5
55
330
1F
100
AcDbEntity
  8
1-F
  6
Continuous
 62
     7
370
     9
100
AcDbLine
 10
-857.009680094292
 20
-345.1240967868026
 30
0.0
 11
-971.2671532482498
 21
-345.1240967868026
 31
0.0
  0
LINE
  5
56
330
1F
100
AcDbEntity
  8
1-F
  6
Continuous
 62
     7
370
     9
100
AcDbLine
 10
-968.2670267004545
 20
-285.1240154851465
 30
0.0
 11
-972.182973984932
 21
-255.3806636040383
 31
0.0
  0
LINE
  5
57
330
1F
100
AcDbEntity
  8
1-F
  6
Continuous
 62
     7
370
     9
100
AcDbLine
 10
-968.2670267004545
 20
-345.1240967868026
 30
0.0
 11
-972.182973984932
 21
-374.8674486679107
 31
0.0
  0
LINE
  5
58
330
1F
100
AcDbEntity
  8
1-F
  6
Continuous
 62
     7
370
     9
100
AcDbLine
 10
-968.2670267004545
 20
-345.1240967868026
 30
0.0
 11
-964.3514293665834
 21
-374.8674486679107
 31
0.0
  0
LINE
  5
59
330
1F
100
AcDbEntity
  8
1-F
  6
Continuous
 62
     7
370
     9
100
AcDbLine
 10
-968.2670267004545
 20
-285.1240154851465
 30
0.0
 11
-964.3514293665834
 21
-255.3806636040383
 31
0.0
  0
LINE
  5
5A
330
1F
100
AcDbEntity
  8
1-F
  6
Continuous
 62
     7
370
     9
100
AcDbLine
 10
-968.2670267004545
 20
-246.5613833994126
 30
0.0
 11
-968.2670267004545
 21
-384.1362404263265
 31
0.0
  0
LINE
  5
5B
330
1F
100
AcDbEntity
  8
1-F
  6
JWW_CENTER1
 62
     7
370
     9
100
AcDbLine
 10
-497.0095422349625
 20
-275.6148076602038
 30
0.0
 11
-497.0095422349625
 21
-354.6333046117452
 31
0.0
  0
LINE
  5
5C
330
1F
100
AcDbEntity
  8
1-F
  6
JWW_CENTER1
 62
     7
370
     9
100
AcDbLine
 10
-837.0096529937402
 20
-275.6148076602038
 30
0.0
 11
-837.0096529937402
 21
-354.6333046117452
 31
0.0
  0
LINE
  5
5D
330
1F
100
AcDbEntity
  8
1-0
  6
Continuous
 62
     7
370
     9
100
AcDbLine
 10
-867.009693644568
 20
-458.562073108461
 30
0.0
 11
-467.0095015841345
 21
-458.562073108461
 31
0.0
  0
LINE
  5
5E
330
1F
100
AcDbEntity
  8
1-0
  6
Continuous
 62
     7
370
     9
100
AcDbLine
 10
-867.009693644568
 20
-335.1240832365265
 30
0.0
 11
-867.009693644568
 21
-461.5621121686046
 31
0.0
  0
LINE
  5
5F
330
1F
100
AcDbEntity
  8
1-0
  6
Continuous
 62
     7
370
     9
100
AcDbLine
 10
-467.0095015841345
 20
-335.1240832365265
 30
0.0
 11
-467.0095015841345
 21
-461.5621121686046
 31
0.0
  0
LINE
  5
60
330
1F
100
AcDbEntity
  8
1-0
  6
Continuous
 62
     7
370
     9
100
AcDbLine
 10
-867.009693644568
 20
-458.562073108461
 30
0.0
 11
-837.2663417634599
 21
-454.6463007992867
 31
0.0
  0
LINE
  5
61
330
1F
100
AcDbEntity
  8
1-0
  6
Continuous
 62
     7
370
     9
100
AcDbLine
 10
-867.009693644568
 20
-458.562073108461
 30
0.0
 11
-837.2663417634599
 21
-462.4778454176355
 31
0.0
  0
LINE
  5
62
330
1F
100
AcDbEntity
  8
1-0
  6
Continuous
 62
     7
370
     9
100
AcDbLine
 10
-467.0095015841345
 20
-458.562073108461
 30
0.0
 11
-496.7528534652427
 21
-454.6463007992867
 31
0.0
  0
LINE
  5
63
330
1F
100
AcDbEntity
  8
1-0
  6
Continuous
 62
     7
370
     9
100
AcDbLine
 10
-467.0095015841345
 20
-458.562073108461
 30
0.0
 11
-496.7528534652427
 21
-462.4778454176355
 31
0.0
  0
ARC
  5
64
330
1F
100
AcDbEntity
  8
1-0
  6
Continuous
 62
     3
370
     9
100
AcDbCircle
 10
-837.0096529937402
 20
-315.1240561359745
 30
0.0
 40
29.99999964099133
100
AcDbArc
 50
90.0
 51
270.0
  0
ARC
  5
65
330
1F
100
AcDbEntity
  8
1-0
  6
Continuous
 62
     3
370
     9
100
AcDbCircle
 10
-497.0095422349625
 20
-315.1240561359745
 30
0.0
 40
29.99999964099133
100
AcDbArc
 50
270.0
 51
90.0
  0
TEXT
  5
66
330
1F
100
AcDbEntity
  8
1-F
  6
Continuous
 62
     2
370
     9
100
AcDbText
 10
-978.9071209632442
 20
-325.1240561359745
 30
0.0
 40
30.48
  1
6
 50
90.0
 41
0.9999999999999998
  7
ＭＳ ゴシック
100
AcDbText
  0
TEXT
  5
67
330
1F
100
AcDbEntity
  8
1-F
  6
Continuous
 62
     2
370
   211
100
AcDbText
 10
-688.2595976143512
 20
-447.9220731084611
 30
0.0
 40
30.48
  1
40
 41
1.0625
  7
ＭＳ ゴシック
100
AcDbText
  0
TEXT
  5
68
330
1F
100
AcDbEntity
  8
1-F
  6
Continuous
 62
     2
370
     9
100
AcDbText
 10
-934.5096851020028
 20
-591.961735885688
 30
0.0
 40
30.48
  1
排水穴詳細図　Ｓ＝１：１
 41
1.114583333333333
  7
ＭＳ ゴシック
100
AcDbText
  0
LINE
  5
69
330
1F
100
AcDbEntity
  8
1-F
  6
Continuous
 62
     7
370
     9
100
AcDbLine
 10
-955.5389569980789
 20
-609.3476530107862
 30
0.0
 11
-387.1896483206527
 21
-609.3476530107862
 31
0.0
  0
LINE
  5
6A
330
1F
100
AcDbEntity
  8
2-F
  6
Continuous
 62
     7
370
     9
100
AcDbLine
 10
505.9893147108854
 20
-279.6427355535988
 30
0.0
 11
357.3505942905487
 21
-279.6427355535988
 31
0.0
  0
LINE
  5
6B
330
1F
100
AcDbEntity
  8
2-0
  6
Continuous
 62
     3
370
     9
100
AcDbLine
 10
344.1224613724747
 20
-418.9893925002008
 30
0.0
 11
539.9002283623994
 21
-418.9893925002008
 31
0.0
  0
LINE
  5
6C
330
1F
100
AcDbEntity
  8
2-0
  6
Continuous
 62
     3
370
     9
100
AcDbLine
 10
330.0600462089849
 20
-440.0834526836928
 30
0.0
 11
344.1224613724747
 21
-418.9893925002008
 31
0.0
  0
LINE
  5
6D
330
1F
100
AcDbEntity
  8
2-0
  6
Continuous
 62
     3
370
     9
100
AcDbLine
 10
553.9633434271016
 20
-440.0834526836928
 30
0.0
 11
539.9002283623994
 21
-418.9893925002008
 31
0.0
  0
LINE
  5
6E
330
1F
100
AcDbEntity
  8
2-F
  6
Continuous
 62
     7
370
     9
100
AcDbLine
 10
292.0113165886002
 20
-198.2753701325834
 30
0.0
 11
592.011373146274
 21
-198.2753701325834
 31
0.0
  0
LINE
  5
6F
330
1F
100
AcDbEntity
  8
2-F
  6
Continuous
 62
     7
370
     9
100
AcDbLine
 10
592.011373146274
 20
-368.9894122364723
 30
0.0
 11
592.011373146274
 21
-195.2753310724401
 31
0.0
  0
LINE
  5
70
330
1F
100
AcDbEntity
  8
2-F
  6
Continuous
 62
     7
370
     9
100
AcDbLine
 10
292.0113165886002
 20
-198.2753701325834
 30
0.0
 11
321.7550184203147
 21
-194.3595978234091
 31
0.0
  0
LINE
  5
71
330
1F
100
AcDbEntity
  8
2-F
  6
Continuous
 62
     7
370
     9
100
AcDbLine
 10
292.0113165886002
 20
-198.2753701325834
 30
0.0
 11
321.7550184203147
 21
-202.1911424417579
 31
0.0
  0
LINE
  5
72
330
1F
100
AcDbEntity
  8
2-F
  6
Continuous
 62
     7
370
     9
100
AcDbLine
 10
592.011373146274
 20
-198.2753701325834
 30
0.0
 11
562.2683712157723
 21
-194.3595978234091
 31
0.0
  0
LINE
  5
73
330
1F
100
AcDbEntity
  8
2-F
  6
Continuous
 62
     7
370
     9
100
AcDbLine
 10
592.011373146274
 20
-198.2753701325834
 30
0.0
 11
562.2683712157723
 21
-202.1911424417579
 31
0.0
  0
LINE
  5
74
330
1F
100
AcDbEntity
  8
2-F
  6
Continuous
 62
     7
370
     9
100
AcDbLine
 10
452.0115333930161
 20
-338.9893715856443
 30
0.0
 11
452.0115333930161
 21
-276.6426964934553
 31
0.0
  0
LINE
  5
75
330
1F
100
AcDbEntity
  8
2-F
  6
Continuous
 62
     7
370
     9
100
AcDbLine
 10
432.0118562430704
 20
-338.9893715856443
 30
0.0
 11
432.0118562430704
 21
-276.6426964934553
 31
0.0
  0
LINE
  5
76
330
1F
100
AcDbEntity
  8
2-F
  6
Continuous
 62
     7
370
     9
100
AcDbLine
 10
452.0115333930161
 20
-279.6427355535988
 30
0.0
 11
481.7552352247307
 21
-275.7269632444244
 31
0.0
  0
LINE
  5
77
330
1F
100
AcDbEntity
  8
2-F
  6
Continuous
 62
     7
370
     9
100
AcDbLine
 10
452.0115333930161
 20
-279.6427355535988
 30
0.0
 11
481.7552352247307
 21
-283.5585078627732
 31
0.0
  0
LINE
  5
78
330
1F
100
AcDbEntity
  8
2-F
  6
Continuous
 62
     7
370
     9
100
AcDbLine
 10
412.0114791919124
 20
-338.9893715856443
 30
0.0
 11
412.0114791919124
 21
-276.6426964934553
 31
0.0
  0
LINE
  5
79
330
1F
100
AcDbEntity
  8
2-F
  6
Continuous
 62
     7
370
     9
100
AcDbLine
 10
412.0114791919124
 20
-279.6427355535988
 30
0.0
 11
382.2684772614101
 21
-275.7269632444244
 31
0.0
  0
LINE
  5
7A
330
1F
100
AcDbEntity
  8
2-F
  6
Continuous
 62
     7
370
     9
100
AcDbLine
 10
412.0114791919124
 20
-279.6427355535988
 30
0.0
 11
382.2684772614101
 21
-283.5585078627732
 31
0.0
  0
LINE
  5
7B
330
1F
100
AcDbEntity
  8
2-0
  6
Continuous
 62
     3
370
     9
100
AcDbLine
 10
313.4191949782902
 20
-448.9894331510288
 30
0.0
 11
207.4114574172077
 21
-448.9894331510288
 31
0.0
  0
LINE
  5
7C
330
1F
100
AcDbEntity
  8
2-0
  6
Continuous
 62
     3
370
     9
100
AcDbLine
 10
570.6041946577968
 20
-448.9894331510288
 30
0.0
 11
676.6115822682727
 21
-448.9894331510288
 31
0.0
  0
LINE
  5
7D
330
1F
100
AcDbEntity
  8
2-F
  6
Continuous
 62
     7
370
     9
100
AcDbLine
 10
187.4114303166558
 20
-388.9894393370244
 30
0.0
 11
57.39515643517809
 21
-388.9894393370244
 31
0.0
  0
LINE
  5
7E
330
1F
100
AcDbEntity
  8
2-F
  6
Continuous
 62
     7
370
     9
100
AcDbLine
 10
60.39510800766966
 20
-358.9893986861964
 30
0.0
 11
56.47933569849574
 21
-329.2460468050882
 31
0.0
  0
LINE
  5
7F
330
1F
100
AcDbEntity
  8
2-F
  6
Continuous
 62
     7
370
     9
100
AcDbLine
 10
60.39510800766966
 20
-358.9893986861964
 30
0.0
 11
64.31088031684413
 21
-329.2460468050882
 31
0.0
  0
LINE
  5
80
330
1F
100
AcDbEntity
  8
2-F
  6
Continuous
 62
     7
370
     9
100
AcDbLine
 10
60.39510800766966
 20
-388.9894393370244
 30
0.0
 11
56.47933569849574
 21
-418.7327912181326
 31
0.0
  0
LINE
  5
81
330
1F
100
AcDbEntity
  8
2-F
  6
Continuous
 62
     7
370
     9
100
AcDbLine
 10
60.39510800766966
 20
-388.9894393370244
 30
0.0
 11
64.31088031684413
 21
-418.7327912181326
 31
0.0
  0
LINE
  5
82
330
1F
100
AcDbEntity
  8
2-F
  6
Continuous
 62
     7
370
     9
100
AcDbLine
 10
60.39510800766966
 20
-318.4646810385997
 30
0.0
 11
60.39510800766966
 21
-429.7065423304335
 31
0.0
  0
LINE
  5
83
330
1F
100
AcDbEntity
  8
2-F
  6
Continuous
 62
     7
370
     9
100
AcDbLine
 10
149.1635788012874
 20
-358.9891362232416
 30
0.0
 11
132.1636782485304
 21
-358.9891362232416
 31
0.0
  0
LINE
  5
84
330
1F
100
AcDbEntity
  8
2-F
  6
Continuous
 62
     7
370
     9
100
AcDbLine
 10
129.1639016513416
 20
-358.9891362232416
 30
0.0
 11
125.2479543668638
 21
-329.2457843421334
 31
0.0
  0
LINE
  5
85
330
1F
100
AcDbEntity
  8
2-F
  6
Continuous
 62
     7
370
     9
100
AcDbLine
 10
129.1639016513416
 20
-358.9891362232416
 30
0.0
 11
133.0794989852128
 21
-329.2457843421334
 31
0.0
  0
LINE
  5
86
330
1F
100
AcDbEntity
  8
2-F
  6
Continuous
 62
     7
370
     9
100
AcDbLine
 10
129.1639016513416
 20
-368.9892372611693
 30
0.0
 11
125.2479543668638
 21
-398.7325891422774
 31
0.0
  0
LINE
  5
87
330
1F
100
AcDbEntity
  8
2-F
  6
Continuous
 62
     7
370
     9
100
AcDbLine
 10
129.1639016513416
 20
-368.9892372611693
 30
0.0
 11
133.0794989852128
 21
-398.7325891422774
 31
0.0
  0
LINE
  5
88
330
1F
100
AcDbEntity
  8
2-F
  6
Continuous
 62
     7
370
     9
100
AcDbLine
 10
129.1639016513416
 20
-263.4070396373456
 30
0.0
 11
129.1639016513416
 21
-404.6555031538755
 31
0.0
  0
LINE
  5
89
330
1F
100
AcDbEntity
  8
2-0
  6
Continuous
 62
     3
370
     9
100
AcDbLine
 10
570.2867894578841
 20
-360.7144801999437
 30
0.0
 11
563.4260078214069
 21
-367.5751743487695
 31
0.0
  0
LINE
  5
8A
330
1F
100
AcDbEntity
  8
2-0
  6
Continuous
 62
     3
370
     9
100
AcDbLine
 10
313.7366001782029
 20
-360.714392712292
 30
0.0
 11
320.5973818146801
 21
-367.575086861118
 31
0.0
  0
LINE
  5
8B
330
1F
100
AcDbEntity
  8
2-0
  6
Continuous
 62
     3
370
     9
100
AcDbLine
 10
676.6115822682727
 20
-388.9894393370244
 30
0.0
 11
592.011373146274
 21
-388.9894393370244
 31
0.0
  0
LINE
  5
8C
330
1F
100
AcDbEntity
  8
2-0
  6
Continuous
 62
     3
370
     9
100
AcDbLine
 10
573.36530494149
 20
-361.0192871780294
 30
0.0
 11
592.011373146274
 21
-388.9894393370244
 31
0.0
  0
LINE
  5
8D
330
1F
100
AcDbEntity
  8
2-0
  6
Continuous
 62
     3
370
     9
100
AcDbLine
 10
292.0113165886002
 20
-388.9894393370244
 30
0.0
 11
207.4114574172077
 21
-388.9894393370244
 31
0.0
  0
LINE
  5
8E
330
1F
100
AcDbEntity
  8
2-0
  6
Continuous
 62
     3
370
     9
100
AcDbLine
 10
292.0113165886002
 20
-388.9894393370244
 30
0.0
 11
310.6580846945971
 21
-361.0192871780294
 31
0.0
  0
LINE
  5
8F
330
1F
100
AcDbEntity
  8
2-0
  6
Continuous
 62
     3
370
     9
100
AcDbLine
 10
332.0113707897044
 20
-358.9893986861964
 30
0.0
 11
323.4256826147824
 21
-367.575086861118
 31
0.0
  0
LINE
  5
90
330
1F
100
AcDbEntity
  8
2-0
  6
Continuous
 62
     3
370
     9
100
AcDbLine
 10
352.0117478408624
 20
-358.9893986861964
 30
0.0
 11
332.0113707897044
 21
-358.9893986861964
 31
0.0
  0
LINE
  5
91
330
1F
100
AcDbEntity
  8
2-0
  6
Continuous
 62
     3
370
     9
100
AcDbLine
 10
352.0117478408624
 20
-358.9893986861964
 30
0.0
 11
360.5974360157838
 21
-367.5751743487695
 31
0.0
  0
LINE
  5
92
330
1F
100
AcDbEntity
  8
2-0
  6
Continuous
 62
     3
370
     9
100
AcDbLine
 10
372.0114249908081
 20
-358.9893986861964
 30
0.0
 11
363.4257368158867
 21
-367.5751743487695
 31
0.0
  0
LINE
  5
93
330
1F
100
AcDbEntity
  8
2-0
  6
Continuous
 62
     3
370
     9
100
AcDbLine
 10
392.0118020419667
 20
-358.9893986861964
 30
0.0
 11
372.0114249908081
 21
-358.9893986861964
 31
0.0
  0
LINE
  5
94
330
1F
100
AcDbEntity
  8
2-0
  6
Continuous
 62
     3
370
     9
100
AcDbLine
 10
392.0118020419667
 20
-358.9893986861964
 30
0.0
 11
400.5974902168881
 21
-367.5751743487695
 31
0.0
  0
LINE
  5
95
330
1F
100
AcDbEntity
  8
2-0
  6
Continuous
 62
     3
370
     9
100
AcDbLine
 10
412.0114791919124
 20
-358.9893986861964
 30
0.0
 11
403.4257910169904
 21
-367.5751743487695
 31
0.0
  0
LINE
  5
96
330
1F
100
AcDbEntity
  8
2-0
  6
Continuous
 62
     3
370
     9
100
AcDbLine
 10
432.0118562430704
 20
-358.9893986861964
 30
0.0
 11
412.0114791919124
 21
-358.9893986861964
 31
0.0
  0
LINE
  5
97
330
1F
100
AcDbEntity
  8
2-0
  6
Continuous
 62
     3
370
     9
100
AcDbLine
 10
432.0118562430704
 20
-358.9893986861964
 30
0.0
 11
440.5975444179924
 21
-367.5751743487695
 31
0.0
  0
LINE
  5
98
330
1F
100
AcDbEntity
  8
2-0
  6
Continuous
 62
     3
370
     9
100
AcDbLine
 10
452.0115333930161
 20
-358.9893986861964
 30
0.0
 11
443.4258452180947
 21
-367.5751743487695
 31
0.0
  0
LINE
  5
99
330
1F
100
AcDbEntity
  8
2-0
  6
Continuous
 62
     3
370
     9
100
AcDbLine
 10
472.0119104441746
 20
-358.9893986861964
 30
0.0
 11
452.0115333930161
 21
-358.9893986861964
 31
0.0
  0
LINE
  5
9A
330
1F
100
AcDbEntity
  8
2-0
  6
Continuous
 62
     3
370
     9
100
AcDbLine
 10
472.0119104441746
 20
-358.9893986861964
 30
0.0
 11
480.5975986190961
 21
-367.5751743487695
 31
0.0
  0
LINE
  5
9B
330
1F
100
AcDbEntity
  8
2-0
  6
Continuous
 62
     3
370
     9
100
AcDbLine
 10
492.0115875941203
 20
-358.9893986861964
 30
0.0
 11
483.4258994191989
 21
-367.5751743487695
 31
0.0
  0
LINE
  5
9C
330
1F
100
AcDbEntity
  8
2-0
  6
Continuous
 62
     3
370
     9
100
AcDbLine
 10
512.0119646452783
 20
-358.9893986861964
 30
0.0
 11
492.0115875941203
 21
-358.9893986861964
 31
0.0
  0
LINE
  5
9D
330
1F
100
AcDbEntity
  8
2-0
  6
Continuous
 62
     3
370
     9
100
AcDbLine
 10
512.0119646452783
 20
-358.9893986861964
 30
0.0
 11
520.5976528202003
 21
-367.5751743487695
 31
0.0
  0
LINE
  5
9E
330
1F
100
AcDbEntity
  8
2-0
  6
Continuous
 62
     3
370
     9
100
AcDbLine
 10
532.011641795224
 20
-358.9893986861964
 30
0.0
 11
523.4259536203026
 21
-367.5751743487695
 31
0.0
  0
LINE
  5
9F
330
1F
100
AcDbEntity
  8
2-0
  6
Continuous
 62
     3
370
     9
100
AcDbLine
 10
552.0120188463826
 20
-358.9893986861964
 30
0.0
 11
532.011641795224
 21
-358.9893986861964
 31
0.0
  0
LINE
  5
A0
330
1F
100
AcDbEntity
  8
2-0
  6
Continuous
 62
     3
370
     9
100
AcDbLine
 10
552.0120188463826
 20
-358.9893986861964
 30
0.0
 11
560.597707021304
 21
-367.5751743487695
 31
0.0
  0
LINE
  5
A1
330
1F
100
AcDbEntity
  8
2-F
  6
Continuous
 62
     7
370
     9
100
AcDbLine
 10
292.0113165886002
 20
-368.9894122364723
 30
0.0
 11
292.0113165886002
 21
-195.2753310724401
 31
0.0
  0
LINE
  5
A2
330
1F
100
AcDbEntity
  8
2-F
  6
Continuous
 62
     7
370
     9
100
AcDbLine
 10
276.299234267021
 20
-368.9892372611693
 30
0.0
 11
126.1637751035467
 21
-368.9892372611693
 31
0.0
  0
LINE
  5
A3
330
1F
100
AcDbEntity
  8
2-F
  6
Continuous
 62
     7
370
     9
100
AcDbLine
 10
279.0208001322022
 20
-358.9893986861964
 30
0.0
 11
57.39515643517809
 21
-358.9893986861964
 31
0.0
  0
ARC
  5
A4
330
1F
100
AcDbEntity
  8
2-0
  6
Continuous
 62
     3
370
     9
100
AcDbCircle
 10
313.4191949782902
 20
-428.9894060504768
 30
0.0
 40
19.99999976066088
100
AcDbArc
 50
270.0
 51
326.3095855712891
  0
ARC
  5
A5
330
1F
100
AcDbEntity
  8
2-0
  6
Continuous
 62
     3
370
     9
100
AcDbCircle
 10
570.6041946577968
 20
-428.9894060504768
 30
0.0
 40
19.99999976066088
100
AcDbArc
 50
213.690414428711
 51
270.0
  0
ARC
  5
A6
330
1F
100
AcDbEntity
  8
2-0
  6
Continuous
 62
     3
370
     9
100
AcDbCircle
 10
322.0115322147316
 20
-366.160848973415
 30
0.0
 40
2.000000010240953
100
AcDbArc
 50
225.0017700195312
 51
314.9982299804688
  0
ARC
  5
A7
330
1F
100
AcDbEntity
  8
2-0
  6
Continuous
 62
     3
370
     9
100
AcDbCircle
 10
362.0115864158353
 20
-366.1610239487183
 30
0.0
 40
2.000000010240953
100
AcDbArc
 50
225.0
 51
315.0
  0
ARC
  5
A8
330
1F
100
AcDbEntity
  8
2-0
  6
Continuous
 62
     3
370
     9
100
AcDbCircle
 10
402.0116406169395
 20
-366.1610239487183
 30
0.0
 40
2.000000010240953
100
AcDbArc
 50
225.0
 51
315.0
  0
ARC
  5
A9
330
1F
100
AcDbEntity
  8
2-0
  6
Continuous
 62
     3
370
     9
100
AcDbCircle
 10
442.0116948180432
 20
-366.1610239487183
 30
0.0
 40
2.000000010240953
100
AcDbArc
 50
225.0
 51
315.0
  0
ARC
  5
AA
330
1F
100
AcDbEntity
  8
2-0
  6
Continuous
 62
     3
370
     9
100
AcDbCircle
 10
482.0117490191475
 20
-366.1610239487183
 30
0.0
 40
2.000000010240953
100
AcDbArc
 50
225.0
 51
315.0
  0
ARC
  5
AB
330
1F
100
AcDbEntity
  8
2-0
  6
Continuous
 62
     3
370
     9
100
AcDbCircle
 10
522.0118032202512
 20
-366.1610239487183
 30
0.0
 40
2.000000010240953
100
AcDbArc
 50
225.0
 51
315.0
  0
ARC
  5
AC
330
1F
100
AcDbEntity
  8
2-0
  6
Continuous
 62
     3
370
     9
100
AcDbCircle
 10
562.0118574213554
 20
-366.1610239487183
 30
0.0
 40
2.000000010240953
100
AcDbArc
 50
225.0
 51
315.0
  0
ARC
  5
AD
330
1F
100
AcDbEntity
  8
2-0
  6
Continuous
 62
     3
370
     9
100
AcDbCircle
 10
571.7009398579355
 20
-362.1287180876465
 30
0.0
 40
2.000000010240953
100
AcDbArc
 50
33.68937683105469
 51
134.9982299804688
  0
ARC
  5
AE
330
1F
100
AcDbEntity
  8
2-0
  6
Continuous
 62
     3
370
     9
100
AcDbCircle
 10
312.3224497781515
 20
-362.1286305999948
 30
0.0
 40
2.000000010240953
100
AcDbArc
 50
45.00177001953125
 51
146.3127136230469
  0
TEXT
  5
AF
330
1F
100
AcDbEntity
  8
2-F
  6
Continuous
 62
     2
370
     9
100
AcDbText
 10
398.261169892134
 20
-187.6353633574455
 30
0.0
 40
30.48
  1
Φ15
 41
1.09375
  7
ＭＳ ゴシック
100
AcDbText
  0
TEXT
  5
B0
330
1F
100
AcDbEntity
  8
2-F
  6
Continuous
 62
     2
370
     9
100
AcDbText
 10
485.8342730420193
 20
-269.0027287784608
 30
0.0
 40
30.48
  1
1
 41
0.9999999999999998
  7
ＭＳ ゴシック
100
AcDbText
  0
TEXT
  5
B1
330
1F
100
AcDbEntity
  8
2-F
  6
Continuous
 62
     2
370
     9
100
AcDbText
 10
359.3523253088508
 20
-269.0027287784608
 30
0.0
 40
30.48
  1
1
 41
0.9999999999999998
  7
ＭＳ ゴシック
100
AcDbText
  0
TEXT
  5
B2
330
1F
100
AcDbEntity
  8
2-F
  6
Continuous
 62
     2
370
     9
100
AcDbText
 10
49.75518872018352
 20
-406.4894190116103
 30
0.0
 40
30.48
  1
1.5
 50
90.0
 41
1.083333333333333
  7
ＭＳ ゴシック
100
AcDbText
  0
TEXT
  5
B3
330
1F
100
AcDbEntity
  8
2-F
  6
Continuous
 62
     2
370
     9
100
AcDbText
 10
118.5238073885521
 20
-326.2224732721
 30
0.0
 40
30.48
  1
0.5
 50
90.0
 41
1.083333333333333
  7
ＭＳ ゴシック
100
AcDbText
  0
LWPOLYLINE
  5
B4
330
1F
100
AcDbEntity
  8
2-F
  6
Continuous
 62
     7
370
     9
100
AcDbPolyline
 90
        4
 70
     1
 43
1.0
 10
432.5118562430703
 20
-279.6427355535988
 42
0.4142135623731
 10
432.0118562430704
 20
-279.1427355535988
 42
0.4142135623731
 10
431.5118562430704
 20
-279.6427355535988
 42
0.4142135623731
 10
432.0118562430704
 20
-280.1427355535988
 42
0.4142135623731
  0
LINE
  5
B5
330
1F
100
AcDbEntity
  8
1-F
  6
Continuous
 62
     7
370
     9
100
AcDbLine
 10
140.5873392927358
 20
-609.3476530107862
 30
0.0
 11
743.4357003927446
 21
-609.3476530107862
 31
0.0
  0
TEXT
  5
B6
330
1F
100
AcDbEntity
  8
1-F
  6
Continuous
 62
     2
370
     9
100
AcDbText
 10
152.0118697933466
 20
-591.961735885688
 30
0.0
 40
30.48
  1
滑り止め詳細図　Ｓ＝２：１
 41
1.115384615384615
  7
ＭＳ ゴシック
100
AcDbText
  0
TEXT
  5
B7
330
1F
100
AcDbEntity
  8
D-5
  6
Continuous
 62
     2
370
     9
100
AcDbText
 10
1144.619077706092
 20
-949.1365616060189
 30
0.0
 40
30.48
  1
ＸＱ－Ｂ－１５　２５０Ｘ５００
 50
359.999975610655
 41
1.116666666666666
  7
ＭＳ ゴシック
100
AcDbText
  0
TEXT
  5
B8
330
1F
100
AcDbEntity
  8
F-5
  6
Continuous
 62
     2
370
     9
100
AcDbText
 10
-835.0002886797932
 20
-1347.468295749973
 30
0.0
 40
30.48
  1
ステンレス製排水蓋　ＸＱ－Ｂ－１５　２５０Ｘ５００
 41
1.12
  7
ＭＳ ゴシック
100
AcDbText
  0
TEXT
  5
B9
330
1F
100
AcDbEntity
  8
0-5
  6
Continuous
 62
     2
370
     9
100
AcDbText
 10
65.61785174780049
 20
152.7738695458374
 30
0.0
 40
30.48
  1
詳細図　Ｓ＝１：５
 41
1.111111111111111
  7
ＭＳ ゴシック
100
AcDbText
  0
LINE
  5
BA
330
1F
100
AcDbEntity
  8
0-5
  6
Continuous
 62
     7
370
     9
100
AcDbLine
 10
548.0545947519552
 20
195.490972257098
 30
0.0
 11
548.0545947519552
 21
138.7767668345771
 31
0.0
  0
LINE
  5
BB
330
1F
100
AcDbEntity
  8
0-5
  6
Continuous
 62
     7
370
     9
100
AcDbLine
 10
548.0545947519552
 20
138.7767668345771
 30
0.0
 11
-16.81889125635422
 21
138.7767668345771
 31
0.0
  0
LINE
  5
BC
330
1F
100
AcDbEntity
  8
0-5
  6
Continuous
 62
     7
370
     9
100
AcDbLine
 10
-16.81889125635422
 20
195.490972257098
 30
0.0
 11
548.0545947519552
 21
195.490972257098
 31
0.0
  0
LINE
  5
BD
330
1F
100
AcDbEntity
  8
0-5
  6
Continuous
 62
     7
370
     9
100
AcDbLine
 10
-16.81889125635422
 20
138.7767668345771
 30
0.0
 11
-16.81889125635422
 21
195.490972257098
 31
0.0
  0
LINE
  5
BE
330
1F
100
AcDbEntity
  8
0-0
  6
Continuous
 62
     3
370
     9
100
AcDbLine
 10
-1076.209215493398
 20
445.1448006226624
 30
0.0
 11
-1076.209215493398
 21
945.1456881068261
 31
0.0
  0
LINE
  5
BF
330
1F
100
AcDbEntity
  8
0-0
  6
Continuous
 62
     3
370
     9
100
AcDbLine
 10
-1076.209215493398
 20
945.1456881068261
 30
0.0
 11
-78.20943795358197
 21
945.1456881068261
 31
0.0
  0
LINE
  5
C0
330
1F
100
AcDbEntity
  8
0-0
  6
Continuous
 62
     3
370
     9
100
AcDbLine
 10
-78.20943795358197
 20
945.1456881068261
 30
0.0
 11
-78.20943795358197
 21
445.1448006226624
 31
0.0
  0
LINE
  5
C1
330
1F
100
AcDbEntity
  8
0-0
  6
Continuous
 62
     3
370
     9
100
AcDbLine
 10
-78.20943795358197
 20
445.1448006226624
 30
0.0
 11
-1076.209215493398
 21
445.1448006226624
 31
0.0
  0
LINE
  5
C2
330
1F
100
AcDbEntity
  8
0-8
  6
Continuous
 62
     3
370
     9
100
AcDbLine
 10
-931.2075317243196
 20
839.1460693998099
 30
0.0
 11
-863.2073695923216
 21
839.1460693998099
 31
0.0
  0
LINE
  5
C3
330
1F
100
AcDbEntity
  8
0-8
  6
Continuous
 62
     3
370
     9
100
AcDbLine
 10
-931.2075317243196
 20
827.145283248145
 30
0.0
 11
-863.2073695923216
 21
827.145283248145
 31
0.0
  0
LINE
  5
C4
330
1F
100
AcDbEntity
  8
0-0
  6
JWW_DASHED2
 62
     3
370
     9
100
AcDbLine
 10
-1076.209215493398
 20
939.145574991479
 30
0.0
 11
-78.20943795358197
 21
939.145574991479
 31
0.0
  0
LINE
  5
C5
330
1F
100
AcDbEntity
  8
0-0
  6
JWW_DASHED2
 62
     3
370
     9
100
AcDbLine
 10
-78.20943795358197
 20
451.1447737577672
 30
0.0
 11
-1076.209215493398
 21
451.1447737577672
 31
0.0
  0
LINE
  5
C6
330
1F
100
AcDbEntity
  8
0-8
  6
JWW_CENTER1
 62
     7
370
     9
100
AcDbLine
 10
-897.2074506583206
 20
843.18659910013
 30
0.0
 11
-897.2074506583206
 21
823.1046135675829
 31
0.0
  0
LINE
  5
C7
330
1F
100
AcDbEntity
  8
0-8
  6
JWW_CENTER1
 62
     7
370
     9
100
AcDbLine
 10
-941.9211295558985
 20
833.1456763239773
 30
0.0
 11
-852.4937717607428
 21
833.1456763239773
 31
0.0
  0
LINE
  5
C8
330
1F
100
AcDbEntity
  8
0-8
  6
Continuous
 62
     3
370
     9
100
AcDbLine
 10
-981.2071445399115
 20
867.1456174097339
 30
0.0
 11
-981.2071445399115
 21
891.145789910639
 31
0.0
  0
LINE
  5
C9
330
1F
100
AcDbEntity
  8
0-8
  6
Continuous
 62
     3
370
     9
100
AcDbLine
 10
-985.2072199501431
 20
867.1456174097339
 30
0.0
 11
-985.2072199501431
 21
891.145789910639
 31
0.0
  0
LINE
  5
CA
330
1F
100
AcDbEntity
  8
0-8
  6
Continuous
 62
     3
370
     9
100
AcDbLine
 10
-977.2072791000437
 20
867.1456174097339
 30
0.0
 11
-977.2072791000437
 21
891.145789910639
 31
0.0
  0
LINE
  5
CB
330
1F
100
AcDbEntity
  8
0-8
  6
Continuous
 62
     3
370
     9
100
AcDbLine
 10
-973.2073436700546
 20
867.1456174097339
 30
0.0
 11
-973.2073436700546
 21
891.145789910639
 31
0.0
  0
LINE
  5
CC
330
1F
100
AcDbEntity
  8
0-8
  6
Continuous
 62
     3
370
     9
100
AcDbLine
 10
-969.2072682598229
 20
867.1456174097339
 30
0.0
 11
-969.2072682598229
 21
891.145789910639
 31
0.0
  0
LINE
  5
CD
330
1F
100
AcDbEntity
  8
0-8
  6
Continuous
 62
     3
370
     9
100
AcDbLine
 10
-989.2072953603748
 20
883.1456390901756
 30
0.0
 11
-965.2071928495911
 21
883.1456390901756
 31
0.0
  0
LINE
  5
CE
330
1F
100
AcDbEntity
  8
0-8
  6
Continuous
 62
     3
370
     9
100
AcDbLine
 10
-989.2072953603748
 20
887.1457145004072
 30
0.0
 11
-965.2071928495911
 21
887.1457145004072
 31
0.0
  0
LINE
  5
CF
330
1F
100
AcDbEntity
  8
0-8
  6
Continuous
 62
     3
370
     9
100
AcDbLine
 10
-989.2072953603748
 20
879.1457036601864
 30
0.0
 11
-965.2071928495911
 21
879.1457036601864
 31
0.0
  0
LINE
  5
D0
330
1F
100
AcDbEntity
  8
0-8
  6
Continuous
 62
     3
370
     9
100
AcDbLine
 10
-989.2072953603748
 20
875.1457682301973
 30
0.0
 11
-965.2071928495911
 21
875.1457682301973
 31
0.0
  0
LINE
  5
D1
330
1F
100
AcDbEntity
  8
0-8
  6
Continuous
 62
     3
370
     9
100
AcDbLine
 10
-989.2072953603748
 20
871.1456928199658
 30
0.0
 11
-965.2071928495911
 21
871.1456928199658
 31
0.0
  0
LINE
  5
D2
330
1F
100
AcDbEntity
  8
0-8
  6
JWW_CENTER1
 62
     7
370
     9
100
AcDbLine
 10
-996.6375166234208
 20
879.1457036601864
 30
0.0
 11
-957.7771115667878
 21
879.1457036601864
 31
0.0
  0
LINE
  5
D3
330
1F
100
AcDbEntity
  8
0-8
  6
JWW_CENTER1
 62
     7
370
     9
100
AcDbLine
 10
-977.2072791000437
 20
859.7154661368095
 30
0.0
 11
-977.2072791000437
 21
898.5759411835636
 31
0.0
  0
LINE
  5
D4
330
1F
100
AcDbEntity
  8
0-8
  6
JWW_CENTER1
 62
     7
370
     9
100
AcDbLine
 10
-118.2093521744434
 20
714.5758318387277
 30
0.0
 11
-118.2093521744434
 21
675.7153567919736
 31
0.0
  0
LINE
  5
D5
330
1F
100
AcDbEntity
  8
0-0
  6
JWW_CENTER1
 62
     7
370
     9
100
AcDbLine
 10
-577.2093267234902
 20
967.2986813274465
 30
0.0
 11
-577.2093267234902
 21
422.9918074020421
 31
0.0
  0
LINE
  5
D6
330
1F
100
AcDbEntity
  8
0-8
  6
Continuous
 62
     3
370
     9
100
AcDbLine
 10
-981.2071445399115
 20
775.1456327274375
 30
0.0
 11
-981.2071445399115
 21
799.1458052283423
 31
0.0
  0
LINE
  5
D7
330
1F
100
AcDbEntity
  8
0-8
  6
Continuous
 62
     3
370
     9
100
AcDbLine
 10
-985.2072199501431
 20
775.1456327274375
 30
0.0
 11
-985.2072199501431
 21
799.1458052283423
 31
0.0
  0
LINE
  5
D8
330
1F
100
AcDbEntity
  8
0-8
  6
Continuous
 62
     3
370
     9
100
AcDbLine
 10
-977.2072791000437
 20
775.1456327274375
 30
0.0
 11
-977.2072791000437
 21
799.1458052283423
 31
0.0
  0
LINE
  5
D9
330
1F
100
AcDbEntity
  8
0-8
  6
Continuous
 62
     3
370
     9
100
AcDbLine
 10
-973.2073436700546
 20
775.1456327274375
 30
0.0
 11
-973.2073436700546
 21
799.1458052283423
 31
0.0
  0
LINE
  5
DA
330
1F
100
AcDbEntity
  8
0-8
  6
Continuous
 62
     3
370
     9
100
AcDbLine
 10
-969.2072682598229
 20
775.1456327274375
 30
0.0
 11
-969.2072682598229
 21
799.1458052283423
 31
0.0
  0
LINE
  5
DB
330
1F
100
AcDbEntity
  8
0-8
  6
Continuous
 62
     3
370
     9
100
AcDbLine
 10
-989.2072953603748
 20
791.1456544078789
 30
0.0
 11
-965.2071928495911
 21
791.1456544078789
 31
0.0
  0
LINE
  5
DC
330
1F
100
AcDbEntity
  8
0-8
  6
Continuous
 62
     3
370
     9
100
AcDbLine
 10
-989.2072953603748
 20
795.1457298181106
 30
0.0
 11
-965.2071928495911
 21
795.1457298181106
 31
0.0
  0
LINE
  5
DD
330
1F
100
AcDbEntity
  8
0-8
  6
Continuous
 62
     3
370
     9
100
AcDbLine
 10
-989.2072953603748
 20
787.1457189778897
 30
0.0
 11
-965.2071928495911
 21
787.1457189778897
 31
0.0
  0
LINE
  5
DE
330
1F
100
AcDbEntity
  8
0-8
  6
Continuous
 62
     3
370
     9
100
AcDbLine
 10
-989.2072953603748
 20
783.1457835479006
 30
0.0
 11
-965.2071928495911
 21
783.1457835479006
 31
0.0
  0
LINE
  5
DF
330
1F
100
AcDbEntity
  8
0-8
  6
Continuous
 62
     3
370
     9
100
AcDbLine
 10
-989.2072953603748
 20
779.1457081376689
 30
0.0
 11
-965.2071928495911
 21
779.1457081376689
 31
0.0
  0
LINE
  5
E0
330
1F
100
AcDbEntity
  8
0-8
  6
JWW_CENTER1
 62
     7
370
     9
100
AcDbLine
 10
-996.6375166234208
 20
787.1457189778897
 30
0.0
 11
-957.7771115667878
 21
787.1457189778897
 31
0.0
  0
LINE
  5
E1
330
1F
100
AcDbEntity
  8
0-8
  6
JWW_CENTER1
 62
     7
370
     9
100
AcDbLine
 10
-977.2072791000437
 20
767.7154814545124
 30
0.0
 11
-977.2072791000437
 21
806.575956501267
 31
0.0
  0
LINE
  5
E2
330
1F
100
AcDbEntity
  8
0-8
  6
Continuous
 62
     3
370
     9
100
AcDbLine
 10
-981.2071445399115
 20
683.1456480451404
 30
0.0
 11
-981.2071445399115
 21
707.1458205460456
 31
0.0
  0
LINE
  5
E3
330
1F
100
AcDbEntity
  8
0-8
  6
Continuous
 62
     3
370
     9
100
AcDbLine
 10
-985.2072199501431
 20
683.1456480451404
 30
0.0
 11
-985.2072199501431
 21
707.1458205460456
 31
0.0
  0
LINE
  5
E4
330
1F
100
AcDbEntity
  8
0-8
  6
Continuous
 62
     3
370
     9
100
AcDbLine
 10
-977.2072791000437
 20
683.1456480451404
 30
0.0
 11
-977.2072791000437
 21
707.1458205460456
 31
0.0
  0
LINE
  5
E5
330
1F
100
AcDbEntity
  8
0-8
  6
Continuous
 62
     3
370
     9
100
AcDbLine
 10
-973.2073436700546
 20
683.1456480451404
 30
0.0
 11
-973.2073436700546
 21
707.1458205460456
 31
0.0
  0
LINE
  5
E6
330
1F
100
AcDbEntity
  8
0-8
  6
Continuous
 62
     3
370
     9
100
AcDbLine
 10
-969.2072682598229
 20
683.1456480451404
 30
0.0
 11
-969.2072682598229
 21
707.1458205460456
 31
0.0
  0
LINE
  5
E7
330
1F
100
AcDbEntity
  8
0-8
  6
Continuous
 62
     3
370
     9
100
AcDbLine
 10
-989.2072953603748
 20
699.1456697255821
 30
0.0
 11
-965.2071928495911
 21
699.1456697255821
 31
0.0
  0
LINE
  5
E8
330
1F
100
AcDbEntity
  8
0-8
  6
Continuous
 62
     3
370
     9
100
AcDbLine
 10
-989.2072953603748
 20
703.145745135814
 30
0.0
 11
-965.2071928495911
 21
703.145745135814
 31
0.0
  0
LINE
  5
E9
330
1F
100
AcDbEntity
  8
0-8
  6
Continuous
 62
     3
370
     9
100
AcDbLine
 10
-989.2072953603748
 20
695.145734295593
 30
0.0
 11
-965.2071928495911
 21
695.145734295593
 31
0.0
  0
LINE
  5
EA
330
1F
100
AcDbEntity
  8
0-8
  6
Continuous
 62
     3
370
     9
100
AcDbLine
 10
-989.2072953603748
 20
691.1457988656039
 30
0.0
 11
-965.2071928495911
 21
691.1457988656039
 31
0.0
  0
LINE
  5
EB
330
1F
100
AcDbEntity
  8
0-8
  6
Continuous
 62
     3
370
     9
100
AcDbLine
 10
-989.2072953603748
 20
687.1457234553723
 30
0.0
 11
-965.2071928495911
 21
687.1457234553723
 31
0.0
  0
LINE
  5
EC
330
1F
100
AcDbEntity
  8
0-8
  6
JWW_CENTER1
 62
     7
370
     9
100
AcDbLine
 10
-977.2072791000437
 20
675.7154967722158
 30
0.0
 11
-977.2072791000437
 21
714.5759718189703
 31
0.0
  0
LINE
  5
ED
330
1F
100
AcDbEntity
  8
0-8
  6
Continuous
 62
     3
370
     9
100
AcDbLine
 10
-981.2071445399115
 20
591.1455933727225
 30
0.0
 11
-981.2071445399115
 21
615.1457658736276
 31
0.0
  0
LINE
  5
EE
330
1F
100
AcDbEntity
  8
0-8
  6
Continuous
 62
     3
370
     9
100
AcDbLine
 10
-985.2072199501431
 20
591.1455933727225
 30
0.0
 11
-985.2072199501431
 21
615.1457658736276
 31
0.0
  0
LINE
  5
EF
330
1F
100
AcDbEntity
  8
0-8
  6
Continuous
 62
     3
370
     9
100
AcDbLine
 10
-977.2072791000437
 20
591.1455933727225
 30
0.0
 11
-977.2072791000437
 21
615.1457658736276
 31
0.0
  0
LINE
  5
F0
330
1F
100
AcDbEntity
  8
0-8
  6
Continuous
 62
     3
370
     9
100
AcDbLine
 10
-973.2073436700546
 20
591.1455933727225
 30
0.0
 11
-973.2073436700546
 21
615.1457658736276
 31
0.0
  0
LINE
  5
F1
330
1F
100
AcDbEntity
  8
0-8
  6
Continuous
 62
     3
370
     9
100
AcDbLine
 10
-969.2072682598229
 20
591.1455933727225
 30
0.0
 11
-969.2072682598229
 21
615.1457658736276
 31
0.0
  0
LINE
  5
F2
330
1F
100
AcDbEntity
  8
0-8
  6
Continuous
 62
     3
370
     9
100
AcDbLine
 10
-989.2072953603748
 20
607.1456150531642
 30
0.0
 11
-965.2071928495911
 21
607.1456150531642
 31
0.0
  0
LINE
  5
F3
330
1F
100
AcDbEntity
  8
0-8
  6
Continuous
 62
     3
370
     9
100
AcDbLine
 10
-989.2072953603748
 20
611.145690463396
 30
0.0
 11
-965.2071928495911
 21
611.145690463396
 31
0.0
  0
LINE
  5
F4
330
1F
100
AcDbEntity
  8
0-8
  6
Continuous
 62
     3
370
     9
100
AcDbLine
 10
-989.2072953603748
 20
603.145679623175
 30
0.0
 11
-965.2071928495911
 21
603.145679623175
 31
0.0
  0
LINE
  5
F5
330
1F
100
AcDbEntity
  8
0-8
  6
Continuous
 62
     3
370
     9
100
AcDbLine
 10
-989.2072953603748
 20
599.1457441931859
 30
0.0
 11
-965.2071928495911
 21
599.1457441931859
 31
0.0
  0
LINE
  5
F6
330
1F
100
AcDbEntity
  8
0-8
  6
Continuous
 62
     3
370
     9
100
AcDbLine
 10
-989.2072953603748
 20
595.1456687829543
 30
0.0
 11
-965.2071928495911
 21
595.1456687829543
 31
0.0
  0
LINE
  5
F7
330
1F
100
AcDbEntity
  8
0-8
  6
JWW_CENTER1
 62
     7
370
     9
100
AcDbLine
 10
-996.6375166234208
 20
603.145679623175
 30
0.0
 11
-957.7771115667878
 21
603.145679623175
 31
0.0
  0
LINE
  5
F8
330
1F
100
AcDbEntity
  8
0-8
  6
JWW_CENTER1
 62
     7
370
     9
100
AcDbLine
 10
-977.2072791000437
 20
583.7154420997979
 30
0.0
 11
-977.2072791000437
 21
622.5759171465523
 31
0.0
  0
LINE
  5
F9
330
1F
100
AcDbEntity
  8
0-8
  6
Continuous
 62
     3
370
     9
100
AcDbLine
 10
-981.2071445399115
 20
499.1456086904259
 30
0.0
 11
-981.2071445399115
 21
523.1457811913308
 31
0.0
  0
LINE
  5
FA
330
1F
100
AcDbEntity
  8
0-8
  6
Continuous
 62
     3
370
     9
100
AcDbLine
 10
-985.2072199501431
 20
499.1456086904259
 30
0.0
 11
-985.2072199501431
 21
523.1457811913308
 31
0.0
  0
LINE
  5
FB
330
1F
100
AcDbEntity
  8
0-8
  6
Continuous
 62
     3
370
     9
100
AcDbLine
 10
-977.2072791000437
 20
499.1456086904259
 30
0.0
 11
-977.2072791000437
 21
523.1457811913308
 31
0.0
  0
LINE
  5
FC
330
1F
100
AcDbEntity
  8
0-8
  6
Continuous
 62
     3
370
     9
100
AcDbLine
 10
-973.2073436700546
 20
499.1456086904259
 30
0.0
 11
-973.2073436700546
 21
523.1457811913308
 31
0.0
  0
LINE
  5
FD
330
1F
100
AcDbEntity
  8
0-8
  6
Continuous
 62
     3
370
     9
100
AcDbLine
 10
-969.2072682598229
 20
499.1456086904259
 30
0.0
 11
-969.2072682598229
 21
523.1457811913308
 31
0.0
  0
LINE
  5
FE
330
1F
100
AcDbEntity
  8
0-8
  6
Continuous
 62
     3
370
     9
100
AcDbLine
 10
-989.2072953603748
 20
515.1456303708676
 30
0.0
 11
-965.2071928495911
 21
515.1456303708676
 31
0.0
  0
LINE
  5
FF
330
1F
100
AcDbEntity
  8
0-8
  6
Continuous
 62
     3
370
     9
100
AcDbLine
 10
-989.2072953603748
 20
519.1457057810993
 30
0.0
 11
-965.2071928495911
 21
519.1457057810993
 31
0.0
  0
LINE
  5
100
330
1F
100
AcDbEntity
  8
0-8
  6
Continuous
 62
     3
370
     9
100
AcDbLine
 10
-989.2072953603748
 20
511.1456949408785
 30
0.0
 11
-965.2071928495911
 21
511.1456949408785
 31
0.0
  0
LINE
  5
101
330
1F
100
AcDbEntity
  8
0-8
  6
Continuous
 62
     3
370
     9
100
AcDbLine
 10
-989.2072953603748
 20
507.1457595108893
 30
0.0
 11
-965.2071928495911
 21
507.1457595108893
 31
0.0
  0
LINE
  5
102
330
1F
100
AcDbEntity
  8
0-8
  6
Continuous
 62
     3
370
     9
100
AcDbLine
 10
-989.2072953603748
 20
503.1456841006576
 30
0.0
 11
-965.2071928495911
 21
503.1456841006576
 31
0.0
  0
LINE
  5
103
330
1F
100
AcDbEntity
  8
0-8
  6
JWW_CENTER1
 62
     7
370
     9
100
AcDbLine
 10
-996.6375166234208
 20
511.1456949408785
 30
0.0
 11
-957.7771115667878
 21
511.1456949408785
 31
0.0
  0
LINE
  5
104
330
1F
100
AcDbEntity
  8
0-8
  6
JWW_CENTER1
 62
     7
370
     9
100
AcDbLine
 10
-977.2072791000437
 20
491.7154574175012
 30
0.0
 11
-977.2072791000437
 21
530.5759324642556
 31
0.0
  0
LINE
  5
105
330
1F
100
AcDbEntity
  8
0-8
  6
Continuous
 62
     3
370
     9
100
AcDbLine
 10
-931.2075317243196
 20
747.1460847175135
 30
0.0
 11
-863.2073695923216
 21
747.1460847175135
 31
0.0
  0
LINE
  5
106
330
1F
100
AcDbEntity
  8
0-8
  6
Continuous
 62
     3
370
     9
100
AcDbLine
 10
-931.2075317243196
 20
735.1452985658483
 30
0.0
 11
-863.2073695923216
 21
735.1452985658483
 31
0.0
  0
LINE
  5
107
330
1F
100
AcDbEntity
  8
0-8
  6
JWW_CENTER1
 62
     7
370
     9
100
AcDbLine
 10
-897.2074506583206
 20
751.186614417833
 30
0.0
 11
-897.2074506583206
 21
731.1046288852858
 31
0.0
  0
LINE
  5
108
330
1F
100
AcDbEntity
  8
0-8
  6
JWW_CENTER1
 62
     7
370
     9
100
AcDbLine
 10
-941.9211295558985
 20
741.1456916416807
 30
0.0
 11
-852.4937717607428
 21
741.1456916416807
 31
0.0
  0
LINE
  5
109
330
1F
100
AcDbEntity
  8
0-8
  6
Continuous
 62
     3
370
     9
100
AcDbLine
 10
-931.2075317243196
 20
655.1461000352165
 30
0.0
 11
-863.2073695923216
 21
655.1461000352165
 31
0.0
  0
LINE
  5
10A
330
1F
100
AcDbEntity
  8
0-8
  6
Continuous
 62
     3
370
     9
100
AcDbLine
 10
-931.2075317243196
 20
643.1453138835516
 30
0.0
 11
-863.2073695923216
 21
643.1453138835516
 31
0.0
  0
LINE
  5
10B
330
1F
100
AcDbEntity
  8
0-8
  6
JWW_CENTER1
 62
     7
370
     9
100
AcDbLine
 10
-897.2074506583206
 20
659.1866297355364
 30
0.0
 11
-897.2074506583206
 21
639.1046442029892
 31
0.0
  0
LINE
  5
10C
330
1F
100
AcDbEntity
  8
0-8
  6
JWW_CENTER1
 62
     7
370
     9
100
AcDbLine
 10
-941.9211295558985
 20
649.1457069593841
 30
0.0
 11
-852.4937717607428
 21
649.1457069593841
 31
0.0
  0
LINE
  5
10D
330
1F
100
AcDbEntity
  8
0-8
  6
Continuous
 62
     3
370
     9
100
AcDbLine
 10
-931.2075317243196
 20
563.1460453627985
 30
0.0
 11
-863.2073695923216
 21
563.1460453627985
 31
0.0
  0
LINE
  5
10E
330
1F
100
AcDbEntity
  8
0-8
  6
Continuous
 62
     3
370
     9
100
AcDbLine
 10
-931.2075317243196
 20
551.1452592111336
 30
0.0
 11
-863.2073695923216
 21
551.1452592111336
 31
0.0
  0
LINE
  5
10F
330
1F
100
AcDbEntity
  8
0-8
  6
JWW_CENTER1
 62
     7
370
     9
100
AcDbLine
 10
-897.2074506583206
 20
567.1865750631184
 30
0.0
 11
-897.2074506583206
 21
547.1045895305713
 31
0.0
  0
LINE
  5
110
330
1F
100
AcDbEntity
  8
0-8
  6
JWW_CENTER1
 62
     7
370
     9
100
AcDbLine
 10
-941.9211295558985
 20
557.1456522869662
 30
0.0
 11
-852.4937717607428
 21
557.1456522869662
 31
0.0
  0
LINE
  5
111
330
1F
100
AcDbEntity
  8
0-8
  6
Continuous
 62
     3
370
     9
100
AcDbLine
 10
-821.2071377058592
 20
867.1456174097339
 30
0.0
 11
-821.2071377058592
 21
891.145789910639
 31
0.0
  0
LINE
  5
112
330
1F
100
AcDbEntity
  8
0-8
  6
Continuous
 62
     3
370
     9
100
AcDbLine
 10
-825.207213116091
 20
867.1456174097339
 30
0.0
 11
-825.207213116091
 21
891.145789910639
 31
0.0
  0
LINE
  5
113
330
1F
100
AcDbEntity
  8
0-8
  6
Continuous
 62
     3
370
     9
100
AcDbLine
 10
-817.2072722659914
 20
867.1456174097339
 30
0.0
 11
-817.2072722659914
 21
891.145789910639
 31
0.0
  0
LINE
  5
114
330
1F
100
AcDbEntity
  8
0-8
  6
Continuous
 62
     3
370
     9
100
AcDbLine
 10
-813.2073368360022
 20
867.1456174097339
 30
0.0
 11
-813.2073368360022
 21
891.145789910639
 31
0.0
  0
LINE
  5
115
330
1F
100
AcDbEntity
  8
0-8
  6
Continuous
 62
     3
370
     9
100
AcDbLine
 10
-809.2072614257705
 20
867.1456174097339
 30
0.0
 11
-809.2072614257705
 21
891.145789910639
 31
0.0
  0
LINE
  5
116
330
1F
100
AcDbEntity
  8
0-8
  6
Continuous
 62
     3
370
     9
100
AcDbLine
 10
-829.2072885263226
 20
883.1456390901756
 30
0.0
 11
-805.2071860155389
 21
883.1456390901756
 31
0.0
  0
LINE
  5
117
330
1F
100
AcDbEntity
  8
0-8
  6
Continuous
 62
     3
370
     9
100
AcDbLine
 10
-829.2072885263226
 20
887.1457145004072
 30
0.0
 11
-805.2071860155389
 21
887.1457145004072
 31
0.0
  0
LINE
  5
118
330
1F
100
AcDbEntity
  8
0-8
  6
Continuous
 62
     3
370
     9
100
AcDbLine
 10
-829.2072885263226
 20
879.1457036601864
 30
0.0
 11
-805.2071860155389
 21
879.1457036601864
 31
0.0
  0
LINE
  5
119
330
1F
100
AcDbEntity
  8
0-8
  6
Continuous
 62
     3
370
     9
100
AcDbLine
 10
-829.2072885263226
 20
875.1457682301973
 30
0.0
 11
-805.2071860155389
 21
875.1457682301973
 31
0.0
  0
LINE
  5
11A
330
1F
100
AcDbEntity
  8
0-8
  6
Continuous
 62
     3
370
     9
100
AcDbLine
 10
-829.2072885263226
 20
871.1456928199658
 30
0.0
 11
-805.2071860155389
 21
871.1456928199658
 31
0.0
  0
LINE
  5
11B
330
1F
100
AcDbEntity
  8
0-8
  6
JWW_CENTER1
 62
     7
370
     9
100
AcDbLine
 10
-836.6375097893686
 20
879.1457036601864
 30
0.0
 11
-797.7771047327354
 21
879.1457036601864
 31
0.0
  0
LINE
  5
11C
330
1F
100
AcDbEntity
  8
0-8
  6
JWW_CENTER1
 62
     7
370
     9
100
AcDbLine
 10
-817.2072722659914
 20
859.7154661368095
 30
0.0
 11
-817.2072722659914
 21
898.5759411835636
 31
0.0
  0
LINE
  5
11D
330
1F
100
AcDbEntity
  8
0-8
  6
Continuous
 62
     3
370
     9
100
AcDbLine
 10
-821.2071377058592
 20
775.1456327274375
 30
0.0
 11
-821.2071377058592
 21
799.1458052283423
 31
0.0
  0
LINE
  5
11E
330
1F
100
AcDbEntity
  8
0-8
  6
Continuous
 62
     3
370
     9
100
AcDbLine
 10
-825.207213116091
 20
775.1456327274375
 30
0.0
 11
-825.207213116091
 21
799.1458052283423
 31
0.0
  0
LINE
  5
11F
330
1F
100
AcDbEntity
  8
0-8
  6
Continuous
 62
     3
370
     9
100
AcDbLine
 10
-817.2072722659914
 20
775.1456327274375
 30
0.0
 11
-817.2072722659914
 21
799.1458052283423
 31
0.0
  0
LINE
  5
120
330
1F
100
AcDbEntity
  8
0-8
  6
Continuous
 62
     3
370
     9
100
AcDbLine
 10
-813.2073368360022
 20
775.1456327274375
 30
0.0
 11
-813.2073368360022
 21
799.1458052283423
 31
0.0
  0
LINE
  5
121
330
1F
100
AcDbEntity
  8
0-8
  6
Continuous
 62
     3
370
     9
100
AcDbLine
 10
-809.2072614257705
 20
775.1456327274375
 30
0.0
 11
-809.2072614257705
 21
799.1458052283423
 31
0.0
  0
LINE
  5
122
330
1F
100
AcDbEntity
  8
0-8
  6
Continuous
 62
     3
370
     9
100
AcDbLine
 10
-829.2072885263226
 20
791.1456544078789
 30
0.0
 11
-805.2071860155389
 21
791.1456544078789
 31
0.0
  0
LINE
  5
123
330
1F
100
AcDbEntity
  8
0-8
  6
Continuous
 62
     3
370
     9
100
AcDbLine
 10
-829.2072885263226
 20
795.1457298181106
 30
0.0
 11
-805.2071860155389
 21
795.1457298181106
 31
0.0
  0
LINE
  5
124
330
1F
100
AcDbEntity
  8
0-8
  6
Continuous
 62
     3
370
     9
100
AcDbLine
 10
-829.2072885263226
 20
787.1457189778897
 30
0.0
 11
-805.2071860155389
 21
787.1457189778897
 31
0.0
  0
LINE
  5
125
330
1F
100
AcDbEntity
  8
0-8
  6
Continuous
 62
     3
370
     9
100
AcDbLine
 10
-829.2072885263226
 20
783.1457835479006
 30
0.0
 11
-805.2071860155389
 21
783.1457835479006
 31
0.0
  0
LINE
  5
126
330
1F
100
AcDbEntity
  8
0-8
  6
Continuous
 62
     3
370
     9
100
AcDbLine
 10
-829.2072885263226
 20
779.1457081376689
 30
0.0
 11
-805.2071860155389
 21
779.1457081376689
 31
0.0
  0
LINE
  5
127
330
1F
100
AcDbEntity
  8
0-8
  6
JWW_CENTER1
 62
     7
370
     9
100
AcDbLine
 10
-836.6375097893686
 20
787.1457189778897
 30
0.0
 11
-797.7771047327354
 21
787.1457189778897
 31
0.0
  0
LINE
  5
128
330
1F
100
AcDbEntity
  8
0-8
  6
JWW_CENTER1
 62
     7
370
     9
100
AcDbLine
 10
-817.2072722659914
 20
767.7154814545124
 30
0.0
 11
-817.2072722659914
 21
806.575956501267
 31
0.0
  0
LINE
  5
129
330
1F
100
AcDbEntity
  8
0-8
  6
Continuous
 62
     3
370
     9
100
AcDbLine
 10
-821.2071377058592
 20
683.1456480451404
 30
0.0
 11
-821.2071377058592
 21
707.1458205460456
 31
0.0
  0
LINE
  5
12A
330
1F
100
AcDbEntity
  8
0-8
  6
Continuous
 62
     3
370
     9
100
AcDbLine
 10
-825.207213116091
 20
683.1456480451404
 30
0.0
 11
-825.207213116091
 21
707.1458205460456
 31
0.0
  0
LINE
  5
12B
330
1F
100
AcDbEntity
  8
0-8
  6
Continuous
 62
     3
370
     9
100
AcDbLine
 10
-817.2072722659914
 20
683.1456480451404
 30
0.0
 11
-817.2072722659914
 21
707.1458205460456
 31
0.0
  0
LINE
  5
12C
330
1F
100
AcDbEntity
  8
0-8
  6
Continuous
 62
     3
370
     9
100
AcDbLine
 10
-813.2073368360022
 20
683.1456480451404
 30
0.0
 11
-813.2073368360022
 21
707.1458205460456
 31
0.0
  0
LINE
  5
12D
330
1F
100
AcDbEntity
  8
0-8
  6
Continuous
 62
     3
370
     9
100
AcDbLine
 10
-809.2072614257705
 20
683.1456480451404
 30
0.0
 11
-809.2072614257705
 21
707.1458205460456
 31
0.0
  0
LINE
  5
12E
330
1F
100
AcDbEntity
  8
0-8
  6
Continuous
 62
     3
370
     9
100
AcDbLine
 10
-829.2072885263226
 20
699.1456697255821
 30
0.0
 11
-805.2071860155389
 21
699.1456697255821
 31
0.0
  0
LINE
  5
12F
330
1F
100
AcDbEntity
  8
0-8
  6
Continuous
 62
     3
370
     9
100
AcDbLine
 10
-829.2072885263226
 20
703.145745135814
 30
0.0
 11
-805.2071860155389
 21
703.145745135814
 31
0.0
  0
LINE
  5
130
330
1F
100
AcDbEntity
  8
0-8
  6
Continuous
 62
     3
370
     9
100
AcDbLine
 10
-829.2072885263226
 20
695.145734295593
 30
0.0
 11
-805.2071860155389
 21
695.145734295593
 31
0.0
  0
LINE
  5
131
330
1F
100
AcDbEntity
  8
0-8
  6
Continuous
 62
     3
370
     9
100
AcDbLine
 10
-829.2072885263226
 20
691.1457988656039
 30
0.0
 11
-805.2071860155389
 21
691.1457988656039
 31
0.0
  0
LINE
  5
132
330
1F
100
AcDbEntity
  8
0-8
  6
Continuous
 62
     3
370
     9
100
AcDbLine
 10
-829.2072885263226
 20
687.1457234553723
 30
0.0
 11
-805.2071860155389
 21
687.1457234553723
 31
0.0
  0
LINE
  5
133
330
1F
100
AcDbEntity
  8
0-8
  6
JWW_CENTER1
 62
     7
370
     9
100
AcDbLine
 10
-817.2072722659914
 20
675.7154967722158
 30
0.0
 11
-817.2072722659914
 21
714.5759718189703
 31
0.0
  0
LINE
  5
134
330
1F
100
AcDbEntity
  8
0-8
  6
Continuous
 62
     3
370
     9
100
AcDbLine
 10
-821.2071377058592
 20
591.1455933727225
 30
0.0
 11
-821.2071377058592
 21
615.1457658736276
 31
0.0
  0
LINE
  5
135
330
1F
100
AcDbEntity
  8
0-8
  6
Continuous
 62
     3
370
     9
100
AcDbLine
 10
-825.207213116091
 20
591.1455933727225
 30
0.0
 11
-825.207213116091
 21
615.1457658736276
 31
0.0
  0
LINE
  5
136
330
1F
100
AcDbEntity
  8
0-8
  6
Continuous
 62
     3
370
     9
100
AcDbLine
 10
-817.2072722659914
 20
591.1455933727225
 30
0.0
 11
-817.2072722659914
 21
615.1457658736276
 31
0.0
  0
LINE
  5
137
330
1F
100
AcDbEntity
  8
0-8
  6
Continuous
 62
     3
370
     9
100
AcDbLine
 10
-813.2073368360022
 20
591.1455933727225
 30
0.0
 11
-813.2073368360022
 21
615.1457658736276
 31
0.0
  0
LINE
  5
138
330
1F
100
AcDbEntity
  8
0-8
  6
Continuous
 62
     3
370
     9
100
AcDbLine
 10
-809.2072614257705
 20
591.1455933727225
 30
0.0
 11
-809.2072614257705
 21
615.1457658736276
 31
0.0
  0
LINE
  5
139
330
1F
100
AcDbEntity
  8
0-8
  6
Continuous
 62
     3
370
     9
100
AcDbLine
 10
-829.2072885263226
 20
607.1456150531642
 30
0.0
 11
-805.2071860155389
 21
607.1456150531642
 31
0.0
  0
LINE
  5
13A
330
1F
100
AcDbEntity
  8
0-8
  6
Continuous
 62
     3
370
     9
100
AcDbLine
 10
-829.2072885263226
 20
611.145690463396
 30
0.0
 11
-805.2071860155389
 21
611.145690463396
 31
0.0
  0
LINE
  5
13B
330
1F
100
AcDbEntity
  8
0-8
  6
Continuous
 62
     3
370
     9
100
AcDbLine
 10
-829.2072885263226
 20
603.145679623175
 30
0.0
 11
-805.2071860155389
 21
603.145679623175
 31
0.0
  0
LINE
  5
13C
330
1F
100
AcDbEntity
  8
0-8
  6
Continuous
 62
     3
370
     9
100
AcDbLine
 10
-829.2072885263226
 20
599.1457441931859
 30
0.0
 11
-805.2071860155389
 21
599.1457441931859
 31
0.0
  0
LINE
  5
13D
330
1F
100
AcDbEntity
  8
0-8
  6
Continuous
 62
     3
370
     9
100
AcDbLine
 10
-829.2072885263226
 20
595.1456687829543
 30
0.0
 11
-805.2071860155389
 21
595.1456687829543
 31
0.0
  0
LINE
  5
13E
330
1F
100
AcDbEntity
  8
0-8
  6
JWW_CENTER1
 62
     7
370
     9
100
AcDbLine
 10
-836.6375097893686
 20
603.145679623175
 30
0.0
 11
-797.7771047327354
 21
603.145679623175
 31
0.0
  0
LINE
  5
13F
330
1F
100
AcDbEntity
  8
0-8
  6
JWW_CENTER1
 62
     7
370
     9
100
AcDbLine
 10
-817.2072722659914
 20
583.7154420997979
 30
0.0
 11
-817.2072722659914
 21
622.5759171465523
 31
0.0
  0
LINE
  5
140
330
1F
100
AcDbEntity
  8
0-8
  6
Continuous
 62
     3
370
     9
100
AcDbLine
 10
-821.2071377058592
 20
499.1456086904259
 30
0.0
 11
-821.2071377058592
 21
523.1457811913308
 31
0.0
  0
LINE
  5
141
330
1F
100
AcDbEntity
  8
0-8
  6
Continuous
 62
     3
370
     9
100
AcDbLine
 10
-825.207213116091
 20
499.1456086904259
 30
0.0
 11
-825.207213116091
 21
523.1457811913308
 31
0.0
  0
LINE
  5
142
330
1F
100
AcDbEntity
  8
0-8
  6
Continuous
 62
     3
370
     9
100
AcDbLine
 10
-817.2072722659914
 20
499.1456086904259
 30
0.0
 11
-817.2072722659914
 21
523.1457811913308
 31
0.0
  0
LINE
  5
143
330
1F
100
AcDbEntity
  8
0-8
  6
Continuous
 62
     3
370
     9
100
AcDbLine
 10
-813.2073368360022
 20
499.1456086904259
 30
0.0
 11
-813.2073368360022
 21
523.1457811913308
 31
0.0
  0
LINE
  5
144
330
1F
100
AcDbEntity
  8
0-8
  6
Continuous
 62
     3
370
     9
100
AcDbLine
 10
-809.2072614257705
 20
499.1456086904259
 30
0.0
 11
-809.2072614257705
 21
523.1457811913308
 31
0.0
  0
LINE
  5
145
330
1F
100
AcDbEntity
  8
0-8
  6
Continuous
 62
     3
370
     9
100
AcDbLine
 10
-829.2072885263226
 20
515.1456303708676
 30
0.0
 11
-805.2071860155389
 21
515.1456303708676
 31
0.0
  0
LINE
  5
146
330
1F
100
AcDbEntity
  8
0-8
  6
Continuous
 62
     3
370
     9
100
AcDbLine
 10
-829.2072885263226
 20
519.1457057810993
 30
0.0
 11
-805.2071860155389
 21
519.1457057810993
 31
0.0
  0
LINE
  5
147
330
1F
100
AcDbEntity
  8
0-8
  6
Continuous
 62
     3
370
     9
100
AcDbLine
 10
-829.2072885263226
 20
511.1456949408785
 30
0.0
 11
-805.2071860155389
 21
511.1456949408785
 31
0.0
  0
LINE
  5
148
330
1F
100
AcDbEntity
  8
0-8
  6
Continuous
 62
     3
370
     9
100
AcDbLine
 10
-829.2072885263226
 20
507.1457595108893
 30
0.0
 11
-805.2071860155389
 21
507.1457595108893
 31
0.0
  0
LINE
  5
149
330
1F
100
AcDbEntity
  8
0-8
  6
Continuous
 62
     3
370
     9
100
AcDbLine
 10
-829.2072885263226
 20
503.1456841006576
 30
0.0
 11
-805.2071860155389
 21
503.1456841006576
 31
0.0
  0
LINE
  5
14A
330
1F
100
AcDbEntity
  8
0-8
  6
JWW_CENTER1
 62
     7
370
     9
100
AcDbLine
 10
-836.6375097893686
 20
511.1456949408785
 30
0.0
 11
-797.7771047327354
 21
511.1456949408785
 31
0.0
  0
LINE
  5
14B
330
1F
100
AcDbEntity
  8
0-8
  6
JWW_CENTER1
 62
     7
370
     9
100
AcDbLine
 10
-817.2072722659914
 20
491.7154574175012
 30
0.0
 11
-817.2072722659914
 21
530.5759324642556
 31
0.0
  0
LINE
  5
14C
330
1F
100
AcDbEntity
  8
0-8
  6
Continuous
 62
     3
370
     9
100
AcDbLine
 10
-661.2071308718071
 20
867.1456174097339
 30
0.0
 11
-661.2071308718071
 21
891.145789910639
 31
0.0
  0
LINE
  5
14D
330
1F
100
AcDbEntity
  8
0-8
  6
Continuous
 62
     3
370
     9
100
AcDbLine
 10
-665.2072062820387
 20
867.1456174097339
 30
0.0
 11
-665.2072062820387
 21
891.145789910639
 31
0.0
  0
LINE
  5
14E
330
1F
100
AcDbEntity
  8
0-8
  6
Continuous
 62
     3
370
     9
100
AcDbLine
 10
-657.207265431939
 20
867.1456174097339
 30
0.0
 11
-657.207265431939
 21
891.145789910639
 31
0.0
  0
LINE
  5
14F
330
1F
100
AcDbEntity
  8
0-8
  6
Continuous
 62
     3
370
     9
100
AcDbLine
 10
-653.2073300019499
 20
867.1456174097339
 30
0.0
 11
-653.2073300019499
 21
891.145789910639
 31
0.0
  0
LINE
  5
150
330
1F
100
AcDbEntity
  8
0-8
  6
Continuous
 62
     3
370
     9
100
AcDbLine
 10
-649.2072545917183
 20
867.1456174097339
 30
0.0
 11
-649.2072545917183
 21
891.145789910639
 31
0.0
  0
LINE
  5
151
330
1F
100
AcDbEntity
  8
0-8
  6
Continuous
 62
     3
370
     9
100
AcDbLine
 10
-669.2072816922703
 20
883.1456390901756
 30
0.0
 11
-645.2071791814867
 21
883.1456390901756
 31
0.0
  0
LINE
  5
152
330
1F
100
AcDbEntity
  8
0-8
  6
Continuous
 62
     3
370
     9
100
AcDbLine
 10
-669.2072816922703
 20
887.1457145004072
 30
0.0
 11
-645.2071791814867
 21
887.1457145004072
 31
0.0
  0
LINE
  5
153
330
1F
100
AcDbEntity
  8
0-8
  6
Continuous
 62
     3
370
     9
100
AcDbLine
 10
-669.2072816922703
 20
879.1457036601864
 30
0.0
 11
-645.2071791814867
 21
879.1457036601864
 31
0.0
  0
LINE
  5
154
330
1F
100
AcDbEntity
  8
0-8
  6
Continuous
 62
     3
370
     9
100
AcDbLine
 10
-669.2072816922703
 20
875.1457682301973
 30
0.0
 11
-645.2071791814867
 21
875.1457682301973
 31
0.0
  0
LINE
  5
155
330
1F
100
AcDbEntity
  8
0-8
  6
Continuous
 62
     3
370
     9
100
AcDbLine
 10
-669.2072816922703
 20
871.1456928199658
 30
0.0
 11
-645.2071791814867
 21
871.1456928199658
 31
0.0
  0
LINE
  5
156
330
1F
100
AcDbEntity
  8
0-8
  6
JWW_CENTER1
 62
     7
370
     9
100
AcDbLine
 10
-676.6375029553162
 20
879.1457036601864
 30
0.0
 11
-637.7770978986832
 21
879.1457036601864
 31
0.0
  0
LINE
  5
157
330
1F
100
AcDbEntity
  8
0-8
  6
JWW_CENTER1
 62
     7
370
     9
100
AcDbLine
 10
-657.207265431939
 20
859.7154661368095
 30
0.0
 11
-657.207265431939
 21
898.5759411835636
 31
0.0
  0
LINE
  5
158
330
1F
100
AcDbEntity
  8
0-8
  6
Continuous
 62
     3
370
     9
100
AcDbLine
 10
-661.2071308718071
 20
775.1456327274375
 30
0.0
 11
-661.2071308718071
 21
799.1458052283423
 31
0.0
  0
LINE
  5
159
330
1F
100
AcDbEntity
  8
0-8
  6
Continuous
 62
     3
370
     9
100
AcDbLine
 10
-665.2072062820387
 20
775.1456327274375
 30
0.0
 11
-665.2072062820387
 21
799.1458052283423
 31
0.0
  0
LINE
  5
15A
330
1F
100
AcDbEntity
  8
0-8
  6
Continuous
 62
     3
370
     9
100
AcDbLine
 10
-657.207265431939
 20
775.1456327274375
 30
0.0
 11
-657.207265431939
 21
799.1458052283423
 31
0.0
  0
LINE
  5
15B
330
1F
100
AcDbEntity
  8
0-8
  6
Continuous
 62
     3
370
     9
100
AcDbLine
 10
-653.2073300019499
 20
775.1456327274375
 30
0.0
 11
-653.2073300019499
 21
799.1458052283423
 31
0.0
  0
LINE
  5
15C
330
1F
100
AcDbEntity
  8
0-8
  6
Continuous
 62
     3
370
     9
100
AcDbLine
 10
-649.2072545917183
 20
775.1456327274375
 30
0.0
 11
-649.2072545917183
 21
799.1458052283423
 31
0.0
  0
LINE
  5
15D
330
1F
100
AcDbEntity
  8
0-8
  6
Continuous
 62
     3
370
     9
100
AcDbLine
 10
-669.2072816922703
 20
791.1456544078789
 30
0.0
 11
-645.2071791814867
 21
791.1456544078789
 31
0.0
  0
LINE
  5
15E
330
1F
100
AcDbEntity
  8
0-8
  6
Continuous
 62
     3
370
     9
100
AcDbLine
 10
-669.2072816922703
 20
795.1457298181106
 30
0.0
 11
-645.2071791814867
 21
795.1457298181106
 31
0.0
  0
LINE
  5
15F
330
1F
100
AcDbEntity
  8
0-8
  6
Continuous
 62
     3
370
     9
100
AcDbLine
 10
-669.2072816922703
 20
787.1457189778897
 30
0.0
 11
-645.2071791814867
 21
787.1457189778897
 31
0.0
  0
LINE
  5
160
330
1F
100
AcDbEntity
  8
0-8
  6
Continuous
 62
     3
370
     9
100
AcDbLine
 10
-669.2072816922703
 20
783.1457835479006
 30
0.0
 11
-645.2071791814867
 21
783.1457835479006
 31
0.0
  0
LINE
  5
161
330
1F
100
AcDbEntity
  8
0-8
  6
Continuous
 62
     3
370
     9
100
AcDbLine
 10
-669.2072816922703
 20
779.1457081376689
 30
0.0
 11
-645.2071791814867
 21
779.1457081376689
 31
0.0
  0
LINE
  5
162
330
1F
100
AcDbEntity
  8
0-8
  6
JWW_CENTER1
 62
     7
370
     9
100
AcDbLine
 10
-676.6375029553162
 20
787.1457189778897
 30
0.0
 11
-637.7770978986832
 21
787.1457189778897
 31
0.0
  0
LINE
  5
163
330
1F
100
AcDbEntity
  8
0-8
  6
JWW_CENTER1
 62
     7
370
     9
100
AcDbLine
 10
-657.207265431939
 20
767.7154814545124
 30
0.0
 11
-657.207265431939
 21
806.575956501267
 31
0.0
  0
LINE
  5
164
330
1F
100
AcDbEntity
  8
0-8
  6
Continuous
 62
     3
370
     9
100
AcDbLine
 10
-661.2071308718071
 20
683.1456480451404
 30
0.0
 11
-661.2071308718071
 21
707.1458205460456
 31
0.0
  0
LINE
  5
165
330
1F
100
AcDbEntity
  8
0-8
  6
Continuous
 62
     3
370
     9
100
AcDbLine
 10
-665.2072062820387
 20
683.1456480451404
 30
0.0
 11
-665.2072062820387
 21
707.1458205460456
 31
0.0
  0
LINE
  5
166
330
1F
100
AcDbEntity
  8
0-8
  6
Continuous
 62
     3
370
     9
100
AcDbLine
 10
-657.207265431939
 20
683.1456480451404
 30
0.0
 11
-657.207265431939
 21
707.1458205460456
 31
0.0
  0
LINE
  5
167
330
1F
100
AcDbEntity
  8
0-8
  6
Continuous
 62
     3
370
     9
100
AcDbLine
 10
-653.2073300019499
 20
683.1456480451404
 30
0.0
 11
-653.2073300019499
 21
707.1458205460456
 31
0.0
  0
LINE
  5
168
330
1F
100
AcDbEntity
  8
0-8
  6
Continuous
 62
     3
370
     9
100
AcDbLine
 10
-649.2072545917183
 20
683.1456480451404
 30
0.0
 11
-649.2072545917183
 21
707.1458205460456
 31
0.0
  0
LINE
  5
169
330
1F
100
AcDbEntity
  8
0-8
  6
Continuous
 62
     3
370
     9
100
AcDbLine
 10
-669.2072816922703
 20
699.1456697255821
 30
0.0
 11
-645.2071791814867
 21
699.1456697255821
 31
0.0
  0
LINE
  5
16A
330
1F
100
AcDbEntity
  8
0-8
  6
Continuous
 62
     3
370
     9
100
AcDbLine
 10
-669.2072816922703
 20
703.145745135814
 30
0.0
 11
-645.2071791814867
 21
703.145745135814
 31
0.0
  0
LINE
  5
16B
330
1F
100
AcDbEntity
  8
0-8
  6
Continuous
 62
     3
370
     9
100
AcDbLine
 10
-669.2072816922703
 20
695.145734295593
 30
0.0
 11
-645.2071791814867
 21
695.145734295593
 31
0.0
  0
LINE
  5
16C
330
1F
100
AcDbEntity
  8
0-8
  6
Continuous
 62
     3
370
     9
100
AcDbLine
 10
-669.2072816922703
 20
691.1457988656039
 30
0.0
 11
-645.2071791814867
 21
691.1457988656039
 31
0.0
  0
LINE
  5
16D
330
1F
100
AcDbEntity
  8
0-8
  6
Continuous
 62
     3
370
     9
100
AcDbLine
 10
-669.2072816922703
 20
687.1457234553723
 30
0.0
 11
-645.2071791814867
 21
687.1457234553723
 31
0.0
  0
LINE
  5
16E
330
1F
100
AcDbEntity
  8
0-8
  6
JWW_CENTER1
 62
     7
370
     9
100
AcDbLine
 10
-657.207265431939
 20
675.7154967722158
 30
0.0
 11
-657.207265431939
 21
714.5759718189703
 31
0.0
  0
LINE
  5
16F
330
1F
100
AcDbEntity
  8
0-8
  6
Continuous
 62
     3
370
     9
100
AcDbLine
 10
-661.2071308718071
 20
591.1455933727225
 30
0.0
 11
-661.2071308718071
 21
615.1457658736276
 31
0.0
  0
LINE
  5
170
330
1F
100
AcDbEntity
  8
0-8
  6
Continuous
 62
     3
370
     9
100
AcDbLine
 10
-665.2072062820387
 20
591.1455933727225
 30
0.0
 11
-665.2072062820387
 21
615.1457658736276
 31
0.0
  0
LINE
  5
171
330
1F
100
AcDbEntity
  8
0-8
  6
Continuous
 62
     3
370
     9
100
AcDbLine
 10
-657.207265431939
 20
591.1455933727225
 30
0.0
 11
-657.207265431939
 21
615.1457658736276
 31
0.0
  0
LINE
  5
172
330
1F
100
AcDbEntity
  8
0-8
  6
Continuous
 62
     3
370
     9
100
AcDbLine
 10
-653.2073300019499
 20
591.1455933727225
 30
0.0
 11
-653.2073300019499
 21
615.1457658736276
 31
0.0
  0
LINE
  5
173
330
1F
100
AcDbEntity
  8
0-8
  6
Continuous
 62
     3
370
     9
100
AcDbLine
 10
-649.2072545917183
 20
591.1455933727225
 30
0.0
 11
-649.2072545917183
 21
615.1457658736276
 31
0.0
  0
LINE
  5
174
330
1F
100
AcDbEntity
  8
0-8
  6
Continuous
 62
     3
370
     9
100
AcDbLine
 10
-669.2072816922703
 20
607.1456150531642
 30
0.0
 11
-645.2071791814867
 21
607.1456150531642
 31
0.0
  0
LINE
  5
175
330
1F
100
AcDbEntity
  8
0-8
  6
Continuous
 62
     3
370
     9
100
AcDbLine
 10
-669.2072816922703
 20
611.145690463396
 30
0.0
 11
-645.2071791814867
 21
611.145690463396
 31
0.0
  0
LINE
  5
176
330
1F
100
AcDbEntity
  8
0-8
  6
Continuous
 62
     3
370
     9
100
AcDbLine
 10
-669.2072816922703
 20
603.145679623175
 30
0.0
 11
-645.2071791814867
 21
603.145679623175
 31
0.0
  0
LINE
  5
177
330
1F
100
AcDbEntity
  8
0-8
  6
Continuous
 62
     3
370
     9
100
AcDbLine
 10
-669.2072816922703
 20
599.1457441931859
 30
0.0
 11
-645.2071791814867
 21
599.1457441931859
 31
0.0
  0
LINE
  5
178
330
1F
100
AcDbEntity
  8
0-8
  6
Continuous
 62
     3
370
     9
100
AcDbLine
 10
-669.2072816922703
 20
595.1456687829543
 30
0.0
 11
-645.2071791814867
 21
595.1456687829543
 31
0.0
  0
LINE
  5
179
330
1F
100
AcDbEntity
  8
0-8
  6
JWW_CENTER1
 62
     7
370
     9
100
AcDbLine
 10
-676.6375029553162
 20
603.145679623175
 30
0.0
 11
-637.7770978986832
 21
603.145679623175
 31
0.0
  0
LINE
  5
17A
330
1F
100
AcDbEntity
  8
0-8
  6
JWW_CENTER1
 62
     7
370
     9
100
AcDbLine
 10
-657.207265431939
 20
583.7154420997979
 30
0.0
 11
-657.207265431939
 21
622.5759171465523
 31
0.0
  0
LINE
  5
17B
330
1F
100
AcDbEntity
  8
0-8
  6
Continuous
 62
     3
370
     9
100
AcDbLine
 10
-661.2071308718071
 20
499.1456086904259
 30
0.0
 11
-661.2071308718071
 21
523.1457811913308
 31
0.0
  0
LINE
  5
17C
330
1F
100
AcDbEntity
  8
0-8
  6
Continuous
 62
     3
370
     9
100
AcDbLine
 10
-665.2072062820387
 20
499.1456086904259
 30
0.0
 11
-665.2072062820387
 21
523.1457811913308
 31
0.0
  0
LINE
  5
17D
330
1F
100
AcDbEntity
  8
0-8
  6
Continuous
 62
     3
370
     9
100
AcDbLine
 10
-657.207265431939
 20
499.1456086904259
 30
0.0
 11
-657.207265431939
 21
523.1457811913308
 31
0.0
  0
LINE
  5
17E
330
1F
100
AcDbEntity
  8
0-8
  6
Continuous
 62
     3
370
     9
100
AcDbLine
 10
-653.2073300019499
 20
499.1456086904259
 30
0.0
 11
-653.2073300019499
 21
523.1457811913308
 31
0.0
  0
LINE
  5
17F
330
1F
100
AcDbEntity
  8
0-8
  6
Continuous
 62
     3
370
     9
100
AcDbLine
 10
-649.2072545917183
 20
499.1456086904259
 30
0.0
 11
-649.2072545917183
 21
523.1457811913308
 31
0.0
  0
LINE
  5
180
330
1F
100
AcDbEntity
  8
0-8
  6
Continuous
 62
     3
370
     9
100
AcDbLine
 10
-669.2072816922703
 20
515.1456303708676
 30
0.0
 11
-645.2071791814867
 21
515.1456303708676
 31
0.0
  0
LINE
  5
181
330
1F
100
AcDbEntity
  8
0-8
  6
Continuous
 62
     3
370
     9
100
AcDbLine
 10
-669.2072816922703
 20
519.1457057810993
 30
0.0
 11
-645.2071791814867
 21
519.1457057810993
 31
0.0
  0
LINE
  5
182
330
1F
100
AcDbEntity
  8
0-8
  6
Continuous
 62
     3
370
     9
100
AcDbLine
 10
-669.2072816922703
 20
511.1456949408785
 30
0.0
 11
-645.2071791814867
 21
511.1456949408785
 31
0.0
  0
LINE
  5
183
330
1F
100
AcDbEntity
  8
0-8
  6
Continuous
 62
     3
370
     9
100
AcDbLine
 10
-669.2072816922703
 20
507.1457595108893
 30
0.0
 11
-645.2071791814867
 21
507.1457595108893
 31
0.0
  0
LINE
  5
184
330
1F
100
AcDbEntity
  8
0-8
  6
Continuous
 62
     3
370
     9
100
AcDbLine
 10
-669.2072816922703
 20
503.1456841006576
 30
0.0
 11
-645.2071791814867
 21
503.1456841006576
 31
0.0
  0
LINE
  5
185
330
1F
100
AcDbEntity
  8
0-8
  6
JWW_CENTER1
 62
     7
370
     9
100
AcDbLine
 10
-676.6375029553162
 20
511.1456949408785
 30
0.0
 11
-637.7770978986832
 21
511.1456949408785
 31
0.0
  0
LINE
  5
186
330
1F
100
AcDbEntity
  8
0-8
  6
JWW_CENTER1
 62
     7
370
     9
100
AcDbLine
 10
-657.207265431939
 20
491.7154574175012
 30
0.0
 11
-657.207265431939
 21
530.5759324642556
 31
0.0
  0
LINE
  5
187
330
1F
100
AcDbEntity
  8
0-8
  6
Continuous
 62
     3
370
     9
100
AcDbLine
 10
-501.2071940278761
 20
867.1456174097339
 30
0.0
 11
-501.2071940278761
 21
891.145789910639
 31
0.0
  0
LINE
  5
188
330
1F
100
AcDbEntity
  8
0-8
  6
Continuous
 62
     3
370
     9
100
AcDbLine
 10
-505.2072694381077
 20
867.1456174097339
 30
0.0
 11
-505.2072694381077
 21
891.145789910639
 31
0.0
  0
LINE
  5
189
330
1F
100
AcDbEntity
  8
0-8
  6
Continuous
 62
     3
370
     9
100
AcDbLine
 10
-497.2072585978869
 20
867.1456174097339
 30
0.0
 11
-497.2072585978869
 21
891.145789910639
 31
0.0
  0
LINE
  5
18A
330
1F
100
AcDbEntity
  8
0-8
  6
Continuous
 62
     3
370
     9
100
AcDbLine
 10
-493.2073231678978
 20
867.1456174097339
 30
0.0
 11
-493.2073231678978
 21
891.145789910639
 31
0.0
  0
LINE
  5
18B
330
1F
100
AcDbEntity
  8
0-8
  6
Continuous
 62
     3
370
     9
100
AcDbLine
 10
-489.2072477576662
 20
867.1456174097339
 30
0.0
 11
-489.2072477576662
 21
891.145789910639
 31
0.0
  0
LINE
  5
18C
330
1F
100
AcDbEntity
  8
0-8
  6
Continuous
 62
     3
370
     9
100
AcDbLine
 10
-509.2073448483393
 20
883.1456390901756
 30
0.0
 11
-485.2071723474344
 21
883.1456390901756
 31
0.0
  0
LINE
  5
18D
330
1F
100
AcDbEntity
  8
0-8
  6
Continuous
 62
     3
370
     9
100
AcDbLine
 10
-509.2073448483393
 20
887.1457145004072
 30
0.0
 11
-485.2071723474344
 21
887.1457145004072
 31
0.0
  0
LINE
  5
18E
330
1F
100
AcDbEntity
  8
0-8
  6
Continuous
 62
     3
370
     9
100
AcDbLine
 10
-509.2073448483393
 20
879.1457036601864
 30
0.0
 11
-485.2071723474344
 21
879.1457036601864
 31
0.0
  0
LINE
  5
18F
330
1F
100
AcDbEntity
  8
0-8
  6
Continuous
 62
     3
370
     9
100
AcDbLine
 10
-509.2073448483393
 20
875.1457682301973
 30
0.0
 11
-485.2071723474344
 21
875.1457682301973
 31
0.0
  0
LINE
  5
190
330
1F
100
AcDbEntity
  8
0-8
  6
Continuous
 62
     3
370
     9
100
AcDbLine
 10
-509.2073448483393
 20
871.1456928199658
 30
0.0
 11
-485.2071723474344
 21
871.1456928199658
 31
0.0
  0
LINE
  5
191
330
1F
100
AcDbEntity
  8
0-8
  6
JWW_CENTER1
 62
     7
370
     9
100
AcDbLine
 10
-516.6374961212641
 20
879.1457036601864
 30
0.0
 11
-477.7770210745098
 21
879.1457036601864
 31
0.0
  0
LINE
  5
192
330
1F
100
AcDbEntity
  8
0-8
  6
JWW_CENTER1
 62
     7
370
     9
100
AcDbLine
 10
-497.2072585978869
 20
859.7154661368095
 30
0.0
 11
-497.2072585978869
 21
898.5759411835636
 31
0.0
  0
LINE
  5
193
330
1F
100
AcDbEntity
  8
0-8
  6
Continuous
 62
     3
370
     9
100
AcDbLine
 10
-501.2071940278761
 20
775.1456327274375
 30
0.0
 11
-501.2071940278761
 21
799.1458052283423
 31
0.0
  0
LINE
  5
194
330
1F
100
AcDbEntity
  8
0-8
  6
Continuous
 62
     3
370
     9
100
AcDbLine
 10
-505.2072694381077
 20
775.1456327274375
 30
0.0
 11
-505.2072694381077
 21
799.1458052283423
 31
0.0
  0
LINE
  5
195
330
1F
100
AcDbEntity
  8
0-8
  6
Continuous
 62
     3
370
     9
100
AcDbLine
 10
-497.2072585978869
 20
775.1456327274375
 30
0.0
 11
-497.2072585978869
 21
799.1458052283423
 31
0.0
  0
LINE
  5
196
330
1F
100
AcDbEntity
  8
0-8
  6
Continuous
 62
     3
370
     9
100
AcDbLine
 10
-493.2073231678978
 20
775.1456327274375
 30
0.0
 11
-493.2073231678978
 21
799.1458052283423
 31
0.0
  0
LINE
  5
197
330
1F
100
AcDbEntity
  8
0-8
  6
Continuous
 62
     3
370
     9
100
AcDbLine
 10
-489.2072477576662
 20
775.1456327274375
 30
0.0
 11
-489.2072477576662
 21
799.1458052283423
 31
0.0
  0
LINE
  5
198
330
1F
100
AcDbEntity
  8
0-8
  6
Continuous
 62
     3
370
     9
100
AcDbLine
 10
-509.2073448483393
 20
791.1456544078789
 30
0.0
 11
-485.2071723474344
 21
791.1456544078789
 31
0.0
  0
LINE
  5
199
330
1F
100
AcDbEntity
  8
0-8
  6
Continuous
 62
     3
370
     9
100
AcDbLine
 10
-509.2073448483393
 20
795.1457298181106
 30
0.0
 11
-485.2071723474344
 21
795.1457298181106
 31
0.0
  0
LINE
  5
19A
330
1F
100
AcDbEntity
  8
0-8
  6
Continuous
 62
     3
370
     9
100
AcDbLine
 10
-509.2073448483393
 20
787.1457189778897
 30
0.0
 11
-485.2071723474344
 21
787.1457189778897
 31
0.0
  0
LINE
  5
19B
330
1F
100
AcDbEntity
  8
0-8
  6
Continuous
 62
     3
370
     9
100
AcDbLine
 10
-509.2073448483393
 20
783.1457835479006
 30
0.0
 11
-485.2071723474344
 21
783.1457835479006
 31
0.0
  0
LINE
  5
19C
330
1F
100
AcDbEntity
  8
0-8
  6
Continuous
 62
     3
370
     9
100
AcDbLine
 10
-509.2073448483393
 20
779.1457081376689
 30
0.0
 11
-485.2071723474344
 21
779.1457081376689
 31
0.0
  0
LINE
  5
19D
330
1F
100
AcDbEntity
  8
0-8
  6
JWW_CENTER1
 62
     7
370
     9
100
AcDbLine
 10
-516.6374961212641
 20
787.1457189778897
 30
0.0
 11
-477.7770210745098
 21
787.1457189778897
 31
0.0
  0
LINE
  5
19E
330
1F
100
AcDbEntity
  8
0-8
  6
JWW_CENTER1
 62
     7
370
     9
100
AcDbLine
 10
-497.2072585978869
 20
767.7154814545124
 30
0.0
 11
-497.2072585978869
 21
806.575956501267
 31
0.0
  0
LINE
  5
19F
330
1F
100
AcDbEntity
  8
0-8
  6
Continuous
 62
     3
370
     9
100
AcDbLine
 10
-501.2071940278761
 20
683.1456480451404
 30
0.0
 11
-501.2071940278761
 21
707.1458205460456
 31
0.0
  0
LINE
  5
1A0
330
1F
100
AcDbEntity
  8
0-8
  6
Continuous
 62
     3
370
     9
100
AcDbLine
 10
-505.2072694381077
 20
683.1456480451404
 30
0.0
 11
-505.2072694381077
 21
707.1458205460456
 31
0.0
  0
LINE
  5
1A1
330
1F
100
AcDbEntity
  8
0-8
  6
Continuous
 62
     3
370
     9
100
AcDbLine
 10
-497.2072585978869
 20
683.1456480451404
 30
0.0
 11
-497.2072585978869
 21
707.1458205460456
 31
0.0
  0
LINE
  5
1A2
330
1F
100
AcDbEntity
  8
0-8
  6
Continuous
 62
     3
370
     9
100
AcDbLine
 10
-493.2073231678978
 20
683.1456480451404
 30
0.0
 11
-493.2073231678978
 21
707.1458205460456
 31
0.0
  0
LINE
  5
1A3
330
1F
100
AcDbEntity
  8
0-8
  6
Continuous
 62
     3
370
     9
100
AcDbLine
 10
-489.2072477576662
 20
683.1456480451404
 30
0.0
 11
-489.2072477576662
 21
707.1458205460456
 31
0.0
  0
LINE
  5
1A4
330
1F
100
AcDbEntity
  8
0-8
  6
Continuous
 62
     3
370
     9
100
AcDbLine
 10
-509.2073448483393
 20
699.1456697255821
 30
0.0
 11
-485.2071723474344
 21
699.1456697255821
 31
0.0
  0
LINE
  5
1A5
330
1F
100
AcDbEntity
  8
0-8
  6
Continuous
 62
     3
370
     9
100
AcDbLine
 10
-509.2073448483393
 20
703.145745135814
 30
0.0
 11
-485.2071723474344
 21
703.145745135814
 31
0.0
  0
LINE
  5
1A6
330
1F
100
AcDbEntity
  8
0-8
  6
Continuous
 62
     3
370
     9
100
AcDbLine
 10
-509.2073448483393
 20
695.145734295593
 30
0.0
 11
-485.2071723474344
 21
695.145734295593
 31
0.0
  0
LINE
  5
1A7
330
1F
100
AcDbEntity
  8
0-8
  6
Continuous
 62
     3
370
     9
100
AcDbLine
 10
-509.2073448483393
 20
691.1457988656039
 30
0.0
 11
-485.2071723474344
 21
691.1457988656039
 31
0.0
  0
LINE
  5
1A8
330
1F
100
AcDbEntity
  8
0-8
  6
Continuous
 62
     3
370
     9
100
AcDbLine
 10
-509.2073448483393
 20
687.1457234553723
 30
0.0
 11
-485.2071723474344
 21
687.1457234553723
 31
0.0
  0
LINE
  5
1A9
330
1F
100
AcDbEntity
  8
0-8
  6
JWW_CENTER1
 62
     7
370
     9
100
AcDbLine
 10
-497.2072585978869
 20
675.7154967722158
 30
0.0
 11
-497.2072585978869
 21
714.5759718189703
 31
0.0
  0
LINE
  5
1AA
330
1F
100
AcDbEntity
  8
0-8
  6
Continuous
 62
     3
370
     9
100
AcDbLine
 10
-501.2071940278761
 20
591.1455933727225
 30
0.0
 11
-501.2071940278761
 21
615.1457658736276
 31
0.0
  0
LINE
  5
1AB
330
1F
100
AcDbEntity
  8
0-8
  6
Continuous
 62
     3
370
     9
100
AcDbLine
 10
-505.2072694381077
 20
591.1455933727225
 30
0.0
 11
-505.2072694381077
 21
615.1457658736276
 31
0.0
  0
LINE
  5
1AC
330
1F
100
AcDbEntity
  8
0-8
  6
Continuous
 62
     3
370
     9
100
AcDbLine
 10
-497.2072585978869
 20
591.1455933727225
 30
0.0
 11
-497.2072585978869
 21
615.1457658736276
 31
0.0
  0
LINE
  5
1AD
330
1F
100
AcDbEntity
  8
0-8
  6
Continuous
 62
     3
370
     9
100
AcDbLine
 10
-493.2073231678978
 20
591.1455933727225
 30
0.0
 11
-493.2073231678978
 21
615.1457658736276
 31
0.0
  0
LINE
  5
1AE
330
1F
100
AcDbEntity
  8
0-8
  6
Continuous
 62
     3
370
     9
100
AcDbLine
 10
-489.2072477576662
 20
591.1455933727225
 30
0.0
 11
-489.2072477576662
 21
615.1457658736276
 31
0.0
  0
LINE
  5
1AF
330
1F
100
AcDbEntity
  8
0-8
  6
Continuous
 62
     3
370
     9
100
AcDbLine
 10
-509.2073448483393
 20
607.1456150531642
 30
0.0
 11
-485.2071723474344
 21
607.1456150531642
 31
0.0
  0
LINE
  5
1B0
330
1F
100
AcDbEntity
  8
0-8
  6
Continuous
 62
     3
370
     9
100
AcDbLine
 10
-509.2073448483393
 20
611.145690463396
 30
0.0
 11
-485.2071723474344
 21
611.145690463396
 31
0.0
  0
LINE
  5
1B1
330
1F
100
AcDbEntity
  8
0-8
  6
Continuous
 62
     3
370
     9
100
AcDbLine
 10
-509.2073448483393
 20
603.145679623175
 30
0.0
 11
-485.2071723474344
 21
603.145679623175
 31
0.0
  0
LINE
  5
1B2
330
1F
100
AcDbEntity
  8
0-8
  6
Continuous
 62
     3
370
     9
100
AcDbLine
 10
-509.2073448483393
 20
599.1457441931859
 30
0.0
 11
-485.2071723474344
 21
599.1457441931859
 31
0.0
  0
LINE
  5
1B3
330
1F
100
AcDbEntity
  8
0-8
  6
Continuous
 62
     3
370
     9
100
AcDbLine
 10
-509.2073448483393
 20
595.1456687829543
 30
0.0
 11
-485.2071723474344
 21
595.1456687829543
 31
0.0
  0
LINE
  5
1B4
330
1F
100
AcDbEntity
  8
0-8
  6
JWW_CENTER1
 62
     7
370
     9
100
AcDbLine
 10
-516.6374961212641
 20
603.145679623175
 30
0.0
 11
-477.7770210745098
 21
603.145679623175
 31
0.0
  0
LINE
  5
1B5
330
1F
100
AcDbEntity
  8
0-8
  6
JWW_CENTER1
 62
     7
370
     9
100
AcDbLine
 10
-497.2072585978869
 20
583.7154420997979
 30
0.0
 11
-497.2072585978869
 21
622.5759171465523
 31
0.0
  0
LINE
  5
1B6
330
1F
100
AcDbEntity
  8
0-8
  6
Continuous
 62
     3
370
     9
100
AcDbLine
 10
-501.2071940278761
 20
499.1456086904259
 30
0.0
 11
-501.2071940278761
 21
523.1457811913308
 31
0.0
  0
LINE
  5
1B7
330
1F
100
AcDbEntity
  8
0-8
  6
Continuous
 62
     3
370
     9
100
AcDbLine
 10
-505.2072694381077
 20
499.1456086904259
 30
0.0
 11
-505.2072694381077
 21
523.1457811913308
 31
0.0
  0
LINE
  5
1B8
330
1F
100
AcDbEntity
  8
0-8
  6
Continuous
 62
     3
370
     9
100
AcDbLine
 10
-497.2072585978869
 20
499.1456086904259
 30
0.0
 11
-497.2072585978869
 21
523.1457811913308
 31
0.0
  0
LINE
  5
1B9
330
1F
100
AcDbEntity
  8
0-8
  6
Continuous
 62
     3
370
     9
100
AcDbLine
 10
-493.2073231678978
 20
499.1456086904259
 30
0.0
 11
-493.2073231678978
 21
523.1457811913308
 31
0.0
  0
LINE
  5
1BA
330
1F
100
AcDbEntity
  8
0-8
  6
Continuous
 62
     3
370
     9
100
AcDbLine
 10
-489.2072477576662
 20
499.1456086904259
 30
0.0
 11
-489.2072477576662
 21
523.1457811913308
 31
0.0
  0
LINE
  5
1BB
330
1F
100
AcDbEntity
  8
0-8
  6
Continuous
 62
     3
370
     9
100
AcDbLine
 10
-509.2073448483393
 20
515.1456303708676
 30
0.0
 11
-485.2071723474344
 21
515.1456303708676
 31
0.0
  0
LINE
  5
1BC
330
1F
100
AcDbEntity
  8
0-8
  6
Continuous
 62
     3
370
     9
100
AcDbLine
 10
-509.2073448483393
 20
519.1457057810993
 30
0.0
 11
-485.2071723474344
 21
519.1457057810993
 31
0.0
  0
LINE
  5
1BD
330
1F
100
AcDbEntity
  8
0-8
  6
Continuous
 62
     3
370
     9
100
AcDbLine
 10
-509.2073448483393
 20
511.1456949408785
 30
0.0
 11
-485.2071723474344
 21
511.1456949408785
 31
0.0
  0
LINE
  5
1BE
330
1F
100
AcDbEntity
  8
0-8
  6
Continuous
 62
     3
370
     9
100
AcDbLine
 10
-509.2073448483393
 20
507.1457595108893
 30
0.0
 11
-485.2071723474344
 21
507.1457595108893
 31
0.0
  0
LINE
  5
1BF
330
1F
100
AcDbEntity
  8
0-8
  6
Continuous
 62
     3
370
     9
100
AcDbLine
 10
-509.2073448483393
 20
503.1456841006576
 30
0.0
 11
-485.2071723474344
 21
503.1456841006576
 31
0.0
  0
LINE
  5
1C0
330
1F
100
AcDbEntity
  8
0-8
  6
JWW_CENTER1
 62
     7
370
     9
100
AcDbLine
 10
-516.6374961212641
 20
511.1456949408785
 30
0.0
 11
-477.7770210745098
 21
511.1456949408785
 31
0.0
  0
LINE
  5
1C1
330
1F
100
AcDbEntity
  8
0-8
  6
JWW_CENTER1
 62
     7
370
     9
100
AcDbLine
 10
-497.2072585978869
 20
491.7154574175012
 30
0.0
 11
-497.2072585978869
 21
530.5759324642556
 31
0.0
  0
LINE
  5
1C2
330
1F
100
AcDbEntity
  8
0-8
  6
Continuous
 62
     3
370
     9
100
AcDbLine
 10
-341.2071172037026
 20
867.1456174097339
 30
0.0
 11
-341.2071172037026
 21
891.145789910639
 31
0.0
  0
LINE
  5
1C3
330
1F
100
AcDbEntity
  8
0-8
  6
Continuous
 62
     3
370
     9
100
AcDbLine
 10
-345.2071926139342
 20
867.1456174097339
 30
0.0
 11
-345.2071926139342
 21
891.145789910639
 31
0.0
  0
LINE
  5
1C4
330
1F
100
AcDbEntity
  8
0-8
  6
Continuous
 62
     3
370
     9
100
AcDbLine
 10
-337.2071817737135
 20
867.1456174097339
 30
0.0
 11
-337.2071817737135
 21
891.145789910639
 31
0.0
  0
LINE
  5
1C5
330
1F
100
AcDbEntity
  8
0-8
  6
Continuous
 62
     3
370
     9
100
AcDbLine
 10
-333.2073863239668
 20
867.1456174097339
 30
0.0
 11
-333.2073863239668
 21
891.145789910639
 31
0.0
  0
LINE
  5
1C6
330
1F
100
AcDbEntity
  8
0-8
  6
Continuous
 62
     3
370
     9
100
AcDbLine
 10
-329.2073109137352
 20
867.1456174097339
 30
0.0
 11
-329.2073109137352
 21
891.145789910639
 31
0.0
  0
LINE
  5
1C7
330
1F
100
AcDbEntity
  8
0-8
  6
Continuous
 62
     3
370
     9
100
AcDbLine
 10
-349.2072680241658
 20
883.1456390901756
 30
0.0
 11
-325.2072355035034
 21
883.1456390901756
 31
0.0
  0
LINE
  5
1C8
330
1F
100
AcDbEntity
  8
0-8
  6
Continuous
 62
     3
370
     9
100
AcDbLine
 10
-349.2072680241658
 20
887.1457145004072
 30
0.0
 11
-325.2072355035034
 21
887.1457145004072
 31
0.0
  0
LINE
  5
1C9
330
1F
100
AcDbEntity
  8
0-8
  6
Continuous
 62
     3
370
     9
100
AcDbLine
 10
-349.2072680241658
 20
879.1457036601864
 30
0.0
 11
-325.2072355035034
 21
879.1457036601864
 31
0.0
  0
LINE
  5
1CA
330
1F
100
AcDbEntity
  8
0-8
  6
Continuous
 62
     3
370
     9
100
AcDbLine
 10
-349.2072680241658
 20
875.1457682301973
 30
0.0
 11
-325.2072355035034
 21
875.1457682301973
 31
0.0
  0
LINE
  5
1CB
330
1F
100
AcDbEntity
  8
0-8
  6
Continuous
 62
     3
370
     9
100
AcDbLine
 10
-349.2072680241658
 20
871.1456928199658
 30
0.0
 11
-325.2072355035034
 21
871.1456928199658
 31
0.0
  0
LINE
  5
1CC
330
1F
100
AcDbEntity
  8
0-8
  6
JWW_CENTER1
 62
     7
370
     9
100
AcDbLine
 10
-356.6375592773331
 20
879.1457036601864
 30
0.0
 11
-317.7770842305788
 21
879.1457036601864
 31
0.0
  0
LINE
  5
1CD
330
1F
100
AcDbEntity
  8
0-8
  6
JWW_CENTER1
 62
     7
370
     9
100
AcDbLine
 10
-337.2071817737135
 20
859.7154661368095
 30
0.0
 11
-337.2071817737135
 21
898.5759411835636
 31
0.0
  0
LINE
  5
1CE
330
1F
100
AcDbEntity
  8
0-8
  6
Continuous
 62
     3
370
     9
100
AcDbLine
 10
-341.2071172037026
 20
775.1456327274375
 30
0.0
 11
-341.2071172037026
 21
799.1458052283423
 31
0.0
  0
LINE
  5
1CF
330
1F
100
AcDbEntity
  8
0-8
  6
Continuous
 62
     3
370
     9
100
AcDbLine
 10
-345.2071926139342
 20
775.1456327274375
 30
0.0
 11
-345.2071926139342
 21
799.1458052283423
 31
0.0
  0
LINE
  5
1D0
330
1F
100
AcDbEntity
  8
0-8
  6
Continuous
 62
     3
370
     9
100
AcDbLine
 10
-337.2071817737135
 20
775.1456327274375
 30
0.0
 11
-337.2071817737135
 21
799.1458052283423
 31
0.0
  0
LINE
  5
1D1
330
1F
100
AcDbEntity
  8
0-8
  6
Continuous
 62
     3
370
     9
100
AcDbLine
 10
-333.2073863239668
 20
775.1456327274375
 30
0.0
 11
-333.2073863239668
 21
799.1458052283423
 31
0.0
  0
LINE
  5
1D2
330
1F
100
AcDbEntity
  8
0-8
  6
Continuous
 62
     3
370
     9
100
AcDbLine
 10
-329.2073109137352
 20
775.1456327274375
 30
0.0
 11
-329.2073109137352
 21
799.1458052283423
 31
0.0
  0
LINE
  5
1D3
330
1F
100
AcDbEntity
  8
0-8
  6
Continuous
 62
     3
370
     9
100
AcDbLine
 10
-349.2072680241658
 20
791.1456544078789
 30
0.0
 11
-325.2072355035034
 21
791.1456544078789
 31
0.0
  0
LINE
  5
1D4
330
1F
100
AcDbEntity
  8
0-8
  6
Continuous
 62
     3
370
     9
100
AcDbLine
 10
-349.2072680241658
 20
795.1457298181106
 30
0.0
 11
-325.2072355035034
 21
795.1457298181106
 31
0.0
  0
LINE
  5
1D5
330
1F
100
AcDbEntity
  8
0-8
  6
Continuous
 62
     3
370
     9
100
AcDbLine
 10
-349.2072680241658
 20
787.1457189778897
 30
0.0
 11
-325.2072355035034
 21
787.1457189778897
 31
0.0
  0
LINE
  5
1D6
330
1F
100
AcDbEntity
  8
0-8
  6
Continuous
 62
     3
370
     9
100
AcDbLine
 10
-349.2072680241658
 20
783.1457835479006
 30
0.0
 11
-325.2072355035034
 21
783.1457835479006
 31
0.0
  0
LINE
  5
1D7
330
1F
100
AcDbEntity
  8
0-8
  6
Continuous
 62
     3
370
     9
100
AcDbLine
 10
-349.2072680241658
 20
779.1457081376689
 30
0.0
 11
-325.2072355035034
 21
779.1457081376689
 31
0.0
  0
LINE
  5
1D8
330
1F
100
AcDbEntity
  8
0-8
  6
JWW_CENTER1
 62
     7
370
     9
100
AcDbLine
 10
-356.6375592773331
 20
787.1457189778897
 30
0.0
 11
-317.7770842305788
 21
787.1457189778897
 31
0.0
  0
LINE
  5
1D9
330
1F
100
AcDbEntity
  8
0-8
  6
JWW_CENTER1
 62
     7
370
     9
100
AcDbLine
 10
-337.2071817737135
 20
767.7154814545124
 30
0.0
 11
-337.2071817737135
 21
806.575956501267
 31
0.0
  0
LINE
  5
1DA
330
1F
100
AcDbEntity
  8
0-8
  6
Continuous
 62
     3
370
     9
100
AcDbLine
 10
-341.2071172037026
 20
683.1456480451404
 30
0.0
 11
-341.2071172037026
 21
707.1458205460456
 31
0.0
  0
LINE
  5
1DB
330
1F
100
AcDbEntity
  8
0-8
  6
Continuous
 62
     3
370
     9
100
AcDbLine
 10
-345.2071926139342
 20
683.1456480451404
 30
0.0
 11
-345.2071926139342
 21
707.1458205460456
 31
0.0
  0
LINE
  5
1DC
330
1F
100
AcDbEntity
  8
0-8
  6
Continuous
 62
     3
370
     9
100
AcDbLine
 10
-337.2071817737135
 20
683.1456480451404
 30
0.0
 11
-337.2071817737135
 21
707.1458205460456
 31
0.0
  0
LINE
  5
1DD
330
1F
100
AcDbEntity
  8
0-8
  6
Continuous
 62
     3
370
     9
100
AcDbLine
 10
-333.2073863239668
 20
683.1456480451404
 30
0.0
 11
-333.2073863239668
 21
707.1458205460456
 31
0.0
  0
LINE
  5
1DE
330
1F
100
AcDbEntity
  8
0-8
  6
Continuous
 62
     3
370
     9
100
AcDbLine
 10
-329.2073109137352
 20
683.1456480451404
 30
0.0
 11
-329.2073109137352
 21
707.1458205460456
 31
0.0
  0
LINE
  5
1DF
330
1F
100
AcDbEntity
  8
0-8
  6
Continuous
 62
     3
370
     9
100
AcDbLine
 10
-349.2072680241658
 20
699.1456697255821
 30
0.0
 11
-325.2072355035034
 21
699.1456697255821
 31
0.0
  0
LINE
  5
1E0
330
1F
100
AcDbEntity
  8
0-8
  6
Continuous
 62
     3
370
     9
100
AcDbLine
 10
-349.2072680241658
 20
703.145745135814
 30
0.0
 11
-325.2072355035034
 21
703.145745135814
 31
0.0
  0
LINE
  5
1E1
330
1F
100
AcDbEntity
  8
0-8
  6
Continuous
 62
     3
370
     9
100
AcDbLine
 10
-349.2072680241658
 20
695.145734295593
 30
0.0
 11
-325.2072355035034
 21
695.145734295593
 31
0.0
  0
LINE
  5
1E2
330
1F
100
AcDbEntity
  8
0-8
  6
Continuous
 62
     3
370
     9
100
AcDbLine
 10
-349.2072680241658
 20
691.1457988656039
 30
0.0
 11
-325.2072355035034
 21
691.1457988656039
 31
0.0
  0
LINE
  5
1E3
330
1F
100
AcDbEntity
  8
0-8
  6
Continuous
 62
     3
370
     9
100
AcDbLine
 10
-349.2072680241658
 20
687.1457234553723
 30
0.0
 11
-325.2072355035034
 21
687.1457234553723
 31
0.0
  0
LINE
  5
1E4
330
1F
100
AcDbEntity
  8
0-8
  6
JWW_CENTER1
 62
     7
370
     9
100
AcDbLine
 10
-337.2071817737135
 20
675.7154967722158
 30
0.0
 11
-337.2071817737135
 21
714.5759718189703
 31
0.0
  0
LINE
  5
1E5
330
1F
100
AcDbEntity
  8
0-8
  6
Continuous
 62
     3
370
     9
100
AcDbLine
 10
-341.2071172037026
 20
591.1455933727225
 30
0.0
 11
-341.2071172037026
 21
615.1457658736276
 31
0.0
  0
LINE
  5
1E6
330
1F
100
AcDbEntity
  8
0-8
  6
Continuous
 62
     3
370
     9
100
AcDbLine
 10
-345.2071926139342
 20
591.1455933727225
 30
0.0
 11
-345.2071926139342
 21
615.1457658736276
 31
0.0
  0
LINE
  5
1E7
330
1F
100
AcDbEntity
  8
0-8
  6
Continuous
 62
     3
370
     9
100
AcDbLine
 10
-337.2071817737135
 20
591.1455933727225
 30
0.0
 11
-337.2071817737135
 21
615.1457658736276
 31
0.0
  0
LINE
  5
1E8
330
1F
100
AcDbEntity
  8
0-8
  6
Continuous
 62
     3
370
     9
100
AcDbLine
 10
-333.2073863239668
 20
591.1455933727225
 30
0.0
 11
-333.2073863239668
 21
615.1457658736276
 31
0.0
  0
LINE
  5
1E9
330
1F
100
AcDbEntity
  8
0-8
  6
Continuous
 62
     3
370
     9
100
AcDbLine
 10
-329.2073109137352
 20
591.1455933727225
 30
0.0
 11
-329.2073109137352
 21
615.1457658736276
 31
0.0
  0
LINE
  5
1EA
330
1F
100
AcDbEntity
  8
0-8
  6
Continuous
 62
     3
370
     9
100
AcDbLine
 10
-349.2072680241658
 20
607.1456150531642
 30
0.0
 11
-325.2072355035034
 21
607.1456150531642
 31
0.0
  0
LINE
  5
1EB
330
1F
100
AcDbEntity
  8
0-8
  6
Continuous
 62
     3
370
     9
100
AcDbLine
 10
-349.2072680241658
 20
611.145690463396
 30
0.0
 11
-325.2072355035034
 21
611.145690463396
 31
0.0
  0
LINE
  5
1EC
330
1F
100
AcDbEntity
  8
0-8
  6
Continuous
 62
     3
370
     9
100
AcDbLine
 10
-349.2072680241658
 20
603.145679623175
 30
0.0
 11
-325.2072355035034
 21
603.145679623175
 31
0.0
  0
LINE
  5
1ED
330
1F
100
AcDbEntity
  8
0-8
  6
Continuous
 62
     3
370
     9
100
AcDbLine
 10
-349.2072680241658
 20
599.1457441931859
 30
0.0
 11
-325.2072355035034
 21
599.1457441931859
 31
0.0
  0
LINE
  5
1EE
330
1F
100
AcDbEntity
  8
0-8
  6
Continuous
 62
     3
370
     9
100
AcDbLine
 10
-349.2072680241658
 20
595.1456687829543
 30
0.0
 11
-325.2072355035034
 21
595.1456687829543
 31
0.0
  0
LINE
  5
1EF
330
1F
100
AcDbEntity
  8
0-8
  6
JWW_CENTER1
 62
     7
370
     9
100
AcDbLine
 10
-356.6375592773331
 20
603.145679623175
 30
0.0
 11
-317.7770842305788
 21
603.145679623175
 31
0.0
  0
LINE
  5
1F0
330
1F
100
AcDbEntity
  8
0-8
  6
JWW_CENTER1
 62
     7
370
     9
100
AcDbLine
 10
-337.2071817737135
 20
583.7154420997979
 30
0.0
 11
-337.2071817737135
 21
622.5759171465523
 31
0.0
  0
LINE
  5
1F1
330
1F
100
AcDbEntity
  8
0-8
  6
Continuous
 62
     3
370
     9
100
AcDbLine
 10
-341.2071172037026
 20
499.1456086904259
 30
0.0
 11
-341.2071172037026
 21
523.1457811913308
 31
0.0
  0
LINE
  5
1F2
330
1F
100
AcDbEntity
  8
0-8
  6
Continuous
 62
     3
370
     9
100
AcDbLine
 10
-345.2071926139342
 20
499.1456086904259
 30
0.0
 11
-345.2071926139342
 21
523.1457811913308
 31
0.0
  0
LINE
  5
1F3
330
1F
100
AcDbEntity
  8
0-8
  6
Continuous
 62
     3
370
     9
100
AcDbLine
 10
-337.2071817737135
 20
499.1456086904259
 30
0.0
 11
-337.2071817737135
 21
523.1457811913308
 31
0.0
  0
LINE
  5
1F4
330
1F
100
AcDbEntity
  8
0-8
  6
Continuous
 62
     3
370
     9
100
AcDbLine
 10
-333.2073863239668
 20
499.1456086904259
 30
0.0
 11
-333.2073863239668
 21
523.1457811913308
 31
0.0
  0
LINE
  5
1F5
330
1F
100
AcDbEntity
  8
0-8
  6
Continuous
 62
     3
370
     9
100
AcDbLine
 10
-329.2073109137352
 20
499.1456086904259
 30
0.0
 11
-329.2073109137352
 21
523.1457811913308
 31
0.0
  0
LINE
  5
1F6
330
1F
100
AcDbEntity
  8
0-8
  6
Continuous
 62
     3
370
     9
100
AcDbLine
 10
-349.2072680241658
 20
515.1456303708676
 30
0.0
 11
-325.2072355035034
 21
515.1456303708676
 31
0.0
  0
LINE
  5
1F7
330
1F
100
AcDbEntity
  8
0-8
  6
Continuous
 62
     3
370
     9
100
AcDbLine
 10
-349.2072680241658
 20
519.1457057810993
 30
0.0
 11
-325.2072355035034
 21
519.1457057810993
 31
0.0
  0
LINE
  5
1F8
330
1F
100
AcDbEntity
  8
0-8
  6
Continuous
 62
     3
370
     9
100
AcDbLine
 10
-349.2072680241658
 20
511.1456949408785
 30
0.0
 11
-325.2072355035034
 21
511.1456949408785
 31
0.0
  0
LINE
  5
1F9
330
1F
100
AcDbEntity
  8
0-8
  6
Continuous
 62
     3
370
     9
100
AcDbLine
 10
-349.2072680241658
 20
507.1457595108893
 30
0.0
 11
-325.2072355035034
 21
507.1457595108893
 31
0.0
  0
LINE
  5
1FA
330
1F
100
AcDbEntity
  8
0-8
  6
Continuous
 62
     3
370
     9
100
AcDbLine
 10
-349.2072680241658
 20
503.1456841006576
 30
0.0
 11
-325.2072355035034
 21
503.1456841006576
 31
0.0
  0
LINE
  5
1FB
330
1F
100
AcDbEntity
  8
0-8
  6
JWW_CENTER1
 62
     7
370
     9
100
AcDbLine
 10
-356.6375592773331
 20
511.1456949408785
 30
0.0
 11
-317.7770842305788
 21
511.1456949408785
 31
0.0
  0
LINE
  5
1FC
330
1F
100
AcDbEntity
  8
0-8
  6
JWW_CENTER1
 62
     7
370
     9
100
AcDbLine
 10
-337.2071817737135
 20
491.7154574175012
 30
0.0
 11
-337.2071817737135
 21
530.5759324642556
 31
0.0
  0
LINE
  5
1FD
330
1F
100
AcDbEntity
  8
0-8
  6
Continuous
 62
     3
370
     9
100
AcDbLine
 10
-181.2070403795289
 20
867.1456174097339
 30
0.0
 11
-181.2070403795289
 21
891.145789910639
 31
0.0
  0
LINE
  5
1FE
330
1F
100
AcDbEntity
  8
0-8
  6
Continuous
 62
     3
370
     9
100
AcDbLine
 10
-185.2071157897608
 20
867.1456174097339
 30
0.0
 11
-185.2071157897608
 21
891.145789910639
 31
0.0
  0
LINE
  5
1FF
330
1F
100
AcDbEntity
  8
0-8
  6
Continuous
 62
     3
370
     9
100
AcDbLine
 10
-177.2072449297825
 20
867.1456174097339
 30
0.0
 11
-177.2072449297825
 21
891.145789910639
 31
0.0
  0
LINE
  5
200
330
1F
100
AcDbEntity
  8
0-8
  6
Continuous
 62
     3
370
     9
100
AcDbLine
 10
-173.2073094997934
 20
867.1456174097339
 30
0.0
 11
-173.2073094997934
 21
891.145789910639
 31
0.0
  0
LINE
  5
201
330
1F
100
AcDbEntity
  8
0-8
  6
Continuous
 62
     3
370
     9
100
AcDbLine
 10
-169.2072340895615
 20
867.1456174097339
 30
0.0
 11
-169.2072340895615
 21
891.145789910639
 31
0.0
  0
LINE
  5
202
330
1F
100
AcDbEntity
  8
0-8
  6
Continuous
 62
     3
370
     9
100
AcDbLine
 10
-189.2071911999924
 20
883.1456390901756
 30
0.0
 11
-165.2071586793299
 21
883.1456390901756
 31
0.0
  0
LINE
  5
203
330
1F
100
AcDbEntity
  8
0-8
  6
Continuous
 62
     3
370
     9
100
AcDbLine
 10
-189.2071911999924
 20
887.1457145004072
 30
0.0
 11
-165.2071586793299
 21
887.1457145004072
 31
0.0
  0
LINE
  5
204
330
1F
100
AcDbEntity
  8
0-8
  6
Continuous
 62
     3
370
     9
100
AcDbLine
 10
-189.2071911999924
 20
879.1457036601864
 30
0.0
 11
-165.2071586793299
 21
879.1457036601864
 31
0.0
  0
LINE
  5
205
330
1F
100
AcDbEntity
  8
0-8
  6
Continuous
 62
     3
370
     9
100
AcDbLine
 10
-189.2071911999924
 20
875.1457682301973
 30
0.0
 11
-165.2071586793299
 21
875.1457682301973
 31
0.0
  0
LINE
  5
206
330
1F
100
AcDbEntity
  8
0-8
  6
Continuous
 62
     3
370
     9
100
AcDbLine
 10
-189.2071911999924
 20
871.1456928199658
 30
0.0
 11
-165.2071586793299
 21
871.1456928199658
 31
0.0
  0
LINE
  5
207
330
1F
100
AcDbEntity
  8
0-8
  6
JWW_CENTER1
 62
     7
370
     9
100
AcDbLine
 10
-196.6374824531596
 20
879.1457036601864
 30
0.0
 11
-157.7771473866478
 21
879.1457036601864
 31
0.0
  0
LINE
  5
208
330
1F
100
AcDbEntity
  8
0-8
  6
JWW_CENTER1
 62
     7
370
     9
100
AcDbLine
 10
-177.2072449297825
 20
859.7154661368095
 30
0.0
 11
-177.2072449297825
 21
898.5759411835636
 31
0.0
  0
LINE
  5
209
330
1F
100
AcDbEntity
  8
0-8
  6
Continuous
 62
     3
370
     9
100
AcDbLine
 10
-181.2070403795289
 20
775.1456327274375
 30
0.0
 11
-181.2070403795289
 21
799.1458052283423
 31
0.0
  0
LINE
  5
20A
330
1F
100
AcDbEntity
  8
0-8
  6
Continuous
 62
     3
370
     9
100
AcDbLine
 10
-185.2071157897608
 20
775.1456327274375
 30
0.0
 11
-185.2071157897608
 21
799.1458052283423
 31
0.0
  0
LINE
  5
20B
330
1F
100
AcDbEntity
  8
0-8
  6
Continuous
 62
     3
370
     9
100
AcDbLine
 10
-177.2072449297825
 20
775.1456327274375
 30
0.0
 11
-177.2072449297825
 21
799.1458052283423
 31
0.0
  0
LINE
  5
20C
330
1F
100
AcDbEntity
  8
0-8
  6
Continuous
 62
     3
370
     9
100
AcDbLine
 10
-173.2073094997934
 20
775.1456327274375
 30
0.0
 11
-173.2073094997934
 21
799.1458052283423
 31
0.0
  0
LINE
  5
20D
330
1F
100
AcDbEntity
  8
0-8
  6
Continuous
 62
     3
370
     9
100
AcDbLine
 10
-169.2072340895615
 20
775.1456327274375
 30
0.0
 11
-169.2072340895615
 21
799.1458052283423
 31
0.0
  0
LINE
  5
20E
330
1F
100
AcDbEntity
  8
0-8
  6
Continuous
 62
     3
370
     9
100
AcDbLine
 10
-189.2071911999924
 20
791.1456544078789
 30
0.0
 11
-165.2071586793299
 21
791.1456544078789
 31
0.0
  0
LINE
  5
20F
330
1F
100
AcDbEntity
  8
0-8
  6
Continuous
 62
     3
370
     9
100
AcDbLine
 10
-189.2071911999924
 20
795.1457298181106
 30
0.0
 11
-165.2071586793299
 21
795.1457298181106
 31
0.0
  0
LINE
  5
210
330
1F
100
AcDbEntity
  8
0-8
  6
Continuous
 62
     3
370
     9
100
AcDbLine
 10
-189.2071911999924
 20
787.1457189778897
 30
0.0
 11
-165.2071586793299
 21
787.1457189778897
 31
0.0
  0
LINE
  5
211
330
1F
100
AcDbEntity
  8
0-8
  6
Continuous
 62
     3
370
     9
100
AcDbLine
 10
-189.2071911999924
 20
783.1457835479006
 30
0.0
 11
-165.2071586793299
 21
783.1457835479006
 31
0.0
  0
LINE
  5
212
330
1F
100
AcDbEntity
  8
0-8
  6
Continuous
 62
     3
370
     9
100
AcDbLine
 10
-189.2071911999924
 20
779.1457081376689
 30
0.0
 11
-165.2071586793299
 21
779.1457081376689
 31
0.0
  0
LINE
  5
213
330
1F
100
AcDbEntity
  8
0-8
  6
JWW_CENTER1
 62
     7
370
     9
100
AcDbLine
 10
-196.6374824531596
 20
787.1457189778897
 30
0.0
 11
-157.7771473866478
 21
787.1457189778897
 31
0.0
  0
LINE
  5
214
330
1F
100
AcDbEntity
  8
0-8
  6
JWW_CENTER1
 62
     7
370
     9
100
AcDbLine
 10
-177.2072449297825
 20
767.7154814545124
 30
0.0
 11
-177.2072449297825
 21
806.575956501267
 31
0.0
  0
LINE
  5
215
330
1F
100
AcDbEntity
  8
0-8
  6
Continuous
 62
     3
370
     9
100
AcDbLine
 10
-181.2070403795289
 20
683.1456480451404
 30
0.0
 11
-181.2070403795289
 21
707.1458205460456
 31
0.0
  0
LINE
  5
216
330
1F
100
AcDbEntity
  8
0-8
  6
Continuous
 62
     3
370
     9
100
AcDbLine
 10
-185.2071157897608
 20
683.1456480451404
 30
0.0
 11
-185.2071157897608
 21
707.1458205460456
 31
0.0
  0
LINE
  5
217
330
1F
100
AcDbEntity
  8
0-8
  6
Continuous
 62
     3
370
     9
100
AcDbLine
 10
-177.2072449297825
 20
683.1456480451404
 30
0.0
 11
-177.2072449297825
 21
707.1458205460456
 31
0.0
  0
LINE
  5
218
330
1F
100
AcDbEntity
  8
0-8
  6
Continuous
 62
     3
370
     9
100
AcDbLine
 10
-173.2073094997934
 20
683.1456480451404
 30
0.0
 11
-173.2073094997934
 21
707.1458205460456
 31
0.0
  0
LINE
  5
219
330
1F
100
AcDbEntity
  8
0-8
  6
Continuous
 62
     3
370
     9
100
AcDbLine
 10
-169.2072340895615
 20
683.1456480451404
 30
0.0
 11
-169.2072340895615
 21
707.1458205460456
 31
0.0
  0
LINE
  5
21A
330
1F
100
AcDbEntity
  8
0-8
  6
Continuous
 62
     3
370
     9
100
AcDbLine
 10
-189.2071911999924
 20
699.1456697255821
 30
0.0
 11
-165.2071586793299
 21
699.1456697255821
 31
0.0
  0
LINE
  5
21B
330
1F
100
AcDbEntity
  8
0-8
  6
Continuous
 62
     3
370
     9
100
AcDbLine
 10
-189.2071911999924
 20
703.145745135814
 30
0.0
 11
-165.2071586793299
 21
703.145745135814
 31
0.0
  0
LINE
  5
21C
330
1F
100
AcDbEntity
  8
0-8
  6
Continuous
 62
     3
370
     9
100
AcDbLine
 10
-189.2071911999924
 20
695.145734295593
 30
0.0
 11
-165.2071586793299
 21
695.145734295593
 31
0.0
  0
LINE
  5
21D
330
1F
100
AcDbEntity
  8
0-8
  6
Continuous
 62
     3
370
     9
100
AcDbLine
 10
-189.2071911999924
 20
691.1457988656039
 30
0.0
 11
-165.2071586793299
 21
691.1457988656039
 31
0.0
  0
LINE
  5
21E
330
1F
100
AcDbEntity
  8
0-8
  6
Continuous
 62
     3
370
     9
100
AcDbLine
 10
-189.2071911999924
 20
687.1457234553723
 30
0.0
 11
-165.2071586793299
 21
687.1457234553723
 31
0.0
  0
LINE
  5
21F
330
1F
100
AcDbEntity
  8
0-8
  6
JWW_CENTER1
 62
     7
370
     9
100
AcDbLine
 10
-177.2072449297825
 20
675.7154967722158
 30
0.0
 11
-177.2072449297825
 21
714.5759718189703
 31
0.0
  0
LINE
  5
220
330
1F
100
AcDbEntity
  8
0-8
  6
Continuous
 62
     3
370
     9
100
AcDbLine
 10
-181.2070403795289
 20
591.1455933727225
 30
0.0
 11
-181.2070403795289
 21
615.1457658736276
 31
0.0
  0
LINE
  5
221
330
1F
100
AcDbEntity
  8
0-8
  6
Continuous
 62
     3
370
     9
100
AcDbLine
 10
-185.2071157897608
 20
591.1455933727225
 30
0.0
 11
-185.2071157897608
 21
615.1457658736276
 31
0.0
  0
LINE
  5
222
330
1F
100
AcDbEntity
  8
0-8
  6
Continuous
 62
     3
370
     9
100
AcDbLine
 10
-177.2072449297825
 20
591.1455933727225
 30
0.0
 11
-177.2072449297825
 21
615.1457658736276
 31
0.0
  0
LINE
  5
223
330
1F
100
AcDbEntity
  8
0-8
  6
Continuous
 62
     3
370
     9
100
AcDbLine
 10
-173.2073094997934
 20
591.1455933727225
 30
0.0
 11
-173.2073094997934
 21
615.1457658736276
 31
0.0
  0
LINE
  5
224
330
1F
100
AcDbEntity
  8
0-8
  6
Continuous
 62
     3
370
     9
100
AcDbLine
 10
-169.2072340895615
 20
591.1455933727225
 30
0.0
 11
-169.2072340895615
 21
615.1457658736276
 31
0.0
  0
LINE
  5
225
330
1F
100
AcDbEntity
  8
0-8
  6
Continuous
 62
     3
370
     9
100
AcDbLine
 10
-189.2071911999924
 20
607.1456150531642
 30
0.0
 11
-165.2071586793299
 21
607.1456150531642
 31
0.0
  0
LINE
  5
226
330
1F
100
AcDbEntity
  8
0-8
  6
Continuous
 62
     3
370
     9
100
AcDbLine
 10
-189.2071911999924
 20
611.145690463396
 30
0.0
 11
-165.2071586793299
 21
611.145690463396
 31
0.0
  0
LINE
  5
227
330
1F
100
AcDbEntity
  8
0-8
  6
Continuous
 62
     3
370
     9
100
AcDbLine
 10
-189.2071911999924
 20
603.145679623175
 30
0.0
 11
-165.2071586793299
 21
603.145679623175
 31
0.0
  0
LINE
  5
228
330
1F
100
AcDbEntity
  8
0-8
  6
Continuous
 62
     3
370
     9
100
AcDbLine
 10
-189.2071911999924
 20
599.1457441931859
 30
0.0
 11
-165.2071586793299
 21
599.1457441931859
 31
0.0
  0
LINE
  5
229
330
1F
100
AcDbEntity
  8
0-8
  6
Continuous
 62
     3
370
     9
100
AcDbLine
 10
-189.2071911999924
 20
595.1456687829543
 30
0.0
 11
-165.2071586793299
 21
595.1456687829543
 31
0.0
  0
LINE
  5
22A
330
1F
100
AcDbEntity
  8
0-8
  6
JWW_CENTER1
 62
     7
370
     9
100
AcDbLine
 10
-196.6374824531596
 20
603.145679623175
 30
0.0
 11
-157.7771473866478
 21
603.145679623175
 31
0.0
  0
LINE
  5
22B
330
1F
100
AcDbEntity
  8
0-8
  6
JWW_CENTER1
 62
     7
370
     9
100
AcDbLine
 10
-177.2072449297825
 20
583.7154420997979
 30
0.0
 11
-177.2072449297825
 21
622.5759171465523
 31
0.0
  0
LINE
  5
22C
330
1F
100
AcDbEntity
  8
0-8
  6
Continuous
 62
     3
370
     9
100
AcDbLine
 10
-181.2070403795289
 20
499.1456086904259
 30
0.0
 11
-181.2070403795289
 21
523.1457811913308
 31
0.0
  0
LINE
  5
22D
330
1F
100
AcDbEntity
  8
0-8
  6
Continuous
 62
     3
370
     9
100
AcDbLine
 10
-185.2071157897608
 20
499.1456086904259
 30
0.0
 11
-185.2071157897608
 21
523.1457811913308
 31
0.0
  0
LINE
  5
22E
330
1F
100
AcDbEntity
  8
0-8
  6
Continuous
 62
     3
370
     9
100
AcDbLine
 10
-177.2072449297825
 20
499.1456086904259
 30
0.0
 11
-177.2072449297825
 21
523.1457811913308
 31
0.0
  0
LINE
  5
22F
330
1F
100
AcDbEntity
  8
0-8
  6
Continuous
 62
     3
370
     9
100
AcDbLine
 10
-173.2073094997934
 20
499.1456086904259
 30
0.0
 11
-173.2073094997934
 21
523.1457811913308
 31
0.0
  0
LINE
  5
230
330
1F
100
AcDbEntity
  8
0-8
  6
Continuous
 62
     3
370
     9
100
AcDbLine
 10
-169.2072340895615
 20
499.1456086904259
 30
0.0
 11
-169.2072340895615
 21
523.1457811913308
 31
0.0
  0
LINE
  5
231
330
1F
100
AcDbEntity
  8
0-8
  6
Continuous
 62
     3
370
     9
100
AcDbLine
 10
-189.2071911999924
 20
515.1456303708676
 30
0.0
 11
-165.2071586793299
 21
515.1456303708676
 31
0.0
  0
LINE
  5
232
330
1F
100
AcDbEntity
  8
0-8
  6
Continuous
 62
     3
370
     9
100
AcDbLine
 10
-189.2071911999924
 20
519.1457057810993
 30
0.0
 11
-165.2071586793299
 21
519.1457057810993
 31
0.0
  0
LINE
  5
233
330
1F
100
AcDbEntity
  8
0-8
  6
Continuous
 62
     3
370
     9
100
AcDbLine
 10
-189.2071911999924
 20
511.1456949408785
 30
0.0
 11
-165.2071586793299
 21
511.1456949408785
 31
0.0
  0
LINE
  5
234
330
1F
100
AcDbEntity
  8
0-8
  6
Continuous
 62
     3
370
     9
100
AcDbLine
 10
-189.2071911999924
 20
507.1457595108893
 30
0.0
 11
-165.2071586793299
 21
507.1457595108893
 31
0.0
  0
LINE
  5
235
330
1F
100
AcDbEntity
  8
0-8
  6
Continuous
 62
     3
370
     9
100
AcDbLine
 10
-189.2071911999924
 20
503.1456841006576
 30
0.0
 11
-165.2071586793299
 21
503.1456841006576
 31
0.0
  0
LINE
  5
236
330
1F
100
AcDbEntity
  8
0-8
  6
JWW_CENTER1
 62
     7
370
     9
100
AcDbLine
 10
-196.6374824531596
 20
511.1456949408785
 30
0.0
 11
-157.7771473866478
 21
511.1456949408785
 31
0.0
  0
LINE
  5
237
330
1F
100
AcDbEntity
  8
0-8
  6
JWW_CENTER1
 62
     7
370
     9
100
AcDbLine
 10
-177.2072449297825
 20
491.7154574175012
 30
0.0
 11
-177.2072449297825
 21
530.5759324642556
 31
0.0
  0
LINE
  5
238
330
1F
100
AcDbEntity
  8
0-8
  6
Continuous
 62
     3
370
     9
100
AcDbLine
 10
-771.2075248902675
 20
839.1460693998099
 30
0.0
 11
-703.2073627582693
 21
839.1460693998099
 31
0.0
  0
LINE
  5
239
330
1F
100
AcDbEntity
  8
0-8
  6
Continuous
 62
     3
370
     9
100
AcDbLine
 10
-771.2075248902675
 20
827.145283248145
 30
0.0
 11
-703.2073627582693
 21
827.145283248145
 31
0.0
  0
LINE
  5
23A
330
1F
100
AcDbEntity
  8
0-8
  6
JWW_CENTER1
 62
     7
370
     9
100
AcDbLine
 10
-737.2074438242682
 20
843.18659910013
 30
0.0
 11
-737.2074438242682
 21
823.1046135675829
 31
0.0
  0
LINE
  5
23B
330
1F
100
AcDbEntity
  8
0-8
  6
JWW_CENTER1
 62
     7
370
     9
100
AcDbLine
 10
-781.9211227218464
 20
833.1456763239773
 30
0.0
 11
-692.4937649266906
 21
833.1456763239773
 31
0.0
  0
LINE
  5
23C
330
1F
100
AcDbEntity
  8
0-8
  6
Continuous
 62
     3
370
     9
100
AcDbLine
 10
-771.2075248902675
 20
747.1460847175135
 30
0.0
 11
-703.2073627582693
 21
747.1460847175135
 31
0.0
  0
LINE
  5
23D
330
1F
100
AcDbEntity
  8
0-8
  6
Continuous
 62
     3
370
     9
100
AcDbLine
 10
-771.2075248902675
 20
735.1452985658483
 30
0.0
 11
-703.2073627582693
 21
735.1452985658483
 31
0.0
  0
LINE
  5
23E
330
1F
100
AcDbEntity
  8
0-8
  6
JWW_CENTER1
 62
     7
370
     9
100
AcDbLine
 10
-737.2074438242682
 20
751.186614417833
 30
0.0
 11
-737.2074438242682
 21
731.1046288852858
 31
0.0
  0
LINE
  5
23F
330
1F
100
AcDbEntity
  8
0-8
  6
JWW_CENTER1
 62
     7
370
     9
100
AcDbLine
 10
-781.9211227218464
 20
741.1456916416807
 30
0.0
 11
-692.4937649266906
 21
741.1456916416807
 31
0.0
  0
LINE
  5
240
330
1F
100
AcDbEntity
  8
0-8
  6
Continuous
 62
     3
370
     9
100
AcDbLine
 10
-771.2075248902675
 20
655.1461000352165
 30
0.0
 11
-703.2073627582693
 21
655.1461000352165
 31
0.0
  0
LINE
  5
241
330
1F
100
AcDbEntity
  8
0-8
  6
Continuous
 62
     3
370
     9
100
AcDbLine
 10
-771.2075248902675
 20
643.1453138835516
 30
0.0
 11
-703.2073627582693
 21
643.1453138835516
 31
0.0
  0
LINE
  5
242
330
1F
100
AcDbEntity
  8
0-8
  6
JWW_CENTER1
 62
     7
370
     9
100
AcDbLine
 10
-737.2074438242682
 20
659.1866297355364
 30
0.0
 11
-737.2074438242682
 21
639.1046442029892
 31
0.0
  0
LINE
  5
243
330
1F
100
AcDbEntity
  8
0-8
  6
JWW_CENTER1
 62
     7
370
     9
100
AcDbLine
 10
-781.9211227218464
 20
649.1457069593841
 30
0.0
 11
-692.4937649266906
 21
649.1457069593841
 31
0.0
  0
LINE
  5
244
330
1F
100
AcDbEntity
  8
0-8
  6
Continuous
 62
     3
370
     9
100
AcDbLine
 10
-771.2075248902675
 20
563.1460453627985
 30
0.0
 11
-703.2073627582693
 21
563.1460453627985
 31
0.0
  0
LINE
  5
245
330
1F
100
AcDbEntity
  8
0-8
  6
Continuous
 62
     3
370
     9
100
AcDbLine
 10
-771.2075248902675
 20
551.1452592111336
 30
0.0
 11
-703.2073627582693
 21
551.1452592111336
 31
0.0
  0
LINE
  5
246
330
1F
100
AcDbEntity
  8
0-8
  6
JWW_CENTER1
 62
     7
370
     9
100
AcDbLine
 10
-737.2074438242682
 20
567.1865750631184
 30
0.0
 11
-737.2074438242682
 21
547.1045895305713
 31
0.0
  0
LINE
  5
247
330
1F
100
AcDbEntity
  8
0-8
  6
JWW_CENTER1
 62
     7
370
     9
100
AcDbLine
 10
-781.9211227218464
 20
557.1456522869662
 30
0.0
 11
-692.4937649266906
 21
557.1456522869662
 31
0.0
  0
LINE
  5
248
330
1F
100
AcDbEntity
  8
0-8
  6
Continuous
 62
     3
370
     9
100
AcDbLine
 10
-611.2075180562151
 20
839.1460693998099
 30
0.0
 11
-543.2073559242172
 21
839.1460693998099
 31
0.0
  0
LINE
  5
249
330
1F
100
AcDbEntity
  8
0-8
  6
Continuous
 62
     3
370
     9
100
AcDbLine
 10
-611.2075180562151
 20
827.145283248145
 30
0.0
 11
-543.2073559242172
 21
827.145283248145
 31
0.0
  0
LINE
  5
24A
330
1F
100
AcDbEntity
  8
0-8
  6
JWW_CENTER1
 62
     7
370
     9
100
AcDbLine
 10
-577.2074369902161
 20
843.18659910013
 30
0.0
 11
-577.2074369902161
 21
823.1046135675829
 31
0.0
  0
LINE
  5
24B
330
1F
100
AcDbEntity
  8
0-8
  6
JWW_CENTER1
 62
     7
370
     9
100
AcDbLine
 10
-621.921115887794
 20
833.1456763239773
 30
0.0
 11
-532.4937580926382
 21
833.1456763239773
 31
0.0
  0
LINE
  5
24C
330
1F
100
AcDbEntity
  8
0-8
  6
Continuous
 62
     3
370
     9
100
AcDbLine
 10
-611.2075180562151
 20
747.1460847175135
 30
0.0
 11
-543.2073559242172
 21
747.1460847175135
 31
0.0
  0
LINE
  5
24D
330
1F
100
AcDbEntity
  8
0-8
  6
Continuous
 62
     3
370
     9
100
AcDbLine
 10
-611.2075180562151
 20
735.1452985658483
 30
0.0
 11
-543.2073559242172
 21
735.1452985658483
 31
0.0
  0
LINE
  5
24E
330
1F
100
AcDbEntity
  8
0-8
  6
JWW_CENTER1
 62
     7
370
     9
100
AcDbLine
 10
-577.2074369902161
 20
751.186614417833
 30
0.0
 11
-577.2074369902161
 21
731.1046288852858
 31
0.0
  0
LINE
  5
24F
330
1F
100
AcDbEntity
  8
0-8
  6
JWW_CENTER1
 62
     7
370
     9
100
AcDbLine
 10
-621.921115887794
 20
741.1456916416807
 30
0.0
 11
-532.4937580926382
 21
741.1456916416807
 31
0.0
  0
LINE
  5
250
330
1F
100
AcDbEntity
  8
0-8
  6
Continuous
 62
     3
370
     9
100
AcDbLine
 10
-611.2075180562151
 20
655.1461000352165
 30
0.0
 11
-543.2073559242172
 21
655.1461000352165
 31
0.0
  0
LINE
  5
251
330
1F
100
AcDbEntity
  8
0-8
  6
Continuous
 62
     3
370
     9
100
AcDbLine
 10
-611.2075180562151
 20
643.1453138835516
 30
0.0
 11
-543.2073559242172
 21
643.1453138835516
 31
0.0
  0
LINE
  5
252
330
1F
100
AcDbEntity
  8
0-8
  6
JWW_CENTER1
 62
     7
370
     9
100
AcDbLine
 10
-577.2074369902161
 20
659.1866297355364
 30
0.0
 11
-577.2074369902161
 21
639.1046442029892
 31
0.0
  0
LINE
  5
253
330
1F
100
AcDbEntity
  8
0-8
  6
JWW_CENTER1
 62
     7
370
     9
100
AcDbLine
 10
-621.921115887794
 20
649.1457069593841
 30
0.0
 11
-532.4937580926382
 21
649.1457069593841
 31
0.0
  0
LINE
  5
254
330
1F
100
AcDbEntity
  8
0-8
  6
Continuous
 62
     3
370
     9
100
AcDbLine
 10
-611.2075180562151
 20
563.1460453627985
 30
0.0
 11
-543.2073559242172
 21
563.1460453627985
 31
0.0
  0
LINE
  5
255
330
1F
100
AcDbEntity
  8
0-8
  6
Continuous
 62
     3
370
     9
100
AcDbLine
 10
-611.2075180562151
 20
551.1452592111336
 30
0.0
 11
-543.2073559242172
 21
551.1452592111336
 31
0.0
  0
LINE
  5
256
330
1F
100
AcDbEntity
  8
0-8
  6
JWW_CENTER1
 62
     7
370
     9
100
AcDbLine
 10
-577.2074369902161
 20
567.1865750631184
 30
0.0
 11
-577.2074369902161
 21
547.1045895305713
 31
0.0
  0
LINE
  5
257
330
1F
100
AcDbEntity
  8
0-8
  6
JWW_CENTER1
 62
     7
370
     9
100
AcDbLine
 10
-621.921115887794
 20
557.1456522869662
 30
0.0
 11
-532.4937580926382
 21
557.1456522869662
 31
0.0
  0
LINE
  5
258
330
1F
100
AcDbEntity
  8
0-8
  6
Continuous
 62
     3
370
     9
100
AcDbLine
 10
-451.207511222163
 20
839.1460693998099
 30
0.0
 11
-383.2073490901648
 21
839.1460693998099
 31
0.0
  0
LINE
  5
259
330
1F
100
AcDbEntity
  8
0-8
  6
Continuous
 62
     3
370
     9
100
AcDbLine
 10
-451.207511222163
 20
827.145283248145
 30
0.0
 11
-383.2073490901648
 21
827.145283248145
 31
0.0
  0
LINE
  5
25A
330
1F
100
AcDbEntity
  8
0-8
  6
JWW_CENTER1
 62
     7
370
     9
100
AcDbLine
 10
-417.207430156164
 20
843.18659910013
 30
0.0
 11
-417.207430156164
 21
823.1046135675829
 31
0.0
  0
LINE
  5
25B
330
1F
100
AcDbEntity
  8
0-8
  6
JWW_CENTER1
 62
     7
370
     9
100
AcDbLine
 10
-461.921179043863
 20
833.1456763239773
 30
0.0
 11
-372.4936812684648
 21
833.1456763239773
 31
0.0
  0
LINE
  5
25C
330
1F
100
AcDbEntity
  8
0-8
  6
Continuous
 62
     3
370
     9
100
AcDbLine
 10
-451.207511222163
 20
747.1460847175135
 30
0.0
 11
-383.2073490901648
 21
747.1460847175135
 31
0.0
  0
LINE
  5
25D
330
1F
100
AcDbEntity
  8
0-8
  6
Continuous
 62
     3
370
     9
100
AcDbLine
 10
-451.207511222163
 20
735.1452985658483
 30
0.0
 11
-383.2073490901648
 21
735.1452985658483
 31
0.0
  0
LINE
  5
25E
330
1F
100
AcDbEntity
  8
0-8
  6
JWW_CENTER1
 62
     7
370
     9
100
AcDbLine
 10
-417.207430156164
 20
751.186614417833
 30
0.0
 11
-417.207430156164
 21
731.1046288852858
 31
0.0
  0
LINE
  5
25F
330
1F
100
AcDbEntity
  8
0-8
  6
JWW_CENTER1
 62
     7
370
     9
100
AcDbLine
 10
-461.921179043863
 20
741.1456916416807
 30
0.0
 11
-372.4936812684648
 21
741.1456916416807
 31
0.0
  0
LINE
  5
260
330
1F
100
AcDbEntity
  8
0-8
  6
Continuous
 62
     3
370
     9
100
AcDbLine
 10
-451.207511222163
 20
655.1461000352165
 30
0.0
 11
-383.2073490901648
 21
655.1461000352165
 31
0.0
  0
LINE
  5
261
330
1F
100
AcDbEntity
  8
0-8
  6
Continuous
 62
     3
370
     9
100
AcDbLine
 10
-451.207511222163
 20
643.1453138835516
 30
0.0
 11
-383.2073490901648
 21
643.1453138835516
 31
0.0
  0
LINE
  5
262
330
1F
100
AcDbEntity
  8
0-8
  6
JWW_CENTER1
 62
     7
370
     9
100
AcDbLine
 10
-417.207430156164
 20
659.1866297355364
 30
0.0
 11
-417.207430156164
 21
639.1046442029892
 31
0.0
  0
LINE
  5
263
330
1F
100
AcDbEntity
  8
0-8
  6
JWW_CENTER1
 62
     7
370
     9
100
AcDbLine
 10
-461.921179043863
 20
649.1457069593841
 30
0.0
 11
-372.4936812684648
 21
649.1457069593841
 31
0.0
  0
LINE
  5
264
330
1F
100
AcDbEntity
  8
0-8
  6
Continuous
 62
     3
370
     9
100
AcDbLine
 10
-451.207511222163
 20
563.1460453627985
 30
0.0
 11
-383.2073490901648
 21
563.1460453627985
 31
0.0
  0
LINE
  5
265
330
1F
100
AcDbEntity
  8
0-8
  6
Continuous
 62
     3
370
     9
100
AcDbLine
 10
-451.207511222163
 20
551.1452592111336
 30
0.0
 11
-383.2073490901648
 21
551.1452592111336
 31
0.0
  0
LINE
  5
266
330
1F
100
AcDbEntity
  8
0-8
  6
JWW_CENTER1
 62
     7
370
     9
100
AcDbLine
 10
-417.207430156164
 20
567.1865750631184
 30
0.0
 11
-417.207430156164
 21
547.1045895305713
 31
0.0
  0
LINE
  5
267
330
1F
100
AcDbEntity
  8
0-8
  6
JWW_CENTER1
 62
     7
370
     9
100
AcDbLine
 10
-461.921179043863
 20
557.1456522869662
 30
0.0
 11
-372.4936812684648
 21
557.1456522869662
 31
0.0
  0
LINE
  5
268
330
1F
100
AcDbEntity
  8
0-8
  6
Continuous
 62
     3
370
     9
100
AcDbLine
 10
-291.2074343979896
 20
839.1460693998099
 30
0.0
 11
-223.2072722659913
 21
839.1460693998099
 31
0.0
  0
LINE
  5
269
330
1F
100
AcDbEntity
  8
0-8
  6
Continuous
 62
     3
370
     9
100
AcDbLine
 10
-291.2074343979896
 20
827.145283248145
 30
0.0
 11
-223.2072722659913
 21
827.145283248145
 31
0.0
  0
LINE
  5
26A
330
1F
100
AcDbEntity
  8
0-8
  6
JWW_CENTER1
 62
     7
370
     9
100
AcDbLine
 10
-257.2073533319904
 20
843.18659910013
 30
0.0
 11
-257.2073533319904
 21
823.1046135675829
 31
0.0
  0
LINE
  5
26B
330
1F
100
AcDbEntity
  8
0-8
  6
JWW_CENTER1
 62
     7
370
     9
100
AcDbLine
 10
-301.9211022196896
 20
833.1456763239773
 30
0.0
 11
-212.4937444245338
 21
833.1456763239773
 31
0.0
  0
LINE
  5
26C
330
1F
100
AcDbEntity
  8
0-8
  6
Continuous
 62
     3
370
     9
100
AcDbLine
 10
-291.2074343979896
 20
747.1460847175135
 30
0.0
 11
-223.2072722659913
 21
747.1460847175135
 31
0.0
  0
LINE
  5
26D
330
1F
100
AcDbEntity
  8
0-8
  6
Continuous
 62
     3
370
     9
100
AcDbLine
 10
-291.2074343979896
 20
735.1452985658483
 30
0.0
 11
-223.2072722659913
 21
735.1452985658483
 31
0.0
  0
LINE
  5
26E
330
1F
100
AcDbEntity
  8
0-8
  6
JWW_CENTER1
 62
     7
370
     9
100
AcDbLine
 10
-257.2073533319904
 20
751.186614417833
 30
0.0
 11
-257.2073533319904
 21
731.1046288852858
 31
0.0
  0
LINE
  5
26F
330
1F
100
AcDbEntity
  8
0-8
  6
JWW_CENTER1
 62
     7
370
     9
100
AcDbLine
 10
-301.9211022196896
 20
741.1456916416807
 30
0.0
 11
-212.4937444245338
 21
741.1456916416807
 31
0.0
  0
LINE
  5
270
330
1F
100
AcDbEntity
  8
0-8
  6
Continuous
 62
     3
370
     9
100
AcDbLine
 10
-291.2074343979896
 20
655.1461000352165
 30
0.0
 11
-223.2072722659913
 21
655.1461000352165
 31
0.0
  0
LINE
  5
271
330
1F
100
AcDbEntity
  8
0-8
  6
Continuous
 62
     3
370
     9
100
AcDbLine
 10
-291.2074343979896
 20
643.1453138835516
 30
0.0
 11
-223.2072722659913
 21
643.1453138835516
 31
0.0
  0
LINE
  5
272
330
1F
100
AcDbEntity
  8
0-8
  6
JWW_CENTER1
 62
     7
370
     9
100
AcDbLine
 10
-257.2073533319904
 20
659.1866297355364
 30
0.0
 11
-257.2073533319904
 21
639.1046442029892
 31
0.0
  0
LINE
  5
273
330
1F
100
AcDbEntity
  8
0-8
  6
JWW_CENTER1
 62
     7
370
     9
100
AcDbLine
 10
-301.9211022196896
 20
649.1457069593841
 30
0.0
 11
-212.4937444245338
 21
649.1457069593841
 31
0.0
  0
LINE
  5
274
330
1F
100
AcDbEntity
  8
0-8
  6
Continuous
 62
     3
370
     9
100
AcDbLine
 10
-291.2074343979896
 20
563.1460453627985
 30
0.0
 11
-223.2072722659913
 21
563.1460453627985
 31
0.0
  0
LINE
  5
275
330
1F
100
AcDbEntity
  8
0-8
  6
Continuous
 62
     3
370
     9
100
AcDbLine
 10
-291.2074343979896
 20
551.1452592111336
 30
0.0
 11
-223.2072722659913
 21
551.1452592111336
 31
0.0
  0
LINE
  5
276
330
1F
100
AcDbEntity
  8
0-8
  6
JWW_CENTER1
 62
     7
370
     9
100
AcDbLine
 10
-257.2073533319904
 20
567.1865750631184
 30
0.0
 11
-257.2073533319904
 21
547.1045895305713
 31
0.0
  0
LINE
  5
277
330
1F
100
AcDbEntity
  8
0-8
  6
JWW_CENTER1
 62
     7
370
     9
100
AcDbLine
 10
-301.9211022196896
 20
557.1456522869662
 30
0.0
 11
-212.4937444245338
 21
557.1456522869662
 31
0.0
  0
LINE
  5
278
330
1F
100
AcDbEntity
  8
0-0
  6
JWW_CENTER1
 62
     7
370
     9
100
AcDbLine
 10
-1101.769747757666
 20
695.1452443647443
 30
0.0
 11
-52.6489056893142
 21
695.1452443647443
 31
0.0
  0
ARC
  5
279
330
1F
100
AcDbEntity
  8
0-8
  6
Continuous
 62
     3
370
     9
100
AcDbCircle
 10
-863.2073695923216
 20
833.1456763239773
 30
0.0
 40
5.999999381400443
100
AcDbArc
 50
270.0
 51
90.0
  0
ARC
  5
27A
330
1F
100
AcDbEntity
  8
0-8
  6
Continuous
 62
     3
370
     9
100
AcDbCircle
 10
-931.2075317243196
 20
833.1456763239773
 30
0.0
 40
5.999999381400443
100
AcDbArc
 50
90.0
 51
270.0
  0
CIRCLE
  5
27B
330
1F
100
AcDbEntity
  8
0-8
  6
Continuous
 62
     3
370
     9
100
AcDbCircle
 10
-977.2072791000437
 20
879.1457036601864
 30
0.0
 40
14.99999845350111
  0
CIRCLE
  5
27C
330
1F
100
AcDbEntity
  8
0-8
  6
Continuous
 62
     3
370
     9
100
AcDbCircle
 10
-118.2093521744434
 20
695.1453143548656
 30
0.0
 40
14.99999845350111
  0
CIRCLE
  5
27D
330
1F
100
AcDbEntity
  8
0-8
  6
Continuous
 62
     3
370
     9
100
AcDbCircle
 10
-977.2072791000437
 20
787.1457189778897
 30
0.0
 40
14.99999845350111
  0
CIRCLE
  5
27E
330
1F
100
AcDbEntity
  8
0-8
  6
Continuous
 62
     3
370
     9
100
AcDbCircle
 10
-977.2072791000437
 20
695.145734295593
 30
0.0
 40
14.99999845350111
  0
CIRCLE
  5
27F
330
1F
100
AcDbEntity
  8
0-8
  6
Continuous
 62
     3
370
     9
100
AcDbCircle
 10
-977.2072791000437
 20
603.145679623175
 30
0.0
 40
14.99999845350111
  0
CIRCLE
  5
280
330
1F
100
AcDbEntity
  8
0-8
  6
Continuous
 62
     3
370
     9
100
AcDbCircle
 10
-977.2072791000437
 20
511.1456949408785
 30
0.0
 40
14.99999845350111
  0
ARC
  5
281
330
1F
100
AcDbEntity
  8
0-8
  6
Continuous
 62
     3
370
     9
100
AcDbCircle
 10
-863.2073695923216
 20
741.1456916416807
 30
0.0
 40
5.999999381400443
100
AcDbArc
 50
270.0
 51
90.0
  0
ARC
  5
282
330
1F
100
AcDbEntity
  8
0-8
  6
Continuous
 62
     3
370
     9
100
AcDbCircle
 10
-931.2075317243196
 20
741.1456916416807
 30
0.0
 40
5.999999381400443
100
AcDbArc
 50
90.0
 51
270.0
  0
ARC
  5
283
330
1F
100
AcDbEntity
  8
0-8
  6
Continuous
 62
     3
370
     9
100
AcDbCircle
 10
-863.2073695923216
 20
649.1457069593841
 30
0.0
 40
5.999999381400443
100
AcDbArc
 50
270.0
 51
90.0
  0
ARC
  5
284
330
1F
100
AcDbEntity
  8
0-8
  6
Continuous
 62
     3
370
     9
100
AcDbCircle
 10
-931.2075317243196
 20
649.1457069593841
 30
0.0
 40
5.999999381400443
100
AcDbArc
 50
90.0
 51
270.0
  0
ARC
  5
285
330
1F
100
AcDbEntity
  8
0-8
  6
Continuous
 62
     3
370
     9
100
AcDbCircle
 10
-863.2073695923216
 20
557.1456522869662
 30
0.0
 40
5.999999381400443
100
AcDbArc
 50
270.0
 51
90.0
  0
ARC
  5
286
330
1F
100
AcDbEntity
  8
0-8
  6
Continuous
 62
     3
370
     9
100
AcDbCircle
 10
-931.2075317243196
 20
557.1456522869662
 30
0.0
 40
5.999999381400443
100
AcDbArc
 50
90.0
 51
270.0
  0
CIRCLE
  5
287
330
1F
100
AcDbEntity
  8
0-8
  6
Continuous
 62
     3
370
     9
100
AcDbCircle
 10
-817.2072722659914
 20
879.1457036601864
 30
0.0
 40
14.99999845350111
  0
CIRCLE
  5
288
330
1F
100
AcDbEntity
  8
0-8
  6
Continuous
 62
     3
370
     9
100
AcDbCircle
 10
-817.2072722659914
 20
787.1457189778897
 30
0.0
 40
14.99999845350111
  0
CIRCLE
  5
289
330
1F
100
AcDbEntity
  8
0-8
  6
Continuous
 62
     3
370
     9
100
AcDbCircle
 10
-817.2072722659914
 20
695.145734295593
 30
0.0
 40
14.99999845350111
  0
CIRCLE
  5
28A
330
1F
100
AcDbEntity
  8
0-8
  6
Continuous
 62
     3
370
     9
100
AcDbCircle
 10
-817.2072722659914
 20
603.145679623175
 30
0.0
 40
14.99999845350111
  0
CIRCLE
  5
28B
330
1F
100
AcDbEntity
  8
0-8
  6
Continuous
 62
     3
370
     9
100
AcDbCircle
 10
-817.2072722659914
 20
511.1456949408785
 30
0.0
 40
14.99999845350111
  0
CIRCLE
  5
28C
330
1F
100
AcDbEntity
  8
0-8
  6
Continuous
 62
     3
370
     9
100
AcDbCircle
 10
-657.207265431939
 20
879.1457036601864
 30
0.0
 40
14.99999845350111
  0
CIRCLE
  5
28D
330
1F
100
AcDbEntity
  8
0-8
  6
Continuous
 62
     3
370
     9
100
AcDbCircle
 10
-657.207265431939
 20
787.1457189778897
 30
0.0
 40
14.99999845350111
  0
CIRCLE
  5
28E
330
1F
100
AcDbEntity
  8
0-8
  6
Continuous
 62
     3
370
     9
100
AcDbCircle
 10
-657.207265431939
 20
695.145734295593
 30
0.0
 40
14.99999845350111
  0
CIRCLE
  5
28F
330
1F
100
AcDbEntity
  8
0-8
  6
Continuous
 62
     3
370
     9
100
AcDbCircle
 10
-657.207265431939
 20
603.145679623175
 30
0.0
 40
14.99999845350111
  0
CIRCLE
  5
290
330
1F
100
AcDbEntity
  8
0-8
  6
Continuous
 62
     3
370
     9
100
AcDbCircle
 10
-657.207265431939
 20
511.1456949408785
 30
0.0
 40
14.99999845350111
  0
CIRCLE
  5
291
330
1F
100
AcDbEntity
  8
0-8
  6
Continuous
 62
     3
370
     9
100
AcDbCircle
 10
-497.2072585978869
 20
879.1457036601864
 30
0.0
 40
14.99999845350111
  0
CIRCLE
  5
292
330
1F
100
AcDbEntity
  8
0-8
  6
Continuous
 62
     3
370
     9
100
AcDbCircle
 10
-497.2072585978869
 20
787.1457189778897
 30
0.0
 40
14.99999845350111
  0
CIRCLE
  5
293
330
1F
100
AcDbEntity
  8
0-8
  6
Continuous
 62
     3
370
     9
100
AcDbCircle
 10
-497.2072585978869
 20
695.145734295593
 30
0.0
 40
14.99999845350111
  0
CIRCLE
  5
294
330
1F
100
AcDbEntity
  8
0-8
  6
Continuous
 62
     3
370
     9
100
AcDbCircle
 10
-497.2072585978869
 20
603.145679623175
 30
0.0
 40
14.99999845350111
  0
CIRCLE
  5
295
330
1F
100
AcDbEntity
  8
0-8
  6
Continuous
 62
     3
370
     9
100
AcDbCircle
 10
-497.2072585978869
 20
511.1456949408785
 30
0.0
 40
14.99999845350111
  0
CIRCLE
  5
296
330
1F
100
AcDbEntity
  8
0-8
  6
Continuous
 62
     3
370
     9
100
AcDbCircle
 10
-337.2071817737135
 20
879.1457036601864
 30
0.0
 40
14.99999845350111
  0
CIRCLE
  5
297
330
1F
100
AcDbEntity
  8
0-8
  6
Continuous
 62
     3
370
     9
100
AcDbCircle
 10
-337.2071817737135
 20
787.1457189778897
 30
0.0
 40
14.99999845350111
  0
CIRCLE
  5
298
330
1F
100
AcDbEntity
  8
0-8
  6
Continuous
 62
     3
370
     9
100
AcDbCircle
 10
-337.2071817737135
 20
695.145734295593
 30
0.0
 40
14.99999845350111
  0
CIRCLE
  5
299
330
1F
100
AcDbEntity
  8
0-8
  6
Continuous
 62
     3
370
     9
100
AcDbCircle
 10
-337.2071817737135
 20
603.145679623175
 30
0.0
 40
14.99999845350111
  0
CIRCLE
  5
29A
330
1F
100
AcDbEntity
  8
0-8
  6
Continuous
 62
     3
370
     9
100
AcDbCircle
 10
-337.2071817737135
 20
511.1456949408785
 30
0.0
 40
14.99999845350111
  0
CIRCLE
  5
29B
330
1F
100
AcDbEntity
  8
0-8
  6
Continuous
 62
     3
370
     9
100
AcDbCircle
 10
-177.2072449297825
 20
879.1457036601864
 30
0.0
 40
14.99999845350111
  0
CIRCLE
  5
29C
330
1F
100
AcDbEntity
  8
0-8
  6
Continuous
 62
     3
370
     9
100
AcDbCircle
 10
-177.2072449297825
 20
787.1457189778897
 30
0.0
 40
14.99999845350111
  0
CIRCLE
  5
29D
330
1F
100
AcDbEntity
  8
0-8
  6
Continuous
 62
     3
370
     9
100
AcDbCircle
 10
-177.2072449297825
 20
695.145734295593
 30
0.0
 40
14.99999845350111
  0
CIRCLE
  5
29E
330
1F
100
AcDbEntity
  8
0-8
  6
Continuous
 62
     3
370
     9
100
AcDbCircle
 10
-177.2072449297825
 20
603.145679623175
 30
0.0
 40
14.99999845350111
  0
CIRCLE
  5
29F
330
1F
100
AcDbEntity
  8
0-8
  6
Continuous
 62
     3
370
     9
100
AcDbCircle
 10
-177.2072449297825
 20
511.1456949408785
 30
0.0
 40
14.99999845350111
  0
ARC
  5
2A0
330
1F
100
AcDbEntity
  8
0-8
  6
Continuous
 62
     3
370
     9
100
AcDbCircle
 10
-703.2073627582693
 20
833.1456763239773
 30
0.0
 40
5.999999381400443
100
AcDbArc
 50
270.0
 51
90.0
  0
ARC
  5
2A1
330
1F
100
AcDbEntity
  8
0-8
  6
Continuous
 62
     3
370
     9
100
AcDbCircle
 10
-771.2075248902675
 20
833.1456763239773
 30
0.0
 40
5.999999381400443
100
AcDbArc
 50
90.0
 51
270.0
  0
ARC
  5
2A2
330
1F
100
AcDbEntity
  8
0-8
  6
Continuous
 62
     3
370
     9
100
AcDbCircle
 10
-703.2073627582693
 20
741.1456916416807
 30
0.0
 40
5.999999381400443
100
AcDbArc
 50
270.0
 51
90.0
  0
ARC
  5
2A3
330
1F
100
AcDbEntity
  8
0-8
  6
Continuous
 62
     3
370
     9
100
AcDbCircle
 10
-771.2075248902675
 20
741.1456916416807
 30
0.0
 40
5.999999381400443
100
AcDbArc
 50
90.0
 51
270.0
  0
ARC
  5
2A4
330
1F
100
AcDbEntity
  8
0-8
  6
Continuous
 62
     3
370
     9
100
AcDbCircle
 10
-703.2073627582693
 20
649.1457069593841
 30
0.0
 40
5.999999381400443
100
AcDbArc
 50
270.0
 51
90.0
  0
ARC
  5
2A5
330
1F
100
AcDbEntity
  8
0-8
  6
Continuous
 62
     3
370
     9
100
AcDbCircle
 10
-771.2075248902675
 20
649.1457069593841
 30
0.0
 40
5.999999381400443
100
AcDbArc
 50
90.0
 51
270.0
  0
ARC
  5
2A6
330
1F
100
AcDbEntity
  8
0-8
  6
Continuous
 62
     3
370
     9
100
AcDbCircle
 10
-703.2073627582693
 20
557.1456522869662
 30
0.0
 40
5.999999381400443
100
AcDbArc
 50
270.0
 51
90.0
  0
ARC
  5
2A7
330
1F
100
AcDbEntity
  8
0-8
  6
Continuous
 62
     3
370
     9
100
AcDbCircle
 10
-771.2075248902675
 20
557.1456522869662
 30
0.0
 40
5.999999381400443
100
AcDbArc
 50
90.0
 51
270.0
  0
ARC
  5
2A8
330
1F
100
AcDbEntity
  8
0-8
  6
Continuous
 62
     3
370
     9
100
AcDbCircle
 10
-543.2073559242172
 20
833.1456763239773
 30
0.0
 40
5.999999381400443
100
AcDbArc
 50
270.0
 51
90.0
  0
ARC
  5
2A9
330
1F
100
AcDbEntity
  8
0-8
  6
Continuous
 62
     3
370
     9
100
AcDbCircle
 10
-611.2075180562151
 20
833.1456763239773
 30
0.0
 40
5.999999381400443
100
AcDbArc
 50
90.0
 51
270.0
  0
ARC
  5
2AA
330
1F
100
AcDbEntity
  8
0-8
  6
Continuous
 62
     3
370
     9
100
AcDbCircle
 10
-543.2073559242172
 20
741.1456916416807
 30
0.0
 40
5.999999381400443
100
AcDbArc
 50
270.0
 51
90.0
  0
ARC
  5
2AB
330
1F
100
AcDbEntity
  8
0-8
  6
Continuous
 62
     3
370
     9
100
AcDbCircle
 10
-611.2075180562151
 20
741.1456916416807
 30
0.0
 40
5.999999381400443
100
AcDbArc
 50
90.0
 51
270.0
  0
ARC
  5
2AC
330
1F
100
AcDbEntity
  8
0-8
  6
Continuous
 62
     3
370
     9
100
AcDbCircle
 10
-543.2073559242172
 20
649.1457069593841
 30
0.0
 40
5.999999381400443
100
AcDbArc
 50
270.0
 51
90.0
  0
ARC
  5
2AD
330
1F
100
AcDbEntity
  8
0-8
  6
Continuous
 62
     3
370
     9
100
AcDbCircle
 10
-611.2075180562151
 20
649.1457069593841
 30
0.0
 40
5.999999381400443
100
AcDbArc
 50
90.0
 51
270.0
  0
ARC
  5
2AE
330
1F
100
AcDbEntity
  8
0-8
  6
Continuous
 62
     3
370
     9
100
AcDbCircle
 10
-543.2073559242172
 20
557.1456522869662
 30
0.0
 40
5.999999381400443
100
AcDbArc
 50
270.0
 51
90.0
  0
ARC
  5
2AF
330
1F
100
AcDbEntity
  8
0-8
  6
Continuous
 62
     3
370
     9
100
AcDbCircle
 10
-611.2075180562151
 20
557.1456522869662
 30
0.0
 40
5.999999381400443
100
AcDbArc
 50
90.0
 51
270.0
  0
ARC
  5
2B0
330
1F
100
AcDbEntity
  8
0-8
  6
Continuous
 62
     3
370
     9
100
AcDbCircle
 10
-383.2073490901648
 20
833.1456763239773
 30
0.0
 40
5.999999381400443
100
AcDbArc
 50
270.0
 51
90.0
  0
ARC
  5
2B1
330
1F
100
AcDbEntity
  8
0-8
  6
Continuous
 62
     3
370
     9
100
AcDbCircle
 10
-451.207511222163
 20
833.1456763239773
 30
0.0
 40
5.999999381400443
100
AcDbArc
 50
90.0
 51
270.0
  0
ARC
  5
2B2
330
1F
100
AcDbEntity
  8
0-8
  6
Continuous
 62
     3
370
     9
100
AcDbCircle
 10
-383.2073490901648
 20
741.1456916416807
 30
0.0
 40
5.999999381400443
100
AcDbArc
 50
270.0
 51
90.0
  0
ARC
  5
2B3
330
1F
100
AcDbEntity
  8
0-8
  6
Continuous
 62
     3
370
     9
100
AcDbCircle
 10
-451.207511222163
 20
741.1456916416807
 30
0.0
 40
5.999999381400443
100
AcDbArc
 50
90.0
 51
270.0
  0
ARC
  5
2B4
330
1F
100
AcDbEntity
  8
0-8
  6
Continuous
 62
     3
370
     9
100
AcDbCircle
 10
-383.2073490901648
 20
649.1457069593841
 30
0.0
 40
5.999999381400443
100
AcDbArc
 50
270.0
 51
90.0
  0
ARC
  5
2B5
330
1F
100
AcDbEntity
  8
0-8
  6
Continuous
 62
     3
370
     9
100
AcDbCircle
 10
-451.207511222163
 20
649.1457069593841
 30
0.0
 40
5.999999381400443
100
AcDbArc
 50
90.0
 51
270.0
  0
ARC
  5
2B6
330
1F
100
AcDbEntity
  8
0-8
  6
Continuous
 62
     3
370
     9
100
AcDbCircle
 10
-383.2073490901648
 20
557.1456522869662
 30
0.0
 40
5.999999381400443
100
AcDbArc
 50
270.0
 51
90.0
  0
ARC
  5
2B7
330
1F
100
AcDbEntity
  8
0-8
  6
Continuous
 62
     3
370
     9
100
AcDbCircle
 10
-451.207511222163
 20
557.1456522869662
 30
0.0
 40
5.999999381400443
100
AcDbArc
 50
90.0
 51
270.0
  0
ARC
  5
2B8
330
1F
100
AcDbEntity
  8
0-8
  6
Continuous
 62
     3
370
     9
100
AcDbCircle
 10
-223.2072722659913
 20
833.1456763239773
 30
0.0
 40
5.999999381400443
100
AcDbArc
 50
270.0
 51
90.0
  0
ARC
  5
2B9
330
1F
100
AcDbEntity
  8
0-8
  6
Continuous
 62
     3
370
     9
100
AcDbCircle
 10
-291.2074343979896
 20
833.1456763239773
 30
0.0
 40
5.999999381400443
100
AcDbArc
 50
90.0
 51
270.0
  0
ARC
  5
2BA
330
1F
100
AcDbEntity
  8
0-8
  6
Continuous
 62
     3
370
     9
100
AcDbCircle
 10
-223.2072722659913
 20
741.1456916416807
 30
0.0
 40
5.999999381400443
100
AcDbArc
 50
270.0
 51
90.0
  0
ARC
  5
2BB
330
1F
100
AcDbEntity
  8
0-8
  6
Continuous
 62
     3
370
     9
100
AcDbCircle
 10
-291.2074343979896
 20
741.1456916416807
 30
0.0
 40
5.999999381400443
100
AcDbArc
 50
90.0
 51
270.0
  0
ARC
  5
2BC
330
1F
100
AcDbEntity
  8
0-8
  6
Continuous
 62
     3
370
     9
100
AcDbCircle
 10
-223.2072722659913
 20
649.1457069593841
 30
0.0
 40
5.999999381400443
100
AcDbArc
 50
270.0
 51
90.0
  0
ARC
  5
2BD
330
1F
100
AcDbEntity
  8
0-8
  6
Continuous
 62
     3
370
     9
100
AcDbCircle
 10
-291.2074343979896
 20
649.1457069593841
 30
0.0
 40
5.999999381400443
100
AcDbArc
 50
90.0
 51
270.0
  0
ARC
  5
2BE
330
1F
100
AcDbEntity
  8
0-8
  6
Continuous
 62
     3
370
     9
100
AcDbCircle
 10
-223.2072722659913
 20
557.1456522869662
 30
0.0
 40
5.999999381400443
100
AcDbArc
 50
270.0
 51
90.0
  0
ARC
  5
2BF
330
1F
100
AcDbEntity
  8
0-8
  6
Continuous
 62
     3
370
     9
100
AcDbCircle
 10
-291.2074343979896
 20
557.1456522869662
 30
0.0
 40
5.999999381400443
100
AcDbArc
 50
90.0
 51
270.0
  0
LINE
  5
2C0
330
1F
100
AcDbEntity
  8
0-4
  6
Continuous
 62
     7
370
     9
100
AcDbLine
 10
-897.2074506583206
 20
997.9218113803242
 30
0.0
 11
-257.2073533319904
 21
997.9218113803242
 31
0.0
  0
LINE
  5
2C1
330
1F
100
AcDbEntity
  8
0-4
  6
Continuous
 62
     7
370
     9
100
AcDbLine
 10
-897.2074506583206
 20
997.9218113803242
 30
0.0
 11
-867.4641048171063
 21
1001.837597146926
 31
0.0
  0
LINE
  5
2C2
330
1F
100
AcDbEntity
  8
0-4
  6
Continuous
 62
     7
370
     9
100
AcDbLine
 10
-897.2074506583206
 20
997.9218113803242
 30
0.0
 11
-867.4641048171063
 21
994.0060256137226
 31
0.0
  0
LINE
  5
2C3
330
1F
100
AcDbEntity
  8
0-4
  6
Continuous
 62
     7
370
     9
100
AcDbLine
 10
-707.464097983054
 20
994.0060256137226
 30
0.0
 11
-766.9507896654827
 21
1001.837597146926
 31
0.0
  0
LINE
  5
2C4
330
1F
100
AcDbEntity
  8
0-4
  6
Continuous
 62
     7
370
     9
100
AcDbLine
 10
-707.464097983054
 20
1001.837597146926
 30
0.0
 11
-766.9507896654827
 21
994.0060256137226
 31
0.0
  0
LINE
  5
2C5
330
1F
100
AcDbEntity
  8
0-4
  6
Continuous
 62
     7
370
     9
100
AcDbLine
 10
-897.2074506583206
 20
1000.921811380324
 30
0.0
 11
-897.2074506583206
 21
888.7549753310341
 31
0.0
  0
LINE
  5
2C6
330
1F
100
AcDbEntity
  8
0-4
  6
Continuous
 62
     7
370
     9
100
AcDbLine
 10
-737.2074438242682
 20
1000.921811380324
 30
0.0
 11
-737.2074438242682
 21
888.7549753310341
 31
0.0
  0
TEXT
  5
2C7
330
1F
100
AcDbEntity
  8
0-4
  6
Continuous
 62
     2
370
   211
100
AcDbText
 10
-838.4574472412944
 20
1008.561811380324
 30
0.0
 40
30.48
  1
80
 41
1.0625
  7
ＭＳ ゴシック
100
AcDbText
  0
LINE
  5
2C8
330
1F
100
AcDbEntity
  8
0-4
  6
Continuous
 62
     7
370
     9
100
AcDbLine
 10
-547.465980882276
 20
994.0060256137226
 30
0.0
 11
-606.9526725647045
 21
1001.837597146926
 31
0.0
  0
LINE
  5
2C9
330
1F
100
AcDbEntity
  8
0-4
  6
Continuous
 62
     7
370
     9
100
AcDbLine
 10
-547.465980882276
 20
1001.837597146926
 30
0.0
 11
-606.9526725647045
 21
994.0060256137226
 31
0.0
  0
LINE
  5
2CA
330
1F
100
AcDbEntity
  8
0-4
  6
Continuous
 62
     7
370
     9
100
AcDbLine
 10
-577.2093267234902
 20
1000.921811380324
 30
0.0
 11
-577.2093267234902
 21
888.7549753310341
 31
0.0
  0
TEXT
  5
2CB
330
1F
100
AcDbEntity
  8
0-4
  6
Continuous
 62
     2
370
   211
100
AcDbText
 10
-678.4583852738792
 20
1008.561811380324
 30
0.0
 40
30.48
  1
80
 41
1.0625
  7
ＭＳ ゴシック
100
AcDbText
  0
LINE
  5
2CC
330
1F
100
AcDbEntity
  8
0-4
  6
Continuous
 62
     7
370
     9
100
AcDbLine
 10
-387.4640843149498
 20
994.0060256137226
 30
0.0
 11
-446.9507759973783
 21
1001.837597146926
 31
0.0
  0
LINE
  5
2CD
330
1F
100
AcDbEntity
  8
0-4
  6
Continuous
 62
     7
370
     9
100
AcDbLine
 10
-387.4640843149498
 20
1001.837597146926
 30
0.0
 11
-446.9507759973783
 21
994.0060256137226
 31
0.0
  0
LINE
  5
2CE
330
1F
100
AcDbEntity
  8
0-4
  6
Continuous
 62
     7
370
     9
100
AcDbLine
 10
-417.207430156164
 20
1000.921811380324
 30
0.0
 11
-417.207430156164
 21
888.7549753310341
 31
0.0
  0
TEXT
  5
2CF
330
1F
100
AcDbEntity
  8
0-4
  6
Continuous
 62
     2
370
   211
100
AcDbText
 10
-518.4583784398271
 20
1008.561811380324
 30
0.0
 40
30.48
  1
80
 41
1.0625
  7
ＭＳ ゴシック
100
AcDbText
  0
LINE
  5
2D0
330
1F
100
AcDbEntity
  8
0-4
  6
Continuous
 62
     7
370
     9
100
AcDbLine
 10
-257.2073533319904
 20
997.9218113803242
 30
0.0
 11
-286.9506991732047
 21
1001.837597146926
 31
0.0
  0
LINE
  5
2D1
330
1F
100
AcDbEntity
  8
0-4
  6
Continuous
 62
     7
370
     9
100
AcDbLine
 10
-257.2073533319904
 20
997.9218113803242
 30
0.0
 11
-286.9506991732047
 21
994.0060256137226
 31
0.0
  0
LINE
  5
2D2
330
1F
100
AcDbEntity
  8
0-4
  6
Continuous
 62
     7
370
     9
100
AcDbLine
 10
-257.2073533319904
 20
1000.921811380324
 30
0.0
 11
-257.2073533319904
 21
888.7549753310341
 31
0.0
  0
TEXT
  5
2D3
330
1F
100
AcDbEntity
  8
0-4
  6
Continuous
 62
     2
370
   211
100
AcDbText
 10
-358.4573917440773
 20
1008.561811380324
 30
0.0
 40
30.48
  1
80
 41
1.0625
  7
ＭＳ ゴシック
100
AcDbText
  0
LINE
  5
2D4
330
1F
100
AcDbEntity
  8
0-4
  6
Continuous
 62
     7
370
     9
100
AcDbLine
 10
-977.2072791000437
 20
366.8834776874843
 30
0.0
 11
-177.2072449297825
 21
366.8834776874843
 31
0.0
  0
LINE
  5
2D5
330
1F
100
AcDbEntity
  8
0-4
  6
Continuous
 62
     7
370
     9
100
AcDbLine
 10
-977.2072791000437
 20
366.8834776874843
 30
0.0
 11
-947.4639332588293
 21
370.7992634540858
 31
0.0
  0
LINE
  5
2D6
330
1F
100
AcDbEntity
  8
0-4
  6
Continuous
 62
     7
370
     9
100
AcDbLine
 10
-977.2072791000437
 20
366.8834776874843
 30
0.0
 11
-947.4639332588293
 21
362.9676919208828
 31
0.0
  0
LINE
  5
2D7
330
1F
100
AcDbEntity
  8
0-4
  6
Continuous
 62
     7
370
     9
100
AcDbLine
 10
-787.463926424777
 20
362.9676919208828
 30
0.0
 11
-846.9506181072057
 21
370.7992634540858
 31
0.0
  0
LINE
  5
2D8
330
1F
100
AcDbEntity
  8
0-4
  6
Continuous
 62
     7
370
     9
100
AcDbLine
 10
-787.463926424777
 20
370.7992634540858
 30
0.0
 11
-846.9506181072057
 21
362.9676919208828
 31
0.0
  0
LINE
  5
2D9
330
1F
100
AcDbEntity
  8
0-4
  6
Continuous
 62
     7
370
     9
100
AcDbLine
 10
-977.2072791000437
 20
363.8834776874842
 30
0.0
 11
-977.2072791000437
 21
470.1004624829031
 31
0.0
  0
LINE
  5
2DA
330
1F
100
AcDbEntity
  8
0-4
  6
Continuous
 62
     7
370
     9
100
AcDbLine
 10
-817.2072722659914
 20
363.8834776874842
 30
0.0
 11
-817.2072722659914
 21
470.1004624829031
 31
0.0
  0
TEXT
  5
2DB
330
1F
100
AcDbEntity
  8
0-4
  6
Continuous
 62
     2
370
   211
100
AcDbText
 10
-918.4572756830175
 20
377.5234776874843
 30
0.0
 40
30.48
  1
80
 41
1.0625
  7
ＭＳ ゴシック
100
AcDbText
  0
LINE
  5
2DC
330
1F
100
AcDbEntity
  8
0-4
  6
Continuous
 62
     7
370
     9
100
AcDbLine
 10
-627.4639195907248
 20
362.9676919208828
 30
0.0
 11
-686.9506112731534
 21
370.7992634540858
 31
0.0
  0
LINE
  5
2DD
330
1F
100
AcDbEntity
  8
0-4
  6
Continuous
 62
     7
370
     9
100
AcDbLine
 10
-627.4639195907248
 20
370.7992634540858
 30
0.0
 11
-686.9506112731534
 21
362.9676919208828
 31
0.0
  0
LINE
  5
2DE
330
1F
100
AcDbEntity
  8
0-4
  6
Continuous
 62
     7
370
     9
100
AcDbLine
 10
-657.207265431939
 20
363.8834776874842
 30
0.0
 11
-657.207265431939
 21
470.1004624829031
 31
0.0
  0
TEXT
  5
2DF
330
1F
100
AcDbEntity
  8
0-4
  6
Continuous
 62
     2
370
   211
100
AcDbText
 10
-758.4572688489652
 20
377.5234776874843
 30
0.0
 40
30.48
  1
80
 41
1.0625
  7
ＭＳ ゴシック
100
AcDbText
  0
LINE
  5
2E0
330
1F
100
AcDbEntity
  8
0-4
  6
Continuous
 62
     7
370
     9
100
AcDbLine
 10
-467.4639127566726
 20
362.9676919208828
 30
0.0
 11
-526.9506044391012
 21
370.7992634540858
 31
0.0
  0
LINE
  5
2E1
330
1F
100
AcDbEntity
  8
0-4
  6
Continuous
 62
     7
370
     9
100
AcDbLine
 10
-467.4639127566726
 20
370.7992634540858
 30
0.0
 11
-526.9506044391012
 21
362.9676919208828
 31
0.0
  0
LINE
  5
2E2
330
1F
100
AcDbEntity
  8
0-4
  6
Continuous
 62
     7
370
     9
100
AcDbLine
 10
-497.2072585978869
 20
363.8834776874842
 30
0.0
 11
-497.2072585978869
 21
470.1004624829031
 31
0.0
  0
TEXT
  5
2E3
330
1F
100
AcDbEntity
  8
0-4
  6
Continuous
 62
     2
370
   211
100
AcDbText
 10
-598.457262014913
 20
377.5234776874843
 30
0.0
 40
30.48
  1
80
 41
1.0625
  7
ＭＳ ゴシック
100
AcDbText
  0
LINE
  5
2E4
330
1F
100
AcDbEntity
  8
0-4
  6
Continuous
 62
     7
370
     9
100
AcDbLine
 10
-307.4638359324993
 20
362.9676919208828
 30
0.0
 11
-366.9505276149278
 21
370.7992634540858
 31
0.0
  0
LINE
  5
2E5
330
1F
100
AcDbEntity
  8
0-4
  6
Continuous
 62
     7
370
     9
100
AcDbLine
 10
-307.4638359324993
 20
370.7992634540858
 30
0.0
 11
-366.9505276149278
 21
362.9676919208828
 31
0.0
  0
LINE
  5
2E6
330
1F
100
AcDbEntity
  8
0-4
  6
Continuous
 62
     7
370
     9
100
AcDbLine
 10
-337.2071817737135
 20
363.8834776874842
 30
0.0
 11
-337.2071817737135
 21
470.1004624829031
 31
0.0
  0
TEXT
  5
2E7
330
1F
100
AcDbEntity
  8
0-4
  6
Continuous
 62
     2
370
   211
100
AcDbText
 10
-438.4572201858002
 20
377.5234776874843
 30
0.0
 40
30.48
  1
80
 41
1.0625
  7
ＭＳ ゴシック
100
AcDbText
  0
LINE
  5
2E8
330
1F
100
AcDbEntity
  8
0-4
  6
Continuous
 62
     7
370
     9
100
AcDbLine
 10
-177.2072449297825
 20
366.8834776874843
 30
0.0
 11
-206.9505907709968
 21
370.7992634540858
 31
0.0
  0
LINE
  5
2E9
330
1F
100
AcDbEntity
  8
0-4
  6
Continuous
 62
     7
370
     9
100
AcDbLine
 10
-177.2072449297825
 20
366.8834776874843
 30
0.0
 11
-206.9505907709968
 21
362.9676919208828
 31
0.0
  0
LINE
  5
2EA
330
1F
100
AcDbEntity
  8
0-4
  6
Continuous
 62
     7
370
     9
100
AcDbLine
 10
-177.2072449297825
 20
363.8834776874842
 30
0.0
 11
-177.2072449297825
 21
470.1004624829031
 31
0.0
  0
TEXT
  5
2EB
330
1F
100
AcDbEntity
  8
0-4
  6
Continuous
 62
     2
370
   211
100
AcDbText
 10
-278.457213351748
 20
377.5234776874843
 30
0.0
 40
30.48
  1
80
 41
1.0625
  7
ＭＳ ゴシック
100
AcDbText
  0
LINE
  5
2EC
330
1F
100
AcDbEntity
  8
0-4
  6
Continuous
 62
     7
370
     9
100
AcDbLine
 10
-1141.477565090349
 20
557.1456522869662
 30
0.0
 11
-1141.477565090349
 21
833.1456763239773
 31
0.0
  0
LINE
  5
2ED
330
1F
100
AcDbEntity
  8
0-4
  6
Continuous
 62
     7
370
     9
100
AcDbLine
 10
-1141.477565090349
 20
557.1456522869662
 30
0.0
 11
-1145.393350856951
 21
586.8889981281804
 31
0.0
  0
LINE
  5
2EE
330
1F
100
AcDbEntity
  8
0-4
  6
Continuous
 62
     7
370
     9
100
AcDbLine
 10
-1141.477565090349
 20
557.1456522869662
 30
0.0
 11
-1137.561779323747
 21
586.8889981281804
 31
0.0
  0
LINE
  5
2EF
330
1F
100
AcDbEntity
  8
0-4
  6
Continuous
 62
     7
370
     9
100
AcDbLine
 10
-1137.561779323747
 20
678.8890528005984
 30
0.0
 11
-1145.393350856951
 21
619.4023611181697
 31
0.0
  0
LINE
  5
2F0
330
1F
100
AcDbEntity
  8
0-4
  6
Continuous
 62
     7
370
     9
100
AcDbLine
 10
-1145.393350856951
 20
678.8890528005984
 30
0.0
 11
-1137.561779323747
 21
619.4023611181697
 31
0.0
  0
LINE
  5
2F1
330
1F
100
AcDbEntity
  8
0-4
  6
Continuous
 62
     7
370
     9
100
AcDbLine
 10
-1144.477565090349
 20
557.1456522869662
 30
0.0
 11
-1020.312890083793
 21
557.1456522869662
 31
0.0
  0
LINE
  5
2F2
330
1F
100
AcDbEntity
  8
0-4
  6
Continuous
 62
     7
370
     9
100
AcDbLine
 10
-1144.477565090349
 20
649.1457069593841
 30
0.0
 11
-1020.312890083793
 21
649.1457069593841
 31
0.0
  0
TEXT
  5
2F3
330
1F
100
AcDbEntity
  8
0-4
  6
Continuous
 62
     2
370
   211
100
AcDbText
 10
-1152.117565090349
 20
581.895679623175
 30
0.0
 40
30.48
  1
46
 50
90.0
 41
1.0625
  7
ＭＳ ゴシック
100
AcDbText
  0
LINE
  5
2F4
330
1F
100
AcDbEntity
  8
0-4
  6
Continuous
 62
     7
370
     9
100
AcDbLine
 10
-1137.561779323747
 20
770.8890374828951
 30
0.0
 11
-1145.393350856951
 21
711.4023458004664
 31
0.0
  0
LINE
  5
2F5
330
1F
100
AcDbEntity
  8
0-4
  6
Continuous
 62
     7
370
     9
100
AcDbLine
 10
-1145.393350856951
 20
770.8890374828951
 30
0.0
 11
-1137.561779323747
 21
711.4023458004664
 31
0.0
  0
LINE
  5
2F6
330
1F
100
AcDbEntity
  8
0-4
  6
Continuous
 62
     7
370
     9
100
AcDbLine
 10
-1144.477565090349
 20
741.1456916416807
 30
0.0
 11
-1020.312890083793
 21
741.1456916416807
 31
0.0
  0
TEXT
  5
2F7
330
1F
100
AcDbEntity
  8
0-4
  6
Continuous
 62
     2
370
   211
100
AcDbText
 10
-1152.117565090349
 20
673.8956993005322
 30
0.0
 40
30.48
  1
46
 50
90.0
 41
1.0625
  7
ＭＳ ゴシック
100
AcDbText
  0
LINE
  5
2F8
330
1F
100
AcDbEntity
  8
0-4
  6
Continuous
 62
     7
370
     9
100
AcDbLine
 10
-1141.477565090349
 20
833.1456763239773
 30
0.0
 11
-1145.393350856951
 21
803.4023304827631
 31
0.0
  0
LINE
  5
2F9
330
1F
100
AcDbEntity
  8
0-4
  6
Continuous
 62
     7
370
     9
100
AcDbLine
 10
-1141.477565090349
 20
833.1456763239773
 30
0.0
 11
-1137.561779323747
 21
803.4023304827631
 31
0.0
  0
LINE
  5
2FA
330
1F
100
AcDbEntity
  8
0-4
  6
Continuous
 62
     7
370
     9
100
AcDbLine
 10
-1144.477565090349
 20
833.1456763239773
 30
0.0
 11
-1020.312890083793
 21
833.1456763239773
 31
0.0
  0
TEXT
  5
2FB
330
1F
100
AcDbEntity
  8
0-4
  6
Continuous
 62
     2
370
   211
100
AcDbText
 10
-1152.117565090349
 20
765.8956839828293
 30
0.0
 40
30.48
  1
46
 50
90.0
 41
1.0625
  7
ＭＳ ゴシック
100
AcDbText
  0
LINE
  5
2FC
330
1F
100
AcDbEntity
  8
0-4
  6
Continuous
 62
     7
370
     9
100
AcDbLine
 10
-0.9563577757310784
 20
511.1456949408785
 30
0.0
 11
-0.956357775731056
 21
879.1457036601864
 31
0.0
  0
LINE
  5
2FD
330
1F
100
AcDbEntity
  8
0-4
  6
Continuous
 62
     7
370
     9
100
AcDbLine
 10
-0.9563577757310784
 20
511.1456949408785
 30
0.0
 11
-4.872143542332624
 21
540.8890407820928
 31
0.0
  0
LINE
  5
2FE
330
1F
100
AcDbEntity
  8
0-4
  6
Continuous
 62
     7
370
     9
100
AcDbLine
 10
-0.9563577757310784
 20
511.1456949408785
 30
0.0
 11
2.95942799087047
 21
540.8890407820928
 31
0.0
  0
LINE
  5
2FF
330
1F
100
AcDbEntity
  8
0-4
  6
Continuous
 62
     7
370
     9
100
AcDbLine
 10
2.959427990870476
 20
632.8890254643895
 30
0.0
 11
-4.872143542332622
 21
573.4023337819608
 31
0.0
  0
LINE
  5
300
330
1F
100
AcDbEntity
  8
0-4
  6
Continuous
 62
     7
370
     9
100
AcDbLine
 10
-4.872143542332619
 20
632.8890254643895
 30
0.0
 11
2.959427990870473
 21
573.4023337819608
 31
0.0
  0
LINE
  5
301
330
1F
100
AcDbEntity
  8
0-4
  6
Continuous
 62
     7
370
     9
100
AcDbLine
 10
2.043642224268922
 20
511.1456949408785
 30
0.0
 11
-138.4798293432496
 21
511.1456949408785
 31
0.0
  0
LINE
  5
302
330
1F
100
AcDbEntity
  8
0-4
  6
Continuous
 62
     7
370
     9
100
AcDbLine
 10
2.043642224268928
 20
603.145679623175
 30
0.0
 11
-138.4798293432496
 21
603.145679623175
 31
0.0
  0
TEXT
  5
303
330
1F
100
AcDbEntity
  8
0-4
  6
Continuous
 62
     2
370
   211
100
AcDbText
 10
-11.59635777573108
 20
535.895687282027
 30
0.0
 40
30.48
  1
46
 50
90.0
 41
1.0625
  7
ＭＳ ゴシック
100
AcDbText
  0
LINE
  5
304
330
1F
100
AcDbEntity
  8
0-4
  6
Continuous
 62
     7
370
     9
100
AcDbLine
 10
2.959427990870482
 20
724.8885902059587
 30
0.0
 11
-4.872143542332616
 21
665.40189852353
 31
0.0
  0
LINE
  5
305
330
1F
100
AcDbEntity
  8
0-4
  6
Continuous
 62
     7
370
     9
100
AcDbLine
 10
-4.872143542332613
 20
724.8885902059587
 30
0.0
 11
2.959427990870478
 21
665.40189852353
 31
0.0
  0
LINE
  5
306
330
1F
100
AcDbEntity
  8
0-4
  6
Continuous
 62
     7
370
     9
100
AcDbLine
 10
2.043642224268933
 20
695.1452443647443
 30
0.0
 11
-138.4798293432496
 21
695.1452443647443
 31
0.0
  0
TEXT
  5
307
330
1F
100
AcDbEntity
  8
0-4
  6
Continuous
 62
     2
370
   211
100
AcDbText
 10
-11.59635777573107
 20
627.8954619939598
 30
0.0
 40
30.48
  1
46
 50
90.0
 41
1.0625
  7
ＭＳ ゴシック
100
AcDbText
  0
LINE
  5
308
330
1F
100
AcDbEntity
  8
0-4
  6
Continuous
 62
     7
370
     9
100
AcDbLine
 10
2.959427990870487
 20
816.8890648191041
 30
0.0
 11
-4.87214354233261
 21
757.4023731366754
 31
0.0
  0
LINE
  5
309
330
1F
100
AcDbEntity
  8
0-4
  6
Continuous
 62
     7
370
     9
100
AcDbLine
 10
-4.872143542332607
 20
816.8890648191041
 30
0.0
 11
2.959427990870484
 21
757.4023731366754
 31
0.0
  0
LINE
  5
30A
330
1F
100
AcDbEntity
  8
0-4
  6
Continuous
 62
     7
370
     9
100
AcDbLine
 10
2.043642224268939
 20
787.1457189778897
 30
0.0
 11
-138.4798293432496
 21
787.1457189778897
 31
0.0
  0
TEXT
  5
30B
330
1F
100
AcDbEntity
  8
0-4
  6
Continuous
 62
     2
370
   211
100
AcDbText
 10
-11.59635777573107
 20
719.8954816713169
 30
0.0
 40
30.48
  1
46
 50
90.0
 41
1.0625
  7
ＭＳ ゴシック
100
AcDbText
  0
LINE
  5
30C
330
1F
100
AcDbEntity
  8
0-4
  6
Continuous
 62
     7
370
     9
100
AcDbLine
 10
-0.956357775731056
 20
879.1457036601864
 30
0.0
 11
-4.872143542332605
 21
849.402357818972
 31
0.0
  0
LINE
  5
30D
330
1F
100
AcDbEntity
  8
0-4
  6
Continuous
 62
     7
370
     9
100
AcDbLine
 10
-0.956357775731056
 20
879.1457036601864
 30
0.0
 11
2.959427990870489
 21
849.402357818972
 31
0.0
  0
LINE
  5
30E
330
1F
100
AcDbEntity
  8
0-4
  6
Continuous
 62
     7
370
     9
100
AcDbLine
 10
2.043642224268944
 20
879.1457036601864
 30
0.0
 11
-138.4798293432496
 21
879.1457036601864
 31
0.0
  0
TEXT
  5
30F
330
1F
100
AcDbEntity
  8
0-4
  6
Continuous
 62
     2
370
   211
100
AcDbText
 10
-11.59635777573106
 20
811.8957113190381
 30
0.0
 40
30.48
  1
46
 50
90.0
 41
1.0625
  7
ＭＳ ゴシック
100
AcDbText
  0
LINE
  5
310
330
1F
100
AcDbEntity
  8
0-4
  6
Continuous
 62
     7
370
     9
100
AcDbLine
 10
-1076.209215493398
 20
1058.760127468925
 30
0.0
 11
-78.20943795358197
 21
1058.760127468925
 31
0.0
  0
LINE
  5
311
330
1F
100
AcDbEntity
  8
0-4
  6
Continuous
 62
     7
370
     9
100
AcDbLine
 10
-1076.209215493398
 20
1058.760127468925
 30
0.0
 11
-1046.465869652184
 21
1062.675913235527
 31
0.0
  0
LINE
  5
312
330
1F
100
AcDbEntity
  8
0-4
  6
Continuous
 62
     7
370
     9
100
AcDbLine
 10
-1076.209215493398
 20
1058.760127468925
 30
0.0
 11
-1046.465869652184
 21
1054.844341702324
 31
0.0
  0
LINE
  5
313
330
1F
100
AcDbEntity
  8
0-4
  6
Continuous
 62
     7
370
     9
100
AcDbLine
 10
-78.20943795358197
 20
1058.760127468925
 30
0.0
 11
-107.9527837947963
 21
1062.675913235527
 31
0.0
  0
LINE
  5
314
330
1F
100
AcDbEntity
  8
0-4
  6
Continuous
 62
     7
370
     9
100
AcDbLine
 10
-78.20943795358197
 20
1058.760127468925
 30
0.0
 11
-107.9527837947963
 21
1054.844341702324
 31
0.0
  0
LINE
  5
315
330
1F
100
AcDbEntity
  8
0-4
  6
Continuous
 62
     7
370
     9
100
AcDbLine
 10
-1076.209215493398
 20
1061.760127468925
 30
0.0
 11
-1076.209215493398
 21
959.5036152471414
 31
0.0
  0
LINE
  5
316
330
1F
100
AcDbEntity
  8
0-4
  6
Continuous
 62
     7
370
     9
100
AcDbLine
 10
-78.20943795358197
 20
1061.760127468925
 30
0.0
 11
-78.20943795358197
 21
959.5036152471414
 31
0.0
  0
TEXT
  5
317
330
1F
100
AcDbEntity
  8
0-4
  6
Continuous
 62
     2
370
   211
100
AcDbText
 10
-609.7093267234902
 20
1069.400127468926
 30
0.0
 40
30.48
  1
499
 41
1.083333333333333
  7
ＭＳ ゴシック
100
AcDbText
  0
LINE
  5
318
330
1F
100
AcDbEntity
  8
0-5
  6
Continuous
 62
     7
370
     9
100
AcDbLine
 10
-68.18339328236405
 20
317.8855363541862
 30
0.0
 11
117.0278985849117
 21
317.8855363541862
 31
0.0
  0
TEXT
  5
319
330
1F
100
AcDbEntity
  8
0-5
  6
Continuous
 62
     2
370
     9
100
AcDbText
 10
-64.612647557571
 20
331.153740113393
 30
0.0
 40
30.48
  1
滑り止め
 41
1.09375
  7
ＭＳ ゴシック
100
AcDbText
  0
LINE
  5
31A
330
1F
100
AcDbEntity
  8
0-5
  6
Continuous
 62
     7
370
     9
100
AcDbLine
 10
-169.8371560586237
 20
498.0811726137415
 30
0.0
 11
-151.8125560168615
 21
474.0996423595124
 31
0.0
  0
LINE
  5
31B
330
1F
100
AcDbEntity
  8
0-5
  6
Continuous
 62
     7
370
     9
100
AcDbLine
 10
-169.8371560586237
 20
498.0811726137415
 30
0.0
 11
-158.6336061302513
 21
470.2516834160852
 31
0.0
  0
LINE
  5
31C
330
1F
100
AcDbEntity
  8
0-5
  6
Continuous
 62
     7
370
     9
100
AcDbLine
 10
-169.8371560586237
 20
498.0811726137415
 30
0.0
 11
-68.18339328236405
 21
317.8855363541862
 31
0.0
  0
TEXT
  5
31D
330
1F
100
AcDbEntity
  8
0-5
  6
Continuous
 62
     2
370
     9
100
AcDbText
 10
75.51898845892985
 20
982.1701943614747
 30
0.0
 40
30.48
  1
指掛け穴：φ２０
 41
1.109375
  7
ＭＳ ゴシック
100
AcDbText
  0
TEXT
  5
31E
330
1F
100
AcDbEntity
  8
0-5
  6
Continuous
 62
     2
370
     9
100
AcDbText
 10
82.02213428895583
 20
915.3727110254952
 30
0.0
 40
30.48
  1
１ヶ／枚
 41
1.09375
  7
ＭＳ ゴシック
100
AcDbText
  0
LINE
  5
31F
330
1F
100
AcDbEntity
  8
0-5
  6
Continuous
 62
     7
370
     9
100
AcDbLine
 10
447.6308870243309
 20
964.9514788129324
 30
0.0
 11
46.81402805068764
 21
964.9514788129324
 31
0.0
  0
LINE
  5
320
330
1F
100
AcDbEntity
  8
0-5
  6
Continuous
 62
     7
370
     9
100
AcDbLine
 10
46.81402805068764
 20
964.9514788129324
 30
0.0
 11
-110.3826759527811
 21
707.9415283623877
 31
0.0
  0
LINE
  5
321
330
1F
100
AcDbEntity
  8
0-5
  6
Continuous
 62
     7
370
     9
100
AcDbLine
 10
-110.3826759527811
 20
707.9415283623877
 30
0.0
 11
-98.20378778138175
 21
735.3582145755053
 31
0.0
  0
LINE
  5
322
330
1F
100
AcDbEntity
  8
0-5
  6
Continuous
 62
     7
370
     9
100
AcDbLine
 10
-110.3826759527811
 20
707.9415283623877
 30
0.0
 11
-91.5228127869855
 21
731.2718854399697
 31
0.0
  0
LINE
  5
323
330
1F
100
AcDbEntity
  8
0-0
  6
Continuous
 62
     3
370
     9
100
AcDbLine
 10
648.6443635442172
 20
945.1456881068261
 30
0.0
 11
648.6443635442172
 21
939.145574991479
 31
0.0
  0
LINE
  5
324
330
1F
100
AcDbEntity
  8
0-0
  6
Continuous
 62
     3
370
     9
100
AcDbLine
 10
648.6443635442172
 20
451.1448437478887
 30
0.0
 11
648.6443635442172
 21
445.1447306325412
 31
0.0
  0
LINE
  5
325
330
1F
100
AcDbEntity
  8
0-0
  6
JWW_CENTER1
 62
     7
370
     9
100
AcDbLine
 10
604.7767952225472
 20
695.1452443647443
 30
0.0
 11
662.5123461508472
 21
695.1452443647443
 31
0.0
  0
LINE
  5
326
330
1F
100
AcDbEntity
  8
0-0
  6
Continuous
 62
     3
370
     9
100
AcDbLine
 10
625.2445663034774
 20
445.1448006226624
 30
0.0
 11
648.6443635442172
 21
445.1448006226624
 31
0.0
  0
LINE
  5
327
330
1F
100
AcDbEntity
  8
0-0
  6
Continuous
 62
     3
370
     9
100
AcDbLine
 10
618.6444978686922
 20
938.5457596522836
 30
0.0
 11
618.6444978686922
 21
451.7447990673264
 31
0.0
  0
LINE
  5
328
330
1F
100
AcDbEntity
  8
0-0
  6
Continuous
 62
     3
370
     9
100
AcDbLine
 10
625.2445663034774
 20
945.1456881068261
 30
0.0
 11
648.6443635442172
 21
945.1456881068261
 31
0.0
  0
LINE
  5
329
330
1F
100
AcDbEntity
  8
0-0
  6
Continuous
 62
     3
370
     9
100
AcDbLine
 10
629.2445017334664
 20
939.145574991479
 30
0.0
 11
648.6443635442172
 21
939.145574991479
 31
0.0
  0
LINE
  5
32A
330
1F
100
AcDbEntity
  8
0-0
  6
Continuous
 62
     3
370
     9
100
AcDbLine
 10
624.6444710037973
 20
455.7448744775579
 30
0.0
 11
624.6444710037973
 21
934.5455442618093
 31
0.0
  0
LINE
  5
32B
330
1F
100
AcDbEntity
  8
0-0
  6
Continuous
 62
     3
370
     9
100
AcDbLine
 10
629.2445017334664
 20
451.1448437478887
 30
0.0
 11
648.6443635442172
 21
451.1448437478887
 31
0.0
  0
ARC
  5
32C
330
1F
100
AcDbEntity
  8
0-0
  6
Continuous
 62
     3
370
     9
100
AcDbCircle
 10
625.2445663034774
 20
451.7447990673264
 30
0.0
 40
6.600000085057439
100
AcDbArc
 50
180.0
 51
270.0
  0
ARC
  5
32D
330
1F
100
AcDbEntity
  8
0-0
  6
Continuous
 62
     3
370
     9
100
AcDbCircle
 10
625.2445663034774
 20
938.5457596522836
 30
0.0
 40
6.600000085057439
100
AcDbArc
 50
90.0
 51
180.0
  0
ARC
  5
32E
330
1F
100
AcDbEntity
  8
0-0
  6
Continuous
 62
     3
370
     9
100
AcDbCircle
 10
629.2445017334664
 20
934.5455442618093
 30
0.0
 40
4.60000010899135
100
AcDbArc
 50
90.0
 51
180.0
  0
ARC
  5
32F
330
1F
100
AcDbEntity
  8
0-0
  6
Continuous
 62
     3
370
     9
100
AcDbCircle
 10
629.2445017334664
 20
455.7448744775579
 30
0.0
 40
4.60000010899135
100
AcDbArc
 50
180.0
 51
270.0
  0
LINE
  5
330
330
1F
100
AcDbEntity
  8
0-4
  6
Continuous
 62
     7
370
     9
100
AcDbLine
 10
498.5574381930901
 20
445.1447306325412
 30
0.0
 11
498.5574381930902
 21
945.1456881068261
 31
0.0
  0
LINE
  5
331
330
1F
100
AcDbEntity
  8
0-4
  6
Continuous
 62
     7
370
     9
100
AcDbLine
 10
498.5574381930901
 20
445.1447306325412
 30
0.0
 11
494.6416524264886
 21
474.8880764737555
 31
0.0
  0
LINE
  5
332
330
1F
100
AcDbEntity
  8
0-4
  6
Continuous
 62
     7
370
     9
100
AcDbLine
 10
498.5574381930901
 20
445.1447306325412
 30
0.0
 11
502.4732239596917
 21
474.8880764737555
 31
0.0
  0
LINE
  5
333
330
1F
100
AcDbEntity
  8
0-4
  6
Continuous
 62
     7
370
     9
100
AcDbLine
 10
498.5574381930902
 20
945.1456881068261
 30
0.0
 11
494.6416524264886
 21
915.4023422656119
 31
0.0
  0
LINE
  5
334
330
1F
100
AcDbEntity
  8
0-4
  6
Continuous
 62
     7
370
     9
100
AcDbLine
 10
498.5574381930902
 20
945.1456881068261
 30
0.0
 11
502.4732239596918
 21
915.4023422656119
 31
0.0
  0
LINE
  5
335
330
1F
100
AcDbEntity
  8
0-4
  6
Continuous
 62
     7
370
     9
100
AcDbLine
 10
495.5574381930901
 20
445.1447306325412
 30
0.0
 11
600.7177313575327
 21
445.1447306325412
 31
0.0
  0
LINE
  5
336
330
1F
100
AcDbEntity
  8
0-4
  6
Continuous
 62
     7
370
     9
100
AcDbLine
 10
495.5574381930901
 20
945.1456881068261
 30
0.0
 11
600.7177313575327
 21
945.1456881068261
 31
0.0
  0
TEXT
  5
337
330
1F
100
AcDbEntity
  8
0-4
  6
Continuous
 62
     2
370
   211
100
AcDbText
 10
487.9174381930902
 20
662.6452093696835
 30
0.0
 40
30.48
  1
250
 50
90.0
 41
1.083333333333333
  7
ＭＳ ゴシック
100
AcDbText
  0
LINE
  5
338
330
1F
100
AcDbEntity
  8
0-4
  6
Continuous
 62
     7
370
     9
100
AcDbLine
 10
674.6444710037973
 20
589.3595384200726
 30
0.0
 11
568.6444978686922
 21
589.3595384200726
 31
0.0
  0
LINE
  5
339
330
1F
100
AcDbEntity
  8
0-4
  6
Continuous
 62
     7
370
     9
100
AcDbLine
 10
618.6444978686922
 20
589.3595384200726
 30
0.0
 11
588.9011520274779
 21
585.4437526534709
 31
0.0
  0
LINE
  5
33A
330
1F
100
AcDbEntity
  8
0-4
  6
Continuous
 62
     7
370
     9
100
AcDbLine
 10
618.6444978686922
 20
589.3595384200726
 30
0.0
 11
588.9011520274779
 21
593.275324186674
 31
0.0
  0
LINE
  5
33B
330
1F
100
AcDbEntity
  8
0-4
  6
Continuous
 62
     7
370
     9
100
AcDbLine
 10
624.6444710037973
 20
589.3595384200726
 30
0.0
 11
654.3878168450115
 21
585.4437526534709
 31
0.0
  0
LINE
  5
33C
330
1F
100
AcDbEntity
  8
0-4
  6
Continuous
 62
     7
370
     9
100
AcDbLine
 10
624.6444710037973
 20
589.3595384200726
 30
0.0
 11
654.3878168450115
 21
593.275324186674
 31
0.0
  0
TEXT
  5
33D
330
1F
100
AcDbEntity
  8
0-4
  6
Continuous
 62
     2
370
   211
100
AcDbText
 10
574.7444599770744
 20
605.3387584431749
 30
0.0
 40
30.48
  1
3
 41
0.9999999999999962
  7
ＭＳ ゴシック
100
AcDbText
  0
LINE
  5
33E
330
1F
100
AcDbEntity
  8
0-4
  6
Continuous
 62
     7
370
     9
100
AcDbLine
 10
698.6443635442172
 20
1058.760127468925
 30
0.0
 11
568.64456621842
 21
1058.760127468925
 31
0.0
  0
LINE
  5
33F
330
1F
100
AcDbEntity
  8
0-4
  6
Continuous
 62
     7
370
     9
100
AcDbLine
 10
618.64456621842
 20
1058.760127468925
 30
0.0
 11
588.9012203772057
 21
1054.844341702324
 31
0.0
  0
LINE
  5
340
330
1F
100
AcDbEntity
  8
0-4
  6
Continuous
 62
     7
370
     9
100
AcDbLine
 10
618.64456621842
 20
1058.760127468925
 30
0.0
 11
588.9012203772057
 21
1062.675913235527
 31
0.0
  0
LINE
  5
341
330
1F
100
AcDbEntity
  8
0-4
  6
Continuous
 62
     7
370
     9
100
AcDbLine
 10
648.6443635442172
 20
1058.760127468925
 30
0.0
 11
678.3877093854314
 21
1054.844341702324
 31
0.0
  0
LINE
  5
342
330
1F
100
AcDbEntity
  8
0-4
  6
Continuous
 62
     7
370
     9
100
AcDbLine
 10
648.6443635442172
 20
1058.760127468925
 30
0.0
 11
678.3877093854314
 21
1062.675913235527
 31
0.0
  0
LINE
  5
343
330
1F
100
AcDbEntity
  8
0-4
  6
Continuous
 62
     7
370
     9
100
AcDbLine
 10
618.64456621842
 20
1061.760127468925
 30
0.0
 11
618.64456621842
 21
959.5036152471414
 31
0.0
  0
LINE
  5
344
330
1F
100
AcDbEntity
  8
0-4
  6
Continuous
 62
     7
370
     9
100
AcDbLine
 10
648.6443635442172
 20
1061.760127468925
 30
0.0
 11
648.6443635442172
 21
959.5036152471414
 31
0.0
  0
TEXT
  5
345
330
1F
100
AcDbEntity
  8
0-4
  6
Continuous
 62
     2
370
   211
100
AcDbText
 10
612.3944648813186
 20
1069.400127468926
 30
0.0
 40
30.48
  1
15
 41
1.0625
  7
ＭＳ ゴシック
100
AcDbText
  0
LINE
  5
346
330
1F
100
AcDbEntity
  8
0-4
  6
Continuous
 62
     7
370
     9
100
AcDbLine
 10
-28.20943795358197
 20
997.9218113803242
 30
0.0
 11
-168.2093521744434
 21
997.9218113803242
 31
0.0
  0
LINE
  5
347
330
1F
100
AcDbEntity
  8
0-4
  6
Continuous
 62
     7
370
     9
100
AcDbLine
 10
-118.2093521744434
 20
997.9218113803242
 30
0.0
 11
-147.9526980156577
 21
994.0060256137226
 31
0.0
  0
LINE
  5
348
330
1F
100
AcDbEntity
  8
0-4
  6
Continuous
 62
     7
370
     9
100
AcDbLine
 10
-118.2093521744434
 20
997.9218113803242
 30
0.0
 11
-147.9526980156577
 21
1001.837597146926
 31
0.0
  0
LINE
  5
349
330
1F
100
AcDbEntity
  8
0-4
  6
Continuous
 62
     7
370
     9
100
AcDbLine
 10
-78.20943795358197
 20
997.9218113803242
 30
0.0
 11
-48.46609211236766
 21
994.0060256137226
 31
0.0
  0
LINE
  5
34A
330
1F
100
AcDbEntity
  8
0-4
  6
Continuous
 62
     7
370
     9
100
AcDbLine
 10
-78.20943795358197
 20
997.9218113803242
 30
0.0
 11
-48.46609211236766
 21
1001.837597146926
 31
0.0
  0
TEXT
  5
34B
330
1F
100
AcDbEntity
  8
0-4
  6
Continuous
 62
     2
370
   211
100
AcDbText
 10
-119.4593950640127
 20
1008.561811380324
 30
0.0
 40
30.48
  1
20
 41
1.0625
  7
ＭＳ ゴシック
100
AcDbText
  0
LINE
  5
34C
330
1F
100
AcDbEntity
  8
0-4
  6
Continuous
 62
     7
370
     9
100
AcDbLine
 10
-118.2093521744434
 20
1000.921811380324
 30
0.0
 11
-118.2093521744434
 21
745.6829536372927
 31
0.0
  0
ENDSEC
  0
SECTION
  2
OBJECTS
  0
DICTIONARY
  5
C
330
0
100
AcDbDictionary
281
     1
  3
ACAD_GROUP
350
D
  3
ACAD_LAYOUT
350
1A
  3
ACAD_MLEADERSTYLE
350
34E
  3
ACAD_MLINESTYLE
350
17
  3
ACAD_PLOTSETTINGS
350
19
  3
ACAD_PLOTSTYLENAME
350
E
  3
ACAD_TABLESTYLE
350
34D
  3
ACAD_VISUALSTYLE
350
2A
  0
DICTIONARY
  5
D
102
{ACAD_REACTORS
330
C
102
}
330
C
100
AcDbDictionary
281
     1
  0
DICTIONARY
  5
1A
102
{ACAD_REACTORS
330
C
102
}
330
C
100
AcDbDictionary
281
     1
  3
Layout1
350
1E
  3
Layout2
350
26
  3
Model
350
22
  0
DICTIONARY
  5
34E
102
{ACAD_REACTORS
330
C
102
}
330
C
100
AcDbDictionary
281
     1
  0
DICTIONARY
  5
17
102
{ACAD_REACTORS
330
C
102
}
330
C
100
AcDbDictionary
281
     1
  3
Standard
350
18
  0
DICTIONARY
  5
19
102
{ACAD_REACTORS
330
C
102
}
330
C
100
AcDbDictionary
281
     1
  0
ACDBDICTIONARYWDFLT
  5
E
102
{ACAD_REACTORS
330
C
102
}
330
C
100
AcDbDictionary
281
     1
  3
Normal
350
F
100
AcDbDictionaryWithDefault
340
F
  0
DICTIONARY
  5
34D
102
{ACAD_REACTORS
330
C
102
}
330
C
100
AcDbDictionary
281
     1
  0
DICTIONARY
  5
2A
102
{ACAD_REACTORS
330
C
102
}
330
C
100
AcDbDictionary
281
     1
  3
2dWireframe
350
2F
  3
3D Hidden
350
31
  3
3dWireframe
350
30
  3
Basic
350
32
  3
Brighten
350
36
  3
ColorChange
350
3A
  3
Conceptual
350
34
  3
Dim
350
35
  3
Facepattern
350
39
  3
Flat
350
2B
  3
FlatWithEdges
350
2C
  3
Gouraud
350
2D
  3
GouraudWithEdges
350
2E
  3
Linepattern
350
38
  3
Realistic
350
33
  3
Thicken
350
37
  0
LAYOUT
  5
1E
102
{ACAD_REACTORS
330
1A
102
}
330
1A
100
AcDbPlotSettings
  1

  2
none_device
  4

  6

 40
0.0
 41
0.0
 42
0.0
 43
0.0
 44
0.0
 45
0.0
 46
0.0
 47
0.0
 48
0.0
 49
0.0
140
0.0
141
0.0
142
1.0
143
1.0
 70
   688
 72
     0
 73
     0
 74
     5
  7

 75
    16
 76
     0
 77
     5
 78
   300
147
1.0
148
0.0
149
0.0
100
AcDbLayout
  1
Layout1
 70
     1
 71
     1
 10
0.0
 20
0.0
 11
420.0
 21
297.0
 12
0.0
 22
0.0
 32
0.0
 14
1.000000000000000E+20
 24
1.000000000000000E+20
 34
1.000000000000000E+20
 15
-1.000000000000000E+20
 25
-1.000000000000000E+20
 35
-1.000000000000000E+20
146
0.0
 13
0.0
 23
0.0
 33
0.0
 16
1.0
 26
0.0
 36
0.0
 17
0.0
 27
1.0
 37
0.0
 76
     0
330
1B
  0
LAYOUT
  5
26
102
{ACAD_REACTORS
330
1A
102
}
330
1A
100
AcDbPlotSettings
  1

  2
none_device
  4

  6

 40
0.0
 41
0.0
 42
0.0
 43
0.0
 44
0.0
 45
0.0
 46
0.0
 47
0.0
 48
0.0
 49
0.0
140
0.0
141
0.0
142
1.0
143
1.0
 70
   688
 72
     0
 73
     0
 74
     5
  7

 75
    16
 76
     0
 77
     5
 78
   300
147
1.0
148
0.0
149
0.0
100
AcDbLayout
  1
Layout2
 70
     1
 71
     2
 10
0.0
 20
0.0
 11
0.0
 21
0.0
 12
0.0
 22
0.0
 32
0.0
 14
0.0
 24
0.0
 34
0.0
 15
0.0
 25
0.0
 35
0.0
146
0.0
 13
0.0
 23
0.0
 33
0.0
 16
1.0
 26
0.0
 36
0.0
 17
0.0
 27
1.0
 37
0.0
 76
     0
330
23
  0
LAYOUT
  5
22
102
{ACAD_REACTORS
330
1A
102
}
330
1A
100
AcDbPlotSettings
  1

  2
none_device
  4

  6

 40
0.0
 41
0.0
 42
0.0
 43
0.0
 44
0.0
 45
0.0
 46
0.0
 47
0.0
 48
0.0
 49
0.0
140
0.0
141
0.0
142
1.0
143
1.0
 70
  1712
 72
     0
 73
     0
 74
     0
  7

 75
     0
 76
     0
 77
     5
 78
   300
147
1.0
148
0.0
149
0.0
100
AcDbLayout
  1
Model
 70
     1
 71
     0
 10
-2100.0
 20
-1485.0
 11
2100.0
 21
1485.0
 12
0.0
 22
0.0
 32
0.0
 14
-2100.0
 24
-1485.0
 34
0.0
 15
2100.0
 25
1485.0
 35
0.0
146
0.0
 13
0.0
 23
0.0
 33
0.0
 16
1.0
 26
0.0
 36
0.0
 17
0.0
 27
1.0
 37
0.0
 76
     0
330
1F
331
29
  0
MLINESTYLE
  5
18
102
{ACAD_REACTORS
330
17
102
}
330
17
100
AcDbMlineStyle
  2
Standard
 70
     0
  3

 62
   256
 51
90.0
 52
90.0
 71
     2
 49
0.5
 62
   256
  6
BYLAYER
 49
-0.5
 62
   256
  6
BYLAYER
  0
ACDBPLACEHOLDER
  5
F
102
{ACAD_REACTORS
330
E
102
}
330
E
  0
VISUALSTYLE
  5
2F
102
{ACAD_REACTORS
330
2A
102
}
330
2A
100
AcDbVisualStyle
  2
2dWireframe
 70
     4
 71
     0
 72
     2
 73
     0
 90
        0
 40
-0.6
 41
-30.0
 62
     5
 63
     7
421
 16777215
 74
     1
 91
        4
 64
     7
 65
   257
 75
     1
175
     1
 42
1.0
 92
        0
 66
   257
 43
1.0
 76
     1
 77
     6
 78
     2
 67
     7
 79
     5
170
     0
171
     0
290
     0
174
     0
 93
        1
 44
0.0
173
     0
291
     0
 45
0.0
1001
ACAD
1000
AcDbSavedByObjectVersion
1070
     0
  0
VISUALSTYLE
  5
31
102
{ACAD_REACTORS
330
2A
102
}
330
2A
100
AcDbVisualStyle
  2
3D Hidden
 70
     6
 71
     1
 72
     2
 73
     2
 90
        0
 40
-0.6
 41
-30.0
 62
     5
 63
     7
421
 16777215
 74
     2
 91
        2
 64
     7
 65
   257
 75
     2
175
     1
 42
40.0
 92
        0
 66
   257
 43
1.0
 76
     1
 77
     6
 78
     2
 67
     7
 79
     3
170
     0
171
     0
290
     0
174
     0
 93
        1
 44
0.0
173
     0
291
     0
 45
0.0
1001
ACAD
1000
AcDbSavedByObjectVersion
1070
     0
  0
VISUALSTYLE
  5
30
102
{ACAD_REACTORS
330
2A
102
}
330
2A
100
AcDbVisualStyle
  2
3dWireframe
 70
     5
 71
     0
 72
     2
 73
     0
 90
        0
 40
-0.6
 41
-30.0
 62
     5
 63
     7
421
 16777215
 74
     1
 91
        4
 64
     7
 65
   257
 75
     1
175
     1
 42
1.0
 92
        0
 66
   257
 43
1.0
 76
     1
 77
     6
 78
     2
 67
     7
 79
     5
170
     0
171
     0
290
     0
174
     0
 93
        1
 44
0.0
173
     0
291
     0
 45
0.0
1001
ACAD
1000
AcDbSavedByObjectVersion
1070
     0
  0
VISUALSTYLE
  5
32
102
{ACAD_REACTORS
330
2A
102
}
330
2A
100
AcDbVisualStyle
  2
Basic
 70
     7
 71
     1
 72
     0
 73
     1
 90
        0
 40
-0.6
 41
-30.0
 62
     5
 63
     7
421
 16777215
 74
     0
 91
        4
 64
     7
 65
   257
 75
     1
175
     1
 42
1.0
 92
        8
 66
     7
 43
1.0
 76
     1
 77
     6
 78
     2
 67
     7
 79
     5
170
     0
171
     0
290
     0
174
     0
 93
        1
 44
0.0
173
     0
291
     1
 45
0.0
1001
ACAD
1000
AcDbSavedByObjectVersion
1070
     0
  0
VISUALSTYLE
  5
36
102
{ACAD_REACTORS
330
2A
102
}
330
2A
100
AcDbVisualStyle
  2
Brighten
 70
    12
 71
     2
 72
     2
 73
     0
 90
        0
 40
-0.6
 41
-30.0
 62
     5
 63
     7
421
 16777215
 74
     1
 91
        4
 64
     7
 65
   257
 75
     1
175
     1
 42
1.0
 92
        8
 66
     7
 43
1.0
 76
     1
 77
     6
 78
     2
 67
     7
 79
     5
170
     0
171
     0
290
     0
174
     0
 93
        1
 44
50.0
173
     0
291
     1
 45
0.0
1001
ACAD
1000
AcDbSavedByObjectVersion
1070
     0
  0
VISUALSTYLE
  5
3A
102
{ACAD_REACTORS
330
2A
102
}
330
2A
100
AcDbVisualStyle
  2
ColorChange
 70
    16
 71
     2
 72
     2
 73
     3
 90
        0
 40
-0.6
 41
-30.0
 62
     5
 63
     8
421
  8421504
 74
     1
 91
        4
 64
     7
 65
   257
 75
     1
175
     1
 42
1.0
 92
        8
 66
     8
424
  8421504
 43
1.0
 76
     1
 77
     6
 78
     2
 67
     7
 79
     5
170
     0
171
     0
290
     0
174
     0
 93
        1
 44
0.0
173
     0
291
     1
 45
0.0
1001
ACAD
1000
AcDbSavedByObjectVersion
1070
     0
  0
VISUALSTYLE
  5
34
102
{ACAD_REACTORS
330
2A
102
}
330
2A
100
AcDbVisualStyle
  2
Conceptual
 70
     9
 71
     3
 72
     2
 73
     0
 90
        0
 40
-0.6
 41
-30.0
 62
     5
 63
     7
421
 16777215
 74
     2
 91
        2
 64
     7
 65
   257
 75
     1
175
     1
 42
40.0
 92
        8
 66
     7
 43
1.0
 76
     1
 77
     6
 78
     2
 67
     7
 79
     3
170
     0
171
     0
290
     0
174
     0
 93
        1
 44
0.0
173
     0
291
     0
 45
0.0
1001
ACAD
1000
AcDbSavedByObjectVersion
1070
     0
  0
VISUALSTYLE
  5
35
102
{ACAD_REACTORS
330
2A
102
}
330
2A
100
AcDbVisualStyle
  2
Dim
 70
    11
 71
     2
 72
     2
 73
     0
 90
        0
 40
-0.6
 41
-30.0
 62
     5
 63
     7
421
 16777215
 74
     1
 91
        4
 64
     7
 65
   257
 75
     1
175
     1
 42
1.0
 92
        8
 66
     7
 43
1.0
 76
     1
 77
     6
 78
     2
 67
     7
 79
     5
170
     0
171
     0
290
     0
174
     0
 93
        1
 44
-50.0
173
     0
291
     1
 45
0.0
1001
ACAD
1000
AcDbSavedByObjectVersion
1070
     0
  0
VISUALSTYLE
  5
39
102
{ACAD_REACTORS
330
2A
102
}
330
2A
100
AcDbVisualStyle
  2
Facepattern
 70
    15
 71
     2
 72
     2
 73
     0
 90
        0
 40
-0.6
 41
-30.0
 62
     5
 63
     7
421
 16777215
 74
     1
 91
        4
 64
     7
 65
   257
 75
     1
175
     1
 42
1.0
 92
        8
 66
     7
 43
1.0
 76
     1
 77
     6
 78
     2
 67
     7
 79
     5
170
     0
171
     0
290
     0
174
     0
 93
        1
 44
0.0
173
     0
291
     1
 45
0.0
1001
ACAD
1000
AcDbSavedByObjectVersion
1070
     0
  0
VISUALSTYLE
  5
2B
102
{ACAD_REACTORS
330
2A
102
}
330
2A
100
AcDbVisualStyle
  2
Flat
 70
     0
 71
     2
 72
     1
 73
     1
 90
        2
 40
-0.6
 41
30.0
 62
     5
 63
     7
421
 16777215
 74
     0
 91
        4
 64
     7
 65
   257
 75
     1
175
     1
 42
1.0
 92
        8
 66
     7
 43
1.0
 76
     1
 77
     6
 78
     2
 67
     7
 79
     5
170
     0
171
     0
290
     0
174
     0
 93
       13
 44
0.0
173
     0
291
     1
 45
0.0
1001
ACAD
1000
AcDbSavedByObjectVersion
1070
     0
  0
VISUALSTYLE
  5
2C
102
{ACAD_REACTORS
330
2A
102
}
330
2A
100
AcDbVisualStyle
  2
FlatWithEdges
 70
     1
 71
     2
 72
     1
 73
     1
 90
        2
 40
-0.6
 41
30.0
 62
     5
 63
     7
421
 16777215
 74
     1
 91
        4
 64
     7
 65
   257
 75
     1
175
     1
 42
1.0
 92
        0
 66
   257
 43
1.0
 76
     1
 77
     6
 78
     2
 67
     7
 79
     5
170
     0
171
     0
290
     0
174
     0
 93
       13
 44
0.0
173
     0
291
     1
 45
0.0
1001
ACAD
1000
AcDbSavedByObjectVersion
1070
     0
  0
VISUALSTYLE
  5
2D
102
{ACAD_REACTORS
330
2A
102
}
330
2A
100
AcDbVisualStyle
  2
Gouraud
 70
     2
 71
     2
 72
     2
 73
     1
 90
        2
 40
-0.6
 41
30.0
 62
     5
 63
     7
421
 16777215
 74
     0
 91
        4
 64
     7
 65
   257
 75
     1
175
     1
 42
1.0
 92
        0
 66
     7
 43
1.0
 76
     1
 77
     6
 78
     2
 67
     7
 79
     5
170
     0
171
     0
290
     0
174
     0
 93
       13
 44
0.0
173
     0
291
     1
 45
0.0
1001
ACAD
1000
AcDbSavedByObjectVersion
1070
     0
  0
VISUALSTYLE
  5
2E
102
{ACAD_REACTORS
330
2A
102
}
330
2A
100
AcDbVisualStyle
  2
GouraudWithEdges
 70
     3
 71
     2
 72
     2
 73
     1
 90
        2
 40
-0.6
 41
30.0
 62
     5
 63
     7
421
 16777215
 74
     1
 91
        4
 64
     7
 65
   257
 75
     1
175
     1
 42
1.0
 92
        0
 66
   257
 43
1.0
 76
     1
 77
     6
 78
     2
 67
     7
 79
     5
170
     0
171
     0
290
     0
174
     0
 93
       13
 44
0.0
173
     0
291
     1
 45
0.0
1001
ACAD
1000
AcDbSavedByObjectVersion
1070
     0
  0
VISUALSTYLE
  5
38
102
{ACAD_REACTORS
330
2A
102
}
330
2A
100
AcDbVisualStyle
  2
Linepattern
 70
    14
 71
     2
 72
     2
 73
     0
 90
        0
 40
-0.6
 41
-30.0
 62
     5
 63
     7
421
 16777215
 74
     1
 91
        4
 64
     7
 65
   257
 75
     7
175
     7
 42
1.0
 92
        8
 66
     7
 43
1.0
 76
     1
 77
     6
 78
     2
 67
     7
 79
     5
170
     0
171
     0
290
     0
174
     0
 93
        1
 44
0.0
173
     0
291
     1
 45
0.0
1001
ACAD
1000
AcDbSavedByObjectVersion
1070
     0
  0
VISUALSTYLE
  5
33
102
{ACAD_REACTORS
330
2A
102
}
330
2A
100
AcDbVisualStyle
  2
Realistic
 70
     8
 71
     2
 72
     2
 73
     0
 90
        0
 40
-0.6
 41
-30.0
 62
     5
 63
     7
421
 16777215
 74
     1
 91
        0
 64
     7
 65
   257
 75
     1
175
     1
 42
1.0
 92
        8
 66
     8
424
  7895160
 43
1.0
 76
     1
 77
     6
 78
     2
 67
     7
 79
     5
170
     0
171
     0
290
     0
174
     0
 93
       13
 44
0.0
173
     0
291
     0
 45
0.0
1001
ACAD
1000
AcDbSavedByObjectVersion
1070
     0
  0
VISUALSTYLE
  5
37
102
{ACAD_REACTORS
330
2A
102
}
330
2A
100
AcDbVisualStyle
  2
Thicken
 70
    13
 71
     2
 72
     2
 73
     0
 90
        0
 40
-0.6
 41
-30.0
 62
     5
 63
     7
421
 16777215
 74
     1
 91
        4
 64
     7
 65
   257
 75
     1
175
     1
 42
1.0
 92
       12
 66
     7
 43
1.0
 76
     1
 77
     6
 78
     2
 67
     7
 79
     5
170
     0
171
     0
290
     0
174
     0
 93
        1
 44
0.0
173
     0
291
     1
 45
0.0
1001
ACAD
1000
AcDbSavedByObjectVersion
1070
     0
  0
ENDSEC
  0
EOF
