  0
SECTION
  2
HEADER
  9
$ACADVER
  1
AC1018
  9
$ACADMAINTVER
 70
     0
  9
$DWGCODEPAGE
  3
ANSI_932
  9
$INSBASE
 10
0.0
 20
0.0
 30
0.0
  9
$EXTMIN
 10
-2100.0
 20
-1485.0
 30
0.0
  9
$EXTMAX
 10
2100.0
 20
1485.0
 30
0.0
  9
$LIMMIN
 10
-2100.0
 20
-1485.0
  9
$LIMMAX
 10
2100.0
 20
1485.0
  9
$ORTHOMODE
 70
     0
  9
$REGENMODE
 70
     1
  9
$FILLMODE
 70
     1
  9
$QTEXTMODE
 70
     0
  9
$MIRRTEXT
 70
     1
  9
$LTSCALE
 40
10.0
  9
$ATTMODE
 70
     1
  9
$TEXTSIZE
 40
2.5
  9
$TRACEWID
 40
1.0
  9
$TEXTSTYLE
  7
Standard
  9
$CLAYER
  8
0
  9
$CELTYPE
  6
ByLayer
  9
$CECOLOR
 62
   256
  9
$CELTSCALE
 40
1.0
  9
$DISPSILH
 70
     0
  9
$DIMSCALE
 40
1.0
  9
$DIMASZ
 40
2.5
  9
$DIMEXO
 40
0.625
  9
$DIMDLI
 40
3.75
  9
$DIMRND
 40
0.0
  9
$DIMDLE
 40
0.0
  9
$DIMEXE
 40
1.25
  9
$DIMTP
 40
0.0
  9
$DIMTM
 40
0.0
  9
$DIMTXT
 40
2.5
  9
$DIMCEN
 40
2.5
  9
$DIMTSZ
 40
0.0
  9
$DIMTOL
 70
     0
  9
$DIMLIM
 70
     0
  9
$DIMTIH
 70
     0
  9
$DIMTOH
 70
     0
  9
$DIMSE1
 70
     0
  9
$DIMSE2
 70
     0
  9
$DIMTAD
 70
     1
  9
$DIMZIN
 70
     8
  9
$DIMBLK
  1

  9
$DIMASO
 70
     1
  9
$DIMSHO
 70
     1
  9
$DIMPOST
  1

  9
$DIMAPOST
  1

  9
$DIMALT
 70
     0
  9
$DIMALTD
 70
     3
  9
$DIMALTF
 40
0.03937007874016
  9
$DIMLFAC
 40
1.0
  9
$DIMTOFL
 70
     1
  9
$DIMTVP
 40
0.0
  9
$DIMTIX
 70
     0
  9
$DIMSOXD
 70
     0
  9
$DIMSAH
 70
     0
  9
$DIMBLK1
  1

  9
$DIMBLK2
  1

  9
$DIMSTYLE
  2
ISO-25
  9
$DIMCLRD
 70
     0
  9
$DIMCLRE
 70
     0
  9
$DIMCLRT
 70
     0
  9
$DIMTFAC
 40
1.0
  9
$DIMGAP
 40
0.625
  9
$DIMJUST
 70
     0
  9
$DIMSD1
 70
     0
  9
$DIMSD2
 70
     0
  9
$DIMTOLJ
 70
     0
  9
$DIMTZIN
 70
     8
  9
$DIMALTZ
 70
     0
  9
$DIMALTTZ
 70
     0
  9
$DIMUPT
 70
     0
  9
$DIMDEC
 70
     2
  9
$DIMTDEC
 70
     2
  9
$DIMALTU
 70
     2
  9
$DIMALTTD
 70
     3
  9
$DIMTXSTY
  7
Standard
  9
$DIMAUNIT
 70
     0
  9
$DIMADEC
 70
     0
  9
$DIMALTRND
 40
0.0
  9
$DIMAZIN
 70
     0
  9
$DIMDSEP
 70
    44
  9
$DIMATFIT
 70
     3
  9
$DIMFRAC
 70
     0
  9
$DIMLDRBLK
  1

  9
$DIMLUNIT
 70
     2
  9
$DIMLWD
 70
    -2
  9
$DIMLWE
 70
    -2
  9
$DIMTMOVE
 70
     0
  9
$LUNITS
 70
     2
  9
$LUPREC
 70
     4
  9
$SKETCHINC
 40
1.0
  9
$FILLETRAD
 40
10.0
  9
$AUNITS
 70
     0
  9
$AUPREC
 70
     0
  9
$MENU
  1
.
  9
$ELEVATION
 40
0.0
  9
$PELEVATION
 40
0.0
  9
$THICKNESS
 40
0.0
  9
$LIMCHECK
 70
     0
  9
$CHAMFERA
 40
10.0
  9
$CHAMFERB
 40
10.0
  9
$CHAMFERC
 40
20.0
  9
$CHAMFERD
 40
0.0
  9
$SKPOLY
 70
     0
  9
$TDCREATE
 40
2456499.588090903
  9
$TDUCREATE
 40
2456499.213090903
  9
$TDUPDATE
 40
2456499.588090914
  9
$TDUUPDATE
 40
2456499.213090914
  9
$TDINDWG
 40
0.0000000116
  9
$TDUSRTIMER
 40
0.0000000116
  9
$USRTIMER
 70
     1
  9
$ANGBASE
 50
0.0
  9
$ANGDIR
 70
     0
  9
$PDMODE
 70
     0
  9
$PDSIZE
 40
0.0
  9
$PLINEWID
 40
0.0
  9
$SPLFRAME
 70
     0
  9
$SPLINETYPE
 70
     6
  9
$SPLINESEGS
 70
     8
  9
$HANDSEED
  5
434
  9
$SURFTAB1
 70
     6
  9
$SURFTAB2
 70
     6
  9
$SURFTYPE
 70
     6
  9
$SURFU
 70
     6
  9
$SURFV
 70
     6
  9
$UCSBASE
  2

  9
$UCSNAME
  2

  9
$UCSORG
 10
0.0
 20
0.0
 30
0.0
  9
$UCSXDIR
 10
1.0
 20
0.0
 30
0.0
  9
$UCSYDIR
 10
0.0
 20
1.0
 30
0.0
  9
$UCSORTHOREF
  2

  9
$UCSORTHOVIEW
 70
     0
  9
$UCSORGTOP
 10
0.0
 20
0.0
 30
0.0
  9
$UCSORGBOTTOM
 10
0.0
 20
0.0
 30
0.0
  9
$UCSORGLEFT
 10
0.0
 20
0.0
 30
0.0
  9
$UCSORGRIGHT
 10
0.0
 20
0.0
 30
0.0
  9
$UCSORGFRONT
 10
0.0
 20
0.0
 30
0.0
  9
$UCSORGBACK
 10
0.0
 20
0.0
 30
0.0
  9
$PUCSBASE
  2

  9
$PUCSNAME
  2

  9
$PUCSORG
 10
0.0
 20
0.0
 30
0.0
  9
$PUCSXDIR
 10
1.0
 20
0.0
 30
0.0
  9
$PUCSYDIR
 10
0.0
 20
1.0
 30
0.0
  9
$PUCSORTHOREF
  2

  9
$PUCSORTHOVIEW
 70
     0
  9
$PUCSORGTOP
 10
0.0
 20
0.0
 30
0.0
  9
$PUCSORGBOTTOM
 10
0.0
 20
0.0
 30
0.0
  9
$PUCSORGLEFT
 10
0.0
 20
0.0
 30
0.0
  9
$PUCSORGRIGHT
 10
0.0
 20
0.0
 30
0.0
  9
$PUCSORGFRONT
 10
0.0
 20
0.0
 30
0.0
  9
$PUCSORGBACK
 10
0.0
 20
0.0
 30
0.0
  9
$USERI1
 70
     0
  9
$USERI2
 70
     0
  9
$USERI3
 70
     0
  9
$USERI4
 70
     0
  9
$USERI5
 70
     0
  9
$USERR1
 40
0.0
  9
$USERR2
 40
0.0
  9
$USERR3
 40
0.0
  9
$USERR4
 40
0.0
  9
$USERR5
 40
0.0
  9
$WORLDVIEW
 70
     1
  9
$SHADEDGE
 70
     3
  9
$SHADEDIF
 70
    70
  9
$TILEMODE
 70
     1
  9
$MAXACTVP
 70
    64
  9
$PINSBASE
 10
0.0
 20
0.0
 30
0.0
  9
$PLIMCHECK
 70
     0
  9
$PEXTMIN
 10
1.000000000000000E+20
 20
1.000000000000000E+20
 30
1.000000000000000E+20
  9
$PEXTMAX
 10
-1.000000000000000E+20
 20
-1.000000000000000E+20
 30
-1.000000000000000E+20
  9
$PLIMMIN
 10
0.0
 20
0.0
  9
$PLIMMAX
 10
420.0
 20
297.0
  9
$UNITMODE
 70
     0
  9
$VISRETAIN
 70
     1
  9
$PLINEGEN
 70
     0
  9
$PSLTSCALE
 70
     1
  9
$TREEDEPTH
 70
  3020
  9
$CMLSTYLE
  2
Standard
  9
$CMLJUST
 70
     0
  9
$CMLSCALE
 40
20.0
  9
$PROXYGRAPHICS
 70
     1
  9
$MEASUREMENT
 70
     1
  9
$CELWEIGHT
370
    -1
  9
$ENDCAPS
280
     0
  9
$JOINSTYLE
280
     0
  9
$LWDISPLAY
290
     0
  9
$INSUNITS
 70
     4
  9
$HYPERLINKBASE
  1

  9
$STYLESHEET
  1

  9
$XEDIT
290
     1
  9
$CEPSNTYPE
380
     0
  9
$PSTYLEMODE
290
     1
  9
$FINGERPRINTGUID
  2
{85E56017-586F-4EB9-9925-A0867C189162}
  9
$VERSIONGUID
  2
{FAEB1C32-E019-11D5-929B-00C0DF256EC4}
  9
$EXTNAMES
290
     1
  9
$PSVPSCALE
 40
0.0
  9
$OLESTARTUP
290
     0
  9
$SORTENTS
280
   127
  9
$INDEXCTL
280
     0
  9
$HIDETEXT
280
     1
  9
$XCLIPFRAME
290
     0
  9
$HALOGAP
280
     0
  9
$OBSCOLOR
 70
   257
  9
$OBSLTYPE
280
     0
  9
$INTERSECTIONDISPLAY
280
     0
  9
$INTERSECTIONCOLOR
 70
   257
  9
$DIMASSOC
280
     2
  9
$PROJECTNAME
  1

  0
ENDSEC
  0
SECTION
  2
CLASSES
  0
CLASS
  1
ACDBDICTIONARYWDFLT
  2
AcDbDictionaryWithDefault
  3
ObjectDBX Classes
 90
        0
 91
        4
280
     0
281
     0
  0
CLASS
  1
VISUALSTYLE
  2
AcDbVisualStyle
  3
ObjectDBX Classes
 90
     4095
 91
        4
280
     0
281
     0
  0
ENDSEC
  0
SECTION
  2
TABLES
  0
TABLE
  2
VPORT
  5
8
330
0
100
AcDbSymbolTable
 70
     1
  0
VPORT
  5
29
330
8
100
AcDbSymbolTableRecord
100
AcDbViewportTableRecord
  2
*Active
 70
     0
 10
0.0
 20
0.0
 11
1.0
 21
1.0
 12
0.0
 22
0.0
 13
0.0
 23
0.0
 14
10.0
 24
10.0
 15
10.0
 25
10.0
 16
0.0
 26
0.0
 36
1.0
 17
0.0
 27
0.0
 37
0.0
 40
3267.0
 41
1.414141414141414
 42
50.0
 43
0.0
 44
0.0
 50
0.0
 51
0.0
 71
     0
 72
 10000
 73
     1
 74
     3
 75
     0
 76
     0
 77
     0
 78
     0
281
     0
 65
     1
110
0.0
120
0.0
130
0.0
111
1.0
121
0.0
131
0.0
112
0.0
122
1.0
132
0.0
 79
     0
146
0.0
  0
ENDTAB
  0
TABLE
  2
LTYPE
  5
5
330
0
100
AcDbSymbolTable
 70
     3
  0
LTYPE
  5
14
330
5
100
AcDbSymbolTableRecord
100
AcDbLinetypeTableRecord
  2
ByBlock
 70
     0
  3

 72
    65
 73
     0
 40
0.0
  0
LTYPE
  5
15
330
5
100
AcDbSymbolTableRecord
100
AcDbLinetypeTableRecord
  2
ByLayer
 70
     0
  3

 72
    65
 73
     0
 40
0.0
  0
LTYPE
  5
16
330
5
100
AcDbSymbolTableRecord
100
AcDbLinetypeTableRecord
  2
Continuous
 70
     0
  3
Solid line
 72
    65
 73
     0
 40
0.0
  0
LTYPE
  5
3C
330
5
100
AcDbSymbolTableRecord
100
AcDbLinetypeTableRecord
  2
JWW_CENTER1
 70
     0
  3
-----  --  ----------  --  -----
 72
    65
 73
     4
 40
6.773333333333333
 49
4.233333333333333
 74
     0
 49
-0.8466666666666667
 74
     0
 49
0.8466666666666667
 74
     0
 49
-0.8466666666666667
 74
     0
  0
LTYPE
  5
3D
330
5
100
AcDbSymbolTableRecord
100
AcDbLinetypeTableRecord
  2
JWW_DASHED2
 70
     0
  3
--    ----    ----    ----    --
 72
    65
 73
     2
 40
1.354666666666667
 49
0.6773333333333333
 74
     0
 49
-0.6773333333333333
 74
     0
  0
ENDTAB
  0
TABLE
  2
LAYER
  5
2
330
0
100
AcDbSymbolTable
 70
    13
  0
LAYER
  5
10
330
2
100
AcDbSymbolTableRecord
100
AcDbLayerTableRecord
  2
0
 70
     0
 62
     7
  6
Continuous
370
    -3
390
F
  0
LAYER
  5
3E
330
2
100
AcDbSymbolTableRecord
100
AcDbLayerTableRecord
  2
D-5
 70
     0
 62
     7
  6
Continuous
370
    -3
390
F
  0
LAYER
  5
3F
330
2
100
AcDbSymbolTableRecord
100
AcDbLayerTableRecord
  2
2-F
 70
     0
 62
     7
  6
Continuous
370
    -3
390
F
  0
LAYER
  5
40
330
2
100
AcDbSymbolTableRecord
100
AcDbLayerTableRecord
  2
1-0
 70
     0
 62
     7
  6
Continuous
370
    -3
390
F
  0
LAYER
  5
41
330
2
100
AcDbSymbolTableRecord
100
AcDbLayerTableRecord
  2
1-F
 70
     0
 62
     7
  6
Continuous
370
    -3
390
F
  0
LAYER
  5
42
330
2
100
AcDbSymbolTableRecord
100
AcDbLayerTableRecord
  2
2-0
 70
     0
 62
     7
  6
Continuous
370
    -3
390
F
  0
LAYER
  5
43
330
2
100
AcDbSymbolTableRecord
100
AcDbLayerTableRecord
  2
0-0
 70
     0
 62
     7
  6
Continuous
370
    -3
390
F
  0
LAYER
  5
44
330
2
100
AcDbSymbolTableRecord
100
AcDbLayerTableRecord
  2
0-8
 70
     0
 62
     7
  6
Continuous
370
    -3
390
F
  0
LAYER
  5
45
330
2
100
AcDbSymbolTableRecord
100
AcDbLayerTableRecord
  2
0-A
 70
     0
 62
     7
  6
Continuous
370
    -3
390
F
  0
LAYER
  5
46
330
2
100
AcDbSymbolTableRecord
100
AcDbLayerTableRecord
  2
0-4
 70
     0
 62
     7
  6
Continuous
370
    -3
390
F
  0
LAYER
  5
47
330
2
100
AcDbSymbolTableRecord
100
AcDbLayerTableRecord
  2
A-5
 70
     0
 62
     7
  6
Continuous
370
    -3
390
F
  0
LAYER
  5
48
330
2
100
AcDbSymbolTableRecord
100
AcDbLayerTableRecord
  2
0-5
 70
     0
 62
     7
  6
Continuous
370
    -3
390
F
  0
LAYER
  5
49
330
2
100
AcDbSymbolTableRecord
100
AcDbLayerTableRecord
  2
F-5
 70
     0
 62
     7
  6
Continuous
370
    -3
390
F
  0
ENDTAB
  0
TABLE
  2
STYLE
  5
3
330
0
100
AcDbSymbolTable
 70
     2
  0
STYLE
  5
11
330
3
100
AcDbSymbolTableRecord
100
AcDbTextStyleTableRecord
  2
Standard
 70
     0
 40
0.0
 41
1.0
 50
0.0
 71
     0
 42
2.5
  3
txt
  4

1001
ACAD
1000

1071
        0
  0
STYLE
  5
3B
330
3
100
AcDbSymbolTableRecord
100
AcDbTextStyleTableRecord
  2
ＭＳ ゴシック
 70
     0
 40
1.0
 41
1.0
 50
0.0
 71
     0
 42
10.0
  3

  4

1001
ACAD
1000
MS Gothic
1071
    32817
  0
ENDTAB
  0
TABLE
  2
VIEW
  5
6
330
0
100
AcDbSymbolTable
 70
     0
  0
ENDTAB
  0
TABLE
  2
UCS
  5
7
330
0
100
AcDbSymbolTable
 70
     0
  0
ENDTAB
  0
TABLE
  2
APPID
  5
9
330
0
100
AcDbSymbolTable
 70
     1
  0
APPID
  5
12
330
9
100
AcDbSymbolTableRecord
100
AcDbRegAppTableRecord
  2
ACAD
 70
     0
  0
ENDTAB
  0
TABLE
  2
DIMSTYLE
  5
A
330
0
100
AcDbSymbolTable
 70
     1
100
AcDbDimStyleTable
  0
DIMSTYLE
105
27
330
A
100
AcDbSymbolTableRecord
100
AcDbDimStyleTableRecord
  2
ISO-25
 70
     0
 41
2.5
 42
0.625
 43
3.75
 44
1.25
 73
     0
 74
     0
 77
     1
 78
     8
140
2.5
141
2.5
143
0.03937007874016
147
0.625
171
     3
172
     1
271
     2
272
     2
274
     3
278
    44
283
     0
284
     8
340
11
  0
ENDTAB
  0
TABLE
  2
BLOCK_RECORD
  5
1
330
0
100
AcDbSymbolTable
 70
     1
  0
BLOCK_RECORD
  5
1F
330
1
100
AcDbSymbolTableRecord
100
AcDbBlockTableRecord
  2
*Model_Space
340
22
  0
BLOCK_RECORD
  5
1B
330
1
100
AcDbSymbolTableRecord
100
AcDbBlockTableRecord
  2
*Paper_Space
340
1E
  0
BLOCK_RECORD
  5
23
330
1
100
AcDbSymbolTableRecord
100
AcDbBlockTableRecord
  2
*Paper_Space0
340
26
  0
ENDTAB
  0
ENDSEC
  0
SECTION
  2
BLOCKS
  0
BLOCK
  5
20
330
1F
100
AcDbEntity
  8
0
100
AcDbBlockBegin
  2
*Model_Space
 70
     0
 10
0.0
 20
0.0
 30
0.0
  3
*Model_Space
  1

  0
ENDBLK
  5
21
330
1F
100
AcDbEntity
  8
0
100
AcDbBlockEnd
  0
BLOCK
  5
1C
330
1B
100
AcDbEntity
 67
     1
  8
0
100
AcDbBlockBegin
  2
*Paper_Space
 70
     0
 10
0.0
 20
0.0
 30
0.0
  3
*Paper_Space
  1

  0
ENDBLK
  5
1D
330
1B
100
AcDbEntity
 67
     1
  8
0
100
AcDbBlockEnd
  0
BLOCK
  5
24
330
23
100
AcDbEntity
  8
0
100
AcDbBlockBegin
  2
*Paper_Space0
 70
     0
 10
0.0
 20
0.0
 30
0.0
  3
*Paper_Space0
  1

  0
ENDBLK
  5
25
330
23
100
AcDbEntity
  8
0
100
AcDbBlockEnd
  0
ENDSEC
  0
SECTION
  2
ENTITIES
  0
LINE
  5
4A
330
1F
100
AcDbEntity
  8
D-5
  6
Continuous
 62
     2
370
     9
100
AcDbLine
 10
918.3932274627624
 20
-814.9953967503775
 30
0.0
 11
693.3934563445986
 21
-814.9953967503775
 31
0.0
  0
LINE
  5
4B
330
1F
100
AcDbEntity
  8
D-5
  6
Continuous
 62
     2
370
     9
100
AcDbLine
 10
918.3932274627624
 20
-764.9951651863325
 30
0.0
 11
918.3932274627624
 21
-814.9953967503775
 31
0.0
  0
LINE
  5
4C
330
1F
100
AcDbEntity
  8
D-5
  6
Continuous
 62
     2
370
     9
100
AcDbLine
 10
693.3934563445986
 20
-764.9951651863325
 30
0.0
 11
918.3932274627624
 21
-764.9951651863325
 31
0.0
  0
LINE
  5
4D
330
1F
100
AcDbEntity
  8
D-5
  6
Continuous
 62
     2
370
     9
100
AcDbLine
 10
693.3934563445986
 20
-814.9953967503775
 30
0.0
 11
693.3934563445986
 21
-764.9951651863325
 31
0.0
  0
TEXT
  5
4E
330
1F
100
AcDbEntity
  8
D-5
  6
Continuous
 62
     2
370
     9
100
AcDbText
 10
740.8929985809267
 20
-804.3551249531973
 30
0.0
 40
30.48
  1
仕　様
 41
1.083333333333331
  7
ＭＳ ゴシック
100
AcDbText
  0
TEXT
  5
4F
330
1F
100
AcDbEntity
  8
D-5
  6
Continuous
 62
     2
370
     9
100
AcDbText
 10
855.1953612905097
 20
-1061.087687078121
 30
0.0
 40
30.48
  1
処理：ヘアライン
 50
0.0000554111121398
 41
1.109375
  7
ＭＳ ゴシック
100
AcDbText
  0
TEXT
  5
50
330
1F
100
AcDbEntity
  8
D-5
  6
Continuous
 62
     2
370
     9
100
AcDbText
 10
855.1953705048737
 20
-996.0871720939882
 30
0.0
 40
30.48
  1
材質：冷間圧延ステンレス鋼板　（ＳＵＳ３０４）
 50
359.9999618039849
 41
1.119565217391304
  7
ＭＳ ゴシック
100
AcDbText
  0
TEXT
  5
51
330
1F
100
AcDbEntity
  8
D-5
  6
Continuous
 62
     2
370
     9
100
AcDbText
 10
847.7097296299507
 20
-867.7510171251271
 30
0.0
 40
30.48
  1
ノンスリップタイプステンレス製排水用蓋
 50
359.999975610655
 41
1.118421052631579
  7
ＭＳ ゴシック
100
AcDbText
  0
LINE
  5
52
330
1F
100
AcDbEntity
  8
2-F
  6
Continuous
 62
     7
370
     9
100
AcDbLine
 10
229.5272155408776
 20
-684.4331525563582
 30
0.0
 11
80.88849512054085
 21
-684.4331525563582
 31
0.0
  0
LINE
  5
53
330
1F
100
AcDbEntity
  8
1-0
  6
Continuous
 62
     3
370
     9
100
AcDbLine
 10
-773.4716414049699
 20
-803.0461984439556
 30
0.0
 11
-1113.471752163747
 21
-803.0461984439556
 31
0.0
  0
LINE
  5
54
330
1F
100
AcDbEntity
  8
1-0
  6
Continuous
 62
     3
370
     9
100
AcDbLine
 10
-1113.471752163747
 20
-743.0461171422995
 30
0.0
 11
-773.4716414049699
 21
-743.0461171422995
 31
0.0
  0
LINE
  5
55
330
1F
100
AcDbEntity
  8
1-F
  6
JWW_CENTER1
 62
     7
370
     9
100
AcDbLine
 10
-943.4716967843586
 20
-718.8316348900976
 30
0.0
 11
-943.4716967843586
 21
-827.2606806961575
 31
0.0
  0
LINE
  5
56
330
1F
100
AcDbEntity
  8
1-F
  6
JWW_CENTER1
 62
     7
370
     9
100
AcDbLine
 10
-1170.261036652617
 20
-773.0461577931276
 30
0.0
 11
-716.6823569161005
 21
-773.0461577931276
 31
0.0
  0
LINE
  5
57
330
1F
100
AcDbEntity
  8
1-F
  6
Continuous
 62
     7
370
     9
100
AcDbLine
 10
-1133.4717792643
 20
-743.0461171422995
 30
0.0
 11
-1247.729252418257
 21
-743.0461171422995
 31
0.0
  0
LINE
  5
58
330
1F
100
AcDbEntity
  8
1-F
  6
Continuous
 62
     7
370
     9
100
AcDbLine
 10
-1133.4717792643
 20
-803.0461984439556
 30
0.0
 11
-1247.729252418257
 21
-803.0461984439556
 31
0.0
  0
LINE
  5
59
330
1F
100
AcDbEntity
  8
1-F
  6
Continuous
 62
     7
370
     9
100
AcDbLine
 10
-1244.729125870462
 20
-743.0461171422995
 30
0.0
 11
-1248.64507315494
 21
-713.3027652611913
 31
0.0
  0
LINE
  5
5A
330
1F
100
AcDbEntity
  8
1-F
  6
Continuous
 62
     7
370
     9
100
AcDbLine
 10
-1244.729125870462
 20
-803.0461984439556
 30
0.0
 11
-1248.64507315494
 21
-832.7895503250637
 31
0.0
  0
LINE
  5
5B
330
1F
100
AcDbEntity
  8
1-F
  6
Continuous
 62
     7
370
     9
100
AcDbLine
 10
-1244.729125870462
 20
-803.0461984439556
 30
0.0
 11
-1240.813528536591
 21
-832.7895503250637
 31
0.0
  0
LINE
  5
5C
330
1F
100
AcDbEntity
  8
1-F
  6
Continuous
 62
     7
370
     9
100
AcDbLine
 10
-1244.729125870462
 20
-743.0461171422995
 30
0.0
 11
-1240.813528536591
 21
-713.3027652611913
 31
0.0
  0
LINE
  5
5D
330
1F
100
AcDbEntity
  8
1-F
  6
Continuous
 62
     7
370
     9
100
AcDbLine
 10
-1244.729125870462
 20
-704.4834850565657
 30
0.0
 11
-1244.729125870462
 21
-842.0583420834795
 31
0.0
  0
LINE
  5
5E
330
1F
100
AcDbEntity
  8
1-F
  6
JWW_CENTER1
 62
     7
370
     9
100
AcDbLine
 10
-773.4716414049699
 20
-733.5369093173568
 30
0.0
 11
-773.4716414049699
 21
-812.5554062688982
 31
0.0
  0
LINE
  5
5F
330
1F
100
AcDbEntity
  8
1-F
  6
JWW_CENTER1
 62
     7
370
     9
100
AcDbLine
 10
-1113.471752163747
 20
-733.5369093173568
 30
0.0
 11
-1113.471752163747
 21
-812.5554062688982
 31
0.0
  0
LINE
  5
60
330
1F
100
AcDbEntity
  8
2-0
  6
Continuous
 62
     3
370
     9
100
AcDbLine
 10
67.66036220246693
 20
-823.7798095029603
 30
0.0
 11
263.4381291923916
 21
-823.7798095029603
 31
0.0
  0
LINE
  5
61
330
1F
100
AcDbEntity
  8
2-0
  6
Continuous
 62
     3
370
     9
100
AcDbLine
 10
53.59794703897766
 20
-844.8738696864523
 30
0.0
 11
67.66036220246693
 21
-823.7798095029603
 31
0.0
  0
LINE
  5
62
330
1F
100
AcDbEntity
  8
2-0
  6
Continuous
 62
     3
370
     9
100
AcDbLine
 10
277.5012442570944
 20
-844.8738696864523
 30
0.0
 11
263.4381291923916
 21
-823.7798095029603
 31
0.0
  0
LINE
  5
63
330
1F
100
AcDbEntity
  8
1-F
  6
Continuous
 62
     7
370
     9
100
AcDbLine
 10
-135.8747598772714
 20
-1067.269754667939
 30
0.0
 11
466.9736012227366
 21
-1067.269754667939
 31
0.0
  0
LINE
  5
64
330
1F
100
AcDbEntity
  8
2-F
  6
Continuous
 62
     7
370
     9
100
AcDbLine
 10
15.54921741859236
 20
-603.0657871353429
 30
0.0
 11
315.5492739762662
 21
-603.0657871353429
 31
0.0
  0
LINE
  5
65
330
1F
100
AcDbEntity
  8
2-F
  6
Continuous
 62
     7
370
     9
100
AcDbLine
 10
315.5492739762662
 20
-773.7798292392318
 30
0.0
 11
315.5492739762662
 21
-600.0657480751995
 31
0.0
  0
LINE
  5
66
330
1F
100
AcDbEntity
  8
2-F
  6
Continuous
 62
     7
370
     9
100
AcDbLine
 10
15.54921741859236
 20
-603.0657871353429
 30
0.0
 11
45.29291925030694
 21
-599.1500148261686
 31
0.0
  0
LINE
  5
67
330
1F
100
AcDbEntity
  8
2-F
  6
Continuous
 62
     7
370
     9
100
AcDbLine
 10
15.54921741859236
 20
-603.0657871353429
 30
0.0
 11
45.29291925030694
 21
-606.9815594445174
 31
0.0
  0
LINE
  5
68
330
1F
100
AcDbEntity
  8
2-F
  6
Continuous
 62
     7
370
     9
100
AcDbLine
 10
315.5492739762662
 20
-603.0657871353429
 30
0.0
 11
285.8062720457651
 21
-599.1500148261686
 31
0.0
  0
LINE
  5
69
330
1F
100
AcDbEntity
  8
2-F
  6
Continuous
 62
     7
370
     9
100
AcDbLine
 10
315.5492739762662
 20
-603.0657871353429
 30
0.0
 11
285.8062720457651
 21
-606.9815594445174
 31
0.0
  0
LINE
  5
6A
330
1F
100
AcDbEntity
  8
2-F
  6
Continuous
 62
     7
370
     9
100
AcDbLine
 10
175.5494342230083
 20
-743.7797885884038
 30
0.0
 11
175.5494342230083
 21
-681.4331134962149
 31
0.0
  0
LINE
  5
6B
330
1F
100
AcDbEntity
  8
2-F
  6
Continuous
 62
     7
370
     9
100
AcDbLine
 10
155.5497570730626
 20
-743.7797885884038
 30
0.0
 11
155.5497570730626
 21
-681.4331134962149
 31
0.0
  0
LINE
  5
6C
330
1F
100
AcDbEntity
  8
2-F
  6
Continuous
 62
     7
370
     9
100
AcDbLine
 10
175.5494342230083
 20
-684.4331525563582
 30
0.0
 11
205.2931360547229
 21
-680.5173802471838
 31
0.0
  0
LINE
  5
6D
330
1F
100
AcDbEntity
  8
2-F
  6
Continuous
 62
     7
370
     9
100
AcDbLine
 10
175.5494342230083
 20
-684.4331525563582
 30
0.0
 11
205.2931360547229
 21
-688.3489248655327
 31
0.0
  0
LINE
  5
6E
330
1F
100
AcDbEntity
  8
2-F
  6
Continuous
 62
     7
370
     9
100
AcDbLine
 10
135.5493800219046
 20
-743.7797885884038
 30
0.0
 11
135.5493800219046
 21
-681.4331134962149
 31
0.0
  0
LINE
  5
6F
330
1F
100
AcDbEntity
  8
2-F
  6
Continuous
 62
     7
370
     9
100
AcDbLine
 10
135.5493800219046
 20
-684.4331525563582
 30
0.0
 11
105.8063780914023
 21
-680.5173802471838
 31
0.0
  0
LINE
  5
70
330
1F
100
AcDbEntity
  8
2-F
  6
Continuous
 62
     7
370
     9
100
AcDbLine
 10
135.5493800219046
 20
-684.4331525563582
 30
0.0
 11
105.8063780914023
 21
-688.3489248655327
 31
0.0
  0
LINE
  5
71
330
1F
100
AcDbEntity
  8
2-0
  6
Continuous
 62
     3
370
     9
100
AcDbLine
 10
36.9570958082824
 20
-853.7798501537883
 30
0.0
 11
-69.05064175279958
 21
-853.7798501537883
 31
0.0
  0
LINE
  5
72
330
1F
100
AcDbEntity
  8
2-0
  6
Continuous
 62
     3
370
     9
100
AcDbLine
 10
294.1420954877896
 20
-853.7798501537883
 30
0.0
 11
400.1494830982648
 21
-853.7798501537883
 31
0.0
  0
LINE
  5
73
330
1F
100
AcDbEntity
  8
2-F
  6
Continuous
 62
     7
370
     9
100
AcDbLine
 10
-89.050668853352
 20
-793.7798563397838
 30
0.0
 11
-219.0669427348297
 21
-793.7798563397838
 31
0.0
  0
LINE
  5
74
330
1F
100
AcDbEntity
  8
2-F
  6
Continuous
 62
     7
370
     9
100
AcDbLine
 10
-216.0669911623381
 20
-763.779815688956
 30
0.0
 11
-219.982763471512
 21
-734.0364638078477
 31
0.0
  0
LINE
  5
75
330
1F
100
AcDbEntity
  8
2-F
  6
Continuous
 62
     7
370
     9
100
AcDbLine
 10
-216.0669911623381
 20
-763.779815688956
 30
0.0
 11
-212.1512188531636
 21
-734.0364638078477
 31
0.0
  0
LINE
  5
76
330
1F
100
AcDbEntity
  8
2-F
  6
Continuous
 62
     7
370
     9
100
AcDbLine
 10
-216.0669911623381
 20
-793.7798563397838
 30
0.0
 11
-219.982763471512
 21
-823.5232082208921
 31
0.0
  0
LINE
  5
77
330
1F
100
AcDbEntity
  8
2-F
  6
Continuous
 62
     7
370
     9
100
AcDbLine
 10
-216.0669911623381
 20
-793.7798563397838
 30
0.0
 11
-212.1512188531636
 21
-823.5232082208921
 31
0.0
  0
LINE
  5
78
330
1F
100
AcDbEntity
  8
2-F
  6
Continuous
 62
     7
370
     9
100
AcDbLine
 10
-216.0669911623381
 20
-723.2550980413591
 30
0.0
 11
-216.0669911623381
 21
-834.496959333193
 31
0.0
  0
LINE
  5
79
330
1F
100
AcDbEntity
  8
2-F
  6
Continuous
 62
     7
370
     9
100
AcDbLine
 10
-127.2985203687204
 20
-763.7795532260011
 30
0.0
 11
-144.2984209214773
 21
-763.7795532260011
 31
0.0
  0
LINE
  5
7A
330
1F
100
AcDbEntity
  8
2-F
  6
Continuous
 62
     7
370
     9
100
AcDbLine
 10
-147.2981975186661
 20
-763.7795532260011
 30
0.0
 11
-151.214144803144
 21
-734.0362013448929
 31
0.0
  0
LINE
  5
7B
330
1F
100
AcDbEntity
  8
2-F
  6
Continuous
 62
     7
370
     9
100
AcDbLine
 10
-147.2981975186661
 20
-763.7795532260011
 30
0.0
 11
-143.382600184795
 21
-734.0362013448929
 31
0.0
  0
LINE
  5
7C
330
1F
100
AcDbEntity
  8
2-F
  6
Continuous
 62
     7
370
     9
100
AcDbLine
 10
-147.2981975186661
 20
-773.7796542639287
 30
0.0
 11
-151.214144803144
 21
-803.5230061450369
 31
0.0
  0
LINE
  5
7D
330
1F
100
AcDbEntity
  8
2-F
  6
Continuous
 62
     7
370
     9
100
AcDbLine
 10
-147.2981975186661
 20
-773.7796542639287
 30
0.0
 11
-143.382600184795
 21
-803.5230061450369
 31
0.0
  0
LINE
  5
7E
330
1F
100
AcDbEntity
  8
2-F
  6
Continuous
 62
     7
370
     9
100
AcDbLine
 10
-147.2981975186661
 20
-668.1974566401051
 30
0.0
 11
-147.2981975186661
 21
-809.445920156635
 31
0.0
  0
LINE
  5
7F
330
1F
100
AcDbEntity
  8
2-0
  6
Continuous
 62
     3
370
     9
100
AcDbLine
 10
293.8246902878763
 20
-765.5048972027032
 30
0.0
 11
286.9639086513991
 21
-772.365591351529
 31
0.0
  0
LINE
  5
80
330
1F
100
AcDbEntity
  8
2-0
  6
Continuous
 62
     3
370
     9
100
AcDbLine
 10
37.27450100819571
 20
-765.5048097150516
 30
0.0
 11
44.13528264467292
 21
-772.3655038638775
 31
0.0
  0
LINE
  5
81
330
1F
100
AcDbEntity
  8
2-0
  6
Continuous
 62
     3
370
     9
100
AcDbLine
 10
400.1494830982648
 20
-793.7798563397838
 30
0.0
 11
315.5492739762662
 21
-793.7798563397838
 31
0.0
  0
LINE
  5
82
330
1F
100
AcDbEntity
  8
2-0
  6
Continuous
 62
     3
370
     9
100
AcDbLine
 10
296.9032057714828
 20
-765.8097041807889
 30
0.0
 11
315.5492739762662
 21
-793.7798563397838
 31
0.0
  0
LINE
  5
83
330
1F
100
AcDbEntity
  8
2-0
  6
Continuous
 62
     3
370
     9
100
AcDbLine
 10
15.54921741859236
 20
-793.7798563397838
 30
0.0
 11
-69.05064175279958
 21
-793.7798563397838
 31
0.0
  0
LINE
  5
84
330
1F
100
AcDbEntity
  8
2-0
  6
Continuous
 62
     3
370
     9
100
AcDbLine
 10
15.54921741859236
 20
-793.7798563397838
 30
0.0
 11
34.19598552458925
 21
-765.8097041807889
 31
0.0
  0
LINE
  5
85
330
1F
100
AcDbEntity
  8
2-0
  6
Continuous
 62
     3
370
     9
100
AcDbLine
 10
55.54927161969719
 20
-763.779815688956
 30
0.0
 11
46.96358344477463
 21
-772.3655038638775
 31
0.0
  0
LINE
  5
86
330
1F
100
AcDbEntity
  8
2-0
  6
Continuous
 62
     3
370
     9
100
AcDbLine
 10
75.54964867085519
 20
-763.779815688956
 30
0.0
 11
55.54927161969719
 21
-763.779815688956
 31
0.0
  0
LINE
  5
87
330
1F
100
AcDbEntity
  8
2-0
  6
Continuous
 62
     3
370
     9
100
AcDbLine
 10
75.54964867085519
 20
-763.779815688956
 30
0.0
 11
84.1353368457766
 21
-772.365591351529
 31
0.0
  0
LINE
  5
88
330
1F
100
AcDbEntity
  8
2-0
  6
Continuous
 62
     3
370
     9
100
AcDbLine
 10
95.54932582080087
 20
-763.779815688956
 30
0.0
 11
86.96363764587946
 21
-772.365591351529
 31
0.0
  0
LINE
  5
89
330
1F
100
AcDbEntity
  8
2-0
  6
Continuous
 62
     3
370
     9
100
AcDbLine
 10
115.5497028719589
 20
-763.779815688956
 30
0.0
 11
95.54932582080087
 21
-763.779815688956
 31
0.0
  0
LINE
  5
8A
330
1F
100
AcDbEntity
  8
2-0
  6
Continuous
 62
     3
370
     9
100
AcDbLine
 10
115.5497028719589
 20
-763.779815688956
 30
0.0
 11
124.1353910468803
 21
-772.365591351529
 31
0.0
  0
LINE
  5
8B
330
1F
100
AcDbEntity
  8
2-0
  6
Continuous
 62
     3
370
     9
100
AcDbLine
 10
135.5493800219046
 20
-763.779815688956
 30
0.0
 11
126.9636918469832
 21
-772.365591351529
 31
0.0
  0
LINE
  5
8C
330
1F
100
AcDbEntity
  8
2-0
  6
Continuous
 62
     3
370
     9
100
AcDbLine
 10
155.5497570730626
 20
-763.779815688956
 30
0.0
 11
135.5493800219046
 21
-763.779815688956
 31
0.0
  0
LINE
  5
8D
330
1F
100
AcDbEntity
  8
2-0
  6
Continuous
 62
     3
370
     9
100
AcDbLine
 10
155.5497570730626
 20
-763.779815688956
 30
0.0
 11
164.1354452479851
 21
-772.365591351529
 31
0.0
  0
LINE
  5
8E
330
1F
100
AcDbEntity
  8
2-0
  6
Continuous
 62
     3
370
     9
100
AcDbLine
 10
175.5494342230083
 20
-763.779815688956
 30
0.0
 11
166.9637460480868
 21
-772.365591351529
 31
0.0
  0
LINE
  5
8F
330
1F
100
AcDbEntity
  8
2-0
  6
Continuous
 62
     3
370
     9
100
AcDbLine
 10
195.5498112741674
 20
-763.779815688956
 30
0.0
 11
175.5494342230083
 21
-763.779815688956
 31
0.0
  0
LINE
  5
90
330
1F
100
AcDbEntity
  8
2-0
  6
Continuous
 62
     3
370
     9
100
AcDbLine
 10
195.5498112741674
 20
-763.779815688956
 30
0.0
 11
204.1354994490888
 21
-772.365591351529
 31
0.0
  0
LINE
  5
91
330
1F
100
AcDbEntity
  8
2-0
  6
Continuous
 62
     3
370
     9
100
AcDbLine
 10
215.5494884241131
 20
-763.779815688956
 30
0.0
 11
206.9638002491917
 21
-772.365591351529
 31
0.0
  0
LINE
  5
92
330
1F
100
AcDbEntity
  8
2-0
  6
Continuous
 62
     3
370
     9
100
AcDbLine
 10
235.5498654752711
 20
-763.779815688956
 30
0.0
 11
215.5494884241131
 21
-763.779815688956
 31
0.0
  0
LINE
  5
93
330
1F
100
AcDbEntity
  8
2-0
  6
Continuous
 62
     3
370
     9
100
AcDbLine
 10
235.5498654752711
 20
-763.779815688956
 30
0.0
 11
244.1355536501925
 21
-772.365591351529
 31
0.0
  0
LINE
  5
94
330
1F
100
AcDbEntity
  8
2-0
  6
Continuous
 62
     3
370
     9
100
AcDbLine
 10
255.5495426252168
 20
-763.779815688956
 30
0.0
 11
246.9638544502954
 21
-772.365591351529
 31
0.0
  0
LINE
  5
95
330
1F
100
AcDbEntity
  8
2-0
  6
Continuous
 62
     3
370
     9
100
AcDbLine
 10
275.5499196763748
 20
-763.779815688956
 30
0.0
 11
255.5495426252168
 21
-763.779815688956
 31
0.0
  0
LINE
  5
96
330
1F
100
AcDbEntity
  8
2-0
  6
Continuous
 62
     3
370
     9
100
AcDbLine
 10
275.5499196763748
 20
-763.779815688956
 30
0.0
 11
284.1356078512962
 21
-772.365591351529
 31
0.0
  0
LINE
  5
97
330
1F
100
AcDbEntity
  8
2-F
  6
Continuous
 62
     7
370
     9
100
AcDbLine
 10
15.54921741859236
 20
-773.7798292392318
 30
0.0
 11
15.54921741859236
 21
-600.0657480751995
 31
0.0
  0
LINE
  5
98
330
1F
100
AcDbEntity
  8
2-F
  6
Continuous
 62
     7
370
     9
100
AcDbLine
 10
-0.1628649029867901
 20
-773.7796542639287
 30
0.0
 11
-150.298324066461
 21
-773.7796542639287
 31
0.0
  0
LINE
  5
99
330
1F
100
AcDbEntity
  8
2-F
  6
Continuous
 62
     7
370
     9
100
AcDbLine
 10
2.558700962194429
 20
-763.779815688956
 30
0.0
 11
-219.0669427348297
 21
-763.779815688956
 31
0.0
  0
LINE
  5
9A
330
1F
100
AcDbEntity
  8
1-0
  6
Continuous
 62
     7
370
     9
100
AcDbLine
 10
-1143.471792814575
 20
-916.4841747656141
 30
0.0
 11
-743.4716007541418
 21
-916.4841747656141
 31
0.0
  0
LINE
  5
9B
330
1F
100
AcDbEntity
  8
1-0
  6
Continuous
 62
     7
370
     9
100
AcDbLine
 10
-1143.471792814575
 20
-793.0461848936795
 30
0.0
 11
-1143.471792814575
 21
-919.4842138257576
 31
0.0
  0
LINE
  5
9C
330
1F
100
AcDbEntity
  8
1-0
  6
Continuous
 62
     7
370
     9
100
AcDbLine
 10
-743.4716007541418
 20
-793.0461848936795
 30
0.0
 11
-743.4716007541418
 21
-919.4842138257576
 31
0.0
  0
LINE
  5
9D
330
1F
100
AcDbEntity
  8
1-0
  6
Continuous
 62
     7
370
     9
100
AcDbLine
 10
-1143.471792814575
 20
-916.4841747656141
 30
0.0
 11
-1113.728440933467
 21
-912.5684024564397
 31
0.0
  0
LINE
  5
9E
330
1F
100
AcDbEntity
  8
1-0
  6
Continuous
 62
     7
370
     9
100
AcDbLine
 10
-1143.471792814575
 20
-916.4841747656141
 30
0.0
 11
-1113.728440933467
 21
-920.3999470747885
 31
0.0
  0
LINE
  5
9F
330
1F
100
AcDbEntity
  8
1-0
  6
Continuous
 62
     7
370
     9
100
AcDbLine
 10
-743.4716007541418
 20
-916.4841747656141
 30
0.0
 11
-773.2149526352503
 21
-912.5684024564397
 31
0.0
  0
LINE
  5
A0
330
1F
100
AcDbEntity
  8
1-0
  6
Continuous
 62
     7
370
     9
100
AcDbLine
 10
-743.4716007541418
 20
-916.4841747656141
 30
0.0
 11
-773.2149526352503
 21
-920.3999470747885
 31
0.0
  0
ARC
  5
A1
330
1F
100
AcDbEntity
  8
1-0
  6
Continuous
 62
     3
370
     9
100
AcDbCircle
 10
-1113.471752163747
 20
-773.0461577931276
 30
0.0
 40
29.99999964099133
100
AcDbArc
 50
90.0
 51
270.0
  0
ARC
  5
A2
330
1F
100
AcDbEntity
  8
1-0
  6
Continuous
 62
     3
370
     9
100
AcDbCircle
 10
-773.4716414049699
 20
-773.0461577931276
 30
0.0
 40
29.99999964099133
100
AcDbArc
 50
270.0
 51
90.0
  0
ARC
  5
A3
330
1F
100
AcDbEntity
  8
2-0
  6
Continuous
 62
     3
370
     9
100
AcDbCircle
 10
36.9570958082824
 20
-833.7798230532362
 30
0.0
 40
19.99999976066088
100
AcDbArc
 50
270.0
 51
326.3095855712891
  0
ARC
  5
A4
330
1F
100
AcDbEntity
  8
2-0
  6
Continuous
 62
     3
370
     9
100
AcDbCircle
 10
294.1420954877896
 20
-833.7798230532362
 30
0.0
 40
19.99999976066088
100
AcDbArc
 50
213.690414428711
 51
270.0
  0
ARC
  5
A5
330
1F
100
AcDbEntity
  8
2-0
  6
Continuous
 62
     3
370
     9
100
AcDbCircle
 10
45.54943304472378
 20
-770.9512659761745
 30
0.0
 40
2.000000010240953
100
AcDbArc
 50
225.0017700195312
 51
314.9982299804688
  0
ARC
  5
A6
330
1F
100
AcDbEntity
  8
2-0
  6
Continuous
 62
     3
370
     9
100
AcDbCircle
 10
85.54948724582746
 20
-770.9514409514777
 30
0.0
 40
2.000000010240953
100
AcDbArc
 50
225.0
 51
315.0
  0
ARC
  5
A7
330
1F
100
AcDbEntity
  8
2-0
  6
Continuous
 62
     3
370
     9
100
AcDbCircle
 10
125.5495414469323
 20
-770.9514409514777
 30
0.0
 40
2.000000010240953
100
AcDbArc
 50
225.0
 51
315.0
  0
ARC
  5
A8
330
1F
100
AcDbEntity
  8
2-0
  6
Continuous
 62
     3
370
     9
100
AcDbCircle
 10
165.549595648036
 20
-770.9514409514777
 30
0.0
 40
2.000000010240953
100
AcDbArc
 50
225.0
 51
315.0
  0
ARC
  5
A9
330
1F
100
AcDbEntity
  8
2-0
  6
Continuous
 62
     3
370
     9
100
AcDbCircle
 10
205.5496498491397
 20
-770.9514409514777
 30
0.0
 40
2.000000010240953
100
AcDbArc
 50
225.0
 51
315.0
  0
ARC
  5
AA
330
1F
100
AcDbEntity
  8
2-0
  6
Continuous
 62
     3
370
     9
100
AcDbCircle
 10
245.5497040502434
 20
-770.9514409514777
 30
0.0
 40
2.000000010240953
100
AcDbArc
 50
225.0
 51
315.0
  0
ARC
  5
AB
330
1F
100
AcDbEntity
  8
2-0
  6
Continuous
 62
     3
370
     9
100
AcDbCircle
 10
285.5497582513482
 20
-770.9514409514777
 30
0.0
 40
2.000000010240953
100
AcDbArc
 50
225.0
 51
315.0
  0
ARC
  5
AC
330
1F
100
AcDbEntity
  8
2-0
  6
Continuous
 62
     3
370
     9
100
AcDbCircle
 10
295.2388406879283
 20
-766.919135090406
 30
0.0
 40
2.000000010240953
100
AcDbArc
 50
33.68937683105469
 51
134.9982299804688
  0
ARC
  5
AD
330
1F
100
AcDbEntity
  8
2-0
  6
Continuous
 62
     3
370
     9
100
AcDbCircle
 10
35.86035060814371
 20
-766.9190476027543
 30
0.0
 40
2.000000010240953
100
AcDbArc
 50
45.00177001953125
 51
146.3127136230469
  0
TEXT
  5
AE
330
1F
100
AcDbEntity
  8
1-F
  6
Continuous
 62
     2
370
     9
100
AcDbText
 10
-1255.369220133252
 20
-783.0461577931276
 30
0.0
 40
30.48
  1
6
 50
90.0
 41
0.9999999999999998
  7
ＭＳ ゴシック
100
AcDbText
  0
TEXT
  5
AF
330
1F
100
AcDbEntity
  8
2-F
  6
Continuous
 62
     2
370
     9
100
AcDbText
 10
121.7990707221265
 20
-592.425780360205
 30
0.0
 40
30.48
  1
Φ15
 41
1.09375
  7
ＭＳ ゴシック
100
AcDbText
  0
TEXT
  5
B0
330
1F
100
AcDbEntity
  8
2-F
  6
Continuous
 62
     2
370
     9
100
AcDbText
 10
209.372173872012
 20
-673.7931457812202
 30
0.0
 40
30.48
  1
1
 41
0.9999999999999998
  7
ＭＳ ゴシック
100
AcDbText
  0
TEXT
  5
B1
330
1F
100
AcDbEntity
  8
2-F
  6
Continuous
 62
     2
370
     9
100
AcDbText
 10
82.89022613884359
 20
-673.7931457812202
 30
0.0
 40
30.48
  1
1
 41
0.9999999999999998
  7
ＭＳ ゴシック
100
AcDbText
  0
TEXT
  5
B2
330
1F
100
AcDbEntity
  8
2-F
  6
Continuous
 62
     2
370
     9
100
AcDbText
 10
-226.7069104498242
 20
-811.2798360143698
 30
0.0
 40
30.48
  1
1.5
 50
90.0
 41
1.083333333333333
  7
ＭＳ ゴシック
100
AcDbText
  0
TEXT
  5
B3
330
1F
100
AcDbEntity
  8
2-F
  6
Continuous
 62
     2
370
     9
100
AcDbText
 10
-157.9382917814556
 20
-731.0128902748595
 30
0.0
 40
30.48
  1
0.5
 50
90.0
 41
1.083333333333333
  7
ＭＳ ゴシック
100
AcDbText
  0
TEXT
  5
B4
330
1F
100
AcDbEntity
  8
1-F
  6
Continuous
 62
     2
370
     9
100
AcDbText
 10
-124.4502293766612
 20
-1049.883837542841
 30
0.0
 40
30.48
  1
滑り止め詳細図　Ｓ＝２：１
 41
1.115384615384615
  7
ＭＳ ゴシック
100
AcDbText
  0
LWPOLYLINE
  5
B5
330
1F
100
AcDbEntity
  8
2-F
  6
Continuous
 62
     7
370
     9
100
AcDbPolyline
 90
        4
 70
     1
 43
1.0
 10
156.0497570730626
 20
-684.4331525563582
 42
0.4142135623731
 10
155.5497570730626
 20
-683.9331525563582
 42
0.4142135623731
 10
155.0497570730626
 20
-684.4331525563582
 42
0.4142135623731
 10
155.5497570730626
 20
-684.9331525563582
 42
0.4142135623731
  0
TEXT
  5
B6
330
1F
100
AcDbEntity
  8
1-F
  6
Continuous
 62
     2
370
   211
100
AcDbText
 10
-964.7216967843586
 20
-905.8441747656141
 30
0.0
 40
30.48
  1
40
 41
1.0625
  7
ＭＳ ゴシック
100
AcDbText
  0
TEXT
  5
B7
330
1F
100
AcDbEntity
  8
1-F
  6
Continuous
 62
     2
370
     9
100
AcDbText
 10
-1210.971784272011
 20
-1049.883837542841
 30
0.0
 40
30.48
  1
排水穴詳細図　Ｓ＝１：１
 41
1.114583333333333
  7
ＭＳ ゴシック
100
AcDbText
  0
LINE
  5
B8
330
1F
100
AcDbEntity
  8
1-F
  6
Continuous
 62
     7
370
     9
100
AcDbLine
 10
-1232.001056168087
 20
-1067.269754667939
 30
0.0
 11
-663.65174749066
 21
-1067.269754667939
 31
0.0
  0
LINE
  5
B9
330
1F
100
AcDbEntity
  8
0-0
  6
Continuous
 62
     3
370
     9
100
AcDbLine
 10
-963.4760930107054
 20
260.5644233061224
 30
0.0
 11
-963.4760930107054
 21
1060.56424750602
 31
0.0
  0
LINE
  5
BA
330
1F
100
AcDbEntity
  8
0-0
  6
Continuous
 62
     3
370
     9
100
AcDbLine
 10
-963.4760930107054
 20
1060.56424750602
 30
0.0
 11
-163.4760938355049
 21
1060.56424750602
 31
0.0
  0
LINE
  5
BB
330
1F
100
AcDbEntity
  8
0-0
  6
Continuous
 62
     3
370
     9
100
AcDbLine
 10
-163.4760938355049
 20
1060.56424750602
 30
0.0
 11
-163.4760938355049
 21
260.5644233061224
 31
0.0
  0
LINE
  5
BC
330
1F
100
AcDbEntity
  8
0-0
  6
Continuous
 62
     3
370
     9
100
AcDbLine
 10
-163.4760938355049
 20
260.5644233061224
 30
0.0
 11
-963.4760930107054
 21
260.5644233061224
 31
0.0
  0
LINE
  5
BD
330
1F
100
AcDbEntity
  8
0-8
  6
Continuous
 62
     3
370
     9
100
AcDbLine
 10
-887.4761650039108
 20
998.5643384696118
 30
0.0
 11
-887.4761650039108
 21
1022.564510970516
 31
0.0
  0
LINE
  5
BE
330
1F
100
AcDbEntity
  8
0-8
  6
Continuous
 62
     3
370
     9
100
AcDbLine
 10
-891.4762404141425
 20
998.5643384696118
 30
0.0
 11
-891.4762404141425
 21
1022.564510970516
 31
0.0
  0
LINE
  5
BF
330
1F
100
AcDbEntity
  8
0-8
  6
Continuous
 62
     3
370
     9
100
AcDbLine
 10
-883.4760895936793
 20
998.5643384696118
 30
0.0
 11
-883.4760895936793
 21
1022.564510970516
 31
0.0
  0
LINE
  5
C0
330
1F
100
AcDbEntity
  8
0-8
  6
Continuous
 62
     3
370
     9
100
AcDbLine
 10
-879.4765741044176
 20
998.5643384696118
 30
0.0
 11
-879.4765741044176
 21
1022.564510970516
 31
0.0
  0
LINE
  5
C1
330
1F
100
AcDbEntity
  8
0-8
  6
Continuous
 62
     3
370
     9
100
AcDbLine
 10
-875.4764986941859
 20
998.5643384696118
 30
0.0
 11
-875.4764986941859
 21
1022.564510970516
 31
0.0
  0
LINE
  5
C2
330
1F
100
AcDbEntity
  8
0-8
  6
Continuous
 62
     3
370
     9
100
AcDbLine
 10
-895.4763158243742
 20
1014.564360150054
 30
0.0
 11
-871.4764232839542
 21
1014.564360150054
 31
0.0
  0
LINE
  5
C3
330
1F
100
AcDbEntity
  8
0-8
  6
Continuous
 62
     3
370
     9
100
AcDbLine
 10
-895.4763158243742
 20
1018.564435560285
 30
0.0
 11
-871.4764232839542
 21
1018.564435560285
 31
0.0
  0
LINE
  5
C4
330
1F
100
AcDbEntity
  8
0-8
  6
Continuous
 62
     3
370
     9
100
AcDbLine
 10
-895.4763158243742
 20
1010.564284739822
 30
0.0
 11
-871.4764232839542
 21
1010.564284739822
 31
0.0
  0
LINE
  5
C5
330
1F
100
AcDbEntity
  8
0-8
  6
Continuous
 62
     3
370
     9
100
AcDbLine
 10
-895.4763158243742
 20
1006.564489290075
 30
0.0
 11
-871.4764232839542
 21
1006.564489290075
 31
0.0
  0
LINE
  5
C6
330
1F
100
AcDbEntity
  8
0-8
  6
Continuous
 62
     3
370
     9
100
AcDbLine
 10
-895.4763158243742
 20
1002.564413879844
 30
0.0
 11
-871.4764232839542
 21
1002.564413879844
 31
0.0
  0
LINE
  5
C7
330
1F
100
AcDbEntity
  8
0-8
  6
JWW_CENTER1
 62
     7
370
     9
100
AcDbLine
 10
-902.9064670972989
 20
1010.564284739822
 30
0.0
 11
-864.0462720110295
 21
1010.564284739822
 31
0.0
  0
LINE
  5
C8
330
1F
100
AcDbEntity
  8
0-8
  6
Continuous
 62
     3
370
     9
100
AcDbLine
 10
-837.4761672426521
 20
966.5645750692136
 30
0.0
 11
-769.4760401057147
 21
966.5645750692136
 31
0.0
  0
LINE
  5
C9
330
1F
100
AcDbEntity
  8
0-8
  6
Continuous
 62
     3
370
     9
100
AcDbLine
 10
-837.4761672426521
 20
954.5637889175487
 30
0.0
 11
-769.4760401057147
 21
954.5637889175487
 31
0.0
  0
LINE
  5
CA
330
1F
100
AcDbEntity
  8
0-8
  6
JWW_CENTER1
 62
     7
370
     9
100
AcDbLine
 10
-803.4760861766531
 20
970.6049647892911
 30
0.0
 11
-803.4760861766531
 21
950.5231192369865
 31
0.0
  0
LINE
  5
CB
330
1F
100
AcDbEntity
  8
0-8
  6
JWW_CENTER1
 62
     7
370
     9
100
AcDbLine
 10
-848.1899750445948
 20
960.5641819933811
 30
0.0
 11
-758.7625122642572
 21
960.5641819933811
 31
0.0
  0
LINE
  5
CC
330
1F
100
AcDbEntity
  8
0-8
  6
JWW_CENTER1
 62
     7
370
     9
100
AcDbLine
 10
-203.4757280958814
 20
679.9949928701758
 30
0.0
 11
-203.4757280958814
 21
641.1345178234217
 31
0.0
  0
LINE
  5
CD
330
1F
100
AcDbEntity
  8
0-0
  6
JWW_DASHED2
 62
     3
370
     9
100
AcDbLine
 10
-963.4760930107054
 20
1054.564274370915
 30
0.0
 11
-163.4760938355049
 21
1054.564274370915
 31
0.0
  0
LINE
  5
CE
330
1F
100
AcDbEntity
  8
0-0
  6
JWW_DASHED2
 62
     3
370
     9
100
AcDbLine
 10
-163.4760938355049
 20
266.5643964412274
 30
0.0
 11
-963.4760930107054
 21
266.5643964412274
 31
0.0
  0
LINE
  5
CF
330
1F
100
AcDbEntity
  8
0-A
  6
JWW_DASHED2
 62
     4
370
     9
100
AcDbLine
 10
-428.4763304351067
 20
940.5645048434354
 30
0.0
 11
-428.4763304351067
 21
380.5644459291921
 31
0.0
  0
LINE
  5
D0
330
1F
100
AcDbEntity
  8
0-A
  6
JWW_DASHED2
 62
     4
370
     9
100
AcDbLine
 10
-378.476227688666
 20
940.5645048434354
 30
0.0
 11
-378.476227688666
 21
380.5644459291921
 31
0.0
  0
LINE
  5
D1
330
1F
100
AcDbEntity
  8
0-A
  6
JWW_DASHED2
 62
     4
370
     9
100
AcDbLine
 10
-384.4763408040135
 20
940.5645048434354
 30
0.0
 11
-384.4763408040135
 21
380.5644459291921
 31
0.0
  0
LINE
  5
D2
330
1F
100
AcDbEntity
  8
0-A
  6
JWW_DASHED2
 62
     4
370
     9
100
AcDbLine
 10
-428.4763304351067
 20
940.5645048434354
 30
0.0
 11
-378.476227688666
 21
940.5645048434354
 31
0.0
  0
LINE
  5
D3
330
1F
100
AcDbEntity
  8
0-A
  6
JWW_DASHED2
 62
     4
370
     9
100
AcDbLine
 10
-428.4763304351067
 20
380.5644459291921
 30
0.0
 11
-378.476227688666
 21
380.5644459291921
 31
0.0
  0
LINE
  5
D4
330
1F
100
AcDbEntity
  8
0-A
  6
JWW_DASHED2
 62
     4
370
     9
100
AcDbLine
 10
-698.4758214160428
 20
940.5645048434354
 30
0.0
 11
-698.4758214160428
 21
380.5644459291921
 31
0.0
  0
LINE
  5
D5
330
1F
100
AcDbEntity
  8
0-A
  6
JWW_DASHED2
 62
     4
370
     9
100
AcDbLine
 10
-748.4759241624835
 20
940.5645048434354
 30
0.0
 11
-748.4759241624835
 21
380.5644459291921
 31
0.0
  0
LINE
  5
D6
330
1F
100
AcDbEntity
  8
0-A
  6
JWW_DASHED2
 62
     4
370
     9
100
AcDbLine
 10
-742.4758110471362
 20
940.5645048434354
 30
0.0
 11
-742.4758110471362
 21
380.5644459291921
 31
0.0
  0
LINE
  5
D7
330
1F
100
AcDbEntity
  8
0-A
  6
JWW_DASHED2
 62
     4
370
     9
100
AcDbLine
 10
-698.4758214160428
 20
940.5645048434354
 30
0.0
 11
-748.4759241624835
 21
940.5645048434354
 31
0.0
  0
LINE
  5
D8
330
1F
100
AcDbEntity
  8
0-A
  6
JWW_DASHED2
 62
     4
370
     9
100
AcDbLine
 10
-698.4758214160428
 20
380.5644459291921
 30
0.0
 11
-748.4759241624835
 21
380.5644459291921
 31
0.0
  0
LINE
  5
D9
330
1F
100
AcDbEntity
  8
0-0
  6
JWW_CENTER1
 62
     7
370
     9
100
AcDbLine
 10
-563.4760759255747
 20
1078.120569522791
 30
0.0
 11
-563.4760759255747
 21
241.2673769835024
 31
0.0
  0
LINE
  5
DA
330
1F
100
AcDbEntity
  8
0-8
  6
Continuous
 62
     3
370
     9
100
AcDbLine
 10
-887.4761650039108
 20
898.564272956973
 30
0.0
 11
-887.4761650039108
 21
922.5644454578782
 31
0.0
  0
LINE
  5
DB
330
1F
100
AcDbEntity
  8
0-8
  6
Continuous
 62
     3
370
     9
100
AcDbLine
 10
-891.4762404141425
 20
898.564272956973
 30
0.0
 11
-891.4762404141425
 21
922.5644454578782
 31
0.0
  0
LINE
  5
DC
330
1F
100
AcDbEntity
  8
0-8
  6
Continuous
 62
     3
370
     9
100
AcDbLine
 10
-883.4760895936793
 20
898.564272956973
 30
0.0
 11
-883.4760895936793
 21
922.5644454578782
 31
0.0
  0
LINE
  5
DD
330
1F
100
AcDbEntity
  8
0-8
  6
Continuous
 62
     3
370
     9
100
AcDbLine
 10
-879.4765741044176
 20
898.564272956973
 30
0.0
 11
-879.4765741044176
 21
922.5644454578782
 31
0.0
  0
LINE
  5
DE
330
1F
100
AcDbEntity
  8
0-8
  6
Continuous
 62
     3
370
     9
100
AcDbLine
 10
-875.4764986941859
 20
898.564272956973
 30
0.0
 11
-875.4764986941859
 21
922.5644454578782
 31
0.0
  0
LINE
  5
DF
330
1F
100
AcDbEntity
  8
0-8
  6
Continuous
 62
     3
370
     9
100
AcDbLine
 10
-895.4763158243742
 20
914.5642946374147
 30
0.0
 11
-871.4764232839542
 21
914.5642946374147
 31
0.0
  0
LINE
  5
E0
330
1F
100
AcDbEntity
  8
0-8
  6
Continuous
 62
     3
370
     9
100
AcDbLine
 10
-895.4763158243742
 20
918.5643700476464
 30
0.0
 11
-871.4764232839542
 21
918.5643700476464
 31
0.0
  0
LINE
  5
E1
330
1F
100
AcDbEntity
  8
0-8
  6
Continuous
 62
     3
370
     9
100
AcDbLine
 10
-895.4763158243742
 20
910.564219227183
 30
0.0
 11
-871.4764232839542
 21
910.564219227183
 31
0.0
  0
LINE
  5
E2
330
1F
100
AcDbEntity
  8
0-8
  6
Continuous
 62
     3
370
     9
100
AcDbLine
 10
-895.4763158243742
 20
906.5644237774364
 30
0.0
 11
-871.4764232839542
 21
906.5644237774364
 31
0.0
  0
LINE
  5
E3
330
1F
100
AcDbEntity
  8
0-8
  6
Continuous
 62
     3
370
     9
100
AcDbLine
 10
-895.4763158243742
 20
902.5643483672047
 30
0.0
 11
-871.4764232839542
 21
902.5643483672047
 31
0.0
  0
LINE
  5
E4
330
1F
100
AcDbEntity
  8
0-8
  6
JWW_CENTER1
 62
     7
370
     9
100
AcDbLine
 10
-902.9064670972989
 20
910.564219227183
 30
0.0
 11
-864.0462720110295
 21
910.564219227183
 31
0.0
  0
LINE
  5
E5
330
1F
100
AcDbEntity
  8
0-8
  6
JWW_CENTER1
 62
     7
370
     9
100
AcDbLine
 10
-883.4760895936793
 20
891.1341216840486
 30
0.0
 11
-883.4760895936793
 21
929.9945967308025
 31
0.0
  0
LINE
  5
E6
330
1F
100
AcDbEntity
  8
0-8
  6
Continuous
 62
     3
370
     9
100
AcDbLine
 10
-887.4761650039108
 20
798.5643474245768
 30
0.0
 11
-887.4761650039108
 21
822.5645199254816
 31
0.0
  0
LINE
  5
E7
330
1F
100
AcDbEntity
  8
0-8
  6
Continuous
 62
     3
370
     9
100
AcDbLine
 10
-891.4762404141425
 20
798.5643474245768
 30
0.0
 11
-891.4762404141425
 21
822.5645199254816
 31
0.0
  0
LINE
  5
E8
330
1F
100
AcDbEntity
  8
0-8
  6
Continuous
 62
     3
370
     9
100
AcDbLine
 10
-883.4760895936793
 20
798.5643474245768
 30
0.0
 11
-883.4760895936793
 21
822.5645199254816
 31
0.0
  0
LINE
  5
E9
330
1F
100
AcDbEntity
  8
0-8
  6
Continuous
 62
     3
370
     9
100
AcDbLine
 10
-879.4765741044176
 20
798.5643474245768
 30
0.0
 11
-879.4765741044176
 21
822.5645199254816
 31
0.0
  0
LINE
  5
EA
330
1F
100
AcDbEntity
  8
0-8
  6
Continuous
 62
     3
370
     9
100
AcDbLine
 10
-875.4764986941859
 20
798.5643474245768
 30
0.0
 11
-875.4764986941859
 21
822.5645199254816
 31
0.0
  0
LINE
  5
EB
330
1F
100
AcDbEntity
  8
0-8
  6
Continuous
 62
     3
370
     9
100
AcDbLine
 10
-895.4763158243742
 20
814.5643691050185
 30
0.0
 11
-871.4764232839542
 21
814.5643691050185
 31
0.0
  0
LINE
  5
EC
330
1F
100
AcDbEntity
  8
0-8
  6
Continuous
 62
     3
370
     9
100
AcDbLine
 10
-895.4763158243742
 20
818.5644445152502
 30
0.0
 11
-871.4764232839542
 21
818.5644445152502
 31
0.0
  0
LINE
  5
ED
330
1F
100
AcDbEntity
  8
0-8
  6
Continuous
 62
     3
370
     9
100
AcDbLine
 10
-895.4763158243742
 20
810.5642936947868
 30
0.0
 11
-871.4764232839542
 21
810.5642936947868
 31
0.0
  0
LINE
  5
EE
330
1F
100
AcDbEntity
  8
0-8
  6
Continuous
 62
     3
370
     9
100
AcDbLine
 10
-895.4763158243742
 20
806.5644982450402
 30
0.0
 11
-871.4764232839542
 21
806.5644982450402
 31
0.0
  0
LINE
  5
EF
330
1F
100
AcDbEntity
  8
0-8
  6
Continuous
 62
     3
370
     9
100
AcDbLine
 10
-895.4763158243742
 20
802.5644228348085
 30
0.0
 11
-871.4764232839542
 21
802.5644228348085
 31
0.0
  0
LINE
  5
F0
330
1F
100
AcDbEntity
  8
0-8
  6
JWW_CENTER1
 62
     7
370
     9
100
AcDbLine
 10
-902.9064670972989
 20
810.5642936947868
 30
0.0
 11
-864.0462720110295
 21
810.5642936947868
 31
0.0
  0
LINE
  5
F1
330
1F
100
AcDbEntity
  8
0-8
  6
JWW_CENTER1
 62
     7
370
     9
100
AcDbLine
 10
-883.4760895936793
 20
791.1341961516521
 30
0.0
 11
-883.4760895936793
 21
829.9946711984063
 31
0.0
  0
LINE
  5
F2
330
1F
100
AcDbEntity
  8
0-8
  6
Continuous
 62
     3
370
     9
100
AcDbLine
 10
-887.4761650039108
 20
698.564281911938
 30
0.0
 11
-887.4761650039108
 21
722.5644544128431
 31
0.0
  0
LINE
  5
F3
330
1F
100
AcDbEntity
  8
0-8
  6
Continuous
 62
     3
370
     9
100
AcDbLine
 10
-891.4762404141425
 20
698.564281911938
 30
0.0
 11
-891.4762404141425
 21
722.5644544128431
 31
0.0
  0
LINE
  5
F4
330
1F
100
AcDbEntity
  8
0-8
  6
Continuous
 62
     3
370
     9
100
AcDbLine
 10
-883.4760895936793
 20
698.564281911938
 30
0.0
 11
-883.4760895936793
 21
722.5644544128431
 31
0.0
  0
LINE
  5
F5
330
1F
100
AcDbEntity
  8
0-8
  6
Continuous
 62
     3
370
     9
100
AcDbLine
 10
-879.4765741044176
 20
698.564281911938
 30
0.0
 11
-879.4765741044176
 21
722.5644544128431
 31
0.0
  0
LINE
  5
F6
330
1F
100
AcDbEntity
  8
0-8
  6
Continuous
 62
     3
370
     9
100
AcDbLine
 10
-875.4764986941859
 20
698.564281911938
 30
0.0
 11
-875.4764986941859
 21
722.5644544128431
 31
0.0
  0
LINE
  5
F7
330
1F
100
AcDbEntity
  8
0-8
  6
Continuous
 62
     3
370
     9
100
AcDbLine
 10
-895.4763158243742
 20
714.5643035923797
 30
0.0
 11
-871.4764232839542
 21
714.5643035923797
 31
0.0
  0
LINE
  5
F8
330
1F
100
AcDbEntity
  8
0-8
  6
Continuous
 62
     3
370
     9
100
AcDbLine
 10
-895.4763158243742
 20
718.5643790026114
 30
0.0
 11
-871.4764232839542
 21
718.5643790026114
 31
0.0
  0
LINE
  5
F9
330
1F
100
AcDbEntity
  8
0-8
  6
Continuous
 62
     3
370
     9
100
AcDbLine
 10
-895.4763158243742
 20
710.564228182148
 30
0.0
 11
-871.4764232839542
 21
710.564228182148
 31
0.0
  0
LINE
  5
FA
330
1F
100
AcDbEntity
  8
0-8
  6
Continuous
 62
     3
370
     9
100
AcDbLine
 10
-895.4763158243742
 20
706.5644327324014
 30
0.0
 11
-871.4764232839542
 21
706.5644327324014
 31
0.0
  0
LINE
  5
FB
330
1F
100
AcDbEntity
  8
0-8
  6
Continuous
 62
     3
370
     9
100
AcDbLine
 10
-895.4763158243742
 20
702.5643573221697
 30
0.0
 11
-871.4764232839542
 21
702.5643573221697
 31
0.0
  0
LINE
  5
FC
330
1F
100
AcDbEntity
  8
0-8
  6
JWW_CENTER1
 62
     7
370
     9
100
AcDbLine
 10
-902.9064670972989
 20
710.564228182148
 30
0.0
 11
-864.0462720110295
 21
710.564228182148
 31
0.0
  0
LINE
  5
FD
330
1F
100
AcDbEntity
  8
0-8
  6
JWW_CENTER1
 62
     7
370
     9
100
AcDbLine
 10
-883.4760895936793
 20
691.1341306390134
 30
0.0
 11
-883.4760895936793
 21
729.9946056857675
 31
0.0
  0
LINE
  5
FE
330
1F
100
AcDbEntity
  8
0-8
  6
Continuous
 62
     3
370
     9
100
AcDbLine
 10
-887.4761650039108
 20
598.5643563795418
 30
0.0
 11
-887.4761650039108
 21
622.5645288804469
 31
0.0
  0
LINE
  5
FF
330
1F
100
AcDbEntity
  8
0-8
  6
Continuous
 62
     3
370
     9
100
AcDbLine
 10
-891.4762404141425
 20
598.5643563795418
 30
0.0
 11
-891.4762404141425
 21
622.5645288804469
 31
0.0
  0
LINE
  5
100
330
1F
100
AcDbEntity
  8
0-8
  6
Continuous
 62
     3
370
     9
100
AcDbLine
 10
-883.4760895936793
 20
598.5643563795418
 30
0.0
 11
-883.4760895936793
 21
622.5645288804469
 31
0.0
  0
LINE
  5
101
330
1F
100
AcDbEntity
  8
0-8
  6
Continuous
 62
     3
370
     9
100
AcDbLine
 10
-879.4765741044176
 20
598.5643563795418
 30
0.0
 11
-879.4765741044176
 21
622.5645288804469
 31
0.0
  0
LINE
  5
102
330
1F
100
AcDbEntity
  8
0-8
  6
Continuous
 62
     3
370
     9
100
AcDbLine
 10
-875.4764986941859
 20
598.5643563795418
 30
0.0
 11
-875.4764986941859
 21
622.5645288804469
 31
0.0
  0
LINE
  5
103
330
1F
100
AcDbEntity
  8
0-8
  6
Continuous
 62
     3
370
     9
100
AcDbLine
 10
-895.4763158243742
 20
614.5643780599835
 30
0.0
 11
-871.4764232839542
 21
614.5643780599835
 31
0.0
  0
LINE
  5
104
330
1F
100
AcDbEntity
  8
0-8
  6
Continuous
 62
     3
370
     9
100
AcDbLine
 10
-895.4763158243742
 20
618.5644534702152
 30
0.0
 11
-871.4764232839542
 21
618.5644534702152
 31
0.0
  0
LINE
  5
105
330
1F
100
AcDbEntity
  8
0-8
  6
Continuous
 62
     3
370
     9
100
AcDbLine
 10
-895.4763158243742
 20
610.5643026497518
 30
0.0
 11
-871.4764232839542
 21
610.5643026497518
 31
0.0
  0
LINE
  5
106
330
1F
100
AcDbEntity
  8
0-8
  6
Continuous
 62
     3
370
     9
100
AcDbLine
 10
-895.4763158243742
 20
606.5645072000052
 30
0.0
 11
-871.4764232839542
 21
606.5645072000052
 31
0.0
  0
LINE
  5
107
330
1F
100
AcDbEntity
  8
0-8
  6
Continuous
 62
     3
370
     9
100
AcDbLine
 10
-895.4763158243742
 20
602.5644317897735
 30
0.0
 11
-871.4764232839542
 21
602.5644317897735
 31
0.0
  0
LINE
  5
108
330
1F
100
AcDbEntity
  8
0-8
  6
JWW_CENTER1
 62
     7
370
     9
100
AcDbLine
 10
-902.9064670972989
 20
610.5643026497518
 30
0.0
 11
-864.0462720110295
 21
610.5643026497518
 31
0.0
  0
LINE
  5
109
330
1F
100
AcDbEntity
  8
0-8
  6
JWW_CENTER1
 62
     7
370
     9
100
AcDbLine
 10
-883.4760895936793
 20
591.1342051066172
 30
0.0
 11
-883.4760895936793
 21
629.9946801533715
 31
0.0
  0
LINE
  5
10A
330
1F
100
AcDbEntity
  8
0-8
  6
Continuous
 62
     3
370
     9
100
AcDbLine
 10
-887.4761650039108
 20
498.564290866903
 30
0.0
 11
-887.4761650039108
 21
522.5644633678081
 31
0.0
  0
LINE
  5
10B
330
1F
100
AcDbEntity
  8
0-8
  6
Continuous
 62
     3
370
     9
100
AcDbLine
 10
-891.4762404141425
 20
498.564290866903
 30
0.0
 11
-891.4762404141425
 21
522.5644633678081
 31
0.0
  0
LINE
  5
10C
330
1F
100
AcDbEntity
  8
0-8
  6
Continuous
 62
     3
370
     9
100
AcDbLine
 10
-883.4760895936793
 20
498.564290866903
 30
0.0
 11
-883.4760895936793
 21
522.5644633678081
 31
0.0
  0
LINE
  5
10D
330
1F
100
AcDbEntity
  8
0-8
  6
Continuous
 62
     3
370
     9
100
AcDbLine
 10
-879.4765741044176
 20
498.564290866903
 30
0.0
 11
-879.4765741044176
 21
522.5644633678081
 31
0.0
  0
LINE
  5
10E
330
1F
100
AcDbEntity
  8
0-8
  6
Continuous
 62
     3
370
     9
100
AcDbLine
 10
-875.4764986941859
 20
498.564290866903
 30
0.0
 11
-875.4764986941859
 21
522.5644633678081
 31
0.0
  0
LINE
  5
10F
330
1F
100
AcDbEntity
  8
0-8
  6
Continuous
 62
     3
370
     9
100
AcDbLine
 10
-895.4763158243742
 20
514.5643125473447
 30
0.0
 11
-871.4764232839542
 21
514.5643125473447
 31
0.0
  0
LINE
  5
110
330
1F
100
AcDbEntity
  8
0-8
  6
Continuous
 62
     3
370
     9
100
AcDbLine
 10
-895.4763158243742
 20
518.5643879575764
 30
0.0
 11
-871.4764232839542
 21
518.5643879575764
 31
0.0
  0
LINE
  5
111
330
1F
100
AcDbEntity
  8
0-8
  6
Continuous
 62
     3
370
     9
100
AcDbLine
 10
-895.4763158243742
 20
510.564237137113
 30
0.0
 11
-871.4764232839542
 21
510.564237137113
 31
0.0
  0
LINE
  5
112
330
1F
100
AcDbEntity
  8
0-8
  6
Continuous
 62
     3
370
     9
100
AcDbLine
 10
-895.4763158243742
 20
506.5644416873664
 30
0.0
 11
-871.4764232839542
 21
506.5644416873664
 31
0.0
  0
LINE
  5
113
330
1F
100
AcDbEntity
  8
0-8
  6
Continuous
 62
     3
370
     9
100
AcDbLine
 10
-895.4763158243742
 20
502.5643662771347
 30
0.0
 11
-871.4764232839542
 21
502.5643662771347
 31
0.0
  0
LINE
  5
114
330
1F
100
AcDbEntity
  8
0-8
  6
JWW_CENTER1
 62
     7
370
     9
100
AcDbLine
 10
-902.9064670972989
 20
510.564237137113
 30
0.0
 11
-864.0462720110295
 21
510.564237137113
 31
0.0
  0
LINE
  5
115
330
1F
100
AcDbEntity
  8
0-8
  6
JWW_CENTER1
 62
     7
370
     9
100
AcDbLine
 10
-883.4760895936793
 20
491.1341395939783
 30
0.0
 11
-883.4760895936793
 21
529.9946146407328
 31
0.0
  0
LINE
  5
116
330
1F
100
AcDbEntity
  8
0-8
  6
Continuous
 62
     3
370
     9
100
AcDbLine
 10
-887.4761650039108
 20
398.5642953443858
 30
0.0
 11
-887.4761650039108
 21
422.5644678452906
 31
0.0
  0
LINE
  5
117
330
1F
100
AcDbEntity
  8
0-8
  6
Continuous
 62
     3
370
     9
100
AcDbLine
 10
-891.4762404141425
 20
398.5642953443858
 30
0.0
 11
-891.4762404141425
 21
422.5644678452906
 31
0.0
  0
LINE
  5
118
330
1F
100
AcDbEntity
  8
0-8
  6
Continuous
 62
     3
370
     9
100
AcDbLine
 10
-883.4760895936793
 20
398.5642953443858
 30
0.0
 11
-883.4760895936793
 21
422.5644678452906
 31
0.0
  0
LINE
  5
119
330
1F
100
AcDbEntity
  8
0-8
  6
Continuous
 62
     3
370
     9
100
AcDbLine
 10
-879.4765741044176
 20
398.5642953443858
 30
0.0
 11
-879.4765741044176
 21
422.5644678452906
 31
0.0
  0
LINE
  5
11A
330
1F
100
AcDbEntity
  8
0-8
  6
Continuous
 62
     3
370
     9
100
AcDbLine
 10
-875.4764986941859
 20
398.5642953443858
 30
0.0
 11
-875.4764986941859
 21
422.5644678452906
 31
0.0
  0
LINE
  5
11B
330
1F
100
AcDbEntity
  8
0-8
  6
Continuous
 62
     3
370
     9
100
AcDbLine
 10
-895.4763158243742
 20
414.5643170248272
 30
0.0
 11
-871.4764232839542
 21
414.5643170248272
 31
0.0
  0
LINE
  5
11C
330
1F
100
AcDbEntity
  8
0-8
  6
Continuous
 62
     3
370
     9
100
AcDbLine
 10
-895.4763158243742
 20
418.5643924350589
 30
0.0
 11
-871.4764232839542
 21
418.5643924350589
 31
0.0
  0
LINE
  5
11D
330
1F
100
AcDbEntity
  8
0-8
  6
Continuous
 62
     3
370
     9
100
AcDbLine
 10
-895.4763158243742
 20
410.5642416145955
 30
0.0
 11
-871.4764232839542
 21
410.5642416145955
 31
0.0
  0
LINE
  5
11E
330
1F
100
AcDbEntity
  8
0-8
  6
Continuous
 62
     3
370
     9
100
AcDbLine
 10
-895.4763158243742
 20
406.5644461648489
 30
0.0
 11
-871.4764232839542
 21
406.5644461648489
 31
0.0
  0
LINE
  5
11F
330
1F
100
AcDbEntity
  8
0-8
  6
Continuous
 62
     3
370
     9
100
AcDbLine
 10
-895.4763158243742
 20
402.5643707546172
 30
0.0
 11
-871.4764232839542
 21
402.5643707546172
 31
0.0
  0
LINE
  5
120
330
1F
100
AcDbEntity
  8
0-8
  6
JWW_CENTER1
 62
     7
370
     9
100
AcDbLine
 10
-902.9064670972989
 20
410.5642416145955
 30
0.0
 11
-864.0462720110295
 21
410.5642416145955
 31
0.0
  0
LINE
  5
121
330
1F
100
AcDbEntity
  8
0-8
  6
JWW_CENTER1
 62
     7
370
     9
100
AcDbLine
 10
-883.4760895936793
 20
391.1341440714608
 30
0.0
 11
-883.4760895936793
 21
429.9946191182153
 31
0.0
  0
LINE
  5
122
330
1F
100
AcDbEntity
  8
0-8
  6
Continuous
 62
     3
370
     9
100
AcDbLine
 10
-887.4761650039108
 20
298.564299821868
 30
0.0
 11
-887.4761650039108
 21
322.5644723227731
 31
0.0
  0
LINE
  5
123
330
1F
100
AcDbEntity
  8
0-8
  6
Continuous
 62
     3
370
     9
100
AcDbLine
 10
-891.4762404141425
 20
298.564299821868
 30
0.0
 11
-891.4762404141425
 21
322.5644723227731
 31
0.0
  0
LINE
  5
124
330
1F
100
AcDbEntity
  8
0-8
  6
Continuous
 62
     3
370
     9
100
AcDbLine
 10
-883.4760895936793
 20
298.564299821868
 30
0.0
 11
-883.4760895936793
 21
322.5644723227731
 31
0.0
  0
LINE
  5
125
330
1F
100
AcDbEntity
  8
0-8
  6
Continuous
 62
     3
370
     9
100
AcDbLine
 10
-879.4765741044176
 20
298.564299821868
 30
0.0
 11
-879.4765741044176
 21
322.5644723227731
 31
0.0
  0
LINE
  5
126
330
1F
100
AcDbEntity
  8
0-8
  6
Continuous
 62
     3
370
     9
100
AcDbLine
 10
-875.4764986941859
 20
298.564299821868
 30
0.0
 11
-875.4764986941859
 21
322.5644723227731
 31
0.0
  0
LINE
  5
127
330
1F
100
AcDbEntity
  8
0-8
  6
Continuous
 62
     3
370
     9
100
AcDbLine
 10
-895.4763158243742
 20
314.5643215023097
 30
0.0
 11
-871.4764232839542
 21
314.5643215023097
 31
0.0
  0
LINE
  5
128
330
1F
100
AcDbEntity
  8
0-8
  6
Continuous
 62
     3
370
     9
100
AcDbLine
 10
-895.4763158243742
 20
318.5643969125414
 30
0.0
 11
-871.4764232839542
 21
318.5643969125414
 31
0.0
  0
LINE
  5
129
330
1F
100
AcDbEntity
  8
0-8
  6
Continuous
 62
     3
370
     9
100
AcDbLine
 10
-895.4763158243742
 20
310.564246092078
 30
0.0
 11
-871.4764232839542
 21
310.564246092078
 31
0.0
  0
LINE
  5
12A
330
1F
100
AcDbEntity
  8
0-8
  6
Continuous
 62
     3
370
     9
100
AcDbLine
 10
-895.4763158243742
 20
306.5644506423314
 30
0.0
 11
-871.4764232839542
 21
306.5644506423314
 31
0.0
  0
LINE
  5
12B
330
1F
100
AcDbEntity
  8
0-8
  6
Continuous
 62
     3
370
     9
100
AcDbLine
 10
-895.4763158243742
 20
302.5643752320997
 30
0.0
 11
-871.4764232839542
 21
302.5643752320997
 31
0.0
  0
LINE
  5
12C
330
1F
100
AcDbEntity
  8
0-8
  6
JWW_CENTER1
 62
     7
370
     9
100
AcDbLine
 10
-902.9064670972989
 20
310.564246092078
 30
0.0
 11
-864.0462720110295
 21
310.564246092078
 31
0.0
  0
LINE
  5
12D
330
1F
100
AcDbEntity
  8
0-8
  6
JWW_CENTER1
 62
     7
370
     9
100
AcDbLine
 10
-883.4760895936793
 20
291.1341485489433
 30
0.0
 11
-883.4760895936793
 21
329.9946235956978
 31
0.0
  0
LINE
  5
12E
330
1F
100
AcDbEntity
  8
0-8
  6
Continuous
 62
     3
370
     9
100
AcDbLine
 10
-837.4761672426521
 20
866.5645095565748
 30
0.0
 11
-769.4760401057147
 21
866.5645095565748
 31
0.0
  0
LINE
  5
12F
330
1F
100
AcDbEntity
  8
0-8
  6
Continuous
 62
     3
370
     9
100
AcDbLine
 10
-837.4761672426521
 20
854.5637234049099
 30
0.0
 11
-769.4760401057147
 21
854.5637234049099
 31
0.0
  0
LINE
  5
130
330
1F
100
AcDbEntity
  8
0-8
  6
JWW_CENTER1
 62
     7
370
     9
100
AcDbLine
 10
-803.4760861766531
 20
870.6048992766523
 30
0.0
 11
-803.4760861766531
 21
850.5230537243477
 31
0.0
  0
LINE
  5
131
330
1F
100
AcDbEntity
  8
0-8
  6
JWW_CENTER1
 62
     7
370
     9
100
AcDbLine
 10
-848.1899750445948
 20
860.5641164807423
 30
0.0
 11
-758.7625122642572
 21
860.5641164807423
 31
0.0
  0
LINE
  5
132
330
1F
100
AcDbEntity
  8
0-8
  6
Continuous
 62
     3
370
     9
100
AcDbLine
 10
-837.4761672426521
 20
766.5645840241785
 30
0.0
 11
-769.4760401057147
 21
766.5645840241785
 31
0.0
  0
LINE
  5
133
330
1F
100
AcDbEntity
  8
0-8
  6
Continuous
 62
     3
370
     9
100
AcDbLine
 10
-837.4761672426521
 20
754.5637978725136
 30
0.0
 11
-769.4760401057147
 21
754.5637978725136
 31
0.0
  0
LINE
  5
134
330
1F
100
AcDbEntity
  8
0-8
  6
JWW_CENTER1
 62
     7
370
     9
100
AcDbLine
 10
-803.4760861766531
 20
770.6049737442561
 30
0.0
 11
-803.4760861766531
 21
750.5231281919512
 31
0.0
  0
LINE
  5
135
330
1F
100
AcDbEntity
  8
0-8
  6
JWW_CENTER1
 62
     7
370
     9
100
AcDbLine
 10
-848.1899750445948
 20
760.5641909483461
 30
0.0
 11
-758.7625122642572
 21
760.5641909483461
 31
0.0
  0
LINE
  5
136
330
1F
100
AcDbEntity
  8
0-8
  6
Continuous
 62
     3
370
     9
100
AcDbLine
 10
-837.4761672426521
 20
666.5645185115397
 30
0.0
 11
-769.4760401057147
 21
666.5645185115397
 31
0.0
  0
LINE
  5
137
330
1F
100
AcDbEntity
  8
0-8
  6
Continuous
 62
     3
370
     9
100
AcDbLine
 10
-837.4761672426521
 20
654.5637323598748
 30
0.0
 11
-769.4760401057147
 21
654.5637323598748
 31
0.0
  0
LINE
  5
138
330
1F
100
AcDbEntity
  8
0-8
  6
JWW_CENTER1
 62
     7
370
     9
100
AcDbLine
 10
-803.4760861766531
 20
670.604908231617
 30
0.0
 11
-803.4760861766531
 21
650.5230626793127
 31
0.0
  0
LINE
  5
139
330
1F
100
AcDbEntity
  8
0-8
  6
Continuous
 62
     3
370
     9
100
AcDbLine
 10
-837.4761672426521
 20
566.5645929791435
 30
0.0
 11
-769.4760401057147
 21
566.5645929791435
 31
0.0
  0
LINE
  5
13A
330
1F
100
AcDbEntity
  8
0-8
  6
Continuous
 62
     3
370
     9
100
AcDbLine
 10
-837.4761672426521
 20
554.5638068274786
 30
0.0
 11
-769.4760401057147
 21
554.5638068274786
 31
0.0
  0
LINE
  5
13B
330
1F
100
AcDbEntity
  8
0-8
  6
JWW_CENTER1
 62
     7
370
     9
100
AcDbLine
 10
-803.4760861766531
 20
570.6049826992207
 30
0.0
 11
-803.4760861766531
 21
550.5231371469165
 31
0.0
  0
LINE
  5
13C
330
1F
100
AcDbEntity
  8
0-8
  6
JWW_CENTER1
 62
     7
370
     9
100
AcDbLine
 10
-848.1899750445948
 20
560.5641999033111
 30
0.0
 11
-758.7625122642572
 21
560.5641999033111
 31
0.0
  0
LINE
  5
13D
330
1F
100
AcDbEntity
  8
0-8
  6
Continuous
 62
     3
370
     9
100
AcDbLine
 10
-837.4761672426521
 20
466.564527466505
 30
0.0
 11
-769.4760401057147
 21
466.564527466505
 31
0.0
  0
LINE
  5
13E
330
1F
100
AcDbEntity
  8
0-8
  6
Continuous
 62
     3
370
     9
100
AcDbLine
 10
-837.4761672426521
 20
454.5637413148398
 30
0.0
 11
-769.4760401057147
 21
454.5637413148398
 31
0.0
  0
LINE
  5
13F
330
1F
100
AcDbEntity
  8
0-8
  6
JWW_CENTER1
 62
     7
370
     9
100
AcDbLine
 10
-803.4760861766531
 20
470.6049171865823
 30
0.0
 11
-803.4760861766531
 21
450.5230716342777
 31
0.0
  0
LINE
  5
140
330
1F
100
AcDbEntity
  8
0-8
  6
JWW_CENTER1
 62
     7
370
     9
100
AcDbLine
 10
-848.1899750445948
 20
460.5641343906723
 30
0.0
 11
-758.7625122642572
 21
460.5641343906723
 31
0.0
  0
LINE
  5
141
330
1F
100
AcDbEntity
  8
0-8
  6
Continuous
 62
     3
370
     9
100
AcDbLine
 10
-837.4761672426521
 20
366.5645319439875
 30
0.0
 11
-769.4760401057147
 21
366.5645319439875
 31
0.0
  0
LINE
  5
142
330
1F
100
AcDbEntity
  8
0-8
  6
Continuous
 62
     3
370
     9
100
AcDbLine
 10
-837.4761672426521
 20
354.5637457923223
 30
0.0
 11
-769.4760401057147
 21
354.5637457923223
 31
0.0
  0
LINE
  5
143
330
1F
100
AcDbEntity
  8
0-8
  6
JWW_CENTER1
 62
     7
370
     9
100
AcDbLine
 10
-803.4760861766531
 20
370.6049216640648
 30
0.0
 11
-803.4760861766531
 21
350.5230761117602
 31
0.0
  0
LINE
  5
144
330
1F
100
AcDbEntity
  8
0-8
  6
JWW_CENTER1
 62
     7
370
     9
100
AcDbLine
 10
-848.1899750445948
 20
360.5641388681551
 30
0.0
 11
-758.7625122642572
 21
360.5641388681551
 31
0.0
  0
LINE
  5
145
330
1F
100
AcDbEntity
  8
0-8
  6
Continuous
 62
     3
370
     9
100
AcDbLine
 10
-727.4761581698588
 20
998.5643384696118
 30
0.0
 11
-727.4761581698588
 21
1022.564510970516
 31
0.0
  0
LINE
  5
146
330
1F
100
AcDbEntity
  8
0-8
  6
Continuous
 62
     3
370
     9
100
AcDbLine
 10
-731.4762335800904
 20
998.5643384696118
 30
0.0
 11
-731.4762335800904
 21
1022.564510970516
 31
0.0
  0
LINE
  5
147
330
1F
100
AcDbEntity
  8
0-8
  6
Continuous
 62
     3
370
     9
100
AcDbLine
 10
-723.4760827596269
 20
998.5643384696118
 30
0.0
 11
-723.4760827596269
 21
1022.564510970516
 31
0.0
  0
LINE
  5
148
330
1F
100
AcDbEntity
  8
0-8
  6
Continuous
 62
     3
370
     9
100
AcDbLine
 10
-719.4765672703653
 20
998.5643384696118
 30
0.0
 11
-719.4765672703653
 21
1022.564510970516
 31
0.0
  0
LINE
  5
149
330
1F
100
AcDbEntity
  8
0-8
  6
Continuous
 62
     3
370
     9
100
AcDbLine
 10
-715.4764918601338
 20
998.5643384696118
 30
0.0
 11
-715.4764918601338
 21
1022.564510970516
 31
0.0
  0
LINE
  5
14A
330
1F
100
AcDbEntity
  8
0-8
  6
Continuous
 62
     3
370
     9
100
AcDbLine
 10
-735.4763089903219
 20
1014.564360150054
 30
0.0
 11
-711.4764164499022
 21
1014.564360150054
 31
0.0
  0
LINE
  5
14B
330
1F
100
AcDbEntity
  8
0-8
  6
Continuous
 62
     3
370
     9
100
AcDbLine
 10
-735.4763089903219
 20
1018.564435560285
 30
0.0
 11
-711.4764164499022
 21
1018.564435560285
 31
0.0
  0
LINE
  5
14C
330
1F
100
AcDbEntity
  8
0-8
  6
Continuous
 62
     3
370
     9
100
AcDbLine
 10
-735.4763089903219
 20
1010.564284739822
 30
0.0
 11
-711.4764164499022
 21
1010.564284739822
 31
0.0
  0
LINE
  5
14D
330
1F
100
AcDbEntity
  8
0-8
  6
Continuous
 62
     3
370
     9
100
AcDbLine
 10
-735.4763089903219
 20
1006.564489290075
 30
0.0
 11
-711.4764164499022
 21
1006.564489290075
 31
0.0
  0
LINE
  5
14E
330
1F
100
AcDbEntity
  8
0-8
  6
Continuous
 62
     3
370
     9
100
AcDbLine
 10
-735.4763089903219
 20
1002.564413879844
 30
0.0
 11
-711.4764164499022
 21
1002.564413879844
 31
0.0
  0
LINE
  5
14F
330
1F
100
AcDbEntity
  8
0-8
  6
JWW_CENTER1
 62
     7
370
     9
100
AcDbLine
 10
-742.9064602632468
 20
1010.564284739822
 30
0.0
 11
-704.0462651769775
 21
1010.564284739822
 31
0.0
  0
LINE
  5
150
330
1F
100
AcDbEntity
  8
0-8
  6
JWW_CENTER1
 62
     7
370
     9
100
AcDbLine
 10
-723.4760827596269
 20
991.1341871966869
 30
0.0
 11
-723.4760827596269
 21
1029.994662243441
 31
0.0
  0
LINE
  5
151
330
1F
100
AcDbEntity
  8
0-8
  6
Continuous
 62
     3
370
     9
100
AcDbLine
 10
-677.4761254135393
 20
966.5645750692136
 30
0.0
 11
-609.4760332716625
 21
966.5645750692136
 31
0.0
  0
LINE
  5
152
330
1F
100
AcDbEntity
  8
0-8
  6
Continuous
 62
     3
370
     9
100
AcDbLine
 10
-677.4761254135393
 20
954.5637889175487
 30
0.0
 11
-609.4760332716625
 21
954.5637889175487
 31
0.0
  0
LINE
  5
153
330
1F
100
AcDbEntity
  8
0-8
  6
JWW_CENTER1
 62
     7
370
     9
100
AcDbLine
 10
-643.4760443475403
 20
970.6049647892911
 30
0.0
 11
-643.4760443475403
 21
950.5231192369865
 31
0.0
  0
LINE
  5
154
330
1F
100
AcDbEntity
  8
0-8
  6
JWW_CENTER1
 62
     7
370
     9
100
AcDbLine
 10
-688.1899332154819
 20
960.5641819933811
 30
0.0
 11
-598.762505430205
 21
960.5641819933811
 31
0.0
  0
LINE
  5
155
330
1F
100
AcDbEntity
  8
0-8
  6
Continuous
 62
     3
370
     9
100
AcDbLine
 10
-727.4761581698588
 20
898.564272956973
 30
0.0
 11
-727.4761581698588
 21
922.5644454578782
 31
0.0
  0
LINE
  5
156
330
1F
100
AcDbEntity
  8
0-8
  6
Continuous
 62
     3
370
     9
100
AcDbLine
 10
-731.4762335800904
 20
898.564272956973
 30
0.0
 11
-731.4762335800904
 21
922.5644454578782
 31
0.0
  0
LINE
  5
157
330
1F
100
AcDbEntity
  8
0-8
  6
Continuous
 62
     3
370
     9
100
AcDbLine
 10
-723.4760827596269
 20
898.564272956973
 30
0.0
 11
-723.4760827596269
 21
922.5644454578782
 31
0.0
  0
LINE
  5
158
330
1F
100
AcDbEntity
  8
0-8
  6
Continuous
 62
     3
370
     9
100
AcDbLine
 10
-719.4765672703653
 20
898.564272956973
 30
0.0
 11
-719.4765672703653
 21
922.5644454578782
 31
0.0
  0
LINE
  5
159
330
1F
100
AcDbEntity
  8
0-8
  6
Continuous
 62
     3
370
     9
100
AcDbLine
 10
-715.4764918601338
 20
898.564272956973
 30
0.0
 11
-715.4764918601338
 21
922.5644454578782
 31
0.0
  0
LINE
  5
15A
330
1F
100
AcDbEntity
  8
0-8
  6
Continuous
 62
     3
370
     9
100
AcDbLine
 10
-735.4763089903219
 20
914.5642946374147
 30
0.0
 11
-711.4764164499022
 21
914.5642946374147
 31
0.0
  0
LINE
  5
15B
330
1F
100
AcDbEntity
  8
0-8
  6
Continuous
 62
     3
370
     9
100
AcDbLine
 10
-735.4763089903219
 20
918.5643700476464
 30
0.0
 11
-711.4764164499022
 21
918.5643700476464
 31
0.0
  0
LINE
  5
15C
330
1F
100
AcDbEntity
  8
0-8
  6
Continuous
 62
     3
370
     9
100
AcDbLine
 10
-735.4763089903219
 20
910.564219227183
 30
0.0
 11
-711.4764164499022
 21
910.564219227183
 31
0.0
  0
LINE
  5
15D
330
1F
100
AcDbEntity
  8
0-8
  6
Continuous
 62
     3
370
     9
100
AcDbLine
 10
-735.4763089903219
 20
906.5644237774364
 30
0.0
 11
-711.4764164499022
 21
906.5644237774364
 31
0.0
  0
LINE
  5
15E
330
1F
100
AcDbEntity
  8
0-8
  6
Continuous
 62
     3
370
     9
100
AcDbLine
 10
-735.4763089903219
 20
902.5643483672047
 30
0.0
 11
-711.4764164499022
 21
902.5643483672047
 31
0.0
  0
LINE
  5
15F
330
1F
100
AcDbEntity
  8
0-8
  6
JWW_CENTER1
 62
     7
370
     9
100
AcDbLine
 10
-742.9064602632468
 20
910.564219227183
 30
0.0
 11
-704.0462651769775
 21
910.564219227183
 31
0.0
  0
LINE
  5
160
330
1F
100
AcDbEntity
  8
0-8
  6
JWW_CENTER1
 62
     7
370
     9
100
AcDbLine
 10
-723.4760827596269
 20
891.1341216840486
 30
0.0
 11
-723.4760827596269
 21
929.9945967308025
 31
0.0
  0
LINE
  5
161
330
1F
100
AcDbEntity
  8
0-8
  6
Continuous
 62
     3
370
     9
100
AcDbLine
 10
-727.4761581698588
 20
798.5643474245768
 30
0.0
 11
-727.4761581698588
 21
822.5645199254816
 31
0.0
  0
LINE
  5
162
330
1F
100
AcDbEntity
  8
0-8
  6
Continuous
 62
     3
370
     9
100
AcDbLine
 10
-731.4762335800904
 20
798.5643474245768
 30
0.0
 11
-731.4762335800904
 21
822.5645199254816
 31
0.0
  0
LINE
  5
163
330
1F
100
AcDbEntity
  8
0-8
  6
Continuous
 62
     3
370
     9
100
AcDbLine
 10
-723.4760827596269
 20
798.5643474245768
 30
0.0
 11
-723.4760827596269
 21
822.5645199254816
 31
0.0
  0
LINE
  5
164
330
1F
100
AcDbEntity
  8
0-8
  6
Continuous
 62
     3
370
     9
100
AcDbLine
 10
-719.4765672703653
 20
798.5643474245768
 30
0.0
 11
-719.4765672703653
 21
822.5645199254816
 31
0.0
  0
LINE
  5
165
330
1F
100
AcDbEntity
  8
0-8
  6
Continuous
 62
     3
370
     9
100
AcDbLine
 10
-715.4764918601338
 20
798.5643474245768
 30
0.0
 11
-715.4764918601338
 21
822.5645199254816
 31
0.0
  0
LINE
  5
166
330
1F
100
AcDbEntity
  8
0-8
  6
Continuous
 62
     3
370
     9
100
AcDbLine
 10
-735.4763089903219
 20
814.5643691050185
 30
0.0
 11
-711.4764164499022
 21
814.5643691050185
 31
0.0
  0
LINE
  5
167
330
1F
100
AcDbEntity
  8
0-8
  6
Continuous
 62
     3
370
     9
100
AcDbLine
 10
-735.4763089903219
 20
818.5644445152502
 30
0.0
 11
-711.4764164499022
 21
818.5644445152502
 31
0.0
  0
LINE
  5
168
330
1F
100
AcDbEntity
  8
0-8
  6
Continuous
 62
     3
370
     9
100
AcDbLine
 10
-735.4763089903219
 20
810.5642936947868
 30
0.0
 11
-711.4764164499022
 21
810.5642936947868
 31
0.0
  0
LINE
  5
169
330
1F
100
AcDbEntity
  8
0-8
  6
Continuous
 62
     3
370
     9
100
AcDbLine
 10
-735.4763089903219
 20
806.5644982450402
 30
0.0
 11
-711.4764164499022
 21
806.5644982450402
 31
0.0
  0
LINE
  5
16A
330
1F
100
AcDbEntity
  8
0-8
  6
Continuous
 62
     3
370
     9
100
AcDbLine
 10
-735.4763089903219
 20
802.5644228348085
 30
0.0
 11
-711.4764164499022
 21
802.5644228348085
 31
0.0
  0
LINE
  5
16B
330
1F
100
AcDbEntity
  8
0-8
  6
JWW_CENTER1
 62
     7
370
     9
100
AcDbLine
 10
-742.9064602632468
 20
810.5642936947868
 30
0.0
 11
-704.0462651769775
 21
810.5642936947868
 31
0.0
  0
LINE
  5
16C
330
1F
100
AcDbEntity
  8
0-8
  6
JWW_CENTER1
 62
     7
370
     9
100
AcDbLine
 10
-723.4760827596269
 20
791.1341961516521
 30
0.0
 11
-723.4760827596269
 21
829.9946711984063
 31
0.0
  0
LINE
  5
16D
330
1F
100
AcDbEntity
  8
0-8
  6
Continuous
 62
     3
370
     9
100
AcDbLine
 10
-727.4761581698588
 20
698.564281911938
 30
0.0
 11
-727.4761581698588
 21
722.5644544128431
 31
0.0
  0
LINE
  5
16E
330
1F
100
AcDbEntity
  8
0-8
  6
Continuous
 62
     3
370
     9
100
AcDbLine
 10
-731.4762335800904
 20
698.564281911938
 30
0.0
 11
-731.4762335800904
 21
722.5644544128431
 31
0.0
  0
LINE
  5
16F
330
1F
100
AcDbEntity
  8
0-8
  6
Continuous
 62
     3
370
     9
100
AcDbLine
 10
-723.4760827596269
 20
698.564281911938
 30
0.0
 11
-723.4760827596269
 21
722.5644544128431
 31
0.0
  0
LINE
  5
170
330
1F
100
AcDbEntity
  8
0-8
  6
Continuous
 62
     3
370
     9
100
AcDbLine
 10
-719.4765672703653
 20
698.564281911938
 30
0.0
 11
-719.4765672703653
 21
722.5644544128431
 31
0.0
  0
LINE
  5
171
330
1F
100
AcDbEntity
  8
0-8
  6
Continuous
 62
     3
370
     9
100
AcDbLine
 10
-715.4764918601338
 20
698.564281911938
 30
0.0
 11
-715.4764918601338
 21
722.5644544128431
 31
0.0
  0
LINE
  5
172
330
1F
100
AcDbEntity
  8
0-8
  6
Continuous
 62
     3
370
     9
100
AcDbLine
 10
-735.4763089903219
 20
714.5643035923797
 30
0.0
 11
-711.4764164499022
 21
714.5643035923797
 31
0.0
  0
LINE
  5
173
330
1F
100
AcDbEntity
  8
0-8
  6
Continuous
 62
     3
370
     9
100
AcDbLine
 10
-735.4763089903219
 20
718.5643790026114
 30
0.0
 11
-711.4764164499022
 21
718.5643790026114
 31
0.0
  0
LINE
  5
174
330
1F
100
AcDbEntity
  8
0-8
  6
Continuous
 62
     3
370
     9
100
AcDbLine
 10
-735.4763089903219
 20
710.564228182148
 30
0.0
 11
-711.4764164499022
 21
710.564228182148
 31
0.0
  0
LINE
  5
175
330
1F
100
AcDbEntity
  8
0-8
  6
Continuous
 62
     3
370
     9
100
AcDbLine
 10
-735.4763089903219
 20
706.5644327324014
 30
0.0
 11
-711.4764164499022
 21
706.5644327324014
 31
0.0
  0
LINE
  5
176
330
1F
100
AcDbEntity
  8
0-8
  6
Continuous
 62
     3
370
     9
100
AcDbLine
 10
-735.4763089903219
 20
702.5643573221697
 30
0.0
 11
-711.4764164499022
 21
702.5643573221697
 31
0.0
  0
LINE
  5
177
330
1F
100
AcDbEntity
  8
0-8
  6
JWW_CENTER1
 62
     7
370
     9
100
AcDbLine
 10
-742.9064602632468
 20
710.564228182148
 30
0.0
 11
-704.0462651769775
 21
710.564228182148
 31
0.0
  0
LINE
  5
178
330
1F
100
AcDbEntity
  8
0-8
  6
JWW_CENTER1
 62
     7
370
     9
100
AcDbLine
 10
-723.4760827596269
 20
691.1341306390134
 30
0.0
 11
-723.4760827596269
 21
729.9946056857675
 31
0.0
  0
LINE
  5
179
330
1F
100
AcDbEntity
  8
0-8
  6
Continuous
 62
     3
370
     9
100
AcDbLine
 10
-727.4761581698588
 20
598.5643563795418
 30
0.0
 11
-727.4761581698588
 21
622.5645288804469
 31
0.0
  0
LINE
  5
17A
330
1F
100
AcDbEntity
  8
0-8
  6
Continuous
 62
     3
370
     9
100
AcDbLine
 10
-731.4762335800904
 20
598.5643563795418
 30
0.0
 11
-731.4762335800904
 21
622.5645288804469
 31
0.0
  0
LINE
  5
17B
330
1F
100
AcDbEntity
  8
0-8
  6
Continuous
 62
     3
370
     9
100
AcDbLine
 10
-723.4760827596269
 20
598.5643563795418
 30
0.0
 11
-723.4760827596269
 21
622.5645288804469
 31
0.0
  0
LINE
  5
17C
330
1F
100
AcDbEntity
  8
0-8
  6
Continuous
 62
     3
370
     9
100
AcDbLine
 10
-719.4765672703653
 20
598.5643563795418
 30
0.0
 11
-719.4765672703653
 21
622.5645288804469
 31
0.0
  0
LINE
  5
17D
330
1F
100
AcDbEntity
  8
0-8
  6
Continuous
 62
     3
370
     9
100
AcDbLine
 10
-715.4764918601338
 20
598.5643563795418
 30
0.0
 11
-715.4764918601338
 21
622.5645288804469
 31
0.0
  0
LINE
  5
17E
330
1F
100
AcDbEntity
  8
0-8
  6
Continuous
 62
     3
370
     9
100
AcDbLine
 10
-735.4763089903219
 20
614.5643780599835
 30
0.0
 11
-711.4764164499022
 21
614.5643780599835
 31
0.0
  0
LINE
  5
17F
330
1F
100
AcDbEntity
  8
0-8
  6
Continuous
 62
     3
370
     9
100
AcDbLine
 10
-735.4763089903219
 20
618.5644534702152
 30
0.0
 11
-711.4764164499022
 21
618.5644534702152
 31
0.0
  0
LINE
  5
180
330
1F
100
AcDbEntity
  8
0-8
  6
Continuous
 62
     3
370
     9
100
AcDbLine
 10
-735.4763089903219
 20
610.5643026497518
 30
0.0
 11
-711.4764164499022
 21
610.5643026497518
 31
0.0
  0
LINE
  5
181
330
1F
100
AcDbEntity
  8
0-8
  6
Continuous
 62
     3
370
     9
100
AcDbLine
 10
-735.4763089903219
 20
606.5645072000052
 30
0.0
 11
-711.4764164499022
 21
606.5645072000052
 31
0.0
  0
LINE
  5
182
330
1F
100
AcDbEntity
  8
0-8
  6
Continuous
 62
     3
370
     9
100
AcDbLine
 10
-735.4763089903219
 20
602.5644317897735
 30
0.0
 11
-711.4764164499022
 21
602.5644317897735
 31
0.0
  0
LINE
  5
183
330
1F
100
AcDbEntity
  8
0-8
  6
JWW_CENTER1
 62
     7
370
     9
100
AcDbLine
 10
-742.9064602632468
 20
610.5643026497518
 30
0.0
 11
-704.0462651769775
 21
610.5643026497518
 31
0.0
  0
LINE
  5
184
330
1F
100
AcDbEntity
  8
0-8
  6
JWW_CENTER1
 62
     7
370
     9
100
AcDbLine
 10
-723.4760827596269
 20
591.1342051066172
 30
0.0
 11
-723.4760827596269
 21
629.9946801533715
 31
0.0
  0
LINE
  5
185
330
1F
100
AcDbEntity
  8
0-8
  6
Continuous
 62
     3
370
     9
100
AcDbLine
 10
-727.4761581698588
 20
498.564290866903
 30
0.0
 11
-727.4761581698588
 21
522.5644633678081
 31
0.0
  0
LINE
  5
186
330
1F
100
AcDbEntity
  8
0-8
  6
Continuous
 62
     3
370
     9
100
AcDbLine
 10
-731.4762335800904
 20
498.564290866903
 30
0.0
 11
-731.4762335800904
 21
522.5644633678081
 31
0.0
  0
LINE
  5
187
330
1F
100
AcDbEntity
  8
0-8
  6
Continuous
 62
     3
370
     9
100
AcDbLine
 10
-723.4760827596269
 20
498.564290866903
 30
0.0
 11
-723.4760827596269
 21
522.5644633678081
 31
0.0
  0
LINE
  5
188
330
1F
100
AcDbEntity
  8
0-8
  6
Continuous
 62
     3
370
     9
100
AcDbLine
 10
-719.4765672703653
 20
498.564290866903
 30
0.0
 11
-719.4765672703653
 21
522.5644633678081
 31
0.0
  0
LINE
  5
189
330
1F
100
AcDbEntity
  8
0-8
  6
Continuous
 62
     3
370
     9
100
AcDbLine
 10
-715.4764918601338
 20
498.564290866903
 30
0.0
 11
-715.4764918601338
 21
522.5644633678081
 31
0.0
  0
LINE
  5
18A
330
1F
100
AcDbEntity
  8
0-8
  6
Continuous
 62
     3
370
     9
100
AcDbLine
 10
-735.4763089903219
 20
514.5643125473447
 30
0.0
 11
-711.4764164499022
 21
514.5643125473447
 31
0.0
  0
LINE
  5
18B
330
1F
100
AcDbEntity
  8
0-8
  6
Continuous
 62
     3
370
     9
100
AcDbLine
 10
-735.4763089903219
 20
518.5643879575764
 30
0.0
 11
-711.4764164499022
 21
518.5643879575764
 31
0.0
  0
LINE
  5
18C
330
1F
100
AcDbEntity
  8
0-8
  6
Continuous
 62
     3
370
     9
100
AcDbLine
 10
-735.4763089903219
 20
510.564237137113
 30
0.0
 11
-711.4764164499022
 21
510.564237137113
 31
0.0
  0
LINE
  5
18D
330
1F
100
AcDbEntity
  8
0-8
  6
Continuous
 62
     3
370
     9
100
AcDbLine
 10
-735.4763089903219
 20
506.5644416873664
 30
0.0
 11
-711.4764164499022
 21
506.5644416873664
 31
0.0
  0
LINE
  5
18E
330
1F
100
AcDbEntity
  8
0-8
  6
Continuous
 62
     3
370
     9
100
AcDbLine
 10
-735.4763089903219
 20
502.5643662771347
 30
0.0
 11
-711.4764164499022
 21
502.5643662771347
 31
0.0
  0
LINE
  5
18F
330
1F
100
AcDbEntity
  8
0-8
  6
JWW_CENTER1
 62
     7
370
     9
100
AcDbLine
 10
-742.9064602632468
 20
510.564237137113
 30
0.0
 11
-704.0462651769775
 21
510.564237137113
 31
0.0
  0
LINE
  5
190
330
1F
100
AcDbEntity
  8
0-8
  6
JWW_CENTER1
 62
     7
370
     9
100
AcDbLine
 10
-723.4760827596269
 20
491.1341395939783
 30
0.0
 11
-723.4760827596269
 21
529.9946146407328
 31
0.0
  0
LINE
  5
191
330
1F
100
AcDbEntity
  8
0-8
  6
Continuous
 62
     3
370
     9
100
AcDbLine
 10
-727.4761581698588
 20
398.5642953443858
 30
0.0
 11
-727.4761581698588
 21
422.5644678452906
 31
0.0
  0
LINE
  5
192
330
1F
100
AcDbEntity
  8
0-8
  6
Continuous
 62
     3
370
     9
100
AcDbLine
 10
-731.4762335800904
 20
398.5642953443858
 30
0.0
 11
-731.4762335800904
 21
422.5644678452906
 31
0.0
  0
LINE
  5
193
330
1F
100
AcDbEntity
  8
0-8
  6
Continuous
 62
     3
370
     9
100
AcDbLine
 10
-723.4760827596269
 20
398.5642953443858
 30
0.0
 11
-723.4760827596269
 21
422.5644678452906
 31
0.0
  0
LINE
  5
194
330
1F
100
AcDbEntity
  8
0-8
  6
Continuous
 62
     3
370
     9
100
AcDbLine
 10
-719.4765672703653
 20
398.5642953443858
 30
0.0
 11
-719.4765672703653
 21
422.5644678452906
 31
0.0
  0
LINE
  5
195
330
1F
100
AcDbEntity
  8
0-8
  6
Continuous
 62
     3
370
     9
100
AcDbLine
 10
-715.4764918601338
 20
398.5642953443858
 30
0.0
 11
-715.4764918601338
 21
422.5644678452906
 31
0.0
  0
LINE
  5
196
330
1F
100
AcDbEntity
  8
0-8
  6
Continuous
 62
     3
370
     9
100
AcDbLine
 10
-735.4763089903219
 20
414.5643170248272
 30
0.0
 11
-711.4764164499022
 21
414.5643170248272
 31
0.0
  0
LINE
  5
197
330
1F
100
AcDbEntity
  8
0-8
  6
Continuous
 62
     3
370
     9
100
AcDbLine
 10
-735.4763089903219
 20
418.5643924350589
 30
0.0
 11
-711.4764164499022
 21
418.5643924350589
 31
0.0
  0
LINE
  5
198
330
1F
100
AcDbEntity
  8
0-8
  6
Continuous
 62
     3
370
     9
100
AcDbLine
 10
-735.4763089903219
 20
410.5642416145955
 30
0.0
 11
-711.4764164499022
 21
410.5642416145955
 31
0.0
  0
LINE
  5
199
330
1F
100
AcDbEntity
  8
0-8
  6
Continuous
 62
     3
370
     9
100
AcDbLine
 10
-735.4763089903219
 20
406.5644461648489
 30
0.0
 11
-711.4764164499022
 21
406.5644461648489
 31
0.0
  0
LINE
  5
19A
330
1F
100
AcDbEntity
  8
0-8
  6
Continuous
 62
     3
370
     9
100
AcDbLine
 10
-735.4763089903219
 20
402.5643707546172
 30
0.0
 11
-711.4764164499022
 21
402.5643707546172
 31
0.0
  0
LINE
  5
19B
330
1F
100
AcDbEntity
  8
0-8
  6
JWW_CENTER1
 62
     7
370
     9
100
AcDbLine
 10
-742.9064602632468
 20
410.5642416145955
 30
0.0
 11
-704.0462651769775
 21
410.5642416145955
 31
0.0
  0
LINE
  5
19C
330
1F
100
AcDbEntity
  8
0-8
  6
JWW_CENTER1
 62
     7
370
     9
100
AcDbLine
 10
-723.4760827596269
 20
391.1341440714608
 30
0.0
 11
-723.4760827596269
 21
429.9946191182153
 31
0.0
  0
LINE
  5
19D
330
1F
100
AcDbEntity
  8
0-8
  6
Continuous
 62
     3
370
     9
100
AcDbLine
 10
-727.4761581698588
 20
298.564299821868
 30
0.0
 11
-727.4761581698588
 21
322.5644723227731
 31
0.0
  0
LINE
  5
19E
330
1F
100
AcDbEntity
  8
0-8
  6
Continuous
 62
     3
370
     9
100
AcDbLine
 10
-731.4762335800904
 20
298.564299821868
 30
0.0
 11
-731.4762335800904
 21
322.5644723227731
 31
0.0
  0
LINE
  5
19F
330
1F
100
AcDbEntity
  8
0-8
  6
Continuous
 62
     3
370
     9
100
AcDbLine
 10
-723.4760827596269
 20
298.564299821868
 30
0.0
 11
-723.4760827596269
 21
322.5644723227731
 31
0.0
  0
LINE
  5
1A0
330
1F
100
AcDbEntity
  8
0-8
  6
Continuous
 62
     3
370
     9
100
AcDbLine
 10
-719.4765672703653
 20
298.564299821868
 30
0.0
 11
-719.4765672703653
 21
322.5644723227731
 31
0.0
  0
LINE
  5
1A1
330
1F
100
AcDbEntity
  8
0-8
  6
Continuous
 62
     3
370
     9
100
AcDbLine
 10
-715.4764918601338
 20
298.564299821868
 30
0.0
 11
-715.4764918601338
 21
322.5644723227731
 31
0.0
  0
LINE
  5
1A2
330
1F
100
AcDbEntity
  8
0-8
  6
Continuous
 62
     3
370
     9
100
AcDbLine
 10
-735.4763089903219
 20
314.5643215023097
 30
0.0
 11
-711.4764164499022
 21
314.5643215023097
 31
0.0
  0
LINE
  5
1A3
330
1F
100
AcDbEntity
  8
0-8
  6
Continuous
 62
     3
370
     9
100
AcDbLine
 10
-735.4763089903219
 20
318.5643969125414
 30
0.0
 11
-711.4764164499022
 21
318.5643969125414
 31
0.0
  0
LINE
  5
1A4
330
1F
100
AcDbEntity
  8
0-8
  6
Continuous
 62
     3
370
     9
100
AcDbLine
 10
-735.4763089903219
 20
310.564246092078
 30
0.0
 11
-711.4764164499022
 21
310.564246092078
 31
0.0
  0
LINE
  5
1A5
330
1F
100
AcDbEntity
  8
0-8
  6
Continuous
 62
     3
370
     9
100
AcDbLine
 10
-735.4763089903219
 20
306.5644506423314
 30
0.0
 11
-711.4764164499022
 21
306.5644506423314
 31
0.0
  0
LINE
  5
1A6
330
1F
100
AcDbEntity
  8
0-8
  6
Continuous
 62
     3
370
     9
100
AcDbLine
 10
-735.4763089903219
 20
302.5643752320997
 30
0.0
 11
-711.4764164499022
 21
302.5643752320997
 31
0.0
  0
LINE
  5
1A7
330
1F
100
AcDbEntity
  8
0-8
  6
JWW_CENTER1
 62
     7
370
     9
100
AcDbLine
 10
-742.9064602632468
 20
310.564246092078
 30
0.0
 11
-704.0462651769775
 21
310.564246092078
 31
0.0
  0
LINE
  5
1A8
330
1F
100
AcDbEntity
  8
0-8
  6
JWW_CENTER1
 62
     7
370
     9
100
AcDbLine
 10
-723.4760827596269
 20
291.1341485489433
 30
0.0
 11
-723.4760827596269
 21
329.9946235956978
 31
0.0
  0
LINE
  5
1A9
330
1F
100
AcDbEntity
  8
0-8
  6
Continuous
 62
     3
370
     9
100
AcDbLine
 10
-677.4761254135393
 20
866.5645095565748
 30
0.0
 11
-609.4760332716625
 21
866.5645095565748
 31
0.0
  0
LINE
  5
1AA
330
1F
100
AcDbEntity
  8
0-8
  6
Continuous
 62
     3
370
     9
100
AcDbLine
 10
-677.4761254135393
 20
854.5637234049099
 30
0.0
 11
-609.4760332716625
 21
854.5637234049099
 31
0.0
  0
LINE
  5
1AB
330
1F
100
AcDbEntity
  8
0-8
  6
JWW_CENTER1
 62
     7
370
     9
100
AcDbLine
 10
-643.4760443475403
 20
870.6048992766523
 30
0.0
 11
-643.4760443475403
 21
850.5230537243477
 31
0.0
  0
LINE
  5
1AC
330
1F
100
AcDbEntity
  8
0-8
  6
JWW_CENTER1
 62
     7
370
     9
100
AcDbLine
 10
-688.1899332154819
 20
860.5641164807423
 30
0.0
 11
-598.762505430205
 21
860.5641164807423
 31
0.0
  0
LINE
  5
1AD
330
1F
100
AcDbEntity
  8
0-8
  6
Continuous
 62
     3
370
     9
100
AcDbLine
 10
-677.4761254135393
 20
766.5645840241785
 30
0.0
 11
-609.4760332716625
 21
766.5645840241785
 31
0.0
  0
LINE
  5
1AE
330
1F
100
AcDbEntity
  8
0-8
  6
Continuous
 62
     3
370
     9
100
AcDbLine
 10
-677.4761254135393
 20
754.5637978725136
 30
0.0
 11
-609.4760332716625
 21
754.5637978725136
 31
0.0
  0
LINE
  5
1AF
330
1F
100
AcDbEntity
  8
0-8
  6
JWW_CENTER1
 62
     7
370
     9
100
AcDbLine
 10
-643.4760443475403
 20
770.6049737442561
 30
0.0
 11
-643.4760443475403
 21
750.5231281919512
 31
0.0
  0
LINE
  5
1B0
330
1F
100
AcDbEntity
  8
0-8
  6
JWW_CENTER1
 62
     7
370
     9
100
AcDbLine
 10
-688.1899332154819
 20
760.5641909483461
 30
0.0
 11
-598.762505430205
 21
760.5641909483461
 31
0.0
  0
LINE
  5
1B1
330
1F
100
AcDbEntity
  8
0-8
  6
Continuous
 62
     3
370
     9
100
AcDbLine
 10
-677.4761254135393
 20
666.5645185115397
 30
0.0
 11
-609.4760332716625
 21
666.5645185115397
 31
0.0
  0
LINE
  5
1B2
330
1F
100
AcDbEntity
  8
0-8
  6
Continuous
 62
     3
370
     9
100
AcDbLine
 10
-677.4761254135393
 20
654.5637323598748
 30
0.0
 11
-609.4760332716625
 21
654.5637323598748
 31
0.0
  0
LINE
  5
1B3
330
1F
100
AcDbEntity
  8
0-8
  6
JWW_CENTER1
 62
     7
370
     9
100
AcDbLine
 10
-643.4760443475403
 20
670.604908231617
 30
0.0
 11
-643.4760443475403
 21
650.5230626793127
 31
0.0
  0
LINE
  5
1B4
330
1F
100
AcDbEntity
  8
0-8
  6
Continuous
 62
     3
370
     9
100
AcDbLine
 10
-677.4761254135393
 20
566.5645929791435
 30
0.0
 11
-609.4760332716625
 21
566.5645929791435
 31
0.0
  0
LINE
  5
1B5
330
1F
100
AcDbEntity
  8
0-8
  6
Continuous
 62
     3
370
     9
100
AcDbLine
 10
-677.4761254135393
 20
554.5638068274786
 30
0.0
 11
-609.4760332716625
 21
554.5638068274786
 31
0.0
  0
LINE
  5
1B6
330
1F
100
AcDbEntity
  8
0-8
  6
JWW_CENTER1
 62
     7
370
     9
100
AcDbLine
 10
-643.4760443475403
 20
570.6049826992207
 30
0.0
 11
-643.4760443475403
 21
550.5231371469165
 31
0.0
  0
LINE
  5
1B7
330
1F
100
AcDbEntity
  8
0-8
  6
JWW_CENTER1
 62
     7
370
     9
100
AcDbLine
 10
-688.1899332154819
 20
560.5641999033111
 30
0.0
 11
-598.762505430205
 21
560.5641999033111
 31
0.0
  0
LINE
  5
1B8
330
1F
100
AcDbEntity
  8
0-8
  6
Continuous
 62
     3
370
     9
100
AcDbLine
 10
-677.4761254135393
 20
466.564527466505
 30
0.0
 11
-609.4760332716625
 21
466.564527466505
 31
0.0
  0
LINE
  5
1B9
330
1F
100
AcDbEntity
  8
0-8
  6
Continuous
 62
     3
370
     9
100
AcDbLine
 10
-677.4761254135393
 20
454.5637413148398
 30
0.0
 11
-609.4760332716625
 21
454.5637413148398
 31
0.0
  0
LINE
  5
1BA
330
1F
100
AcDbEntity
  8
0-8
  6
JWW_CENTER1
 62
     7
370
     9
100
AcDbLine
 10
-643.4760443475403
 20
470.6049171865823
 30
0.0
 11
-643.4760443475403
 21
450.5230716342777
 31
0.0
  0
LINE
  5
1BB
330
1F
100
AcDbEntity
  8
0-8
  6
JWW_CENTER1
 62
     7
370
     9
100
AcDbLine
 10
-688.1899332154819
 20
460.5641343906723
 30
0.0
 11
-598.762505430205
 21
460.5641343906723
 31
0.0
  0
LINE
  5
1BC
330
1F
100
AcDbEntity
  8
0-8
  6
Continuous
 62
     3
370
     9
100
AcDbLine
 10
-677.4761254135393
 20
366.5645319439875
 30
0.0
 11
-609.4760332716625
 21
366.5645319439875
 31
0.0
  0
LINE
  5
1BD
330
1F
100
AcDbEntity
  8
0-8
  6
Continuous
 62
     3
370
     9
100
AcDbLine
 10
-677.4761254135393
 20
354.5637457923223
 30
0.0
 11
-609.4760332716625
 21
354.5637457923223
 31
0.0
  0
LINE
  5
1BE
330
1F
100
AcDbEntity
  8
0-8
  6
JWW_CENTER1
 62
     7
370
     9
100
AcDbLine
 10
-643.4760443475403
 20
370.6049216640648
 30
0.0
 11
-643.4760443475403
 21
350.5230761117602
 31
0.0
  0
LINE
  5
1BF
330
1F
100
AcDbEntity
  8
0-8
  6
JWW_CENTER1
 62
     7
370
     9
100
AcDbLine
 10
-688.1899332154819
 20
360.5641388681551
 30
0.0
 11
-598.762505430205
 21
360.5641388681551
 31
0.0
  0
LINE
  5
1C0
330
1F
100
AcDbEntity
  8
0-8
  6
Continuous
 62
     3
370
     9
100
AcDbLine
 10
-567.4761513358064
 20
998.5643384696118
 30
0.0
 11
-567.4761513358064
 21
1022.564510970516
 31
0.0
  0
LINE
  5
1C1
330
1F
100
AcDbEntity
  8
0-8
  6
Continuous
 62
     3
370
     9
100
AcDbLine
 10
-571.4762267460382
 20
998.5643384696118
 30
0.0
 11
-571.4762267460382
 21
1022.564510970516
 31
0.0
  0
LINE
  5
1C2
330
1F
100
AcDbEntity
  8
0-8
  6
Continuous
 62
     3
370
     9
100
AcDbLine
 10
-563.4760759255747
 20
998.5643384696118
 30
0.0
 11
-563.4760759255747
 21
1022.564510970516
 31
0.0
  0
LINE
  5
1C3
330
1F
100
AcDbEntity
  8
0-8
  6
Continuous
 62
     3
370
     9
100
AcDbLine
 10
-559.4765604363133
 20
998.5643384696118
 30
0.0
 11
-559.4765604363133
 21
1022.564510970516
 31
0.0
  0
LINE
  5
1C4
330
1F
100
AcDbEntity
  8
0-8
  6
Continuous
 62
     3
370
     9
100
AcDbLine
 10
-555.4764850260815
 20
998.5643384696118
 30
0.0
 11
-555.4764850260815
 21
1022.564510970516
 31
0.0
  0
LINE
  5
1C5
330
1F
100
AcDbEntity
  8
0-8
  6
Continuous
 62
     3
370
     9
100
AcDbLine
 10
-575.4763021562699
 20
1014.564360150054
 30
0.0
 11
-551.4764096158499
 21
1014.564360150054
 31
0.0
  0
LINE
  5
1C6
330
1F
100
AcDbEntity
  8
0-8
  6
Continuous
 62
     3
370
     9
100
AcDbLine
 10
-575.4763021562699
 20
1018.564435560285
 30
0.0
 11
-551.4764096158499
 21
1018.564435560285
 31
0.0
  0
LINE
  5
1C7
330
1F
100
AcDbEntity
  8
0-8
  6
Continuous
 62
     3
370
     9
100
AcDbLine
 10
-575.4763021562699
 20
1010.564284739822
 30
0.0
 11
-551.4764096158499
 21
1010.564284739822
 31
0.0
  0
LINE
  5
1C8
330
1F
100
AcDbEntity
  8
0-8
  6
Continuous
 62
     3
370
     9
100
AcDbLine
 10
-575.4763021562699
 20
1006.564489290075
 30
0.0
 11
-551.4764096158499
 21
1006.564489290075
 31
0.0
  0
LINE
  5
1C9
330
1F
100
AcDbEntity
  8
0-8
  6
Continuous
 62
     3
370
     9
100
AcDbLine
 10
-575.4763021562699
 20
1002.564413879844
 30
0.0
 11
-551.4764096158499
 21
1002.564413879844
 31
0.0
  0
LINE
  5
1CA
330
1F
100
AcDbEntity
  8
0-8
  6
JWW_CENTER1
 62
     7
370
     9
100
AcDbLine
 10
-582.9064534291945
 20
1010.564284739822
 30
0.0
 11
-544.0462583429252
 21
1010.564284739822
 31
0.0
  0
LINE
  5
1CB
330
1F
100
AcDbEntity
  8
0-8
  6
Continuous
 62
     3
370
     9
100
AcDbLine
 10
-517.4761885696083
 20
966.5645750692136
 30
0.0
 11
-449.4760264376102
 21
966.5645750692136
 31
0.0
  0
LINE
  5
1CC
330
1F
100
AcDbEntity
  8
0-8
  6
Continuous
 62
     3
370
     9
100
AcDbLine
 10
-517.4761885696083
 20
954.5637889175487
 30
0.0
 11
-449.4760264376102
 21
954.5637889175487
 31
0.0
  0
LINE
  5
1CD
330
1F
100
AcDbEntity
  8
0-8
  6
JWW_CENTER1
 62
     7
370
     9
100
AcDbLine
 10
-483.4761075036093
 20
970.6049647892911
 30
0.0
 11
-483.4761075036093
 21
950.5231192369865
 31
0.0
  0
LINE
  5
1CE
330
1F
100
AcDbEntity
  8
0-8
  6
JWW_CENTER1
 62
     7
370
     9
100
AcDbLine
 10
-528.1899963715509
 20
960.5641819933811
 30
0.0
 11
-438.7624985961527
 21
960.5641819933811
 31
0.0
  0
LINE
  5
1CF
330
1F
100
AcDbEntity
  8
0-8
  6
Continuous
 62
     3
370
     9
100
AcDbLine
 10
-567.4761513358064
 20
898.564272956973
 30
0.0
 11
-567.4761513358064
 21
922.5644454578782
 31
0.0
  0
LINE
  5
1D0
330
1F
100
AcDbEntity
  8
0-8
  6
Continuous
 62
     3
370
     9
100
AcDbLine
 10
-571.4762267460382
 20
898.564272956973
 30
0.0
 11
-571.4762267460382
 21
922.5644454578782
 31
0.0
  0
LINE
  5
1D1
330
1F
100
AcDbEntity
  8
0-8
  6
Continuous
 62
     3
370
     9
100
AcDbLine
 10
-563.4760759255747
 20
898.564272956973
 30
0.0
 11
-563.4760759255747
 21
922.5644454578782
 31
0.0
  0
LINE
  5
1D2
330
1F
100
AcDbEntity
  8
0-8
  6
Continuous
 62
     3
370
     9
100
AcDbLine
 10
-559.4765604363133
 20
898.564272956973
 30
0.0
 11
-559.4765604363133
 21
922.5644454578782
 31
0.0
  0
LINE
  5
1D3
330
1F
100
AcDbEntity
  8
0-8
  6
Continuous
 62
     3
370
     9
100
AcDbLine
 10
-555.4764850260815
 20
898.564272956973
 30
0.0
 11
-555.4764850260815
 21
922.5644454578782
 31
0.0
  0
LINE
  5
1D4
330
1F
100
AcDbEntity
  8
0-8
  6
Continuous
 62
     3
370
     9
100
AcDbLine
 10
-575.4763021562699
 20
914.5642946374147
 30
0.0
 11
-551.4764096158499
 21
914.5642946374147
 31
0.0
  0
LINE
  5
1D5
330
1F
100
AcDbEntity
  8
0-8
  6
Continuous
 62
     3
370
     9
100
AcDbLine
 10
-575.4763021562699
 20
918.5643700476464
 30
0.0
 11
-551.4764096158499
 21
918.5643700476464
 31
0.0
  0
LINE
  5
1D6
330
1F
100
AcDbEntity
  8
0-8
  6
Continuous
 62
     3
370
     9
100
AcDbLine
 10
-575.4763021562699
 20
910.564219227183
 30
0.0
 11
-551.4764096158499
 21
910.564219227183
 31
0.0
  0
LINE
  5
1D7
330
1F
100
AcDbEntity
  8
0-8
  6
Continuous
 62
     3
370
     9
100
AcDbLine
 10
-575.4763021562699
 20
906.5644237774364
 30
0.0
 11
-551.4764096158499
 21
906.5644237774364
 31
0.0
  0
LINE
  5
1D8
330
1F
100
AcDbEntity
  8
0-8
  6
Continuous
 62
     3
370
     9
100
AcDbLine
 10
-575.4763021562699
 20
902.5643483672047
 30
0.0
 11
-551.4764096158499
 21
902.5643483672047
 31
0.0
  0
LINE
  5
1D9
330
1F
100
AcDbEntity
  8
0-8
  6
JWW_CENTER1
 62
     7
370
     9
100
AcDbLine
 10
-582.9064534291945
 20
910.564219227183
 30
0.0
 11
-544.0462583429252
 21
910.564219227183
 31
0.0
  0
LINE
  5
1DA
330
1F
100
AcDbEntity
  8
0-8
  6
Continuous
 62
     3
370
     9
100
AcDbLine
 10
-567.4761513358064
 20
798.5643474245768
 30
0.0
 11
-567.4761513358064
 21
822.5645199254816
 31
0.0
  0
LINE
  5
1DB
330
1F
100
AcDbEntity
  8
0-8
  6
Continuous
 62
     3
370
     9
100
AcDbLine
 10
-571.4762267460382
 20
798.5643474245768
 30
0.0
 11
-571.4762267460382
 21
822.5645199254816
 31
0.0
  0
LINE
  5
1DC
330
1F
100
AcDbEntity
  8
0-8
  6
Continuous
 62
     3
370
     9
100
AcDbLine
 10
-563.4760759255747
 20
798.5643474245768
 30
0.0
 11
-563.4760759255747
 21
822.5645199254816
 31
0.0
  0
LINE
  5
1DD
330
1F
100
AcDbEntity
  8
0-8
  6
Continuous
 62
     3
370
     9
100
AcDbLine
 10
-559.4765604363133
 20
798.5643474245768
 30
0.0
 11
-559.4765604363133
 21
822.5645199254816
 31
0.0
  0
LINE
  5
1DE
330
1F
100
AcDbEntity
  8
0-8
  6
Continuous
 62
     3
370
     9
100
AcDbLine
 10
-555.4764850260815
 20
798.5643474245768
 30
0.0
 11
-555.4764850260815
 21
822.5645199254816
 31
0.0
  0
LINE
  5
1DF
330
1F
100
AcDbEntity
  8
0-8
  6
Continuous
 62
     3
370
     9
100
AcDbLine
 10
-575.4763021562699
 20
814.5643691050185
 30
0.0
 11
-551.4764096158499
 21
814.5643691050185
 31
0.0
  0
LINE
  5
1E0
330
1F
100
AcDbEntity
  8
0-8
  6
Continuous
 62
     3
370
     9
100
AcDbLine
 10
-575.4763021562699
 20
818.5644445152502
 30
0.0
 11
-551.4764096158499
 21
818.5644445152502
 31
0.0
  0
LINE
  5
1E1
330
1F
100
AcDbEntity
  8
0-8
  6
Continuous
 62
     3
370
     9
100
AcDbLine
 10
-575.4763021562699
 20
810.5642936947868
 30
0.0
 11
-551.4764096158499
 21
810.5642936947868
 31
0.0
  0
LINE
  5
1E2
330
1F
100
AcDbEntity
  8
0-8
  6
Continuous
 62
     3
370
     9
100
AcDbLine
 10
-575.4763021562699
 20
806.5644982450402
 30
0.0
 11
-551.4764096158499
 21
806.5644982450402
 31
0.0
  0
LINE
  5
1E3
330
1F
100
AcDbEntity
  8
0-8
  6
Continuous
 62
     3
370
     9
100
AcDbLine
 10
-575.4763021562699
 20
802.5644228348085
 30
0.0
 11
-551.4764096158499
 21
802.5644228348085
 31
0.0
  0
LINE
  5
1E4
330
1F
100
AcDbEntity
  8
0-8
  6
JWW_CENTER1
 62
     7
370
     9
100
AcDbLine
 10
-582.9064534291945
 20
810.5642936947868
 30
0.0
 11
-544.0462583429252
 21
810.5642936947868
 31
0.0
  0
LINE
  5
1E5
330
1F
100
AcDbEntity
  8
0-8
  6
Continuous
 62
     3
370
     9
100
AcDbLine
 10
-567.4761513358064
 20
698.564281911938
 30
0.0
 11
-567.4761513358064
 21
722.5644544128431
 31
0.0
  0
LINE
  5
1E6
330
1F
100
AcDbEntity
  8
0-8
  6
Continuous
 62
     3
370
     9
100
AcDbLine
 10
-571.4762267460382
 20
698.564281911938
 30
0.0
 11
-571.4762267460382
 21
722.5644544128431
 31
0.0
  0
LINE
  5
1E7
330
1F
100
AcDbEntity
  8
0-8
  6
Continuous
 62
     3
370
     9
100
AcDbLine
 10
-563.4760759255747
 20
698.564281911938
 30
0.0
 11
-563.4760759255747
 21
722.5644544128431
 31
0.0
  0
LINE
  5
1E8
330
1F
100
AcDbEntity
  8
0-8
  6
Continuous
 62
     3
370
     9
100
AcDbLine
 10
-559.4765604363133
 20
698.564281911938
 30
0.0
 11
-559.4765604363133
 21
722.5644544128431
 31
0.0
  0
LINE
  5
1E9
330
1F
100
AcDbEntity
  8
0-8
  6
Continuous
 62
     3
370
     9
100
AcDbLine
 10
-555.4764850260815
 20
698.564281911938
 30
0.0
 11
-555.4764850260815
 21
722.5644544128431
 31
0.0
  0
LINE
  5
1EA
330
1F
100
AcDbEntity
  8
0-8
  6
Continuous
 62
     3
370
     9
100
AcDbLine
 10
-575.4763021562699
 20
714.5643035923797
 30
0.0
 11
-551.4764096158499
 21
714.5643035923797
 31
0.0
  0
LINE
  5
1EB
330
1F
100
AcDbEntity
  8
0-8
  6
Continuous
 62
     3
370
     9
100
AcDbLine
 10
-575.4763021562699
 20
718.5643790026114
 30
0.0
 11
-551.4764096158499
 21
718.5643790026114
 31
0.0
  0
LINE
  5
1EC
330
1F
100
AcDbEntity
  8
0-8
  6
Continuous
 62
     3
370
     9
100
AcDbLine
 10
-575.4763021562699
 20
710.564228182148
 30
0.0
 11
-551.4764096158499
 21
710.564228182148
 31
0.0
  0
LINE
  5
1ED
330
1F
100
AcDbEntity
  8
0-8
  6
Continuous
 62
     3
370
     9
100
AcDbLine
 10
-575.4763021562699
 20
706.5644327324014
 30
0.0
 11
-551.4764096158499
 21
706.5644327324014
 31
0.0
  0
LINE
  5
1EE
330
1F
100
AcDbEntity
  8
0-8
  6
Continuous
 62
     3
370
     9
100
AcDbLine
 10
-575.4763021562699
 20
702.5643573221697
 30
0.0
 11
-551.4764096158499
 21
702.5643573221697
 31
0.0
  0
LINE
  5
1EF
330
1F
100
AcDbEntity
  8
0-8
  6
JWW_CENTER1
 62
     7
370
     9
100
AcDbLine
 10
-582.9064534291945
 20
710.564228182148
 30
0.0
 11
-544.0462583429252
 21
710.564228182148
 31
0.0
  0
LINE
  5
1F0
330
1F
100
AcDbEntity
  8
0-8
  6
Continuous
 62
     3
370
     9
100
AcDbLine
 10
-567.4761513358064
 20
598.5643563795418
 30
0.0
 11
-567.4761513358064
 21
622.5645288804469
 31
0.0
  0
LINE
  5
1F1
330
1F
100
AcDbEntity
  8
0-8
  6
Continuous
 62
     3
370
     9
100
AcDbLine
 10
-571.4762267460382
 20
598.5643563795418
 30
0.0
 11
-571.4762267460382
 21
622.5645288804469
 31
0.0
  0
LINE
  5
1F2
330
1F
100
AcDbEntity
  8
0-8
  6
Continuous
 62
     3
370
     9
100
AcDbLine
 10
-563.4760759255747
 20
598.5643563795418
 30
0.0
 11
-563.4760759255747
 21
622.5645288804469
 31
0.0
  0
LINE
  5
1F3
330
1F
100
AcDbEntity
  8
0-8
  6
Continuous
 62
     3
370
     9
100
AcDbLine
 10
-559.4765604363133
 20
598.5643563795418
 30
0.0
 11
-559.4765604363133
 21
622.5645288804469
 31
0.0
  0
LINE
  5
1F4
330
1F
100
AcDbEntity
  8
0-8
  6
Continuous
 62
     3
370
     9
100
AcDbLine
 10
-555.4764850260815
 20
598.5643563795418
 30
0.0
 11
-555.4764850260815
 21
622.5645288804469
 31
0.0
  0
LINE
  5
1F5
330
1F
100
AcDbEntity
  8
0-8
  6
Continuous
 62
     3
370
     9
100
AcDbLine
 10
-575.4763021562699
 20
614.5643780599835
 30
0.0
 11
-551.4764096158499
 21
614.5643780599835
 31
0.0
  0
LINE
  5
1F6
330
1F
100
AcDbEntity
  8
0-8
  6
Continuous
 62
     3
370
     9
100
AcDbLine
 10
-575.4763021562699
 20
618.5644534702152
 30
0.0
 11
-551.4764096158499
 21
618.5644534702152
 31
0.0
  0
LINE
  5
1F7
330
1F
100
AcDbEntity
  8
0-8
  6
Continuous
 62
     3
370
     9
100
AcDbLine
 10
-575.4763021562699
 20
610.5643026497518
 30
0.0
 11
-551.4764096158499
 21
610.5643026497518
 31
0.0
  0
LINE
  5
1F8
330
1F
100
AcDbEntity
  8
0-8
  6
Continuous
 62
     3
370
     9
100
AcDbLine
 10
-575.4763021562699
 20
606.5645072000052
 30
0.0
 11
-551.4764096158499
 21
606.5645072000052
 31
0.0
  0
LINE
  5
1F9
330
1F
100
AcDbEntity
  8
0-8
  6
Continuous
 62
     3
370
     9
100
AcDbLine
 10
-575.4763021562699
 20
602.5644317897735
 30
0.0
 11
-551.4764096158499
 21
602.5644317897735
 31
0.0
  0
LINE
  5
1FA
330
1F
100
AcDbEntity
  8
0-8
  6
JWW_CENTER1
 62
     7
370
     9
100
AcDbLine
 10
-582.9064534291945
 20
610.5643026497518
 30
0.0
 11
-544.0462583429252
 21
610.5643026497518
 31
0.0
  0
LINE
  5
1FB
330
1F
100
AcDbEntity
  8
0-8
  6
Continuous
 62
     3
370
     9
100
AcDbLine
 10
-567.4761513358064
 20
498.564290866903
 30
0.0
 11
-567.4761513358064
 21
522.5644633678081
 31
0.0
  0
LINE
  5
1FC
330
1F
100
AcDbEntity
  8
0-8
  6
Continuous
 62
     3
370
     9
100
AcDbLine
 10
-571.4762267460382
 20
498.564290866903
 30
0.0
 11
-571.4762267460382
 21
522.5644633678081
 31
0.0
  0
LINE
  5
1FD
330
1F
100
AcDbEntity
  8
0-8
  6
Continuous
 62
     3
370
     9
100
AcDbLine
 10
-563.4760759255747
 20
498.564290866903
 30
0.0
 11
-563.4760759255747
 21
522.5644633678081
 31
0.0
  0
LINE
  5
1FE
330
1F
100
AcDbEntity
  8
0-8
  6
Continuous
 62
     3
370
     9
100
AcDbLine
 10
-559.4765604363133
 20
498.564290866903
 30
0.0
 11
-559.4765604363133
 21
522.5644633678081
 31
0.0
  0
LINE
  5
1FF
330
1F
100
AcDbEntity
  8
0-8
  6
Continuous
 62
     3
370
     9
100
AcDbLine
 10
-555.4764850260815
 20
498.564290866903
 30
0.0
 11
-555.4764850260815
 21
522.5644633678081
 31
0.0
  0
LINE
  5
200
330
1F
100
AcDbEntity
  8
0-8
  6
Continuous
 62
     3
370
     9
100
AcDbLine
 10
-575.4763021562699
 20
514.5643125473447
 30
0.0
 11
-551.4764096158499
 21
514.5643125473447
 31
0.0
  0
LINE
  5
201
330
1F
100
AcDbEntity
  8
0-8
  6
Continuous
 62
     3
370
     9
100
AcDbLine
 10
-575.4763021562699
 20
518.5643879575764
 30
0.0
 11
-551.4764096158499
 21
518.5643879575764
 31
0.0
  0
LINE
  5
202
330
1F
100
AcDbEntity
  8
0-8
  6
Continuous
 62
     3
370
     9
100
AcDbLine
 10
-575.4763021562699
 20
510.564237137113
 30
0.0
 11
-551.4764096158499
 21
510.564237137113
 31
0.0
  0
LINE
  5
203
330
1F
100
AcDbEntity
  8
0-8
  6
Continuous
 62
     3
370
     9
100
AcDbLine
 10
-575.4763021562699
 20
506.5644416873664
 30
0.0
 11
-551.4764096158499
 21
506.5644416873664
 31
0.0
  0
LINE
  5
204
330
1F
100
AcDbEntity
  8
0-8
  6
Continuous
 62
     3
370
     9
100
AcDbLine
 10
-575.4763021562699
 20
502.5643662771347
 30
0.0
 11
-551.4764096158499
 21
502.5643662771347
 31
0.0
  0
LINE
  5
205
330
1F
100
AcDbEntity
  8
0-8
  6
JWW_CENTER1
 62
     7
370
     9
100
AcDbLine
 10
-582.9064534291945
 20
510.564237137113
 30
0.0
 11
-544.0462583429252
 21
510.564237137113
 31
0.0
  0
LINE
  5
206
330
1F
100
AcDbEntity
  8
0-8
  6
Continuous
 62
     3
370
     9
100
AcDbLine
 10
-567.4761513358064
 20
398.5642953443858
 30
0.0
 11
-567.4761513358064
 21
422.5644678452906
 31
0.0
  0
LINE
  5
207
330
1F
100
AcDbEntity
  8
0-8
  6
Continuous
 62
     3
370
     9
100
AcDbLine
 10
-571.4762267460382
 20
398.5642953443858
 30
0.0
 11
-571.4762267460382
 21
422.5644678452906
 31
0.0
  0
LINE
  5
208
330
1F
100
AcDbEntity
  8
0-8
  6
Continuous
 62
     3
370
     9
100
AcDbLine
 10
-563.4760759255747
 20
398.5642953443858
 30
0.0
 11
-563.4760759255747
 21
422.5644678452906
 31
0.0
  0
LINE
  5
209
330
1F
100
AcDbEntity
  8
0-8
  6
Continuous
 62
     3
370
     9
100
AcDbLine
 10
-559.4765604363133
 20
398.5642953443858
 30
0.0
 11
-559.4765604363133
 21
422.5644678452906
 31
0.0
  0
LINE
  5
20A
330
1F
100
AcDbEntity
  8
0-8
  6
Continuous
 62
     3
370
     9
100
AcDbLine
 10
-555.4764850260815
 20
398.5642953443858
 30
0.0
 11
-555.4764850260815
 21
422.5644678452906
 31
0.0
  0
LINE
  5
20B
330
1F
100
AcDbEntity
  8
0-8
  6
Continuous
 62
     3
370
     9
100
AcDbLine
 10
-575.4763021562699
 20
414.5643170248272
 30
0.0
 11
-551.4764096158499
 21
414.5643170248272
 31
0.0
  0
LINE
  5
20C
330
1F
100
AcDbEntity
  8
0-8
  6
Continuous
 62
     3
370
     9
100
AcDbLine
 10
-575.4763021562699
 20
418.5643924350589
 30
0.0
 11
-551.4764096158499
 21
418.5643924350589
 31
0.0
  0
LINE
  5
20D
330
1F
100
AcDbEntity
  8
0-8
  6
Continuous
 62
     3
370
     9
100
AcDbLine
 10
-575.4763021562699
 20
410.5642416145955
 30
0.0
 11
-551.4764096158499
 21
410.5642416145955
 31
0.0
  0
LINE
  5
20E
330
1F
100
AcDbEntity
  8
0-8
  6
Continuous
 62
     3
370
     9
100
AcDbLine
 10
-575.4763021562699
 20
406.5644461648489
 30
0.0
 11
-551.4764096158499
 21
406.5644461648489
 31
0.0
  0
LINE
  5
20F
330
1F
100
AcDbEntity
  8
0-8
  6
Continuous
 62
     3
370
     9
100
AcDbLine
 10
-575.4763021562699
 20
402.5643707546172
 30
0.0
 11
-551.4764096158499
 21
402.5643707546172
 31
0.0
  0
LINE
  5
210
330
1F
100
AcDbEntity
  8
0-8
  6
JWW_CENTER1
 62
     7
370
     9
100
AcDbLine
 10
-582.9064534291945
 20
410.5642416145955
 30
0.0
 11
-544.0462583429252
 21
410.5642416145955
 31
0.0
  0
LINE
  5
211
330
1F
100
AcDbEntity
  8
0-8
  6
Continuous
 62
     3
370
     9
100
AcDbLine
 10
-567.4761513358064
 20
298.564299821868
 30
0.0
 11
-567.4761513358064
 21
322.5644723227731
 31
0.0
  0
LINE
  5
212
330
1F
100
AcDbEntity
  8
0-8
  6
Continuous
 62
     3
370
     9
100
AcDbLine
 10
-571.4762267460382
 20
298.564299821868
 30
0.0
 11
-571.4762267460382
 21
322.5644723227731
 31
0.0
  0
LINE
  5
213
330
1F
100
AcDbEntity
  8
0-8
  6
Continuous
 62
     3
370
     9
100
AcDbLine
 10
-563.4760759255747
 20
298.564299821868
 30
0.0
 11
-563.4760759255747
 21
322.5644723227731
 31
0.0
  0
LINE
  5
214
330
1F
100
AcDbEntity
  8
0-8
  6
Continuous
 62
     3
370
     9
100
AcDbLine
 10
-559.4765604363133
 20
298.564299821868
 30
0.0
 11
-559.4765604363133
 21
322.5644723227731
 31
0.0
  0
LINE
  5
215
330
1F
100
AcDbEntity
  8
0-8
  6
Continuous
 62
     3
370
     9
100
AcDbLine
 10
-555.4764850260815
 20
298.564299821868
 30
0.0
 11
-555.4764850260815
 21
322.5644723227731
 31
0.0
  0
LINE
  5
216
330
1F
100
AcDbEntity
  8
0-8
  6
Continuous
 62
     3
370
     9
100
AcDbLine
 10
-575.4763021562699
 20
314.5643215023097
 30
0.0
 11
-551.4764096158499
 21
314.5643215023097
 31
0.0
  0
LINE
  5
217
330
1F
100
AcDbEntity
  8
0-8
  6
Continuous
 62
     3
370
     9
100
AcDbLine
 10
-575.4763021562699
 20
318.5643969125414
 30
0.0
 11
-551.4764096158499
 21
318.5643969125414
 31
0.0
  0
LINE
  5
218
330
1F
100
AcDbEntity
  8
0-8
  6
Continuous
 62
     3
370
     9
100
AcDbLine
 10
-575.4763021562699
 20
310.564246092078
 30
0.0
 11
-551.4764096158499
 21
310.564246092078
 31
0.0
  0
LINE
  5
219
330
1F
100
AcDbEntity
  8
0-8
  6
Continuous
 62
     3
370
     9
100
AcDbLine
 10
-575.4763021562699
 20
306.5644506423314
 30
0.0
 11
-551.4764096158499
 21
306.5644506423314
 31
0.0
  0
LINE
  5
21A
330
1F
100
AcDbEntity
  8
0-8
  6
Continuous
 62
     3
370
     9
100
AcDbLine
 10
-575.4763021562699
 20
302.5643752320997
 30
0.0
 11
-551.4764096158499
 21
302.5643752320997
 31
0.0
  0
LINE
  5
21B
330
1F
100
AcDbEntity
  8
0-8
  6
JWW_CENTER1
 62
     7
370
     9
100
AcDbLine
 10
-582.9064534291945
 20
310.564246092078
 30
0.0
 11
-544.0462583429252
 21
310.564246092078
 31
0.0
  0
LINE
  5
21C
330
1F
100
AcDbEntity
  8
0-8
  6
Continuous
 62
     3
370
     9
100
AcDbLine
 10
-517.4761885696083
 20
866.5645095565748
 30
0.0
 11
-449.4760264376102
 21
866.5645095565748
 31
0.0
  0
LINE
  5
21D
330
1F
100
AcDbEntity
  8
0-8
  6
Continuous
 62
     3
370
     9
100
AcDbLine
 10
-517.4761885696083
 20
854.5637234049099
 30
0.0
 11
-449.4760264376102
 21
854.5637234049099
 31
0.0
  0
LINE
  5
21E
330
1F
100
AcDbEntity
  8
0-8
  6
JWW_CENTER1
 62
     7
370
     9
100
AcDbLine
 10
-483.4761075036093
 20
870.6048992766523
 30
0.0
 11
-483.4761075036093
 21
850.5230537243477
 31
0.0
  0
LINE
  5
21F
330
1F
100
AcDbEntity
  8
0-8
  6
JWW_CENTER1
 62
     7
370
     9
100
AcDbLine
 10
-528.1899963715509
 20
860.5641164807423
 30
0.0
 11
-438.7624985961527
 21
860.5641164807423
 31
0.0
  0
LINE
  5
220
330
1F
100
AcDbEntity
  8
0-8
  6
Continuous
 62
     3
370
     9
100
AcDbLine
 10
-517.4761885696083
 20
766.5645840241785
 30
0.0
 11
-449.4760264376102
 21
766.5645840241785
 31
0.0
  0
LINE
  5
221
330
1F
100
AcDbEntity
  8
0-8
  6
Continuous
 62
     3
370
     9
100
AcDbLine
 10
-517.4761885696083
 20
754.5637978725136
 30
0.0
 11
-449.4760264376102
 21
754.5637978725136
 31
0.0
  0
LINE
  5
222
330
1F
100
AcDbEntity
  8
0-8
  6
JWW_CENTER1
 62
     7
370
     9
100
AcDbLine
 10
-483.4761075036093
 20
770.6049737442561
 30
0.0
 11
-483.4761075036093
 21
750.5231281919512
 31
0.0
  0
LINE
  5
223
330
1F
100
AcDbEntity
  8
0-8
  6
JWW_CENTER1
 62
     7
370
     9
100
AcDbLine
 10
-528.1899963715509
 20
760.5641909483461
 30
0.0
 11
-438.7624985961527
 21
760.5641909483461
 31
0.0
  0
LINE
  5
224
330
1F
100
AcDbEntity
  8
0-8
  6
Continuous
 62
     3
370
     9
100
AcDbLine
 10
-517.4761885696083
 20
666.5645185115397
 30
0.0
 11
-449.4760264376102
 21
666.5645185115397
 31
0.0
  0
LINE
  5
225
330
1F
100
AcDbEntity
  8
0-8
  6
Continuous
 62
     3
370
     9
100
AcDbLine
 10
-517.4761885696083
 20
654.5637323598748
 30
0.0
 11
-449.4760264376102
 21
654.5637323598748
 31
0.0
  0
LINE
  5
226
330
1F
100
AcDbEntity
  8
0-8
  6
JWW_CENTER1
 62
     7
370
     9
100
AcDbLine
 10
-483.4761075036093
 20
670.604908231617
 30
0.0
 11
-483.4761075036093
 21
650.5230626793127
 31
0.0
  0
LINE
  5
227
330
1F
100
AcDbEntity
  8
0-8
  6
Continuous
 62
     3
370
     9
100
AcDbLine
 10
-517.4761885696083
 20
566.5645929791435
 30
0.0
 11
-449.4760264376102
 21
566.5645929791435
 31
0.0
  0
LINE
  5
228
330
1F
100
AcDbEntity
  8
0-8
  6
Continuous
 62
     3
370
     9
100
AcDbLine
 10
-517.4761885696083
 20
554.5638068274786
 30
0.0
 11
-449.4760264376102
 21
554.5638068274786
 31
0.0
  0
LINE
  5
229
330
1F
100
AcDbEntity
  8
0-8
  6
JWW_CENTER1
 62
     7
370
     9
100
AcDbLine
 10
-483.4761075036093
 20
570.6049826992207
 30
0.0
 11
-483.4761075036093
 21
550.5231371469165
 31
0.0
  0
LINE
  5
22A
330
1F
100
AcDbEntity
  8
0-8
  6
JWW_CENTER1
 62
     7
370
     9
100
AcDbLine
 10
-528.1899963715509
 20
560.5641999033111
 30
0.0
 11
-438.7624985961527
 21
560.5641999033111
 31
0.0
  0
LINE
  5
22B
330
1F
100
AcDbEntity
  8
0-8
  6
Continuous
 62
     3
370
     9
100
AcDbLine
 10
-517.4761885696083
 20
466.564527466505
 30
0.0
 11
-449.4760264376102
 21
466.564527466505
 31
0.0
  0
LINE
  5
22C
330
1F
100
AcDbEntity
  8
0-8
  6
Continuous
 62
     3
370
     9
100
AcDbLine
 10
-517.4761885696083
 20
454.5637413148398
 30
0.0
 11
-449.4760264376102
 21
454.5637413148398
 31
0.0
  0
LINE
  5
22D
330
1F
100
AcDbEntity
  8
0-8
  6
JWW_CENTER1
 62
     7
370
     9
100
AcDbLine
 10
-483.4761075036093
 20
470.6049171865823
 30
0.0
 11
-483.4761075036093
 21
450.5230716342777
 31
0.0
  0
LINE
  5
22E
330
1F
100
AcDbEntity
  8
0-8
  6
JWW_CENTER1
 62
     7
370
     9
100
AcDbLine
 10
-528.1899963715509
 20
460.5641343906723
 30
0.0
 11
-438.7624985961527
 21
460.5641343906723
 31
0.0
  0
LINE
  5
22F
330
1F
100
AcDbEntity
  8
0-8
  6
Continuous
 62
     3
370
     9
100
AcDbLine
 10
-517.4761885696083
 20
366.5645319439875
 30
0.0
 11
-449.4760264376102
 21
366.5645319439875
 31
0.0
  0
LINE
  5
230
330
1F
100
AcDbEntity
  8
0-8
  6
Continuous
 62
     3
370
     9
100
AcDbLine
 10
-517.4761885696083
 20
354.5637457923223
 30
0.0
 11
-449.4760264376102
 21
354.5637457923223
 31
0.0
  0
LINE
  5
231
330
1F
100
AcDbEntity
  8
0-8
  6
JWW_CENTER1
 62
     7
370
     9
100
AcDbLine
 10
-483.4761075036093
 20
370.6049216640648
 30
0.0
 11
-483.4761075036093
 21
350.5230761117602
 31
0.0
  0
LINE
  5
232
330
1F
100
AcDbEntity
  8
0-8
  6
JWW_CENTER1
 62
     7
370
     9
100
AcDbLine
 10
-528.1899963715509
 20
360.5641388681551
 30
0.0
 11
-438.7624985961527
 21
360.5641388681551
 31
0.0
  0
LINE
  5
233
330
1F
100
AcDbEntity
  8
0-8
  6
Continuous
 62
     3
370
     9
100
AcDbLine
 10
-407.4761445017543
 20
998.5643384696118
 30
0.0
 11
-407.4761445017543
 21
1022.564510970516
 31
0.0
  0
LINE
  5
234
330
1F
100
AcDbEntity
  8
0-8
  6
Continuous
 62
     3
370
     9
100
AcDbLine
 10
-411.4762199119858
 20
998.5643384696118
 30
0.0
 11
-411.4762199119858
 21
1022.564510970516
 31
0.0
  0
LINE
  5
235
330
1F
100
AcDbEntity
  8
0-8
  6
Continuous
 62
     3
370
     9
100
AcDbLine
 10
-403.4760690915226
 20
998.5643384696118
 30
0.0
 11
-403.4760690915226
 21
1022.564510970516
 31
0.0
  0
LINE
  5
236
330
1F
100
AcDbEntity
  8
0-8
  6
Continuous
 62
     3
370
     9
100
AcDbLine
 10
-399.476553602261
 20
998.5643384696118
 30
0.0
 11
-399.476553602261
 21
1022.564510970516
 31
0.0
  0
LINE
  5
237
330
1F
100
AcDbEntity
  8
0-8
  6
Continuous
 62
     3
370
     9
100
AcDbLine
 10
-395.4764781920293
 20
998.5643384696118
 30
0.0
 11
-395.4764781920293
 21
1022.564510970516
 31
0.0
  0
LINE
  5
238
330
1F
100
AcDbEntity
  8
0-8
  6
Continuous
 62
     3
370
     9
100
AcDbLine
 10
-415.4762953222175
 20
1014.564360150054
 30
0.0
 11
-391.4764027817977
 21
1014.564360150054
 31
0.0
  0
LINE
  5
239
330
1F
100
AcDbEntity
  8
0-8
  6
Continuous
 62
     3
370
     9
100
AcDbLine
 10
-415.4762953222175
 20
1018.564435560285
 30
0.0
 11
-391.4764027817977
 21
1018.564435560285
 31
0.0
  0
LINE
  5
23A
330
1F
100
AcDbEntity
  8
0-8
  6
Continuous
 62
     3
370
     9
100
AcDbLine
 10
-415.4762953222175
 20
1010.564284739822
 30
0.0
 11
-391.4764027817977
 21
1010.564284739822
 31
0.0
  0
LINE
  5
23B
330
1F
100
AcDbEntity
  8
0-8
  6
Continuous
 62
     3
370
     9
100
AcDbLine
 10
-415.4762953222175
 20
1006.564489290075
 30
0.0
 11
-391.4764027817977
 21
1006.564489290075
 31
0.0
  0
LINE
  5
23C
330
1F
100
AcDbEntity
  8
0-8
  6
Continuous
 62
     3
370
     9
100
AcDbLine
 10
-415.4762953222175
 20
1002.564413879844
 30
0.0
 11
-391.4764027817977
 21
1002.564413879844
 31
0.0
  0
LINE
  5
23D
330
1F
100
AcDbEntity
  8
0-8
  6
JWW_CENTER1
 62
     7
370
     9
100
AcDbLine
 10
-422.9064465951423
 20
1010.564284739822
 30
0.0
 11
-384.046251508873
 21
1010.564284739822
 31
0.0
  0
LINE
  5
23E
330
1F
100
AcDbEntity
  8
0-8
  6
JWW_CENTER1
 62
     7
370
     9
100
AcDbLine
 10
-403.4760690915226
 20
991.1341871966869
 30
0.0
 11
-403.4760690915226
 21
1029.994662243441
 31
0.0
  0
LINE
  5
23F
330
1F
100
AcDbEntity
  8
0-8
  6
Continuous
 62
     3
370
     9
100
AcDbLine
 10
-357.4761117454349
 20
966.5645750692136
 30
0.0
 11
-289.4760196035579
 21
966.5645750692136
 31
0.0
  0
LINE
  5
240
330
1F
100
AcDbEntity
  8
0-8
  6
Continuous
 62
     3
370
     9
100
AcDbLine
 10
-357.4761117454349
 20
954.5637889175487
 30
0.0
 11
-289.4760196035579
 21
954.5637889175487
 31
0.0
  0
LINE
  5
241
330
1F
100
AcDbEntity
  8
0-8
  6
JWW_CENTER1
 62
     7
370
     9
100
AcDbLine
 10
-323.4760306794358
 20
970.6049647892911
 30
0.0
 11
-323.4760306794358
 21
950.5231192369865
 31
0.0
  0
LINE
  5
242
330
1F
100
AcDbEntity
  8
0-8
  6
JWW_CENTER1
 62
     7
370
     9
100
AcDbLine
 10
-368.1899195473774
 20
960.5641819933811
 30
0.0
 11
-278.7624917621006
 21
960.5641819933811
 31
0.0
  0
LINE
  5
243
330
1F
100
AcDbEntity
  8
0-8
  6
Continuous
 62
     3
370
     9
100
AcDbLine
 10
-407.4761445017543
 20
898.564272956973
 30
0.0
 11
-407.4761445017543
 21
922.5644454578782
 31
0.0
  0
LINE
  5
244
330
1F
100
AcDbEntity
  8
0-8
  6
Continuous
 62
     3
370
     9
100
AcDbLine
 10
-411.4762199119858
 20
898.564272956973
 30
0.0
 11
-411.4762199119858
 21
922.5644454578782
 31
0.0
  0
LINE
  5
245
330
1F
100
AcDbEntity
  8
0-8
  6
Continuous
 62
     3
370
     9
100
AcDbLine
 10
-403.4760690915226
 20
898.564272956973
 30
0.0
 11
-403.4760690915226
 21
922.5644454578782
 31
0.0
  0
LINE
  5
246
330
1F
100
AcDbEntity
  8
0-8
  6
Continuous
 62
     3
370
     9
100
AcDbLine
 10
-399.476553602261
 20
898.564272956973
 30
0.0
 11
-399.476553602261
 21
922.5644454578782
 31
0.0
  0
LINE
  5
247
330
1F
100
AcDbEntity
  8
0-8
  6
Continuous
 62
     3
370
     9
100
AcDbLine
 10
-395.4764781920293
 20
898.564272956973
 30
0.0
 11
-395.4764781920293
 21
922.5644454578782
 31
0.0
  0
LINE
  5
248
330
1F
100
AcDbEntity
  8
0-8
  6
Continuous
 62
     3
370
     9
100
AcDbLine
 10
-415.4762953222175
 20
914.5642946374147
 30
0.0
 11
-391.4764027817977
 21
914.5642946374147
 31
0.0
  0
LINE
  5
249
330
1F
100
AcDbEntity
  8
0-8
  6
Continuous
 62
     3
370
     9
100
AcDbLine
 10
-415.4762953222175
 20
918.5643700476464
 30
0.0
 11
-391.4764027817977
 21
918.5643700476464
 31
0.0
  0
LINE
  5
24A
330
1F
100
AcDbEntity
  8
0-8
  6
Continuous
 62
     3
370
     9
100
AcDbLine
 10
-415.4762953222175
 20
910.564219227183
 30
0.0
 11
-391.4764027817977
 21
910.564219227183
 31
0.0
  0
LINE
  5
24B
330
1F
100
AcDbEntity
  8
0-8
  6
Continuous
 62
     3
370
     9
100
AcDbLine
 10
-415.4762953222175
 20
906.5644237774364
 30
0.0
 11
-391.4764027817977
 21
906.5644237774364
 31
0.0
  0
LINE
  5
24C
330
1F
100
AcDbEntity
  8
0-8
  6
Continuous
 62
     3
370
     9
100
AcDbLine
 10
-415.4762953222175
 20
902.5643483672047
 30
0.0
 11
-391.4764027817977
 21
902.5643483672047
 31
0.0
  0
LINE
  5
24D
330
1F
100
AcDbEntity
  8
0-8
  6
JWW_CENTER1
 62
     7
370
     9
100
AcDbLine
 10
-422.9064465951423
 20
910.564219227183
 30
0.0
 11
-384.046251508873
 21
910.564219227183
 31
0.0
  0
LINE
  5
24E
330
1F
100
AcDbEntity
  8
0-8
  6
JWW_CENTER1
 62
     7
370
     9
100
AcDbLine
 10
-403.4760690915226
 20
891.1341216840486
 30
0.0
 11
-403.4760690915226
 21
929.9945967308025
 31
0.0
  0
LINE
  5
24F
330
1F
100
AcDbEntity
  8
0-8
  6
Continuous
 62
     3
370
     9
100
AcDbLine
 10
-407.4761445017543
 20
798.5643474245768
 30
0.0
 11
-407.4761445017543
 21
822.5645199254816
 31
0.0
  0
LINE
  5
250
330
1F
100
AcDbEntity
  8
0-8
  6
Continuous
 62
     3
370
     9
100
AcDbLine
 10
-411.4762199119858
 20
798.5643474245768
 30
0.0
 11
-411.4762199119858
 21
822.5645199254816
 31
0.0
  0
LINE
  5
251
330
1F
100
AcDbEntity
  8
0-8
  6
Continuous
 62
     3
370
     9
100
AcDbLine
 10
-403.4760690915226
 20
798.5643474245768
 30
0.0
 11
-403.4760690915226
 21
822.5645199254816
 31
0.0
  0
LINE
  5
252
330
1F
100
AcDbEntity
  8
0-8
  6
Continuous
 62
     3
370
     9
100
AcDbLine
 10
-399.476553602261
 20
798.5643474245768
 30
0.0
 11
-399.476553602261
 21
822.5645199254816
 31
0.0
  0
LINE
  5
253
330
1F
100
AcDbEntity
  8
0-8
  6
Continuous
 62
     3
370
     9
100
AcDbLine
 10
-395.4764781920293
 20
798.5643474245768
 30
0.0
 11
-395.4764781920293
 21
822.5645199254816
 31
0.0
  0
LINE
  5
254
330
1F
100
AcDbEntity
  8
0-8
  6
Continuous
 62
     3
370
     9
100
AcDbLine
 10
-415.4762953222175
 20
814.5643691050185
 30
0.0
 11
-391.4764027817977
 21
814.5643691050185
 31
0.0
  0
LINE
  5
255
330
1F
100
AcDbEntity
  8
0-8
  6
Continuous
 62
     3
370
     9
100
AcDbLine
 10
-415.4762953222175
 20
818.5644445152502
 30
0.0
 11
-391.4764027817977
 21
818.5644445152502
 31
0.0
  0
LINE
  5
256
330
1F
100
AcDbEntity
  8
0-8
  6
Continuous
 62
     3
370
     9
100
AcDbLine
 10
-415.4762953222175
 20
810.5642936947868
 30
0.0
 11
-391.4764027817977
 21
810.5642936947868
 31
0.0
  0
LINE
  5
257
330
1F
100
AcDbEntity
  8
0-8
  6
Continuous
 62
     3
370
     9
100
AcDbLine
 10
-415.4762953222175
 20
806.5644982450402
 30
0.0
 11
-391.4764027817977
 21
806.5644982450402
 31
0.0
  0
LINE
  5
258
330
1F
100
AcDbEntity
  8
0-8
  6
Continuous
 62
     3
370
     9
100
AcDbLine
 10
-415.4762953222175
 20
802.5644228348085
 30
0.0
 11
-391.4764027817977
 21
802.5644228348085
 31
0.0
  0
LINE
  5
259
330
1F
100
AcDbEntity
  8
0-8
  6
JWW_CENTER1
 62
     7
370
     9
100
AcDbLine
 10
-422.9064465951423
 20
810.5642936947868
 30
0.0
 11
-384.046251508873
 21
810.5642936947868
 31
0.0
  0
LINE
  5
25A
330
1F
100
AcDbEntity
  8
0-8
  6
JWW_CENTER1
 62
     7
370
     9
100
AcDbLine
 10
-403.4760690915226
 20
791.1341961516521
 30
0.0
 11
-403.4760690915226
 21
829.9946711984063
 31
0.0
  0
LINE
  5
25B
330
1F
100
AcDbEntity
  8
0-8
  6
Continuous
 62
     3
370
     9
100
AcDbLine
 10
-407.4761445017543
 20
698.564281911938
 30
0.0
 11
-407.4761445017543
 21
722.5644544128431
 31
0.0
  0
LINE
  5
25C
330
1F
100
AcDbEntity
  8
0-8
  6
Continuous
 62
     3
370
     9
100
AcDbLine
 10
-411.4762199119858
 20
698.564281911938
 30
0.0
 11
-411.4762199119858
 21
722.5644544128431
 31
0.0
  0
LINE
  5
25D
330
1F
100
AcDbEntity
  8
0-8
  6
Continuous
 62
     3
370
     9
100
AcDbLine
 10
-403.4760690915226
 20
698.564281911938
 30
0.0
 11
-403.4760690915226
 21
722.5644544128431
 31
0.0
  0
LINE
  5
25E
330
1F
100
AcDbEntity
  8
0-8
  6
Continuous
 62
     3
370
     9
100
AcDbLine
 10
-399.476553602261
 20
698.564281911938
 30
0.0
 11
-399.476553602261
 21
722.5644544128431
 31
0.0
  0
LINE
  5
25F
330
1F
100
AcDbEntity
  8
0-8
  6
Continuous
 62
     3
370
     9
100
AcDbLine
 10
-395.4764781920293
 20
698.564281911938
 30
0.0
 11
-395.4764781920293
 21
722.5644544128431
 31
0.0
  0
LINE
  5
260
330
1F
100
AcDbEntity
  8
0-8
  6
Continuous
 62
     3
370
     9
100
AcDbLine
 10
-415.4762953222175
 20
714.5643035923797
 30
0.0
 11
-391.4764027817977
 21
714.5643035923797
 31
0.0
  0
LINE
  5
261
330
1F
100
AcDbEntity
  8
0-8
  6
Continuous
 62
     3
370
     9
100
AcDbLine
 10
-415.4762953222175
 20
718.5643790026114
 30
0.0
 11
-391.4764027817977
 21
718.5643790026114
 31
0.0
  0
LINE
  5
262
330
1F
100
AcDbEntity
  8
0-8
  6
Continuous
 62
     3
370
     9
100
AcDbLine
 10
-415.4762953222175
 20
710.564228182148
 30
0.0
 11
-391.4764027817977
 21
710.564228182148
 31
0.0
  0
LINE
  5
263
330
1F
100
AcDbEntity
  8
0-8
  6
Continuous
 62
     3
370
     9
100
AcDbLine
 10
-415.4762953222175
 20
706.5644327324014
 30
0.0
 11
-391.4764027817977
 21
706.5644327324014
 31
0.0
  0
LINE
  5
264
330
1F
100
AcDbEntity
  8
0-8
  6
Continuous
 62
     3
370
     9
100
AcDbLine
 10
-415.4762953222175
 20
702.5643573221697
 30
0.0
 11
-391.4764027817977
 21
702.5643573221697
 31
0.0
  0
LINE
  5
265
330
1F
100
AcDbEntity
  8
0-8
  6
JWW_CENTER1
 62
     7
370
     9
100
AcDbLine
 10
-422.9064465951423
 20
710.564228182148
 30
0.0
 11
-384.046251508873
 21
710.564228182148
 31
0.0
  0
LINE
  5
266
330
1F
100
AcDbEntity
  8
0-8
  6
JWW_CENTER1
 62
     7
370
     9
100
AcDbLine
 10
-403.4760690915226
 20
691.1341306390134
 30
0.0
 11
-403.4760690915226
 21
729.9946056857675
 31
0.0
  0
LINE
  5
267
330
1F
100
AcDbEntity
  8
0-8
  6
Continuous
 62
     3
370
     9
100
AcDbLine
 10
-407.4761445017543
 20
598.5643563795418
 30
0.0
 11
-407.4761445017543
 21
622.5645288804469
 31
0.0
  0
LINE
  5
268
330
1F
100
AcDbEntity
  8
0-8
  6
Continuous
 62
     3
370
     9
100
AcDbLine
 10
-411.4762199119858
 20
598.5643563795418
 30
0.0
 11
-411.4762199119858
 21
622.5645288804469
 31
0.0
  0
LINE
  5
269
330
1F
100
AcDbEntity
  8
0-8
  6
Continuous
 62
     3
370
     9
100
AcDbLine
 10
-403.4760690915226
 20
598.5643563795418
 30
0.0
 11
-403.4760690915226
 21
622.5645288804469
 31
0.0
  0
LINE
  5
26A
330
1F
100
AcDbEntity
  8
0-8
  6
Continuous
 62
     3
370
     9
100
AcDbLine
 10
-399.476553602261
 20
598.5643563795418
 30
0.0
 11
-399.476553602261
 21
622.5645288804469
 31
0.0
  0
LINE
  5
26B
330
1F
100
AcDbEntity
  8
0-8
  6
Continuous
 62
     3
370
     9
100
AcDbLine
 10
-395.4764781920293
 20
598.5643563795418
 30
0.0
 11
-395.4764781920293
 21
622.5645288804469
 31
0.0
  0
LINE
  5
26C
330
1F
100
AcDbEntity
  8
0-8
  6
Continuous
 62
     3
370
     9
100
AcDbLine
 10
-415.4762953222175
 20
614.5643780599835
 30
0.0
 11
-391.4764027817977
 21
614.5643780599835
 31
0.0
  0
LINE
  5
26D
330
1F
100
AcDbEntity
  8
0-8
  6
Continuous
 62
     3
370
     9
100
AcDbLine
 10
-415.4762953222175
 20
618.5644534702152
 30
0.0
 11
-391.4764027817977
 21
618.5644534702152
 31
0.0
  0
LINE
  5
26E
330
1F
100
AcDbEntity
  8
0-8
  6
Continuous
 62
     3
370
     9
100
AcDbLine
 10
-415.4762953222175
 20
610.5643026497518
 30
0.0
 11
-391.4764027817977
 21
610.5643026497518
 31
0.0
  0
LINE
  5
26F
330
1F
100
AcDbEntity
  8
0-8
  6
Continuous
 62
     3
370
     9
100
AcDbLine
 10
-415.4762953222175
 20
606.5645072000052
 30
0.0
 11
-391.4764027817977
 21
606.5645072000052
 31
0.0
  0
LINE
  5
270
330
1F
100
AcDbEntity
  8
0-8
  6
Continuous
 62
     3
370
     9
100
AcDbLine
 10
-415.4762953222175
 20
602.5644317897735
 30
0.0
 11
-391.4764027817977
 21
602.5644317897735
 31
0.0
  0
LINE
  5
271
330
1F
100
AcDbEntity
  8
0-8
  6
JWW_CENTER1
 62
     7
370
     9
100
AcDbLine
 10
-422.9064465951423
 20
610.5643026497518
 30
0.0
 11
-384.046251508873
 21
610.5643026497518
 31
0.0
  0
LINE
  5
272
330
1F
100
AcDbEntity
  8
0-8
  6
JWW_CENTER1
 62
     7
370
     9
100
AcDbLine
 10
-403.4760690915226
 20
591.1342051066172
 30
0.0
 11
-403.4760690915226
 21
629.9946801533715
 31
0.0
  0
LINE
  5
273
330
1F
100
AcDbEntity
  8
0-8
  6
Continuous
 62
     3
370
     9
100
AcDbLine
 10
-407.4761445017543
 20
498.564290866903
 30
0.0
 11
-407.4761445017543
 21
522.5644633678081
 31
0.0
  0
LINE
  5
274
330
1F
100
AcDbEntity
  8
0-8
  6
Continuous
 62
     3
370
     9
100
AcDbLine
 10
-411.4762199119858
 20
498.564290866903
 30
0.0
 11
-411.4762199119858
 21
522.5644633678081
 31
0.0
  0
LINE
  5
275
330
1F
100
AcDbEntity
  8
0-8
  6
Continuous
 62
     3
370
     9
100
AcDbLine
 10
-403.4760690915226
 20
498.564290866903
 30
0.0
 11
-403.4760690915226
 21
522.5644633678081
 31
0.0
  0
LINE
  5
276
330
1F
100
AcDbEntity
  8
0-8
  6
Continuous
 62
     3
370
     9
100
AcDbLine
 10
-399.476553602261
 20
498.564290866903
 30
0.0
 11
-399.476553602261
 21
522.5644633678081
 31
0.0
  0
LINE
  5
277
330
1F
100
AcDbEntity
  8
0-8
  6
Continuous
 62
     3
370
     9
100
AcDbLine
 10
-395.4764781920293
 20
498.564290866903
 30
0.0
 11
-395.4764781920293
 21
522.5644633678081
 31
0.0
  0
LINE
  5
278
330
1F
100
AcDbEntity
  8
0-8
  6
Continuous
 62
     3
370
     9
100
AcDbLine
 10
-415.4762953222175
 20
514.5643125473447
 30
0.0
 11
-391.4764027817977
 21
514.5643125473447
 31
0.0
  0
LINE
  5
279
330
1F
100
AcDbEntity
  8
0-8
  6
Continuous
 62
     3
370
     9
100
AcDbLine
 10
-415.4762953222175
 20
518.5643879575764
 30
0.0
 11
-391.4764027817977
 21
518.5643879575764
 31
0.0
  0
LINE
  5
27A
330
1F
100
AcDbEntity
  8
0-8
  6
Continuous
 62
     3
370
     9
100
AcDbLine
 10
-415.4762953222175
 20
510.564237137113
 30
0.0
 11
-391.4764027817977
 21
510.564237137113
 31
0.0
  0
LINE
  5
27B
330
1F
100
AcDbEntity
  8
0-8
  6
Continuous
 62
     3
370
     9
100
AcDbLine
 10
-415.4762953222175
 20
506.5644416873664
 30
0.0
 11
-391.4764027817977
 21
506.5644416873664
 31
0.0
  0
LINE
  5
27C
330
1F
100
AcDbEntity
  8
0-8
  6
Continuous
 62
     3
370
     9
100
AcDbLine
 10
-415.4762953222175
 20
502.5643662771347
 30
0.0
 11
-391.4764027817977
 21
502.5643662771347
 31
0.0
  0
LINE
  5
27D
330
1F
100
AcDbEntity
  8
0-8
  6
JWW_CENTER1
 62
     7
370
     9
100
AcDbLine
 10
-422.9064465951423
 20
510.564237137113
 30
0.0
 11
-384.046251508873
 21
510.564237137113
 31
0.0
  0
LINE
  5
27E
330
1F
100
AcDbEntity
  8
0-8
  6
JWW_CENTER1
 62
     7
370
     9
100
AcDbLine
 10
-403.4760690915226
 20
491.1341395939783
 30
0.0
 11
-403.4760690915226
 21
529.9946146407328
 31
0.0
  0
LINE
  5
27F
330
1F
100
AcDbEntity
  8
0-8
  6
Continuous
 62
     3
370
     9
100
AcDbLine
 10
-407.4761445017543
 20
398.5642953443858
 30
0.0
 11
-407.4761445017543
 21
422.5644678452906
 31
0.0
  0
LINE
  5
280
330
1F
100
AcDbEntity
  8
0-8
  6
Continuous
 62
     3
370
     9
100
AcDbLine
 10
-411.4762199119858
 20
398.5642953443858
 30
0.0
 11
-411.4762199119858
 21
422.5644678452906
 31
0.0
  0
LINE
  5
281
330
1F
100
AcDbEntity
  8
0-8
  6
Continuous
 62
     3
370
     9
100
AcDbLine
 10
-403.4760690915226
 20
398.5642953443858
 30
0.0
 11
-403.4760690915226
 21
422.5644678452906
 31
0.0
  0
LINE
  5
282
330
1F
100
AcDbEntity
  8
0-8
  6
Continuous
 62
     3
370
     9
100
AcDbLine
 10
-399.476553602261
 20
398.5642953443858
 30
0.0
 11
-399.476553602261
 21
422.5644678452906
 31
0.0
  0
LINE
  5
283
330
1F
100
AcDbEntity
  8
0-8
  6
Continuous
 62
     3
370
     9
100
AcDbLine
 10
-395.4764781920293
 20
398.5642953443858
 30
0.0
 11
-395.4764781920293
 21
422.5644678452906
 31
0.0
  0
LINE
  5
284
330
1F
100
AcDbEntity
  8
0-8
  6
Continuous
 62
     3
370
     9
100
AcDbLine
 10
-415.4762953222175
 20
414.5643170248272
 30
0.0
 11
-391.4764027817977
 21
414.5643170248272
 31
0.0
  0
LINE
  5
285
330
1F
100
AcDbEntity
  8
0-8
  6
Continuous
 62
     3
370
     9
100
AcDbLine
 10
-415.4762953222175
 20
418.5643924350589
 30
0.0
 11
-391.4764027817977
 21
418.5643924350589
 31
0.0
  0
LINE
  5
286
330
1F
100
AcDbEntity
  8
0-8
  6
Continuous
 62
     3
370
     9
100
AcDbLine
 10
-415.4762953222175
 20
410.5642416145955
 30
0.0
 11
-391.4764027817977
 21
410.5642416145955
 31
0.0
  0
LINE
  5
287
330
1F
100
AcDbEntity
  8
0-8
  6
Continuous
 62
     3
370
     9
100
AcDbLine
 10
-415.4762953222175
 20
406.5644461648489
 30
0.0
 11
-391.4764027817977
 21
406.5644461648489
 31
0.0
  0
LINE
  5
288
330
1F
100
AcDbEntity
  8
0-8
  6
Continuous
 62
     3
370
     9
100
AcDbLine
 10
-415.4762953222175
 20
402.5643707546172
 30
0.0
 11
-391.4764027817977
 21
402.5643707546172
 31
0.0
  0
LINE
  5
289
330
1F
100
AcDbEntity
  8
0-8
  6
JWW_CENTER1
 62
     7
370
     9
100
AcDbLine
 10
-422.9064465951423
 20
410.5642416145955
 30
0.0
 11
-384.046251508873
 21
410.5642416145955
 31
0.0
  0
LINE
  5
28A
330
1F
100
AcDbEntity
  8
0-8
  6
JWW_CENTER1
 62
     7
370
     9
100
AcDbLine
 10
-403.4760690915226
 20
391.1341440714608
 30
0.0
 11
-403.4760690915226
 21
429.9946191182153
 31
0.0
  0
LINE
  5
28B
330
1F
100
AcDbEntity
  8
0-8
  6
Continuous
 62
     3
370
     9
100
AcDbLine
 10
-407.4761445017543
 20
298.564299821868
 30
0.0
 11
-407.4761445017543
 21
322.5644723227731
 31
0.0
  0
LINE
  5
28C
330
1F
100
AcDbEntity
  8
0-8
  6
Continuous
 62
     3
370
     9
100
AcDbLine
 10
-411.4762199119858
 20
298.564299821868
 30
0.0
 11
-411.4762199119858
 21
322.5644723227731
 31
0.0
  0
LINE
  5
28D
330
1F
100
AcDbEntity
  8
0-8
  6
Continuous
 62
     3
370
     9
100
AcDbLine
 10
-403.4760690915226
 20
298.564299821868
 30
0.0
 11
-403.4760690915226
 21
322.5644723227731
 31
0.0
  0
LINE
  5
28E
330
1F
100
AcDbEntity
  8
0-8
  6
Continuous
 62
     3
370
     9
100
AcDbLine
 10
-399.476553602261
 20
298.564299821868
 30
0.0
 11
-399.476553602261
 21
322.5644723227731
 31
0.0
  0
LINE
  5
28F
330
1F
100
AcDbEntity
  8
0-8
  6
Continuous
 62
     3
370
     9
100
AcDbLine
 10
-395.4764781920293
 20
298.564299821868
 30
0.0
 11
-395.4764781920293
 21
322.5644723227731
 31
0.0
  0
LINE
  5
290
330
1F
100
AcDbEntity
  8
0-8
  6
Continuous
 62
     3
370
     9
100
AcDbLine
 10
-415.4762953222175
 20
314.5643215023097
 30
0.0
 11
-391.4764027817977
 21
314.5643215023097
 31
0.0
  0
LINE
  5
291
330
1F
100
AcDbEntity
  8
0-8
  6
Continuous
 62
     3
370
     9
100
AcDbLine
 10
-415.4762953222175
 20
318.5643969125414
 30
0.0
 11
-391.4764027817977
 21
318.5643969125414
 31
0.0
  0
LINE
  5
292
330
1F
100
AcDbEntity
  8
0-8
  6
Continuous
 62
     3
370
     9
100
AcDbLine
 10
-415.4762953222175
 20
310.564246092078
 30
0.0
 11
-391.4764027817977
 21
310.564246092078
 31
0.0
  0
LINE
  5
293
330
1F
100
AcDbEntity
  8
0-8
  6
Continuous
 62
     3
370
     9
100
AcDbLine
 10
-415.4762953222175
 20
306.5644506423314
 30
0.0
 11
-391.4764027817977
 21
306.5644506423314
 31
0.0
  0
LINE
  5
294
330
1F
100
AcDbEntity
  8
0-8
  6
Continuous
 62
     3
370
     9
100
AcDbLine
 10
-415.4762953222175
 20
302.5643752320997
 30
0.0
 11
-391.4764027817977
 21
302.5643752320997
 31
0.0
  0
LINE
  5
295
330
1F
100
AcDbEntity
  8
0-8
  6
JWW_CENTER1
 62
     7
370
     9
100
AcDbLine
 10
-422.9064465951423
 20
310.564246092078
 30
0.0
 11
-384.046251508873
 21
310.564246092078
 31
0.0
  0
LINE
  5
296
330
1F
100
AcDbEntity
  8
0-8
  6
JWW_CENTER1
 62
     7
370
     9
100
AcDbLine
 10
-403.4760690915226
 20
291.1341485489433
 30
0.0
 11
-403.4760690915226
 21
329.9946235956978
 31
0.0
  0
LINE
  5
297
330
1F
100
AcDbEntity
  8
0-8
  6
Continuous
 62
     3
370
     9
100
AcDbLine
 10
-357.4761117454349
 20
866.5645095565748
 30
0.0
 11
-289.4760196035579
 21
866.5645095565748
 31
0.0
  0
LINE
  5
298
330
1F
100
AcDbEntity
  8
0-8
  6
Continuous
 62
     3
370
     9
100
AcDbLine
 10
-357.4761117454349
 20
854.5637234049099
 30
0.0
 11
-289.4760196035579
 21
854.5637234049099
 31
0.0
  0
LINE
  5
299
330
1F
100
AcDbEntity
  8
0-8
  6
JWW_CENTER1
 62
     7
370
     9
100
AcDbLine
 10
-323.4760306794358
 20
870.6048992766523
 30
0.0
 11
-323.4760306794358
 21
850.5230537243477
 31
0.0
  0
LINE
  5
29A
330
1F
100
AcDbEntity
  8
0-8
  6
JWW_CENTER1
 62
     7
370
     9
100
AcDbLine
 10
-368.1899195473774
 20
860.5641164807423
 30
0.0
 11
-278.7624917621006
 21
860.5641164807423
 31
0.0
  0
LINE
  5
29B
330
1F
100
AcDbEntity
  8
0-8
  6
Continuous
 62
     3
370
     9
100
AcDbLine
 10
-357.4761117454349
 20
766.5645840241785
 30
0.0
 11
-289.4760196035579
 21
766.5645840241785
 31
0.0
  0
LINE
  5
29C
330
1F
100
AcDbEntity
  8
0-8
  6
Continuous
 62
     3
370
     9
100
AcDbLine
 10
-357.4761117454349
 20
754.5637978725136
 30
0.0
 11
-289.4760196035579
 21
754.5637978725136
 31
0.0
  0
LINE
  5
29D
330
1F
100
AcDbEntity
  8
0-8
  6
JWW_CENTER1
 62
     7
370
     9
100
AcDbLine
 10
-323.4760306794358
 20
770.6049737442561
 30
0.0
 11
-323.4760306794358
 21
750.5231281919512
 31
0.0
  0
LINE
  5
29E
330
1F
100
AcDbEntity
  8
0-8
  6
JWW_CENTER1
 62
     7
370
     9
100
AcDbLine
 10
-368.1899195473774
 20
760.5641909483461
 30
0.0
 11
-278.7624917621006
 21
760.5641909483461
 31
0.0
  0
LINE
  5
29F
330
1F
100
AcDbEntity
  8
0-8
  6
Continuous
 62
     3
370
     9
100
AcDbLine
 10
-357.4761117454349
 20
666.5645185115397
 30
0.0
 11
-289.4760196035579
 21
666.5645185115397
 31
0.0
  0
LINE
  5
2A0
330
1F
100
AcDbEntity
  8
0-8
  6
Continuous
 62
     3
370
     9
100
AcDbLine
 10
-357.4761117454349
 20
654.5637323598748
 30
0.0
 11
-289.4760196035579
 21
654.5637323598748
 31
0.0
  0
LINE
  5
2A1
330
1F
100
AcDbEntity
  8
0-8
  6
JWW_CENTER1
 62
     7
370
     9
100
AcDbLine
 10
-323.4760306794358
 20
670.604908231617
 30
0.0
 11
-323.4760306794358
 21
650.5230626793127
 31
0.0
  0
LINE
  5
2A2
330
1F
100
AcDbEntity
  8
0-8
  6
Continuous
 62
     3
370
     9
100
AcDbLine
 10
-357.4761117454349
 20
566.5645929791435
 30
0.0
 11
-289.4760196035579
 21
566.5645929791435
 31
0.0
  0
LINE
  5
2A3
330
1F
100
AcDbEntity
  8
0-8
  6
Continuous
 62
     3
370
     9
100
AcDbLine
 10
-357.4761117454349
 20
554.5638068274786
 30
0.0
 11
-289.4760196035579
 21
554.5638068274786
 31
0.0
  0
LINE
  5
2A4
330
1F
100
AcDbEntity
  8
0-8
  6
JWW_CENTER1
 62
     7
370
     9
100
AcDbLine
 10
-323.4760306794358
 20
570.6049826992207
 30
0.0
 11
-323.4760306794358
 21
550.5231371469165
 31
0.0
  0
LINE
  5
2A5
330
1F
100
AcDbEntity
  8
0-8
  6
JWW_CENTER1
 62
     7
370
     9
100
AcDbLine
 10
-368.1899195473774
 20
560.5641999033111
 30
0.0
 11
-278.7624917621006
 21
560.5641999033111
 31
0.0
  0
LINE
  5
2A6
330
1F
100
AcDbEntity
  8
0-8
  6
Continuous
 62
     3
370
     9
100
AcDbLine
 10
-357.4761117454349
 20
466.564527466505
 30
0.0
 11
-289.4760196035579
 21
466.564527466505
 31
0.0
  0
LINE
  5
2A7
330
1F
100
AcDbEntity
  8
0-8
  6
Continuous
 62
     3
370
     9
100
AcDbLine
 10
-357.4761117454349
 20
454.5637413148398
 30
0.0
 11
-289.4760196035579
 21
454.5637413148398
 31
0.0
  0
LINE
  5
2A8
330
1F
100
AcDbEntity
  8
0-8
  6
JWW_CENTER1
 62
     7
370
     9
100
AcDbLine
 10
-323.4760306794358
 20
470.6049171865823
 30
0.0
 11
-323.4760306794358
 21
450.5230716342777
 31
0.0
  0
LINE
  5
2A9
330
1F
100
AcDbEntity
  8
0-8
  6
JWW_CENTER1
 62
     7
370
     9
100
AcDbLine
 10
-368.1899195473774
 20
460.5641343906723
 30
0.0
 11
-278.7624917621006
 21
460.5641343906723
 31
0.0
  0
LINE
  5
2AA
330
1F
100
AcDbEntity
  8
0-8
  6
Continuous
 62
     3
370
     9
100
AcDbLine
 10
-357.4761117454349
 20
366.5645319439875
 30
0.0
 11
-289.4760196035579
 21
366.5645319439875
 31
0.0
  0
LINE
  5
2AB
330
1F
100
AcDbEntity
  8
0-8
  6
Continuous
 62
     3
370
     9
100
AcDbLine
 10
-357.4761117454349
 20
354.5637457923223
 30
0.0
 11
-289.4760196035579
 21
354.5637457923223
 31
0.0
  0
LINE
  5
2AC
330
1F
100
AcDbEntity
  8
0-8
  6
JWW_CENTER1
 62
     7
370
     9
100
AcDbLine
 10
-323.4760306794358
 20
370.6049216640648
 30
0.0
 11
-323.4760306794358
 21
350.5230761117602
 31
0.0
  0
LINE
  5
2AD
330
1F
100
AcDbEntity
  8
0-8
  6
JWW_CENTER1
 62
     7
370
     9
100
AcDbLine
 10
-368.1899195473774
 20
360.5641388681551
 30
0.0
 11
-278.7624917621006
 21
360.5641388681551
 31
0.0
  0
LINE
  5
2AE
330
1F
100
AcDbEntity
  8
0-8
  6
Continuous
 62
     3
370
     9
100
AcDbLine
 10
-247.476137667702
 20
998.5643384696118
 30
0.0
 11
-247.476137667702
 21
1022.564510970516
 31
0.0
  0
LINE
  5
2AF
330
1F
100
AcDbEntity
  8
0-8
  6
Continuous
 62
     3
370
     9
100
AcDbLine
 10
-251.4762130779336
 20
998.5643384696118
 30
0.0
 11
-251.4762130779336
 21
1022.564510970516
 31
0.0
  0
LINE
  5
2B0
330
1F
100
AcDbEntity
  8
0-8
  6
Continuous
 62
     3
370
     9
100
AcDbLine
 10
-243.4760622574704
 20
998.5643384696118
 30
0.0
 11
-243.4760622574704
 21
1022.564510970516
 31
0.0
  0
LINE
  5
2B1
330
1F
100
AcDbEntity
  8
0-8
  6
Continuous
 62
     3
370
     9
100
AcDbLine
 10
-239.4765467682087
 20
998.5643384696118
 30
0.0
 11
-239.4765467682087
 21
1022.564510970516
 31
0.0
  0
LINE
  5
2B2
330
1F
100
AcDbEntity
  8
0-8
  6
Continuous
 62
     3
370
     9
100
AcDbLine
 10
-235.4764713579771
 20
998.5643384696118
 30
0.0
 11
-235.4764713579771
 21
1022.564510970516
 31
0.0
  0
LINE
  5
2B3
330
1F
100
AcDbEntity
  8
0-8
  6
Continuous
 62
     3
370
     9
100
AcDbLine
 10
-255.4762884881652
 20
1014.564360150054
 30
0.0
 11
-231.4763959477455
 21
1014.564360150054
 31
0.0
  0
LINE
  5
2B4
330
1F
100
AcDbEntity
  8
0-8
  6
Continuous
 62
     3
370
     9
100
AcDbLine
 10
-255.4762884881652
 20
1018.564435560285
 30
0.0
 11
-231.4763959477455
 21
1018.564435560285
 31
0.0
  0
LINE
  5
2B5
330
1F
100
AcDbEntity
  8
0-8
  6
Continuous
 62
     3
370
     9
100
AcDbLine
 10
-255.4762884881652
 20
1010.564284739822
 30
0.0
 11
-231.4763959477455
 21
1010.564284739822
 31
0.0
  0
LINE
  5
2B6
330
1F
100
AcDbEntity
  8
0-8
  6
Continuous
 62
     3
370
     9
100
AcDbLine
 10
-255.4762884881652
 20
1006.564489290075
 30
0.0
 11
-231.4763959477455
 21
1006.564489290075
 31
0.0
  0
LINE
  5
2B7
330
1F
100
AcDbEntity
  8
0-8
  6
Continuous
 62
     3
370
     9
100
AcDbLine
 10
-255.4762884881652
 20
1002.564413879844
 30
0.0
 11
-231.4763959477455
 21
1002.564413879844
 31
0.0
  0
LINE
  5
2B8
330
1F
100
AcDbEntity
  8
0-8
  6
JWW_CENTER1
 62
     7
370
     9
100
AcDbLine
 10
-262.90643976109
 20
1010.564284739822
 30
0.0
 11
-224.0462446748207
 21
1010.564284739822
 31
0.0
  0
LINE
  5
2B9
330
1F
100
AcDbEntity
  8
0-8
  6
JWW_CENTER1
 62
     7
370
     9
100
AcDbLine
 10
-243.4760622574704
 20
991.1341871966869
 30
0.0
 11
-243.4760622574704
 21
1029.994662243441
 31
0.0
  0
LINE
  5
2BA
330
1F
100
AcDbEntity
  8
0-8
  6
Continuous
 62
     3
370
     9
100
AcDbLine
 10
-247.476137667702
 20
898.564272956973
 30
0.0
 11
-247.476137667702
 21
922.5644454578782
 31
0.0
  0
LINE
  5
2BB
330
1F
100
AcDbEntity
  8
0-8
  6
Continuous
 62
     3
370
     9
100
AcDbLine
 10
-251.4762130779336
 20
898.564272956973
 30
0.0
 11
-251.4762130779336
 21
922.5644454578782
 31
0.0
  0
LINE
  5
2BC
330
1F
100
AcDbEntity
  8
0-8
  6
Continuous
 62
     3
370
     9
100
AcDbLine
 10
-243.4760622574704
 20
898.564272956973
 30
0.0
 11
-243.4760622574704
 21
922.5644454578782
 31
0.0
  0
LINE
  5
2BD
330
1F
100
AcDbEntity
  8
0-8
  6
Continuous
 62
     3
370
     9
100
AcDbLine
 10
-239.4765467682087
 20
898.564272956973
 30
0.0
 11
-239.4765467682087
 21
922.5644454578782
 31
0.0
  0
LINE
  5
2BE
330
1F
100
AcDbEntity
  8
0-8
  6
Continuous
 62
     3
370
     9
100
AcDbLine
 10
-235.4764713579771
 20
898.564272956973
 30
0.0
 11
-235.4764713579771
 21
922.5644454578782
 31
0.0
  0
LINE
  5
2BF
330
1F
100
AcDbEntity
  8
0-8
  6
Continuous
 62
     3
370
     9
100
AcDbLine
 10
-255.4762884881652
 20
914.5642946374147
 30
0.0
 11
-231.4763959477455
 21
914.5642946374147
 31
0.0
  0
LINE
  5
2C0
330
1F
100
AcDbEntity
  8
0-8
  6
Continuous
 62
     3
370
     9
100
AcDbLine
 10
-255.4762884881652
 20
918.5643700476464
 30
0.0
 11
-231.4763959477455
 21
918.5643700476464
 31
0.0
  0
LINE
  5
2C1
330
1F
100
AcDbEntity
  8
0-8
  6
Continuous
 62
     3
370
     9
100
AcDbLine
 10
-255.4762884881652
 20
910.564219227183
 30
0.0
 11
-231.4763959477455
 21
910.564219227183
 31
0.0
  0
LINE
  5
2C2
330
1F
100
AcDbEntity
  8
0-8
  6
Continuous
 62
     3
370
     9
100
AcDbLine
 10
-255.4762884881652
 20
906.5644237774364
 30
0.0
 11
-231.4763959477455
 21
906.5644237774364
 31
0.0
  0
LINE
  5
2C3
330
1F
100
AcDbEntity
  8
0-8
  6
Continuous
 62
     3
370
     9
100
AcDbLine
 10
-255.4762884881652
 20
902.5643483672047
 30
0.0
 11
-231.4763959477455
 21
902.5643483672047
 31
0.0
  0
LINE
  5
2C4
330
1F
100
AcDbEntity
  8
0-8
  6
JWW_CENTER1
 62
     7
370
     9
100
AcDbLine
 10
-262.90643976109
 20
910.564219227183
 30
0.0
 11
-224.0462446748207
 21
910.564219227183
 31
0.0
  0
LINE
  5
2C5
330
1F
100
AcDbEntity
  8
0-8
  6
JWW_CENTER1
 62
     7
370
     9
100
AcDbLine
 10
-243.4760622574704
 20
891.1341216840486
 30
0.0
 11
-243.4760622574704
 21
929.9945967308025
 31
0.0
  0
LINE
  5
2C6
330
1F
100
AcDbEntity
  8
0-8
  6
Continuous
 62
     3
370
     9
100
AcDbLine
 10
-247.476137667702
 20
798.5643474245768
 30
0.0
 11
-247.476137667702
 21
822.5645199254816
 31
0.0
  0
LINE
  5
2C7
330
1F
100
AcDbEntity
  8
0-8
  6
Continuous
 62
     3
370
     9
100
AcDbLine
 10
-251.4762130779336
 20
798.5643474245768
 30
0.0
 11
-251.4762130779336
 21
822.5645199254816
 31
0.0
  0
LINE
  5
2C8
330
1F
100
AcDbEntity
  8
0-8
  6
Continuous
 62
     3
370
     9
100
AcDbLine
 10
-243.4760622574704
 20
798.5643474245768
 30
0.0
 11
-243.4760622574704
 21
822.5645199254816
 31
0.0
  0
LINE
  5
2C9
330
1F
100
AcDbEntity
  8
0-8
  6
Continuous
 62
     3
370
     9
100
AcDbLine
 10
-239.4765467682087
 20
798.5643474245768
 30
0.0
 11
-239.4765467682087
 21
822.5645199254816
 31
0.0
  0
LINE
  5
2CA
330
1F
100
AcDbEntity
  8
0-8
  6
Continuous
 62
     3
370
     9
100
AcDbLine
 10
-235.4764713579771
 20
798.5643474245768
 30
0.0
 11
-235.4764713579771
 21
822.5645199254816
 31
0.0
  0
LINE
  5
2CB
330
1F
100
AcDbEntity
  8
0-8
  6
Continuous
 62
     3
370
     9
100
AcDbLine
 10
-255.4762884881652
 20
814.5643691050185
 30
0.0
 11
-231.4763959477455
 21
814.5643691050185
 31
0.0
  0
LINE
  5
2CC
330
1F
100
AcDbEntity
  8
0-8
  6
Continuous
 62
     3
370
     9
100
AcDbLine
 10
-255.4762884881652
 20
818.5644445152502
 30
0.0
 11
-231.4763959477455
 21
818.5644445152502
 31
0.0
  0
LINE
  5
2CD
330
1F
100
AcDbEntity
  8
0-8
  6
Continuous
 62
     3
370
     9
100
AcDbLine
 10
-255.4762884881652
 20
810.5642936947868
 30
0.0
 11
-231.4763959477455
 21
810.5642936947868
 31
0.0
  0
LINE
  5
2CE
330
1F
100
AcDbEntity
  8
0-8
  6
Continuous
 62
     3
370
     9
100
AcDbLine
 10
-255.4762884881652
 20
806.5644982450402
 30
0.0
 11
-231.4763959477455
 21
806.5644982450402
 31
0.0
  0
LINE
  5
2CF
330
1F
100
AcDbEntity
  8
0-8
  6
Continuous
 62
     3
370
     9
100
AcDbLine
 10
-255.4762884881652
 20
802.5644228348085
 30
0.0
 11
-231.4763959477455
 21
802.5644228348085
 31
0.0
  0
LINE
  5
2D0
330
1F
100
AcDbEntity
  8
0-8
  6
JWW_CENTER1
 62
     7
370
     9
100
AcDbLine
 10
-262.90643976109
 20
810.5642936947868
 30
0.0
 11
-224.0462446748207
 21
810.5642936947868
 31
0.0
  0
LINE
  5
2D1
330
1F
100
AcDbEntity
  8
0-8
  6
JWW_CENTER1
 62
     7
370
     9
100
AcDbLine
 10
-243.4760622574704
 20
791.1341961516521
 30
0.0
 11
-243.4760622574704
 21
829.9946711984063
 31
0.0
  0
LINE
  5
2D2
330
1F
100
AcDbEntity
  8
0-8
  6
Continuous
 62
     3
370
     9
100
AcDbLine
 10
-247.476137667702
 20
698.564281911938
 30
0.0
 11
-247.476137667702
 21
722.5644544128431
 31
0.0
  0
LINE
  5
2D3
330
1F
100
AcDbEntity
  8
0-8
  6
Continuous
 62
     3
370
     9
100
AcDbLine
 10
-251.4762130779336
 20
698.564281911938
 30
0.0
 11
-251.4762130779336
 21
722.5644544128431
 31
0.0
  0
LINE
  5
2D4
330
1F
100
AcDbEntity
  8
0-8
  6
Continuous
 62
     3
370
     9
100
AcDbLine
 10
-243.4760622574704
 20
698.564281911938
 30
0.0
 11
-243.4760622574704
 21
722.5644544128431
 31
0.0
  0
LINE
  5
2D5
330
1F
100
AcDbEntity
  8
0-8
  6
Continuous
 62
     3
370
     9
100
AcDbLine
 10
-239.4765467682087
 20
698.564281911938
 30
0.0
 11
-239.4765467682087
 21
722.5644544128431
 31
0.0
  0
LINE
  5
2D6
330
1F
100
AcDbEntity
  8
0-8
  6
Continuous
 62
     3
370
     9
100
AcDbLine
 10
-235.4764713579771
 20
698.564281911938
 30
0.0
 11
-235.4764713579771
 21
722.5644544128431
 31
0.0
  0
LINE
  5
2D7
330
1F
100
AcDbEntity
  8
0-8
  6
Continuous
 62
     3
370
     9
100
AcDbLine
 10
-255.4762884881652
 20
714.5643035923797
 30
0.0
 11
-231.4763959477455
 21
714.5643035923797
 31
0.0
  0
LINE
  5
2D8
330
1F
100
AcDbEntity
  8
0-8
  6
Continuous
 62
     3
370
     9
100
AcDbLine
 10
-255.4762884881652
 20
718.5643790026114
 30
0.0
 11
-231.4763959477455
 21
718.5643790026114
 31
0.0
  0
LINE
  5
2D9
330
1F
100
AcDbEntity
  8
0-8
  6
Continuous
 62
     3
370
     9
100
AcDbLine
 10
-255.4762884881652
 20
710.564228182148
 30
0.0
 11
-231.4763959477455
 21
710.564228182148
 31
0.0
  0
LINE
  5
2DA
330
1F
100
AcDbEntity
  8
0-8
  6
Continuous
 62
     3
370
     9
100
AcDbLine
 10
-255.4762884881652
 20
706.5644327324014
 30
0.0
 11
-231.4763959477455
 21
706.5644327324014
 31
0.0
  0
LINE
  5
2DB
330
1F
100
AcDbEntity
  8
0-8
  6
Continuous
 62
     3
370
     9
100
AcDbLine
 10
-255.4762884881652
 20
702.5643573221697
 30
0.0
 11
-231.4763959477455
 21
702.5643573221697
 31
0.0
  0
LINE
  5
2DC
330
1F
100
AcDbEntity
  8
0-8
  6
JWW_CENTER1
 62
     7
370
     9
100
AcDbLine
 10
-262.90643976109
 20
710.564228182148
 30
0.0
 11
-224.0462446748207
 21
710.564228182148
 31
0.0
  0
LINE
  5
2DD
330
1F
100
AcDbEntity
  8
0-8
  6
JWW_CENTER1
 62
     7
370
     9
100
AcDbLine
 10
-243.4760622574704
 20
691.1341306390134
 30
0.0
 11
-243.4760622574704
 21
729.9946056857675
 31
0.0
  0
LINE
  5
2DE
330
1F
100
AcDbEntity
  8
0-8
  6
Continuous
 62
     3
370
     9
100
AcDbLine
 10
-247.476137667702
 20
598.5643563795418
 30
0.0
 11
-247.476137667702
 21
622.5645288804469
 31
0.0
  0
LINE
  5
2DF
330
1F
100
AcDbEntity
  8
0-8
  6
Continuous
 62
     3
370
     9
100
AcDbLine
 10
-251.4762130779336
 20
598.5643563795418
 30
0.0
 11
-251.4762130779336
 21
622.5645288804469
 31
0.0
  0
LINE
  5
2E0
330
1F
100
AcDbEntity
  8
0-8
  6
Continuous
 62
     3
370
     9
100
AcDbLine
 10
-243.4760622574704
 20
598.5643563795418
 30
0.0
 11
-243.4760622574704
 21
622.5645288804469
 31
0.0
  0
LINE
  5
2E1
330
1F
100
AcDbEntity
  8
0-8
  6
Continuous
 62
     3
370
     9
100
AcDbLine
 10
-239.4765467682087
 20
598.5643563795418
 30
0.0
 11
-239.4765467682087
 21
622.5645288804469
 31
0.0
  0
LINE
  5
2E2
330
1F
100
AcDbEntity
  8
0-8
  6
Continuous
 62
     3
370
     9
100
AcDbLine
 10
-235.4764713579771
 20
598.5643563795418
 30
0.0
 11
-235.4764713579771
 21
622.5645288804469
 31
0.0
  0
LINE
  5
2E3
330
1F
100
AcDbEntity
  8
0-8
  6
Continuous
 62
     3
370
     9
100
AcDbLine
 10
-255.4762884881652
 20
614.5643780599835
 30
0.0
 11
-231.4763959477455
 21
614.5643780599835
 31
0.0
  0
LINE
  5
2E4
330
1F
100
AcDbEntity
  8
0-8
  6
Continuous
 62
     3
370
     9
100
AcDbLine
 10
-255.4762884881652
 20
618.5644534702152
 30
0.0
 11
-231.4763959477455
 21
618.5644534702152
 31
0.0
  0
LINE
  5
2E5
330
1F
100
AcDbEntity
  8
0-8
  6
Continuous
 62
     3
370
     9
100
AcDbLine
 10
-255.4762884881652
 20
610.5643026497518
 30
0.0
 11
-231.4763959477455
 21
610.5643026497518
 31
0.0
  0
LINE
  5
2E6
330
1F
100
AcDbEntity
  8
0-8
  6
Continuous
 62
     3
370
     9
100
AcDbLine
 10
-255.4762884881652
 20
606.5645072000052
 30
0.0
 11
-231.4763959477455
 21
606.5645072000052
 31
0.0
  0
LINE
  5
2E7
330
1F
100
AcDbEntity
  8
0-8
  6
Continuous
 62
     3
370
     9
100
AcDbLine
 10
-255.4762884881652
 20
602.5644317897735
 30
0.0
 11
-231.4763959477455
 21
602.5644317897735
 31
0.0
  0
LINE
  5
2E8
330
1F
100
AcDbEntity
  8
0-8
  6
JWW_CENTER1
 62
     7
370
     9
100
AcDbLine
 10
-262.90643976109
 20
610.5643026497518
 30
0.0
 11
-224.0462446748207
 21
610.5643026497518
 31
0.0
  0
LINE
  5
2E9
330
1F
100
AcDbEntity
  8
0-8
  6
JWW_CENTER1
 62
     7
370
     9
100
AcDbLine
 10
-243.4760622574704
 20
591.1342051066172
 30
0.0
 11
-243.4760622574704
 21
629.9946801533715
 31
0.0
  0
LINE
  5
2EA
330
1F
100
AcDbEntity
  8
0-8
  6
Continuous
 62
     3
370
     9
100
AcDbLine
 10
-247.476137667702
 20
498.564290866903
 30
0.0
 11
-247.476137667702
 21
522.5644633678081
 31
0.0
  0
LINE
  5
2EB
330
1F
100
AcDbEntity
  8
0-8
  6
Continuous
 62
     3
370
     9
100
AcDbLine
 10
-251.4762130779336
 20
498.564290866903
 30
0.0
 11
-251.4762130779336
 21
522.5644633678081
 31
0.0
  0
LINE
  5
2EC
330
1F
100
AcDbEntity
  8
0-8
  6
Continuous
 62
     3
370
     9
100
AcDbLine
 10
-243.4760622574704
 20
498.564290866903
 30
0.0
 11
-243.4760622574704
 21
522.5644633678081
 31
0.0
  0
LINE
  5
2ED
330
1F
100
AcDbEntity
  8
0-8
  6
Continuous
 62
     3
370
     9
100
AcDbLine
 10
-239.4765467682087
 20
498.564290866903
 30
0.0
 11
-239.4765467682087
 21
522.5644633678081
 31
0.0
  0
LINE
  5
2EE
330
1F
100
AcDbEntity
  8
0-8
  6
Continuous
 62
     3
370
     9
100
AcDbLine
 10
-235.4764713579771
 20
498.564290866903
 30
0.0
 11
-235.4764713579771
 21
522.5644633678081
 31
0.0
  0
LINE
  5
2EF
330
1F
100
AcDbEntity
  8
0-8
  6
Continuous
 62
     3
370
     9
100
AcDbLine
 10
-255.4762884881652
 20
514.5643125473447
 30
0.0
 11
-231.4763959477455
 21
514.5643125473447
 31
0.0
  0
LINE
  5
2F0
330
1F
100
AcDbEntity
  8
0-8
  6
Continuous
 62
     3
370
     9
100
AcDbLine
 10
-255.4762884881652
 20
518.5643879575764
 30
0.0
 11
-231.4763959477455
 21
518.5643879575764
 31
0.0
  0
LINE
  5
2F1
330
1F
100
AcDbEntity
  8
0-8
  6
Continuous
 62
     3
370
     9
100
AcDbLine
 10
-255.4762884881652
 20
510.564237137113
 30
0.0
 11
-231.4763959477455
 21
510.564237137113
 31
0.0
  0
LINE
  5
2F2
330
1F
100
AcDbEntity
  8
0-8
  6
Continuous
 62
     3
370
     9
100
AcDbLine
 10
-255.4762884881652
 20
506.5644416873664
 30
0.0
 11
-231.4763959477455
 21
506.5644416873664
 31
0.0
  0
LINE
  5
2F3
330
1F
100
AcDbEntity
  8
0-8
  6
Continuous
 62
     3
370
     9
100
AcDbLine
 10
-255.4762884881652
 20
502.5643662771347
 30
0.0
 11
-231.4763959477455
 21
502.5643662771347
 31
0.0
  0
LINE
  5
2F4
330
1F
100
AcDbEntity
  8
0-8
  6
JWW_CENTER1
 62
     7
370
     9
100
AcDbLine
 10
-262.90643976109
 20
510.564237137113
 30
0.0
 11
-224.0462446748207
 21
510.564237137113
 31
0.0
  0
LINE
  5
2F5
330
1F
100
AcDbEntity
  8
0-8
  6
JWW_CENTER1
 62
     7
370
     9
100
AcDbLine
 10
-243.4760622574704
 20
491.1341395939783
 30
0.0
 11
-243.4760622574704
 21
529.9946146407328
 31
0.0
  0
LINE
  5
2F6
330
1F
100
AcDbEntity
  8
0-8
  6
Continuous
 62
     3
370
     9
100
AcDbLine
 10
-247.476137667702
 20
398.5642953443858
 30
0.0
 11
-247.476137667702
 21
422.5644678452906
 31
0.0
  0
LINE
  5
2F7
330
1F
100
AcDbEntity
  8
0-8
  6
Continuous
 62
     3
370
     9
100
AcDbLine
 10
-251.4762130779336
 20
398.5642953443858
 30
0.0
 11
-251.4762130779336
 21
422.5644678452906
 31
0.0
  0
LINE
  5
2F8
330
1F
100
AcDbEntity
  8
0-8
  6
Continuous
 62
     3
370
     9
100
AcDbLine
 10
-243.4760622574704
 20
398.5642953443858
 30
0.0
 11
-243.4760622574704
 21
422.5644678452906
 31
0.0
  0
LINE
  5
2F9
330
1F
100
AcDbEntity
  8
0-8
  6
Continuous
 62
     3
370
     9
100
AcDbLine
 10
-239.4765467682087
 20
398.5642953443858
 30
0.0
 11
-239.4765467682087
 21
422.5644678452906
 31
0.0
  0
LINE
  5
2FA
330
1F
100
AcDbEntity
  8
0-8
  6
Continuous
 62
     3
370
     9
100
AcDbLine
 10
-235.4764713579771
 20
398.5642953443858
 30
0.0
 11
-235.4764713579771
 21
422.5644678452906
 31
0.0
  0
LINE
  5
2FB
330
1F
100
AcDbEntity
  8
0-8
  6
Continuous
 62
     3
370
     9
100
AcDbLine
 10
-255.4762884881652
 20
414.5643170248272
 30
0.0
 11
-231.4763959477455
 21
414.5643170248272
 31
0.0
  0
LINE
  5
2FC
330
1F
100
AcDbEntity
  8
0-8
  6
Continuous
 62
     3
370
     9
100
AcDbLine
 10
-255.4762884881652
 20
418.5643924350589
 30
0.0
 11
-231.4763959477455
 21
418.5643924350589
 31
0.0
  0
LINE
  5
2FD
330
1F
100
AcDbEntity
  8
0-8
  6
Continuous
 62
     3
370
     9
100
AcDbLine
 10
-255.4762884881652
 20
410.5642416145955
 30
0.0
 11
-231.4763959477455
 21
410.5642416145955
 31
0.0
  0
LINE
  5
2FE
330
1F
100
AcDbEntity
  8
0-8
  6
Continuous
 62
     3
370
     9
100
AcDbLine
 10
-255.4762884881652
 20
406.5644461648489
 30
0.0
 11
-231.4763959477455
 21
406.5644461648489
 31
0.0
  0
LINE
  5
2FF
330
1F
100
AcDbEntity
  8
0-8
  6
Continuous
 62
     3
370
     9
100
AcDbLine
 10
-255.4762884881652
 20
402.5643707546172
 30
0.0
 11
-231.4763959477455
 21
402.5643707546172
 31
0.0
  0
LINE
  5
300
330
1F
100
AcDbEntity
  8
0-8
  6
JWW_CENTER1
 62
     7
370
     9
100
AcDbLine
 10
-262.90643976109
 20
410.5642416145955
 30
0.0
 11
-224.0462446748207
 21
410.5642416145955
 31
0.0
  0
LINE
  5
301
330
1F
100
AcDbEntity
  8
0-8
  6
JWW_CENTER1
 62
     7
370
     9
100
AcDbLine
 10
-243.4760622574704
 20
391.1341440714608
 30
0.0
 11
-243.4760622574704
 21
429.9946191182153
 31
0.0
  0
LINE
  5
302
330
1F
100
AcDbEntity
  8
0-8
  6
Continuous
 62
     3
370
     9
100
AcDbLine
 10
-247.476137667702
 20
298.564299821868
 30
0.0
 11
-247.476137667702
 21
322.5644723227731
 31
0.0
  0
LINE
  5
303
330
1F
100
AcDbEntity
  8
0-8
  6
Continuous
 62
     3
370
     9
100
AcDbLine
 10
-251.4762130779336
 20
298.564299821868
 30
0.0
 11
-251.4762130779336
 21
322.5644723227731
 31
0.0
  0
LINE
  5
304
330
1F
100
AcDbEntity
  8
0-8
  6
Continuous
 62
     3
370
     9
100
AcDbLine
 10
-243.4760622574704
 20
298.564299821868
 30
0.0
 11
-243.4760622574704
 21
322.5644723227731
 31
0.0
  0
LINE
  5
305
330
1F
100
AcDbEntity
  8
0-8
  6
Continuous
 62
     3
370
     9
100
AcDbLine
 10
-239.4765467682087
 20
298.564299821868
 30
0.0
 11
-239.4765467682087
 21
322.5644723227731
 31
0.0
  0
LINE
  5
306
330
1F
100
AcDbEntity
  8
0-8
  6
Continuous
 62
     3
370
     9
100
AcDbLine
 10
-235.4764713579771
 20
298.564299821868
 30
0.0
 11
-235.4764713579771
 21
322.5644723227731
 31
0.0
  0
LINE
  5
307
330
1F
100
AcDbEntity
  8
0-8
  6
Continuous
 62
     3
370
     9
100
AcDbLine
 10
-255.4762884881652
 20
314.5643215023097
 30
0.0
 11
-231.4763959477455
 21
314.5643215023097
 31
0.0
  0
LINE
  5
308
330
1F
100
AcDbEntity
  8
0-8
  6
Continuous
 62
     3
370
     9
100
AcDbLine
 10
-255.4762884881652
 20
318.5643969125414
 30
0.0
 11
-231.4763959477455
 21
318.5643969125414
 31
0.0
  0
LINE
  5
309
330
1F
100
AcDbEntity
  8
0-8
  6
Continuous
 62
     3
370
     9
100
AcDbLine
 10
-255.4762884881652
 20
310.564246092078
 30
0.0
 11
-231.4763959477455
 21
310.564246092078
 31
0.0
  0
LINE
  5
30A
330
1F
100
AcDbEntity
  8
0-8
  6
Continuous
 62
     3
370
     9
100
AcDbLine
 10
-255.4762884881652
 20
306.5644506423314
 30
0.0
 11
-231.4763959477455
 21
306.5644506423314
 31
0.0
  0
LINE
  5
30B
330
1F
100
AcDbEntity
  8
0-8
  6
Continuous
 62
     3
370
     9
100
AcDbLine
 10
-255.4762884881652
 20
302.5643752320997
 30
0.0
 11
-231.4763959477455
 21
302.5643752320997
 31
0.0
  0
LINE
  5
30C
330
1F
100
AcDbEntity
  8
0-8
  6
JWW_CENTER1
 62
     7
370
     9
100
AcDbLine
 10
-262.90643976109
 20
310.564246092078
 30
0.0
 11
-224.0462446748207
 21
310.564246092078
 31
0.0
  0
LINE
  5
30D
330
1F
100
AcDbEntity
  8
0-8
  6
JWW_CENTER1
 62
     7
370
     9
100
AcDbLine
 10
-243.4760622574704
 20
291.1341485489433
 30
0.0
 11
-243.4760622574704
 21
329.9946235956978
 31
0.0
  0
LINE
  5
30E
330
1F
100
AcDbEntity
  8
0-0
  6
JWW_CENTER1
 62
     7
370
     9
100
AcDbLine
 10
-986.7751044768312
 20
660.5644053961925
 30
0.0
 11
-140.1770823693791
 21
660.5644053961925
 31
0.0
  0
LINE
  5
30F
330
1F
100
AcDbEntity
  8
0-8
  6
JWW_CENTER1
 62
     7
370
     9
100
AcDbLine
 10
-883.4760895936793
 20
991.1341871966869
 30
0.0
 11
-883.4760895936793
 21
1029.994662243441
 31
0.0
  0
CIRCLE
  5
310
330
1F
100
AcDbEntity
  8
0-8
  6
Continuous
 62
     3
370
     9
100
AcDbCircle
 10
-883.4760895936793
 20
1010.564284739822
 30
0.0
 40
14.99999845350111
  0
ARC
  5
311
330
1F
100
AcDbEntity
  8
0-8
  6
Continuous
 62
     3
370
     9
100
AcDbCircle
 10
-769.4760401057147
 20
960.5641819933811
 30
0.0
 40
5.999999381400443
100
AcDbArc
 50
270.0
 51
90.0
  0
ARC
  5
312
330
1F
100
AcDbEntity
  8
0-8
  6
Continuous
 62
     3
370
     9
100
AcDbCircle
 10
-837.4761672426521
 20
960.5641819933811
 30
0.0
 40
5.999999381400443
100
AcDbArc
 50
90.0
 51
270.0
  0
CIRCLE
  5
313
330
1F
100
AcDbEntity
  8
0-8
  6
Continuous
 62
     3
370
     9
100
AcDbCircle
 10
-203.4757280958814
 20
660.5644753863137
 30
0.0
 40
14.99999845350111
  0
CIRCLE
  5
314
330
1F
100
AcDbEntity
  8
0-8
  6
Continuous
 62
     3
370
     9
100
AcDbCircle
 10
-883.4760895936793
 20
910.564219227183
 30
0.0
 40
14.99999845350111
  0
CIRCLE
  5
315
330
1F
100
AcDbEntity
  8
0-8
  6
Continuous
 62
     3
370
     9
100
AcDbCircle
 10
-883.4760895936793
 20
810.5642936947868
 30
0.0
 40
14.99999845350111
  0
CIRCLE
  5
316
330
1F
100
AcDbEntity
  8
0-8
  6
Continuous
 62
     3
370
     9
100
AcDbCircle
 10
-883.4760895936793
 20
710.564228182148
 30
0.0
 40
14.99999845350111
  0
CIRCLE
  5
317
330
1F
100
AcDbEntity
  8
0-8
  6
Continuous
 62
     3
370
     9
100
AcDbCircle
 10
-883.4760895936793
 20
610.5643026497518
 30
0.0
 40
14.99999845350111
  0
CIRCLE
  5
318
330
1F
100
AcDbEntity
  8
0-8
  6
Continuous
 62
     3
370
     9
100
AcDbCircle
 10
-883.4760895936793
 20
510.564237137113
 30
0.0
 40
14.99999845350111
  0
CIRCLE
  5
319
330
1F
100
AcDbEntity
  8
0-8
  6
Continuous
 62
     3
370
     9
100
AcDbCircle
 10
-883.4760895936793
 20
410.5642416145955
 30
0.0
 40
14.99999845350111
  0
CIRCLE
  5
31A
330
1F
100
AcDbEntity
  8
0-8
  6
Continuous
 62
     3
370
     9
100
AcDbCircle
 10
-883.4760895936793
 20
310.564246092078
 30
0.0
 40
14.99999845350111
  0
ARC
  5
31B
330
1F
100
AcDbEntity
  8
0-8
  6
Continuous
 62
     3
370
     9
100
AcDbCircle
 10
-769.4760401057147
 20
860.5641164807423
 30
0.0
 40
5.999999381400443
100
AcDbArc
 50
270.0
 51
90.0
  0
ARC
  5
31C
330
1F
100
AcDbEntity
  8
0-8
  6
Continuous
 62
     3
370
     9
100
AcDbCircle
 10
-837.4761672426521
 20
860.5641164807423
 30
0.0
 40
5.999999381400443
100
AcDbArc
 50
90.0
 51
270.0
  0
ARC
  5
31D
330
1F
100
AcDbEntity
  8
0-8
  6
Continuous
 62
     3
370
     9
100
AcDbCircle
 10
-769.4760401057147
 20
760.5641909483461
 30
0.0
 40
5.999999381400443
100
AcDbArc
 50
270.0
 51
90.0
  0
ARC
  5
31E
330
1F
100
AcDbEntity
  8
0-8
  6
Continuous
 62
     3
370
     9
100
AcDbCircle
 10
-837.4761672426521
 20
760.5641909483461
 30
0.0
 40
5.999999381400443
100
AcDbArc
 50
90.0
 51
270.0
  0
ARC
  5
31F
330
1F
100
AcDbEntity
  8
0-8
  6
Continuous
 62
     3
370
     9
100
AcDbCircle
 10
-769.4760401057147
 20
660.5641254357073
 30
0.0
 40
5.999999381400443
100
AcDbArc
 50
270.0
 51
90.0
  0
ARC
  5
320
330
1F
100
AcDbEntity
  8
0-8
  6
Continuous
 62
     3
370
     9
100
AcDbCircle
 10
-837.4761672426521
 20
660.5641254357073
 30
0.0
 40
5.999999381400443
100
AcDbArc
 50
90.0
 51
270.0
  0
ARC
  5
321
330
1F
100
AcDbEntity
  8
0-8
  6
Continuous
 62
     3
370
     9
100
AcDbCircle
 10
-769.4760401057147
 20
560.5641999033111
 30
0.0
 40
5.999999381400443
100
AcDbArc
 50
270.0
 51
90.0
  0
ARC
  5
322
330
1F
100
AcDbEntity
  8
0-8
  6
Continuous
 62
     3
370
     9
100
AcDbCircle
 10
-837.4761672426521
 20
560.5641999033111
 30
0.0
 40
5.999999381400443
100
AcDbArc
 50
90.0
 51
270.0
  0
ARC
  5
323
330
1F
100
AcDbEntity
  8
0-8
  6
Continuous
 62
     3
370
     9
100
AcDbCircle
 10
-769.4760401057147
 20
460.5641343906723
 30
0.0
 40
5.999999381400443
100
AcDbArc
 50
270.0
 51
90.0
  0
ARC
  5
324
330
1F
100
AcDbEntity
  8
0-8
  6
Continuous
 62
     3
370
     9
100
AcDbCircle
 10
-837.4761672426521
 20
460.5641343906723
 30
0.0
 40
5.999999381400443
100
AcDbArc
 50
90.0
 51
270.0
  0
ARC
  5
325
330
1F
100
AcDbEntity
  8
0-8
  6
Continuous
 62
     3
370
     9
100
AcDbCircle
 10
-769.4760401057147
 20
360.5641388681551
 30
0.0
 40
5.999999381400443
100
AcDbArc
 50
270.0
 51
90.0
  0
ARC
  5
326
330
1F
100
AcDbEntity
  8
0-8
  6
Continuous
 62
     3
370
     9
100
AcDbCircle
 10
-837.4761672426521
 20
360.5641388681551
 30
0.0
 40
5.999999381400443
100
AcDbArc
 50
90.0
 51
270.0
  0
CIRCLE
  5
327
330
1F
100
AcDbEntity
  8
0-8
  6
Continuous
 62
     3
370
     9
100
AcDbCircle
 10
-723.4760827596269
 20
1010.564284739822
 30
0.0
 40
14.99999845350111
  0
ARC
  5
328
330
1F
100
AcDbEntity
  8
0-8
  6
Continuous
 62
     3
370
     9
100
AcDbCircle
 10
-609.4760332716625
 20
960.5641819933811
 30
0.0
 40
5.999999381400443
100
AcDbArc
 50
270.0
 51
90.0
  0
ARC
  5
329
330
1F
100
AcDbEntity
  8
0-8
  6
Continuous
 62
     3
370
     9
100
AcDbCircle
 10
-677.4761254135393
 20
960.5641819933811
 30
0.0
 40
5.999999381400443
100
AcDbArc
 50
90.0
 51
270.0
  0
CIRCLE
  5
32A
330
1F
100
AcDbEntity
  8
0-8
  6
Continuous
 62
     3
370
     9
100
AcDbCircle
 10
-723.4760827596269
 20
910.564219227183
 30
0.0
 40
14.99999845350111
  0
CIRCLE
  5
32B
330
1F
100
AcDbEntity
  8
0-8
  6
Continuous
 62
     3
370
     9
100
AcDbCircle
 10
-723.4760827596269
 20
810.5642936947868
 30
0.0
 40
14.99999845350111
  0
CIRCLE
  5
32C
330
1F
100
AcDbEntity
  8
0-8
  6
Continuous
 62
     3
370
     9
100
AcDbCircle
 10
-723.4760827596269
 20
710.564228182148
 30
0.0
 40
14.99999845350111
  0
CIRCLE
  5
32D
330
1F
100
AcDbEntity
  8
0-8
  6
Continuous
 62
     3
370
     9
100
AcDbCircle
 10
-723.4760827596269
 20
610.5643026497518
 30
0.0
 40
14.99999845350111
  0
CIRCLE
  5
32E
330
1F
100
AcDbEntity
  8
0-8
  6
Continuous
 62
     3
370
     9
100
AcDbCircle
 10
-723.4760827596269
 20
510.564237137113
 30
0.0
 40
14.99999845350111
  0
CIRCLE
  5
32F
330
1F
100
AcDbEntity
  8
0-8
  6
Continuous
 62
     3
370
     9
100
AcDbCircle
 10
-723.4760827596269
 20
410.5642416145955
 30
0.0
 40
14.99999845350111
  0
CIRCLE
  5
330
330
1F
100
AcDbEntity
  8
0-8
  6
Continuous
 62
     3
370
     9
100
AcDbCircle
 10
-723.4760827596269
 20
310.564246092078
 30
0.0
 40
14.99999845350111
  0
ARC
  5
331
330
1F
100
AcDbEntity
  8
0-8
  6
Continuous
 62
     3
370
     9
100
AcDbCircle
 10
-609.4760332716625
 20
860.5641164807423
 30
0.0
 40
5.999999381400443
100
AcDbArc
 50
270.0
 51
90.0
  0
ARC
  5
332
330
1F
100
AcDbEntity
  8
0-8
  6
Continuous
 62
     3
370
     9
100
AcDbCircle
 10
-677.4761254135393
 20
860.5641164807423
 30
0.0
 40
5.999999381400443
100
AcDbArc
 50
90.0
 51
270.0
  0
ARC
  5
333
330
1F
100
AcDbEntity
  8
0-8
  6
Continuous
 62
     3
370
     9
100
AcDbCircle
 10
-609.4760332716625
 20
760.5641909483461
 30
0.0
 40
5.999999381400443
100
AcDbArc
 50
270.0
 51
90.0
  0
ARC
  5
334
330
1F
100
AcDbEntity
  8
0-8
  6
Continuous
 62
     3
370
     9
100
AcDbCircle
 10
-677.4761254135393
 20
760.5641909483461
 30
0.0
 40
5.999999381400443
100
AcDbArc
 50
90.0
 51
270.0
  0
ARC
  5
335
330
1F
100
AcDbEntity
  8
0-8
  6
Continuous
 62
     3
370
     9
100
AcDbCircle
 10
-609.4760332716625
 20
660.5641254357073
 30
0.0
 40
5.999999381400443
100
AcDbArc
 50
270.0
 51
90.0
  0
ARC
  5
336
330
1F
100
AcDbEntity
  8
0-8
  6
Continuous
 62
     3
370
     9
100
AcDbCircle
 10
-677.4761254135393
 20
660.5641254357073
 30
0.0
 40
5.999999381400443
100
AcDbArc
 50
90.0
 51
270.0
  0
ARC
  5
337
330
1F
100
AcDbEntity
  8
0-8
  6
Continuous
 62
     3
370
     9
100
AcDbCircle
 10
-609.4760332716625
 20
560.5641999033111
 30
0.0
 40
5.999999381400443
100
AcDbArc
 50
270.0
 51
90.0
  0
ARC
  5
338
330
1F
100
AcDbEntity
  8
0-8
  6
Continuous
 62
     3
370
     9
100
AcDbCircle
 10
-677.4761254135393
 20
560.5641999033111
 30
0.0
 40
5.999999381400443
100
AcDbArc
 50
90.0
 51
270.0
  0
ARC
  5
339
330
1F
100
AcDbEntity
  8
0-8
  6
Continuous
 62
     3
370
     9
100
AcDbCircle
 10
-609.4760332716625
 20
460.5641343906723
 30
0.0
 40
5.999999381400443
100
AcDbArc
 50
270.0
 51
90.0
  0
ARC
  5
33A
330
1F
100
AcDbEntity
  8
0-8
  6
Continuous
 62
     3
370
     9
100
AcDbCircle
 10
-677.4761254135393
 20
460.5641343906723
 30
0.0
 40
5.999999381400443
100
AcDbArc
 50
90.0
 51
270.0
  0
ARC
  5
33B
330
1F
100
AcDbEntity
  8
0-8
  6
Continuous
 62
     3
370
     9
100
AcDbCircle
 10
-609.4760332716625
 20
360.5641388681551
 30
0.0
 40
5.999999381400443
100
AcDbArc
 50
270.0
 51
90.0
  0
ARC
  5
33C
330
1F
100
AcDbEntity
  8
0-8
  6
Continuous
 62
     3
370
     9
100
AcDbCircle
 10
-677.4761254135393
 20
360.5641388681551
 30
0.0
 40
5.999999381400443
100
AcDbArc
 50
90.0
 51
270.0
  0
CIRCLE
  5
33D
330
1F
100
AcDbEntity
  8
0-8
  6
Continuous
 62
     3
370
     9
100
AcDbCircle
 10
-563.4760759255747
 20
1010.564284739822
 30
0.0
 40
14.99999845350111
  0
ARC
  5
33E
330
1F
100
AcDbEntity
  8
0-8
  6
Continuous
 62
     3
370
     9
100
AcDbCircle
 10
-449.4760264376102
 20
960.5641819933811
 30
0.0
 40
5.999999381400443
100
AcDbArc
 50
270.0
 51
90.0
  0
ARC
  5
33F
330
1F
100
AcDbEntity
  8
0-8
  6
Continuous
 62
     3
370
     9
100
AcDbCircle
 10
-517.4761885696083
 20
960.5641819933811
 30
0.0
 40
5.999999381400443
100
AcDbArc
 50
90.0
 51
270.0
  0
CIRCLE
  5
340
330
1F
100
AcDbEntity
  8
0-8
  6
Continuous
 62
     3
370
     9
100
AcDbCircle
 10
-563.4760759255747
 20
910.564219227183
 30
0.0
 40
14.99999845350111
  0
CIRCLE
  5
341
330
1F
100
AcDbEntity
  8
0-8
  6
Continuous
 62
     3
370
     9
100
AcDbCircle
 10
-563.4760759255747
 20
810.5642936947868
 30
0.0
 40
14.99999845350111
  0
CIRCLE
  5
342
330
1F
100
AcDbEntity
  8
0-8
  6
Continuous
 62
     3
370
     9
100
AcDbCircle
 10
-563.4760759255747
 20
710.564228182148
 30
0.0
 40
14.99999845350111
  0
CIRCLE
  5
343
330
1F
100
AcDbEntity
  8
0-8
  6
Continuous
 62
     3
370
     9
100
AcDbCircle
 10
-563.4760759255747
 20
610.5643026497518
 30
0.0
 40
14.99999845350111
  0
CIRCLE
  5
344
330
1F
100
AcDbEntity
  8
0-8
  6
Continuous
 62
     3
370
     9
100
AcDbCircle
 10
-563.4760759255747
 20
510.564237137113
 30
0.0
 40
14.99999845350111
  0
CIRCLE
  5
345
330
1F
100
AcDbEntity
  8
0-8
  6
Continuous
 62
     3
370
     9
100
AcDbCircle
 10
-563.4760759255747
 20
410.5642416145955
 30
0.0
 40
14.99999845350111
  0
CIRCLE
  5
346
330
1F
100
AcDbEntity
  8
0-8
  6
Continuous
 62
     3
370
     9
100
AcDbCircle
 10
-563.4760759255747
 20
310.564246092078
 30
0.0
 40
14.99999845350111
  0
ARC
  5
347
330
1F
100
AcDbEntity
  8
0-8
  6
Continuous
 62
     3
370
     9
100
AcDbCircle
 10
-449.4760264376102
 20
860.5641164807423
 30
0.0
 40
5.999999381400443
100
AcDbArc
 50
270.0
 51
90.0
  0
ARC
  5
348
330
1F
100
AcDbEntity
  8
0-8
  6
Continuous
 62
     3
370
     9
100
AcDbCircle
 10
-517.4761885696083
 20
860.5641164807423
 30
0.0
 40
5.999999381400443
100
AcDbArc
 50
90.0
 51
270.0
  0
ARC
  5
349
330
1F
100
AcDbEntity
  8
0-8
  6
Continuous
 62
     3
370
     9
100
AcDbCircle
 10
-449.4760264376102
 20
760.5641909483461
 30
0.0
 40
5.999999381400443
100
AcDbArc
 50
270.0
 51
90.0
  0
ARC
  5
34A
330
1F
100
AcDbEntity
  8
0-8
  6
Continuous
 62
     3
370
     9
100
AcDbCircle
 10
-517.4761885696083
 20
760.5641909483461
 30
0.0
 40
5.999999381400443
100
AcDbArc
 50
90.0
 51
270.0
  0
ARC
  5
34B
330
1F
100
AcDbEntity
  8
0-8
  6
Continuous
 62
     3
370
     9
100
AcDbCircle
 10
-449.4760264376102
 20
660.5641254357073
 30
0.0
 40
5.999999381400443
100
AcDbArc
 50
270.0
 51
90.0
  0
ARC
  5
34C
330
1F
100
AcDbEntity
  8
0-8
  6
Continuous
 62
     3
370
     9
100
AcDbCircle
 10
-517.4761885696083
 20
660.5641254357073
 30
0.0
 40
5.999999381400443
100
AcDbArc
 50
90.0
 51
270.0
  0
ARC
  5
34D
330
1F
100
AcDbEntity
  8
0-8
  6
Continuous
 62
     3
370
     9
100
AcDbCircle
 10
-449.4760264376102
 20
560.5641999033111
 30
0.0
 40
5.999999381400443
100
AcDbArc
 50
270.0
 51
90.0
  0
ARC
  5
34E
330
1F
100
AcDbEntity
  8
0-8
  6
Continuous
 62
     3
370
     9
100
AcDbCircle
 10
-517.4761885696083
 20
560.5641999033111
 30
0.0
 40
5.999999381400443
100
AcDbArc
 50
90.0
 51
270.0
  0
ARC
  5
34F
330
1F
100
AcDbEntity
  8
0-8
  6
Continuous
 62
     3
370
     9
100
AcDbCircle
 10
-449.4760264376102
 20
460.5641343906723
 30
0.0
 40
5.999999381400443
100
AcDbArc
 50
270.0
 51
90.0
  0
ARC
  5
350
330
1F
100
AcDbEntity
  8
0-8
  6
Continuous
 62
     3
370
     9
100
AcDbCircle
 10
-517.4761885696083
 20
460.5641343906723
 30
0.0
 40
5.999999381400443
100
AcDbArc
 50
90.0
 51
270.0
  0
ARC
  5
351
330
1F
100
AcDbEntity
  8
0-8
  6
Continuous
 62
     3
370
     9
100
AcDbCircle
 10
-449.4760264376102
 20
360.5641388681551
 30
0.0
 40
5.999999381400443
100
AcDbArc
 50
270.0
 51
90.0
  0
ARC
  5
352
330
1F
100
AcDbEntity
  8
0-8
  6
Continuous
 62
     3
370
     9
100
AcDbCircle
 10
-517.4761885696083
 20
360.5641388681551
 30
0.0
 40
5.999999381400443
100
AcDbArc
 50
90.0
 51
270.0
  0
CIRCLE
  5
353
330
1F
100
AcDbEntity
  8
0-8
  6
Continuous
 62
     3
370
     9
100
AcDbCircle
 10
-403.4760690915226
 20
1010.564284739822
 30
0.0
 40
14.99999845350111
  0
ARC
  5
354
330
1F
100
AcDbEntity
  8
0-8
  6
Continuous
 62
     3
370
     9
100
AcDbCircle
 10
-289.4760196035579
 20
960.5641819933811
 30
0.0
 40
5.999999381400443
100
AcDbArc
 50
270.0
 51
90.0
  0
ARC
  5
355
330
1F
100
AcDbEntity
  8
0-8
  6
Continuous
 62
     3
370
     9
100
AcDbCircle
 10
-357.4761117454349
 20
960.5641819933811
 30
0.0
 40
5.999999381400443
100
AcDbArc
 50
90.0
 51
270.0
  0
CIRCLE
  5
356
330
1F
100
AcDbEntity
  8
0-8
  6
Continuous
 62
     3
370
     9
100
AcDbCircle
 10
-403.4760690915226
 20
910.564219227183
 30
0.0
 40
14.99999845350111
  0
CIRCLE
  5
357
330
1F
100
AcDbEntity
  8
0-8
  6
Continuous
 62
     3
370
     9
100
AcDbCircle
 10
-403.4760690915226
 20
810.5642936947868
 30
0.0
 40
14.99999845350111
  0
CIRCLE
  5
358
330
1F
100
AcDbEntity
  8
0-8
  6
Continuous
 62
     3
370
     9
100
AcDbCircle
 10
-403.4760690915226
 20
710.564228182148
 30
0.0
 40
14.99999845350111
  0
CIRCLE
  5
359
330
1F
100
AcDbEntity
  8
0-8
  6
Continuous
 62
     3
370
     9
100
AcDbCircle
 10
-403.4760690915226
 20
610.5643026497518
 30
0.0
 40
14.99999845350111
  0
CIRCLE
  5
35A
330
1F
100
AcDbEntity
  8
0-8
  6
Continuous
 62
     3
370
     9
100
AcDbCircle
 10
-403.4760690915226
 20
510.564237137113
 30
0.0
 40
14.99999845350111
  0
CIRCLE
  5
35B
330
1F
100
AcDbEntity
  8
0-8
  6
Continuous
 62
     3
370
     9
100
AcDbCircle
 10
-403.4760690915226
 20
410.5642416145955
 30
0.0
 40
14.99999845350111
  0
CIRCLE
  5
35C
330
1F
100
AcDbEntity
  8
0-8
  6
Continuous
 62
     3
370
     9
100
AcDbCircle
 10
-403.4760690915226
 20
310.564246092078
 30
0.0
 40
14.99999845350111
  0
ARC
  5
35D
330
1F
100
AcDbEntity
  8
0-8
  6
Continuous
 62
     3
370
     9
100
AcDbCircle
 10
-289.4760196035579
 20
860.5641164807423
 30
0.0
 40
5.999999381400443
100
AcDbArc
 50
270.0
 51
90.0
  0
ARC
  5
35E
330
1F
100
AcDbEntity
  8
0-8
  6
Continuous
 62
     3
370
     9
100
AcDbCircle
 10
-357.4761117454349
 20
860.5641164807423
 30
0.0
 40
5.999999381400443
100
AcDbArc
 50
90.0
 51
270.0
  0
ARC
  5
35F
330
1F
100
AcDbEntity
  8
0-8
  6
Continuous
 62
     3
370
     9
100
AcDbCircle
 10
-289.4760196035579
 20
760.5641909483461
 30
0.0
 40
5.999999381400443
100
AcDbArc
 50
270.0
 51
90.0
  0
ARC
  5
360
330
1F
100
AcDbEntity
  8
0-8
  6
Continuous
 62
     3
370
     9
100
AcDbCircle
 10
-357.4761117454349
 20
760.5641909483461
 30
0.0
 40
5.999999381400443
100
AcDbArc
 50
90.0
 51
270.0
  0
ARC
  5
361
330
1F
100
AcDbEntity
  8
0-8
  6
Continuous
 62
     3
370
     9
100
AcDbCircle
 10
-289.4760196035579
 20
660.5641254357073
 30
0.0
 40
5.999999381400443
100
AcDbArc
 50
270.0
 51
90.0
  0
ARC
  5
362
330
1F
100
AcDbEntity
  8
0-8
  6
Continuous
 62
     3
370
     9
100
AcDbCircle
 10
-357.4761117454349
 20
660.5641254357073
 30
0.0
 40
5.999999381400443
100
AcDbArc
 50
90.0
 51
270.0
  0
ARC
  5
363
330
1F
100
AcDbEntity
  8
0-8
  6
Continuous
 62
     3
370
     9
100
AcDbCircle
 10
-289.4760196035579
 20
560.5641999033111
 30
0.0
 40
5.999999381400443
100
AcDbArc
 50
270.0
 51
90.0
  0
ARC
  5
364
330
1F
100
AcDbEntity
  8
0-8
  6
Continuous
 62
     3
370
     9
100
AcDbCircle
 10
-357.4761117454349
 20
560.5641999033111
 30
0.0
 40
5.999999381400443
100
AcDbArc
 50
90.0
 51
270.0
  0
ARC
  5
365
330
1F
100
AcDbEntity
  8
0-8
  6
Continuous
 62
     3
370
     9
100
AcDbCircle
 10
-289.4760196035579
 20
460.5641343906723
 30
0.0
 40
5.999999381400443
100
AcDbArc
 50
270.0
 51
90.0
  0
ARC
  5
366
330
1F
100
AcDbEntity
  8
0-8
  6
Continuous
 62
     3
370
     9
100
AcDbCircle
 10
-357.4761117454349
 20
460.5641343906723
 30
0.0
 40
5.999999381400443
100
AcDbArc
 50
90.0
 51
270.0
  0
ARC
  5
367
330
1F
100
AcDbEntity
  8
0-8
  6
Continuous
 62
     3
370
     9
100
AcDbCircle
 10
-289.4760196035579
 20
360.5641388681551
 30
0.0
 40
5.999999381400443
100
AcDbArc
 50
270.0
 51
90.0
  0
ARC
  5
368
330
1F
100
AcDbEntity
  8
0-8
  6
Continuous
 62
     3
370
     9
100
AcDbCircle
 10
-357.4761117454349
 20
360.5641388681551
 30
0.0
 40
5.999999381400443
100
AcDbArc
 50
90.0
 51
270.0
  0
CIRCLE
  5
369
330
1F
100
AcDbEntity
  8
0-8
  6
Continuous
 62
     3
370
     9
100
AcDbCircle
 10
-243.4760622574704
 20
1010.564284739822
 30
0.0
 40
14.99999845350111
  0
CIRCLE
  5
36A
330
1F
100
AcDbEntity
  8
0-8
  6
Continuous
 62
     3
370
     9
100
AcDbCircle
 10
-243.4760622574704
 20
910.564219227183
 30
0.0
 40
14.99999845350111
  0
CIRCLE
  5
36B
330
1F
100
AcDbEntity
  8
0-8
  6
Continuous
 62
     3
370
     9
100
AcDbCircle
 10
-243.4760622574704
 20
810.5642936947868
 30
0.0
 40
14.99999845350111
  0
CIRCLE
  5
36C
330
1F
100
AcDbEntity
  8
0-8
  6
Continuous
 62
     3
370
     9
100
AcDbCircle
 10
-243.4760622574704
 20
710.564228182148
 30
0.0
 40
14.99999845350111
  0
CIRCLE
  5
36D
330
1F
100
AcDbEntity
  8
0-8
  6
Continuous
 62
     3
370
     9
100
AcDbCircle
 10
-243.4760622574704
 20
610.5643026497518
 30
0.0
 40
14.99999845350111
  0
CIRCLE
  5
36E
330
1F
100
AcDbEntity
  8
0-8
  6
Continuous
 62
     3
370
     9
100
AcDbCircle
 10
-243.4760622574704
 20
510.564237137113
 30
0.0
 40
14.99999845350111
  0
CIRCLE
  5
36F
330
1F
100
AcDbEntity
  8
0-8
  6
Continuous
 62
     3
370
     9
100
AcDbCircle
 10
-243.4760622574704
 20
410.5642416145955
 30
0.0
 40
14.99999845350111
  0
CIRCLE
  5
370
330
1F
100
AcDbEntity
  8
0-8
  6
Continuous
 62
     3
370
     9
100
AcDbCircle
 10
-243.4760622574704
 20
310.564246092078
 30
0.0
 40
14.99999845350111
  0
LINE
  5
371
330
1F
100
AcDbEntity
  8
0-4
  6
Continuous
 62
     7
370
     9
100
AcDbLine
 10
-803.4760861766531
 20
1108.675885746602
 30
0.0
 11
-323.4760306794358
 21
1108.675885746602
 31
0.0
  0
LINE
  5
372
330
1F
100
AcDbEntity
  8
0-4
  6
Continuous
 62
     7
370
     9
100
AcDbLine
 10
-803.4760861766531
 20
1108.675885746602
 30
0.0
 11
-773.7327403354388
 21
1112.591671513203
 31
0.0
  0
LINE
  5
373
330
1F
100
AcDbEntity
  8
0-4
  6
Continuous
 62
     7
370
     9
100
AcDbLine
 10
-803.4760861766531
 20
1108.675885746602
 30
0.0
 11
-773.7327403354388
 21
1104.76009998
 31
0.0
  0
LINE
  5
374
330
1F
100
AcDbEntity
  8
0-4
  6
Continuous
 62
     7
370
     9
100
AcDbLine
 10
-613.732698506326
 20
1104.76009998
 30
0.0
 11
-673.2193901887547
 21
1112.591671513203
 31
0.0
  0
LINE
  5
375
330
1F
100
AcDbEntity
  8
0-4
  6
Continuous
 62
     7
370
     9
100
AcDbLine
 10
-613.732698506326
 20
1112.591671513203
 30
0.0
 11
-673.2193901887547
 21
1104.76009998
 31
0.0
  0
LINE
  5
376
330
1F
100
AcDbEntity
  8
0-4
  6
Continuous
 62
     7
370
     9
100
AcDbLine
 10
-803.4760861766531
 20
1111.675885746602
 30
0.0
 11
-803.4760861766531
 21
1025.89080592267
 31
0.0
  0
LINE
  5
377
330
1F
100
AcDbEntity
  8
0-4
  6
Continuous
 62
     7
370
     9
100
AcDbLine
 10
-643.4760443475403
 20
1111.675885746602
 30
0.0
 11
-643.4760443475403
 21
1025.89080592267
 31
0.0
  0
TEXT
  5
378
330
1F
100
AcDbEntity
  8
0-4
  6
Continuous
 62
     2
370
   211
100
AcDbText
 10
-744.7260652620967
 20
1119.315885746602
 30
0.0
 40
30.48
  1
80
 41
1.0625
  7
ＭＳ ゴシック
100
AcDbText
  0
LINE
  5
379
330
1F
100
AcDbEntity
  8
0-4
  6
Continuous
 62
     7
370
     9
100
AcDbLine
 10
-453.7327616623951
 20
1104.76009998
 30
0.0
 11
-513.2194533448237
 21
1112.591671513203
 31
0.0
  0
LINE
  5
37A
330
1F
100
AcDbEntity
  8
0-4
  6
Continuous
 62
     7
370
     9
100
AcDbLine
 10
-453.7327616623951
 20
1112.591671513203
 30
0.0
 11
-513.2194533448237
 21
1104.76009998
 31
0.0
  0
LINE
  5
37B
330
1F
100
AcDbEntity
  8
0-4
  6
Continuous
 62
     7
370
     9
100
AcDbLine
 10
-483.4761075036093
 20
1111.675885746602
 30
0.0
 11
-483.4761075036093
 21
1025.89080592267
 31
0.0
  0
TEXT
  5
37C
330
1F
100
AcDbEntity
  8
0-4
  6
Continuous
 62
     2
370
   211
100
AcDbText
 10
-584.7260759255748
 20
1119.315885746602
 30
0.0
 40
30.48
  1
80
 41
1.0625
  7
ＭＳ ゴシック
100
AcDbText
  0
LINE
  5
37D
330
1F
100
AcDbEntity
  8
0-4
  6
Continuous
 62
     7
370
     9
100
AcDbLine
 10
-323.4760306794358
 20
1108.675885746602
 30
0.0
 11
-353.2193765206501
 21
1112.591671513203
 31
0.0
  0
LINE
  5
37E
330
1F
100
AcDbEntity
  8
0-4
  6
Continuous
 62
     7
370
     9
100
AcDbLine
 10
-323.4760306794358
 20
1108.675885746602
 30
0.0
 11
-353.2193765206501
 21
1104.76009998
 31
0.0
  0
LINE
  5
37F
330
1F
100
AcDbEntity
  8
0-4
  6
Continuous
 62
     7
370
     9
100
AcDbLine
 10
-323.4760306794358
 20
1111.675885746602
 30
0.0
 11
-323.4760306794358
 21
1025.89080592267
 31
0.0
  0
TEXT
  5
380
330
1F
100
AcDbEntity
  8
0-4
  6
Continuous
 62
     2
370
   211
100
AcDbText
 10
-424.7260690915226
 20
1119.315885746602
 30
0.0
 40
30.48
  1
80
 41
1.0625
  7
ＭＳ ゴシック
100
AcDbText
  0
LINE
  5
381
330
1F
100
AcDbEntity
  8
0-4
  6
Continuous
 62
     7
370
     9
100
AcDbLine
 10
-113.4760938355048
 20
1108.675885746602
 30
0.0
 11
-253.4757280958814
 21
1108.675885746602
 31
0.0
  0
LINE
  5
382
330
1F
100
AcDbEntity
  8
0-4
  6
Continuous
 62
     7
370
     9
100
AcDbLine
 10
-203.4757280958814
 20
1108.675885746602
 30
0.0
 11
-233.2190739370957
 21
1104.76009998
 31
0.0
  0
LINE
  5
383
330
1F
100
AcDbEntity
  8
0-4
  6
Continuous
 62
     7
370
     9
100
AcDbLine
 10
-203.4757280958814
 20
1108.675885746602
 30
0.0
 11
-233.2190739370957
 21
1112.591671513203
 31
0.0
  0
LINE
  5
384
330
1F
100
AcDbEntity
  8
0-4
  6
Continuous
 62
     7
370
     9
100
AcDbLine
 10
-163.4760938355049
 20
1108.675885746602
 30
0.0
 11
-133.7327479942905
 21
1104.76009998
 31
0.0
  0
LINE
  5
385
330
1F
100
AcDbEntity
  8
0-4
  6
Continuous
 62
     7
370
     9
100
AcDbLine
 10
-163.4760938355049
 20
1108.675885746602
 30
0.0
 11
-133.7327479942905
 21
1112.591671513203
 31
0.0
  0
TEXT
  5
386
330
1F
100
AcDbEntity
  8
0-4
  6
Continuous
 62
     2
370
   211
100
AcDbText
 10
-204.7259109656931
 20
1119.315885746602
 30
0.0
 40
30.48
  1
20
 41
1.0625
  7
ＭＳ ゴシック
100
AcDbText
  0
LINE
  5
387
330
1F
100
AcDbEntity
  8
0-4
  6
Continuous
 62
     7
370
     9
100
AcDbLine
 10
-963.4760930107054
 20
1189.661289922187
 30
0.0
 11
-163.4760938355049
 21
1189.661289922187
 31
0.0
  0
LINE
  5
388
330
1F
100
AcDbEntity
  8
0-4
  6
Continuous
 62
     7
370
     9
100
AcDbLine
 10
-963.4760930107054
 20
1189.661289922187
 30
0.0
 11
-933.7327471694912
 21
1193.577075688788
 31
0.0
  0
LINE
  5
389
330
1F
100
AcDbEntity
  8
0-4
  6
Continuous
 62
     7
370
     9
100
AcDbLine
 10
-963.4760930107054
 20
1189.661289922187
 30
0.0
 11
-933.7327471694912
 21
1185.745504155585
 31
0.0
  0
LINE
  5
38A
330
1F
100
AcDbEntity
  8
0-4
  6
Continuous
 62
     7
370
     9
100
AcDbLine
 10
-163.4760938355049
 20
1189.661289922187
 30
0.0
 11
-193.2194396767191
 21
1193.577075688788
 31
0.0
  0
LINE
  5
38B
330
1F
100
AcDbEntity
  8
0-4
  6
Continuous
 62
     7
370
     9
100
AcDbLine
 10
-163.4760938355049
 20
1189.661289922187
 30
0.0
 11
-193.2194396767191
 21
1185.745504155585
 31
0.0
  0
LINE
  5
38C
330
1F
100
AcDbEntity
  8
0-4
  6
Continuous
 62
     7
370
     9
100
AcDbLine
 10
-963.4760930107054
 20
1192.661289922187
 30
0.0
 11
-963.4760930107054
 21
1074.482048428021
 31
0.0
  0
TEXT
  5
38D
330
1F
100
AcDbEntity
  8
0-4
  6
Continuous
 62
     2
370
   211
100
AcDbText
 10
-595.9760934231052
 20
1200.301289922187
 30
0.0
 40
30.48
  1
400
 41
1.083333333333333
  7
ＭＳ ゴシック
100
AcDbText
  0
LINE
  5
38E
330
1F
100
AcDbEntity
  8
0-4
  6
Continuous
 62
     7
370
     9
100
AcDbLine
 10
-203.4757280958814
 20
1111.675885746602
 30
0.0
 11
-203.4757280958814
 21
718.146270055445
 31
0.0
  0
LINE
  5
38F
330
1F
100
AcDbEntity
  8
0-4
  6
Continuous
 62
     7
370
     9
100
AcDbLine
 10
-163.4760938355049
 20
1192.661289922187
 30
0.0
 11
-163.4760938355049
 21
1085.280102318099
 31
0.0
  0
LINE
  5
390
330
1F
100
AcDbEntity
  8
0-0
  6
Continuous
 62
     3
370
     9
100
AcDbLine
 10
647.6576124776307
 20
1060.56424750602
 30
0.0
 11
647.6576124776307
 21
1054.564134390673
 31
0.0
  0
LINE
  5
391
330
1F
100
AcDbEntity
  8
0-0
  6
Continuous
 62
     3
370
     9
100
AcDbLine
 10
647.6576124776307
 20
266.56453642147
 30
0.0
 11
647.6576124776307
 21
260.5644233061224
 31
0.0
  0
LINE
  5
392
330
1F
100
AcDbEntity
  8
0-A
  6
Continuous
 62
     4
370
     9
100
AcDbLine
 10
673.6576827034091
 20
990.5641876491484
 30
0.0
 11
623.6577199372107
 21
990.5641876491484
 31
0.0
  0
LINE
  5
393
330
1F
100
AcDbEntity
  8
0-A
  6
Continuous
 62
     4
370
     9
100
AcDbLine
 10
673.6576827034091
 20
330.564483162994
 30
0.0
 11
623.6577199372107
 21
330.564483162994
 31
0.0
  0
LINE
  5
394
330
1F
100
AcDbEntity
  8
0-A
  6
Continuous
 62
     4
370
     9
100
AcDbLine
 10
623.6577199372107
 20
990.5641876491484
 30
0.0
 11
623.6577199372107
 21
380.5645159193131
 31
0.0
  0
LINE
  5
395
330
1F
100
AcDbEntity
  8
0-0
  6
JWW_CENTER1
 62
     7
370
     9
100
AcDbLine
 10
603.7900441559606
 20
660.5644053961925
 30
0.0
 11
689.0699273455118
 21
660.5644053961925
 31
0.0
  0
LINE
  5
396
330
1F
100
AcDbEntity
  8
0-0
  6
Continuous
 62
     3
370
     9
100
AcDbLine
 10
624.2579552171334
 20
260.5644932962437
 30
0.0
 11
647.6576124776307
 21
260.5644932962437
 31
0.0
  0
LINE
  5
397
330
1F
100
AcDbEntity
  8
0-0
  6
Continuous
 62
     3
370
     9
100
AcDbLine
 10
617.6578867823481
 20
1053.964179071235
 30
0.0
 11
617.6578867823481
 21
267.1644917409077
 31
0.0
  0
LINE
  5
398
330
1F
100
AcDbEntity
  8
0-0
  6
Continuous
 62
     3
370
     9
100
AcDbLine
 10
624.2579552171334
 20
1060.56424750602
 30
0.0
 11
647.6576124776307
 21
1060.56424750602
 31
0.0
  0
LINE
  5
399
330
1F
100
AcDbEntity
  8
0-0
  6
Continuous
 62
     3
370
     9
100
AcDbLine
 10
624.2576752566486
 20
1054.564134390673
 30
0.0
 11
647.6576124776307
 21
1054.564134390673
 31
0.0
  0
LINE
  5
39A
330
1F
100
AcDbEntity
  8
0-0
  6
Continuous
 62
     3
370
     9
100
AcDbLine
 10
624.2576752566486
 20
266.56453642147
 30
0.0
 11
647.6576124776307
 21
266.56453642147
 31
0.0
  0
LINE
  5
39B
330
1F
100
AcDbEntity
  8
0-0
  6
Continuous
 62
     3
370
     9
100
AcDbLine
 10
623.6577199372107
 20
267.164561731029
 30
0.0
 11
623.6577199372107
 21
1053.964179071235
 31
0.0
  0
LINE
  5
39C
330
1F
100
AcDbEntity
  8
0-A
  6
JWW_DASHED2
 62
     4
370
     9
100
AcDbLine
 10
629.6576930723159
 20
990.5641876491484
 30
0.0
 11
629.6576930723159
 21
330.564483162994
 31
0.0
  0
LINE
  5
39D
330
1F
100
AcDbEntity
  8
0-A
  6
Continuous
 62
     4
370
     9
100
AcDbLine
 10
673.6576827034091
 20
990.5641876491484
 30
0.0
 11
673.6576827034091
 21
330.564483162994
 31
0.0
  0
ARC
  5
39E
330
1F
100
AcDbEntity
  8
0-0
  6
Continuous
 62
     3
370
     9
100
AcDbCircle
 10
624.2579552171334
 20
267.1644917409077
 30
0.0
 40
6.600000085057439
100
AcDbArc
 50
180.0
 51
270.0
  0
ARC
  5
39F
330
1F
100
AcDbEntity
  8
0-0
  6
Continuous
 62
     3
370
     9
100
AcDbCircle
 10
624.2579552171334
 20
1053.964179071235
 30
0.0
 40
6.600000085057439
100
AcDbArc
 50
90.0
 51
180.0
  0
ARC
  5
3A0
330
1F
100
AcDbEntity
  8
0-0
  6
Continuous
 62
     3
370
     9
100
AcDbCircle
 10
624.2576752566486
 20
1053.964179071235
 30
0.0
 40
0.6000000201597177
100
AcDbArc
 50
90.0
 51
180.0
  0
ARC
  5
3A1
330
1F
100
AcDbEntity
  8
0-0
  6
Continuous
 62
     3
370
     9
100
AcDbCircle
 10
624.2576752566486
 20
267.164561731029
 30
0.0
 40
0.6000000201597177
100
AcDbArc
 50
180.0
 51
270.0
  0
LINE
  5
3A2
330
1F
100
AcDbEntity
  8
0-4
  6
Continuous
 62
     7
370
     9
100
AcDbLine
 10
697.6576124776307
 20
1189.661289922187
 30
0.0
 11
567.6578867823482
 21
1189.661289922187
 31
0.0
  0
LINE
  5
3A3
330
1F
100
AcDbEntity
  8
0-4
  6
Continuous
 62
     7
370
     9
100
AcDbLine
 10
617.6578867823482
 20
1189.661289922187
 30
0.0
 11
587.9145409411339
 21
1185.745504155585
 31
0.0
  0
LINE
  5
3A4
330
1F
100
AcDbEntity
  8
0-4
  6
Continuous
 62
     7
370
     9
100
AcDbLine
 10
617.6578867823482
 20
1189.661289922187
 30
0.0
 11
587.9145409411339
 21
1193.577075688788
 31
0.0
  0
LINE
  5
3A5
330
1F
100
AcDbEntity
  8
0-4
  6
Continuous
 62
     7
370
     9
100
AcDbLine
 10
647.6576124776307
 20
1189.661289922187
 30
0.0
 11
677.400958318845
 21
1185.745504155585
 31
0.0
  0
LINE
  5
3A6
330
1F
100
AcDbEntity
  8
0-4
  6
Continuous
 62
     7
370
     9
100
AcDbLine
 10
647.6576124776307
 20
1189.661289922187
 30
0.0
 11
677.400958318845
 21
1193.577075688788
 31
0.0
  0
LINE
  5
3A7
330
1F
100
AcDbEntity
  8
0-4
  6
Continuous
 62
     7
370
     9
100
AcDbLine
 10
617.6578867823482
 20
1192.661289922187
 30
0.0
 11
617.6578867823482
 21
1074.482048428021
 31
0.0
  0
LINE
  5
3A8
330
1F
100
AcDbEntity
  8
0-4
  6
Continuous
 62
     7
370
     9
100
AcDbLine
 10
647.6576124776307
 20
1192.661289922187
 30
0.0
 11
647.6576124776307
 21
1074.482048428021
 31
0.0
  0
TEXT
  5
3A9
330
1F
100
AcDbEntity
  8
0-4
  6
Continuous
 62
     2
370
   211
100
AcDbText
 10
611.4077496299894
 20
1200.301289922187
 30
0.0
 40
30.48
  1
15
 41
1.062499999999998
  7
ＭＳ ゴシック
100
AcDbText
  0
LINE
  5
3AA
330
1F
100
AcDbEntity
  8
0-4
  6
Continuous
 62
     7
370
     9
100
AcDbLine
 10
522.9620260052033
 20
260.5644233061224
 30
0.0
 11
522.9620260052033
 21
1060.56424750602
 31
0.0
  0
LINE
  5
3AB
330
1F
100
AcDbEntity
  8
0-4
  6
Continuous
 62
     7
370
     9
100
AcDbLine
 10
522.9620260052033
 20
260.5644233061224
 30
0.0
 11
519.0462402386016
 21
290.3077691473368
 31
0.0
  0
LINE
  5
3AC
330
1F
100
AcDbEntity
  8
0-4
  6
Continuous
 62
     7
370
     9
100
AcDbLine
 10
522.9620260052033
 20
260.5644233061224
 30
0.0
 11
526.8778117718048
 21
290.3077691473368
 31
0.0
  0
LINE
  5
3AD
330
1F
100
AcDbEntity
  8
0-4
  6
Continuous
 62
     7
370
     9
100
AcDbLine
 10
526.8778117718048
 20
360.3078290042083
 30
0.0
 11
519.0462402386016
 21
300.8211373217796
 31
0.0
  0
LINE
  5
3AE
330
1F
100
AcDbEntity
  8
0-4
  6
Continuous
 62
     7
370
     9
100
AcDbLine
 10
519.0462402386016
 20
360.3078290042083
 30
0.0
 11
526.8778117718048
 21
300.8211373217796
 31
0.0
  0
LINE
  5
3AF
330
1F
100
AcDbEntity
  8
0-4
  6
Continuous
 62
     7
370
     9
100
AcDbLine
 10
450.5690084165177
 20
260.5644233061224
 30
0.0
 11
597.4325814662317
 21
260.5644233061224
 31
0.0
  0
LINE
  5
3B0
330
1F
100
AcDbEntity
  8
0-4
  6
Continuous
 62
     7
370
     9
100
AcDbLine
 10
519.9620260052031
 20
330.564483162994
 30
0.0
 11
597.4325814662317
 21
330.564483162994
 31
0.0
  0
TEXT
  5
3B1
330
1F
100
AcDbEntity
  8
0-4
  6
Continuous
 62
     2
370
   211
100
AcDbText
 10
512.3220260052033
 20
274.3144532345582
 30
0.0
 40
30.48
  1
35
 50
90.0
 41
1.0625
  7
ＭＳ ゴシック
100
AcDbText
  0
LINE
  5
3B2
330
1F
100
AcDbEntity
  8
0-4
  6
Continuous
 62
     7
370
     9
100
AcDbLine
 10
526.8778117718048
 20
1020.307533490363
 30
0.0
 11
519.0462402386017
 21
960.820841807934
 31
0.0
  0
LINE
  5
3B3
330
1F
100
AcDbEntity
  8
0-4
  6
Continuous
 62
     7
370
     9
100
AcDbLine
 10
519.0462402386017
 20
1020.307533490363
 30
0.0
 11
526.8778117718048
 21
960.820841807934
 31
0.0
  0
LINE
  5
3B4
330
1F
100
AcDbEntity
  8
0-4
  6
Continuous
 62
     7
370
     9
100
AcDbLine
 10
519.9620260052033
 20
990.5641876491484
 30
0.0
 11
597.4325814662317
 21
990.5641876491484
 31
0.0
  0
TEXT
  5
3B5
330
1F
100
AcDbEntity
  8
0-4
  6
Continuous
 62
     2
370
   211
100
AcDbText
 10
512.3220260052033
 20
628.0643354060712
 30
0.0
 40
30.48
  1
330
 50
90.0
 41
1.083333333333333
  7
ＭＳ ゴシック
100
AcDbText
  0
LINE
  5
3B6
330
1F
100
AcDbEntity
  8
0-4
  6
Continuous
 62
     7
370
     9
100
AcDbLine
 10
522.9620260052033
 20
1060.56424750602
 30
0.0
 11
519.0462402386017
 21
1030.820901664806
 31
0.0
  0
LINE
  5
3B7
330
1F
100
AcDbEntity
  8
0-4
  6
Continuous
 62
     7
370
     9
100
AcDbLine
 10
522.9620260052033
 20
1060.56424750602
 30
0.0
 11
526.8778117718048
 21
1030.820901664806
 31
0.0
  0
LINE
  5
3B8
330
1F
100
AcDbEntity
  8
0-4
  6
Continuous
 62
     7
370
     9
100
AcDbLine
 10
450.5690084165178
 20
1060.56424750602
 30
0.0
 11
597.4325814662317
 21
1060.56424750602
 31
0.0
  0
TEXT
  5
3B9
330
1F
100
AcDbEntity
  8
0-4
  6
Continuous
 62
     2
370
   211
100
AcDbText
 10
512.3220260052033
 20
1004.314217577584
 30
0.0
 40
30.48
  1
35
 50
90.0
 41
1.0625
  7
ＭＳ ゴシック
100
AcDbText
  0
LINE
  5
3BA
330
1F
100
AcDbEntity
  8
0-4
  6
Continuous
 62
     7
370
     9
100
AcDbLine
 10
453.5690084165176
 20
260.5644233061224
 30
0.0
 11
453.5690084165177
 21
1060.56424750602
 31
0.0
  0
LINE
  5
3BB
330
1F
100
AcDbEntity
  8
0-4
  6
Continuous
 62
     7
370
     9
100
AcDbLine
 10
453.5690084165176
 20
260.5644233061224
 30
0.0
 11
449.6532226499161
 21
290.3077691473368
 31
0.0
  0
LINE
  5
3BC
330
1F
100
AcDbEntity
  8
0-4
  6
Continuous
 62
     7
370
     9
100
AcDbLine
 10
453.5690084165176
 20
260.5644233061224
 30
0.0
 11
457.4847941831192
 21
290.3077691473368
 31
0.0
  0
LINE
  5
3BD
330
1F
100
AcDbEntity
  8
0-4
  6
Continuous
 62
     7
370
     9
100
AcDbLine
 10
453.5690084165177
 20
1060.56424750602
 30
0.0
 11
449.6532226499162
 21
1030.820901664806
 31
0.0
  0
LINE
  5
3BE
330
1F
100
AcDbEntity
  8
0-4
  6
Continuous
 62
     7
370
     9
100
AcDbLine
 10
453.5690084165177
 20
1060.56424750602
 30
0.0
 11
457.4847941831192
 21
1030.820901664806
 31
0.0
  0
TEXT
  5
3BF
330
1F
100
AcDbEntity
  8
0-4
  6
Continuous
 62
     2
370
   211
100
AcDbText
 10
442.9290084165177
 20
628.0643354060712
 30
0.0
 40
30.48
  1
400
 50
90.0
 41
1.083333333333333
  7
ＭＳ ゴシック
100
AcDbText
  0
LINE
  5
3C0
330
1F
100
AcDbEntity
  8
0-4
  6
Continuous
 62
     7
370
     9
100
AcDbLine
 10
-72.82525106820515
 20
310.564246092078
 30
0.0
 11
-72.82525106820509
 21
1010.564284739822
 31
0.0
  0
LINE
  5
3C1
330
1F
100
AcDbEntity
  8
0-4
  6
Continuous
 62
     7
370
     9
100
AcDbLine
 10
-72.82525106820515
 20
310.564246092078
 30
0.0
 11
-76.74103683480669
 21
340.3075919332923
 31
0.0
  0
LINE
  5
3C2
330
1F
100
AcDbEntity
  8
0-4
  6
Continuous
 62
     7
370
     9
100
AcDbLine
 10
-72.82525106820515
 20
310.564246092078
 30
0.0
 11
-68.9094653016036
 21
340.3075919332923
 31
0.0
  0
LINE
  5
3C3
330
1F
100
AcDbEntity
  8
0-4
  6
Continuous
 62
     7
370
     9
100
AcDbLine
 10
-68.90946530160357
 20
440.3075874558098
 30
0.0
 11
-76.74103683480668
 21
380.8208957733811
 31
0.0
  0
LINE
  5
3C4
330
1F
100
AcDbEntity
  8
0-4
  6
Continuous
 62
     7
370
     9
100
AcDbLine
 10
-76.74103683480668
 20
440.3075874558098
 30
0.0
 11
-68.90946530160357
 21
380.8208957733811
 31
0.0
  0
LINE
  5
3C5
330
1F
100
AcDbEntity
  8
0-4
  6
Continuous
 62
     7
370
     9
100
AcDbLine
 10
-69.82525106820515
 20
310.564246092078
 30
0.0
 11
-184.3100642219233
 21
310.564246092078
 31
0.0
  0
LINE
  5
3C6
330
1F
100
AcDbEntity
  8
0-4
  6
Continuous
 62
     7
370
     9
100
AcDbLine
 10
-69.82525106820512
 20
410.5642416145955
 30
0.0
 11
-184.3100642219233
 21
410.5642416145955
 31
0.0
  0
TEXT
  5
3C7
330
1F
100
AcDbEntity
  8
0-4
  6
Continuous
 62
     2
370
   211
100
AcDbText
 10
-83.46525106820515
 20
339.3142438533368
 30
0.0
 40
30.48
  1
50
 50
89.99999999999999
 41
1.0625
  7
ＭＳ ゴシック
100
AcDbText
  0
LINE
  5
3C8
330
1F
100
AcDbEntity
  8
0-4
  6
Continuous
 62
     7
370
     9
100
AcDbLine
 10
-68.90946530160357
 20
540.3075829783273
 30
0.0
 11
-76.74103683480668
 21
480.8208912958986
 31
0.0
  0
LINE
  5
3C9
330
1F
100
AcDbEntity
  8
0-4
  6
Continuous
 62
     7
370
     9
100
AcDbLine
 10
-76.74103683480668
 20
540.3075829783273
 30
0.0
 11
-68.90946530160357
 21
480.8208912958986
 31
0.0
  0
LINE
  5
3CA
330
1F
100
AcDbEntity
  8
0-4
  6
Continuous
 62
     7
370
     9
100
AcDbLine
 10
-69.82525106820512
 20
510.564237137113
 30
0.0
 11
-184.3100642219233
 21
510.564237137113
 31
0.0
  0
TEXT
  5
3CB
330
1F
100
AcDbEntity
  8
0-4
  6
Continuous
 62
     2
370
   211
100
AcDbText
 10
-83.46525106820513
 20
439.3142393758541
 30
0.0
 40
30.48
  1
50
 50
90.0
 41
1.0625
  7
ＭＳ ゴシック
100
AcDbText
  0
LINE
  5
3CC
330
1F
100
AcDbEntity
  8
0-4
  6
Continuous
 62
     7
370
     9
100
AcDbLine
 10
-68.90946530160357
 20
640.3076484909661
 30
0.0
 11
-76.74103683480668
 21
580.8209568085374
 31
0.0
  0
LINE
  5
3CD
330
1F
100
AcDbEntity
  8
0-4
  6
Continuous
 62
     7
370
     9
100
AcDbLine
 10
-76.74103683480668
 20
640.3076484909661
 30
0.0
 11
-68.90946530160357
 21
580.8209568085374
 31
0.0
  0
LINE
  5
3CE
330
1F
100
AcDbEntity
  8
0-4
  6
Continuous
 62
     7
370
     9
100
AcDbLine
 10
-69.82525106820512
 20
610.5643026497518
 30
0.0
 11
-184.3100642219233
 21
610.5643026497518
 31
0.0
  0
TEXT
  5
3CF
330
1F
100
AcDbEntity
  8
0-4
  6
Continuous
 62
     2
370
   211
100
AcDbText
 10
-83.46525106820513
 20
539.3142698934323
 30
0.0
 40
30.48
  1
50
 50
90.0
 41
1.0625
  7
ＭＳ ゴシック
100
AcDbText
  0
LINE
  5
3D0
330
1F
100
AcDbEntity
  8
0-4
  6
Continuous
 62
     7
370
     9
100
AcDbLine
 10
-68.90946530160356
 20
740.3075740233623
 30
0.0
 11
-76.74103683480666
 21
680.8208823409336
 31
0.0
  0
LINE
  5
3D1
330
1F
100
AcDbEntity
  8
0-4
  6
Continuous
 62
     7
370
     9
100
AcDbLine
 10
-76.74103683480666
 20
740.3075740233623
 30
0.0
 11
-68.90946530160356
 21
680.8208823409336
 31
0.0
  0
LINE
  5
3D2
330
1F
100
AcDbEntity
  8
0-4
  6
Continuous
 62
     7
370
     9
100
AcDbLine
 10
-69.8252510682051
 20
710.564228182148
 30
0.0
 11
-184.3100642219232
 21
710.564228182148
 31
0.0
  0
TEXT
  5
3D3
330
1F
100
AcDbEntity
  8
0-4
  6
Continuous
 62
     2
370
   211
100
AcDbText
 10
-83.46525106820512
 20
639.3142654159499
 30
0.0
 40
30.48
  1
50
 50
89.99999999999999
 41
1.0625
  7
ＭＳ ゴシック
100
AcDbText
  0
LINE
  5
3D4
330
1F
100
AcDbEntity
  8
0-4
  6
Continuous
 62
     7
370
     9
100
AcDbLine
 10
-68.90946530160356
 20
840.3076395360011
 30
0.0
 11
-76.74103683480666
 21
780.8209478535724
 31
0.0
  0
LINE
  5
3D5
330
1F
100
AcDbEntity
  8
0-4
  6
Continuous
 62
     7
370
     9
100
AcDbLine
 10
-76.74103683480666
 20
840.3076395360011
 30
0.0
 11
-68.90946530160356
 21
780.8209478535724
 31
0.0
  0
LINE
  5
3D6
330
1F
100
AcDbEntity
  8
0-4
  6
Continuous
 62
     7
370
     9
100
AcDbLine
 10
-69.8252510682051
 20
810.5642936947868
 30
0.0
 11
-184.3100642219232
 21
810.5642936947868
 31
0.0
  0
TEXT
  5
3D7
330
1F
100
AcDbEntity
  8
0-4
  6
Continuous
 62
     2
370
   211
100
AcDbText
 10
-83.46525106820512
 20
739.3142609384674
 30
0.0
 40
30.48
  1
50
 50
90.0
 41
1.0625
  7
ＭＳ ゴシック
100
AcDbText
  0
LINE
  5
3D8
330
1F
100
AcDbEntity
  8
0-4
  6
Continuous
 62
     7
370
     9
100
AcDbLine
 10
-68.90946530160356
 20
940.3075650683974
 30
0.0
 11
-76.74103683480666
 21
880.8208733859686
 31
0.0
  0
LINE
  5
3D9
330
1F
100
AcDbEntity
  8
0-4
  6
Continuous
 62
     7
370
     9
100
AcDbLine
 10
-76.74103683480666
 20
940.3075650683974
 30
0.0
 11
-68.90946530160356
 21
880.8208733859686
 31
0.0
  0
LINE
  5
3DA
330
1F
100
AcDbEntity
  8
0-4
  6
Continuous
 62
     7
370
     9
100
AcDbLine
 10
-69.8252510682051
 20
910.564219227183
 30
0.0
 11
-184.3100642219232
 21
910.564219227183
 31
0.0
  0
TEXT
  5
3DB
330
1F
100
AcDbEntity
  8
0-4
  6
Continuous
 62
     2
370
   211
100
AcDbText
 10
-83.46525106820512
 20
839.3142564609849
 30
0.0
 40
30.48
  1
50
 50
90.0
 41
1.0625
  7
ＭＳ ゴシック
100
AcDbText
  0
LINE
  5
3DC
330
1F
100
AcDbEntity
  8
0-4
  6
Continuous
 62
     7
370
     9
100
AcDbLine
 10
-72.82525106820509
 20
1010.564284739822
 30
0.0
 11
-76.74103683480665
 21
980.8209388986074
 31
0.0
  0
LINE
  5
3DD
330
1F
100
AcDbEntity
  8
0-4
  6
Continuous
 62
     7
370
     9
100
AcDbLine
 10
-72.82525106820509
 20
1010.564284739822
 30
0.0
 11
-68.90946530160355
 21
980.8209388986074
 31
0.0
  0
LINE
  5
3DE
330
1F
100
AcDbEntity
  8
0-4
  6
Continuous
 62
     7
370
     9
100
AcDbLine
 10
-69.82525106820509
 20
1010.564284739822
 30
0.0
 11
-184.3100642219232
 21
1010.564284739822
 31
0.0
  0
TEXT
  5
3DF
330
1F
100
AcDbEntity
  8
0-4
  6
Continuous
 62
     2
370
   211
100
AcDbText
 10
-83.46525106820512
 20
939.3142519835027
 30
0.0
 40
30.48
  1
50
 50
89.99999999999999
 41
1.0625
  7
ＭＳ ゴシック
100
AcDbText
  0
LINE
  5
3E0
330
1F
100
AcDbEntity
  8
0-4
  6
Continuous
 62
     7
370
     9
100
AcDbLine
 10
-1027.48328991545
 20
360.5641388681551
 30
0.0
 11
-1027.48328991545
 21
960.5641819933811
 31
0.0
  0
LINE
  5
3E1
330
1F
100
AcDbEntity
  8
0-4
  6
Continuous
 62
     7
370
     9
100
AcDbLine
 10
-1027.48328991545
 20
360.5641388681551
 30
0.0
 11
-1031.399075682051
 21
390.3074847093694
 31
0.0
  0
LINE
  5
3E2
330
1F
100
AcDbEntity
  8
0-4
  6
Continuous
 62
     7
370
     9
100
AcDbLine
 10
-1027.48328991545
 20
360.5641388681551
 30
0.0
 11
-1023.567504148848
 21
390.3074847093694
 31
0.0
  0
LINE
  5
3E3
330
1F
100
AcDbEntity
  8
0-4
  6
Continuous
 62
     7
370
     9
100
AcDbLine
 10
-1023.567504148848
 20
490.3074802318866
 30
0.0
 11
-1031.399075682051
 21
430.8207885494579
 31
0.0
  0
LINE
  5
3E4
330
1F
100
AcDbEntity
  8
0-4
  6
Continuous
 62
     7
370
     9
100
AcDbLine
 10
-1031.399075682051
 20
490.3074802318866
 30
0.0
 11
-1023.567504148848
 21
430.8207885494579
 31
0.0
  0
LINE
  5
3E5
330
1F
100
AcDbEntity
  8
0-4
  6
Continuous
 62
     7
370
     9
100
AcDbLine
 10
-1030.48328991545
 20
360.5641388681551
 30
0.0
 11
-904.1768336003491
 21
360.5641388681551
 31
0.0
  0
LINE
  5
3E6
330
1F
100
AcDbEntity
  8
0-4
  6
Continuous
 62
     7
370
     9
100
AcDbLine
 10
-1030.48328991545
 20
460.5641343906723
 30
0.0
 11
-904.1768336003491
 21
460.5641343906723
 31
0.0
  0
TEXT
  5
3E7
330
1F
100
AcDbEntity
  8
0-4
  6
Continuous
 62
     2
370
   211
100
AcDbText
 10
-1038.12328991545
 20
389.3141366294137
 30
0.0
 40
30.48
  1
50
 50
90.0
 41
1.0625
  7
ＭＳ ゴシック
100
AcDbText
  0
LINE
  5
3E8
330
1F
100
AcDbEntity
  8
0-4
  6
Continuous
 62
     7
370
     9
100
AcDbLine
 10
-1023.567504148848
 20
590.3075457445254
 30
0.0
 11
-1031.399075682051
 21
530.8208540620967
 31
0.0
  0
LINE
  5
3E9
330
1F
100
AcDbEntity
  8
0-4
  6
Continuous
 62
     7
370
     9
100
AcDbLine
 10
-1031.399075682051
 20
590.3075457445254
 30
0.0
 11
-1023.567504148848
 21
530.8208540620967
 31
0.0
  0
LINE
  5
3EA
330
1F
100
AcDbEntity
  8
0-4
  6
Continuous
 62
     7
370
     9
100
AcDbLine
 10
-1030.48328991545
 20
560.5641999033111
 30
0.0
 11
-904.1768336003491
 21
560.5641999033111
 31
0.0
  0
TEXT
  5
3EB
330
1F
100
AcDbEntity
  8
0-4
  6
Continuous
 62
     2
370
   211
100
AcDbText
 10
-1038.12328991545
 20
489.3141671469917
 30
0.0
 40
30.48
  1
50
 50
90.0
 41
1.0625
  7
ＭＳ ゴシック
100
AcDbText
  0
LINE
  5
3EC
330
1F
100
AcDbEntity
  8
0-4
  6
Continuous
 62
     7
370
     9
100
AcDbLine
 10
-1023.567504148848
 20
690.3077512374068
 30
0.0
 11
-1031.399075682051
 21
630.8210595549781
 31
0.0
  0
LINE
  5
3ED
330
1F
100
AcDbEntity
  8
0-4
  6
Continuous
 62
     7
370
     9
100
AcDbLine
 10
-1031.399075682051
 20
690.3077512374068
 30
0.0
 11
-1023.567504148848
 21
630.8210595549781
 31
0.0
  0
LINE
  5
3EE
330
1F
100
AcDbEntity
  8
0-4
  6
Continuous
 62
     7
370
     9
100
AcDbLine
 10
-1030.48328991545
 20
660.5644053961925
 30
0.0
 11
-904.1768336003491
 21
660.5644053961925
 31
0.0
  0
TEXT
  5
3EF
330
1F
100
AcDbEntity
  8
0-4
  6
Continuous
 62
     2
370
   211
100
AcDbText
 10
-1038.12328991545
 20
589.3143026497518
 30
0.0
 40
30.48
  1
50
 50
90.0
 41
1.0625
  7
ＭＳ ゴシック
100
AcDbText
  0
LINE
  5
3F0
330
1F
100
AcDbEntity
  8
0-4
  6
Continuous
 62
     7
370
     9
100
AcDbLine
 10
-1023.567504148848
 20
790.3075367895605
 30
0.0
 11
-1031.399075682051
 21
730.8208451071317
 31
0.0
  0
LINE
  5
3F1
330
1F
100
AcDbEntity
  8
0-4
  6
Continuous
 62
     7
370
     9
100
AcDbLine
 10
-1031.399075682051
 20
790.3075367895605
 30
0.0
 11
-1023.567504148848
 21
730.8208451071317
 31
0.0
  0
LINE
  5
3F2
330
1F
100
AcDbEntity
  8
0-4
  6
Continuous
 62
     7
370
     9
100
AcDbLine
 10
-1030.48328991545
 20
760.5641909483461
 30
0.0
 11
-904.1768336003491
 21
760.5641909483461
 31
0.0
  0
TEXT
  5
3F3
330
1F
100
AcDbEntity
  8
0-4
  6
Continuous
 62
     2
370
   211
100
AcDbText
 10
-1038.12328991545
 20
689.3142981722692
 30
0.0
 40
30.48
  1
50
 50
90.0
 41
1.0625
  7
ＭＳ ゴシック
100
AcDbText
  0
LINE
  5
3F4
330
1F
100
AcDbEntity
  8
0-4
  6
Continuous
 62
     7
370
     9
100
AcDbLine
 10
-1023.567504148848
 20
890.3074623219567
 30
0.0
 11
-1031.399075682051
 21
830.820770639528
 31
0.0
  0
LINE
  5
3F5
330
1F
100
AcDbEntity
  8
0-4
  6
Continuous
 62
     7
370
     9
100
AcDbLine
 10
-1031.399075682051
 20
890.3074623219567
 30
0.0
 11
-1023.567504148848
 21
830.820770639528
 31
0.0
  0
LINE
  5
3F6
330
1F
100
AcDbEntity
  8
0-4
  6
Continuous
 62
     7
370
     9
100
AcDbLine
 10
-1030.48328991545
 20
860.5641164807423
 30
0.0
 11
-904.1768336003491
 21
860.5641164807423
 31
0.0
  0
TEXT
  5
3F7
330
1F
100
AcDbEntity
  8
0-4
  6
Continuous
 62
     2
370
   211
100
AcDbText
 10
-1038.12328991545
 20
789.3141537145442
 30
0.0
 40
30.48
  1
50
 50
90.0
 41
1.0625
  7
ＭＳ ゴシック
100
AcDbText
  0
LINE
  5
3F8
330
1F
100
AcDbEntity
  8
0-4
  6
Continuous
 62
     7
370
     9
100
AcDbLine
 10
-1027.48328991545
 20
960.5641819933811
 30
0.0
 11
-1031.399075682051
 21
930.8208361521667
 31
0.0
  0
LINE
  5
3F9
330
1F
100
AcDbEntity
  8
0-4
  6
Continuous
 62
     7
370
     9
100
AcDbLine
 10
-1027.48328991545
 20
960.5641819933811
 30
0.0
 11
-1023.567504148848
 21
930.8208361521667
 31
0.0
  0
LINE
  5
3FA
330
1F
100
AcDbEntity
  8
0-4
  6
Continuous
 62
     7
370
     9
100
AcDbLine
 10
-1030.48328991545
 20
960.5641819933811
 30
0.0
 11
-904.1768336003491
 21
960.5641819933811
 31
0.0
  0
TEXT
  5
3FB
330
1F
100
AcDbEntity
  8
0-4
  6
Continuous
 62
     2
370
   211
100
AcDbText
 10
-1038.12328991545
 20
889.314149237062
 30
0.0
 40
30.48
  1
50
 50
90.0
 41
1.0625
  7
ＭＳ ゴシック
100
AcDbText
  0
LINE
  5
3FC
330
1F
100
AcDbEntity
  8
A-5
  6
Continuous
 62
     7
370
     9
100
AcDbLine
 10
-134.452210610052
 20
117.3040875053857
 30
0.0
 11
50.75908125722364
 21
117.3040875053857
 31
0.0
  0
TEXT
  5
3FD
330
1F
100
AcDbEntity
  8
A-5
  6
Continuous
 62
     2
370
     9
100
AcDbText
 10
-130.8814648852591
 20
130.5722912645925
 30
0.0
 40
30.48
  1
滑り止め
 41
1.09375
  7
ＭＳ ゴシック
100
AcDbText
  0
LINE
  5
3FE
330
1F
100
AcDbEntity
  8
A-5
  6
Continuous
 62
     7
370
     9
100
AcDbLine
 10
-236.1059733863118
 20
297.499723764941
 30
0.0
 11
-134.452210610052
 21
117.3040875053857
 31
0.0
  0
LINE
  5
3FF
330
1F
100
AcDbEntity
  8
A-5
  6
Continuous
 62
     7
370
     9
100
AcDbLine
 10
-236.1059733863118
 20
297.499723764941
 30
0.0
 11
-224.9024234579393
 21
269.6702345672847
 31
0.0
  0
LINE
  5
400
330
1F
100
AcDbEntity
  8
A-5
  6
Continuous
 62
     7
370
     9
100
AcDbLine
 10
-236.1059733863118
 20
297.499723764941
 30
0.0
 11
-218.0813733445494
 21
273.5181935107119
 31
0.0
  0
TEXT
  5
401
330
1F
100
AcDbEntity
  8
A-5
  6
Continuous
 62
     2
370
     9
100
AcDbText
 10
-37.87007273824055
 20
1213.442528428105
 30
0.0
 40
30.48
  1
指掛け穴：φ２０
 41
1.109375
  7
ＭＳ ゴシック
100
AcDbText
  0
LINE
  5
402
330
1F
100
AcDbEntity
  8
A-5
  6
Continuous
 62
     7
370
     9
100
AcDbLine
 10
334.2418258271604
 20
1196.223812879562
 30
0.0
 11
-66.57503314648278
 21
1196.223812879562
 31
0.0
  0
TEXT
  5
403
330
1F
100
AcDbEntity
  8
A-5
  6
Continuous
 62
     2
370
     9
100
AcDbText
 10
-9.917784371055397
 20
1143.17346831482
 30
0.0
 40
30.48
  1
１ヶ／枚
 41
1.09375
  7
ＭＳ ゴシック
100
AcDbText
  0
LINE
  5
404
330
1F
100
AcDbEntity
  8
A-5
  6
Continuous
 62
     7
370
     9
100
AcDbLine
 10
-66.57503314648278
 20
1196.223812879562
 30
0.0
 11
-195.6490518742191
 21
673.3606893938359
 31
0.0
  0
LINE
  5
405
330
1F
100
AcDbEntity
  8
0-4
  6
Continuous
 62
     7
370
     9
100
AcDbLine
 10
-195.6490518742191
 20
673.3606893938359
 30
0.0
 11
-192.3222618054019
 21
703.1756599260702
 31
0.0
  0
LINE
  5
406
330
1F
100
AcDbEntity
  8
0-4
  6
Continuous
 62
     7
370
     9
100
AcDbLine
 10
-195.6490518742191
 20
673.3606893938359
 30
0.0
 11
-184.7189372251938
 21
701.2987028121008
 31
0.0
  0
LINE
  5
407
330
1F
100
AcDbEntity
  8
0-0
  6
Continuous
 62
     3
370
     9
100
AcDbLine
 10
-163.4760938355049
 20
53.04432139099902
 30
0.0
 11
-963.4760930107054
 21
53.04432139099902
 31
0.0
  0
LINE
  5
408
330
1F
100
AcDbEntity
  8
0-0
  6
Continuous
 62
     3
370
     9
100
AcDbLine
 10
-163.4760938355049
 20
23.04431573523175
 30
0.0
 11
-963.4760930107054
 21
23.04431573523175
 31
0.0
  0
LINE
  5
409
330
1F
100
AcDbEntity
  8
0-0
  6
Continuous
 62
     3
370
     9
100
AcDbLine
 10
-963.4760930107054
 20
23.04431573523175
 30
0.0
 11
-963.4760930107054
 21
53.04432139099902
 31
0.0
  0
LINE
  5
40A
330
1F
100
AcDbEntity
  8
0-0
  6
Continuous
 62
     3
370
     9
100
AcDbLine
 10
-163.4760938355049
 20
23.04431573523175
 30
0.0
 11
-163.4760938355049
 21
53.04432139099902
 31
0.0
  0
LINE
  5
40B
330
1F
100
AcDbEntity
  8
0-0
  6
JWW_DASHED2
 62
     3
370
     9
100
AcDbLine
 10
-163.4760938355049
 20
47.04434825589402
 30
0.0
 11
-963.4760930107054
 21
47.04434825589402
 31
0.0
  0
LINE
  5
40C
330
1F
100
AcDbEntity
  8
0-0
  6
JWW_CENTER1
 62
     7
370
     9
100
AcDbLine
 10
-563.4760759255747
 20
6.569411082043359
 30
0.0
 11
-563.4760759255747
 21
64.30496201034316
 31
0.0
  0
LINE
  5
40D
330
1F
100
AcDbEntity
  8
0-A
  6
JWW_DASHED2
 62
     4
370
     9
100
AcDbLine
 10
-698.4759613962854
 20
47.04434825589402
 30
0.0
 11
-748.476064142726
 21
47.04434825589402
 31
0.0
  0
LINE
  5
40E
330
1F
100
AcDbEntity
  8
0-A
  6
JWW_DASHED2
 62
     4
370
     9
100
AcDbLine
 10
-736.4758379120312
 20
41.04437512078903
 30
0.0
 11
-704.4757945511478
 21
41.04437512078903
 31
0.0
  0
LINE
  5
40F
330
1F
100
AcDbEntity
  8
0-A
  6
JWW_DASHED2
 62
     4
370
     9
100
AcDbLine
 10
-428.4761904548641
 20
47.04434825589402
 30
0.0
 11
-378.4760877084235
 21
47.04434825589402
 31
0.0
  0
LINE
  5
410
330
1F
100
AcDbEntity
  8
0-A
  6
JWW_DASHED2
 62
     4
370
     9
100
AcDbLine
 10
-390.4763139391184
 20
41.04437512078903
 30
0.0
 11
-422.4763573000016
 21
41.04437512078903
 31
0.0
  0
LINE
  5
411
330
1F
100
AcDbEntity
  8
0-A
  6
JWW_DASHED2
 62
     4
370
     9
100
AcDbLine
 10
-742.4759510273784
 20
35.04440198568403
 30
0.0
 11
-742.4759510273784
 21
23.04431573523175
 31
0.0
  0
LINE
  5
412
330
1F
100
AcDbEntity
  8
0-A
  6
JWW_DASHED2
 62
     4
370
     9
100
AcDbLine
 10
-748.476064142726
 20
47.04434825589402
 30
0.0
 11
-748.476064142726
 21
23.04431573523175
 31
0.0
  0
LINE
  5
413
330
1F
100
AcDbEntity
  8
0-A
  6
Continuous
 62
     4
370
     9
100
AcDbLine
 10
-748.476064142726
 20
23.04431573523175
 30
0.0
 11
-748.476064142726
 21
-2.955614510304088
 31
0.0
  0
LINE
  5
414
330
1F
100
AcDbEntity
  8
0-A
  6
Continuous
 62
     4
370
     9
100
AcDbLine
 10
-742.4759510273784
 20
23.04431573523175
 30
0.0
 11
-742.4759510273784
 21
3.044358624800907
 31
0.0
  0
LINE
  5
415
330
1F
100
AcDbEntity
  8
0-A
  6
JWW_DASHED2
 62
     4
370
     9
100
AcDbLine
 10
-384.4762008237711
 20
35.04440198568403
 30
0.0
 11
-384.4762008237711
 21
23.04431573523175
 31
0.0
  0
LINE
  5
416
330
1F
100
AcDbEntity
  8
0-A
  6
JWW_DASHED2
 62
     4
370
     9
100
AcDbLine
 10
-378.4760877084235
 20
47.04434825589402
 30
0.0
 11
-378.4760877084235
 21
23.04431573523175
 31
0.0
  0
LINE
  5
417
330
1F
100
AcDbEntity
  8
0-A
  6
Continuous
 62
     4
370
     9
100
AcDbLine
 10
-378.4760877084235
 20
23.04431573523175
 30
0.0
 11
-378.4760877084235
 21
-2.955614510304088
 31
0.0
  0
LINE
  5
418
330
1F
100
AcDbEntity
  8
0-A
  6
Continuous
 62
     4
370
     9
100
AcDbLine
 10
-384.4762008237711
 20
23.04431573523175
 30
0.0
 11
-384.4762008237711
 21
3.044358624800907
 31
0.0
  0
ARC
  5
419
330
1F
100
AcDbEntity
  8
0-A
  6
Continuous
 62
     4
370
     9
100
AcDbCircle
 10
-748.476064142726
 20
3.044358624800907
 30
0.0
 40
5.999973135104971
100
AcDbArc
 50
270.0
 51
0.0
  0
ARC
  5
41A
330
1F
100
AcDbEntity
  8
0-A
  6
JWW_DASHED2
 62
     4
370
     9
100
AcDbCircle
 10
-704.4757945511478
 20
47.04434825589402
 30
0.0
 40
5.999973135104971
100
AcDbArc
 50
270.0
 51
0.0
  0
ARC
  5
41B
330
1F
100
AcDbEntity
  8
0-A
  6
JWW_DASHED2
 62
     4
370
     9
100
AcDbCircle
 10
-736.4758379120312
 20
35.04440198568403
 30
0.0
 40
5.999999928198267
100
AcDbArc
 50
90.0
 51
180.0
  0
ARC
  5
41C
330
1F
100
AcDbEntity
  8
0-A
  6
JWW_DASHED2
 62
     4
370
     9
100
AcDbCircle
 10
-422.4763573000016
 20
47.04434825589402
 30
0.0
 40
5.999973135104971
100
AcDbArc
 50
180.0
 51
270.0
  0
ARC
  5
41D
330
1F
100
AcDbEntity
  8
0-A
  6
JWW_DASHED2
 62
     4
370
     9
100
AcDbCircle
 10
-390.4763139391184
 20
35.04440198568403
 30
0.0
 40
5.999999928198267
100
AcDbArc
 50
0.0
 51
90.0
  0
ARC
  5
41E
330
1F
100
AcDbEntity
  8
0-A
  6
Continuous
 62
     4
370
     9
100
AcDbCircle
 10
-378.4760877084235
 20
3.044358624800907
 30
0.0
 40
5.999973135104971
100
AcDbArc
 50
180.0
 51
270.0
  0
TEXT
  5
41F
330
1F
100
AcDbEntity
  8
0-5
  6
Continuous
 62
     2
370
     9
100
AcDbText
 10
-277.892518465899
 20
-117.4347131379115
 30
0.0
 40
30.48
  1
補強材Ｌ-25Ｘ25Ｘ3
 41
1.118055555555555
  7
ＭＳ ゴシック
100
AcDbText
  0
LINE
  5
420
330
1F
100
AcDbEntity
  8
0-5
  6
Continuous
 62
     7
370
     9
100
AcDbLine
 10
-293.6024583597647
 20
-131.2255825320355
 30
0.0
 11
140.4760178752574
 21
-131.2255825320355
 31
0.0
  0
TEXT
  5
421
330
1F
100
AcDbEntity
  8
0-5
  6
Continuous
 62
     2
370
     9
100
AcDbText
 10
-274.0084654078516
 20
-175.5603110700036
 30
0.0
 40
30.48
  1
ＳＵＳ３０４
 41
1.104166666666667
  7
ＭＳ ゴシック
100
AcDbText
  0
TEXT
  5
422
330
1F
100
AcDbEntity
  8
A-5
  6
Continuous
 62
     2
370
     9
100
AcDbText
 10
-111.2727161808161
 20
-279.6622527683857
 30
0.0
 40
30.48
  1
詳細図　Ｓ＝１：５
 41
1.111111111111111
  7
ＭＳ ゴシック
100
AcDbText
  0
LINE
  5
423
330
1F
100
AcDbEntity
  8
A-5
  6
Continuous
 62
     7
370
     9
100
AcDbLine
 10
-193.7094591849708
 20
-236.945150057125
 30
0.0
 11
371.1640268233386
 21
-236.945150057125
 31
0.0
  0
LINE
  5
424
330
1F
100
AcDbEntity
  8
A-5
  6
Continuous
 62
     7
370
     9
100
AcDbLine
 10
371.1640268233386
 20
-293.659355479646
 30
0.0
 11
-193.7094591849708
 21
-293.659355479646
 31
0.0
  0
LINE
  5
425
330
1F
100
AcDbEntity
  8
A-5
  6
Continuous
 62
     7
370
     9
100
AcDbLine
 10
-193.7094591849708
 20
-293.659355479646
 30
0.0
 11
-193.7094591849708
 21
-236.945150057125
 31
0.0
  0
LINE
  5
426
330
1F
100
AcDbEntity
  8
A-5
  6
Continuous
 62
     7
370
     9
100
AcDbLine
 10
371.1640268233386
 20
-236.945150057125
 30
0.0
 11
371.1640268233386
 21
-293.659355479646
 31
0.0
  0
LINE
  5
427
330
1F
100
AcDbEntity
  8
A-5
  6
Continuous
 62
     7
370
     9
100
AcDbLine
 10
-378.4760877084235
 20
-2.955614510304088
 30
0.0
 11
-358.7975589864325
 21
-25.59971986551233
 31
0.0
  0
LINE
  5
428
330
1F
100
AcDbEntity
  8
A-5
  6
Continuous
 62
     7
370
     9
100
AcDbLine
 10
-293.6024583597647
 20
-131.2255825320355
 30
0.0
 11
-378.4760877084235
 21
-2.955614510304088
 31
0.0
  0
LINE
  5
429
330
1F
100
AcDbEntity
  8
A-5
  6
Continuous
 62
     7
370
     9
100
AcDbLine
 10
-378.4760877084235
 20
-2.955614510304088
 30
0.0
 11
-365.3288143177172
 21
-29.92131869895871
 31
0.0
  0
LINE
  5
42A
330
1F
100
AcDbEntity
  8
0-4
  6
Continuous
 62
     7
370
     9
100
AcDbLine
 10
673.6577199372107
 20
834.4217408103287
 30
0.0
 11
567.6578867823481
 21
834.4217408103287
 31
0.0
  0
LINE
  5
42B
330
1F
100
AcDbEntity
  8
0-4
  6
Continuous
 62
     7
370
     9
100
AcDbLine
 10
617.6578867823481
 20
834.4217408103287
 30
0.0
 11
587.9145409411339
 21
830.5059550437272
 31
0.0
  0
LINE
  5
42C
330
1F
100
AcDbEntity
  8
0-4
  6
Continuous
 62
     7
370
     9
100
AcDbLine
 10
617.6578867823481
 20
834.4217408103287
 30
0.0
 11
587.9145409411339
 21
838.3375265769303
 31
0.0
  0
LINE
  5
42D
330
1F
100
AcDbEntity
  8
0-4
  6
Continuous
 62
     7
370
     9
100
AcDbLine
 10
623.6577199372107
 20
834.4217408103287
 30
0.0
 11
653.401065778425
 21
830.5059550437272
 31
0.0
  0
LINE
  5
42E
330
1F
100
AcDbEntity
  8
0-4
  6
Continuous
 62
     7
370
     9
100
AcDbLine
 10
623.6577199372107
 20
834.4217408103287
 30
0.0
 11
653.401065778425
 21
838.3375265769303
 31
0.0
  0
TEXT
  5
42F
330
1F
100
AcDbEntity
  8
0-4
  6
Continuous
 62
     2
370
   211
100
AcDbText
 10
575.7164354810378
 20
850.2226596251743
 30
0.0
 40
30.48
  1
3
 41
0.9999999999999998
  7
ＭＳ ゴシック
100
AcDbText
  0
TEXT
  5
430
330
1F
100
AcDbEntity
  8
D-5
  6
Continuous
 62
     2
370
     9
100
AcDbText
 10
1189.730164353651
 20
-931.6425177184893
 30
0.0
 40
30.48
  1
ＸＱ－Ｂ－１５　４００Ｘ４００
 50
359.999975610655
 41
1.116666666666666
  7
ＭＳ ゴシック
100
AcDbText
  0
TEXT
  5
431
330
1F
100
AcDbEntity
  8
F-5
  6
Continuous
 62
     2
370
     9
100
AcDbText
 10
-835.0002886797931
 20
-1347.468295749974
 30
0.0
 40
30.48
  1
ステンレス製排水蓋　ＸＱ－Ｂ－１５　４００Ｘ４００
 41
1.12
  7
ＭＳ ゴシック
100
AcDbText
  0
ENDSEC
  0
SECTION
  2
OBJECTS
  0
DICTIONARY
  5
C
330
0
100
AcDbDictionary
281
     1
  3
ACAD_GROUP
350
D
  3
ACAD_LAYOUT
350
1A
  3
ACAD_MLEADERSTYLE
350
433
  3
ACAD_MLINESTYLE
350
17
  3
ACAD_PLOTSETTINGS
350
19
  3
ACAD_PLOTSTYLENAME
350
E
  3
ACAD_TABLESTYLE
350
432
  3
ACAD_VISUALSTYLE
350
2A
  0
DICTIONARY
  5
D
102
{ACAD_REACTORS
330
C
102
}
330
C
100
AcDbDictionary
281
     1
  0
DICTIONARY
  5
1A
102
{ACAD_REACTORS
330
C
102
}
330
C
100
AcDbDictionary
281
     1
  3
Layout1
350
1E
  3
Layout2
350
26
  3
Model
350
22
  0
DICTIONARY
  5
433
102
{ACAD_REACTORS
330
C
102
}
330
C
100
AcDbDictionary
281
     1
  0
DICTIONARY
  5
17
102
{ACAD_REACTORS
330
C
102
}
330
C
100
AcDbDictionary
281
     1
  3
Standard
350
18
  0
DICTIONARY
  5
19
102
{ACAD_REACTORS
330
C
102
}
330
C
100
AcDbDictionary
281
     1
  0
ACDBDICTIONARYWDFLT
  5
E
102
{ACAD_REACTORS
330
C
102
}
330
C
100
AcDbDictionary
281
     1
  3
Normal
350
F
100
AcDbDictionaryWithDefault
340
F
  0
DICTIONARY
  5
432
102
{ACAD_REACTORS
330
C
102
}
330
C
100
AcDbDictionary
281
     1
  0
DICTIONARY
  5
2A
102
{ACAD_REACTORS
330
C
102
}
330
C
100
AcDbDictionary
281
     1
  3
2dWireframe
350
2F
  3
3D Hidden
350
31
  3
3dWireframe
350
30
  3
Basic
350
32
  3
Brighten
350
36
  3
ColorChange
350
3A
  3
Conceptual
350
34
  3
Dim
350
35
  3
Facepattern
350
39
  3
Flat
350
2B
  3
FlatWithEdges
350
2C
  3
Gouraud
350
2D
  3
GouraudWithEdges
350
2E
  3
Linepattern
350
38
  3
Realistic
350
33
  3
Thicken
350
37
  0
LAYOUT
  5
1E
102
{ACAD_REACTORS
330
1A
102
}
330
1A
100
AcDbPlotSettings
  1

  2
none_device
  4

  6

 40
0.0
 41
0.0
 42
0.0
 43
0.0
 44
0.0
 45
0.0
 46
0.0
 47
0.0
 48
0.0
 49
0.0
140
0.0
141
0.0
142
1.0
143
1.0
 70
   688
 72
     0
 73
     0
 74
     5
  7

 75
    16
 76
     0
 77
     5
 78
   300
147
1.0
148
0.0
149
0.0
100
AcDbLayout
  1
Layout1
 70
     1
 71
     1
 10
0.0
 20
0.0
 11
420.0
 21
297.0
 12
0.0
 22
0.0
 32
0.0
 14
1.000000000000000E+20
 24
1.000000000000000E+20
 34
1.000000000000000E+20
 15
-1.000000000000000E+20
 25
-1.000000000000000E+20
 35
-1.000000000000000E+20
146
0.0
 13
0.0
 23
0.0
 33
0.0
 16
1.0
 26
0.0
 36
0.0
 17
0.0
 27
1.0
 37
0.0
 76
     0
330
1B
  0
LAYOUT
  5
26
102
{ACAD_REACTORS
330
1A
102
}
330
1A
100
AcDbPlotSettings
  1

  2
none_device
  4

  6

 40
0.0
 41
0.0
 42
0.0
 43
0.0
 44
0.0
 45
0.0
 46
0.0
 47
0.0
 48
0.0
 49
0.0
140
0.0
141
0.0
142
1.0
143
1.0
 70
   688
 72
     0
 73
     0
 74
     5
  7

 75
    16
 76
     0
 77
     5
 78
   300
147
1.0
148
0.0
149
0.0
100
AcDbLayout
  1
Layout2
 70
     1
 71
     2
 10
0.0
 20
0.0
 11
0.0
 21
0.0
 12
0.0
 22
0.0
 32
0.0
 14
0.0
 24
0.0
 34
0.0
 15
0.0
 25
0.0
 35
0.0
146
0.0
 13
0.0
 23
0.0
 33
0.0
 16
1.0
 26
0.0
 36
0.0
 17
0.0
 27
1.0
 37
0.0
 76
     0
330
23
  0
LAYOUT
  5
22
102
{ACAD_REACTORS
330
1A
102
}
330
1A
100
AcDbPlotSettings
  1

  2
none_device
  4

  6

 40
0.0
 41
0.0
 42
0.0
 43
0.0
 44
0.0
 45
0.0
 46
0.0
 47
0.0
 48
0.0
 49
0.0
140
0.0
141
0.0
142
1.0
143
1.0
 70
  1712
 72
     0
 73
     0
 74
     0
  7

 75
     0
 76
     0
 77
     5
 78
   300
147
1.0
148
0.0
149
0.0
100
AcDbLayout
  1
Model
 70
     1
 71
     0
 10
-2100.0
 20
-1485.0
 11
2100.0
 21
1485.0
 12
0.0
 22
0.0
 32
0.0
 14
-2100.0
 24
-1485.0
 34
0.0
 15
2100.0
 25
1485.0
 35
0.0
146
0.0
 13
0.0
 23
0.0
 33
0.0
 16
1.0
 26
0.0
 36
0.0
 17
0.0
 27
1.0
 37
0.0
 76
     0
330
1F
331
29
  0
MLINESTYLE
  5
18
102
{ACAD_REACTORS
330
17
102
}
330
17
100
AcDbMlineStyle
  2
Standard
 70
     0
  3

 62
   256
 51
90.0
 52
90.0
 71
     2
 49
0.5
 62
   256
  6
BYLAYER
 49
-0.5
 62
   256
  6
BYLAYER
  0
ACDBPLACEHOLDER
  5
F
102
{ACAD_REACTORS
330
E
102
}
330
E
  0
VISUALSTYLE
  5
2F
102
{ACAD_REACTORS
330
2A
102
}
330
2A
100
AcDbVisualStyle
  2
2dWireframe
 70
     4
 71
     0
 72
     2
 73
     0
 90
        0
 40
-0.6
 41
-30.0
 62
     5
 63
     7
421
 16777215
 74
     1
 91
        4
 64
     7
 65
   257
 75
     1
175
     1
 42
1.0
 92
        0
 66
   257
 43
1.0
 76
     1
 77
     6
 78
     2
 67
     7
 79
     5
170
     0
171
     0
290
     0
174
     0
 93
        1
 44
0.0
173
     0
291
     0
 45
0.0
1001
ACAD
1000
AcDbSavedByObjectVersion
1070
     0
  0
VISUALSTYLE
  5
31
102
{ACAD_REACTORS
330
2A
102
}
330
2A
100
AcDbVisualStyle
  2
3D Hidden
 70
     6
 71
     1
 72
     2
 73
     2
 90
        0
 40
-0.6
 41
-30.0
 62
     5
 63
     7
421
 16777215
 74
     2
 91
        2
 64
     7
 65
   257
 75
     2
175
     1
 42
40.0
 92
        0
 66
   257
 43
1.0
 76
     1
 77
     6
 78
     2
 67
     7
 79
     3
170
     0
171
     0
290
     0
174
     0
 93
        1
 44
0.0
173
     0
291
     0
 45
0.0
1001
ACAD
1000
AcDbSavedByObjectVersion
1070
     0
  0
VISUALSTYLE
  5
30
102
{ACAD_REACTORS
330
2A
102
}
330
2A
100
AcDbVisualStyle
  2
3dWireframe
 70
     5
 71
     0
 72
     2
 73
     0
 90
        0
 40
-0.6
 41
-30.0
 62
     5
 63
     7
421
 16777215
 74
     1
 91
        4
 64
     7
 65
   257
 75
     1
175
     1
 42
1.0
 92
        0
 66
   257
 43
1.0
 76
     1
 77
     6
 78
     2
 67
     7
 79
     5
170
     0
171
     0
290
     0
174
     0
 93
        1
 44
0.0
173
     0
291
     0
 45
0.0
1001
ACAD
1000
AcDbSavedByObjectVersion
1070
     0
  0
VISUALSTYLE
  5
32
102
{ACAD_REACTORS
330
2A
102
}
330
2A
100
AcDbVisualStyle
  2
Basic
 70
     7
 71
     1
 72
     0
 73
     1
 90
        0
 40
-0.6
 41
-30.0
 62
     5
 63
     7
421
 16777215
 74
     0
 91
        4
 64
     7
 65
   257
 75
     1
175
     1
 42
1.0
 92
        8
 66
     7
 43
1.0
 76
     1
 77
     6
 78
     2
 67
     7
 79
     5
170
     0
171
     0
290
     0
174
     0
 93
        1
 44
0.0
173
     0
291
     1
 45
0.0
1001
ACAD
1000
AcDbSavedByObjectVersion
1070
     0
  0
VISUALSTYLE
  5
36
102
{ACAD_REACTORS
330
2A
102
}
330
2A
100
AcDbVisualStyle
  2
Brighten
 70
    12
 71
     2
 72
     2
 73
     0
 90
        0
 40
-0.6
 41
-30.0
 62
     5
 63
     7
421
 16777215
 74
     1
 91
        4
 64
     7
 65
   257
 75
     1
175
     1
 42
1.0
 92
        8
 66
     7
 43
1.0
 76
     1
 77
     6
 78
     2
 67
     7
 79
     5
170
     0
171
     0
290
     0
174
     0
 93
        1
 44
50.0
173
     0
291
     1
 45
0.0
1001
ACAD
1000
AcDbSavedByObjectVersion
1070
     0
  0
VISUALSTYLE
  5
3A
102
{ACAD_REACTORS
330
2A
102
}
330
2A
100
AcDbVisualStyle
  2
ColorChange
 70
    16
 71
     2
 72
     2
 73
     3
 90
        0
 40
-0.6
 41
-30.0
 62
     5
 63
     8
421
  8421504
 74
     1
 91
        4
 64
     7
 65
   257
 75
     1
175
     1
 42
1.0
 92
        8
 66
     8
424
  8421504
 43
1.0
 76
     1
 77
     6
 78
     2
 67
     7
 79
     5
170
     0
171
     0
290
     0
174
     0
 93
        1
 44
0.0
173
     0
291
     1
 45
0.0
1001
ACAD
1000
AcDbSavedByObjectVersion
1070
     0
  0
VISUALSTYLE
  5
34
102
{ACAD_REACTORS
330
2A
102
}
330
2A
100
AcDbVisualStyle
  2
Conceptual
 70
     9
 71
     3
 72
     2
 73
     0
 90
        0
 40
-0.6
 41
-30.0
 62
     5
 63
     7
421
 16777215
 74
     2
 91
        2
 64
     7
 65
   257
 75
     1
175
     1
 42
40.0
 92
        8
 66
     7
 43
1.0
 76
     1
 77
     6
 78
     2
 67
     7
 79
     3
170
     0
171
     0
290
     0
174
     0
 93
        1
 44
0.0
173
     0
291
     0
 45
0.0
1001
ACAD
1000
AcDbSavedByObjectVersion
1070
     0
  0
VISUALSTYLE
  5
35
102
{ACAD_REACTORS
330
2A
102
}
330
2A
100
AcDbVisualStyle
  2
Dim
 70
    11
 71
     2
 72
     2
 73
     0
 90
        0
 40
-0.6
 41
-30.0
 62
     5
 63
     7
421
 16777215
 74
     1
 91
        4
 64
     7
 65
   257
 75
     1
175
     1
 42
1.0
 92
        8
 66
     7
 43
1.0
 76
     1
 77
     6
 78
     2
 67
     7
 79
     5
170
     0
171
     0
290
     0
174
     0
 93
        1
 44
-50.0
173
     0
291
     1
 45
0.0
1001
ACAD
1000
AcDbSavedByObjectVersion
1070
     0
  0
VISUALSTYLE
  5
39
102
{ACAD_REACTORS
330
2A
102
}
330
2A
100
AcDbVisualStyle
  2
Facepattern
 70
    15
 71
     2
 72
     2
 73
     0
 90
        0
 40
-0.6
 41
-30.0
 62
     5
 63
     7
421
 16777215
 74
     1
 91
        4
 64
     7
 65
   257
 75
     1
175
     1
 42
1.0
 92
        8
 66
     7
 43
1.0
 76
     1
 77
     6
 78
     2
 67
     7
 79
     5
170
     0
171
     0
290
     0
174
     0
 93
        1
 44
0.0
173
     0
291
     1
 45
0.0
1001
ACAD
1000
AcDbSavedByObjectVersion
1070
     0
  0
VISUALSTYLE
  5
2B
102
{ACAD_REACTORS
330
2A
102
}
330
2A
100
AcDbVisualStyle
  2
Flat
 70
     0
 71
     2
 72
     1
 73
     1
 90
        2
 40
-0.6
 41
30.0
 62
     5
 63
     7
421
 16777215
 74
     0
 91
        4
 64
     7
 65
   257
 75
     1
175
     1
 42
1.0
 92
        8
 66
     7
 43
1.0
 76
     1
 77
     6
 78
     2
 67
     7
 79
     5
170
     0
171
     0
290
     0
174
     0
 93
       13
 44
0.0
173
     0
291
     1
 45
0.0
1001
ACAD
1000
AcDbSavedByObjectVersion
1070
     0
  0
VISUALSTYLE
  5
2C
102
{ACAD_REACTORS
330
2A
102
}
330
2A
100
AcDbVisualStyle
  2
FlatWithEdges
 70
     1
 71
     2
 72
     1
 73
     1
 90
        2
 40
-0.6
 41
30.0
 62
     5
 63
     7
421
 16777215
 74
     1
 91
        4
 64
     7
 65
   257
 75
     1
175
     1
 42
1.0
 92
        0
 66
   257
 43
1.0
 76
     1
 77
     6
 78
     2
 67
     7
 79
     5
170
     0
171
     0
290
     0
174
     0
 93
       13
 44
0.0
173
     0
291
     1
 45
0.0
1001
ACAD
1000
AcDbSavedByObjectVersion
1070
     0
  0
VISUALSTYLE
  5
2D
102
{ACAD_REACTORS
330
2A
102
}
330
2A
100
AcDbVisualStyle
  2
Gouraud
 70
     2
 71
     2
 72
     2
 73
     1
 90
        2
 40
-0.6
 41
30.0
 62
     5
 63
     7
421
 16777215
 74
     0
 91
        4
 64
     7
 65
   257
 75
     1
175
     1
 42
1.0
 92
        0
 66
     7
 43
1.0
 76
     1
 77
     6
 78
     2
 67
     7
 79
     5
170
     0
171
     0
290
     0
174
     0
 93
       13
 44
0.0
173
     0
291
     1
 45
0.0
1001
ACAD
1000
AcDbSavedByObjectVersion
1070
     0
  0
VISUALSTYLE
  5
2E
102
{ACAD_REACTORS
330
2A
102
}
330
2A
100
AcDbVisualStyle
  2
GouraudWithEdges
 70
     3
 71
     2
 72
     2
 73
     1
 90
        2
 40
-0.6
 41
30.0
 62
     5
 63
     7
421
 16777215
 74
     1
 91
        4
 64
     7
 65
   257
 75
     1
175
     1
 42
1.0
 92
        0
 66
   257
 43
1.0
 76
     1
 77
     6
 78
     2
 67
     7
 79
     5
170
     0
171
     0
290
     0
174
     0
 93
       13
 44
0.0
173
     0
291
     1
 45
0.0
1001
ACAD
1000
AcDbSavedByObjectVersion
1070
     0
  0
VISUALSTYLE
  5
38
102
{ACAD_REACTORS
330
2A
102
}
330
2A
100
AcDbVisualStyle
  2
Linepattern
 70
    14
 71
     2
 72
     2
 73
     0
 90
        0
 40
-0.6
 41
-30.0
 62
     5
 63
     7
421
 16777215
 74
     1
 91
        4
 64
     7
 65
   257
 75
     7
175
     7
 42
1.0
 92
        8
 66
     7
 43
1.0
 76
     1
 77
     6
 78
     2
 67
     7
 79
     5
170
     0
171
     0
290
     0
174
     0
 93
        1
 44
0.0
173
     0
291
     1
 45
0.0
1001
ACAD
1000
AcDbSavedByObjectVersion
1070
     0
  0
VISUALSTYLE
  5
33
102
{ACAD_REACTORS
330
2A
102
}
330
2A
100
AcDbVisualStyle
  2
Realistic
 70
     8
 71
     2
 72
     2
 73
     0
 90
        0
 40
-0.6
 41
-30.0
 62
     5
 63
     7
421
 16777215
 74
     1
 91
        0
 64
     7
 65
   257
 75
     1
175
     1
 42
1.0
 92
        8
 66
     8
424
  7895160
 43
1.0
 76
     1
 77
     6
 78
     2
 67
     7
 79
     5
170
     0
171
     0
290
     0
174
     0
 93
       13
 44
0.0
173
     0
291
     0
 45
0.0
1001
ACAD
1000
AcDbSavedByObjectVersion
1070
     0
  0
VISUALSTYLE
  5
37
102
{ACAD_REACTORS
330
2A
102
}
330
2A
100
AcDbVisualStyle
  2
Thicken
 70
    13
 71
     2
 72
     2
 73
     0
 90
        0
 40
-0.6
 41
-30.0
 62
     5
 63
     7
421
 16777215
 74
     1
 91
        4
 64
     7
 65
   257
 75
     1
175
     1
 42
1.0
 92
       12
 66
     7
 43
1.0
 76
     1
 77
     6
 78
     2
 67
     7
 79
     5
170
     0
171
     0
290
     0
174
     0
 93
        1
 44
0.0
173
     0
291
     1
 45
0.0
1001
ACAD
1000
AcDbSavedByObjectVersion
1070
     0
  0
ENDSEC
  0
EOF
