  0
SECTION
  2
HEADER
  9
$ACADVER
  1
AC1018
  9
$ACADMAINTVER
 70
     0
  9
$DWGCODEPAGE
  3
ANSI_932
  9
$INSBASE
 10
0.0
 20
0.0
 30
0.0
  9
$EXTMIN
 10
-2100.0
 20
-1485.0
 30
0.0
  9
$EXTMAX
 10
2100.0
 20
1485.0
 30
0.0
  9
$LIMMIN
 10
-2100.0
 20
-1485.0
  9
$LIMMAX
 10
2100.0
 20
1485.0
  9
$ORTHOMODE
 70
     0
  9
$REGENMODE
 70
     1
  9
$FILLMODE
 70
     1
  9
$QTEXTMODE
 70
     0
  9
$MIRRTEXT
 70
     1
  9
$LTSCALE
 40
10.0
  9
$ATTMODE
 70
     1
  9
$TEXTSIZE
 40
2.5
  9
$TRACEWID
 40
1.0
  9
$TEXTSTYLE
  7
Standard
  9
$CLAYER
  8
0
  9
$CELTYPE
  6
ByLayer
  9
$CECOLOR
 62
   256
  9
$CELTSCALE
 40
1.0
  9
$DISPSILH
 70
     0
  9
$DIMSCALE
 40
1.0
  9
$DIMASZ
 40
2.5
  9
$DIMEXO
 40
0.625
  9
$DIMDLI
 40
3.75
  9
$DIMRND
 40
0.0
  9
$DIMDLE
 40
0.0
  9
$DIMEXE
 40
1.25
  9
$DIMTP
 40
0.0
  9
$DIMTM
 40
0.0
  9
$DIMTXT
 40
2.5
  9
$DIMCEN
 40
2.5
  9
$DIMTSZ
 40
0.0
  9
$DIMTOL
 70
     0
  9
$DIMLIM
 70
     0
  9
$DIMTIH
 70
     0
  9
$DIMTOH
 70
     0
  9
$DIMSE1
 70
     0
  9
$DIMSE2
 70
     0
  9
$DIMTAD
 70
     1
  9
$DIMZIN
 70
     8
  9
$DIMBLK
  1

  9
$DIMASO
 70
     1
  9
$DIMSHO
 70
     1
  9
$DIMPOST
  1

  9
$DIMAPOST
  1

  9
$DIMALT
 70
     0
  9
$DIMALTD
 70
     3
  9
$DIMALTF
 40
0.03937007874016
  9
$DIMLFAC
 40
1.0
  9
$DIMTOFL
 70
     1
  9
$DIMTVP
 40
0.0
  9
$DIMTIX
 70
     0
  9
$DIMSOXD
 70
     0
  9
$DIMSAH
 70
     0
  9
$DIMBLK1
  1

  9
$DIMBLK2
  1

  9
$DIMSTYLE
  2
ISO-25
  9
$DIMCLRD
 70
     0
  9
$DIMCLRE
 70
     0
  9
$DIMCLRT
 70
     0
  9
$DIMTFAC
 40
1.0
  9
$DIMGAP
 40
0.625
  9
$DIMJUST
 70
     0
  9
$DIMSD1
 70
     0
  9
$DIMSD2
 70
     0
  9
$DIMTOLJ
 70
     0
  9
$DIMTZIN
 70
     8
  9
$DIMALTZ
 70
     0
  9
$DIMALTTZ
 70
     0
  9
$DIMUPT
 70
     0
  9
$DIMDEC
 70
     2
  9
$DIMTDEC
 70
     2
  9
$DIMALTU
 70
     2
  9
$DIMALTTD
 70
     3
  9
$DIMTXSTY
  7
Standard
  9
$DIMAUNIT
 70
     0
  9
$DIMADEC
 70
     0
  9
$DIMALTRND
 40
0.0
  9
$DIMAZIN
 70
     0
  9
$DIMDSEP
 70
    44
  9
$DIMATFIT
 70
     3
  9
$DIMFRAC
 70
     0
  9
$DIMLDRBLK
  1

  9
$DIMLUNIT
 70
     2
  9
$DIMLWD
 70
    -2
  9
$DIMLWE
 70
    -2
  9
$DIMTMOVE
 70
     0
  9
$LUNITS
 70
     2
  9
$LUPREC
 70
     4
  9
$SKETCHINC
 40
1.0
  9
$FILLETRAD
 40
10.0
  9
$AUNITS
 70
     0
  9
$AUPREC
 70
     0
  9
$MENU
  1
.
  9
$ELEVATION
 40
0.0
  9
$PELEVATION
 40
0.0
  9
$THICKNESS
 40
0.0
  9
$LIMCHECK
 70
     0
  9
$CHAMFERA
 40
10.0
  9
$CHAMFERB
 40
10.0
  9
$CHAMFERC
 40
20.0
  9
$CHAMFERD
 40
0.0
  9
$SKPOLY
 70
     0
  9
$TDCREATE
 40
2456499.588093785
  9
$TDUCREATE
 40
2456499.213093785
  9
$TDUPDATE
 40
2456499.588093796
  9
$TDUUPDATE
 40
2456499.213093796
  9
$TDINDWG
 40
0.0000000116
  9
$TDUSRTIMER
 40
0.0000000116
  9
$USRTIMER
 70
     1
  9
$ANGBASE
 50
0.0
  9
$ANGDIR
 70
     0
  9
$PDMODE
 70
     0
  9
$PDSIZE
 40
0.0
  9
$PLINEWID
 40
0.0
  9
$SPLFRAME
 70
     0
  9
$SPLINETYPE
 70
     6
  9
$SPLINESEGS
 70
     8
  9
$HANDSEED
  5
55F
  9
$SURFTAB1
 70
     6
  9
$SURFTAB2
 70
     6
  9
$SURFTYPE
 70
     6
  9
$SURFU
 70
     6
  9
$SURFV
 70
     6
  9
$UCSBASE
  2

  9
$UCSNAME
  2

  9
$UCSORG
 10
0.0
 20
0.0
 30
0.0
  9
$UCSXDIR
 10
1.0
 20
0.0
 30
0.0
  9
$UCSYDIR
 10
0.0
 20
1.0
 30
0.0
  9
$UCSORTHOREF
  2

  9
$UCSORTHOVIEW
 70
     0
  9
$UCSORGTOP
 10
0.0
 20
0.0
 30
0.0
  9
$UCSORGBOTTOM
 10
0.0
 20
0.0
 30
0.0
  9
$UCSORGLEFT
 10
0.0
 20
0.0
 30
0.0
  9
$UCSORGRIGHT
 10
0.0
 20
0.0
 30
0.0
  9
$UCSORGFRONT
 10
0.0
 20
0.0
 30
0.0
  9
$UCSORGBACK
 10
0.0
 20
0.0
 30
0.0
  9
$PUCSBASE
  2

  9
$PUCSNAME
  2

  9
$PUCSORG
 10
0.0
 20
0.0
 30
0.0
  9
$PUCSXDIR
 10
1.0
 20
0.0
 30
0.0
  9
$PUCSYDIR
 10
0.0
 20
1.0
 30
0.0
  9
$PUCSORTHOREF
  2

  9
$PUCSORTHOVIEW
 70
     0
  9
$PUCSORGTOP
 10
0.0
 20
0.0
 30
0.0
  9
$PUCSORGBOTTOM
 10
0.0
 20
0.0
 30
0.0
  9
$PUCSORGLEFT
 10
0.0
 20
0.0
 30
0.0
  9
$PUCSORGRIGHT
 10
0.0
 20
0.0
 30
0.0
  9
$PUCSORGFRONT
 10
0.0
 20
0.0
 30
0.0
  9
$PUCSORGBACK
 10
0.0
 20
0.0
 30
0.0
  9
$USERI1
 70
     0
  9
$USERI2
 70
     0
  9
$USERI3
 70
     0
  9
$USERI4
 70
     0
  9
$USERI5
 70
     0
  9
$USERR1
 40
0.0
  9
$USERR2
 40
0.0
  9
$USERR3
 40
0.0
  9
$USERR4
 40
0.0
  9
$USERR5
 40
0.0
  9
$WORLDVIEW
 70
     1
  9
$SHADEDGE
 70
     3
  9
$SHADEDIF
 70
    70
  9
$TILEMODE
 70
     1
  9
$MAXACTVP
 70
    64
  9
$PINSBASE
 10
0.0
 20
0.0
 30
0.0
  9
$PLIMCHECK
 70
     0
  9
$PEXTMIN
 10
1.000000000000000E+20
 20
1.000000000000000E+20
 30
1.000000000000000E+20
  9
$PEXTMAX
 10
-1.000000000000000E+20
 20
-1.000000000000000E+20
 30
-1.000000000000000E+20
  9
$PLIMMIN
 10
0.0
 20
0.0
  9
$PLIMMAX
 10
420.0
 20
297.0
  9
$UNITMODE
 70
     0
  9
$VISRETAIN
 70
     1
  9
$PLINEGEN
 70
     0
  9
$PSLTSCALE
 70
     1
  9
$TREEDEPTH
 70
  3020
  9
$CMLSTYLE
  2
Standard
  9
$CMLJUST
 70
     0
  9
$CMLSCALE
 40
20.0
  9
$PROXYGRAPHICS
 70
     1
  9
$MEASUREMENT
 70
     1
  9
$CELWEIGHT
370
    -1
  9
$ENDCAPS
280
     0
  9
$JOINSTYLE
280
     0
  9
$LWDISPLAY
290
     0
  9
$INSUNITS
 70
     4
  9
$HYPERLINKBASE
  1

  9
$STYLESHEET
  1

  9
$XEDIT
290
     1
  9
$CEPSNTYPE
380
     0
  9
$PSTYLEMODE
290
     1
  9
$FINGERPRINTGUID
  2
{F88D5327-6B73-4BDC-8264-7F49984AC650}
  9
$VERSIONGUID
  2
{FAEB1C32-E019-11D5-929B-00C0DF256EC4}
  9
$EXTNAMES
290
     1
  9
$PSVPSCALE
 40
0.0
  9
$OLESTARTUP
290
     0
  9
$SORTENTS
280
   127
  9
$INDEXCTL
280
     0
  9
$HIDETEXT
280
     1
  9
$XCLIPFRAME
290
     0
  9
$HALOGAP
280
     0
  9
$OBSCOLOR
 70
   257
  9
$OBSLTYPE
280
     0
  9
$INTERSECTIONDISPLAY
280
     0
  9
$INTERSECTIONCOLOR
 70
   257
  9
$DIMASSOC
280
     2
  9
$PROJECTNAME
  1

  0
ENDSEC
  0
SECTION
  2
CLASSES
  0
CLASS
  1
ACDBDICTIONARYWDFLT
  2
AcDbDictionaryWithDefault
  3
ObjectDBX Classes
 90
        0
 91
        4
280
     0
281
     0
  0
CLASS
  1
VISUALSTYLE
  2
AcDbVisualStyle
  3
ObjectDBX Classes
 90
     4095
 91
        4
280
     0
281
     0
  0
ENDSEC
  0
SECTION
  2
TABLES
  0
TABLE
  2
VPORT
  5
8
330
0
100
AcDbSymbolTable
 70
     1
  0
VPORT
  5
29
330
8
100
AcDbSymbolTableRecord
100
AcDbViewportTableRecord
  2
*Active
 70
     0
 10
0.0
 20
0.0
 11
1.0
 21
1.0
 12
0.0
 22
0.0
 13
0.0
 23
0.0
 14
10.0
 24
10.0
 15
10.0
 25
10.0
 16
0.0
 26
0.0
 36
1.0
 17
0.0
 27
0.0
 37
0.0
 40
3267.0
 41
1.414141414141414
 42
50.0
 43
0.0
 44
0.0
 50
0.0
 51
0.0
 71
     0
 72
 10000
 73
     1
 74
     3
 75
     0
 76
     0
 77
     0
 78
     0
281
     0
 65
     1
110
0.0
120
0.0
130
0.0
111
1.0
121
0.0
131
0.0
112
0.0
122
1.0
132
0.0
 79
     0
146
0.0
  0
ENDTAB
  0
TABLE
  2
LTYPE
  5
5
330
0
100
AcDbSymbolTable
 70
     3
  0
LTYPE
  5
14
330
5
100
AcDbSymbolTableRecord
100
AcDbLinetypeTableRecord
  2
ByBlock
 70
     0
  3

 72
    65
 73
     0
 40
0.0
  0
LTYPE
  5
15
330
5
100
AcDbSymbolTableRecord
100
AcDbLinetypeTableRecord
  2
ByLayer
 70
     0
  3

 72
    65
 73
     0
 40
0.0
  0
LTYPE
  5
16
330
5
100
AcDbSymbolTableRecord
100
AcDbLinetypeTableRecord
  2
Continuous
 70
     0
  3
Solid line
 72
    65
 73
     0
 40
0.0
  0
LTYPE
  5
3C
330
5
100
AcDbSymbolTableRecord
100
AcDbLinetypeTableRecord
  2
JWW_CENTER1
 70
     0
  3
-----  --  ----------  --  -----
 72
    65
 73
     4
 40
6.773333333333333
 49
4.233333333333333
 74
     0
 49
-0.8466666666666667
 74
     0
 49
0.8466666666666667
 74
     0
 49
-0.8466666666666667
 74
     0
  0
LTYPE
  5
3D
330
5
100
AcDbSymbolTableRecord
100
AcDbLinetypeTableRecord
  2
JWW_DASHED2
 70
     0
  3
--    ----    ----    ----    --
 72
    65
 73
     2
 40
1.354666666666667
 49
0.6773333333333333
 74
     0
 49
-0.6773333333333333
 74
     0
  0
ENDTAB
  0
TABLE
  2
LAYER
  5
2
330
0
100
AcDbSymbolTable
 70
    13
  0
LAYER
  5
10
330
2
100
AcDbSymbolTableRecord
100
AcDbLayerTableRecord
  2
0
 70
     0
 62
     7
  6
Continuous
370
    -3
390
F
  0
LAYER
  5
3E
330
2
100
AcDbSymbolTableRecord
100
AcDbLayerTableRecord
  2
D-5
 70
     0
 62
     7
  6
Continuous
370
    -3
390
F
  0
LAYER
  5
3F
330
2
100
AcDbSymbolTableRecord
100
AcDbLayerTableRecord
  2
1-0
 70
     0
 62
     7
  6
Continuous
370
    -3
390
F
  0
LAYER
  5
40
330
2
100
AcDbSymbolTableRecord
100
AcDbLayerTableRecord
  2
1-F
 70
     0
 62
     7
  6
Continuous
370
    -3
390
F
  0
LAYER
  5
41
330
2
100
AcDbSymbolTableRecord
100
AcDbLayerTableRecord
  2
0-0
 70
     0
 62
     7
  6
Continuous
370
    -3
390
F
  0
LAYER
  5
42
330
2
100
AcDbSymbolTableRecord
100
AcDbLayerTableRecord
  2
0-8
 70
     0
 62
     7
  6
Continuous
370
    -3
390
F
  0
LAYER
  5
43
330
2
100
AcDbSymbolTableRecord
100
AcDbLayerTableRecord
  2
0-A
 70
     0
 62
     7
  6
Continuous
370
    -3
390
F
  0
LAYER
  5
44
330
2
100
AcDbSymbolTableRecord
100
AcDbLayerTableRecord
  2
0-4
 70
     0
 62
     7
  6
Continuous
370
    -3
390
F
  0
LAYER
  5
45
330
2
100
AcDbSymbolTableRecord
100
AcDbLayerTableRecord
  2
0-5
 70
     0
 62
     7
  6
Continuous
370
    -3
390
F
  0
LAYER
  5
46
330
2
100
AcDbSymbolTableRecord
100
AcDbLayerTableRecord
  2
A-5
 70
     0
 62
     7
  6
Continuous
370
    -3
390
F
  0
LAYER
  5
47
330
2
100
AcDbSymbolTableRecord
100
AcDbLayerTableRecord
  2
2-F
 70
     0
 62
     7
  6
Continuous
370
    -3
390
F
  0
LAYER
  5
48
330
2
100
AcDbSymbolTableRecord
100
AcDbLayerTableRecord
  2
2-0
 70
     0
 62
     7
  6
Continuous
370
    -3
390
F
  0
LAYER
  5
49
330
2
100
AcDbSymbolTableRecord
100
AcDbLayerTableRecord
  2
F-5
 70
     0
 62
     7
  6
Continuous
370
    -3
390
F
  0
ENDTAB
  0
TABLE
  2
STYLE
  5
3
330
0
100
AcDbSymbolTable
 70
     2
  0
STYLE
  5
11
330
3
100
AcDbSymbolTableRecord
100
AcDbTextStyleTableRecord
  2
Standard
 70
     0
 40
0.0
 41
1.0
 50
0.0
 71
     0
 42
2.5
  3
txt
  4

1001
ACAD
1000

1071
        0
  0
STYLE
  5
3B
330
3
100
AcDbSymbolTableRecord
100
AcDbTextStyleTableRecord
  2
ＭＳ ゴシック
 70
     0
 40
1.0
 41
1.0
 50
0.0
 71
     0
 42
10.0
  3

  4

1001
ACAD
1000
MS Gothic
1071
    32817
  0
ENDTAB
  0
TABLE
  2
VIEW
  5
6
330
0
100
AcDbSymbolTable
 70
     0
  0
ENDTAB
  0
TABLE
  2
UCS
  5
7
330
0
100
AcDbSymbolTable
 70
     0
  0
ENDTAB
  0
TABLE
  2
APPID
  5
9
330
0
100
AcDbSymbolTable
 70
     1
  0
APPID
  5
12
330
9
100
AcDbSymbolTableRecord
100
AcDbRegAppTableRecord
  2
ACAD
 70
     0
  0
ENDTAB
  0
TABLE
  2
DIMSTYLE
  5
A
330
0
100
AcDbSymbolTable
 70
     1
100
AcDbDimStyleTable
  0
DIMSTYLE
105
27
330
A
100
AcDbSymbolTableRecord
100
AcDbDimStyleTableRecord
  2
ISO-25
 70
     0
 41
2.5
 42
0.625
 43
3.75
 44
1.25
 73
     0
 74
     0
 77
     1
 78
     8
140
2.5
141
2.5
143
0.03937007874016
147
0.625
171
     3
172
     1
271
     2
272
     2
274
     3
278
    44
283
     0
284
     8
340
11
  0
ENDTAB
  0
TABLE
  2
BLOCK_RECORD
  5
1
330
0
100
AcDbSymbolTable
 70
     1
  0
BLOCK_RECORD
  5
1F
330
1
100
AcDbSymbolTableRecord
100
AcDbBlockTableRecord
  2
*Model_Space
340
22
  0
BLOCK_RECORD
  5
1B
330
1
100
AcDbSymbolTableRecord
100
AcDbBlockTableRecord
  2
*Paper_Space
340
1E
  0
BLOCK_RECORD
  5
23
330
1
100
AcDbSymbolTableRecord
100
AcDbBlockTableRecord
  2
*Paper_Space0
340
26
  0
ENDTAB
  0
ENDSEC
  0
SECTION
  2
BLOCKS
  0
BLOCK
  5
20
330
1F
100
AcDbEntity
  8
0
100
AcDbBlockBegin
  2
*Model_Space
 70
     0
 10
0.0
 20
0.0
 30
0.0
  3
*Model_Space
  1

  0
ENDBLK
  5
21
330
1F
100
AcDbEntity
  8
0
100
AcDbBlockEnd
  0
BLOCK
  5
1C
330
1B
100
AcDbEntity
 67
     1
  8
0
100
AcDbBlockBegin
  2
*Paper_Space
 70
     0
 10
0.0
 20
0.0
 30
0.0
  3
*Paper_Space
  1

  0
ENDBLK
  5
1D
330
1B
100
AcDbEntity
 67
     1
  8
0
100
AcDbBlockEnd
  0
BLOCK
  5
24
330
23
100
AcDbEntity
  8
0
100
AcDbBlockBegin
  2
*Paper_Space0
 70
     0
 10
0.0
 20
0.0
 30
0.0
  3
*Paper_Space0
  1

  0
ENDBLK
  5
25
330
23
100
AcDbEntity
  8
0
100
AcDbBlockEnd
  0
ENDSEC
  0
SECTION
  2
ENTITIES
  0
LINE
  5
4A
330
1F
100
AcDbEntity
  8
D-5
  6
Continuous
 62
     2
370
     9
100
AcDbLine
 10
918.3932274627624
 20
-814.9953967503775
 30
0.0
 11
693.3934563445986
 21
-814.9953967503775
 31
0.0
  0
LINE
  5
4B
330
1F
100
AcDbEntity
  8
D-5
  6
Continuous
 62
     2
370
     9
100
AcDbLine
 10
918.3932274627624
 20
-764.9951651863325
 30
0.0
 11
918.3932274627624
 21
-814.9953967503775
 31
0.0
  0
LINE
  5
4C
330
1F
100
AcDbEntity
  8
D-5
  6
Continuous
 62
     2
370
     9
100
AcDbLine
 10
693.3934563445986
 20
-764.9951651863325
 30
0.0
 11
918.3932274627624
 21
-764.9951651863325
 31
0.0
  0
LINE
  5
4D
330
1F
100
AcDbEntity
  8
D-5
  6
Continuous
 62
     2
370
     9
100
AcDbLine
 10
693.3934563445986
 20
-814.9953967503775
 30
0.0
 11
693.3934563445986
 21
-764.9951651863325
 31
0.0
  0
TEXT
  5
4E
330
1F
100
AcDbEntity
  8
D-5
  6
Continuous
 62
     2
370
     9
100
AcDbText
 10
740.8929985809267
 20
-804.3551249531973
 30
0.0
 40
30.48
  1
仕　様
 41
1.083333333333331
  7
ＭＳ ゴシック
100
AcDbText
  0
TEXT
  5
4F
330
1F
100
AcDbEntity
  8
D-5
  6
Continuous
 62
     2
370
     9
100
AcDbText
 10
855.1953612905097
 20
-1061.087687078121
 30
0.0
 40
30.48
  1
処理：ヘアライン
 50
0.0000554111121398
 41
1.109375
  7
ＭＳ ゴシック
100
AcDbText
  0
TEXT
  5
50
330
1F
100
AcDbEntity
  8
D-5
  6
Continuous
 62
     2
370
     9
100
AcDbText
 10
855.1953705048737
 20
-996.0871720939882
 30
0.0
 40
30.48
  1
材質：冷間圧延ステンレス鋼板　（ＳＵＳ３０４）
 50
359.9999618039849
 41
1.119565217391304
  7
ＭＳ ゴシック
100
AcDbText
  0
TEXT
  5
51
330
1F
100
AcDbEntity
  8
D-5
  6
Continuous
 62
     2
370
     9
100
AcDbText
 10
847.7097296299507
 20
-867.7510171251271
 30
0.0
 40
30.48
  1
ノンスリップタイプステンレス製排水用蓋
 50
359.999975610655
 41
1.118421052631579
  7
ＭＳ ゴシック
100
AcDbText
  0
LINE
  5
52
330
1F
100
AcDbEntity
  8
1-0
  6
Continuous
 62
     3
370
     9
100
AcDbLine
 10
-773.4716414049699
 20
-803.0461984439556
 30
0.0
 11
-1113.471752163747
 21
-803.0461984439556
 31
0.0
  0
LINE
  5
53
330
1F
100
AcDbEntity
  8
1-0
  6
Continuous
 62
     3
370
     9
100
AcDbLine
 10
-1113.471752163747
 20
-743.0461171422995
 30
0.0
 11
-773.4716414049699
 21
-743.0461171422995
 31
0.0
  0
LINE
  5
54
330
1F
100
AcDbEntity
  8
1-F
  6
JWW_CENTER1
 62
     7
370
     9
100
AcDbLine
 10
-943.4716967843586
 20
-718.8316348900976
 30
0.0
 11
-943.4716967843586
 21
-827.2606806961575
 31
0.0
  0
LINE
  5
55
330
1F
100
AcDbEntity
  8
1-F
  6
JWW_CENTER1
 62
     7
370
     9
100
AcDbLine
 10
-1170.261036652617
 20
-773.0461577931276
 30
0.0
 11
-716.6823569161005
 21
-773.0461577931276
 31
0.0
  0
LINE
  5
56
330
1F
100
AcDbEntity
  8
1-F
  6
Continuous
 62
     7
370
     9
100
AcDbLine
 10
-1133.4717792643
 20
-743.0461171422995
 30
0.0
 11
-1247.729252418257
 21
-743.0461171422995
 31
0.0
  0
LINE
  5
57
330
1F
100
AcDbEntity
  8
1-F
  6
Continuous
 62
     7
370
     9
100
AcDbLine
 10
-1133.4717792643
 20
-803.0461984439556
 30
0.0
 11
-1247.729252418257
 21
-803.0461984439556
 31
0.0
  0
LINE
  5
58
330
1F
100
AcDbEntity
  8
1-F
  6
Continuous
 62
     7
370
     9
100
AcDbLine
 10
-1244.729125870462
 20
-743.0461171422995
 30
0.0
 11
-1248.64507315494
 21
-713.3027652611913
 31
0.0
  0
LINE
  5
59
330
1F
100
AcDbEntity
  8
1-F
  6
Continuous
 62
     7
370
     9
100
AcDbLine
 10
-1244.729125870462
 20
-803.0461984439556
 30
0.0
 11
-1248.64507315494
 21
-832.7895503250637
 31
0.0
  0
LINE
  5
5A
330
1F
100
AcDbEntity
  8
1-F
  6
Continuous
 62
     7
370
     9
100
AcDbLine
 10
-1244.729125870462
 20
-803.0461984439556
 30
0.0
 11
-1240.813528536591
 21
-832.7895503250637
 31
0.0
  0
LINE
  5
5B
330
1F
100
AcDbEntity
  8
1-F
  6
Continuous
 62
     7
370
     9
100
AcDbLine
 10
-1244.729125870462
 20
-743.0461171422995
 30
0.0
 11
-1240.813528536591
 21
-713.3027652611913
 31
0.0
  0
LINE
  5
5C
330
1F
100
AcDbEntity
  8
1-F
  6
Continuous
 62
     7
370
     9
100
AcDbLine
 10
-1244.729125870462
 20
-704.4834850565657
 30
0.0
 11
-1244.729125870462
 21
-842.0583420834795
 31
0.0
  0
LINE
  5
5D
330
1F
100
AcDbEntity
  8
1-F
  6
JWW_CENTER1
 62
     7
370
     9
100
AcDbLine
 10
-773.4716414049699
 20
-733.5369093173568
 30
0.0
 11
-773.4716414049699
 21
-812.5554062688982
 31
0.0
  0
LINE
  5
5E
330
1F
100
AcDbEntity
  8
1-F
  6
JWW_CENTER1
 62
     7
370
     9
100
AcDbLine
 10
-1113.471752163747
 20
-733.5369093173568
 30
0.0
 11
-1113.471752163747
 21
-812.5554062688982
 31
0.0
  0
LINE
  5
5F
330
1F
100
AcDbEntity
  8
1-F
  6
Continuous
 62
     7
370
     9
100
AcDbLine
 10
-135.8747598772714
 20
-1067.269754667939
 30
0.0
 11
466.9736012227366
 21
-1067.269754667939
 31
0.0
  0
LINE
  5
60
330
1F
100
AcDbEntity
  8
1-0
  6
Continuous
 62
     7
370
     9
100
AcDbLine
 10
-1143.471792814575
 20
-916.4841747656141
 30
0.0
 11
-743.4716007541418
 21
-916.4841747656141
 31
0.0
  0
LINE
  5
61
330
1F
100
AcDbEntity
  8
1-0
  6
Continuous
 62
     7
370
     9
100
AcDbLine
 10
-1143.471792814575
 20
-793.0461848936795
 30
0.0
 11
-1143.471792814575
 21
-919.4842138257576
 31
0.0
  0
LINE
  5
62
330
1F
100
AcDbEntity
  8
1-0
  6
Continuous
 62
     7
370
     9
100
AcDbLine
 10
-743.4716007541418
 20
-793.0461848936795
 30
0.0
 11
-743.4716007541418
 21
-919.4842138257576
 31
0.0
  0
LINE
  5
63
330
1F
100
AcDbEntity
  8
1-0
  6
Continuous
 62
     7
370
     9
100
AcDbLine
 10
-1143.471792814575
 20
-916.4841747656141
 30
0.0
 11
-1113.728440933467
 21
-912.5684024564397
 31
0.0
  0
LINE
  5
64
330
1F
100
AcDbEntity
  8
1-0
  6
Continuous
 62
     7
370
     9
100
AcDbLine
 10
-1143.471792814575
 20
-916.4841747656141
 30
0.0
 11
-1113.728440933467
 21
-920.3999470747885
 31
0.0
  0
LINE
  5
65
330
1F
100
AcDbEntity
  8
1-0
  6
Continuous
 62
     7
370
     9
100
AcDbLine
 10
-743.4716007541418
 20
-916.4841747656141
 30
0.0
 11
-773.2149526352503
 21
-912.5684024564397
 31
0.0
  0
LINE
  5
66
330
1F
100
AcDbEntity
  8
1-0
  6
Continuous
 62
     7
370
     9
100
AcDbLine
 10
-743.4716007541418
 20
-916.4841747656141
 30
0.0
 11
-773.2149526352503
 21
-920.3999470747885
 31
0.0
  0
ARC
  5
67
330
1F
100
AcDbEntity
  8
1-0
  6
Continuous
 62
     3
370
     9
100
AcDbCircle
 10
-1113.471752163747
 20
-773.0461577931276
 30
0.0
 40
29.99999964099133
100
AcDbArc
 50
90.0
 51
270.0
  0
ARC
  5
68
330
1F
100
AcDbEntity
  8
1-0
  6
Continuous
 62
     3
370
     9
100
AcDbCircle
 10
-773.4716414049699
 20
-773.0461577931276
 30
0.0
 40
29.99999964099133
100
AcDbArc
 50
270.0
 51
90.0
  0
TEXT
  5
69
330
1F
100
AcDbEntity
  8
1-F
  6
Continuous
 62
     2
370
     9
100
AcDbText
 10
-1255.369220133252
 20
-783.0461577931276
 30
0.0
 40
30.48
  1
6
 50
90.0
 41
0.9999999999999998
  7
ＭＳ ゴシック
100
AcDbText
  0
TEXT
  5
6A
330
1F
100
AcDbEntity
  8
1-F
  6
Continuous
 62
     2
370
     9
100
AcDbText
 10
-124.4502293766612
 20
-1049.883837542841
 30
0.0
 40
30.48
  1
滑り止め詳細図　Ｓ＝２：１
 41
1.115384615384615
  7
ＭＳ ゴシック
100
AcDbText
  0
TEXT
  5
6B
330
1F
100
AcDbEntity
  8
1-F
  6
Continuous
 62
     2
370
   211
100
AcDbText
 10
-964.7216967843586
 20
-905.8441747656141
 30
0.0
 40
30.48
  1
40
 41
1.0625
  7
ＭＳ ゴシック
100
AcDbText
  0
TEXT
  5
6C
330
1F
100
AcDbEntity
  8
1-F
  6
Continuous
 62
     2
370
     9
100
AcDbText
 10
-1210.971784272011
 20
-1049.883837542841
 30
0.0
 40
30.48
  1
排水穴詳細図　Ｓ＝１：１
 41
1.114583333333333
  7
ＭＳ ゴシック
100
AcDbText
  0
LINE
  5
6D
330
1F
100
AcDbEntity
  8
1-F
  6
Continuous
 62
     7
370
     9
100
AcDbLine
 10
-1232.001056168087
 20
-1067.269754667939
 30
0.0
 11
-663.65174749066
 21
-1067.269754667939
 31
0.0
  0
LINE
  5
6E
330
1F
100
AcDbEntity
  8
0-0
  6
Continuous
 62
     3
370
     9
100
AcDbLine
 10
-959.8488961300012
 20
239.1587118969773
 30
0.0
 11
-959.8488961300012
 21
1139.158496624332
 31
0.0
  0
LINE
  5
6F
330
1F
100
AcDbEntity
  8
0-0
  6
Continuous
 62
     3
370
     9
100
AcDbLine
 10
-959.8488961300012
 20
1139.158496624332
 30
0.0
 11
-59.84893642734384
 21
1139.158496624332
 31
0.0
  0
LINE
  5
70
330
1F
100
AcDbEntity
  8
0-0
  6
Continuous
 62
     3
370
     9
100
AcDbLine
 10
-59.84893642734384
 20
1139.158496624332
 30
0.0
 11
-59.84893642734384
 21
239.1587118969773
 31
0.0
  0
LINE
  5
71
330
1F
100
AcDbEntity
  8
0-0
  6
Continuous
 62
     3
370
     9
100
AcDbLine
 10
-59.84893642734384
 20
239.1587118969773
 30
0.0
 11
-959.8488961300012
 21
239.1587118969773
 31
0.0
  0
LINE
  5
72
330
1F
100
AcDbEntity
  8
0-8
  6
Continuous
 62
     3
370
     9
100
AcDbLine
 10
-913.848973778974
 20
1077.158587587924
 30
0.0
 11
-913.848973778974
 21
1101.158760088828
 31
0.0
  0
LINE
  5
73
330
1F
100
AcDbEntity
  8
0-8
  6
Continuous
 62
     3
370
     9
100
AcDbLine
 10
-917.8490491892057
 20
1077.158587587924
 30
0.0
 11
-917.8490491892057
 21
1101.158760088828
 31
0.0
  0
LINE
  5
74
330
1F
100
AcDbEntity
  8
0-8
  6
Continuous
 62
     3
370
     9
100
AcDbLine
 10
-909.8488983687425
 20
1077.158587587924
 30
0.0
 11
-909.8488983687425
 21
1101.158760088828
 31
0.0
  0
LINE
  5
75
330
1F
100
AcDbEntity
  8
0-8
  6
Continuous
 62
     3
370
     9
100
AcDbLine
 10
-905.8493828794809
 20
1077.158587587924
 30
0.0
 11
-905.8493828794809
 21
1101.158760088828
 31
0.0
  0
LINE
  5
76
330
1F
100
AcDbEntity
  8
0-8
  6
Continuous
 62
     3
370
     9
100
AcDbLine
 10
-901.8493074692492
 20
1077.158587587924
 30
0.0
 11
-901.8493074692492
 21
1101.158760088828
 31
0.0
  0
LINE
  5
77
330
1F
100
AcDbEntity
  8
0-8
  6
Continuous
 62
     3
370
     9
100
AcDbLine
 10
-921.8491245994375
 20
1093.158609268365
 30
0.0
 11
-897.8492320590175
 21
1093.158609268365
 31
0.0
  0
LINE
  5
78
330
1F
100
AcDbEntity
  8
0-8
  6
Continuous
 62
     3
370
     9
100
AcDbLine
 10
-921.8491245994375
 20
1097.158684678597
 30
0.0
 11
-897.8492320590175
 21
1097.158684678597
 31
0.0
  0
LINE
  5
79
330
1F
100
AcDbEntity
  8
0-8
  6
Continuous
 62
     3
370
     9
100
AcDbLine
 10
-921.8491245994375
 20
1089.158533858133
 30
0.0
 11
-897.8492320590175
 21
1089.158533858133
 31
0.0
  0
LINE
  5
7A
330
1F
100
AcDbEntity
  8
0-8
  6
Continuous
 62
     3
370
     9
100
AcDbLine
 10
-921.8491245994375
 20
1085.158738408386
 30
0.0
 11
-897.8492320590175
 21
1085.158738408386
 31
0.0
  0
LINE
  5
7B
330
1F
100
AcDbEntity
  8
0-8
  6
Continuous
 62
     3
370
     9
100
AcDbLine
 10
-921.8491245994375
 20
1081.158662998155
 30
0.0
 11
-897.8492320590175
 21
1081.158662998155
 31
0.0
  0
LINE
  5
7C
330
1F
100
AcDbEntity
  8
0-8
  6
JWW_CENTER1
 62
     7
370
     9
100
AcDbLine
 10
-929.2792758723622
 20
1089.158533858133
 30
0.0
 11
-890.4190807860928
 21
1089.158533858133
 31
0.0
  0
LINE
  5
7D
330
1F
100
AcDbEntity
  8
0-8
  6
Continuous
 62
     3
370
     9
100
AcDbLine
 10
-863.8489760177154
 20
1045.158824187525
 30
0.0
 11
-795.848848880778
 21
1045.158824187525
 31
0.0
  0
LINE
  5
7E
330
1F
100
AcDbEntity
  8
0-8
  6
Continuous
 62
     3
370
     9
100
AcDbLine
 10
-863.8489760177154
 20
1033.15803803586
 30
0.0
 11
-795.848848880778
 21
1033.15803803586
 31
0.0
  0
LINE
  5
7F
330
1F
100
AcDbEntity
  8
0-8
  6
JWW_CENTER1
 62
     7
370
     9
100
AcDbLine
 10
-829.8488949517163
 20
1049.199213907602
 30
0.0
 11
-829.8488949517163
 21
1029.117368355298
 31
0.0
  0
LINE
  5
80
330
1F
100
AcDbEntity
  8
0-8
  6
JWW_CENTER1
 62
     7
370
     9
100
AcDbLine
 10
-874.5627838196581
 20
1039.158431111692
 30
0.0
 11
-785.1353210393204
 21
1039.158431111692
 31
0.0
  0
LINE
  5
81
330
1F
100
AcDbEntity
  8
0-0
  6
JWW_DASHED2
 62
     3
370
     9
100
AcDbLine
 10
-959.8488961300012
 20
1133.158523489226
 30
0.0
 11
-59.84893642734384
 21
1133.158523489226
 31
0.0
  0
LINE
  5
82
330
1F
100
AcDbEntity
  8
0-0
  6
JWW_DASHED2
 62
     3
370
     9
100
AcDbLine
 10
-59.84893642734384
 20
245.158685032082
 30
0.0
 11
-959.8488961300012
 21
245.158685032082
 31
0.0
  0
LINE
  5
83
330
1F
100
AcDbEntity
  8
0-A
  6
JWW_DASHED2
 62
     4
370
     9
100
AcDbLine
 10
-294.8490973810568
 20
1069.15843676746
 30
0.0
 11
-294.8490973810568
 21
309.158736758788
 31
0.0
  0
LINE
  5
84
330
1F
100
AcDbEntity
  8
0-A
  6
JWW_DASHED2
 62
     4
370
     9
100
AcDbLine
 10
-244.8489946346164
 20
1069.15843676746
 30
0.0
 11
-244.8489946346164
 21
309.158736758788
 31
0.0
  0
LINE
  5
85
330
1F
100
AcDbEntity
  8
0-A
  6
JWW_DASHED2
 62
     4
370
     9
100
AcDbLine
 10
-250.8491077499638
 20
1069.15843676746
 30
0.0
 11
-250.8491077499638
 21
309.158736758788
 31
0.0
  0
LINE
  5
86
330
1F
100
AcDbEntity
  8
0-A
  6
JWW_DASHED2
 62
     4
370
     9
100
AcDbLine
 10
-294.8490973810568
 20
1069.15843676746
 30
0.0
 11
-244.8489946346164
 21
1069.15843676746
 31
0.0
  0
LINE
  5
87
330
1F
100
AcDbEntity
  8
0-A
  6
JWW_DASHED2
 62
     4
370
     9
100
AcDbLine
 10
-294.8490973810568
 20
309.158736758788
 30
0.0
 11
-244.8489946346164
 21
309.158736758788
 31
0.0
  0
LINE
  5
88
330
1F
100
AcDbEntity
  8
0-A
  6
JWW_DASHED2
 62
     4
370
     9
100
AcDbLine
 10
-724.8486651861667
 20
1069.15843676746
 30
0.0
 11
-724.8486651861667
 21
309.158736758788
 31
0.0
  0
LINE
  5
89
330
1F
100
AcDbEntity
  8
0-A
  6
JWW_DASHED2
 62
     4
370
     9
100
AcDbLine
 10
-774.8487679326074
 20
1069.15843676746
 30
0.0
 11
-774.8487679326074
 21
309.158736758788
 31
0.0
  0
LINE
  5
8A
330
1F
100
AcDbEntity
  8
0-A
  6
JWW_DASHED2
 62
     4
370
     9
100
AcDbLine
 10
-768.8486548172598
 20
1069.15843676746
 30
0.0
 11
-768.8486548172598
 21
309.158736758788
 31
0.0
  0
LINE
  5
8B
330
1F
100
AcDbEntity
  8
0-A
  6
JWW_DASHED2
 62
     4
370
     9
100
AcDbLine
 10
-724.8486651861667
 20
1069.15843676746
 30
0.0
 11
-774.8487679326074
 21
1069.15843676746
 31
0.0
  0
LINE
  5
8C
330
1F
100
AcDbEntity
  8
0-A
  6
JWW_DASHED2
 62
     4
370
     9
100
AcDbLine
 10
-724.8486651861667
 20
309.158736758788
 30
0.0
 11
-774.8487679326074
 21
309.158736758788
 31
0.0
  0
LINE
  5
8D
330
1F
100
AcDbEntity
  8
0-8
  6
Continuous
 62
     3
370
     9
100
AcDbLine
 10
-913.848973778974
 20
977.1585220752848
 30
0.0
 11
-913.848973778974
 21
1001.158694576189
 31
0.0
  0
LINE
  5
8E
330
1F
100
AcDbEntity
  8
0-8
  6
Continuous
 62
     3
370
     9
100
AcDbLine
 10
-917.8490491892057
 20
977.1585220752848
 30
0.0
 11
-917.8490491892057
 21
1001.158694576189
 31
0.0
  0
LINE
  5
8F
330
1F
100
AcDbEntity
  8
0-8
  6
Continuous
 62
     3
370
     9
100
AcDbLine
 10
-909.8488983687425
 20
977.1585220752848
 30
0.0
 11
-909.8488983687425
 21
1001.158694576189
 31
0.0
  0
LINE
  5
90
330
1F
100
AcDbEntity
  8
0-8
  6
Continuous
 62
     3
370
     9
100
AcDbLine
 10
-905.8493828794809
 20
977.1585220752848
 30
0.0
 11
-905.8493828794809
 21
1001.158694576189
 31
0.0
  0
LINE
  5
91
330
1F
100
AcDbEntity
  8
0-8
  6
Continuous
 62
     3
370
     9
100
AcDbLine
 10
-901.8493074692492
 20
977.1585220752848
 30
0.0
 11
-901.8493074692492
 21
1001.158694576189
 31
0.0
  0
LINE
  5
92
330
1F
100
AcDbEntity
  8
0-8
  6
Continuous
 62
     3
370
     9
100
AcDbLine
 10
-921.8491245994375
 20
993.158543755726
 30
0.0
 11
-897.8492320590175
 21
993.158543755726
 31
0.0
  0
LINE
  5
93
330
1F
100
AcDbEntity
  8
0-8
  6
Continuous
 62
     3
370
     9
100
AcDbLine
 10
-921.8491245994375
 20
997.1586191659577
 30
0.0
 11
-897.8492320590175
 21
997.1586191659577
 31
0.0
  0
LINE
  5
94
330
1F
100
AcDbEntity
  8
0-8
  6
Continuous
 62
     3
370
     9
100
AcDbLine
 10
-921.8491245994375
 20
989.1584683454943
 30
0.0
 11
-897.8492320590175
 21
989.1584683454943
 31
0.0
  0
LINE
  5
95
330
1F
100
AcDbEntity
  8
0-8
  6
Continuous
 62
     3
370
     9
100
AcDbLine
 10
-921.8491245994375
 20
985.1586728957477
 30
0.0
 11
-897.8492320590175
 21
985.1586728957477
 31
0.0
  0
LINE
  5
96
330
1F
100
AcDbEntity
  8
0-8
  6
Continuous
 62
     3
370
     9
100
AcDbLine
 10
-921.8491245994375
 20
981.158597485516
 30
0.0
 11
-897.8492320590175
 21
981.158597485516
 31
0.0
  0
LINE
  5
97
330
1F
100
AcDbEntity
  8
0-8
  6
JWW_CENTER1
 62
     7
370
     9
100
AcDbLine
 10
-929.2792758723622
 20
989.1584683454943
 30
0.0
 11
-890.4190807860928
 21
989.1584683454943
 31
0.0
  0
LINE
  5
98
330
1F
100
AcDbEntity
  8
0-8
  6
JWW_CENTER1
 62
     7
370
     9
100
AcDbLine
 10
-909.8488983687425
 20
969.7283708023599
 30
0.0
 11
-909.8488983687425
 21
1008.588845849114
 31
0.0
  0
LINE
  5
99
330
1F
100
AcDbEntity
  8
0-8
  6
Continuous
 62
     3
370
     9
100
AcDbLine
 10
-913.848973778974
 20
877.1585965428886
 30
0.0
 11
-913.848973778974
 21
901.1587690437932
 31
0.0
  0
LINE
  5
9A
330
1F
100
AcDbEntity
  8
0-8
  6
Continuous
 62
     3
370
     9
100
AcDbLine
 10
-917.8490491892057
 20
877.1585965428886
 30
0.0
 11
-917.8490491892057
 21
901.1587690437932
 31
0.0
  0
LINE
  5
9B
330
1F
100
AcDbEntity
  8
0-8
  6
Continuous
 62
     3
370
     9
100
AcDbLine
 10
-909.8488983687425
 20
877.1585965428886
 30
0.0
 11
-909.8488983687425
 21
901.1587690437932
 31
0.0
  0
LINE
  5
9C
330
1F
100
AcDbEntity
  8
0-8
  6
Continuous
 62
     3
370
     9
100
AcDbLine
 10
-905.8493828794809
 20
877.1585965428886
 30
0.0
 11
-905.8493828794809
 21
901.1587690437932
 31
0.0
  0
LINE
  5
9D
330
1F
100
AcDbEntity
  8
0-8
  6
Continuous
 62
     3
370
     9
100
AcDbLine
 10
-901.8493074692492
 20
877.1585965428886
 30
0.0
 11
-901.8493074692492
 21
901.1587690437932
 31
0.0
  0
LINE
  5
9E
330
1F
100
AcDbEntity
  8
0-8
  6
Continuous
 62
     3
370
     9
100
AcDbLine
 10
-921.8491245994375
 20
893.1586182233298
 30
0.0
 11
-897.8492320590175
 21
893.1586182233298
 31
0.0
  0
LINE
  5
9F
330
1F
100
AcDbEntity
  8
0-8
  6
Continuous
 62
     3
370
     9
100
AcDbLine
 10
-921.8491245994375
 20
897.1586936335615
 30
0.0
 11
-897.8492320590175
 21
897.1586936335615
 31
0.0
  0
LINE
  5
A0
330
1F
100
AcDbEntity
  8
0-8
  6
Continuous
 62
     3
370
     9
100
AcDbLine
 10
-921.8491245994375
 20
889.158542813098
 30
0.0
 11
-897.8492320590175
 21
889.158542813098
 31
0.0
  0
LINE
  5
A1
330
1F
100
AcDbEntity
  8
0-8
  6
Continuous
 62
     3
370
     9
100
AcDbLine
 10
-921.8491245994375
 20
885.1587473633515
 30
0.0
 11
-897.8492320590175
 21
885.1587473633515
 31
0.0
  0
LINE
  5
A2
330
1F
100
AcDbEntity
  8
0-8
  6
Continuous
 62
     3
370
     9
100
AcDbLine
 10
-921.8491245994375
 20
881.1586719531198
 30
0.0
 11
-897.8492320590175
 21
881.1586719531198
 31
0.0
  0
LINE
  5
A3
330
1F
100
AcDbEntity
  8
0-8
  6
JWW_CENTER1
 62
     7
370
     9
100
AcDbLine
 10
-929.2792758723622
 20
889.158542813098
 30
0.0
 11
-890.4190807860928
 21
889.158542813098
 31
0.0
  0
LINE
  5
A4
330
1F
100
AcDbEntity
  8
0-8
  6
JWW_CENTER1
 62
     7
370
     9
100
AcDbLine
 10
-909.8488983687425
 20
869.7284452699637
 30
0.0
 11
-909.8488983687425
 21
908.5889203167181
 31
0.0
  0
LINE
  5
A5
330
1F
100
AcDbEntity
  8
0-8
  6
Continuous
 62
     3
370
     9
100
AcDbLine
 10
-913.848973778974
 20
777.1586010203708
 30
0.0
 11
-913.848973778974
 21
801.158773521276
 31
0.0
  0
LINE
  5
A6
330
1F
100
AcDbEntity
  8
0-8
  6
Continuous
 62
     3
370
     9
100
AcDbLine
 10
-917.8490491892057
 20
777.1586010203708
 30
0.0
 11
-917.8490491892057
 21
801.158773521276
 31
0.0
  0
LINE
  5
A7
330
1F
100
AcDbEntity
  8
0-8
  6
Continuous
 62
     3
370
     9
100
AcDbLine
 10
-909.8488983687425
 20
777.1586010203708
 30
0.0
 11
-909.8488983687425
 21
801.158773521276
 31
0.0
  0
LINE
  5
A8
330
1F
100
AcDbEntity
  8
0-8
  6
Continuous
 62
     3
370
     9
100
AcDbLine
 10
-905.8493828794809
 20
777.1586010203708
 30
0.0
 11
-905.8493828794809
 21
801.158773521276
 31
0.0
  0
LINE
  5
A9
330
1F
100
AcDbEntity
  8
0-8
  6
Continuous
 62
     3
370
     9
100
AcDbLine
 10
-901.8493074692492
 20
777.1586010203708
 30
0.0
 11
-901.8493074692492
 21
801.158773521276
 31
0.0
  0
LINE
  5
AA
330
1F
100
AcDbEntity
  8
0-8
  6
Continuous
 62
     3
370
     9
100
AcDbLine
 10
-921.8491245994375
 20
793.1586227008125
 30
0.0
 11
-897.8492320590175
 21
793.1586227008125
 31
0.0
  0
LINE
  5
AB
330
1F
100
AcDbEntity
  8
0-8
  6
Continuous
 62
     3
370
     9
100
AcDbLine
 10
-921.8491245994375
 20
797.1586981110443
 30
0.0
 11
-897.8492320590175
 21
797.1586981110443
 31
0.0
  0
LINE
  5
AC
330
1F
100
AcDbEntity
  8
0-8
  6
Continuous
 62
     3
370
     9
100
AcDbLine
 10
-921.8491245994375
 20
789.1585472905808
 30
0.0
 11
-897.8492320590175
 21
789.1585472905808
 31
0.0
  0
LINE
  5
AD
330
1F
100
AcDbEntity
  8
0-8
  6
Continuous
 62
     3
370
     9
100
AcDbLine
 10
-921.8491245994375
 20
785.1587518408343
 30
0.0
 11
-897.8492320590175
 21
785.1587518408343
 31
0.0
  0
LINE
  5
AE
330
1F
100
AcDbEntity
  8
0-8
  6
Continuous
 62
     3
370
     9
100
AcDbLine
 10
-921.8491245994375
 20
781.1586764306026
 30
0.0
 11
-897.8492320590175
 21
781.1586764306026
 31
0.0
  0
LINE
  5
AF
330
1F
100
AcDbEntity
  8
0-8
  6
JWW_CENTER1
 62
     7
370
     9
100
AcDbLine
 10
-929.2792758723622
 20
789.1585472905808
 30
0.0
 11
-890.4190807860928
 21
789.1585472905808
 31
0.0
  0
LINE
  5
B0
330
1F
100
AcDbEntity
  8
0-8
  6
JWW_CENTER1
 62
     7
370
     9
100
AcDbLine
 10
-909.8488983687425
 20
769.7284497474459
 30
0.0
 11
-909.8488983687425
 21
808.5889247942004
 31
0.0
  0
LINE
  5
B1
330
1F
100
AcDbEntity
  8
0-8
  6
Continuous
 62
     3
370
     9
100
AcDbLine
 10
-913.848973778974
 20
677.1586754879746
 30
0.0
 11
-913.848973778974
 21
701.1588479888798
 31
0.0
  0
LINE
  5
B2
330
1F
100
AcDbEntity
  8
0-8
  6
Continuous
 62
     3
370
     9
100
AcDbLine
 10
-917.8490491892057
 20
677.1586754879746
 30
0.0
 11
-917.8490491892057
 21
701.1588479888798
 31
0.0
  0
LINE
  5
B3
330
1F
100
AcDbEntity
  8
0-8
  6
Continuous
 62
     3
370
     9
100
AcDbLine
 10
-909.8488983687425
 20
677.1586754879746
 30
0.0
 11
-909.8488983687425
 21
701.1588479888798
 31
0.0
  0
LINE
  5
B4
330
1F
100
AcDbEntity
  8
0-8
  6
Continuous
 62
     3
370
     9
100
AcDbLine
 10
-905.8493828794809
 20
677.1586754879746
 30
0.0
 11
-905.8493828794809
 21
701.1588479888798
 31
0.0
  0
LINE
  5
B5
330
1F
100
AcDbEntity
  8
0-8
  6
Continuous
 62
     3
370
     9
100
AcDbLine
 10
-901.8493074692492
 20
677.1586754879746
 30
0.0
 11
-901.8493074692492
 21
701.1588479888798
 31
0.0
  0
LINE
  5
B6
330
1F
100
AcDbEntity
  8
0-8
  6
Continuous
 62
     3
370
     9
100
AcDbLine
 10
-921.8491245994375
 20
693.1586971684163
 30
0.0
 11
-897.8492320590175
 21
693.1586971684163
 31
0.0
  0
LINE
  5
B7
330
1F
100
AcDbEntity
  8
0-8
  6
Continuous
 62
     3
370
     9
100
AcDbLine
 10
-921.8491245994375
 20
697.158772578648
 30
0.0
 11
-897.8492320590175
 21
697.158772578648
 31
0.0
  0
LINE
  5
B8
330
1F
100
AcDbEntity
  8
0-8
  6
Continuous
 62
     3
370
     9
100
AcDbLine
 10
-921.8491245994375
 20
689.1586217581846
 30
0.0
 11
-897.8492320590175
 21
689.1586217581846
 31
0.0
  0
LINE
  5
B9
330
1F
100
AcDbEntity
  8
0-8
  6
Continuous
 62
     3
370
     9
100
AcDbLine
 10
-921.8491245994375
 20
685.158826308438
 30
0.0
 11
-897.8492320590175
 21
685.158826308438
 31
0.0
  0
LINE
  5
BA
330
1F
100
AcDbEntity
  8
0-8
  6
Continuous
 62
     3
370
     9
100
AcDbLine
 10
-921.8491245994375
 20
681.1587508982063
 30
0.0
 11
-897.8492320590175
 21
681.1587508982063
 31
0.0
  0
LINE
  5
BB
330
1F
100
AcDbEntity
  8
0-8
  6
JWW_CENTER1
 62
     7
370
     9
100
AcDbLine
 10
-909.8488983687425
 20
669.7285242150497
 30
0.0
 11
-909.8488983687425
 21
708.5889992618041
 31
0.0
  0
LINE
  5
BC
330
1F
100
AcDbEntity
  8
0-8
  6
Continuous
 62
     3
370
     9
100
AcDbLine
 10
-913.848973778974
 20
577.1586099753358
 30
0.0
 11
-913.848973778974
 21
601.158782476241
 31
0.0
  0
LINE
  5
BD
330
1F
100
AcDbEntity
  8
0-8
  6
Continuous
 62
     3
370
     9
100
AcDbLine
 10
-917.8490491892057
 20
577.1586099753358
 30
0.0
 11
-917.8490491892057
 21
601.158782476241
 31
0.0
  0
LINE
  5
BE
330
1F
100
AcDbEntity
  8
0-8
  6
Continuous
 62
     3
370
     9
100
AcDbLine
 10
-909.8488983687425
 20
577.1586099753358
 30
0.0
 11
-909.8488983687425
 21
601.158782476241
 31
0.0
  0
LINE
  5
BF
330
1F
100
AcDbEntity
  8
0-8
  6
Continuous
 62
     3
370
     9
100
AcDbLine
 10
-905.8493828794809
 20
577.1586099753358
 30
0.0
 11
-905.8493828794809
 21
601.158782476241
 31
0.0
  0
LINE
  5
C0
330
1F
100
AcDbEntity
  8
0-8
  6
Continuous
 62
     3
370
     9
100
AcDbLine
 10
-901.8493074692492
 20
577.1586099753358
 30
0.0
 11
-901.8493074692492
 21
601.158782476241
 31
0.0
  0
LINE
  5
C1
330
1F
100
AcDbEntity
  8
0-8
  6
Continuous
 62
     3
370
     9
100
AcDbLine
 10
-921.8491245994375
 20
593.1586316557775
 30
0.0
 11
-897.8492320590175
 21
593.1586316557775
 31
0.0
  0
LINE
  5
C2
330
1F
100
AcDbEntity
  8
0-8
  6
Continuous
 62
     3
370
     9
100
AcDbLine
 10
-921.8491245994375
 20
597.1587070660092
 30
0.0
 11
-897.8492320590175
 21
597.1587070660092
 31
0.0
  0
LINE
  5
C3
330
1F
100
AcDbEntity
  8
0-8
  6
Continuous
 62
     3
370
     9
100
AcDbLine
 10
-921.8491245994375
 20
589.1585562455458
 30
0.0
 11
-897.8492320590175
 21
589.1585562455458
 31
0.0
  0
LINE
  5
C4
330
1F
100
AcDbEntity
  8
0-8
  6
Continuous
 62
     3
370
     9
100
AcDbLine
 10
-921.8491245994375
 20
585.1587607957993
 30
0.0
 11
-897.8492320590175
 21
585.1587607957993
 31
0.0
  0
LINE
  5
C5
330
1F
100
AcDbEntity
  8
0-8
  6
Continuous
 62
     3
370
     9
100
AcDbLine
 10
-921.8491245994375
 20
581.1586853855675
 30
0.0
 11
-897.8492320590175
 21
581.1586853855675
 31
0.0
  0
LINE
  5
C6
330
1F
100
AcDbEntity
  8
0-8
  6
JWW_CENTER1
 62
     7
370
     9
100
AcDbLine
 10
-929.2792758723622
 20
589.1585562455458
 30
0.0
 11
-890.4190807860928
 21
589.1585562455458
 31
0.0
  0
LINE
  5
C7
330
1F
100
AcDbEntity
  8
0-8
  6
JWW_CENTER1
 62
     7
370
     9
100
AcDbLine
 10
-909.8488983687425
 20
569.7284587024112
 30
0.0
 11
-909.8488983687425
 21
608.5889337491653
 31
0.0
  0
LINE
  5
C8
330
1F
100
AcDbEntity
  8
0-8
  6
Continuous
 62
     3
370
     9
100
AcDbLine
 10
-913.848973778974
 20
477.1586144528183
 30
0.0
 11
-913.848973778974
 21
501.1587869537232
 31
0.0
  0
LINE
  5
C9
330
1F
100
AcDbEntity
  8
0-8
  6
Continuous
 62
     3
370
     9
100
AcDbLine
 10
-917.8490491892057
 20
477.1586144528183
 30
0.0
 11
-917.8490491892057
 21
501.1587869537232
 31
0.0
  0
LINE
  5
CA
330
1F
100
AcDbEntity
  8
0-8
  6
Continuous
 62
     3
370
     9
100
AcDbLine
 10
-909.8488983687425
 20
477.1586144528183
 30
0.0
 11
-909.8488983687425
 21
501.1587869537232
 31
0.0
  0
LINE
  5
CB
330
1F
100
AcDbEntity
  8
0-8
  6
Continuous
 62
     3
370
     9
100
AcDbLine
 10
-905.8493828794809
 20
477.1586144528183
 30
0.0
 11
-905.8493828794809
 21
501.1587869537232
 31
0.0
  0
LINE
  5
CC
330
1F
100
AcDbEntity
  8
0-8
  6
Continuous
 62
     3
370
     9
100
AcDbLine
 10
-901.8493074692492
 20
477.1586144528183
 30
0.0
 11
-901.8493074692492
 21
501.1587869537232
 31
0.0
  0
LINE
  5
CD
330
1F
100
AcDbEntity
  8
0-8
  6
Continuous
 62
     3
370
     9
100
AcDbLine
 10
-921.8491245994375
 20
493.15863613326
 30
0.0
 11
-897.8492320590175
 21
493.15863613326
 31
0.0
  0
LINE
  5
CE
330
1F
100
AcDbEntity
  8
0-8
  6
Continuous
 62
     3
370
     9
100
AcDbLine
 10
-921.8491245994375
 20
497.1587115434917
 30
0.0
 11
-897.8492320590175
 21
497.1587115434917
 31
0.0
  0
LINE
  5
CF
330
1F
100
AcDbEntity
  8
0-8
  6
Continuous
 62
     3
370
     9
100
AcDbLine
 10
-921.8491245994375
 20
489.1585607230283
 30
0.0
 11
-897.8492320590175
 21
489.1585607230283
 31
0.0
  0
LINE
  5
D0
330
1F
100
AcDbEntity
  8
0-8
  6
Continuous
 62
     3
370
     9
100
AcDbLine
 10
-921.8491245994375
 20
485.1587652732817
 30
0.0
 11
-897.8492320590175
 21
485.1587652732817
 31
0.0
  0
LINE
  5
D1
330
1F
100
AcDbEntity
  8
0-8
  6
Continuous
 62
     3
370
     9
100
AcDbLine
 10
-921.8491245994375
 20
481.15868986305
 30
0.0
 11
-897.8492320590175
 21
481.15868986305
 31
0.0
  0
LINE
  5
D2
330
1F
100
AcDbEntity
  8
0-8
  6
JWW_CENTER1
 62
     7
370
     9
100
AcDbLine
 10
-929.2792758723622
 20
489.1585607230283
 30
0.0
 11
-890.4190807860928
 21
489.1585607230283
 31
0.0
  0
LINE
  5
D3
330
1F
100
AcDbEntity
  8
0-8
  6
JWW_CENTER1
 62
     7
370
     9
100
AcDbLine
 10
-909.8488983687425
 20
469.7284631798937
 30
0.0
 11
-909.8488983687425
 21
508.5889382266481
 31
0.0
  0
LINE
  5
D4
330
1F
100
AcDbEntity
  8
0-8
  6
Continuous
 62
     3
370
     9
100
AcDbLine
 10
-913.848973778974
 20
377.1586189303008
 30
0.0
 11
-913.848973778974
 21
401.1587914312059
 31
0.0
  0
LINE
  5
D5
330
1F
100
AcDbEntity
  8
0-8
  6
Continuous
 62
     3
370
     9
100
AcDbLine
 10
-917.8490491892057
 20
377.1586189303008
 30
0.0
 11
-917.8490491892057
 21
401.1587914312059
 31
0.0
  0
LINE
  5
D6
330
1F
100
AcDbEntity
  8
0-8
  6
Continuous
 62
     3
370
     9
100
AcDbLine
 10
-909.8488983687425
 20
377.1586189303008
 30
0.0
 11
-909.8488983687425
 21
401.1587914312059
 31
0.0
  0
LINE
  5
D7
330
1F
100
AcDbEntity
  8
0-8
  6
Continuous
 62
     3
370
     9
100
AcDbLine
 10
-905.8493828794809
 20
377.1586189303008
 30
0.0
 11
-905.8493828794809
 21
401.1587914312059
 31
0.0
  0
LINE
  5
D8
330
1F
100
AcDbEntity
  8
0-8
  6
Continuous
 62
     3
370
     9
100
AcDbLine
 10
-901.8493074692492
 20
377.1586189303008
 30
0.0
 11
-901.8493074692492
 21
401.1587914312059
 31
0.0
  0
LINE
  5
D9
330
1F
100
AcDbEntity
  8
0-8
  6
Continuous
 62
     3
370
     9
100
AcDbLine
 10
-921.8491245994375
 20
393.1586406107425
 30
0.0
 11
-897.8492320590175
 21
393.1586406107425
 31
0.0
  0
LINE
  5
DA
330
1F
100
AcDbEntity
  8
0-8
  6
Continuous
 62
     3
370
     9
100
AcDbLine
 10
-921.8491245994375
 20
397.1587160209742
 30
0.0
 11
-897.8492320590175
 21
397.1587160209742
 31
0.0
  0
LINE
  5
DB
330
1F
100
AcDbEntity
  8
0-8
  6
Continuous
 62
     3
370
     9
100
AcDbLine
 10
-921.8491245994375
 20
389.1585652005108
 30
0.0
 11
-897.8492320590175
 21
389.1585652005108
 31
0.0
  0
LINE
  5
DC
330
1F
100
AcDbEntity
  8
0-8
  6
Continuous
 62
     3
370
     9
100
AcDbLine
 10
-921.8491245994375
 20
385.1587697507642
 30
0.0
 11
-897.8492320590175
 21
385.1587697507642
 31
0.0
  0
LINE
  5
DD
330
1F
100
AcDbEntity
  8
0-8
  6
Continuous
 62
     3
370
     9
100
AcDbLine
 10
-921.8491245994375
 20
381.1586943405325
 30
0.0
 11
-897.8492320590175
 21
381.1586943405325
 31
0.0
  0
LINE
  5
DE
330
1F
100
AcDbEntity
  8
0-8
  6
JWW_CENTER1
 62
     7
370
     9
100
AcDbLine
 10
-929.2792758723622
 20
389.1585652005108
 30
0.0
 11
-890.4190807860928
 21
389.1585652005108
 31
0.0
  0
LINE
  5
DF
330
1F
100
AcDbEntity
  8
0-8
  6
JWW_CENTER1
 62
     7
370
     9
100
AcDbLine
 10
-909.8488983687425
 20
369.7284676573761
 30
0.0
 11
-909.8488983687425
 21
408.5889427041306
 31
0.0
  0
LINE
  5
E0
330
1F
100
AcDbEntity
  8
0-8
  6
Continuous
 62
     3
370
     9
100
AcDbLine
 10
-863.8489760177154
 20
945.1587586748866
 30
0.0
 11
-795.848848880778
 21
945.1587586748866
 31
0.0
  0
LINE
  5
E1
330
1F
100
AcDbEntity
  8
0-8
  6
Continuous
 62
     3
370
     9
100
AcDbLine
 10
-863.8489760177154
 20
933.1579725232211
 30
0.0
 11
-795.848848880778
 21
933.1579725232211
 31
0.0
  0
LINE
  5
E2
330
1F
100
AcDbEntity
  8
0-8
  6
JWW_CENTER1
 62
     7
370
     9
100
AcDbLine
 10
-829.8488949517163
 20
949.1991483949636
 30
0.0
 11
-829.8488949517163
 21
929.117302842659
 31
0.0
  0
LINE
  5
E3
330
1F
100
AcDbEntity
  8
0-8
  6
JWW_CENTER1
 62
     7
370
     9
100
AcDbLine
 10
-874.5627838196581
 20
939.1583655990536
 30
0.0
 11
-785.1353210393204
 21
939.1583655990536
 31
0.0
  0
LINE
  5
E4
330
1F
100
AcDbEntity
  8
0-8
  6
Continuous
 62
     3
370
     9
100
AcDbLine
 10
-863.8489760177154
 20
845.1588331424904
 30
0.0
 11
-795.848848880778
 21
845.1588331424904
 31
0.0
  0
LINE
  5
E5
330
1F
100
AcDbEntity
  8
0-8
  6
Continuous
 62
     3
370
     9
100
AcDbLine
 10
-863.8489760177154
 20
833.1581169809465
 30
0.0
 11
-795.848848880778
 21
833.1581169809465
 31
0.0
  0
LINE
  5
E6
330
1F
100
AcDbEntity
  8
0-8
  6
JWW_CENTER1
 62
     7
370
     9
100
AcDbLine
 10
-829.8488949517163
 20
849.1992228625674
 30
0.0
 11
-829.8488949517163
 21
829.1174473003838
 31
0.0
  0
LINE
  5
E7
330
1F
100
AcDbEntity
  8
0-8
  6
JWW_CENTER1
 62
     7
370
     9
100
AcDbLine
 10
-874.5627838196581
 20
839.1585100567789
 30
0.0
 11
-785.1353210393204
 21
839.1585100567789
 31
0.0
  0
LINE
  5
E8
330
1F
100
AcDbEntity
  8
0-8
  6
Continuous
 62
     3
370
     9
100
AcDbLine
 10
-863.8489760177154
 20
745.1588376199726
 30
0.0
 11
-795.848848880778
 21
745.1588376199726
 31
0.0
  0
LINE
  5
E9
330
1F
100
AcDbEntity
  8
0-8
  6
Continuous
 62
     3
370
     9
100
AcDbLine
 10
-863.8489760177154
 20
733.1580514683077
 30
0.0
 11
-795.848848880778
 21
733.1580514683077
 31
0.0
  0
LINE
  5
EA
330
1F
100
AcDbEntity
  8
0-8
  6
JWW_CENTER1
 62
     7
370
     9
100
AcDbLine
 10
-829.8488949517163
 20
749.1992273400496
 30
0.0
 11
-829.8488949517163
 21
729.1173817877456
 31
0.0
  0
LINE
  5
EB
330
1F
100
AcDbEntity
  8
0-8
  6
Continuous
 62
     3
370
     9
100
AcDbLine
 10
-863.8489760177154
 20
645.1589120875764
 30
0.0
 11
-795.848848880778
 21
645.1589120875764
 31
0.0
  0
LINE
  5
EC
330
1F
100
AcDbEntity
  8
0-8
  6
Continuous
 62
     3
370
     9
100
AcDbLine
 10
-863.8489760177154
 20
633.1581259359115
 30
0.0
 11
-795.848848880778
 21
633.1581259359115
 31
0.0
  0
LINE
  5
ED
330
1F
100
AcDbEntity
  8
0-8
  6
JWW_CENTER1
 62
     7
370
     9
100
AcDbLine
 10
-829.8488949517163
 20
649.1993018076539
 30
0.0
 11
-829.8488949517163
 21
629.1174562553493
 31
0.0
  0
LINE
  5
EE
330
1F
100
AcDbEntity
  8
0-8
  6
JWW_CENTER1
 62
     7
370
     9
100
AcDbLine
 10
-874.5627838196581
 20
639.1585190117439
 30
0.0
 11
-785.1353210393204
 21
639.1585190117439
 31
0.0
  0
LINE
  5
EF
330
1F
100
AcDbEntity
  8
0-8
  6
Continuous
 62
     3
370
     9
100
AcDbLine
 10
-863.8489760177154
 20
545.1588465749376
 30
0.0
 11
-795.848848880778
 21
545.1588465749376
 31
0.0
  0
LINE
  5
F0
330
1F
100
AcDbEntity
  8
0-8
  6
Continuous
 62
     3
370
     9
100
AcDbLine
 10
-863.8489760177154
 20
533.1580604232727
 30
0.0
 11
-795.848848880778
 21
533.1580604232727
 31
0.0
  0
LINE
  5
F1
330
1F
100
AcDbEntity
  8
0-8
  6
JWW_CENTER1
 62
     7
370
     9
100
AcDbLine
 10
-829.8488949517163
 20
549.1992362950148
 30
0.0
 11
-829.8488949517163
 21
529.1173907427105
 31
0.0
  0
LINE
  5
F2
330
1F
100
AcDbEntity
  8
0-8
  6
JWW_CENTER1
 62
     7
370
     9
100
AcDbLine
 10
-874.5627838196581
 20
539.1584534991051
 30
0.0
 11
-785.1353210393204
 21
539.1584534991051
 31
0.0
  0
LINE
  5
F3
330
1F
100
AcDbEntity
  8
0-8
  6
Continuous
 62
     3
370
     9
100
AcDbLine
 10
-863.8489760177154
 20
445.1588510524203
 30
0.0
 11
-795.848848880778
 21
445.1588510524203
 31
0.0
  0
LINE
  5
F4
330
1F
100
AcDbEntity
  8
0-8
  6
Continuous
 62
     3
370
     9
100
AcDbLine
 10
-863.8489760177154
 20
433.1580649007552
 30
0.0
 11
-795.848848880778
 21
433.1580649007552
 31
0.0
  0
LINE
  5
F5
330
1F
100
AcDbEntity
  8
0-8
  6
JWW_CENTER1
 62
     7
370
     9
100
AcDbLine
 10
-829.8488949517163
 20
449.1992407724973
 30
0.0
 11
-829.8488949517163
 21
429.1173952201927
 31
0.0
  0
LINE
  5
F6
330
1F
100
AcDbEntity
  8
0-8
  6
JWW_CENTER1
 62
     7
370
     9
100
AcDbLine
 10
-874.5627838196581
 20
439.1584579765876
 30
0.0
 11
-785.1353210393204
 21
439.1584579765876
 31
0.0
  0
LINE
  5
F7
330
1F
100
AcDbEntity
  8
0-0
  6
JWW_CENTER1
 62
     7
370
     9
100
AcDbLine
 10
-983.147907596127
 20
689.1586917483056
 30
0.0
 11
-36.54992496121793
 21
689.1586917483056
 31
0.0
  0
LINE
  5
F8
330
1F
100
AcDbEntity
  8
0-8
  6
JWW_CENTER1
 62
     7
370
     9
100
AcDbLine
 10
-909.8488983687425
 20
1069.728436314999
 30
0.0
 11
-909.8488983687425
 21
1108.588911361753
 31
0.0
  0
LINE
  5
F9
330
1F
100
AcDbEntity
  8
0-8
  6
Continuous
 62
     3
370
     9
100
AcDbLine
 10
-913.848973778974
 20
277.1586234077833
 30
0.0
 11
-913.848973778974
 21
301.1587959086881
 31
0.0
  0
LINE
  5
FA
330
1F
100
AcDbEntity
  8
0-8
  6
Continuous
 62
     3
370
     9
100
AcDbLine
 10
-917.8490491892057
 20
277.1586234077833
 30
0.0
 11
-917.8490491892057
 21
301.1587959086881
 31
0.0
  0
LINE
  5
FB
330
1F
100
AcDbEntity
  8
0-8
  6
Continuous
 62
     3
370
     9
100
AcDbLine
 10
-909.8488983687425
 20
277.1586234077833
 30
0.0
 11
-909.8488983687425
 21
301.1587959086881
 31
0.0
  0
LINE
  5
FC
330
1F
100
AcDbEntity
  8
0-8
  6
Continuous
 62
     3
370
     9
100
AcDbLine
 10
-905.8493828794809
 20
277.1586234077833
 30
0.0
 11
-905.8493828794809
 21
301.1587959086881
 31
0.0
  0
LINE
  5
FD
330
1F
100
AcDbEntity
  8
0-8
  6
Continuous
 62
     3
370
     9
100
AcDbLine
 10
-901.8493074692492
 20
277.1586234077833
 30
0.0
 11
-901.8493074692492
 21
301.1587959086881
 31
0.0
  0
LINE
  5
FE
330
1F
100
AcDbEntity
  8
0-8
  6
Continuous
 62
     3
370
     9
100
AcDbLine
 10
-921.8491245994375
 20
293.158645088225
 30
0.0
 11
-897.8492320590175
 21
293.158645088225
 31
0.0
  0
LINE
  5
FF
330
1F
100
AcDbEntity
  8
0-8
  6
Continuous
 62
     3
370
     9
100
AcDbLine
 10
-921.8491245994375
 20
297.1587204984567
 30
0.0
 11
-897.8492320590175
 21
297.1587204984567
 31
0.0
  0
LINE
  5
100
330
1F
100
AcDbEntity
  8
0-8
  6
Continuous
 62
     3
370
     9
100
AcDbLine
 10
-921.8491245994375
 20
289.1585696779933
 30
0.0
 11
-897.8492320590175
 21
289.1585696779933
 31
0.0
  0
LINE
  5
101
330
1F
100
AcDbEntity
  8
0-8
  6
Continuous
 62
     3
370
     9
100
AcDbLine
 10
-921.8491245994375
 20
285.1587742282467
 30
0.0
 11
-897.8492320590175
 21
285.1587742282467
 31
0.0
  0
LINE
  5
102
330
1F
100
AcDbEntity
  8
0-8
  6
Continuous
 62
     3
370
     9
100
AcDbLine
 10
-921.8491245994375
 20
281.158698818015
 30
0.0
 11
-897.8492320590175
 21
281.158698818015
 31
0.0
  0
LINE
  5
103
330
1F
100
AcDbEntity
  8
0-8
  6
JWW_CENTER1
 62
     7
370
     9
100
AcDbLine
 10
-929.2792758723622
 20
289.1585696779933
 30
0.0
 11
-890.4190807860928
 21
289.1585696779933
 31
0.0
  0
LINE
  5
104
330
1F
100
AcDbEntity
  8
0-8
  6
JWW_CENTER1
 62
     7
370
     9
100
AcDbLine
 10
-909.8488983687425
 20
269.7284721348586
 30
0.0
 11
-909.8488983687425
 21
308.5889471816131
 31
0.0
  0
LINE
  5
105
330
1F
100
AcDbEntity
  8
0-8
  6
Continuous
 62
     3
370
     9
100
AcDbLine
 10
-863.8489760177154
 20
345.1588555299026
 30
0.0
 11
-795.848848880778
 21
345.1588555299026
 31
0.0
  0
LINE
  5
106
330
1F
100
AcDbEntity
  8
0-8
  6
Continuous
 62
     3
370
     9
100
AcDbLine
 10
-863.8489760177154
 20
333.1580693782377
 30
0.0
 11
-795.848848880778
 21
333.1580693782377
 31
0.0
  0
LINE
  5
107
330
1F
100
AcDbEntity
  8
0-8
  6
JWW_CENTER1
 62
     7
370
     9
100
AcDbLine
 10
-829.8488949517163
 20
349.1992452499801
 30
0.0
 11
-829.8488949517163
 21
329.1173996976755
 31
0.0
  0
LINE
  5
108
330
1F
100
AcDbEntity
  8
0-8
  6
JWW_CENTER1
 62
     7
370
     9
100
AcDbLine
 10
-874.5627838196581
 20
339.1584624540701
 30
0.0
 11
-785.1353210393204
 21
339.1584624540701
 31
0.0
  0
LINE
  5
109
330
1F
100
AcDbEntity
  8
0-8
  6
JWW_CENTER1
 62
     7
370
     9
100
AcDbLine
 10
-874.5627838196581
 20
739.1584445441401
 30
0.0
 11
-785.1353210393204
 21
739.1584445441401
 31
0.0
  0
LINE
  5
10A
330
1F
100
AcDbEntity
  8
0-8
  6
Continuous
 62
     3
370
     9
100
AcDbLine
 10
-753.8489669449218
 20
1077.158587587924
 30
0.0
 11
-753.8489669449218
 21
1101.158760088828
 31
0.0
  0
LINE
  5
10B
330
1F
100
AcDbEntity
  8
0-8
  6
Continuous
 62
     3
370
     9
100
AcDbLine
 10
-757.8490423551534
 20
1077.158587587924
 30
0.0
 11
-757.8490423551534
 21
1101.158760088828
 31
0.0
  0
LINE
  5
10C
330
1F
100
AcDbEntity
  8
0-8
  6
Continuous
 62
     3
370
     9
100
AcDbLine
 10
-749.8488915346901
 20
1077.158587587924
 30
0.0
 11
-749.8488915346901
 21
1101.158760088828
 31
0.0
  0
LINE
  5
10D
330
1F
100
AcDbEntity
  8
0-8
  6
Continuous
 62
     3
370
     9
100
AcDbLine
 10
-745.8493760454286
 20
1077.158587587924
 30
0.0
 11
-745.8493760454286
 21
1101.158760088828
 31
0.0
  0
LINE
  5
10E
330
1F
100
AcDbEntity
  8
0-8
  6
Continuous
 62
     3
370
     9
100
AcDbLine
 10
-741.8493006351969
 20
1077.158587587924
 30
0.0
 11
-741.8493006351969
 21
1101.158760088828
 31
0.0
  0
LINE
  5
10F
330
1F
100
AcDbEntity
  8
0-8
  6
Continuous
 62
     3
370
     9
100
AcDbLine
 10
-761.8491177653851
 20
1093.158609268365
 30
0.0
 11
-737.8492602200259
 21
1093.158609268365
 31
0.0
  0
LINE
  5
110
330
1F
100
AcDbEntity
  8
0-8
  6
Continuous
 62
     3
370
     9
100
AcDbLine
 10
-761.8491177653851
 20
1097.158684678597
 30
0.0
 11
-737.8492602200259
 21
1097.158684678597
 31
0.0
  0
LINE
  5
111
330
1F
100
AcDbEntity
  8
0-8
  6
Continuous
 62
     3
370
     9
100
AcDbLine
 10
-761.8491177653851
 20
1089.158533858133
 30
0.0
 11
-737.8492602200259
 21
1089.158533858133
 31
0.0
  0
LINE
  5
112
330
1F
100
AcDbEntity
  8
0-8
  6
Continuous
 62
     3
370
     9
100
AcDbLine
 10
-761.8491177653851
 20
1085.158738408386
 30
0.0
 11
-737.8492602200259
 21
1085.158738408386
 31
0.0
  0
LINE
  5
113
330
1F
100
AcDbEntity
  8
0-8
  6
Continuous
 62
     3
370
     9
100
AcDbLine
 10
-761.8491177653851
 20
1081.158662998155
 30
0.0
 11
-737.8492602200259
 21
1081.158662998155
 31
0.0
  0
LINE
  5
114
330
1F
100
AcDbEntity
  8
0-8
  6
JWW_CENTER1
 62
     7
370
     9
100
AcDbLine
 10
-769.27926903831
 20
1089.158533858133
 30
0.0
 11
-730.4191089471011
 21
1089.158533858133
 31
0.0
  0
LINE
  5
115
330
1F
100
AcDbEntity
  8
0-8
  6
Continuous
 62
     3
370
     9
100
AcDbLine
 10
-703.848969183663
 20
1045.158824187525
 30
0.0
 11
-635.8488770417863
 21
1045.158824187525
 31
0.0
  0
LINE
  5
116
330
1F
100
AcDbEntity
  8
0-8
  6
Continuous
 62
     3
370
     9
100
AcDbLine
 10
-703.848969183663
 20
1033.15803803586
 30
0.0
 11
-635.8488770417863
 21
1033.15803803586
 31
0.0
  0
LINE
  5
117
330
1F
100
AcDbEntity
  8
0-8
  6
JWW_CENTER1
 62
     7
370
     9
100
AcDbLine
 10
-669.848888117664
 20
1049.199213907602
 30
0.0
 11
-669.848888117664
 21
1029.117368355298
 31
0.0
  0
LINE
  5
118
330
1F
100
AcDbEntity
  8
0-8
  6
JWW_CENTER1
 62
     7
370
     9
100
AcDbLine
 10
-714.5627769856058
 20
1039.158431111692
 30
0.0
 11
-625.1353492003288
 21
1039.158431111692
 31
0.0
  0
LINE
  5
119
330
1F
100
AcDbEntity
  8
0-8
  6
Continuous
 62
     3
370
     9
100
AcDbLine
 10
-753.8489669449218
 20
977.1585220752848
 30
0.0
 11
-753.8489669449218
 21
1001.158694576189
 31
0.0
  0
LINE
  5
11A
330
1F
100
AcDbEntity
  8
0-8
  6
Continuous
 62
     3
370
     9
100
AcDbLine
 10
-757.8490423551534
 20
977.1585220752848
 30
0.0
 11
-757.8490423551534
 21
1001.158694576189
 31
0.0
  0
LINE
  5
11B
330
1F
100
AcDbEntity
  8
0-8
  6
Continuous
 62
     3
370
     9
100
AcDbLine
 10
-749.8488915346901
 20
977.1585220752848
 30
0.0
 11
-749.8488915346901
 21
1001.158694576189
 31
0.0
  0
LINE
  5
11C
330
1F
100
AcDbEntity
  8
0-8
  6
Continuous
 62
     3
370
     9
100
AcDbLine
 10
-745.8493760454286
 20
977.1585220752848
 30
0.0
 11
-745.8493760454286
 21
1001.158694576189
 31
0.0
  0
LINE
  5
11D
330
1F
100
AcDbEntity
  8
0-8
  6
Continuous
 62
     3
370
     9
100
AcDbLine
 10
-741.8493006351969
 20
977.1585220752848
 30
0.0
 11
-741.8493006351969
 21
1001.158694576189
 31
0.0
  0
LINE
  5
11E
330
1F
100
AcDbEntity
  8
0-8
  6
Continuous
 62
     3
370
     9
100
AcDbLine
 10
-761.8491177653851
 20
993.158543755726
 30
0.0
 11
-737.8492602200259
 21
993.158543755726
 31
0.0
  0
LINE
  5
11F
330
1F
100
AcDbEntity
  8
0-8
  6
Continuous
 62
     3
370
     9
100
AcDbLine
 10
-761.8491177653851
 20
997.1586191659577
 30
0.0
 11
-737.8492602200259
 21
997.1586191659577
 31
0.0
  0
LINE
  5
120
330
1F
100
AcDbEntity
  8
0-8
  6
Continuous
 62
     3
370
     9
100
AcDbLine
 10
-761.8491177653851
 20
989.1584683454943
 30
0.0
 11
-737.8492602200259
 21
989.1584683454943
 31
0.0
  0
LINE
  5
121
330
1F
100
AcDbEntity
  8
0-8
  6
Continuous
 62
     3
370
     9
100
AcDbLine
 10
-761.8491177653851
 20
985.1586728957477
 30
0.0
 11
-737.8492602200259
 21
985.1586728957477
 31
0.0
  0
LINE
  5
122
330
1F
100
AcDbEntity
  8
0-8
  6
Continuous
 62
     3
370
     9
100
AcDbLine
 10
-761.8491177653851
 20
981.158597485516
 30
0.0
 11
-737.8492602200259
 21
981.158597485516
 31
0.0
  0
LINE
  5
123
330
1F
100
AcDbEntity
  8
0-8
  6
JWW_CENTER1
 62
     7
370
     9
100
AcDbLine
 10
-769.27926903831
 20
989.1584683454943
 30
0.0
 11
-730.4191089471011
 21
989.1584683454943
 31
0.0
  0
LINE
  5
124
330
1F
100
AcDbEntity
  8
0-8
  6
JWW_CENTER1
 62
     7
370
     9
100
AcDbLine
 10
-749.8488915346901
 20
969.7283708023599
 30
0.0
 11
-749.8488915346901
 21
1008.588845849114
 31
0.0
  0
LINE
  5
125
330
1F
100
AcDbEntity
  8
0-8
  6
Continuous
 62
     3
370
     9
100
AcDbLine
 10
-753.8489669449218
 20
877.1585965428886
 30
0.0
 11
-753.8489669449218
 21
901.1587690437932
 31
0.0
  0
LINE
  5
126
330
1F
100
AcDbEntity
  8
0-8
  6
Continuous
 62
     3
370
     9
100
AcDbLine
 10
-757.8490423551534
 20
877.1585965428886
 30
0.0
 11
-757.8490423551534
 21
901.1587690437932
 31
0.0
  0
LINE
  5
127
330
1F
100
AcDbEntity
  8
0-8
  6
Continuous
 62
     3
370
     9
100
AcDbLine
 10
-749.8488915346901
 20
877.1585965428886
 30
0.0
 11
-749.8488915346901
 21
901.1587690437932
 31
0.0
  0
LINE
  5
128
330
1F
100
AcDbEntity
  8
0-8
  6
Continuous
 62
     3
370
     9
100
AcDbLine
 10
-745.8493760454286
 20
877.1585965428886
 30
0.0
 11
-745.8493760454286
 21
901.1587690437932
 31
0.0
  0
LINE
  5
129
330
1F
100
AcDbEntity
  8
0-8
  6
Continuous
 62
     3
370
     9
100
AcDbLine
 10
-741.8493006351969
 20
877.1585965428886
 30
0.0
 11
-741.8493006351969
 21
901.1587690437932
 31
0.0
  0
LINE
  5
12A
330
1F
100
AcDbEntity
  8
0-8
  6
Continuous
 62
     3
370
     9
100
AcDbLine
 10
-761.8491177653851
 20
893.1586182233298
 30
0.0
 11
-737.8492602200259
 21
893.1586182233298
 31
0.0
  0
LINE
  5
12B
330
1F
100
AcDbEntity
  8
0-8
  6
Continuous
 62
     3
370
     9
100
AcDbLine
 10
-761.8491177653851
 20
897.1586936335615
 30
0.0
 11
-737.8492602200259
 21
897.1586936335615
 31
0.0
  0
LINE
  5
12C
330
1F
100
AcDbEntity
  8
0-8
  6
Continuous
 62
     3
370
     9
100
AcDbLine
 10
-761.8491177653851
 20
889.158542813098
 30
0.0
 11
-737.8492602200259
 21
889.158542813098
 31
0.0
  0
LINE
  5
12D
330
1F
100
AcDbEntity
  8
0-8
  6
Continuous
 62
     3
370
     9
100
AcDbLine
 10
-761.8491177653851
 20
885.1587473633515
 30
0.0
 11
-737.8492602200259
 21
885.1587473633515
 31
0.0
  0
LINE
  5
12E
330
1F
100
AcDbEntity
  8
0-8
  6
Continuous
 62
     3
370
     9
100
AcDbLine
 10
-761.8491177653851
 20
881.1586719531198
 30
0.0
 11
-737.8492602200259
 21
881.1586719531198
 31
0.0
  0
LINE
  5
12F
330
1F
100
AcDbEntity
  8
0-8
  6
JWW_CENTER1
 62
     7
370
     9
100
AcDbLine
 10
-769.27926903831
 20
889.158542813098
 30
0.0
 11
-730.4191089471011
 21
889.158542813098
 31
0.0
  0
LINE
  5
130
330
1F
100
AcDbEntity
  8
0-8
  6
JWW_CENTER1
 62
     7
370
     9
100
AcDbLine
 10
-749.8488915346901
 20
869.7284452699637
 30
0.0
 11
-749.8488915346901
 21
908.5889203167181
 31
0.0
  0
LINE
  5
131
330
1F
100
AcDbEntity
  8
0-8
  6
Continuous
 62
     3
370
     9
100
AcDbLine
 10
-753.8489669449218
 20
777.1586010203708
 30
0.0
 11
-753.8489669449218
 21
801.158773521276
 31
0.0
  0
LINE
  5
132
330
1F
100
AcDbEntity
  8
0-8
  6
Continuous
 62
     3
370
     9
100
AcDbLine
 10
-757.8490423551534
 20
777.1586010203708
 30
0.0
 11
-757.8490423551534
 21
801.158773521276
 31
0.0
  0
LINE
  5
133
330
1F
100
AcDbEntity
  8
0-8
  6
Continuous
 62
     3
370
     9
100
AcDbLine
 10
-749.8488915346901
 20
777.1586010203708
 30
0.0
 11
-749.8488915346901
 21
801.158773521276
 31
0.0
  0
LINE
  5
134
330
1F
100
AcDbEntity
  8
0-8
  6
Continuous
 62
     3
370
     9
100
AcDbLine
 10
-745.8493760454286
 20
777.1586010203708
 30
0.0
 11
-745.8493760454286
 21
801.158773521276
 31
0.0
  0
LINE
  5
135
330
1F
100
AcDbEntity
  8
0-8
  6
Continuous
 62
     3
370
     9
100
AcDbLine
 10
-741.8493006351969
 20
777.1586010203708
 30
0.0
 11
-741.8493006351969
 21
801.158773521276
 31
0.0
  0
LINE
  5
136
330
1F
100
AcDbEntity
  8
0-8
  6
Continuous
 62
     3
370
     9
100
AcDbLine
 10
-761.8491177653851
 20
793.1586227008125
 30
0.0
 11
-737.8492602200259
 21
793.1586227008125
 31
0.0
  0
LINE
  5
137
330
1F
100
AcDbEntity
  8
0-8
  6
Continuous
 62
     3
370
     9
100
AcDbLine
 10
-761.8491177653851
 20
797.1586981110443
 30
0.0
 11
-737.8492602200259
 21
797.1586981110443
 31
0.0
  0
LINE
  5
138
330
1F
100
AcDbEntity
  8
0-8
  6
Continuous
 62
     3
370
     9
100
AcDbLine
 10
-761.8491177653851
 20
789.1585472905808
 30
0.0
 11
-737.8492602200259
 21
789.1585472905808
 31
0.0
  0
LINE
  5
139
330
1F
100
AcDbEntity
  8
0-8
  6
Continuous
 62
     3
370
     9
100
AcDbLine
 10
-761.8491177653851
 20
785.1587518408343
 30
0.0
 11
-737.8492602200259
 21
785.1587518408343
 31
0.0
  0
LINE
  5
13A
330
1F
100
AcDbEntity
  8
0-8
  6
Continuous
 62
     3
370
     9
100
AcDbLine
 10
-761.8491177653851
 20
781.1586764306026
 30
0.0
 11
-737.8492602200259
 21
781.1586764306026
 31
0.0
  0
LINE
  5
13B
330
1F
100
AcDbEntity
  8
0-8
  6
JWW_CENTER1
 62
     7
370
     9
100
AcDbLine
 10
-769.27926903831
 20
789.1585472905808
 30
0.0
 11
-730.4191089471011
 21
789.1585472905808
 31
0.0
  0
LINE
  5
13C
330
1F
100
AcDbEntity
  8
0-8
  6
JWW_CENTER1
 62
     7
370
     9
100
AcDbLine
 10
-749.8488915346901
 20
769.7284497474459
 30
0.0
 11
-749.8488915346901
 21
808.5889247942004
 31
0.0
  0
LINE
  5
13D
330
1F
100
AcDbEntity
  8
0-8
  6
Continuous
 62
     3
370
     9
100
AcDbLine
 10
-753.8489669449218
 20
677.1586754879746
 30
0.0
 11
-753.8489669449218
 21
701.1588479888798
 31
0.0
  0
LINE
  5
13E
330
1F
100
AcDbEntity
  8
0-8
  6
Continuous
 62
     3
370
     9
100
AcDbLine
 10
-757.8490423551534
 20
677.1586754879746
 30
0.0
 11
-757.8490423551534
 21
701.1588479888798
 31
0.0
  0
LINE
  5
13F
330
1F
100
AcDbEntity
  8
0-8
  6
Continuous
 62
     3
370
     9
100
AcDbLine
 10
-749.8488915346901
 20
677.1586754879746
 30
0.0
 11
-749.8488915346901
 21
701.1588479888798
 31
0.0
  0
LINE
  5
140
330
1F
100
AcDbEntity
  8
0-8
  6
Continuous
 62
     3
370
     9
100
AcDbLine
 10
-745.8493760454286
 20
677.1586754879746
 30
0.0
 11
-745.8493760454286
 21
701.1588479888798
 31
0.0
  0
LINE
  5
141
330
1F
100
AcDbEntity
  8
0-8
  6
Continuous
 62
     3
370
     9
100
AcDbLine
 10
-741.8493006351969
 20
677.1586754879746
 30
0.0
 11
-741.8493006351969
 21
701.1588479888798
 31
0.0
  0
LINE
  5
142
330
1F
100
AcDbEntity
  8
0-8
  6
Continuous
 62
     3
370
     9
100
AcDbLine
 10
-761.8491177653851
 20
693.1586971684163
 30
0.0
 11
-737.8492602200259
 21
693.1586971684163
 31
0.0
  0
LINE
  5
143
330
1F
100
AcDbEntity
  8
0-8
  6
Continuous
 62
     3
370
     9
100
AcDbLine
 10
-761.8491177653851
 20
697.158772578648
 30
0.0
 11
-737.8492602200259
 21
697.158772578648
 31
0.0
  0
LINE
  5
144
330
1F
100
AcDbEntity
  8
0-8
  6
Continuous
 62
     3
370
     9
100
AcDbLine
 10
-761.8491177653851
 20
689.1586217581846
 30
0.0
 11
-737.8492602200259
 21
689.1586217581846
 31
0.0
  0
LINE
  5
145
330
1F
100
AcDbEntity
  8
0-8
  6
Continuous
 62
     3
370
     9
100
AcDbLine
 10
-761.8491177653851
 20
685.158826308438
 30
0.0
 11
-737.8492602200259
 21
685.158826308438
 31
0.0
  0
LINE
  5
146
330
1F
100
AcDbEntity
  8
0-8
  6
Continuous
 62
     3
370
     9
100
AcDbLine
 10
-761.8491177653851
 20
681.1587508982063
 30
0.0
 11
-737.8492602200259
 21
681.1587508982063
 31
0.0
  0
LINE
  5
147
330
1F
100
AcDbEntity
  8
0-8
  6
JWW_CENTER1
 62
     7
370
     9
100
AcDbLine
 10
-749.8488915346901
 20
669.7285242150497
 30
0.0
 11
-749.8488915346901
 21
708.5889992618041
 31
0.0
  0
LINE
  5
148
330
1F
100
AcDbEntity
  8
0-8
  6
Continuous
 62
     3
370
     9
100
AcDbLine
 10
-753.8489669449218
 20
577.1586099753358
 30
0.0
 11
-753.8489669449218
 21
601.158782476241
 31
0.0
  0
LINE
  5
149
330
1F
100
AcDbEntity
  8
0-8
  6
Continuous
 62
     3
370
     9
100
AcDbLine
 10
-757.8490423551534
 20
577.1586099753358
 30
0.0
 11
-757.8490423551534
 21
601.158782476241
 31
0.0
  0
LINE
  5
14A
330
1F
100
AcDbEntity
  8
0-8
  6
Continuous
 62
     3
370
     9
100
AcDbLine
 10
-749.8488915346901
 20
577.1586099753358
 30
0.0
 11
-749.8488915346901
 21
601.158782476241
 31
0.0
  0
LINE
  5
14B
330
1F
100
AcDbEntity
  8
0-8
  6
Continuous
 62
     3
370
     9
100
AcDbLine
 10
-745.8493760454286
 20
577.1586099753358
 30
0.0
 11
-745.8493760454286
 21
601.158782476241
 31
0.0
  0
LINE
  5
14C
330
1F
100
AcDbEntity
  8
0-8
  6
Continuous
 62
     3
370
     9
100
AcDbLine
 10
-741.8493006351969
 20
577.1586099753358
 30
0.0
 11
-741.8493006351969
 21
601.158782476241
 31
0.0
  0
LINE
  5
14D
330
1F
100
AcDbEntity
  8
0-8
  6
Continuous
 62
     3
370
     9
100
AcDbLine
 10
-761.8491177653851
 20
593.1586316557775
 30
0.0
 11
-737.8492602200259
 21
593.1586316557775
 31
0.0
  0
LINE
  5
14E
330
1F
100
AcDbEntity
  8
0-8
  6
Continuous
 62
     3
370
     9
100
AcDbLine
 10
-761.8491177653851
 20
597.1587070660092
 30
0.0
 11
-737.8492602200259
 21
597.1587070660092
 31
0.0
  0
LINE
  5
14F
330
1F
100
AcDbEntity
  8
0-8
  6
Continuous
 62
     3
370
     9
100
AcDbLine
 10
-761.8491177653851
 20
589.1585562455458
 30
0.0
 11
-737.8492602200259
 21
589.1585562455458
 31
0.0
  0
LINE
  5
150
330
1F
100
AcDbEntity
  8
0-8
  6
Continuous
 62
     3
370
     9
100
AcDbLine
 10
-761.8491177653851
 20
585.1587607957993
 30
0.0
 11
-737.8492602200259
 21
585.1587607957993
 31
0.0
  0
LINE
  5
151
330
1F
100
AcDbEntity
  8
0-8
  6
Continuous
 62
     3
370
     9
100
AcDbLine
 10
-761.8491177653851
 20
581.1586853855675
 30
0.0
 11
-737.8492602200259
 21
581.1586853855675
 31
0.0
  0
LINE
  5
152
330
1F
100
AcDbEntity
  8
0-8
  6
JWW_CENTER1
 62
     7
370
     9
100
AcDbLine
 10
-769.27926903831
 20
589.1585562455458
 30
0.0
 11
-730.4191089471011
 21
589.1585562455458
 31
0.0
  0
LINE
  5
153
330
1F
100
AcDbEntity
  8
0-8
  6
JWW_CENTER1
 62
     7
370
     9
100
AcDbLine
 10
-749.8488915346901
 20
569.7284587024112
 30
0.0
 11
-749.8488915346901
 21
608.5889337491653
 31
0.0
  0
LINE
  5
154
330
1F
100
AcDbEntity
  8
0-8
  6
Continuous
 62
     3
370
     9
100
AcDbLine
 10
-753.8489669449218
 20
477.1586144528183
 30
0.0
 11
-753.8489669449218
 21
501.1587869537232
 31
0.0
  0
LINE
  5
155
330
1F
100
AcDbEntity
  8
0-8
  6
Continuous
 62
     3
370
     9
100
AcDbLine
 10
-757.8490423551534
 20
477.1586144528183
 30
0.0
 11
-757.8490423551534
 21
501.1587869537232
 31
0.0
  0
LINE
  5
156
330
1F
100
AcDbEntity
  8
0-8
  6
Continuous
 62
     3
370
     9
100
AcDbLine
 10
-749.8488915346901
 20
477.1586144528183
 30
0.0
 11
-749.8488915346901
 21
501.1587869537232
 31
0.0
  0
LINE
  5
157
330
1F
100
AcDbEntity
  8
0-8
  6
Continuous
 62
     3
370
     9
100
AcDbLine
 10
-745.8493760454286
 20
477.1586144528183
 30
0.0
 11
-745.8493760454286
 21
501.1587869537232
 31
0.0
  0
LINE
  5
158
330
1F
100
AcDbEntity
  8
0-8
  6
Continuous
 62
     3
370
     9
100
AcDbLine
 10
-741.8493006351969
 20
477.1586144528183
 30
0.0
 11
-741.8493006351969
 21
501.1587869537232
 31
0.0
  0
LINE
  5
159
330
1F
100
AcDbEntity
  8
0-8
  6
Continuous
 62
     3
370
     9
100
AcDbLine
 10
-761.8491177653851
 20
493.15863613326
 30
0.0
 11
-737.8492602200259
 21
493.15863613326
 31
0.0
  0
LINE
  5
15A
330
1F
100
AcDbEntity
  8
0-8
  6
Continuous
 62
     3
370
     9
100
AcDbLine
 10
-761.8491177653851
 20
497.1587115434917
 30
0.0
 11
-737.8492602200259
 21
497.1587115434917
 31
0.0
  0
LINE
  5
15B
330
1F
100
AcDbEntity
  8
0-8
  6
Continuous
 62
     3
370
     9
100
AcDbLine
 10
-761.8491177653851
 20
489.1585607230283
 30
0.0
 11
-737.8492602200259
 21
489.1585607230283
 31
0.0
  0
LINE
  5
15C
330
1F
100
AcDbEntity
  8
0-8
  6
Continuous
 62
     3
370
     9
100
AcDbLine
 10
-761.8491177653851
 20
485.1587652732817
 30
0.0
 11
-737.8492602200259
 21
485.1587652732817
 31
0.0
  0
LINE
  5
15D
330
1F
100
AcDbEntity
  8
0-8
  6
Continuous
 62
     3
370
     9
100
AcDbLine
 10
-761.8491177653851
 20
481.15868986305
 30
0.0
 11
-737.8492602200259
 21
481.15868986305
 31
0.0
  0
LINE
  5
15E
330
1F
100
AcDbEntity
  8
0-8
  6
JWW_CENTER1
 62
     7
370
     9
100
AcDbLine
 10
-769.27926903831
 20
489.1585607230283
 30
0.0
 11
-730.4191089471011
 21
489.1585607230283
 31
0.0
  0
LINE
  5
15F
330
1F
100
AcDbEntity
  8
0-8
  6
JWW_CENTER1
 62
     7
370
     9
100
AcDbLine
 10
-749.8488915346901
 20
469.7284631798937
 30
0.0
 11
-749.8488915346901
 21
508.5889382266481
 31
0.0
  0
LINE
  5
160
330
1F
100
AcDbEntity
  8
0-8
  6
Continuous
 62
     3
370
     9
100
AcDbLine
 10
-753.8489669449218
 20
377.1586189303008
 30
0.0
 11
-753.8489669449218
 21
401.1587914312059
 31
0.0
  0
LINE
  5
161
330
1F
100
AcDbEntity
  8
0-8
  6
Continuous
 62
     3
370
     9
100
AcDbLine
 10
-757.8490423551534
 20
377.1586189303008
 30
0.0
 11
-757.8490423551534
 21
401.1587914312059
 31
0.0
  0
LINE
  5
162
330
1F
100
AcDbEntity
  8
0-8
  6
Continuous
 62
     3
370
     9
100
AcDbLine
 10
-749.8488915346901
 20
377.1586189303008
 30
0.0
 11
-749.8488915346901
 21
401.1587914312059
 31
0.0
  0
LINE
  5
163
330
1F
100
AcDbEntity
  8
0-8
  6
Continuous
 62
     3
370
     9
100
AcDbLine
 10
-745.8493760454286
 20
377.1586189303008
 30
0.0
 11
-745.8493760454286
 21
401.1587914312059
 31
0.0
  0
LINE
  5
164
330
1F
100
AcDbEntity
  8
0-8
  6
Continuous
 62
     3
370
     9
100
AcDbLine
 10
-741.8493006351969
 20
377.1586189303008
 30
0.0
 11
-741.8493006351969
 21
401.1587914312059
 31
0.0
  0
LINE
  5
165
330
1F
100
AcDbEntity
  8
0-8
  6
Continuous
 62
     3
370
     9
100
AcDbLine
 10
-761.8491177653851
 20
393.1586406107425
 30
0.0
 11
-737.8492602200259
 21
393.1586406107425
 31
0.0
  0
LINE
  5
166
330
1F
100
AcDbEntity
  8
0-8
  6
Continuous
 62
     3
370
     9
100
AcDbLine
 10
-761.8491177653851
 20
397.1587160209742
 30
0.0
 11
-737.8492602200259
 21
397.1587160209742
 31
0.0
  0
LINE
  5
167
330
1F
100
AcDbEntity
  8
0-8
  6
Continuous
 62
     3
370
     9
100
AcDbLine
 10
-761.8491177653851
 20
389.1585652005108
 30
0.0
 11
-737.8492602200259
 21
389.1585652005108
 31
0.0
  0
LINE
  5
168
330
1F
100
AcDbEntity
  8
0-8
  6
Continuous
 62
     3
370
     9
100
AcDbLine
 10
-761.8491177653851
 20
385.1587697507642
 30
0.0
 11
-737.8492602200259
 21
385.1587697507642
 31
0.0
  0
LINE
  5
169
330
1F
100
AcDbEntity
  8
0-8
  6
Continuous
 62
     3
370
     9
100
AcDbLine
 10
-761.8491177653851
 20
381.1586943405325
 30
0.0
 11
-737.8492602200259
 21
381.1586943405325
 31
0.0
  0
LINE
  5
16A
330
1F
100
AcDbEntity
  8
0-8
  6
JWW_CENTER1
 62
     7
370
     9
100
AcDbLine
 10
-769.27926903831
 20
389.1585652005108
 30
0.0
 11
-730.4191089471011
 21
389.1585652005108
 31
0.0
  0
LINE
  5
16B
330
1F
100
AcDbEntity
  8
0-8
  6
JWW_CENTER1
 62
     7
370
     9
100
AcDbLine
 10
-749.8488915346901
 20
369.7284676573761
 30
0.0
 11
-749.8488915346901
 21
408.5889427041306
 31
0.0
  0
LINE
  5
16C
330
1F
100
AcDbEntity
  8
0-8
  6
Continuous
 62
     3
370
     9
100
AcDbLine
 10
-703.848969183663
 20
945.1587586748866
 30
0.0
 11
-635.8488770417863
 21
945.1587586748866
 31
0.0
  0
LINE
  5
16D
330
1F
100
AcDbEntity
  8
0-8
  6
Continuous
 62
     3
370
     9
100
AcDbLine
 10
-703.848969183663
 20
933.1579725232211
 30
0.0
 11
-635.8488770417863
 21
933.1579725232211
 31
0.0
  0
LINE
  5
16E
330
1F
100
AcDbEntity
  8
0-8
  6
JWW_CENTER1
 62
     7
370
     9
100
AcDbLine
 10
-669.848888117664
 20
949.1991483949636
 30
0.0
 11
-669.848888117664
 21
929.117302842659
 31
0.0
  0
LINE
  5
16F
330
1F
100
AcDbEntity
  8
0-8
  6
JWW_CENTER1
 62
     7
370
     9
100
AcDbLine
 10
-714.5627769856058
 20
939.1583655990536
 30
0.0
 11
-625.1353492003288
 21
939.1583655990536
 31
0.0
  0
LINE
  5
170
330
1F
100
AcDbEntity
  8
0-8
  6
Continuous
 62
     3
370
     9
100
AcDbLine
 10
-703.848969183663
 20
845.1588331424904
 30
0.0
 11
-635.8488770417863
 21
845.1588331424904
 31
0.0
  0
LINE
  5
171
330
1F
100
AcDbEntity
  8
0-8
  6
Continuous
 62
     3
370
     9
100
AcDbLine
 10
-703.848969183663
 20
833.1581169809465
 30
0.0
 11
-635.8488770417863
 21
833.1581169809465
 31
0.0
  0
LINE
  5
172
330
1F
100
AcDbEntity
  8
0-8
  6
JWW_CENTER1
 62
     7
370
     9
100
AcDbLine
 10
-669.848888117664
 20
849.1992228625674
 30
0.0
 11
-669.848888117664
 21
829.1174473003838
 31
0.0
  0
LINE
  5
173
330
1F
100
AcDbEntity
  8
0-8
  6
JWW_CENTER1
 62
     7
370
     9
100
AcDbLine
 10
-714.5627769856058
 20
839.1585100567789
 30
0.0
 11
-625.1353492003288
 21
839.1585100567789
 31
0.0
  0
LINE
  5
174
330
1F
100
AcDbEntity
  8
0-8
  6
Continuous
 62
     3
370
     9
100
AcDbLine
 10
-703.848969183663
 20
745.1588376199726
 30
0.0
 11
-635.8488770417863
 21
745.1588376199726
 31
0.0
  0
LINE
  5
175
330
1F
100
AcDbEntity
  8
0-8
  6
Continuous
 62
     3
370
     9
100
AcDbLine
 10
-703.848969183663
 20
733.1580514683077
 30
0.0
 11
-635.8488770417863
 21
733.1580514683077
 31
0.0
  0
LINE
  5
176
330
1F
100
AcDbEntity
  8
0-8
  6
JWW_CENTER1
 62
     7
370
     9
100
AcDbLine
 10
-669.848888117664
 20
749.1992273400496
 30
0.0
 11
-669.848888117664
 21
729.1173817877456
 31
0.0
  0
LINE
  5
177
330
1F
100
AcDbEntity
  8
0-8
  6
Continuous
 62
     3
370
     9
100
AcDbLine
 10
-703.848969183663
 20
645.1589120875764
 30
0.0
 11
-635.8488770417863
 21
645.1589120875764
 31
0.0
  0
LINE
  5
178
330
1F
100
AcDbEntity
  8
0-8
  6
Continuous
 62
     3
370
     9
100
AcDbLine
 10
-703.848969183663
 20
633.1581259359115
 30
0.0
 11
-635.8488770417863
 21
633.1581259359115
 31
0.0
  0
LINE
  5
179
330
1F
100
AcDbEntity
  8
0-8
  6
JWW_CENTER1
 62
     7
370
     9
100
AcDbLine
 10
-669.848888117664
 20
649.1993018076539
 30
0.0
 11
-669.848888117664
 21
629.1174562553493
 31
0.0
  0
LINE
  5
17A
330
1F
100
AcDbEntity
  8
0-8
  6
JWW_CENTER1
 62
     7
370
     9
100
AcDbLine
 10
-714.5627769856058
 20
639.1585190117439
 30
0.0
 11
-625.1353492003288
 21
639.1585190117439
 31
0.0
  0
LINE
  5
17B
330
1F
100
AcDbEntity
  8
0-8
  6
Continuous
 62
     3
370
     9
100
AcDbLine
 10
-703.848969183663
 20
545.1588465749376
 30
0.0
 11
-635.8488770417863
 21
545.1588465749376
 31
0.0
  0
LINE
  5
17C
330
1F
100
AcDbEntity
  8
0-8
  6
Continuous
 62
     3
370
     9
100
AcDbLine
 10
-703.848969183663
 20
533.1580604232727
 30
0.0
 11
-635.8488770417863
 21
533.1580604232727
 31
0.0
  0
LINE
  5
17D
330
1F
100
AcDbEntity
  8
0-8
  6
JWW_CENTER1
 62
     7
370
     9
100
AcDbLine
 10
-669.848888117664
 20
549.1992362950148
 30
0.0
 11
-669.848888117664
 21
529.1173907427105
 31
0.0
  0
LINE
  5
17E
330
1F
100
AcDbEntity
  8
0-8
  6
JWW_CENTER1
 62
     7
370
     9
100
AcDbLine
 10
-714.5627769856058
 20
539.1584534991051
 30
0.0
 11
-625.1353492003288
 21
539.1584534991051
 31
0.0
  0
LINE
  5
17F
330
1F
100
AcDbEntity
  8
0-8
  6
Continuous
 62
     3
370
     9
100
AcDbLine
 10
-703.848969183663
 20
445.1588510524203
 30
0.0
 11
-635.8488770417863
 21
445.1588510524203
 31
0.0
  0
LINE
  5
180
330
1F
100
AcDbEntity
  8
0-8
  6
Continuous
 62
     3
370
     9
100
AcDbLine
 10
-703.848969183663
 20
433.1580649007552
 30
0.0
 11
-635.8488770417863
 21
433.1580649007552
 31
0.0
  0
LINE
  5
181
330
1F
100
AcDbEntity
  8
0-8
  6
JWW_CENTER1
 62
     7
370
     9
100
AcDbLine
 10
-669.848888117664
 20
449.1992407724973
 30
0.0
 11
-669.848888117664
 21
429.1173952201927
 31
0.0
  0
LINE
  5
182
330
1F
100
AcDbEntity
  8
0-8
  6
JWW_CENTER1
 62
     7
370
     9
100
AcDbLine
 10
-714.5627769856058
 20
439.1584579765876
 30
0.0
 11
-625.1353492003288
 21
439.1584579765876
 31
0.0
  0
LINE
  5
183
330
1F
100
AcDbEntity
  8
0-8
  6
JWW_CENTER1
 62
     7
370
     9
100
AcDbLine
 10
-749.8488915346901
 20
1069.728436314999
 30
0.0
 11
-749.8488915346901
 21
1108.588911361753
 31
0.0
  0
LINE
  5
184
330
1F
100
AcDbEntity
  8
0-8
  6
Continuous
 62
     3
370
     9
100
AcDbLine
 10
-753.8489669449218
 20
277.1586234077833
 30
0.0
 11
-753.8489669449218
 21
301.1587959086881
 31
0.0
  0
LINE
  5
185
330
1F
100
AcDbEntity
  8
0-8
  6
Continuous
 62
     3
370
     9
100
AcDbLine
 10
-757.8490423551534
 20
277.1586234077833
 30
0.0
 11
-757.8490423551534
 21
301.1587959086881
 31
0.0
  0
LINE
  5
186
330
1F
100
AcDbEntity
  8
0-8
  6
Continuous
 62
     3
370
     9
100
AcDbLine
 10
-749.8488915346901
 20
277.1586234077833
 30
0.0
 11
-749.8488915346901
 21
301.1587959086881
 31
0.0
  0
LINE
  5
187
330
1F
100
AcDbEntity
  8
0-8
  6
Continuous
 62
     3
370
     9
100
AcDbLine
 10
-745.8493760454286
 20
277.1586234077833
 30
0.0
 11
-745.8493760454286
 21
301.1587959086881
 31
0.0
  0
LINE
  5
188
330
1F
100
AcDbEntity
  8
0-8
  6
Continuous
 62
     3
370
     9
100
AcDbLine
 10
-741.8493006351969
 20
277.1586234077833
 30
0.0
 11
-741.8493006351969
 21
301.1587959086881
 31
0.0
  0
LINE
  5
189
330
1F
100
AcDbEntity
  8
0-8
  6
Continuous
 62
     3
370
     9
100
AcDbLine
 10
-761.8491177653851
 20
293.158645088225
 30
0.0
 11
-737.8492602200259
 21
293.158645088225
 31
0.0
  0
LINE
  5
18A
330
1F
100
AcDbEntity
  8
0-8
  6
Continuous
 62
     3
370
     9
100
AcDbLine
 10
-761.8491177653851
 20
297.1587204984567
 30
0.0
 11
-737.8492602200259
 21
297.1587204984567
 31
0.0
  0
LINE
  5
18B
330
1F
100
AcDbEntity
  8
0-8
  6
Continuous
 62
     3
370
     9
100
AcDbLine
 10
-761.8491177653851
 20
289.1585696779933
 30
0.0
 11
-737.8492602200259
 21
289.1585696779933
 31
0.0
  0
LINE
  5
18C
330
1F
100
AcDbEntity
  8
0-8
  6
Continuous
 62
     3
370
     9
100
AcDbLine
 10
-761.8491177653851
 20
285.1587742282467
 30
0.0
 11
-737.8492602200259
 21
285.1587742282467
 31
0.0
  0
LINE
  5
18D
330
1F
100
AcDbEntity
  8
0-8
  6
Continuous
 62
     3
370
     9
100
AcDbLine
 10
-761.8491177653851
 20
281.158698818015
 30
0.0
 11
-737.8492602200259
 21
281.158698818015
 31
0.0
  0
LINE
  5
18E
330
1F
100
AcDbEntity
  8
0-8
  6
JWW_CENTER1
 62
     7
370
     9
100
AcDbLine
 10
-769.27926903831
 20
289.1585696779933
 30
0.0
 11
-730.4191089471011
 21
289.1585696779933
 31
0.0
  0
LINE
  5
18F
330
1F
100
AcDbEntity
  8
0-8
  6
JWW_CENTER1
 62
     7
370
     9
100
AcDbLine
 10
-749.8488915346901
 20
269.7284721348586
 30
0.0
 11
-749.8488915346901
 21
308.5889471816131
 31
0.0
  0
LINE
  5
190
330
1F
100
AcDbEntity
  8
0-8
  6
Continuous
 62
     3
370
     9
100
AcDbLine
 10
-703.848969183663
 20
345.1588555299026
 30
0.0
 11
-635.8488770417863
 21
345.1588555299026
 31
0.0
  0
LINE
  5
191
330
1F
100
AcDbEntity
  8
0-8
  6
Continuous
 62
     3
370
     9
100
AcDbLine
 10
-703.848969183663
 20
333.1580693782377
 30
0.0
 11
-635.8488770417863
 21
333.1580693782377
 31
0.0
  0
LINE
  5
192
330
1F
100
AcDbEntity
  8
0-8
  6
JWW_CENTER1
 62
     7
370
     9
100
AcDbLine
 10
-669.848888117664
 20
349.1992452499801
 30
0.0
 11
-669.848888117664
 21
329.1173996976755
 31
0.0
  0
LINE
  5
193
330
1F
100
AcDbEntity
  8
0-8
  6
JWW_CENTER1
 62
     7
370
     9
100
AcDbLine
 10
-714.5627769856058
 20
339.1584624540701
 30
0.0
 11
-625.1353492003288
 21
339.1584624540701
 31
0.0
  0
LINE
  5
194
330
1F
100
AcDbEntity
  8
0-8
  6
JWW_CENTER1
 62
     7
370
     9
100
AcDbLine
 10
-714.5627769856058
 20
739.1584445441401
 30
0.0
 11
-625.1353492003288
 21
739.1584445441401
 31
0.0
  0
LINE
  5
195
330
1F
100
AcDbEntity
  8
0-8
  6
Continuous
 62
     3
370
     9
100
AcDbLine
 10
-593.848925115809
 20
1077.158587587924
 30
0.0
 11
-593.848925115809
 21
1101.158760088828
 31
0.0
  0
LINE
  5
196
330
1F
100
AcDbEntity
  8
0-8
  6
Continuous
 62
     3
370
     9
100
AcDbLine
 10
-597.8490005260405
 20
1077.158587587924
 30
0.0
 11
-597.8490005260405
 21
1101.158760088828
 31
0.0
  0
LINE
  5
197
330
1F
100
AcDbEntity
  8
0-8
  6
Continuous
 62
     3
370
     9
100
AcDbLine
 10
-589.8488497055773
 20
1077.158587587924
 30
0.0
 11
-589.8488497055773
 21
1101.158760088828
 31
0.0
  0
LINE
  5
198
330
1F
100
AcDbEntity
  8
0-8
  6
Continuous
 62
     3
370
     9
100
AcDbLine
 10
-585.8493342163158
 20
1077.158587587924
 30
0.0
 11
-585.8493342163158
 21
1101.158760088828
 31
0.0
  0
LINE
  5
199
330
1F
100
AcDbEntity
  8
0-8
  6
Continuous
 62
     3
370
     9
100
AcDbLine
 10
-581.849258806084
 20
1077.158587587924
 30
0.0
 11
-581.849258806084
 21
1101.158760088828
 31
0.0
  0
LINE
  5
19A
330
1F
100
AcDbEntity
  8
0-8
  6
Continuous
 62
     3
370
     9
100
AcDbLine
 10
-601.8490759362724
 20
1093.158609268365
 30
0.0
 11
-577.8491833958525
 21
1093.158609268365
 31
0.0
  0
LINE
  5
19B
330
1F
100
AcDbEntity
  8
0-8
  6
Continuous
 62
     3
370
     9
100
AcDbLine
 10
-601.8490759362724
 20
1097.158684678597
 30
0.0
 11
-577.8491833958525
 21
1097.158684678597
 31
0.0
  0
LINE
  5
19C
330
1F
100
AcDbEntity
  8
0-8
  6
Continuous
 62
     3
370
     9
100
AcDbLine
 10
-601.8490759362724
 20
1089.158533858133
 30
0.0
 11
-577.8491833958525
 21
1089.158533858133
 31
0.0
  0
LINE
  5
19D
330
1F
100
AcDbEntity
  8
0-8
  6
Continuous
 62
     3
370
     9
100
AcDbLine
 10
-601.8490759362724
 20
1085.158738408386
 30
0.0
 11
-577.8491833958525
 21
1085.158738408386
 31
0.0
  0
LINE
  5
19E
330
1F
100
AcDbEntity
  8
0-8
  6
Continuous
 62
     3
370
     9
100
AcDbLine
 10
-601.8490759362724
 20
1081.158662998155
 30
0.0
 11
-577.8491833958525
 21
1081.158662998155
 31
0.0
  0
LINE
  5
19F
330
1F
100
AcDbEntity
  8
0-8
  6
JWW_CENTER1
 62
     7
370
     9
100
AcDbLine
 10
-609.2792272091971
 20
1089.158533858133
 30
0.0
 11
-570.4190321229278
 21
1089.158533858133
 31
0.0
  0
LINE
  5
1A0
330
1F
100
AcDbEntity
  8
0-8
  6
Continuous
 62
     3
370
     9
100
AcDbLine
 10
-543.8489623496109
 20
1045.158824187525
 30
0.0
 11
-475.8488002176128
 21
1045.158824187525
 31
0.0
  0
LINE
  5
1A1
330
1F
100
AcDbEntity
  8
0-8
  6
Continuous
 62
     3
370
     9
100
AcDbLine
 10
-543.8489623496109
 20
1033.15803803586
 30
0.0
 11
-475.8488002176128
 21
1033.15803803586
 31
0.0
  0
LINE
  5
1A2
330
1F
100
AcDbEntity
  8
0-8
  6
JWW_CENTER1
 62
     7
370
     9
100
AcDbLine
 10
-509.8488812836118
 20
1049.199213907602
 30
0.0
 11
-509.8488812836118
 21
1029.117368355298
 31
0.0
  0
LINE
  5
1A3
330
1F
100
AcDbEntity
  8
0-8
  6
JWW_CENTER1
 62
     7
370
     9
100
AcDbLine
 10
-554.5627701515535
 20
1039.158431111692
 30
0.0
 11
-465.1352723761552
 21
1039.158431111692
 31
0.0
  0
LINE
  5
1A4
330
1F
100
AcDbEntity
  8
0-8
  6
Continuous
 62
     3
370
     9
100
AcDbLine
 10
-593.848925115809
 20
977.1585220752848
 30
0.0
 11
-593.848925115809
 21
1001.158694576189
 31
0.0
  0
LINE
  5
1A5
330
1F
100
AcDbEntity
  8
0-8
  6
Continuous
 62
     3
370
     9
100
AcDbLine
 10
-597.8490005260405
 20
977.1585220752848
 30
0.0
 11
-597.8490005260405
 21
1001.158694576189
 31
0.0
  0
LINE
  5
1A6
330
1F
100
AcDbEntity
  8
0-8
  6
Continuous
 62
     3
370
     9
100
AcDbLine
 10
-589.8488497055773
 20
977.1585220752848
 30
0.0
 11
-589.8488497055773
 21
1001.158694576189
 31
0.0
  0
LINE
  5
1A7
330
1F
100
AcDbEntity
  8
0-8
  6
Continuous
 62
     3
370
     9
100
AcDbLine
 10
-585.8493342163158
 20
977.1585220752848
 30
0.0
 11
-585.8493342163158
 21
1001.158694576189
 31
0.0
  0
LINE
  5
1A8
330
1F
100
AcDbEntity
  8
0-8
  6
Continuous
 62
     3
370
     9
100
AcDbLine
 10
-581.849258806084
 20
977.1585220752848
 30
0.0
 11
-581.849258806084
 21
1001.158694576189
 31
0.0
  0
LINE
  5
1A9
330
1F
100
AcDbEntity
  8
0-8
  6
Continuous
 62
     3
370
     9
100
AcDbLine
 10
-601.8490759362724
 20
993.158543755726
 30
0.0
 11
-577.8491833958525
 21
993.158543755726
 31
0.0
  0
LINE
  5
1AA
330
1F
100
AcDbEntity
  8
0-8
  6
Continuous
 62
     3
370
     9
100
AcDbLine
 10
-601.8490759362724
 20
997.1586191659577
 30
0.0
 11
-577.8491833958525
 21
997.1586191659577
 31
0.0
  0
LINE
  5
1AB
330
1F
100
AcDbEntity
  8
0-8
  6
Continuous
 62
     3
370
     9
100
AcDbLine
 10
-601.8490759362724
 20
989.1584683454943
 30
0.0
 11
-577.8491833958525
 21
989.1584683454943
 31
0.0
  0
LINE
  5
1AC
330
1F
100
AcDbEntity
  8
0-8
  6
Continuous
 62
     3
370
     9
100
AcDbLine
 10
-601.8490759362724
 20
985.1586728957477
 30
0.0
 11
-577.8491833958525
 21
985.1586728957477
 31
0.0
  0
LINE
  5
1AD
330
1F
100
AcDbEntity
  8
0-8
  6
Continuous
 62
     3
370
     9
100
AcDbLine
 10
-601.8490759362724
 20
981.158597485516
 30
0.0
 11
-577.8491833958525
 21
981.158597485516
 31
0.0
  0
LINE
  5
1AE
330
1F
100
AcDbEntity
  8
0-8
  6
JWW_CENTER1
 62
     7
370
     9
100
AcDbLine
 10
-609.2792272091971
 20
989.1584683454943
 30
0.0
 11
-570.4190321229278
 21
989.1584683454943
 31
0.0
  0
LINE
  5
1AF
330
1F
100
AcDbEntity
  8
0-8
  6
JWW_CENTER1
 62
     7
370
     9
100
AcDbLine
 10
-589.8488497055773
 20
969.7283708023599
 30
0.0
 11
-589.8488497055773
 21
1008.588845849114
 31
0.0
  0
LINE
  5
1B0
330
1F
100
AcDbEntity
  8
0-8
  6
Continuous
 62
     3
370
     9
100
AcDbLine
 10
-593.848925115809
 20
877.1585965428886
 30
0.0
 11
-593.848925115809
 21
901.1587690437932
 31
0.0
  0
LINE
  5
1B1
330
1F
100
AcDbEntity
  8
0-8
  6
Continuous
 62
     3
370
     9
100
AcDbLine
 10
-597.8490005260405
 20
877.1585965428886
 30
0.0
 11
-597.8490005260405
 21
901.1587690437932
 31
0.0
  0
LINE
  5
1B2
330
1F
100
AcDbEntity
  8
0-8
  6
Continuous
 62
     3
370
     9
100
AcDbLine
 10
-589.8488497055773
 20
877.1585965428886
 30
0.0
 11
-589.8488497055773
 21
901.1587690437932
 31
0.0
  0
LINE
  5
1B3
330
1F
100
AcDbEntity
  8
0-8
  6
Continuous
 62
     3
370
     9
100
AcDbLine
 10
-585.8493342163158
 20
877.1585965428886
 30
0.0
 11
-585.8493342163158
 21
901.1587690437932
 31
0.0
  0
LINE
  5
1B4
330
1F
100
AcDbEntity
  8
0-8
  6
Continuous
 62
     3
370
     9
100
AcDbLine
 10
-581.849258806084
 20
877.1585965428886
 30
0.0
 11
-581.849258806084
 21
901.1587690437932
 31
0.0
  0
LINE
  5
1B5
330
1F
100
AcDbEntity
  8
0-8
  6
Continuous
 62
     3
370
     9
100
AcDbLine
 10
-601.8490759362724
 20
893.1586182233298
 30
0.0
 11
-577.8491833958525
 21
893.1586182233298
 31
0.0
  0
LINE
  5
1B6
330
1F
100
AcDbEntity
  8
0-8
  6
Continuous
 62
     3
370
     9
100
AcDbLine
 10
-601.8490759362724
 20
897.1586936335615
 30
0.0
 11
-577.8491833958525
 21
897.1586936335615
 31
0.0
  0
LINE
  5
1B7
330
1F
100
AcDbEntity
  8
0-8
  6
Continuous
 62
     3
370
     9
100
AcDbLine
 10
-601.8490759362724
 20
889.158542813098
 30
0.0
 11
-577.8491833958525
 21
889.158542813098
 31
0.0
  0
LINE
  5
1B8
330
1F
100
AcDbEntity
  8
0-8
  6
Continuous
 62
     3
370
     9
100
AcDbLine
 10
-601.8490759362724
 20
885.1587473633515
 30
0.0
 11
-577.8491833958525
 21
885.1587473633515
 31
0.0
  0
LINE
  5
1B9
330
1F
100
AcDbEntity
  8
0-8
  6
Continuous
 62
     3
370
     9
100
AcDbLine
 10
-601.8490759362724
 20
881.1586719531198
 30
0.0
 11
-577.8491833958525
 21
881.1586719531198
 31
0.0
  0
LINE
  5
1BA
330
1F
100
AcDbEntity
  8
0-8
  6
JWW_CENTER1
 62
     7
370
     9
100
AcDbLine
 10
-609.2792272091971
 20
889.158542813098
 30
0.0
 11
-570.4190321229278
 21
889.158542813098
 31
0.0
  0
LINE
  5
1BB
330
1F
100
AcDbEntity
  8
0-8
  6
JWW_CENTER1
 62
     7
370
     9
100
AcDbLine
 10
-589.8488497055773
 20
869.7284452699637
 30
0.0
 11
-589.8488497055773
 21
908.5889203167181
 31
0.0
  0
LINE
  5
1BC
330
1F
100
AcDbEntity
  8
0-8
  6
Continuous
 62
     3
370
     9
100
AcDbLine
 10
-593.848925115809
 20
777.1586010203708
 30
0.0
 11
-593.848925115809
 21
801.158773521276
 31
0.0
  0
LINE
  5
1BD
330
1F
100
AcDbEntity
  8
0-8
  6
Continuous
 62
     3
370
     9
100
AcDbLine
 10
-597.8490005260405
 20
777.1586010203708
 30
0.0
 11
-597.8490005260405
 21
801.158773521276
 31
0.0
  0
LINE
  5
1BE
330
1F
100
AcDbEntity
  8
0-8
  6
Continuous
 62
     3
370
     9
100
AcDbLine
 10
-589.8488497055773
 20
777.1586010203708
 30
0.0
 11
-589.8488497055773
 21
801.158773521276
 31
0.0
  0
LINE
  5
1BF
330
1F
100
AcDbEntity
  8
0-8
  6
Continuous
 62
     3
370
     9
100
AcDbLine
 10
-585.8493342163158
 20
777.1586010203708
 30
0.0
 11
-585.8493342163158
 21
801.158773521276
 31
0.0
  0
LINE
  5
1C0
330
1F
100
AcDbEntity
  8
0-8
  6
Continuous
 62
     3
370
     9
100
AcDbLine
 10
-581.849258806084
 20
777.1586010203708
 30
0.0
 11
-581.849258806084
 21
801.158773521276
 31
0.0
  0
LINE
  5
1C1
330
1F
100
AcDbEntity
  8
0-8
  6
Continuous
 62
     3
370
     9
100
AcDbLine
 10
-601.8490759362724
 20
793.1586227008125
 30
0.0
 11
-577.8491833958525
 21
793.1586227008125
 31
0.0
  0
LINE
  5
1C2
330
1F
100
AcDbEntity
  8
0-8
  6
Continuous
 62
     3
370
     9
100
AcDbLine
 10
-601.8490759362724
 20
797.1586981110443
 30
0.0
 11
-577.8491833958525
 21
797.1586981110443
 31
0.0
  0
LINE
  5
1C3
330
1F
100
AcDbEntity
  8
0-8
  6
Continuous
 62
     3
370
     9
100
AcDbLine
 10
-601.8490759362724
 20
789.1585472905808
 30
0.0
 11
-577.8491833958525
 21
789.1585472905808
 31
0.0
  0
LINE
  5
1C4
330
1F
100
AcDbEntity
  8
0-8
  6
Continuous
 62
     3
370
     9
100
AcDbLine
 10
-601.8490759362724
 20
785.1587518408343
 30
0.0
 11
-577.8491833958525
 21
785.1587518408343
 31
0.0
  0
LINE
  5
1C5
330
1F
100
AcDbEntity
  8
0-8
  6
Continuous
 62
     3
370
     9
100
AcDbLine
 10
-601.8490759362724
 20
781.1586764306026
 30
0.0
 11
-577.8491833958525
 21
781.1586764306026
 31
0.0
  0
LINE
  5
1C6
330
1F
100
AcDbEntity
  8
0-8
  6
JWW_CENTER1
 62
     7
370
     9
100
AcDbLine
 10
-609.2792272091971
 20
789.1585472905808
 30
0.0
 11
-570.4190321229278
 21
789.1585472905808
 31
0.0
  0
LINE
  5
1C7
330
1F
100
AcDbEntity
  8
0-8
  6
JWW_CENTER1
 62
     7
370
     9
100
AcDbLine
 10
-589.8488497055773
 20
769.7284497474459
 30
0.0
 11
-589.8488497055773
 21
808.5889247942004
 31
0.0
  0
LINE
  5
1C8
330
1F
100
AcDbEntity
  8
0-8
  6
Continuous
 62
     3
370
     9
100
AcDbLine
 10
-593.848925115809
 20
677.1586754879746
 30
0.0
 11
-593.848925115809
 21
701.1588479888798
 31
0.0
  0
LINE
  5
1C9
330
1F
100
AcDbEntity
  8
0-8
  6
Continuous
 62
     3
370
     9
100
AcDbLine
 10
-597.8490005260405
 20
677.1586754879746
 30
0.0
 11
-597.8490005260405
 21
701.1588479888798
 31
0.0
  0
LINE
  5
1CA
330
1F
100
AcDbEntity
  8
0-8
  6
Continuous
 62
     3
370
     9
100
AcDbLine
 10
-589.8488497055773
 20
677.1586754879746
 30
0.0
 11
-589.8488497055773
 21
701.1588479888798
 31
0.0
  0
LINE
  5
1CB
330
1F
100
AcDbEntity
  8
0-8
  6
Continuous
 62
     3
370
     9
100
AcDbLine
 10
-585.8493342163158
 20
677.1586754879746
 30
0.0
 11
-585.8493342163158
 21
701.1588479888798
 31
0.0
  0
LINE
  5
1CC
330
1F
100
AcDbEntity
  8
0-8
  6
Continuous
 62
     3
370
     9
100
AcDbLine
 10
-581.849258806084
 20
677.1586754879746
 30
0.0
 11
-581.849258806084
 21
701.1588479888798
 31
0.0
  0
LINE
  5
1CD
330
1F
100
AcDbEntity
  8
0-8
  6
Continuous
 62
     3
370
     9
100
AcDbLine
 10
-601.8490759362724
 20
693.1586971684163
 30
0.0
 11
-577.8491833958525
 21
693.1586971684163
 31
0.0
  0
LINE
  5
1CE
330
1F
100
AcDbEntity
  8
0-8
  6
Continuous
 62
     3
370
     9
100
AcDbLine
 10
-601.8490759362724
 20
697.158772578648
 30
0.0
 11
-577.8491833958525
 21
697.158772578648
 31
0.0
  0
LINE
  5
1CF
330
1F
100
AcDbEntity
  8
0-8
  6
Continuous
 62
     3
370
     9
100
AcDbLine
 10
-601.8490759362724
 20
689.1586217581846
 30
0.0
 11
-577.8491833958525
 21
689.1586217581846
 31
0.0
  0
LINE
  5
1D0
330
1F
100
AcDbEntity
  8
0-8
  6
Continuous
 62
     3
370
     9
100
AcDbLine
 10
-601.8490759362724
 20
685.158826308438
 30
0.0
 11
-577.8491833958525
 21
685.158826308438
 31
0.0
  0
LINE
  5
1D1
330
1F
100
AcDbEntity
  8
0-8
  6
Continuous
 62
     3
370
     9
100
AcDbLine
 10
-601.8490759362724
 20
681.1587508982063
 30
0.0
 11
-577.8491833958525
 21
681.1587508982063
 31
0.0
  0
LINE
  5
1D2
330
1F
100
AcDbEntity
  8
0-8
  6
JWW_CENTER1
 62
     7
370
     9
100
AcDbLine
 10
-589.8488497055773
 20
669.7285242150497
 30
0.0
 11
-589.8488497055773
 21
708.5889992618041
 31
0.0
  0
LINE
  5
1D3
330
1F
100
AcDbEntity
  8
0-8
  6
Continuous
 62
     3
370
     9
100
AcDbLine
 10
-593.848925115809
 20
577.1586099753358
 30
0.0
 11
-593.848925115809
 21
601.158782476241
 31
0.0
  0
LINE
  5
1D4
330
1F
100
AcDbEntity
  8
0-8
  6
Continuous
 62
     3
370
     9
100
AcDbLine
 10
-597.8490005260405
 20
577.1586099753358
 30
0.0
 11
-597.8490005260405
 21
601.158782476241
 31
0.0
  0
LINE
  5
1D5
330
1F
100
AcDbEntity
  8
0-8
  6
Continuous
 62
     3
370
     9
100
AcDbLine
 10
-589.8488497055773
 20
577.1586099753358
 30
0.0
 11
-589.8488497055773
 21
601.158782476241
 31
0.0
  0
LINE
  5
1D6
330
1F
100
AcDbEntity
  8
0-8
  6
Continuous
 62
     3
370
     9
100
AcDbLine
 10
-585.8493342163158
 20
577.1586099753358
 30
0.0
 11
-585.8493342163158
 21
601.158782476241
 31
0.0
  0
LINE
  5
1D7
330
1F
100
AcDbEntity
  8
0-8
  6
Continuous
 62
     3
370
     9
100
AcDbLine
 10
-581.849258806084
 20
577.1586099753358
 30
0.0
 11
-581.849258806084
 21
601.158782476241
 31
0.0
  0
LINE
  5
1D8
330
1F
100
AcDbEntity
  8
0-8
  6
Continuous
 62
     3
370
     9
100
AcDbLine
 10
-601.8490759362724
 20
593.1586316557775
 30
0.0
 11
-577.8491833958525
 21
593.1586316557775
 31
0.0
  0
LINE
  5
1D9
330
1F
100
AcDbEntity
  8
0-8
  6
Continuous
 62
     3
370
     9
100
AcDbLine
 10
-601.8490759362724
 20
597.1587070660092
 30
0.0
 11
-577.8491833958525
 21
597.1587070660092
 31
0.0
  0
LINE
  5
1DA
330
1F
100
AcDbEntity
  8
0-8
  6
Continuous
 62
     3
370
     9
100
AcDbLine
 10
-601.8490759362724
 20
589.1585562455458
 30
0.0
 11
-577.8491833958525
 21
589.1585562455458
 31
0.0
  0
LINE
  5
1DB
330
1F
100
AcDbEntity
  8
0-8
  6
Continuous
 62
     3
370
     9
100
AcDbLine
 10
-601.8490759362724
 20
585.1587607957993
 30
0.0
 11
-577.8491833958525
 21
585.1587607957993
 31
0.0
  0
LINE
  5
1DC
330
1F
100
AcDbEntity
  8
0-8
  6
Continuous
 62
     3
370
     9
100
AcDbLine
 10
-601.8490759362724
 20
581.1586853855675
 30
0.0
 11
-577.8491833958525
 21
581.1586853855675
 31
0.0
  0
LINE
  5
1DD
330
1F
100
AcDbEntity
  8
0-8
  6
JWW_CENTER1
 62
     7
370
     9
100
AcDbLine
 10
-609.2792272091971
 20
589.1585562455458
 30
0.0
 11
-570.4190321229278
 21
589.1585562455458
 31
0.0
  0
LINE
  5
1DE
330
1F
100
AcDbEntity
  8
0-8
  6
JWW_CENTER1
 62
     7
370
     9
100
AcDbLine
 10
-589.8488497055773
 20
569.7284587024112
 30
0.0
 11
-589.8488497055773
 21
608.5889337491653
 31
0.0
  0
LINE
  5
1DF
330
1F
100
AcDbEntity
  8
0-8
  6
Continuous
 62
     3
370
     9
100
AcDbLine
 10
-593.848925115809
 20
477.1586144528183
 30
0.0
 11
-593.848925115809
 21
501.1587869537232
 31
0.0
  0
LINE
  5
1E0
330
1F
100
AcDbEntity
  8
0-8
  6
Continuous
 62
     3
370
     9
100
AcDbLine
 10
-597.8490005260405
 20
477.1586144528183
 30
0.0
 11
-597.8490005260405
 21
501.1587869537232
 31
0.0
  0
LINE
  5
1E1
330
1F
100
AcDbEntity
  8
0-8
  6
Continuous
 62
     3
370
     9
100
AcDbLine
 10
-589.8488497055773
 20
477.1586144528183
 30
0.0
 11
-589.8488497055773
 21
501.1587869537232
 31
0.0
  0
LINE
  5
1E2
330
1F
100
AcDbEntity
  8
0-8
  6
Continuous
 62
     3
370
     9
100
AcDbLine
 10
-585.8493342163158
 20
477.1586144528183
 30
0.0
 11
-585.8493342163158
 21
501.1587869537232
 31
0.0
  0
LINE
  5
1E3
330
1F
100
AcDbEntity
  8
0-8
  6
Continuous
 62
     3
370
     9
100
AcDbLine
 10
-581.849258806084
 20
477.1586144528183
 30
0.0
 11
-581.849258806084
 21
501.1587869537232
 31
0.0
  0
LINE
  5
1E4
330
1F
100
AcDbEntity
  8
0-8
  6
Continuous
 62
     3
370
     9
100
AcDbLine
 10
-601.8490759362724
 20
493.15863613326
 30
0.0
 11
-577.8491833958525
 21
493.15863613326
 31
0.0
  0
LINE
  5
1E5
330
1F
100
AcDbEntity
  8
0-8
  6
Continuous
 62
     3
370
     9
100
AcDbLine
 10
-601.8490759362724
 20
497.1587115434917
 30
0.0
 11
-577.8491833958525
 21
497.1587115434917
 31
0.0
  0
LINE
  5
1E6
330
1F
100
AcDbEntity
  8
0-8
  6
Continuous
 62
     3
370
     9
100
AcDbLine
 10
-601.8490759362724
 20
489.1585607230283
 30
0.0
 11
-577.8491833958525
 21
489.1585607230283
 31
0.0
  0
LINE
  5
1E7
330
1F
100
AcDbEntity
  8
0-8
  6
Continuous
 62
     3
370
     9
100
AcDbLine
 10
-601.8490759362724
 20
485.1587652732817
 30
0.0
 11
-577.8491833958525
 21
485.1587652732817
 31
0.0
  0
LINE
  5
1E8
330
1F
100
AcDbEntity
  8
0-8
  6
Continuous
 62
     3
370
     9
100
AcDbLine
 10
-601.8490759362724
 20
481.15868986305
 30
0.0
 11
-577.8491833958525
 21
481.15868986305
 31
0.0
  0
LINE
  5
1E9
330
1F
100
AcDbEntity
  8
0-8
  6
JWW_CENTER1
 62
     7
370
     9
100
AcDbLine
 10
-609.2792272091971
 20
489.1585607230283
 30
0.0
 11
-570.4190321229278
 21
489.1585607230283
 31
0.0
  0
LINE
  5
1EA
330
1F
100
AcDbEntity
  8
0-8
  6
JWW_CENTER1
 62
     7
370
     9
100
AcDbLine
 10
-589.8488497055773
 20
469.7284631798937
 30
0.0
 11
-589.8488497055773
 21
508.5889382266481
 31
0.0
  0
LINE
  5
1EB
330
1F
100
AcDbEntity
  8
0-8
  6
Continuous
 62
     3
370
     9
100
AcDbLine
 10
-593.848925115809
 20
377.1586189303008
 30
0.0
 11
-593.848925115809
 21
401.1587914312059
 31
0.0
  0
LINE
  5
1EC
330
1F
100
AcDbEntity
  8
0-8
  6
Continuous
 62
     3
370
     9
100
AcDbLine
 10
-597.8490005260405
 20
377.1586189303008
 30
0.0
 11
-597.8490005260405
 21
401.1587914312059
 31
0.0
  0
LINE
  5
1ED
330
1F
100
AcDbEntity
  8
0-8
  6
Continuous
 62
     3
370
     9
100
AcDbLine
 10
-589.8488497055773
 20
377.1586189303008
 30
0.0
 11
-589.8488497055773
 21
401.1587914312059
 31
0.0
  0
LINE
  5
1EE
330
1F
100
AcDbEntity
  8
0-8
  6
Continuous
 62
     3
370
     9
100
AcDbLine
 10
-585.8493342163158
 20
377.1586189303008
 30
0.0
 11
-585.8493342163158
 21
401.1587914312059
 31
0.0
  0
LINE
  5
1EF
330
1F
100
AcDbEntity
  8
0-8
  6
Continuous
 62
     3
370
     9
100
AcDbLine
 10
-581.849258806084
 20
377.1586189303008
 30
0.0
 11
-581.849258806084
 21
401.1587914312059
 31
0.0
  0
LINE
  5
1F0
330
1F
100
AcDbEntity
  8
0-8
  6
Continuous
 62
     3
370
     9
100
AcDbLine
 10
-601.8490759362724
 20
393.1586406107425
 30
0.0
 11
-577.8491833958525
 21
393.1586406107425
 31
0.0
  0
LINE
  5
1F1
330
1F
100
AcDbEntity
  8
0-8
  6
Continuous
 62
     3
370
     9
100
AcDbLine
 10
-601.8490759362724
 20
397.1587160209742
 30
0.0
 11
-577.8491833958525
 21
397.1587160209742
 31
0.0
  0
LINE
  5
1F2
330
1F
100
AcDbEntity
  8
0-8
  6
Continuous
 62
     3
370
     9
100
AcDbLine
 10
-601.8490759362724
 20
389.1585652005108
 30
0.0
 11
-577.8491833958525
 21
389.1585652005108
 31
0.0
  0
LINE
  5
1F3
330
1F
100
AcDbEntity
  8
0-8
  6
Continuous
 62
     3
370
     9
100
AcDbLine
 10
-601.8490759362724
 20
385.1587697507642
 30
0.0
 11
-577.8491833958525
 21
385.1587697507642
 31
0.0
  0
LINE
  5
1F4
330
1F
100
AcDbEntity
  8
0-8
  6
Continuous
 62
     3
370
     9
100
AcDbLine
 10
-601.8490759362724
 20
381.1586943405325
 30
0.0
 11
-577.8491833958525
 21
381.1586943405325
 31
0.0
  0
LINE
  5
1F5
330
1F
100
AcDbEntity
  8
0-8
  6
JWW_CENTER1
 62
     7
370
     9
100
AcDbLine
 10
-609.2792272091971
 20
389.1585652005108
 30
0.0
 11
-570.4190321229278
 21
389.1585652005108
 31
0.0
  0
LINE
  5
1F6
330
1F
100
AcDbEntity
  8
0-8
  6
JWW_CENTER1
 62
     7
370
     9
100
AcDbLine
 10
-589.8488497055773
 20
369.7284676573761
 30
0.0
 11
-589.8488497055773
 21
408.5889427041306
 31
0.0
  0
LINE
  5
1F7
330
1F
100
AcDbEntity
  8
0-8
  6
Continuous
 62
     3
370
     9
100
AcDbLine
 10
-543.8489623496109
 20
945.1587586748866
 30
0.0
 11
-475.8488002176128
 21
945.1587586748866
 31
0.0
  0
LINE
  5
1F8
330
1F
100
AcDbEntity
  8
0-8
  6
Continuous
 62
     3
370
     9
100
AcDbLine
 10
-543.8489623496109
 20
933.1579725232211
 30
0.0
 11
-475.8488002176128
 21
933.1579725232211
 31
0.0
  0
LINE
  5
1F9
330
1F
100
AcDbEntity
  8
0-8
  6
JWW_CENTER1
 62
     7
370
     9
100
AcDbLine
 10
-509.8488812836118
 20
949.1991483949636
 30
0.0
 11
-509.8488812836118
 21
929.117302842659
 31
0.0
  0
LINE
  5
1FA
330
1F
100
AcDbEntity
  8
0-8
  6
JWW_CENTER1
 62
     7
370
     9
100
AcDbLine
 10
-554.5627701515535
 20
939.1583655990536
 30
0.0
 11
-465.1352723761552
 21
939.1583655990536
 31
0.0
  0
LINE
  5
1FB
330
1F
100
AcDbEntity
  8
0-8
  6
Continuous
 62
     3
370
     9
100
AcDbLine
 10
-543.8489623496109
 20
845.1588331424904
 30
0.0
 11
-475.8488002176128
 21
845.1588331424904
 31
0.0
  0
LINE
  5
1FC
330
1F
100
AcDbEntity
  8
0-8
  6
Continuous
 62
     3
370
     9
100
AcDbLine
 10
-543.8489623496109
 20
833.1581169809465
 30
0.0
 11
-475.8488002176128
 21
833.1581169809465
 31
0.0
  0
LINE
  5
1FD
330
1F
100
AcDbEntity
  8
0-8
  6
JWW_CENTER1
 62
     7
370
     9
100
AcDbLine
 10
-509.8488812836118
 20
849.1992228625674
 30
0.0
 11
-509.8488812836118
 21
829.1174473003838
 31
0.0
  0
LINE
  5
1FE
330
1F
100
AcDbEntity
  8
0-8
  6
JWW_CENTER1
 62
     7
370
     9
100
AcDbLine
 10
-554.5627701515535
 20
839.1585100567789
 30
0.0
 11
-465.1352723761552
 21
839.1585100567789
 31
0.0
  0
LINE
  5
1FF
330
1F
100
AcDbEntity
  8
0-8
  6
Continuous
 62
     3
370
     9
100
AcDbLine
 10
-543.8489623496109
 20
745.1588376199726
 30
0.0
 11
-475.8488002176128
 21
745.1588376199726
 31
0.0
  0
LINE
  5
200
330
1F
100
AcDbEntity
  8
0-8
  6
Continuous
 62
     3
370
     9
100
AcDbLine
 10
-543.8489623496109
 20
733.1580514683077
 30
0.0
 11
-475.8488002176128
 21
733.1580514683077
 31
0.0
  0
LINE
  5
201
330
1F
100
AcDbEntity
  8
0-8
  6
JWW_CENTER1
 62
     7
370
     9
100
AcDbLine
 10
-509.8488812836118
 20
749.1992273400496
 30
0.0
 11
-509.8488812836118
 21
729.1173817877456
 31
0.0
  0
LINE
  5
202
330
1F
100
AcDbEntity
  8
0-8
  6
Continuous
 62
     3
370
     9
100
AcDbLine
 10
-543.8489623496109
 20
645.1589120875764
 30
0.0
 11
-475.8488002176128
 21
645.1589120875764
 31
0.0
  0
LINE
  5
203
330
1F
100
AcDbEntity
  8
0-8
  6
Continuous
 62
     3
370
     9
100
AcDbLine
 10
-543.8489623496109
 20
633.1581259359115
 30
0.0
 11
-475.8488002176128
 21
633.1581259359115
 31
0.0
  0
LINE
  5
204
330
1F
100
AcDbEntity
  8
0-8
  6
JWW_CENTER1
 62
     7
370
     9
100
AcDbLine
 10
-509.8488812836118
 20
649.1993018076539
 30
0.0
 11
-509.8488812836118
 21
629.1174562553493
 31
0.0
  0
LINE
  5
205
330
1F
100
AcDbEntity
  8
0-8
  6
JWW_CENTER1
 62
     7
370
     9
100
AcDbLine
 10
-554.5627701515535
 20
639.1585190117439
 30
0.0
 11
-465.1352723761552
 21
639.1585190117439
 31
0.0
  0
LINE
  5
206
330
1F
100
AcDbEntity
  8
0-8
  6
Continuous
 62
     3
370
     9
100
AcDbLine
 10
-543.8489623496109
 20
545.1588465749376
 30
0.0
 11
-475.8488002176128
 21
545.1588465749376
 31
0.0
  0
LINE
  5
207
330
1F
100
AcDbEntity
  8
0-8
  6
Continuous
 62
     3
370
     9
100
AcDbLine
 10
-543.8489623496109
 20
533.1580604232727
 30
0.0
 11
-475.8488002176128
 21
533.1580604232727
 31
0.0
  0
LINE
  5
208
330
1F
100
AcDbEntity
  8
0-8
  6
JWW_CENTER1
 62
     7
370
     9
100
AcDbLine
 10
-509.8488812836118
 20
549.1992362950148
 30
0.0
 11
-509.8488812836118
 21
529.1173907427105
 31
0.0
  0
LINE
  5
209
330
1F
100
AcDbEntity
  8
0-8
  6
JWW_CENTER1
 62
     7
370
     9
100
AcDbLine
 10
-554.5627701515535
 20
539.1584534991051
 30
0.0
 11
-465.1352723761552
 21
539.1584534991051
 31
0.0
  0
LINE
  5
20A
330
1F
100
AcDbEntity
  8
0-8
  6
Continuous
 62
     3
370
     9
100
AcDbLine
 10
-543.8489623496109
 20
445.1588510524203
 30
0.0
 11
-475.8488002176128
 21
445.1588510524203
 31
0.0
  0
LINE
  5
20B
330
1F
100
AcDbEntity
  8
0-8
  6
Continuous
 62
     3
370
     9
100
AcDbLine
 10
-543.8489623496109
 20
433.1580649007552
 30
0.0
 11
-475.8488002176128
 21
433.1580649007552
 31
0.0
  0
LINE
  5
20C
330
1F
100
AcDbEntity
  8
0-8
  6
JWW_CENTER1
 62
     7
370
     9
100
AcDbLine
 10
-509.8488812836118
 20
449.1992407724973
 30
0.0
 11
-509.8488812836118
 21
429.1173952201927
 31
0.0
  0
LINE
  5
20D
330
1F
100
AcDbEntity
  8
0-8
  6
JWW_CENTER1
 62
     7
370
     9
100
AcDbLine
 10
-554.5627701515535
 20
439.1584579765876
 30
0.0
 11
-465.1352723761552
 21
439.1584579765876
 31
0.0
  0
LINE
  5
20E
330
1F
100
AcDbEntity
  8
0-8
  6
JWW_CENTER1
 62
     7
370
     9
100
AcDbLine
 10
-589.8488497055773
 20
1069.728436314999
 30
0.0
 11
-589.8488497055773
 21
1108.588911361753
 31
0.0
  0
LINE
  5
20F
330
1F
100
AcDbEntity
  8
0-8
  6
Continuous
 62
     3
370
     9
100
AcDbLine
 10
-593.848925115809
 20
277.1586234077833
 30
0.0
 11
-593.848925115809
 21
301.1587959086881
 31
0.0
  0
LINE
  5
210
330
1F
100
AcDbEntity
  8
0-8
  6
Continuous
 62
     3
370
     9
100
AcDbLine
 10
-597.8490005260405
 20
277.1586234077833
 30
0.0
 11
-597.8490005260405
 21
301.1587959086881
 31
0.0
  0
LINE
  5
211
330
1F
100
AcDbEntity
  8
0-8
  6
Continuous
 62
     3
370
     9
100
AcDbLine
 10
-589.8488497055773
 20
277.1586234077833
 30
0.0
 11
-589.8488497055773
 21
301.1587959086881
 31
0.0
  0
LINE
  5
212
330
1F
100
AcDbEntity
  8
0-8
  6
Continuous
 62
     3
370
     9
100
AcDbLine
 10
-585.8493342163158
 20
277.1586234077833
 30
0.0
 11
-585.8493342163158
 21
301.1587959086881
 31
0.0
  0
LINE
  5
213
330
1F
100
AcDbEntity
  8
0-8
  6
Continuous
 62
     3
370
     9
100
AcDbLine
 10
-581.849258806084
 20
277.1586234077833
 30
0.0
 11
-581.849258806084
 21
301.1587959086881
 31
0.0
  0
LINE
  5
214
330
1F
100
AcDbEntity
  8
0-8
  6
Continuous
 62
     3
370
     9
100
AcDbLine
 10
-601.8490759362724
 20
293.158645088225
 30
0.0
 11
-577.8491833958525
 21
293.158645088225
 31
0.0
  0
LINE
  5
215
330
1F
100
AcDbEntity
  8
0-8
  6
Continuous
 62
     3
370
     9
100
AcDbLine
 10
-601.8490759362724
 20
297.1587204984567
 30
0.0
 11
-577.8491833958525
 21
297.1587204984567
 31
0.0
  0
LINE
  5
216
330
1F
100
AcDbEntity
  8
0-8
  6
Continuous
 62
     3
370
     9
100
AcDbLine
 10
-601.8490759362724
 20
289.1585696779933
 30
0.0
 11
-577.8491833958525
 21
289.1585696779933
 31
0.0
  0
LINE
  5
217
330
1F
100
AcDbEntity
  8
0-8
  6
Continuous
 62
     3
370
     9
100
AcDbLine
 10
-601.8490759362724
 20
285.1587742282467
 30
0.0
 11
-577.8491833958525
 21
285.1587742282467
 31
0.0
  0
LINE
  5
218
330
1F
100
AcDbEntity
  8
0-8
  6
Continuous
 62
     3
370
     9
100
AcDbLine
 10
-601.8490759362724
 20
281.158698818015
 30
0.0
 11
-577.8491833958525
 21
281.158698818015
 31
0.0
  0
LINE
  5
219
330
1F
100
AcDbEntity
  8
0-8
  6
JWW_CENTER1
 62
     7
370
     9
100
AcDbLine
 10
-609.2792272091971
 20
289.1585696779933
 30
0.0
 11
-570.4190321229278
 21
289.1585696779933
 31
0.0
  0
LINE
  5
21A
330
1F
100
AcDbEntity
  8
0-8
  6
JWW_CENTER1
 62
     7
370
     9
100
AcDbLine
 10
-589.8488497055773
 20
269.7284721348586
 30
0.0
 11
-589.8488497055773
 21
308.5889471816131
 31
0.0
  0
LINE
  5
21B
330
1F
100
AcDbEntity
  8
0-8
  6
Continuous
 62
     3
370
     9
100
AcDbLine
 10
-543.8489623496109
 20
345.1588555299026
 30
0.0
 11
-475.8488002176128
 21
345.1588555299026
 31
0.0
  0
LINE
  5
21C
330
1F
100
AcDbEntity
  8
0-8
  6
Continuous
 62
     3
370
     9
100
AcDbLine
 10
-543.8489623496109
 20
333.1580693782377
 30
0.0
 11
-475.8488002176128
 21
333.1580693782377
 31
0.0
  0
LINE
  5
21D
330
1F
100
AcDbEntity
  8
0-8
  6
JWW_CENTER1
 62
     7
370
     9
100
AcDbLine
 10
-509.8488812836118
 20
349.1992452499801
 30
0.0
 11
-509.8488812836118
 21
329.1173996976755
 31
0.0
  0
LINE
  5
21E
330
1F
100
AcDbEntity
  8
0-8
  6
JWW_CENTER1
 62
     7
370
     9
100
AcDbLine
 10
-554.5627701515535
 20
339.1584624540701
 30
0.0
 11
-465.1352723761552
 21
339.1584624540701
 31
0.0
  0
LINE
  5
21F
330
1F
100
AcDbEntity
  8
0-8
  6
JWW_CENTER1
 62
     7
370
     9
100
AcDbLine
 10
-554.5627701515535
 20
739.1584445441401
 30
0.0
 11
-465.1352723761552
 21
739.1584445441401
 31
0.0
  0
LINE
  5
220
330
1F
100
AcDbEntity
  8
0-8
  6
Continuous
 62
     3
370
     9
100
AcDbLine
 10
-433.8489882718779
 20
1077.158587587924
 30
0.0
 11
-433.8489882718779
 21
1101.158760088828
 31
0.0
  0
LINE
  5
221
330
1F
100
AcDbEntity
  8
0-8
  6
Continuous
 62
     3
370
     9
100
AcDbLine
 10
-437.8490636821097
 20
1077.158587587924
 30
0.0
 11
-437.8490636821097
 21
1101.158760088828
 31
0.0
  0
LINE
  5
222
330
1F
100
AcDbEntity
  8
0-8
  6
Continuous
 62
     3
370
     9
100
AcDbLine
 10
-429.8489128616464
 20
1077.158587587924
 30
0.0
 11
-429.8489128616464
 21
1101.158760088828
 31
0.0
  0
LINE
  5
223
330
1F
100
AcDbEntity
  8
0-8
  6
Continuous
 62
     3
370
     9
100
AcDbLine
 10
-425.8493973723848
 20
1077.158587587924
 30
0.0
 11
-425.8493973723848
 21
1101.158760088828
 31
0.0
  0
LINE
  5
224
330
1F
100
AcDbEntity
  8
0-8
  6
Continuous
 62
     3
370
     9
100
AcDbLine
 10
-421.8493219621531
 20
1077.158587587924
 30
0.0
 11
-421.8493219621531
 21
1101.158760088828
 31
0.0
  0
LINE
  5
225
330
1F
100
AcDbEntity
  8
0-8
  6
Continuous
 62
     3
370
     9
100
AcDbLine
 10
-441.8491390923413
 20
1093.158609268365
 30
0.0
 11
-417.8492465519214
 21
1093.158609268365
 31
0.0
  0
LINE
  5
226
330
1F
100
AcDbEntity
  8
0-8
  6
Continuous
 62
     3
370
     9
100
AcDbLine
 10
-441.8491390923413
 20
1097.158684678597
 30
0.0
 11
-417.8492465519214
 21
1097.158684678597
 31
0.0
  0
LINE
  5
227
330
1F
100
AcDbEntity
  8
0-8
  6
Continuous
 62
     3
370
     9
100
AcDbLine
 10
-441.8491390923413
 20
1089.158533858133
 30
0.0
 11
-417.8492465519214
 21
1089.158533858133
 31
0.0
  0
LINE
  5
228
330
1F
100
AcDbEntity
  8
0-8
  6
Continuous
 62
     3
370
     9
100
AcDbLine
 10
-441.8491390923413
 20
1085.158738408386
 30
0.0
 11
-417.8492465519214
 21
1085.158738408386
 31
0.0
  0
LINE
  5
229
330
1F
100
AcDbEntity
  8
0-8
  6
Continuous
 62
     3
370
     9
100
AcDbLine
 10
-441.8491390923413
 20
1081.158662998155
 30
0.0
 11
-417.8492465519214
 21
1081.158662998155
 31
0.0
  0
LINE
  5
22A
330
1F
100
AcDbEntity
  8
0-8
  6
JWW_CENTER1
 62
     7
370
     9
100
AcDbLine
 10
-449.2792903652661
 20
1089.158533858133
 30
0.0
 11
-410.4190952789968
 21
1089.158533858133
 31
0.0
  0
LINE
  5
22B
330
1F
100
AcDbEntity
  8
0-8
  6
Continuous
 62
     3
370
     9
100
AcDbLine
 10
-383.8489555155587
 20
1045.158824187525
 30
0.0
 11
-315.8488633736818
 21
1045.158824187525
 31
0.0
  0
LINE
  5
22C
330
1F
100
AcDbEntity
  8
0-8
  6
Continuous
 62
     3
370
     9
100
AcDbLine
 10
-383.8489555155587
 20
1033.15803803586
 30
0.0
 11
-315.8488633736818
 21
1033.15803803586
 31
0.0
  0
LINE
  5
22D
330
1F
100
AcDbEntity
  8
0-8
  6
JWW_CENTER1
 62
     7
370
     9
100
AcDbLine
 10
-349.8488744495596
 20
1049.199213907602
 30
0.0
 11
-349.8488744495596
 21
1029.117368355298
 31
0.0
  0
LINE
  5
22E
330
1F
100
AcDbEntity
  8
0-8
  6
JWW_CENTER1
 62
     7
370
     9
100
AcDbLine
 10
-394.5627633175012
 20
1039.158431111692
 30
0.0
 11
-305.1353355322242
 21
1039.158431111692
 31
0.0
  0
LINE
  5
22F
330
1F
100
AcDbEntity
  8
0-8
  6
Continuous
 62
     3
370
     9
100
AcDbLine
 10
-433.8489882718779
 20
977.1585220752848
 30
0.0
 11
-433.8489882718779
 21
1001.158694576189
 31
0.0
  0
LINE
  5
230
330
1F
100
AcDbEntity
  8
0-8
  6
Continuous
 62
     3
370
     9
100
AcDbLine
 10
-437.8490636821097
 20
977.1585220752848
 30
0.0
 11
-437.8490636821097
 21
1001.158694576189
 31
0.0
  0
LINE
  5
231
330
1F
100
AcDbEntity
  8
0-8
  6
Continuous
 62
     3
370
     9
100
AcDbLine
 10
-429.8489128616464
 20
977.1585220752848
 30
0.0
 11
-429.8489128616464
 21
1001.158694576189
 31
0.0
  0
LINE
  5
232
330
1F
100
AcDbEntity
  8
0-8
  6
Continuous
 62
     3
370
     9
100
AcDbLine
 10
-425.8493973723848
 20
977.1585220752848
 30
0.0
 11
-425.8493973723848
 21
1001.158694576189
 31
0.0
  0
LINE
  5
233
330
1F
100
AcDbEntity
  8
0-8
  6
Continuous
 62
     3
370
     9
100
AcDbLine
 10
-421.8493219621531
 20
977.1585220752848
 30
0.0
 11
-421.8493219621531
 21
1001.158694576189
 31
0.0
  0
LINE
  5
234
330
1F
100
AcDbEntity
  8
0-8
  6
Continuous
 62
     3
370
     9
100
AcDbLine
 10
-441.8491390923413
 20
993.158543755726
 30
0.0
 11
-417.8492465519214
 21
993.158543755726
 31
0.0
  0
LINE
  5
235
330
1F
100
AcDbEntity
  8
0-8
  6
Continuous
 62
     3
370
     9
100
AcDbLine
 10
-441.8491390923413
 20
997.1586191659577
 30
0.0
 11
-417.8492465519214
 21
997.1586191659577
 31
0.0
  0
LINE
  5
236
330
1F
100
AcDbEntity
  8
0-8
  6
Continuous
 62
     3
370
     9
100
AcDbLine
 10
-441.8491390923413
 20
989.1584683454943
 30
0.0
 11
-417.8492465519214
 21
989.1584683454943
 31
0.0
  0
LINE
  5
237
330
1F
100
AcDbEntity
  8
0-8
  6
Continuous
 62
     3
370
     9
100
AcDbLine
 10
-441.8491390923413
 20
985.1586728957477
 30
0.0
 11
-417.8492465519214
 21
985.1586728957477
 31
0.0
  0
LINE
  5
238
330
1F
100
AcDbEntity
  8
0-8
  6
Continuous
 62
     3
370
     9
100
AcDbLine
 10
-441.8491390923413
 20
981.158597485516
 30
0.0
 11
-417.8492465519214
 21
981.158597485516
 31
0.0
  0
LINE
  5
239
330
1F
100
AcDbEntity
  8
0-8
  6
JWW_CENTER1
 62
     7
370
     9
100
AcDbLine
 10
-449.2792903652661
 20
989.1584683454943
 30
0.0
 11
-410.4190952789968
 21
989.1584683454943
 31
0.0
  0
LINE
  5
23A
330
1F
100
AcDbEntity
  8
0-8
  6
JWW_CENTER1
 62
     7
370
     9
100
AcDbLine
 10
-429.8489128616464
 20
969.7283708023599
 30
0.0
 11
-429.8489128616464
 21
1008.588845849114
 31
0.0
  0
LINE
  5
23B
330
1F
100
AcDbEntity
  8
0-8
  6
Continuous
 62
     3
370
     9
100
AcDbLine
 10
-433.8489882718779
 20
877.1585965428886
 30
0.0
 11
-433.8489882718779
 21
901.1587690437932
 31
0.0
  0
LINE
  5
23C
330
1F
100
AcDbEntity
  8
0-8
  6
Continuous
 62
     3
370
     9
100
AcDbLine
 10
-437.8490636821097
 20
877.1585965428886
 30
0.0
 11
-437.8490636821097
 21
901.1587690437932
 31
0.0
  0
LINE
  5
23D
330
1F
100
AcDbEntity
  8
0-8
  6
Continuous
 62
     3
370
     9
100
AcDbLine
 10
-429.8489128616464
 20
877.1585965428886
 30
0.0
 11
-429.8489128616464
 21
901.1587690437932
 31
0.0
  0
LINE
  5
23E
330
1F
100
AcDbEntity
  8
0-8
  6
Continuous
 62
     3
370
     9
100
AcDbLine
 10
-425.8493973723848
 20
877.1585965428886
 30
0.0
 11
-425.8493973723848
 21
901.1587690437932
 31
0.0
  0
LINE
  5
23F
330
1F
100
AcDbEntity
  8
0-8
  6
Continuous
 62
     3
370
     9
100
AcDbLine
 10
-421.8493219621531
 20
877.1585965428886
 30
0.0
 11
-421.8493219621531
 21
901.1587690437932
 31
0.0
  0
LINE
  5
240
330
1F
100
AcDbEntity
  8
0-8
  6
Continuous
 62
     3
370
     9
100
AcDbLine
 10
-441.8491390923413
 20
893.1586182233298
 30
0.0
 11
-417.8492465519214
 21
893.1586182233298
 31
0.0
  0
LINE
  5
241
330
1F
100
AcDbEntity
  8
0-8
  6
Continuous
 62
     3
370
     9
100
AcDbLine
 10
-441.8491390923413
 20
897.1586936335615
 30
0.0
 11
-417.8492465519214
 21
897.1586936335615
 31
0.0
  0
LINE
  5
242
330
1F
100
AcDbEntity
  8
0-8
  6
Continuous
 62
     3
370
     9
100
AcDbLine
 10
-441.8491390923413
 20
889.158542813098
 30
0.0
 11
-417.8492465519214
 21
889.158542813098
 31
0.0
  0
LINE
  5
243
330
1F
100
AcDbEntity
  8
0-8
  6
Continuous
 62
     3
370
     9
100
AcDbLine
 10
-441.8491390923413
 20
885.1587473633515
 30
0.0
 11
-417.8492465519214
 21
885.1587473633515
 31
0.0
  0
LINE
  5
244
330
1F
100
AcDbEntity
  8
0-8
  6
Continuous
 62
     3
370
     9
100
AcDbLine
 10
-441.8491390923413
 20
881.1586719531198
 30
0.0
 11
-417.8492465519214
 21
881.1586719531198
 31
0.0
  0
LINE
  5
245
330
1F
100
AcDbEntity
  8
0-8
  6
JWW_CENTER1
 62
     7
370
     9
100
AcDbLine
 10
-449.2792903652661
 20
889.158542813098
 30
0.0
 11
-410.4190952789968
 21
889.158542813098
 31
0.0
  0
LINE
  5
246
330
1F
100
AcDbEntity
  8
0-8
  6
JWW_CENTER1
 62
     7
370
     9
100
AcDbLine
 10
-429.8489128616464
 20
869.7284452699637
 30
0.0
 11
-429.8489128616464
 21
908.5889203167181
 31
0.0
  0
LINE
  5
247
330
1F
100
AcDbEntity
  8
0-8
  6
Continuous
 62
     3
370
     9
100
AcDbLine
 10
-433.8489882718779
 20
777.1586010203708
 30
0.0
 11
-433.8489882718779
 21
801.158773521276
 31
0.0
  0
LINE
  5
248
330
1F
100
AcDbEntity
  8
0-8
  6
Continuous
 62
     3
370
     9
100
AcDbLine
 10
-437.8490636821097
 20
777.1586010203708
 30
0.0
 11
-437.8490636821097
 21
801.158773521276
 31
0.0
  0
LINE
  5
249
330
1F
100
AcDbEntity
  8
0-8
  6
Continuous
 62
     3
370
     9
100
AcDbLine
 10
-429.8489128616464
 20
777.1586010203708
 30
0.0
 11
-429.8489128616464
 21
801.158773521276
 31
0.0
  0
LINE
  5
24A
330
1F
100
AcDbEntity
  8
0-8
  6
Continuous
 62
     3
370
     9
100
AcDbLine
 10
-425.8493973723848
 20
777.1586010203708
 30
0.0
 11
-425.8493973723848
 21
801.158773521276
 31
0.0
  0
LINE
  5
24B
330
1F
100
AcDbEntity
  8
0-8
  6
Continuous
 62
     3
370
     9
100
AcDbLine
 10
-421.8493219621531
 20
777.1586010203708
 30
0.0
 11
-421.8493219621531
 21
801.158773521276
 31
0.0
  0
LINE
  5
24C
330
1F
100
AcDbEntity
  8
0-8
  6
Continuous
 62
     3
370
     9
100
AcDbLine
 10
-441.8491390923413
 20
793.1586227008125
 30
0.0
 11
-417.8492465519214
 21
793.1586227008125
 31
0.0
  0
LINE
  5
24D
330
1F
100
AcDbEntity
  8
0-8
  6
Continuous
 62
     3
370
     9
100
AcDbLine
 10
-441.8491390923413
 20
797.1586981110443
 30
0.0
 11
-417.8492465519214
 21
797.1586981110443
 31
0.0
  0
LINE
  5
24E
330
1F
100
AcDbEntity
  8
0-8
  6
Continuous
 62
     3
370
     9
100
AcDbLine
 10
-441.8491390923413
 20
789.1585472905808
 30
0.0
 11
-417.8492465519214
 21
789.1585472905808
 31
0.0
  0
LINE
  5
24F
330
1F
100
AcDbEntity
  8
0-8
  6
Continuous
 62
     3
370
     9
100
AcDbLine
 10
-441.8491390923413
 20
785.1587518408343
 30
0.0
 11
-417.8492465519214
 21
785.1587518408343
 31
0.0
  0
LINE
  5
250
330
1F
100
AcDbEntity
  8
0-8
  6
Continuous
 62
     3
370
     9
100
AcDbLine
 10
-441.8491390923413
 20
781.1586764306026
 30
0.0
 11
-417.8492465519214
 21
781.1586764306026
 31
0.0
  0
LINE
  5
251
330
1F
100
AcDbEntity
  8
0-8
  6
JWW_CENTER1
 62
     7
370
     9
100
AcDbLine
 10
-449.2792903652661
 20
789.1585472905808
 30
0.0
 11
-410.4190952789968
 21
789.1585472905808
 31
0.0
  0
LINE
  5
252
330
1F
100
AcDbEntity
  8
0-8
  6
JWW_CENTER1
 62
     7
370
     9
100
AcDbLine
 10
-429.8489128616464
 20
769.7284497474459
 30
0.0
 11
-429.8489128616464
 21
808.5889247942004
 31
0.0
  0
LINE
  5
253
330
1F
100
AcDbEntity
  8
0-8
  6
Continuous
 62
     3
370
     9
100
AcDbLine
 10
-433.8489882718779
 20
677.1586754879746
 30
0.0
 11
-433.8489882718779
 21
701.1588479888798
 31
0.0
  0
LINE
  5
254
330
1F
100
AcDbEntity
  8
0-8
  6
Continuous
 62
     3
370
     9
100
AcDbLine
 10
-437.8490636821097
 20
677.1586754879746
 30
0.0
 11
-437.8490636821097
 21
701.1588479888798
 31
0.0
  0
LINE
  5
255
330
1F
100
AcDbEntity
  8
0-8
  6
Continuous
 62
     3
370
     9
100
AcDbLine
 10
-429.8489128616464
 20
677.1586754879746
 30
0.0
 11
-429.8489128616464
 21
701.1588479888798
 31
0.0
  0
LINE
  5
256
330
1F
100
AcDbEntity
  8
0-8
  6
Continuous
 62
     3
370
     9
100
AcDbLine
 10
-425.8493973723848
 20
677.1586754879746
 30
0.0
 11
-425.8493973723848
 21
701.1588479888798
 31
0.0
  0
LINE
  5
257
330
1F
100
AcDbEntity
  8
0-8
  6
Continuous
 62
     3
370
     9
100
AcDbLine
 10
-421.8493219621531
 20
677.1586754879746
 30
0.0
 11
-421.8493219621531
 21
701.1588479888798
 31
0.0
  0
LINE
  5
258
330
1F
100
AcDbEntity
  8
0-8
  6
Continuous
 62
     3
370
     9
100
AcDbLine
 10
-441.8491390923413
 20
693.1586971684163
 30
0.0
 11
-417.8492465519214
 21
693.1586971684163
 31
0.0
  0
LINE
  5
259
330
1F
100
AcDbEntity
  8
0-8
  6
Continuous
 62
     3
370
     9
100
AcDbLine
 10
-441.8491390923413
 20
697.158772578648
 30
0.0
 11
-417.8492465519214
 21
697.158772578648
 31
0.0
  0
LINE
  5
25A
330
1F
100
AcDbEntity
  8
0-8
  6
Continuous
 62
     3
370
     9
100
AcDbLine
 10
-441.8491390923413
 20
689.1586217581846
 30
0.0
 11
-417.8492465519214
 21
689.1586217581846
 31
0.0
  0
LINE
  5
25B
330
1F
100
AcDbEntity
  8
0-8
  6
Continuous
 62
     3
370
     9
100
AcDbLine
 10
-441.8491390923413
 20
685.158826308438
 30
0.0
 11
-417.8492465519214
 21
685.158826308438
 31
0.0
  0
LINE
  5
25C
330
1F
100
AcDbEntity
  8
0-8
  6
Continuous
 62
     3
370
     9
100
AcDbLine
 10
-441.8491390923413
 20
681.1587508982063
 30
0.0
 11
-417.8492465519214
 21
681.1587508982063
 31
0.0
  0
LINE
  5
25D
330
1F
100
AcDbEntity
  8
0-8
  6
JWW_CENTER1
 62
     7
370
     9
100
AcDbLine
 10
-429.8489128616464
 20
669.7285242150497
 30
0.0
 11
-429.8489128616464
 21
708.5889992618041
 31
0.0
  0
LINE
  5
25E
330
1F
100
AcDbEntity
  8
0-8
  6
Continuous
 62
     3
370
     9
100
AcDbLine
 10
-433.8489882718779
 20
577.1586099753358
 30
0.0
 11
-433.8489882718779
 21
601.158782476241
 31
0.0
  0
LINE
  5
25F
330
1F
100
AcDbEntity
  8
0-8
  6
Continuous
 62
     3
370
     9
100
AcDbLine
 10
-437.8490636821097
 20
577.1586099753358
 30
0.0
 11
-437.8490636821097
 21
601.158782476241
 31
0.0
  0
LINE
  5
260
330
1F
100
AcDbEntity
  8
0-8
  6
Continuous
 62
     3
370
     9
100
AcDbLine
 10
-429.8489128616464
 20
577.1586099753358
 30
0.0
 11
-429.8489128616464
 21
601.158782476241
 31
0.0
  0
LINE
  5
261
330
1F
100
AcDbEntity
  8
0-8
  6
Continuous
 62
     3
370
     9
100
AcDbLine
 10
-425.8493973723848
 20
577.1586099753358
 30
0.0
 11
-425.8493973723848
 21
601.158782476241
 31
0.0
  0
LINE
  5
262
330
1F
100
AcDbEntity
  8
0-8
  6
Continuous
 62
     3
370
     9
100
AcDbLine
 10
-421.8493219621531
 20
577.1586099753358
 30
0.0
 11
-421.8493219621531
 21
601.158782476241
 31
0.0
  0
LINE
  5
263
330
1F
100
AcDbEntity
  8
0-8
  6
Continuous
 62
     3
370
     9
100
AcDbLine
 10
-441.8491390923413
 20
593.1586316557775
 30
0.0
 11
-417.8492465519214
 21
593.1586316557775
 31
0.0
  0
LINE
  5
264
330
1F
100
AcDbEntity
  8
0-8
  6
Continuous
 62
     3
370
     9
100
AcDbLine
 10
-441.8491390923413
 20
597.1587070660092
 30
0.0
 11
-417.8492465519214
 21
597.1587070660092
 31
0.0
  0
LINE
  5
265
330
1F
100
AcDbEntity
  8
0-8
  6
Continuous
 62
     3
370
     9
100
AcDbLine
 10
-441.8491390923413
 20
589.1585562455458
 30
0.0
 11
-417.8492465519214
 21
589.1585562455458
 31
0.0
  0
LINE
  5
266
330
1F
100
AcDbEntity
  8
0-8
  6
Continuous
 62
     3
370
     9
100
AcDbLine
 10
-441.8491390923413
 20
585.1587607957993
 30
0.0
 11
-417.8492465519214
 21
585.1587607957993
 31
0.0
  0
LINE
  5
267
330
1F
100
AcDbEntity
  8
0-8
  6
Continuous
 62
     3
370
     9
100
AcDbLine
 10
-441.8491390923413
 20
581.1586853855675
 30
0.0
 11
-417.8492465519214
 21
581.1586853855675
 31
0.0
  0
LINE
  5
268
330
1F
100
AcDbEntity
  8
0-8
  6
JWW_CENTER1
 62
     7
370
     9
100
AcDbLine
 10
-449.2792903652661
 20
589.1585562455458
 30
0.0
 11
-410.4190952789968
 21
589.1585562455458
 31
0.0
  0
LINE
  5
269
330
1F
100
AcDbEntity
  8
0-8
  6
JWW_CENTER1
 62
     7
370
     9
100
AcDbLine
 10
-429.8489128616464
 20
569.7284587024112
 30
0.0
 11
-429.8489128616464
 21
608.5889337491653
 31
0.0
  0
LINE
  5
26A
330
1F
100
AcDbEntity
  8
0-8
  6
Continuous
 62
     3
370
     9
100
AcDbLine
 10
-433.8489882718779
 20
477.1586144528183
 30
0.0
 11
-433.8489882718779
 21
501.1587869537232
 31
0.0
  0
LINE
  5
26B
330
1F
100
AcDbEntity
  8
0-8
  6
Continuous
 62
     3
370
     9
100
AcDbLine
 10
-437.8490636821097
 20
477.1586144528183
 30
0.0
 11
-437.8490636821097
 21
501.1587869537232
 31
0.0
  0
LINE
  5
26C
330
1F
100
AcDbEntity
  8
0-8
  6
Continuous
 62
     3
370
     9
100
AcDbLine
 10
-429.8489128616464
 20
477.1586144528183
 30
0.0
 11
-429.8489128616464
 21
501.1587869537232
 31
0.0
  0
LINE
  5
26D
330
1F
100
AcDbEntity
  8
0-8
  6
Continuous
 62
     3
370
     9
100
AcDbLine
 10
-425.8493973723848
 20
477.1586144528183
 30
0.0
 11
-425.8493973723848
 21
501.1587869537232
 31
0.0
  0
LINE
  5
26E
330
1F
100
AcDbEntity
  8
0-8
  6
Continuous
 62
     3
370
     9
100
AcDbLine
 10
-421.8493219621531
 20
477.1586144528183
 30
0.0
 11
-421.8493219621531
 21
501.1587869537232
 31
0.0
  0
LINE
  5
26F
330
1F
100
AcDbEntity
  8
0-8
  6
Continuous
 62
     3
370
     9
100
AcDbLine
 10
-441.8491390923413
 20
493.15863613326
 30
0.0
 11
-417.8492465519214
 21
493.15863613326
 31
0.0
  0
LINE
  5
270
330
1F
100
AcDbEntity
  8
0-8
  6
Continuous
 62
     3
370
     9
100
AcDbLine
 10
-441.8491390923413
 20
497.1587115434917
 30
0.0
 11
-417.8492465519214
 21
497.1587115434917
 31
0.0
  0
LINE
  5
271
330
1F
100
AcDbEntity
  8
0-8
  6
Continuous
 62
     3
370
     9
100
AcDbLine
 10
-441.8491390923413
 20
489.1585607230283
 30
0.0
 11
-417.8492465519214
 21
489.1585607230283
 31
0.0
  0
LINE
  5
272
330
1F
100
AcDbEntity
  8
0-8
  6
Continuous
 62
     3
370
     9
100
AcDbLine
 10
-441.8491390923413
 20
485.1587652732817
 30
0.0
 11
-417.8492465519214
 21
485.1587652732817
 31
0.0
  0
LINE
  5
273
330
1F
100
AcDbEntity
  8
0-8
  6
Continuous
 62
     3
370
     9
100
AcDbLine
 10
-441.8491390923413
 20
481.15868986305
 30
0.0
 11
-417.8492465519214
 21
481.15868986305
 31
0.0
  0
LINE
  5
274
330
1F
100
AcDbEntity
  8
0-8
  6
JWW_CENTER1
 62
     7
370
     9
100
AcDbLine
 10
-449.2792903652661
 20
489.1585607230283
 30
0.0
 11
-410.4190952789968
 21
489.1585607230283
 31
0.0
  0
LINE
  5
275
330
1F
100
AcDbEntity
  8
0-8
  6
JWW_CENTER1
 62
     7
370
     9
100
AcDbLine
 10
-429.8489128616464
 20
469.7284631798937
 30
0.0
 11
-429.8489128616464
 21
508.5889382266481
 31
0.0
  0
LINE
  5
276
330
1F
100
AcDbEntity
  8
0-8
  6
Continuous
 62
     3
370
     9
100
AcDbLine
 10
-433.8489882718779
 20
377.1586189303008
 30
0.0
 11
-433.8489882718779
 21
401.1587914312059
 31
0.0
  0
LINE
  5
277
330
1F
100
AcDbEntity
  8
0-8
  6
Continuous
 62
     3
370
     9
100
AcDbLine
 10
-437.8490636821097
 20
377.1586189303008
 30
0.0
 11
-437.8490636821097
 21
401.1587914312059
 31
0.0
  0
LINE
  5
278
330
1F
100
AcDbEntity
  8
0-8
  6
Continuous
 62
     3
370
     9
100
AcDbLine
 10
-429.8489128616464
 20
377.1586189303008
 30
0.0
 11
-429.8489128616464
 21
401.1587914312059
 31
0.0
  0
LINE
  5
279
330
1F
100
AcDbEntity
  8
0-8
  6
Continuous
 62
     3
370
     9
100
AcDbLine
 10
-425.8493973723848
 20
377.1586189303008
 30
0.0
 11
-425.8493973723848
 21
401.1587914312059
 31
0.0
  0
LINE
  5
27A
330
1F
100
AcDbEntity
  8
0-8
  6
Continuous
 62
     3
370
     9
100
AcDbLine
 10
-421.8493219621531
 20
377.1586189303008
 30
0.0
 11
-421.8493219621531
 21
401.1587914312059
 31
0.0
  0
LINE
  5
27B
330
1F
100
AcDbEntity
  8
0-8
  6
Continuous
 62
     3
370
     9
100
AcDbLine
 10
-441.8491390923413
 20
393.1586406107425
 30
0.0
 11
-417.8492465519214
 21
393.1586406107425
 31
0.0
  0
LINE
  5
27C
330
1F
100
AcDbEntity
  8
0-8
  6
Continuous
 62
     3
370
     9
100
AcDbLine
 10
-441.8491390923413
 20
397.1587160209742
 30
0.0
 11
-417.8492465519214
 21
397.1587160209742
 31
0.0
  0
LINE
  5
27D
330
1F
100
AcDbEntity
  8
0-8
  6
Continuous
 62
     3
370
     9
100
AcDbLine
 10
-441.8491390923413
 20
389.1585652005108
 30
0.0
 11
-417.8492465519214
 21
389.1585652005108
 31
0.0
  0
LINE
  5
27E
330
1F
100
AcDbEntity
  8
0-8
  6
Continuous
 62
     3
370
     9
100
AcDbLine
 10
-441.8491390923413
 20
385.1587697507642
 30
0.0
 11
-417.8492465519214
 21
385.1587697507642
 31
0.0
  0
LINE
  5
27F
330
1F
100
AcDbEntity
  8
0-8
  6
Continuous
 62
     3
370
     9
100
AcDbLine
 10
-441.8491390923413
 20
381.1586943405325
 30
0.0
 11
-417.8492465519214
 21
381.1586943405325
 31
0.0
  0
LINE
  5
280
330
1F
100
AcDbEntity
  8
0-8
  6
JWW_CENTER1
 62
     7
370
     9
100
AcDbLine
 10
-449.2792903652661
 20
389.1585652005108
 30
0.0
 11
-410.4190952789968
 21
389.1585652005108
 31
0.0
  0
LINE
  5
281
330
1F
100
AcDbEntity
  8
0-8
  6
JWW_CENTER1
 62
     7
370
     9
100
AcDbLine
 10
-429.8489128616464
 20
369.7284676573761
 30
0.0
 11
-429.8489128616464
 21
408.5889427041306
 31
0.0
  0
LINE
  5
282
330
1F
100
AcDbEntity
  8
0-8
  6
Continuous
 62
     3
370
     9
100
AcDbLine
 10
-383.8489555155587
 20
945.1587586748866
 30
0.0
 11
-315.8488633736818
 21
945.1587586748866
 31
0.0
  0
LINE
  5
283
330
1F
100
AcDbEntity
  8
0-8
  6
Continuous
 62
     3
370
     9
100
AcDbLine
 10
-383.8489555155587
 20
933.1579725232211
 30
0.0
 11
-315.8488633736818
 21
933.1579725232211
 31
0.0
  0
LINE
  5
284
330
1F
100
AcDbEntity
  8
0-8
  6
JWW_CENTER1
 62
     7
370
     9
100
AcDbLine
 10
-349.8488744495596
 20
949.1991483949636
 30
0.0
 11
-349.8488744495596
 21
929.117302842659
 31
0.0
  0
LINE
  5
285
330
1F
100
AcDbEntity
  8
0-8
  6
JWW_CENTER1
 62
     7
370
     9
100
AcDbLine
 10
-394.5627633175012
 20
939.1583655990536
 30
0.0
 11
-305.1353355322242
 21
939.1583655990536
 31
0.0
  0
LINE
  5
286
330
1F
100
AcDbEntity
  8
0-8
  6
Continuous
 62
     3
370
     9
100
AcDbLine
 10
-383.8489555155587
 20
845.1588331424904
 30
0.0
 11
-315.8488633736818
 21
845.1588331424904
 31
0.0
  0
LINE
  5
287
330
1F
100
AcDbEntity
  8
0-8
  6
Continuous
 62
     3
370
     9
100
AcDbLine
 10
-383.8489555155587
 20
833.1581169809465
 30
0.0
 11
-315.8488633736818
 21
833.1581169809465
 31
0.0
  0
LINE
  5
288
330
1F
100
AcDbEntity
  8
0-8
  6
JWW_CENTER1
 62
     7
370
     9
100
AcDbLine
 10
-349.8488744495596
 20
849.1992228625674
 30
0.0
 11
-349.8488744495596
 21
829.1174473003838
 31
0.0
  0
LINE
  5
289
330
1F
100
AcDbEntity
  8
0-8
  6
JWW_CENTER1
 62
     7
370
     9
100
AcDbLine
 10
-394.5627633175012
 20
839.1585100567789
 30
0.0
 11
-305.1353355322242
 21
839.1585100567789
 31
0.0
  0
LINE
  5
28A
330
1F
100
AcDbEntity
  8
0-8
  6
Continuous
 62
     3
370
     9
100
AcDbLine
 10
-383.8489555155587
 20
745.1588376199726
 30
0.0
 11
-315.8488633736818
 21
745.1588376199726
 31
0.0
  0
LINE
  5
28B
330
1F
100
AcDbEntity
  8
0-8
  6
Continuous
 62
     3
370
     9
100
AcDbLine
 10
-383.8489555155587
 20
733.1580514683077
 30
0.0
 11
-315.8488633736818
 21
733.1580514683077
 31
0.0
  0
LINE
  5
28C
330
1F
100
AcDbEntity
  8
0-8
  6
JWW_CENTER1
 62
     7
370
     9
100
AcDbLine
 10
-349.8488744495596
 20
749.1992273400496
 30
0.0
 11
-349.8488744495596
 21
729.1173817877456
 31
0.0
  0
LINE
  5
28D
330
1F
100
AcDbEntity
  8
0-8
  6
Continuous
 62
     3
370
     9
100
AcDbLine
 10
-383.8489555155587
 20
645.1589120875764
 30
0.0
 11
-315.8488633736818
 21
645.1589120875764
 31
0.0
  0
LINE
  5
28E
330
1F
100
AcDbEntity
  8
0-8
  6
Continuous
 62
     3
370
     9
100
AcDbLine
 10
-383.8489555155587
 20
633.1581259359115
 30
0.0
 11
-315.8488633736818
 21
633.1581259359115
 31
0.0
  0
LINE
  5
28F
330
1F
100
AcDbEntity
  8
0-8
  6
JWW_CENTER1
 62
     7
370
     9
100
AcDbLine
 10
-349.8488744495596
 20
649.1993018076539
 30
0.0
 11
-349.8488744495596
 21
629.1174562553493
 31
0.0
  0
LINE
  5
290
330
1F
100
AcDbEntity
  8
0-8
  6
JWW_CENTER1
 62
     7
370
     9
100
AcDbLine
 10
-394.5627633175012
 20
639.1585190117439
 30
0.0
 11
-305.1353355322242
 21
639.1585190117439
 31
0.0
  0
LINE
  5
291
330
1F
100
AcDbEntity
  8
0-8
  6
Continuous
 62
     3
370
     9
100
AcDbLine
 10
-383.8489555155587
 20
545.1588465749376
 30
0.0
 11
-315.8488633736818
 21
545.1588465749376
 31
0.0
  0
LINE
  5
292
330
1F
100
AcDbEntity
  8
0-8
  6
Continuous
 62
     3
370
     9
100
AcDbLine
 10
-383.8489555155587
 20
533.1580604232727
 30
0.0
 11
-315.8488633736818
 21
533.1580604232727
 31
0.0
  0
LINE
  5
293
330
1F
100
AcDbEntity
  8
0-8
  6
JWW_CENTER1
 62
     7
370
     9
100
AcDbLine
 10
-349.8488744495596
 20
549.1992362950148
 30
0.0
 11
-349.8488744495596
 21
529.1173907427105
 31
0.0
  0
LINE
  5
294
330
1F
100
AcDbEntity
  8
0-8
  6
JWW_CENTER1
 62
     7
370
     9
100
AcDbLine
 10
-394.5627633175012
 20
539.1584534991051
 30
0.0
 11
-305.1353355322242
 21
539.1584534991051
 31
0.0
  0
LINE
  5
295
330
1F
100
AcDbEntity
  8
0-8
  6
Continuous
 62
     3
370
     9
100
AcDbLine
 10
-383.8489555155587
 20
445.1588510524203
 30
0.0
 11
-315.8488633736818
 21
445.1588510524203
 31
0.0
  0
LINE
  5
296
330
1F
100
AcDbEntity
  8
0-8
  6
Continuous
 62
     3
370
     9
100
AcDbLine
 10
-383.8489555155587
 20
433.1580649007552
 30
0.0
 11
-315.8488633736818
 21
433.1580649007552
 31
0.0
  0
LINE
  5
297
330
1F
100
AcDbEntity
  8
0-8
  6
JWW_CENTER1
 62
     7
370
     9
100
AcDbLine
 10
-349.8488744495596
 20
449.1992407724973
 30
0.0
 11
-349.8488744495596
 21
429.1173952201927
 31
0.0
  0
LINE
  5
298
330
1F
100
AcDbEntity
  8
0-8
  6
JWW_CENTER1
 62
     7
370
     9
100
AcDbLine
 10
-394.5627633175012
 20
439.1584579765876
 30
0.0
 11
-305.1353355322242
 21
439.1584579765876
 31
0.0
  0
LINE
  5
299
330
1F
100
AcDbEntity
  8
0-8
  6
JWW_CENTER1
 62
     7
370
     9
100
AcDbLine
 10
-429.8489128616464
 20
1069.728436314999
 30
0.0
 11
-429.8489128616464
 21
1108.588911361753
 31
0.0
  0
LINE
  5
29A
330
1F
100
AcDbEntity
  8
0-8
  6
Continuous
 62
     3
370
     9
100
AcDbLine
 10
-433.8489882718779
 20
277.1586234077833
 30
0.0
 11
-433.8489882718779
 21
301.1587959086881
 31
0.0
  0
LINE
  5
29B
330
1F
100
AcDbEntity
  8
0-8
  6
Continuous
 62
     3
370
     9
100
AcDbLine
 10
-437.8490636821097
 20
277.1586234077833
 30
0.0
 11
-437.8490636821097
 21
301.1587959086881
 31
0.0
  0
LINE
  5
29C
330
1F
100
AcDbEntity
  8
0-8
  6
Continuous
 62
     3
370
     9
100
AcDbLine
 10
-429.8489128616464
 20
277.1586234077833
 30
0.0
 11
-429.8489128616464
 21
301.1587959086881
 31
0.0
  0
LINE
  5
29D
330
1F
100
AcDbEntity
  8
0-8
  6
Continuous
 62
     3
370
     9
100
AcDbLine
 10
-425.8493973723848
 20
277.1586234077833
 30
0.0
 11
-425.8493973723848
 21
301.1587959086881
 31
0.0
  0
LINE
  5
29E
330
1F
100
AcDbEntity
  8
0-8
  6
Continuous
 62
     3
370
     9
100
AcDbLine
 10
-421.8493219621531
 20
277.1586234077833
 30
0.0
 11
-421.8493219621531
 21
301.1587959086881
 31
0.0
  0
LINE
  5
29F
330
1F
100
AcDbEntity
  8
0-8
  6
Continuous
 62
     3
370
     9
100
AcDbLine
 10
-441.8491390923413
 20
293.158645088225
 30
0.0
 11
-417.8492465519214
 21
293.158645088225
 31
0.0
  0
LINE
  5
2A0
330
1F
100
AcDbEntity
  8
0-8
  6
Continuous
 62
     3
370
     9
100
AcDbLine
 10
-441.8491390923413
 20
297.1587204984567
 30
0.0
 11
-417.8492465519214
 21
297.1587204984567
 31
0.0
  0
LINE
  5
2A1
330
1F
100
AcDbEntity
  8
0-8
  6
Continuous
 62
     3
370
     9
100
AcDbLine
 10
-441.8491390923413
 20
289.1585696779933
 30
0.0
 11
-417.8492465519214
 21
289.1585696779933
 31
0.0
  0
LINE
  5
2A2
330
1F
100
AcDbEntity
  8
0-8
  6
Continuous
 62
     3
370
     9
100
AcDbLine
 10
-441.8491390923413
 20
285.1587742282467
 30
0.0
 11
-417.8492465519214
 21
285.1587742282467
 31
0.0
  0
LINE
  5
2A3
330
1F
100
AcDbEntity
  8
0-8
  6
Continuous
 62
     3
370
     9
100
AcDbLine
 10
-441.8491390923413
 20
281.158698818015
 30
0.0
 11
-417.8492465519214
 21
281.158698818015
 31
0.0
  0
LINE
  5
2A4
330
1F
100
AcDbEntity
  8
0-8
  6
JWW_CENTER1
 62
     7
370
     9
100
AcDbLine
 10
-449.2792903652661
 20
289.1585696779933
 30
0.0
 11
-410.4190952789968
 21
289.1585696779933
 31
0.0
  0
LINE
  5
2A5
330
1F
100
AcDbEntity
  8
0-8
  6
JWW_CENTER1
 62
     7
370
     9
100
AcDbLine
 10
-429.8489128616464
 20
269.7284721348586
 30
0.0
 11
-429.8489128616464
 21
308.5889471816131
 31
0.0
  0
LINE
  5
2A6
330
1F
100
AcDbEntity
  8
0-8
  6
Continuous
 62
     3
370
     9
100
AcDbLine
 10
-383.8489555155587
 20
345.1588555299026
 30
0.0
 11
-315.8488633736818
 21
345.1588555299026
 31
0.0
  0
LINE
  5
2A7
330
1F
100
AcDbEntity
  8
0-8
  6
Continuous
 62
     3
370
     9
100
AcDbLine
 10
-383.8489555155587
 20
333.1580693782377
 30
0.0
 11
-315.8488633736818
 21
333.1580693782377
 31
0.0
  0
LINE
  5
2A8
330
1F
100
AcDbEntity
  8
0-8
  6
JWW_CENTER1
 62
     7
370
     9
100
AcDbLine
 10
-349.8488744495596
 20
349.1992452499801
 30
0.0
 11
-349.8488744495596
 21
329.1173996976755
 31
0.0
  0
LINE
  5
2A9
330
1F
100
AcDbEntity
  8
0-8
  6
JWW_CENTER1
 62
     7
370
     9
100
AcDbLine
 10
-394.5627633175012
 20
339.1584624540701
 30
0.0
 11
-305.1353355322242
 21
339.1584624540701
 31
0.0
  0
LINE
  5
2AA
330
1F
100
AcDbEntity
  8
0-8
  6
JWW_CENTER1
 62
     7
370
     9
100
AcDbLine
 10
-394.5627633175012
 20
739.1584445441401
 30
0.0
 11
-305.1353355322242
 21
739.1584445441401
 31
0.0
  0
LINE
  5
2AB
330
1F
100
AcDbEntity
  8
0-8
  6
Continuous
 62
     3
370
     9
100
AcDbLine
 10
-273.8489114477044
 20
1077.158587587924
 30
0.0
 11
-273.8489114477044
 21
1101.158760088828
 31
0.0
  0
LINE
  5
2AC
330
1F
100
AcDbEntity
  8
0-8
  6
Continuous
 62
     3
370
     9
100
AcDbLine
 10
-277.8489868579363
 20
1077.158587587924
 30
0.0
 11
-277.8489868579363
 21
1101.158760088828
 31
0.0
  0
LINE
  5
2AD
330
1F
100
AcDbEntity
  8
0-8
  6
Continuous
 62
     3
370
     9
100
AcDbLine
 10
-269.8488360374728
 20
1077.158587587924
 30
0.0
 11
-269.8488360374728
 21
1101.158760088828
 31
0.0
  0
LINE
  5
2AE
330
1F
100
AcDbEntity
  8
0-8
  6
Continuous
 62
     3
370
     9
100
AcDbLine
 10
-265.8493205482113
 20
1077.158587587924
 30
0.0
 11
-265.8493205482113
 21
1101.158760088828
 31
0.0
  0
LINE
  5
2AF
330
1F
100
AcDbEntity
  8
0-8
  6
Continuous
 62
     3
370
     9
100
AcDbLine
 10
-261.8492451379795
 20
1077.158587587924
 30
0.0
 11
-261.8492451379795
 21
1101.158760088828
 31
0.0
  0
LINE
  5
2B0
330
1F
100
AcDbEntity
  8
0-8
  6
Continuous
 62
     3
370
     9
100
AcDbLine
 10
-281.8490622681679
 20
1093.158609268365
 30
0.0
 11
-257.8491697277479
 21
1093.158609268365
 31
0.0
  0
LINE
  5
2B1
330
1F
100
AcDbEntity
  8
0-8
  6
Continuous
 62
     3
370
     9
100
AcDbLine
 10
-281.8490622681679
 20
1097.158684678597
 30
0.0
 11
-257.8491697277479
 21
1097.158684678597
 31
0.0
  0
LINE
  5
2B2
330
1F
100
AcDbEntity
  8
0-8
  6
Continuous
 62
     3
370
     9
100
AcDbLine
 10
-281.8490622681679
 20
1089.158533858133
 30
0.0
 11
-257.8491697277479
 21
1089.158533858133
 31
0.0
  0
LINE
  5
2B3
330
1F
100
AcDbEntity
  8
0-8
  6
Continuous
 62
     3
370
     9
100
AcDbLine
 10
-281.8490622681679
 20
1085.158738408386
 30
0.0
 11
-257.8491697277479
 21
1085.158738408386
 31
0.0
  0
LINE
  5
2B4
330
1F
100
AcDbEntity
  8
0-8
  6
Continuous
 62
     3
370
     9
100
AcDbLine
 10
-281.8490622681679
 20
1081.158662998155
 30
0.0
 11
-257.8491697277479
 21
1081.158662998155
 31
0.0
  0
LINE
  5
2B5
330
1F
100
AcDbEntity
  8
0-8
  6
JWW_CENTER1
 62
     7
370
     9
100
AcDbLine
 10
-289.2792135410924
 20
1089.158533858133
 30
0.0
 11
-250.4190184548233
 21
1089.158533858133
 31
0.0
  0
LINE
  5
2B6
330
1F
100
AcDbEntity
  8
0-8
  6
Continuous
 62
     3
370
     9
100
AcDbLine
 10
-223.8489486815064
 20
1045.158824187525
 30
0.0
 11
-155.8487865495082
 21
1045.158824187525
 31
0.0
  0
LINE
  5
2B7
330
1F
100
AcDbEntity
  8
0-8
  6
Continuous
 62
     3
370
     9
100
AcDbLine
 10
-223.8489486815064
 20
1033.15803803586
 30
0.0
 11
-155.8487865495082
 21
1033.15803803586
 31
0.0
  0
LINE
  5
2B8
330
1F
100
AcDbEntity
  8
0-8
  6
JWW_CENTER1
 62
     7
370
     9
100
AcDbLine
 10
-189.8488676155075
 20
1049.199213907602
 30
0.0
 11
-189.8488676155075
 21
1029.117368355298
 31
0.0
  0
LINE
  5
2B9
330
1F
100
AcDbEntity
  8
0-8
  6
JWW_CENTER1
 62
     7
370
     9
100
AcDbLine
 10
-234.5627564834489
 20
1039.158431111692
 30
0.0
 11
-145.1352587080509
 21
1039.158431111692
 31
0.0
  0
LINE
  5
2BA
330
1F
100
AcDbEntity
  8
0-8
  6
Continuous
 62
     3
370
     9
100
AcDbLine
 10
-273.8489114477044
 20
977.1585220752848
 30
0.0
 11
-273.8489114477044
 21
1001.158694576189
 31
0.0
  0
LINE
  5
2BB
330
1F
100
AcDbEntity
  8
0-8
  6
Continuous
 62
     3
370
     9
100
AcDbLine
 10
-277.8489868579363
 20
977.1585220752848
 30
0.0
 11
-277.8489868579363
 21
1001.158694576189
 31
0.0
  0
LINE
  5
2BC
330
1F
100
AcDbEntity
  8
0-8
  6
Continuous
 62
     3
370
     9
100
AcDbLine
 10
-269.8488360374728
 20
977.1585220752848
 30
0.0
 11
-269.8488360374728
 21
1001.158694576189
 31
0.0
  0
LINE
  5
2BD
330
1F
100
AcDbEntity
  8
0-8
  6
Continuous
 62
     3
370
     9
100
AcDbLine
 10
-265.8493205482113
 20
977.1585220752848
 30
0.0
 11
-265.8493205482113
 21
1001.158694576189
 31
0.0
  0
LINE
  5
2BE
330
1F
100
AcDbEntity
  8
0-8
  6
Continuous
 62
     3
370
     9
100
AcDbLine
 10
-261.8492451379795
 20
977.1585220752848
 30
0.0
 11
-261.8492451379795
 21
1001.158694576189
 31
0.0
  0
LINE
  5
2BF
330
1F
100
AcDbEntity
  8
0-8
  6
Continuous
 62
     3
370
     9
100
AcDbLine
 10
-281.8490622681679
 20
993.158543755726
 30
0.0
 11
-257.8491697277479
 21
993.158543755726
 31
0.0
  0
LINE
  5
2C0
330
1F
100
AcDbEntity
  8
0-8
  6
Continuous
 62
     3
370
     9
100
AcDbLine
 10
-281.8490622681679
 20
997.1586191659577
 30
0.0
 11
-257.8491697277479
 21
997.1586191659577
 31
0.0
  0
LINE
  5
2C1
330
1F
100
AcDbEntity
  8
0-8
  6
Continuous
 62
     3
370
     9
100
AcDbLine
 10
-281.8490622681679
 20
989.1584683454943
 30
0.0
 11
-257.8491697277479
 21
989.1584683454943
 31
0.0
  0
LINE
  5
2C2
330
1F
100
AcDbEntity
  8
0-8
  6
Continuous
 62
     3
370
     9
100
AcDbLine
 10
-281.8490622681679
 20
985.1586728957477
 30
0.0
 11
-257.8491697277479
 21
985.1586728957477
 31
0.0
  0
LINE
  5
2C3
330
1F
100
AcDbEntity
  8
0-8
  6
Continuous
 62
     3
370
     9
100
AcDbLine
 10
-281.8490622681679
 20
981.158597485516
 30
0.0
 11
-257.8491697277479
 21
981.158597485516
 31
0.0
  0
LINE
  5
2C4
330
1F
100
AcDbEntity
  8
0-8
  6
JWW_CENTER1
 62
     7
370
     9
100
AcDbLine
 10
-289.2792135410924
 20
989.1584683454943
 30
0.0
 11
-250.4190184548233
 21
989.1584683454943
 31
0.0
  0
LINE
  5
2C5
330
1F
100
AcDbEntity
  8
0-8
  6
JWW_CENTER1
 62
     7
370
     9
100
AcDbLine
 10
-269.8488360374728
 20
969.7283708023599
 30
0.0
 11
-269.8488360374728
 21
1008.588845849114
 31
0.0
  0
LINE
  5
2C6
330
1F
100
AcDbEntity
  8
0-8
  6
Continuous
 62
     3
370
     9
100
AcDbLine
 10
-273.8489114477044
 20
877.1585965428886
 30
0.0
 11
-273.8489114477044
 21
901.1587690437932
 31
0.0
  0
LINE
  5
2C7
330
1F
100
AcDbEntity
  8
0-8
  6
Continuous
 62
     3
370
     9
100
AcDbLine
 10
-277.8489868579363
 20
877.1585965428886
 30
0.0
 11
-277.8489868579363
 21
901.1587690437932
 31
0.0
  0
LINE
  5
2C8
330
1F
100
AcDbEntity
  8
0-8
  6
Continuous
 62
     3
370
     9
100
AcDbLine
 10
-269.8488360374728
 20
877.1585965428886
 30
0.0
 11
-269.8488360374728
 21
901.1587690437932
 31
0.0
  0
LINE
  5
2C9
330
1F
100
AcDbEntity
  8
0-8
  6
Continuous
 62
     3
370
     9
100
AcDbLine
 10
-265.8493205482113
 20
877.1585965428886
 30
0.0
 11
-265.8493205482113
 21
901.1587690437932
 31
0.0
  0
LINE
  5
2CA
330
1F
100
AcDbEntity
  8
0-8
  6
Continuous
 62
     3
370
     9
100
AcDbLine
 10
-261.8492451379795
 20
877.1585965428886
 30
0.0
 11
-261.8492451379795
 21
901.1587690437932
 31
0.0
  0
LINE
  5
2CB
330
1F
100
AcDbEntity
  8
0-8
  6
Continuous
 62
     3
370
     9
100
AcDbLine
 10
-281.8490622681679
 20
893.1586182233298
 30
0.0
 11
-257.8491697277479
 21
893.1586182233298
 31
0.0
  0
LINE
  5
2CC
330
1F
100
AcDbEntity
  8
0-8
  6
Continuous
 62
     3
370
     9
100
AcDbLine
 10
-281.8490622681679
 20
897.1586936335615
 30
0.0
 11
-257.8491697277479
 21
897.1586936335615
 31
0.0
  0
LINE
  5
2CD
330
1F
100
AcDbEntity
  8
0-8
  6
Continuous
 62
     3
370
     9
100
AcDbLine
 10
-281.8490622681679
 20
889.158542813098
 30
0.0
 11
-257.8491697277479
 21
889.158542813098
 31
0.0
  0
LINE
  5
2CE
330
1F
100
AcDbEntity
  8
0-8
  6
Continuous
 62
     3
370
     9
100
AcDbLine
 10
-281.8490622681679
 20
885.1587473633515
 30
0.0
 11
-257.8491697277479
 21
885.1587473633515
 31
0.0
  0
LINE
  5
2CF
330
1F
100
AcDbEntity
  8
0-8
  6
Continuous
 62
     3
370
     9
100
AcDbLine
 10
-281.8490622681679
 20
881.1586719531198
 30
0.0
 11
-257.8491697277479
 21
881.1586719531198
 31
0.0
  0
LINE
  5
2D0
330
1F
100
AcDbEntity
  8
0-8
  6
JWW_CENTER1
 62
     7
370
     9
100
AcDbLine
 10
-289.2792135410924
 20
889.158542813098
 30
0.0
 11
-250.4190184548233
 21
889.158542813098
 31
0.0
  0
LINE
  5
2D1
330
1F
100
AcDbEntity
  8
0-8
  6
JWW_CENTER1
 62
     7
370
     9
100
AcDbLine
 10
-269.8488360374728
 20
869.7284452699637
 30
0.0
 11
-269.8488360374728
 21
908.5889203167181
 31
0.0
  0
LINE
  5
2D2
330
1F
100
AcDbEntity
  8
0-8
  6
Continuous
 62
     3
370
     9
100
AcDbLine
 10
-273.8489114477044
 20
777.1586010203708
 30
0.0
 11
-273.8489114477044
 21
801.158773521276
 31
0.0
  0
LINE
  5
2D3
330
1F
100
AcDbEntity
  8
0-8
  6
Continuous
 62
     3
370
     9
100
AcDbLine
 10
-277.8489868579363
 20
777.1586010203708
 30
0.0
 11
-277.8489868579363
 21
801.158773521276
 31
0.0
  0
LINE
  5
2D4
330
1F
100
AcDbEntity
  8
0-8
  6
Continuous
 62
     3
370
     9
100
AcDbLine
 10
-269.8488360374728
 20
777.1586010203708
 30
0.0
 11
-269.8488360374728
 21
801.158773521276
 31
0.0
  0
LINE
  5
2D5
330
1F
100
AcDbEntity
  8
0-8
  6
Continuous
 62
     3
370
     9
100
AcDbLine
 10
-265.8493205482113
 20
777.1586010203708
 30
0.0
 11
-265.8493205482113
 21
801.158773521276
 31
0.0
  0
LINE
  5
2D6
330
1F
100
AcDbEntity
  8
0-8
  6
Continuous
 62
     3
370
     9
100
AcDbLine
 10
-261.8492451379795
 20
777.1586010203708
 30
0.0
 11
-261.8492451379795
 21
801.158773521276
 31
0.0
  0
LINE
  5
2D7
330
1F
100
AcDbEntity
  8
0-8
  6
Continuous
 62
     3
370
     9
100
AcDbLine
 10
-281.8490622681679
 20
793.1586227008125
 30
0.0
 11
-257.8491697277479
 21
793.1586227008125
 31
0.0
  0
LINE
  5
2D8
330
1F
100
AcDbEntity
  8
0-8
  6
Continuous
 62
     3
370
     9
100
AcDbLine
 10
-281.8490622681679
 20
797.1586981110443
 30
0.0
 11
-257.8491697277479
 21
797.1586981110443
 31
0.0
  0
LINE
  5
2D9
330
1F
100
AcDbEntity
  8
0-8
  6
Continuous
 62
     3
370
     9
100
AcDbLine
 10
-281.8490622681679
 20
789.1585472905808
 30
0.0
 11
-257.8491697277479
 21
789.1585472905808
 31
0.0
  0
LINE
  5
2DA
330
1F
100
AcDbEntity
  8
0-8
  6
Continuous
 62
     3
370
     9
100
AcDbLine
 10
-281.8490622681679
 20
785.1587518408343
 30
0.0
 11
-257.8491697277479
 21
785.1587518408343
 31
0.0
  0
LINE
  5
2DB
330
1F
100
AcDbEntity
  8
0-8
  6
Continuous
 62
     3
370
     9
100
AcDbLine
 10
-281.8490622681679
 20
781.1586764306026
 30
0.0
 11
-257.8491697277479
 21
781.1586764306026
 31
0.0
  0
LINE
  5
2DC
330
1F
100
AcDbEntity
  8
0-8
  6
JWW_CENTER1
 62
     7
370
     9
100
AcDbLine
 10
-289.2792135410924
 20
789.1585472905808
 30
0.0
 11
-250.4190184548233
 21
789.1585472905808
 31
0.0
  0
LINE
  5
2DD
330
1F
100
AcDbEntity
  8
0-8
  6
JWW_CENTER1
 62
     7
370
     9
100
AcDbLine
 10
-269.8488360374728
 20
769.7284497474459
 30
0.0
 11
-269.8488360374728
 21
808.5889247942004
 31
0.0
  0
LINE
  5
2DE
330
1F
100
AcDbEntity
  8
0-8
  6
Continuous
 62
     3
370
     9
100
AcDbLine
 10
-273.8489114477044
 20
677.1586754879746
 30
0.0
 11
-273.8489114477044
 21
701.1588479888798
 31
0.0
  0
LINE
  5
2DF
330
1F
100
AcDbEntity
  8
0-8
  6
Continuous
 62
     3
370
     9
100
AcDbLine
 10
-277.8489868579363
 20
677.1586754879746
 30
0.0
 11
-277.8489868579363
 21
701.1588479888798
 31
0.0
  0
LINE
  5
2E0
330
1F
100
AcDbEntity
  8
0-8
  6
Continuous
 62
     3
370
     9
100
AcDbLine
 10
-269.8488360374728
 20
677.1586754879746
 30
0.0
 11
-269.8488360374728
 21
701.1588479888798
 31
0.0
  0
LINE
  5
2E1
330
1F
100
AcDbEntity
  8
0-8
  6
Continuous
 62
     3
370
     9
100
AcDbLine
 10
-265.8493205482113
 20
677.1586754879746
 30
0.0
 11
-265.8493205482113
 21
701.1588479888798
 31
0.0
  0
LINE
  5
2E2
330
1F
100
AcDbEntity
  8
0-8
  6
Continuous
 62
     3
370
     9
100
AcDbLine
 10
-261.8492451379795
 20
677.1586754879746
 30
0.0
 11
-261.8492451379795
 21
701.1588479888798
 31
0.0
  0
LINE
  5
2E3
330
1F
100
AcDbEntity
  8
0-8
  6
Continuous
 62
     3
370
     9
100
AcDbLine
 10
-281.8490622681679
 20
693.1586971684163
 30
0.0
 11
-257.8491697277479
 21
693.1586971684163
 31
0.0
  0
LINE
  5
2E4
330
1F
100
AcDbEntity
  8
0-8
  6
Continuous
 62
     3
370
     9
100
AcDbLine
 10
-281.8490622681679
 20
697.158772578648
 30
0.0
 11
-257.8491697277479
 21
697.158772578648
 31
0.0
  0
LINE
  5
2E5
330
1F
100
AcDbEntity
  8
0-8
  6
Continuous
 62
     3
370
     9
100
AcDbLine
 10
-281.8490622681679
 20
689.1586217581846
 30
0.0
 11
-257.8491697277479
 21
689.1586217581846
 31
0.0
  0
LINE
  5
2E6
330
1F
100
AcDbEntity
  8
0-8
  6
Continuous
 62
     3
370
     9
100
AcDbLine
 10
-281.8490622681679
 20
685.158826308438
 30
0.0
 11
-257.8491697277479
 21
685.158826308438
 31
0.0
  0
LINE
  5
2E7
330
1F
100
AcDbEntity
  8
0-8
  6
Continuous
 62
     3
370
     9
100
AcDbLine
 10
-281.8490622681679
 20
681.1587508982063
 30
0.0
 11
-257.8491697277479
 21
681.1587508982063
 31
0.0
  0
LINE
  5
2E8
330
1F
100
AcDbEntity
  8
0-8
  6
JWW_CENTER1
 62
     7
370
     9
100
AcDbLine
 10
-269.8488360374728
 20
669.7285242150497
 30
0.0
 11
-269.8488360374728
 21
708.5889992618041
 31
0.0
  0
LINE
  5
2E9
330
1F
100
AcDbEntity
  8
0-8
  6
Continuous
 62
     3
370
     9
100
AcDbLine
 10
-273.8489114477044
 20
577.1586099753358
 30
0.0
 11
-273.8489114477044
 21
601.158782476241
 31
0.0
  0
LINE
  5
2EA
330
1F
100
AcDbEntity
  8
0-8
  6
Continuous
 62
     3
370
     9
100
AcDbLine
 10
-277.8489868579363
 20
577.1586099753358
 30
0.0
 11
-277.8489868579363
 21
601.158782476241
 31
0.0
  0
LINE
  5
2EB
330
1F
100
AcDbEntity
  8
0-8
  6
Continuous
 62
     3
370
     9
100
AcDbLine
 10
-269.8488360374728
 20
577.1586099753358
 30
0.0
 11
-269.8488360374728
 21
601.158782476241
 31
0.0
  0
LINE
  5
2EC
330
1F
100
AcDbEntity
  8
0-8
  6
Continuous
 62
     3
370
     9
100
AcDbLine
 10
-265.8493205482113
 20
577.1586099753358
 30
0.0
 11
-265.8493205482113
 21
601.158782476241
 31
0.0
  0
LINE
  5
2ED
330
1F
100
AcDbEntity
  8
0-8
  6
Continuous
 62
     3
370
     9
100
AcDbLine
 10
-261.8492451379795
 20
577.1586099753358
 30
0.0
 11
-261.8492451379795
 21
601.158782476241
 31
0.0
  0
LINE
  5
2EE
330
1F
100
AcDbEntity
  8
0-8
  6
Continuous
 62
     3
370
     9
100
AcDbLine
 10
-281.8490622681679
 20
593.1586316557775
 30
0.0
 11
-257.8491697277479
 21
593.1586316557775
 31
0.0
  0
LINE
  5
2EF
330
1F
100
AcDbEntity
  8
0-8
  6
Continuous
 62
     3
370
     9
100
AcDbLine
 10
-281.8490622681679
 20
597.1587070660092
 30
0.0
 11
-257.8491697277479
 21
597.1587070660092
 31
0.0
  0
LINE
  5
2F0
330
1F
100
AcDbEntity
  8
0-8
  6
Continuous
 62
     3
370
     9
100
AcDbLine
 10
-281.8490622681679
 20
589.1585562455458
 30
0.0
 11
-257.8491697277479
 21
589.1585562455458
 31
0.0
  0
LINE
  5
2F1
330
1F
100
AcDbEntity
  8
0-8
  6
Continuous
 62
     3
370
     9
100
AcDbLine
 10
-281.8490622681679
 20
585.1587607957993
 30
0.0
 11
-257.8491697277479
 21
585.1587607957993
 31
0.0
  0
LINE
  5
2F2
330
1F
100
AcDbEntity
  8
0-8
  6
Continuous
 62
     3
370
     9
100
AcDbLine
 10
-281.8490622681679
 20
581.1586853855675
 30
0.0
 11
-257.8491697277479
 21
581.1586853855675
 31
0.0
  0
LINE
  5
2F3
330
1F
100
AcDbEntity
  8
0-8
  6
JWW_CENTER1
 62
     7
370
     9
100
AcDbLine
 10
-289.2792135410924
 20
589.1585562455458
 30
0.0
 11
-250.4190184548233
 21
589.1585562455458
 31
0.0
  0
LINE
  5
2F4
330
1F
100
AcDbEntity
  8
0-8
  6
JWW_CENTER1
 62
     7
370
     9
100
AcDbLine
 10
-269.8488360374728
 20
569.7284587024112
 30
0.0
 11
-269.8488360374728
 21
608.5889337491653
 31
0.0
  0
LINE
  5
2F5
330
1F
100
AcDbEntity
  8
0-8
  6
Continuous
 62
     3
370
     9
100
AcDbLine
 10
-273.8489114477044
 20
477.1586144528183
 30
0.0
 11
-273.8489114477044
 21
501.1587869537232
 31
0.0
  0
LINE
  5
2F6
330
1F
100
AcDbEntity
  8
0-8
  6
Continuous
 62
     3
370
     9
100
AcDbLine
 10
-277.8489868579363
 20
477.1586144528183
 30
0.0
 11
-277.8489868579363
 21
501.1587869537232
 31
0.0
  0
LINE
  5
2F7
330
1F
100
AcDbEntity
  8
0-8
  6
Continuous
 62
     3
370
     9
100
AcDbLine
 10
-269.8488360374728
 20
477.1586144528183
 30
0.0
 11
-269.8488360374728
 21
501.1587869537232
 31
0.0
  0
LINE
  5
2F8
330
1F
100
AcDbEntity
  8
0-8
  6
Continuous
 62
     3
370
     9
100
AcDbLine
 10
-265.8493205482113
 20
477.1586144528183
 30
0.0
 11
-265.8493205482113
 21
501.1587869537232
 31
0.0
  0
LINE
  5
2F9
330
1F
100
AcDbEntity
  8
0-8
  6
Continuous
 62
     3
370
     9
100
AcDbLine
 10
-261.8492451379795
 20
477.1586144528183
 30
0.0
 11
-261.8492451379795
 21
501.1587869537232
 31
0.0
  0
LINE
  5
2FA
330
1F
100
AcDbEntity
  8
0-8
  6
Continuous
 62
     3
370
     9
100
AcDbLine
 10
-281.8490622681679
 20
493.15863613326
 30
0.0
 11
-257.8491697277479
 21
493.15863613326
 31
0.0
  0
LINE
  5
2FB
330
1F
100
AcDbEntity
  8
0-8
  6
Continuous
 62
     3
370
     9
100
AcDbLine
 10
-281.8490622681679
 20
497.1587115434917
 30
0.0
 11
-257.8491697277479
 21
497.1587115434917
 31
0.0
  0
LINE
  5
2FC
330
1F
100
AcDbEntity
  8
0-8
  6
Continuous
 62
     3
370
     9
100
AcDbLine
 10
-281.8490622681679
 20
489.1585607230283
 30
0.0
 11
-257.8491697277479
 21
489.1585607230283
 31
0.0
  0
LINE
  5
2FD
330
1F
100
AcDbEntity
  8
0-8
  6
Continuous
 62
     3
370
     9
100
AcDbLine
 10
-281.8490622681679
 20
485.1587652732817
 30
0.0
 11
-257.8491697277479
 21
485.1587652732817
 31
0.0
  0
LINE
  5
2FE
330
1F
100
AcDbEntity
  8
0-8
  6
Continuous
 62
     3
370
     9
100
AcDbLine
 10
-281.8490622681679
 20
481.15868986305
 30
0.0
 11
-257.8491697277479
 21
481.15868986305
 31
0.0
  0
LINE
  5
2FF
330
1F
100
AcDbEntity
  8
0-8
  6
JWW_CENTER1
 62
     7
370
     9
100
AcDbLine
 10
-289.2792135410924
 20
489.1585607230283
 30
0.0
 11
-250.4190184548233
 21
489.1585607230283
 31
0.0
  0
LINE
  5
300
330
1F
100
AcDbEntity
  8
0-8
  6
JWW_CENTER1
 62
     7
370
     9
100
AcDbLine
 10
-269.8488360374728
 20
469.7284631798937
 30
0.0
 11
-269.8488360374728
 21
508.5889382266481
 31
0.0
  0
LINE
  5
301
330
1F
100
AcDbEntity
  8
0-8
  6
Continuous
 62
     3
370
     9
100
AcDbLine
 10
-273.8489114477044
 20
377.1586189303008
 30
0.0
 11
-273.8489114477044
 21
401.1587914312059
 31
0.0
  0
LINE
  5
302
330
1F
100
AcDbEntity
  8
0-8
  6
Continuous
 62
     3
370
     9
100
AcDbLine
 10
-277.8489868579363
 20
377.1586189303008
 30
0.0
 11
-277.8489868579363
 21
401.1587914312059
 31
0.0
  0
LINE
  5
303
330
1F
100
AcDbEntity
  8
0-8
  6
Continuous
 62
     3
370
     9
100
AcDbLine
 10
-269.8488360374728
 20
377.1586189303008
 30
0.0
 11
-269.8488360374728
 21
401.1587914312059
 31
0.0
  0
LINE
  5
304
330
1F
100
AcDbEntity
  8
0-8
  6
Continuous
 62
     3
370
     9
100
AcDbLine
 10
-265.8493205482113
 20
377.1586189303008
 30
0.0
 11
-265.8493205482113
 21
401.1587914312059
 31
0.0
  0
LINE
  5
305
330
1F
100
AcDbEntity
  8
0-8
  6
Continuous
 62
     3
370
     9
100
AcDbLine
 10
-261.8492451379795
 20
377.1586189303008
 30
0.0
 11
-261.8492451379795
 21
401.1587914312059
 31
0.0
  0
LINE
  5
306
330
1F
100
AcDbEntity
  8
0-8
  6
Continuous
 62
     3
370
     9
100
AcDbLine
 10
-281.8490622681679
 20
393.1586406107425
 30
0.0
 11
-257.8491697277479
 21
393.1586406107425
 31
0.0
  0
LINE
  5
307
330
1F
100
AcDbEntity
  8
0-8
  6
Continuous
 62
     3
370
     9
100
AcDbLine
 10
-281.8490622681679
 20
397.1587160209742
 30
0.0
 11
-257.8491697277479
 21
397.1587160209742
 31
0.0
  0
LINE
  5
308
330
1F
100
AcDbEntity
  8
0-8
  6
Continuous
 62
     3
370
     9
100
AcDbLine
 10
-281.8490622681679
 20
389.1585652005108
 30
0.0
 11
-257.8491697277479
 21
389.1585652005108
 31
0.0
  0
LINE
  5
309
330
1F
100
AcDbEntity
  8
0-8
  6
Continuous
 62
     3
370
     9
100
AcDbLine
 10
-281.8490622681679
 20
385.1587697507642
 30
0.0
 11
-257.8491697277479
 21
385.1587697507642
 31
0.0
  0
LINE
  5
30A
330
1F
100
AcDbEntity
  8
0-8
  6
Continuous
 62
     3
370
     9
100
AcDbLine
 10
-281.8490622681679
 20
381.1586943405325
 30
0.0
 11
-257.8491697277479
 21
381.1586943405325
 31
0.0
  0
LINE
  5
30B
330
1F
100
AcDbEntity
  8
0-8
  6
JWW_CENTER1
 62
     7
370
     9
100
AcDbLine
 10
-289.2792135410924
 20
389.1585652005108
 30
0.0
 11
-250.4190184548233
 21
389.1585652005108
 31
0.0
  0
LINE
  5
30C
330
1F
100
AcDbEntity
  8
0-8
  6
JWW_CENTER1
 62
     7
370
     9
100
AcDbLine
 10
-269.8488360374728
 20
369.7284676573761
 30
0.0
 11
-269.8488360374728
 21
408.5889427041306
 31
0.0
  0
LINE
  5
30D
330
1F
100
AcDbEntity
  8
0-8
  6
Continuous
 62
     3
370
     9
100
AcDbLine
 10
-223.8489486815064
 20
945.1587586748866
 30
0.0
 11
-155.8487865495082
 21
945.1587586748866
 31
0.0
  0
LINE
  5
30E
330
1F
100
AcDbEntity
  8
0-8
  6
Continuous
 62
     3
370
     9
100
AcDbLine
 10
-223.8489486815064
 20
933.1579725232211
 30
0.0
 11
-155.8487865495082
 21
933.1579725232211
 31
0.0
  0
LINE
  5
30F
330
1F
100
AcDbEntity
  8
0-8
  6
JWW_CENTER1
 62
     7
370
     9
100
AcDbLine
 10
-189.8488676155075
 20
949.1991483949636
 30
0.0
 11
-189.8488676155075
 21
929.117302842659
 31
0.0
  0
LINE
  5
310
330
1F
100
AcDbEntity
  8
0-8
  6
JWW_CENTER1
 62
     7
370
     9
100
AcDbLine
 10
-234.5627564834489
 20
939.1583655990536
 30
0.0
 11
-145.1352587080509
 21
939.1583655990536
 31
0.0
  0
LINE
  5
311
330
1F
100
AcDbEntity
  8
0-8
  6
Continuous
 62
     3
370
     9
100
AcDbLine
 10
-223.8489486815064
 20
845.1588331424904
 30
0.0
 11
-155.8487865495082
 21
845.1588331424904
 31
0.0
  0
LINE
  5
312
330
1F
100
AcDbEntity
  8
0-8
  6
Continuous
 62
     3
370
     9
100
AcDbLine
 10
-223.8489486815064
 20
833.1581169809465
 30
0.0
 11
-155.8487865495082
 21
833.1581169809465
 31
0.0
  0
LINE
  5
313
330
1F
100
AcDbEntity
  8
0-8
  6
JWW_CENTER1
 62
     7
370
     9
100
AcDbLine
 10
-189.8488676155075
 20
849.1992228625674
 30
0.0
 11
-189.8488676155075
 21
829.1174473003838
 31
0.0
  0
LINE
  5
314
330
1F
100
AcDbEntity
  8
0-8
  6
JWW_CENTER1
 62
     7
370
     9
100
AcDbLine
 10
-234.5627564834489
 20
839.1585100567789
 30
0.0
 11
-145.1352587080509
 21
839.1585100567789
 31
0.0
  0
LINE
  5
315
330
1F
100
AcDbEntity
  8
0-8
  6
Continuous
 62
     3
370
     9
100
AcDbLine
 10
-223.8489486815064
 20
745.1588376199726
 30
0.0
 11
-155.8487865495082
 21
745.1588376199726
 31
0.0
  0
LINE
  5
316
330
1F
100
AcDbEntity
  8
0-8
  6
Continuous
 62
     3
370
     9
100
AcDbLine
 10
-223.8489486815064
 20
733.1580514683077
 30
0.0
 11
-155.8487865495082
 21
733.1580514683077
 31
0.0
  0
LINE
  5
317
330
1F
100
AcDbEntity
  8
0-8
  6
JWW_CENTER1
 62
     7
370
     9
100
AcDbLine
 10
-189.8488676155075
 20
749.1992273400496
 30
0.0
 11
-189.8488676155075
 21
729.1173817877456
 31
0.0
  0
LINE
  5
318
330
1F
100
AcDbEntity
  8
0-8
  6
Continuous
 62
     3
370
     9
100
AcDbLine
 10
-223.8489486815064
 20
645.1589120875764
 30
0.0
 11
-155.8487865495082
 21
645.1589120875764
 31
0.0
  0
LINE
  5
319
330
1F
100
AcDbEntity
  8
0-8
  6
Continuous
 62
     3
370
     9
100
AcDbLine
 10
-223.8489486815064
 20
633.1581259359115
 30
0.0
 11
-155.8487865495082
 21
633.1581259359115
 31
0.0
  0
LINE
  5
31A
330
1F
100
AcDbEntity
  8
0-8
  6
JWW_CENTER1
 62
     7
370
     9
100
AcDbLine
 10
-189.8488676155075
 20
649.1993018076539
 30
0.0
 11
-189.8488676155075
 21
629.1174562553493
 31
0.0
  0
LINE
  5
31B
330
1F
100
AcDbEntity
  8
0-8
  6
JWW_CENTER1
 62
     7
370
     9
100
AcDbLine
 10
-234.5627564834489
 20
639.1585190117439
 30
0.0
 11
-145.1352587080509
 21
639.1585190117439
 31
0.0
  0
LINE
  5
31C
330
1F
100
AcDbEntity
  8
0-8
  6
Continuous
 62
     3
370
     9
100
AcDbLine
 10
-223.8489486815064
 20
545.1588465749376
 30
0.0
 11
-155.8487865495082
 21
545.1588465749376
 31
0.0
  0
LINE
  5
31D
330
1F
100
AcDbEntity
  8
0-8
  6
Continuous
 62
     3
370
     9
100
AcDbLine
 10
-223.8489486815064
 20
533.1580604232727
 30
0.0
 11
-155.8487865495082
 21
533.1580604232727
 31
0.0
  0
LINE
  5
31E
330
1F
100
AcDbEntity
  8
0-8
  6
JWW_CENTER1
 62
     7
370
     9
100
AcDbLine
 10
-189.8488676155075
 20
549.1992362950148
 30
0.0
 11
-189.8488676155075
 21
529.1173907427105
 31
0.0
  0
LINE
  5
31F
330
1F
100
AcDbEntity
  8
0-8
  6
JWW_CENTER1
 62
     7
370
     9
100
AcDbLine
 10
-234.5627564834489
 20
539.1584534991051
 30
0.0
 11
-145.1352587080509
 21
539.1584534991051
 31
0.0
  0
LINE
  5
320
330
1F
100
AcDbEntity
  8
0-8
  6
Continuous
 62
     3
370
     9
100
AcDbLine
 10
-223.8489486815064
 20
445.1588510524203
 30
0.0
 11
-155.8487865495082
 21
445.1588510524203
 31
0.0
  0
LINE
  5
321
330
1F
100
AcDbEntity
  8
0-8
  6
Continuous
 62
     3
370
     9
100
AcDbLine
 10
-223.8489486815064
 20
433.1580649007552
 30
0.0
 11
-155.8487865495082
 21
433.1580649007552
 31
0.0
  0
LINE
  5
322
330
1F
100
AcDbEntity
  8
0-8
  6
JWW_CENTER1
 62
     7
370
     9
100
AcDbLine
 10
-189.8488676155075
 20
449.1992407724973
 30
0.0
 11
-189.8488676155075
 21
429.1173952201927
 31
0.0
  0
LINE
  5
323
330
1F
100
AcDbEntity
  8
0-8
  6
JWW_CENTER1
 62
     7
370
     9
100
AcDbLine
 10
-234.5627564834489
 20
439.1584579765876
 30
0.0
 11
-145.1352587080509
 21
439.1584579765876
 31
0.0
  0
LINE
  5
324
330
1F
100
AcDbEntity
  8
0-8
  6
JWW_CENTER1
 62
     7
370
     9
100
AcDbLine
 10
-269.8488360374728
 20
1069.728436314999
 30
0.0
 11
-269.8488360374728
 21
1108.588911361753
 31
0.0
  0
LINE
  5
325
330
1F
100
AcDbEntity
  8
0-8
  6
Continuous
 62
     3
370
     9
100
AcDbLine
 10
-273.8489114477044
 20
277.1586234077833
 30
0.0
 11
-273.8489114477044
 21
301.1587959086881
 31
0.0
  0
LINE
  5
326
330
1F
100
AcDbEntity
  8
0-8
  6
Continuous
 62
     3
370
     9
100
AcDbLine
 10
-277.8489868579363
 20
277.1586234077833
 30
0.0
 11
-277.8489868579363
 21
301.1587959086881
 31
0.0
  0
LINE
  5
327
330
1F
100
AcDbEntity
  8
0-8
  6
Continuous
 62
     3
370
     9
100
AcDbLine
 10
-269.8488360374728
 20
277.1586234077833
 30
0.0
 11
-269.8488360374728
 21
301.1587959086881
 31
0.0
  0
LINE
  5
328
330
1F
100
AcDbEntity
  8
0-8
  6
Continuous
 62
     3
370
     9
100
AcDbLine
 10
-265.8493205482113
 20
277.1586234077833
 30
0.0
 11
-265.8493205482113
 21
301.1587959086881
 31
0.0
  0
LINE
  5
329
330
1F
100
AcDbEntity
  8
0-8
  6
Continuous
 62
     3
370
     9
100
AcDbLine
 10
-261.8492451379795
 20
277.1586234077833
 30
0.0
 11
-261.8492451379795
 21
301.1587959086881
 31
0.0
  0
LINE
  5
32A
330
1F
100
AcDbEntity
  8
0-8
  6
Continuous
 62
     3
370
     9
100
AcDbLine
 10
-281.8490622681679
 20
293.158645088225
 30
0.0
 11
-257.8491697277479
 21
293.158645088225
 31
0.0
  0
LINE
  5
32B
330
1F
100
AcDbEntity
  8
0-8
  6
Continuous
 62
     3
370
     9
100
AcDbLine
 10
-281.8490622681679
 20
297.1587204984567
 30
0.0
 11
-257.8491697277479
 21
297.1587204984567
 31
0.0
  0
LINE
  5
32C
330
1F
100
AcDbEntity
  8
0-8
  6
Continuous
 62
     3
370
     9
100
AcDbLine
 10
-281.8490622681679
 20
289.1585696779933
 30
0.0
 11
-257.8491697277479
 21
289.1585696779933
 31
0.0
  0
LINE
  5
32D
330
1F
100
AcDbEntity
  8
0-8
  6
Continuous
 62
     3
370
     9
100
AcDbLine
 10
-281.8490622681679
 20
285.1587742282467
 30
0.0
 11
-257.8491697277479
 21
285.1587742282467
 31
0.0
  0
LINE
  5
32E
330
1F
100
AcDbEntity
  8
0-8
  6
Continuous
 62
     3
370
     9
100
AcDbLine
 10
-281.8490622681679
 20
281.158698818015
 30
0.0
 11
-257.8491697277479
 21
281.158698818015
 31
0.0
  0
LINE
  5
32F
330
1F
100
AcDbEntity
  8
0-8
  6
JWW_CENTER1
 62
     7
370
     9
100
AcDbLine
 10
-289.2792135410924
 20
289.1585696779933
 30
0.0
 11
-250.4190184548233
 21
289.1585696779933
 31
0.0
  0
LINE
  5
330
330
1F
100
AcDbEntity
  8
0-8
  6
JWW_CENTER1
 62
     7
370
     9
100
AcDbLine
 10
-269.8488360374728
 20
269.7284721348586
 30
0.0
 11
-269.8488360374728
 21
308.5889471816131
 31
0.0
  0
LINE
  5
331
330
1F
100
AcDbEntity
  8
0-8
  6
Continuous
 62
     3
370
     9
100
AcDbLine
 10
-223.8489486815064
 20
345.1588555299026
 30
0.0
 11
-155.8487865495082
 21
345.1588555299026
 31
0.0
  0
LINE
  5
332
330
1F
100
AcDbEntity
  8
0-8
  6
Continuous
 62
     3
370
     9
100
AcDbLine
 10
-223.8489486815064
 20
333.1580693782377
 30
0.0
 11
-155.8487865495082
 21
333.1580693782377
 31
0.0
  0
LINE
  5
333
330
1F
100
AcDbEntity
  8
0-8
  6
JWW_CENTER1
 62
     7
370
     9
100
AcDbLine
 10
-189.8488676155075
 20
349.1992452499801
 30
0.0
 11
-189.8488676155075
 21
329.1173996976755
 31
0.0
  0
LINE
  5
334
330
1F
100
AcDbEntity
  8
0-8
  6
JWW_CENTER1
 62
     7
370
     9
100
AcDbLine
 10
-234.5627564834489
 20
339.1584624540701
 30
0.0
 11
-145.1352587080509
 21
339.1584624540701
 31
0.0
  0
LINE
  5
335
330
1F
100
AcDbEntity
  8
0-8
  6
JWW_CENTER1
 62
     7
370
     9
100
AcDbLine
 10
-234.5627564834489
 20
739.1584445441401
 30
0.0
 11
-145.1352587080509
 21
739.1584445441401
 31
0.0
  0
LINE
  5
336
330
1F
100
AcDbEntity
  8
0-8
  6
JWW_CENTER1
 62
     7
370
     9
100
AcDbLine
 10
-529.2791188069889
 20
279.1587311030204
 30
0.0
 11
-490.4186437602347
 21
279.1587311030204
 31
0.0
  0
LINE
  5
337
330
1F
100
AcDbEntity
  8
0-8
  6
Continuous
 62
     3
370
     9
100
AcDbLine
 10
-113.8488346235309
 20
1077.158587587924
 30
0.0
 11
-113.8488346235309
 21
1101.158760088828
 31
0.0
  0
LINE
  5
338
330
1F
100
AcDbEntity
  8
0-8
  6
Continuous
 62
     3
370
     9
100
AcDbLine
 10
-117.8489100337626
 20
1077.158587587924
 30
0.0
 11
-117.8489100337626
 21
1101.158760088828
 31
0.0
  0
LINE
  5
339
330
1F
100
AcDbEntity
  8
0-8
  6
Continuous
 62
     3
370
     9
100
AcDbLine
 10
-109.8487592132994
 20
1077.158587587924
 30
0.0
 11
-109.8487592132994
 21
1101.158760088828
 31
0.0
  0
LINE
  5
33A
330
1F
100
AcDbEntity
  8
0-8
  6
Continuous
 62
     3
370
     9
100
AcDbLine
 10
-105.8492437240378
 20
1077.158587587924
 30
0.0
 11
-105.8492437240378
 21
1101.158760088828
 31
0.0
  0
LINE
  5
33B
330
1F
100
AcDbEntity
  8
0-8
  6
Continuous
 62
     3
370
     9
100
AcDbLine
 10
-101.849168313806
 20
1077.158587587924
 30
0.0
 11
-101.849168313806
 21
1101.158760088828
 31
0.0
  0
LINE
  5
33C
330
1F
100
AcDbEntity
  8
0-8
  6
Continuous
 62
     3
370
     9
100
AcDbLine
 10
-121.8489854439944
 20
1093.158609268365
 30
0.0
 11
-97.8490929035744
 21
1093.158609268365
 31
0.0
  0
LINE
  5
33D
330
1F
100
AcDbEntity
  8
0-8
  6
Continuous
 62
     3
370
     9
100
AcDbLine
 10
-121.8489854439944
 20
1097.158684678597
 30
0.0
 11
-97.8490929035744
 21
1097.158684678597
 31
0.0
  0
LINE
  5
33E
330
1F
100
AcDbEntity
  8
0-8
  6
Continuous
 62
     3
370
     9
100
AcDbLine
 10
-121.8489854439944
 20
1089.158533858133
 30
0.0
 11
-97.8490929035744
 21
1089.158533858133
 31
0.0
  0
LINE
  5
33F
330
1F
100
AcDbEntity
  8
0-8
  6
Continuous
 62
     3
370
     9
100
AcDbLine
 10
-121.8489854439944
 20
1085.158738408386
 30
0.0
 11
-97.8490929035744
 21
1085.158738408386
 31
0.0
  0
LINE
  5
340
330
1F
100
AcDbEntity
  8
0-8
  6
Continuous
 62
     3
370
     9
100
AcDbLine
 10
-121.8489854439944
 20
1081.158662998155
 30
0.0
 11
-97.8490929035744
 21
1081.158662998155
 31
0.0
  0
LINE
  5
341
330
1F
100
AcDbEntity
  8
0-8
  6
JWW_CENTER1
 62
     7
370
     9
100
AcDbLine
 10
-129.279136716919
 20
1089.158533858133
 30
0.0
 11
-90.41894163064981
 21
1089.158533858133
 31
0.0
  0
LINE
  5
342
330
1F
100
AcDbEntity
  8
0-8
  6
Continuous
 62
     3
370
     9
100
AcDbLine
 10
-113.8488346235309
 20
977.1585220752848
 30
0.0
 11
-113.8488346235309
 21
1001.158694576189
 31
0.0
  0
LINE
  5
343
330
1F
100
AcDbEntity
  8
0-8
  6
Continuous
 62
     3
370
     9
100
AcDbLine
 10
-117.8489100337626
 20
977.1585220752848
 30
0.0
 11
-117.8489100337626
 21
1001.158694576189
 31
0.0
  0
LINE
  5
344
330
1F
100
AcDbEntity
  8
0-8
  6
Continuous
 62
     3
370
     9
100
AcDbLine
 10
-109.8487592132994
 20
977.1585220752848
 30
0.0
 11
-109.8487592132994
 21
1001.158694576189
 31
0.0
  0
LINE
  5
345
330
1F
100
AcDbEntity
  8
0-8
  6
Continuous
 62
     3
370
     9
100
AcDbLine
 10
-105.8492437240378
 20
977.1585220752848
 30
0.0
 11
-105.8492437240378
 21
1001.158694576189
 31
0.0
  0
LINE
  5
346
330
1F
100
AcDbEntity
  8
0-8
  6
Continuous
 62
     3
370
     9
100
AcDbLine
 10
-101.849168313806
 20
977.1585220752848
 30
0.0
 11
-101.849168313806
 21
1001.158694576189
 31
0.0
  0
LINE
  5
347
330
1F
100
AcDbEntity
  8
0-8
  6
Continuous
 62
     3
370
     9
100
AcDbLine
 10
-121.8489854439944
 20
993.158543755726
 30
0.0
 11
-97.8490929035744
 21
993.158543755726
 31
0.0
  0
LINE
  5
348
330
1F
100
AcDbEntity
  8
0-8
  6
Continuous
 62
     3
370
     9
100
AcDbLine
 10
-121.8489854439944
 20
997.1586191659577
 30
0.0
 11
-97.8490929035744
 21
997.1586191659577
 31
0.0
  0
LINE
  5
349
330
1F
100
AcDbEntity
  8
0-8
  6
Continuous
 62
     3
370
     9
100
AcDbLine
 10
-121.8489854439944
 20
989.1584683454943
 30
0.0
 11
-97.8490929035744
 21
989.1584683454943
 31
0.0
  0
LINE
  5
34A
330
1F
100
AcDbEntity
  8
0-8
  6
Continuous
 62
     3
370
     9
100
AcDbLine
 10
-121.8489854439944
 20
985.1586728957477
 30
0.0
 11
-97.8490929035744
 21
985.1586728957477
 31
0.0
  0
LINE
  5
34B
330
1F
100
AcDbEntity
  8
0-8
  6
Continuous
 62
     3
370
     9
100
AcDbLine
 10
-121.8489854439944
 20
981.158597485516
 30
0.0
 11
-97.8490929035744
 21
981.158597485516
 31
0.0
  0
LINE
  5
34C
330
1F
100
AcDbEntity
  8
0-8
  6
JWW_CENTER1
 62
     7
370
     9
100
AcDbLine
 10
-129.279136716919
 20
989.1584683454943
 30
0.0
 11
-90.41894163064981
 21
989.1584683454943
 31
0.0
  0
LINE
  5
34D
330
1F
100
AcDbEntity
  8
0-8
  6
JWW_CENTER1
 62
     7
370
     9
100
AcDbLine
 10
-109.8487592132994
 20
969.7283708023599
 30
0.0
 11
-109.8487592132994
 21
1008.588845849114
 31
0.0
  0
LINE
  5
34E
330
1F
100
AcDbEntity
  8
0-8
  6
Continuous
 62
     3
370
     9
100
AcDbLine
 10
-113.8488346235309
 20
877.1585965428886
 30
0.0
 11
-113.8488346235309
 21
901.1587690437932
 31
0.0
  0
LINE
  5
34F
330
1F
100
AcDbEntity
  8
0-8
  6
Continuous
 62
     3
370
     9
100
AcDbLine
 10
-117.8489100337626
 20
877.1585965428886
 30
0.0
 11
-117.8489100337626
 21
901.1587690437932
 31
0.0
  0
LINE
  5
350
330
1F
100
AcDbEntity
  8
0-8
  6
Continuous
 62
     3
370
     9
100
AcDbLine
 10
-109.8487592132994
 20
877.1585965428886
 30
0.0
 11
-109.8487592132994
 21
901.1587690437932
 31
0.0
  0
LINE
  5
351
330
1F
100
AcDbEntity
  8
0-8
  6
Continuous
 62
     3
370
     9
100
AcDbLine
 10
-105.8492437240378
 20
877.1585965428886
 30
0.0
 11
-105.8492437240378
 21
901.1587690437932
 31
0.0
  0
LINE
  5
352
330
1F
100
AcDbEntity
  8
0-8
  6
Continuous
 62
     3
370
     9
100
AcDbLine
 10
-101.849168313806
 20
877.1585965428886
 30
0.0
 11
-101.849168313806
 21
901.1587690437932
 31
0.0
  0
LINE
  5
353
330
1F
100
AcDbEntity
  8
0-8
  6
Continuous
 62
     3
370
     9
100
AcDbLine
 10
-121.8489854439944
 20
893.1586182233298
 30
0.0
 11
-97.8490929035744
 21
893.1586182233298
 31
0.0
  0
LINE
  5
354
330
1F
100
AcDbEntity
  8
0-8
  6
Continuous
 62
     3
370
     9
100
AcDbLine
 10
-121.8489854439944
 20
897.1586936335615
 30
0.0
 11
-97.8490929035744
 21
897.1586936335615
 31
0.0
  0
LINE
  5
355
330
1F
100
AcDbEntity
  8
0-8
  6
Continuous
 62
     3
370
     9
100
AcDbLine
 10
-121.8489854439944
 20
889.158542813098
 30
0.0
 11
-97.8490929035744
 21
889.158542813098
 31
0.0
  0
LINE
  5
356
330
1F
100
AcDbEntity
  8
0-8
  6
Continuous
 62
     3
370
     9
100
AcDbLine
 10
-121.8489854439944
 20
885.1587473633515
 30
0.0
 11
-97.8490929035744
 21
885.1587473633515
 31
0.0
  0
LINE
  5
357
330
1F
100
AcDbEntity
  8
0-8
  6
Continuous
 62
     3
370
     9
100
AcDbLine
 10
-121.8489854439944
 20
881.1586719531198
 30
0.0
 11
-97.8490929035744
 21
881.1586719531198
 31
0.0
  0
LINE
  5
358
330
1F
100
AcDbEntity
  8
0-8
  6
JWW_CENTER1
 62
     7
370
     9
100
AcDbLine
 10
-129.279136716919
 20
889.158542813098
 30
0.0
 11
-90.41894163064981
 21
889.158542813098
 31
0.0
  0
LINE
  5
359
330
1F
100
AcDbEntity
  8
0-8
  6
JWW_CENTER1
 62
     7
370
     9
100
AcDbLine
 10
-109.8487592132994
 20
869.7284452699637
 30
0.0
 11
-109.8487592132994
 21
908.5889203167181
 31
0.0
  0
LINE
  5
35A
330
1F
100
AcDbEntity
  8
0-8
  6
Continuous
 62
     3
370
     9
100
AcDbLine
 10
-113.8488346235309
 20
777.1586010203708
 30
0.0
 11
-113.8488346235309
 21
801.158773521276
 31
0.0
  0
LINE
  5
35B
330
1F
100
AcDbEntity
  8
0-8
  6
Continuous
 62
     3
370
     9
100
AcDbLine
 10
-117.8489100337626
 20
777.1586010203708
 30
0.0
 11
-117.8489100337626
 21
801.158773521276
 31
0.0
  0
LINE
  5
35C
330
1F
100
AcDbEntity
  8
0-8
  6
Continuous
 62
     3
370
     9
100
AcDbLine
 10
-109.8487592132994
 20
777.1586010203708
 30
0.0
 11
-109.8487592132994
 21
801.158773521276
 31
0.0
  0
LINE
  5
35D
330
1F
100
AcDbEntity
  8
0-8
  6
Continuous
 62
     3
370
     9
100
AcDbLine
 10
-105.8492437240378
 20
777.1586010203708
 30
0.0
 11
-105.8492437240378
 21
801.158773521276
 31
0.0
  0
LINE
  5
35E
330
1F
100
AcDbEntity
  8
0-8
  6
Continuous
 62
     3
370
     9
100
AcDbLine
 10
-101.849168313806
 20
777.1586010203708
 30
0.0
 11
-101.849168313806
 21
801.158773521276
 31
0.0
  0
LINE
  5
35F
330
1F
100
AcDbEntity
  8
0-8
  6
Continuous
 62
     3
370
     9
100
AcDbLine
 10
-121.8489854439944
 20
793.1586227008125
 30
0.0
 11
-97.8490929035744
 21
793.1586227008125
 31
0.0
  0
LINE
  5
360
330
1F
100
AcDbEntity
  8
0-8
  6
Continuous
 62
     3
370
     9
100
AcDbLine
 10
-121.8489854439944
 20
797.1586981110443
 30
0.0
 11
-97.8490929035744
 21
797.1586981110443
 31
0.0
  0
LINE
  5
361
330
1F
100
AcDbEntity
  8
0-8
  6
Continuous
 62
     3
370
     9
100
AcDbLine
 10
-121.8489854439944
 20
789.1585472905808
 30
0.0
 11
-97.8490929035744
 21
789.1585472905808
 31
0.0
  0
LINE
  5
362
330
1F
100
AcDbEntity
  8
0-8
  6
Continuous
 62
     3
370
     9
100
AcDbLine
 10
-121.8489854439944
 20
785.1587518408343
 30
0.0
 11
-97.8490929035744
 21
785.1587518408343
 31
0.0
  0
LINE
  5
363
330
1F
100
AcDbEntity
  8
0-8
  6
Continuous
 62
     3
370
     9
100
AcDbLine
 10
-121.8489854439944
 20
781.1586764306026
 30
0.0
 11
-97.8490929035744
 21
781.1586764306026
 31
0.0
  0
LINE
  5
364
330
1F
100
AcDbEntity
  8
0-8
  6
JWW_CENTER1
 62
     7
370
     9
100
AcDbLine
 10
-129.279136716919
 20
789.1585472905808
 30
0.0
 11
-90.41894163064981
 21
789.1585472905808
 31
0.0
  0
LINE
  5
365
330
1F
100
AcDbEntity
  8
0-8
  6
JWW_CENTER1
 62
     7
370
     9
100
AcDbLine
 10
-109.8487592132994
 20
769.7284497474459
 30
0.0
 11
-109.8487592132994
 21
808.5889247942004
 31
0.0
  0
LINE
  5
366
330
1F
100
AcDbEntity
  8
0-8
  6
Continuous
 62
     3
370
     9
100
AcDbLine
 10
-113.8488346235309
 20
677.1586754879746
 30
0.0
 11
-113.8488346235309
 21
701.1588479888798
 31
0.0
  0
LINE
  5
367
330
1F
100
AcDbEntity
  8
0-8
  6
Continuous
 62
     3
370
     9
100
AcDbLine
 10
-117.8489100337626
 20
677.1586754879746
 30
0.0
 11
-117.8489100337626
 21
701.1588479888798
 31
0.0
  0
LINE
  5
368
330
1F
100
AcDbEntity
  8
0-8
  6
Continuous
 62
     3
370
     9
100
AcDbLine
 10
-109.8487592132994
 20
677.1586754879746
 30
0.0
 11
-109.8487592132994
 21
701.1588479888798
 31
0.0
  0
LINE
  5
369
330
1F
100
AcDbEntity
  8
0-8
  6
Continuous
 62
     3
370
     9
100
AcDbLine
 10
-105.8492437240378
 20
677.1586754879746
 30
0.0
 11
-105.8492437240378
 21
701.1588479888798
 31
0.0
  0
LINE
  5
36A
330
1F
100
AcDbEntity
  8
0-8
  6
Continuous
 62
     3
370
     9
100
AcDbLine
 10
-101.849168313806
 20
677.1586754879746
 30
0.0
 11
-101.849168313806
 21
701.1588479888798
 31
0.0
  0
LINE
  5
36B
330
1F
100
AcDbEntity
  8
0-8
  6
Continuous
 62
     3
370
     9
100
AcDbLine
 10
-121.8489854439944
 20
693.1586971684163
 30
0.0
 11
-97.8490929035744
 21
693.1586971684163
 31
0.0
  0
LINE
  5
36C
330
1F
100
AcDbEntity
  8
0-8
  6
Continuous
 62
     3
370
     9
100
AcDbLine
 10
-121.8489854439944
 20
697.158772578648
 30
0.0
 11
-97.8490929035744
 21
697.158772578648
 31
0.0
  0
LINE
  5
36D
330
1F
100
AcDbEntity
  8
0-8
  6
Continuous
 62
     3
370
     9
100
AcDbLine
 10
-121.8489854439944
 20
689.1586217581846
 30
0.0
 11
-97.8490929035744
 21
689.1586217581846
 31
0.0
  0
LINE
  5
36E
330
1F
100
AcDbEntity
  8
0-8
  6
Continuous
 62
     3
370
     9
100
AcDbLine
 10
-121.8489854439944
 20
685.158826308438
 30
0.0
 11
-97.8490929035744
 21
685.158826308438
 31
0.0
  0
LINE
  5
36F
330
1F
100
AcDbEntity
  8
0-8
  6
Continuous
 62
     3
370
     9
100
AcDbLine
 10
-121.8489854439944
 20
681.1587508982063
 30
0.0
 11
-97.8490929035744
 21
681.1587508982063
 31
0.0
  0
LINE
  5
370
330
1F
100
AcDbEntity
  8
0-8
  6
JWW_CENTER1
 62
     7
370
     9
100
AcDbLine
 10
-109.8487592132994
 20
669.7285242150497
 30
0.0
 11
-109.8487592132994
 21
708.5889992618041
 31
0.0
  0
LINE
  5
371
330
1F
100
AcDbEntity
  8
0-8
  6
Continuous
 62
     3
370
     9
100
AcDbLine
 10
-113.8488346235309
 20
577.1586099753358
 30
0.0
 11
-113.8488346235309
 21
601.158782476241
 31
0.0
  0
LINE
  5
372
330
1F
100
AcDbEntity
  8
0-8
  6
Continuous
 62
     3
370
     9
100
AcDbLine
 10
-117.8489100337626
 20
577.1586099753358
 30
0.0
 11
-117.8489100337626
 21
601.158782476241
 31
0.0
  0
LINE
  5
373
330
1F
100
AcDbEntity
  8
0-8
  6
Continuous
 62
     3
370
     9
100
AcDbLine
 10
-109.8487592132994
 20
577.1586099753358
 30
0.0
 11
-109.8487592132994
 21
601.158782476241
 31
0.0
  0
LINE
  5
374
330
1F
100
AcDbEntity
  8
0-8
  6
Continuous
 62
     3
370
     9
100
AcDbLine
 10
-105.8492437240378
 20
577.1586099753358
 30
0.0
 11
-105.8492437240378
 21
601.158782476241
 31
0.0
  0
LINE
  5
375
330
1F
100
AcDbEntity
  8
0-8
  6
Continuous
 62
     3
370
     9
100
AcDbLine
 10
-101.849168313806
 20
577.1586099753358
 30
0.0
 11
-101.849168313806
 21
601.158782476241
 31
0.0
  0
LINE
  5
376
330
1F
100
AcDbEntity
  8
0-8
  6
Continuous
 62
     3
370
     9
100
AcDbLine
 10
-121.8489854439944
 20
593.1586316557775
 30
0.0
 11
-97.8490929035744
 21
593.1586316557775
 31
0.0
  0
LINE
  5
377
330
1F
100
AcDbEntity
  8
0-8
  6
Continuous
 62
     3
370
     9
100
AcDbLine
 10
-121.8489854439944
 20
597.1587070660092
 30
0.0
 11
-97.8490929035744
 21
597.1587070660092
 31
0.0
  0
LINE
  5
378
330
1F
100
AcDbEntity
  8
0-8
  6
Continuous
 62
     3
370
     9
100
AcDbLine
 10
-121.8489854439944
 20
589.1585562455458
 30
0.0
 11
-97.8490929035744
 21
589.1585562455458
 31
0.0
  0
LINE
  5
379
330
1F
100
AcDbEntity
  8
0-8
  6
Continuous
 62
     3
370
     9
100
AcDbLine
 10
-121.8489854439944
 20
585.1587607957993
 30
0.0
 11
-97.8490929035744
 21
585.1587607957993
 31
0.0
  0
LINE
  5
37A
330
1F
100
AcDbEntity
  8
0-8
  6
Continuous
 62
     3
370
     9
100
AcDbLine
 10
-121.8489854439944
 20
581.1586853855675
 30
0.0
 11
-97.8490929035744
 21
581.1586853855675
 31
0.0
  0
LINE
  5
37B
330
1F
100
AcDbEntity
  8
0-8
  6
JWW_CENTER1
 62
     7
370
     9
100
AcDbLine
 10
-129.279136716919
 20
589.1585562455458
 30
0.0
 11
-90.41894163064981
 21
589.1585562455458
 31
0.0
  0
LINE
  5
37C
330
1F
100
AcDbEntity
  8
0-8
  6
JWW_CENTER1
 62
     7
370
     9
100
AcDbLine
 10
-109.8487592132994
 20
569.7284587024112
 30
0.0
 11
-109.8487592132994
 21
608.5889337491653
 31
0.0
  0
LINE
  5
37D
330
1F
100
AcDbEntity
  8
0-8
  6
Continuous
 62
     3
370
     9
100
AcDbLine
 10
-113.8488346235309
 20
477.1586144528183
 30
0.0
 11
-113.8488346235309
 21
501.1587869537232
 31
0.0
  0
LINE
  5
37E
330
1F
100
AcDbEntity
  8
0-8
  6
Continuous
 62
     3
370
     9
100
AcDbLine
 10
-117.8489100337626
 20
477.1586144528183
 30
0.0
 11
-117.8489100337626
 21
501.1587869537232
 31
0.0
  0
LINE
  5
37F
330
1F
100
AcDbEntity
  8
0-8
  6
Continuous
 62
     3
370
     9
100
AcDbLine
 10
-109.8487592132994
 20
477.1586144528183
 30
0.0
 11
-109.8487592132994
 21
501.1587869537232
 31
0.0
  0
LINE
  5
380
330
1F
100
AcDbEntity
  8
0-8
  6
Continuous
 62
     3
370
     9
100
AcDbLine
 10
-105.8492437240378
 20
477.1586144528183
 30
0.0
 11
-105.8492437240378
 21
501.1587869537232
 31
0.0
  0
LINE
  5
381
330
1F
100
AcDbEntity
  8
0-8
  6
Continuous
 62
     3
370
     9
100
AcDbLine
 10
-101.849168313806
 20
477.1586144528183
 30
0.0
 11
-101.849168313806
 21
501.1587869537232
 31
0.0
  0
LINE
  5
382
330
1F
100
AcDbEntity
  8
0-8
  6
Continuous
 62
     3
370
     9
100
AcDbLine
 10
-121.8489854439944
 20
493.15863613326
 30
0.0
 11
-97.8490929035744
 21
493.15863613326
 31
0.0
  0
LINE
  5
383
330
1F
100
AcDbEntity
  8
0-8
  6
Continuous
 62
     3
370
     9
100
AcDbLine
 10
-121.8489854439944
 20
497.1587115434917
 30
0.0
 11
-97.8490929035744
 21
497.1587115434917
 31
0.0
  0
LINE
  5
384
330
1F
100
AcDbEntity
  8
0-8
  6
Continuous
 62
     3
370
     9
100
AcDbLine
 10
-121.8489854439944
 20
489.1585607230283
 30
0.0
 11
-97.8490929035744
 21
489.1585607230283
 31
0.0
  0
LINE
  5
385
330
1F
100
AcDbEntity
  8
0-8
  6
Continuous
 62
     3
370
     9
100
AcDbLine
 10
-121.8489854439944
 20
485.1587652732817
 30
0.0
 11
-97.8490929035744
 21
485.1587652732817
 31
0.0
  0
LINE
  5
386
330
1F
100
AcDbEntity
  8
0-8
  6
Continuous
 62
     3
370
     9
100
AcDbLine
 10
-121.8489854439944
 20
481.15868986305
 30
0.0
 11
-97.8490929035744
 21
481.15868986305
 31
0.0
  0
LINE
  5
387
330
1F
100
AcDbEntity
  8
0-8
  6
JWW_CENTER1
 62
     7
370
     9
100
AcDbLine
 10
-129.279136716919
 20
489.1585607230283
 30
0.0
 11
-90.41894163064981
 21
489.1585607230283
 31
0.0
  0
LINE
  5
388
330
1F
100
AcDbEntity
  8
0-8
  6
JWW_CENTER1
 62
     7
370
     9
100
AcDbLine
 10
-109.8487592132994
 20
469.7284631798937
 30
0.0
 11
-109.8487592132994
 21
508.5889382266481
 31
0.0
  0
LINE
  5
389
330
1F
100
AcDbEntity
  8
0-8
  6
Continuous
 62
     3
370
     9
100
AcDbLine
 10
-113.8488346235309
 20
377.1586189303008
 30
0.0
 11
-113.8488346235309
 21
401.1587914312059
 31
0.0
  0
LINE
  5
38A
330
1F
100
AcDbEntity
  8
0-8
  6
Continuous
 62
     3
370
     9
100
AcDbLine
 10
-117.8489100337626
 20
377.1586189303008
 30
0.0
 11
-117.8489100337626
 21
401.1587914312059
 31
0.0
  0
LINE
  5
38B
330
1F
100
AcDbEntity
  8
0-8
  6
Continuous
 62
     3
370
     9
100
AcDbLine
 10
-109.8487592132994
 20
377.1586189303008
 30
0.0
 11
-109.8487592132994
 21
401.1587914312059
 31
0.0
  0
LINE
  5
38C
330
1F
100
AcDbEntity
  8
0-8
  6
Continuous
 62
     3
370
     9
100
AcDbLine
 10
-105.8492437240378
 20
377.1586189303008
 30
0.0
 11
-105.8492437240378
 21
401.1587914312059
 31
0.0
  0
LINE
  5
38D
330
1F
100
AcDbEntity
  8
0-8
  6
Continuous
 62
     3
370
     9
100
AcDbLine
 10
-101.849168313806
 20
377.1586189303008
 30
0.0
 11
-101.849168313806
 21
401.1587914312059
 31
0.0
  0
LINE
  5
38E
330
1F
100
AcDbEntity
  8
0-8
  6
Continuous
 62
     3
370
     9
100
AcDbLine
 10
-121.8489854439944
 20
393.1586406107425
 30
0.0
 11
-97.8490929035744
 21
393.1586406107425
 31
0.0
  0
LINE
  5
38F
330
1F
100
AcDbEntity
  8
0-8
  6
Continuous
 62
     3
370
     9
100
AcDbLine
 10
-121.8489854439944
 20
397.1587160209742
 30
0.0
 11
-97.8490929035744
 21
397.1587160209742
 31
0.0
  0
LINE
  5
390
330
1F
100
AcDbEntity
  8
0-8
  6
Continuous
 62
     3
370
     9
100
AcDbLine
 10
-121.8489854439944
 20
389.1585652005108
 30
0.0
 11
-97.8490929035744
 21
389.1585652005108
 31
0.0
  0
LINE
  5
391
330
1F
100
AcDbEntity
  8
0-8
  6
Continuous
 62
     3
370
     9
100
AcDbLine
 10
-121.8489854439944
 20
385.1587697507642
 30
0.0
 11
-97.8490929035744
 21
385.1587697507642
 31
0.0
  0
LINE
  5
392
330
1F
100
AcDbEntity
  8
0-8
  6
Continuous
 62
     3
370
     9
100
AcDbLine
 10
-121.8489854439944
 20
381.1586943405325
 30
0.0
 11
-97.8490929035744
 21
381.1586943405325
 31
0.0
  0
LINE
  5
393
330
1F
100
AcDbEntity
  8
0-8
  6
JWW_CENTER1
 62
     7
370
     9
100
AcDbLine
 10
-129.279136716919
 20
389.1585652005108
 30
0.0
 11
-90.41894163064981
 21
389.1585652005108
 31
0.0
  0
LINE
  5
394
330
1F
100
AcDbEntity
  8
0-8
  6
JWW_CENTER1
 62
     7
370
     9
100
AcDbLine
 10
-109.8487592132994
 20
369.7284676573761
 30
0.0
 11
-109.8487592132994
 21
408.5889427041306
 31
0.0
  0
LINE
  5
395
330
1F
100
AcDbEntity
  8
0-8
  6
JWW_CENTER1
 62
     7
370
     9
100
AcDbLine
 10
-109.8487592132994
 20
1069.728436314999
 30
0.0
 11
-109.8487592132994
 21
1108.588911361753
 31
0.0
  0
LINE
  5
396
330
1F
100
AcDbEntity
  8
0-8
  6
Continuous
 62
     3
370
     9
100
AcDbLine
 10
-113.8488346235309
 20
277.1586234077833
 30
0.0
 11
-113.8488346235309
 21
301.1587959086881
 31
0.0
  0
LINE
  5
397
330
1F
100
AcDbEntity
  8
0-8
  6
Continuous
 62
     3
370
     9
100
AcDbLine
 10
-117.8489100337626
 20
277.1586234077833
 30
0.0
 11
-117.8489100337626
 21
301.1587959086881
 31
0.0
  0
LINE
  5
398
330
1F
100
AcDbEntity
  8
0-8
  6
Continuous
 62
     3
370
     9
100
AcDbLine
 10
-109.8487592132994
 20
277.1586234077833
 30
0.0
 11
-109.8487592132994
 21
301.1587959086881
 31
0.0
  0
LINE
  5
399
330
1F
100
AcDbEntity
  8
0-8
  6
Continuous
 62
     3
370
     9
100
AcDbLine
 10
-105.8492437240378
 20
277.1586234077833
 30
0.0
 11
-105.8492437240378
 21
301.1587959086881
 31
0.0
  0
LINE
  5
39A
330
1F
100
AcDbEntity
  8
0-8
  6
Continuous
 62
     3
370
     9
100
AcDbLine
 10
-101.849168313806
 20
277.1586234077833
 30
0.0
 11
-101.849168313806
 21
301.1587959086881
 31
0.0
  0
LINE
  5
39B
330
1F
100
AcDbEntity
  8
0-8
  6
Continuous
 62
     3
370
     9
100
AcDbLine
 10
-121.8489854439944
 20
293.158645088225
 30
0.0
 11
-97.8490929035744
 21
293.158645088225
 31
0.0
  0
LINE
  5
39C
330
1F
100
AcDbEntity
  8
0-8
  6
Continuous
 62
     3
370
     9
100
AcDbLine
 10
-121.8489854439944
 20
297.1587204984567
 30
0.0
 11
-97.8490929035744
 21
297.1587204984567
 31
0.0
  0
LINE
  5
39D
330
1F
100
AcDbEntity
  8
0-8
  6
Continuous
 62
     3
370
     9
100
AcDbLine
 10
-121.8489854439944
 20
289.1585696779933
 30
0.0
 11
-97.8490929035744
 21
289.1585696779933
 31
0.0
  0
LINE
  5
39E
330
1F
100
AcDbEntity
  8
0-8
  6
Continuous
 62
     3
370
     9
100
AcDbLine
 10
-121.8489854439944
 20
285.1587742282467
 30
0.0
 11
-97.8490929035744
 21
285.1587742282467
 31
0.0
  0
LINE
  5
39F
330
1F
100
AcDbEntity
  8
0-8
  6
Continuous
 62
     3
370
     9
100
AcDbLine
 10
-121.8489854439944
 20
281.158698818015
 30
0.0
 11
-97.8490929035744
 21
281.158698818015
 31
0.0
  0
LINE
  5
3A0
330
1F
100
AcDbEntity
  8
0-8
  6
JWW_CENTER1
 62
     7
370
     9
100
AcDbLine
 10
-129.279136716919
 20
289.1585696779933
 30
0.0
 11
-90.41894163064981
 21
289.1585696779933
 31
0.0
  0
LINE
  5
3A1
330
1F
100
AcDbEntity
  8
0-8
  6
JWW_CENTER1
 62
     7
370
     9
100
AcDbLine
 10
-109.8487592132994
 20
269.7284721348586
 30
0.0
 11
-109.8487592132994
 21
308.5889471816131
 31
0.0
  0
CIRCLE
  5
3A2
330
1F
100
AcDbEntity
  8
0-8
  6
Continuous
 62
     3
370
     9
100
AcDbCircle
 10
-909.8488983687425
 20
1089.158533858133
 30
0.0
 40
14.99999845350111
  0
ARC
  5
3A3
330
1F
100
AcDbEntity
  8
0-8
  6
Continuous
 62
     3
370
     9
100
AcDbCircle
 10
-795.848848880778
 20
1039.158431111692
 30
0.0
 40
5.999999381400443
100
AcDbArc
 50
270.0
 51
90.0
  0
ARC
  5
3A4
330
1F
100
AcDbEntity
  8
0-8
  6
Continuous
 62
     3
370
     9
100
AcDbCircle
 10
-863.8489760177154
 20
1039.158431111692
 30
0.0
 40
5.999999381400443
100
AcDbArc
 50
90.0
 51
270.0
  0
CIRCLE
  5
3A5
330
1F
100
AcDbEntity
  8
0-8
  6
Continuous
 62
     3
370
     9
100
AcDbCircle
 10
-909.8488983687425
 20
989.1584683454943
 30
0.0
 40
14.99999845350111
  0
CIRCLE
  5
3A6
330
1F
100
AcDbEntity
  8
0-8
  6
Continuous
 62
     3
370
     9
100
AcDbCircle
 10
-909.8488983687425
 20
889.158542813098
 30
0.0
 40
14.99999845350111
  0
CIRCLE
  5
3A7
330
1F
100
AcDbEntity
  8
0-8
  6
Continuous
 62
     3
370
     9
100
AcDbCircle
 10
-909.8488983687425
 20
789.1585472905808
 30
0.0
 40
14.99999845350111
  0
CIRCLE
  5
3A8
330
1F
100
AcDbEntity
  8
0-8
  6
Continuous
 62
     3
370
     9
100
AcDbCircle
 10
-909.8488983687425
 20
689.1586217581846
 30
0.0
 40
14.99999845350111
  0
CIRCLE
  5
3A9
330
1F
100
AcDbEntity
  8
0-8
  6
Continuous
 62
     3
370
     9
100
AcDbCircle
 10
-909.8488983687425
 20
589.1585562455458
 30
0.0
 40
14.99999845350111
  0
CIRCLE
  5
3AA
330
1F
100
AcDbEntity
  8
0-8
  6
Continuous
 62
     3
370
     9
100
AcDbCircle
 10
-909.8488983687425
 20
489.1585607230283
 30
0.0
 40
14.99999845350111
  0
CIRCLE
  5
3AB
330
1F
100
AcDbEntity
  8
0-8
  6
Continuous
 62
     3
370
     9
100
AcDbCircle
 10
-909.8488983687425
 20
389.1585652005108
 30
0.0
 40
14.99999845350111
  0
ARC
  5
3AC
330
1F
100
AcDbEntity
  8
0-8
  6
Continuous
 62
     3
370
     9
100
AcDbCircle
 10
-795.848848880778
 20
939.1583655990536
 30
0.0
 40
5.999999381400443
100
AcDbArc
 50
270.0
 51
90.0
  0
ARC
  5
3AD
330
1F
100
AcDbEntity
  8
0-8
  6
Continuous
 62
     3
370
     9
100
AcDbCircle
 10
-863.8489760177154
 20
939.1583655990536
 30
0.0
 40
5.999999381400443
100
AcDbArc
 50
90.0
 51
270.0
  0
ARC
  5
3AE
330
1F
100
AcDbEntity
  8
0-8
  6
Continuous
 62
     3
370
     9
100
AcDbCircle
 10
-795.848848880778
 20
839.1585100567789
 30
0.0
 40
5.999999381400443
100
AcDbArc
 50
270.0
 51
90.0
  0
ARC
  5
3AF
330
1F
100
AcDbEntity
  8
0-8
  6
Continuous
 62
     3
370
     9
100
AcDbCircle
 10
-863.8489760177154
 20
839.1585100567789
 30
0.0
 40
5.999999381400443
100
AcDbArc
 50
90.0
 51
270.0
  0
ARC
  5
3B0
330
1F
100
AcDbEntity
  8
0-8
  6
Continuous
 62
     3
370
     9
100
AcDbCircle
 10
-795.848848880778
 20
739.1584445441401
 30
0.0
 40
5.999999381400443
100
AcDbArc
 50
270.0
 51
90.0
  0
ARC
  5
3B1
330
1F
100
AcDbEntity
  8
0-8
  6
Continuous
 62
     3
370
     9
100
AcDbCircle
 10
-863.8489760177154
 20
739.1584445441401
 30
0.0
 40
5.999999381400443
100
AcDbArc
 50
90.0
 51
270.0
  0
ARC
  5
3B2
330
1F
100
AcDbEntity
  8
0-8
  6
Continuous
 62
     3
370
     9
100
AcDbCircle
 10
-795.848848880778
 20
639.1585190117439
 30
0.0
 40
5.999999381400443
100
AcDbArc
 50
270.0
 51
90.0
  0
ARC
  5
3B3
330
1F
100
AcDbEntity
  8
0-8
  6
Continuous
 62
     3
370
     9
100
AcDbCircle
 10
-863.8489760177154
 20
639.1585190117439
 30
0.0
 40
5.999999381400443
100
AcDbArc
 50
90.0
 51
270.0
  0
ARC
  5
3B4
330
1F
100
AcDbEntity
  8
0-8
  6
Continuous
 62
     3
370
     9
100
AcDbCircle
 10
-795.848848880778
 20
539.1584534991051
 30
0.0
 40
5.999999381400443
100
AcDbArc
 50
270.0
 51
90.0
  0
ARC
  5
3B5
330
1F
100
AcDbEntity
  8
0-8
  6
Continuous
 62
     3
370
     9
100
AcDbCircle
 10
-863.8489760177154
 20
539.1584534991051
 30
0.0
 40
5.999999381400443
100
AcDbArc
 50
90.0
 51
270.0
  0
ARC
  5
3B6
330
1F
100
AcDbEntity
  8
0-8
  6
Continuous
 62
     3
370
     9
100
AcDbCircle
 10
-795.848848880778
 20
439.1584579765876
 30
0.0
 40
5.999999381400443
100
AcDbArc
 50
270.0
 51
90.0
  0
ARC
  5
3B7
330
1F
100
AcDbEntity
  8
0-8
  6
Continuous
 62
     3
370
     9
100
AcDbCircle
 10
-863.8489760177154
 20
439.1584579765876
 30
0.0
 40
5.999999381400443
100
AcDbArc
 50
90.0
 51
270.0
  0
CIRCLE
  5
3B8
330
1F
100
AcDbEntity
  8
0-8
  6
Continuous
 62
     3
370
     9
100
AcDbCircle
 10
-909.8488983687425
 20
289.1585696779933
 30
0.0
 40
14.99999845350111
  0
ARC
  5
3B9
330
1F
100
AcDbEntity
  8
0-8
  6
Continuous
 62
     3
370
     9
100
AcDbCircle
 10
-795.848848880778
 20
339.1584624540701
 30
0.0
 40
5.999999381400443
100
AcDbArc
 50
270.0
 51
90.0
  0
ARC
  5
3BA
330
1F
100
AcDbEntity
  8
0-8
  6
Continuous
 62
     3
370
     9
100
AcDbCircle
 10
-863.8489760177154
 20
339.1584624540701
 30
0.0
 40
5.999999381400443
100
AcDbArc
 50
90.0
 51
270.0
  0
CIRCLE
  5
3BB
330
1F
100
AcDbEntity
  8
0-8
  6
Continuous
 62
     3
370
     9
100
AcDbCircle
 10
-749.8488915346901
 20
1089.158533858133
 30
0.0
 40
14.99999845350111
  0
ARC
  5
3BC
330
1F
100
AcDbEntity
  8
0-8
  6
Continuous
 62
     3
370
     9
100
AcDbCircle
 10
-635.8488770417863
 20
1039.158431111692
 30
0.0
 40
5.999999381400443
100
AcDbArc
 50
270.0
 51
90.0
  0
ARC
  5
3BD
330
1F
100
AcDbEntity
  8
0-8
  6
Continuous
 62
     3
370
     9
100
AcDbCircle
 10
-703.848969183663
 20
1039.158431111692
 30
0.0
 40
5.999999381400443
100
AcDbArc
 50
90.0
 51
270.0
  0
CIRCLE
  5
3BE
330
1F
100
AcDbEntity
  8
0-8
  6
Continuous
 62
     3
370
     9
100
AcDbCircle
 10
-749.8488915346901
 20
989.1584683454943
 30
0.0
 40
14.99999845350111
  0
CIRCLE
  5
3BF
330
1F
100
AcDbEntity
  8
0-8
  6
Continuous
 62
     3
370
     9
100
AcDbCircle
 10
-749.8488915346901
 20
889.158542813098
 30
0.0
 40
14.99999845350111
  0
CIRCLE
  5
3C0
330
1F
100
AcDbEntity
  8
0-8
  6
Continuous
 62
     3
370
     9
100
AcDbCircle
 10
-749.8488915346901
 20
789.1585472905808
 30
0.0
 40
14.99999845350111
  0
CIRCLE
  5
3C1
330
1F
100
AcDbEntity
  8
0-8
  6
Continuous
 62
     3
370
     9
100
AcDbCircle
 10
-749.8488915346901
 20
689.1586217581846
 30
0.0
 40
14.99999845350111
  0
CIRCLE
  5
3C2
330
1F
100
AcDbEntity
  8
0-8
  6
Continuous
 62
     3
370
     9
100
AcDbCircle
 10
-749.8488915346901
 20
589.1585562455458
 30
0.0
 40
14.99999845350111
  0
CIRCLE
  5
3C3
330
1F
100
AcDbEntity
  8
0-8
  6
Continuous
 62
     3
370
     9
100
AcDbCircle
 10
-749.8488915346901
 20
489.1585607230283
 30
0.0
 40
14.99999845350111
  0
CIRCLE
  5
3C4
330
1F
100
AcDbEntity
  8
0-8
  6
Continuous
 62
     3
370
     9
100
AcDbCircle
 10
-749.8488915346901
 20
389.1585652005108
 30
0.0
 40
14.99999845350111
  0
ARC
  5
3C5
330
1F
100
AcDbEntity
  8
0-8
  6
Continuous
 62
     3
370
     9
100
AcDbCircle
 10
-635.8488770417863
 20
939.1583655990536
 30
0.0
 40
5.999999381400443
100
AcDbArc
 50
270.0
 51
90.0
  0
ARC
  5
3C6
330
1F
100
AcDbEntity
  8
0-8
  6
Continuous
 62
     3
370
     9
100
AcDbCircle
 10
-703.848969183663
 20
939.1583655990536
 30
0.0
 40
5.999999381400443
100
AcDbArc
 50
90.0
 51
270.0
  0
ARC
  5
3C7
330
1F
100
AcDbEntity
  8
0-8
  6
Continuous
 62
     3
370
     9
100
AcDbCircle
 10
-635.8488770417863
 20
839.1585100567789
 30
0.0
 40
5.999999381400443
100
AcDbArc
 50
270.0
 51
90.0
  0
ARC
  5
3C8
330
1F
100
AcDbEntity
  8
0-8
  6
Continuous
 62
     3
370
     9
100
AcDbCircle
 10
-703.848969183663
 20
839.1585100567789
 30
0.0
 40
5.999999381400443
100
AcDbArc
 50
90.0
 51
270.0
  0
ARC
  5
3C9
330
1F
100
AcDbEntity
  8
0-8
  6
Continuous
 62
     3
370
     9
100
AcDbCircle
 10
-635.8488770417863
 20
739.1584445441401
 30
0.0
 40
5.999999381400443
100
AcDbArc
 50
270.0
 51
90.0
  0
ARC
  5
3CA
330
1F
100
AcDbEntity
  8
0-8
  6
Continuous
 62
     3
370
     9
100
AcDbCircle
 10
-703.848969183663
 20
739.1584445441401
 30
0.0
 40
5.999999381400443
100
AcDbArc
 50
90.0
 51
270.0
  0
ARC
  5
3CB
330
1F
100
AcDbEntity
  8
0-8
  6
Continuous
 62
     3
370
     9
100
AcDbCircle
 10
-635.8488770417863
 20
639.1585190117439
 30
0.0
 40
5.999999381400443
100
AcDbArc
 50
270.0
 51
90.0
  0
ARC
  5
3CC
330
1F
100
AcDbEntity
  8
0-8
  6
Continuous
 62
     3
370
     9
100
AcDbCircle
 10
-703.848969183663
 20
639.1585190117439
 30
0.0
 40
5.999999381400443
100
AcDbArc
 50
90.0
 51
270.0
  0
ARC
  5
3CD
330
1F
100
AcDbEntity
  8
0-8
  6
Continuous
 62
     3
370
     9
100
AcDbCircle
 10
-635.8488770417863
 20
539.1584534991051
 30
0.0
 40
5.999999381400443
100
AcDbArc
 50
270.0
 51
90.0
  0
ARC
  5
3CE
330
1F
100
AcDbEntity
  8
0-8
  6
Continuous
 62
     3
370
     9
100
AcDbCircle
 10
-703.848969183663
 20
539.1584534991051
 30
0.0
 40
5.999999381400443
100
AcDbArc
 50
90.0
 51
270.0
  0
ARC
  5
3CF
330
1F
100
AcDbEntity
  8
0-8
  6
Continuous
 62
     3
370
     9
100
AcDbCircle
 10
-635.8488770417863
 20
439.1584579765876
 30
0.0
 40
5.999999381400443
100
AcDbArc
 50
270.0
 51
90.0
  0
ARC
  5
3D0
330
1F
100
AcDbEntity
  8
0-8
  6
Continuous
 62
     3
370
     9
100
AcDbCircle
 10
-703.848969183663
 20
439.1584579765876
 30
0.0
 40
5.999999381400443
100
AcDbArc
 50
90.0
 51
270.0
  0
CIRCLE
  5
3D1
330
1F
100
AcDbEntity
  8
0-8
  6
Continuous
 62
     3
370
     9
100
AcDbCircle
 10
-749.8488915346901
 20
289.1585696779933
 30
0.0
 40
14.99999845350111
  0
ARC
  5
3D2
330
1F
100
AcDbEntity
  8
0-8
  6
Continuous
 62
     3
370
     9
100
AcDbCircle
 10
-635.8488770417863
 20
339.1584624540701
 30
0.0
 40
5.999999381400443
100
AcDbArc
 50
270.0
 51
90.0
  0
ARC
  5
3D3
330
1F
100
AcDbEntity
  8
0-8
  6
Continuous
 62
     3
370
     9
100
AcDbCircle
 10
-703.848969183663
 20
339.1584624540701
 30
0.0
 40
5.999999381400443
100
AcDbArc
 50
90.0
 51
270.0
  0
CIRCLE
  5
3D4
330
1F
100
AcDbEntity
  8
0-8
  6
Continuous
 62
     3
370
     9
100
AcDbCircle
 10
-589.8488497055773
 20
1089.158533858133
 30
0.0
 40
14.99999845350111
  0
ARC
  5
3D5
330
1F
100
AcDbEntity
  8
0-8
  6
Continuous
 62
     3
370
     9
100
AcDbCircle
 10
-475.8488002176128
 20
1039.158431111692
 30
0.0
 40
5.999999381400443
100
AcDbArc
 50
270.0
 51
90.0
  0
ARC
  5
3D6
330
1F
100
AcDbEntity
  8
0-8
  6
Continuous
 62
     3
370
     9
100
AcDbCircle
 10
-543.8489623496109
 20
1039.158431111692
 30
0.0
 40
5.999999381400443
100
AcDbArc
 50
90.0
 51
270.0
  0
CIRCLE
  5
3D7
330
1F
100
AcDbEntity
  8
0-8
  6
Continuous
 62
     3
370
     9
100
AcDbCircle
 10
-589.8488497055773
 20
989.1584683454943
 30
0.0
 40
14.99999845350111
  0
CIRCLE
  5
3D8
330
1F
100
AcDbEntity
  8
0-8
  6
Continuous
 62
     3
370
     9
100
AcDbCircle
 10
-589.8488497055773
 20
889.158542813098
 30
0.0
 40
14.99999845350111
  0
CIRCLE
  5
3D9
330
1F
100
AcDbEntity
  8
0-8
  6
Continuous
 62
     3
370
     9
100
AcDbCircle
 10
-589.8488497055773
 20
789.1585472905808
 30
0.0
 40
14.99999845350111
  0
CIRCLE
  5
3DA
330
1F
100
AcDbEntity
  8
0-8
  6
Continuous
 62
     3
370
     9
100
AcDbCircle
 10
-589.8488497055773
 20
689.1586217581846
 30
0.0
 40
14.99999845350111
  0
CIRCLE
  5
3DB
330
1F
100
AcDbEntity
  8
0-8
  6
Continuous
 62
     3
370
     9
100
AcDbCircle
 10
-589.8488497055773
 20
589.1585562455458
 30
0.0
 40
14.99999845350111
  0
CIRCLE
  5
3DC
330
1F
100
AcDbEntity
  8
0-8
  6
Continuous
 62
     3
370
     9
100
AcDbCircle
 10
-589.8488497055773
 20
489.1585607230283
 30
0.0
 40
14.99999845350111
  0
CIRCLE
  5
3DD
330
1F
100
AcDbEntity
  8
0-8
  6
Continuous
 62
     3
370
     9
100
AcDbCircle
 10
-589.8488497055773
 20
389.1585652005108
 30
0.0
 40
14.99999845350111
  0
ARC
  5
3DE
330
1F
100
AcDbEntity
  8
0-8
  6
Continuous
 62
     3
370
     9
100
AcDbCircle
 10
-475.8488002176128
 20
939.1583655990536
 30
0.0
 40
5.999999381400443
100
AcDbArc
 50
270.0
 51
90.0
  0
ARC
  5
3DF
330
1F
100
AcDbEntity
  8
0-8
  6
Continuous
 62
     3
370
     9
100
AcDbCircle
 10
-543.8489623496109
 20
939.1583655990536
 30
0.0
 40
5.999999381400443
100
AcDbArc
 50
90.0
 51
270.0
  0
ARC
  5
3E0
330
1F
100
AcDbEntity
  8
0-8
  6
Continuous
 62
     3
370
     9
100
AcDbCircle
 10
-475.8488002176128
 20
839.1585100567789
 30
0.0
 40
5.999999381400443
100
AcDbArc
 50
270.0
 51
90.0
  0
ARC
  5
3E1
330
1F
100
AcDbEntity
  8
0-8
  6
Continuous
 62
     3
370
     9
100
AcDbCircle
 10
-543.8489623496109
 20
839.1585100567789
 30
0.0
 40
5.999999381400443
100
AcDbArc
 50
90.0
 51
270.0
  0
ARC
  5
3E2
330
1F
100
AcDbEntity
  8
0-8
  6
Continuous
 62
     3
370
     9
100
AcDbCircle
 10
-475.8488002176128
 20
739.1584445441401
 30
0.0
 40
5.999999381400443
100
AcDbArc
 50
270.0
 51
90.0
  0
ARC
  5
3E3
330
1F
100
AcDbEntity
  8
0-8
  6
Continuous
 62
     3
370
     9
100
AcDbCircle
 10
-543.8489623496109
 20
739.1584445441401
 30
0.0
 40
5.999999381400443
100
AcDbArc
 50
90.0
 51
270.0
  0
ARC
  5
3E4
330
1F
100
AcDbEntity
  8
0-8
  6
Continuous
 62
     3
370
     9
100
AcDbCircle
 10
-475.8488002176128
 20
639.1585190117439
 30
0.0
 40
5.999999381400443
100
AcDbArc
 50
270.0
 51
90.0
  0
ARC
  5
3E5
330
1F
100
AcDbEntity
  8
0-8
  6
Continuous
 62
     3
370
     9
100
AcDbCircle
 10
-543.8489623496109
 20
639.1585190117439
 30
0.0
 40
5.999999381400443
100
AcDbArc
 50
90.0
 51
270.0
  0
ARC
  5
3E6
330
1F
100
AcDbEntity
  8
0-8
  6
Continuous
 62
     3
370
     9
100
AcDbCircle
 10
-475.8488002176128
 20
539.1584534991051
 30
0.0
 40
5.999999381400443
100
AcDbArc
 50
270.0
 51
90.0
  0
ARC
  5
3E7
330
1F
100
AcDbEntity
  8
0-8
  6
Continuous
 62
     3
370
     9
100
AcDbCircle
 10
-543.8489623496109
 20
539.1584534991051
 30
0.0
 40
5.999999381400443
100
AcDbArc
 50
90.0
 51
270.0
  0
ARC
  5
3E8
330
1F
100
AcDbEntity
  8
0-8
  6
Continuous
 62
     3
370
     9
100
AcDbCircle
 10
-475.8488002176128
 20
439.1584579765876
 30
0.0
 40
5.999999381400443
100
AcDbArc
 50
270.0
 51
90.0
  0
ARC
  5
3E9
330
1F
100
AcDbEntity
  8
0-8
  6
Continuous
 62
     3
370
     9
100
AcDbCircle
 10
-543.8489623496109
 20
439.1584579765876
 30
0.0
 40
5.999999381400443
100
AcDbArc
 50
90.0
 51
270.0
  0
CIRCLE
  5
3EA
330
1F
100
AcDbEntity
  8
0-8
  6
Continuous
 62
     3
370
     9
100
AcDbCircle
 10
-589.8488497055773
 20
289.1585696779933
 30
0.0
 40
14.99999845350111
  0
ARC
  5
3EB
330
1F
100
AcDbEntity
  8
0-8
  6
Continuous
 62
     3
370
     9
100
AcDbCircle
 10
-475.8488002176128
 20
339.1584624540701
 30
0.0
 40
5.999999381400443
100
AcDbArc
 50
270.0
 51
90.0
  0
ARC
  5
3EC
330
1F
100
AcDbEntity
  8
0-8
  6
Continuous
 62
     3
370
     9
100
AcDbCircle
 10
-543.8489623496109
 20
339.1584624540701
 30
0.0
 40
5.999999381400443
100
AcDbArc
 50
90.0
 51
270.0
  0
CIRCLE
  5
3ED
330
1F
100
AcDbEntity
  8
0-8
  6
Continuous
 62
     3
370
     9
100
AcDbCircle
 10
-429.8489128616464
 20
1089.158533858133
 30
0.0
 40
14.99999845350111
  0
ARC
  5
3EE
330
1F
100
AcDbEntity
  8
0-8
  6
Continuous
 62
     3
370
     9
100
AcDbCircle
 10
-315.8488633736818
 20
1039.158431111692
 30
0.0
 40
5.999999381400443
100
AcDbArc
 50
270.0
 51
90.0
  0
ARC
  5
3EF
330
1F
100
AcDbEntity
  8
0-8
  6
Continuous
 62
     3
370
     9
100
AcDbCircle
 10
-383.8489555155587
 20
1039.158431111692
 30
0.0
 40
5.999999381400443
100
AcDbArc
 50
90.0
 51
270.0
  0
CIRCLE
  5
3F0
330
1F
100
AcDbEntity
  8
0-8
  6
Continuous
 62
     3
370
     9
100
AcDbCircle
 10
-429.8489128616464
 20
989.1584683454943
 30
0.0
 40
14.99999845350111
  0
CIRCLE
  5
3F1
330
1F
100
AcDbEntity
  8
0-8
  6
Continuous
 62
     3
370
     9
100
AcDbCircle
 10
-429.8489128616464
 20
889.158542813098
 30
0.0
 40
14.99999845350111
  0
CIRCLE
  5
3F2
330
1F
100
AcDbEntity
  8
0-8
  6
Continuous
 62
     3
370
     9
100
AcDbCircle
 10
-429.8489128616464
 20
789.1585472905808
 30
0.0
 40
14.99999845350111
  0
CIRCLE
  5
3F3
330
1F
100
AcDbEntity
  8
0-8
  6
Continuous
 62
     3
370
     9
100
AcDbCircle
 10
-429.8489128616464
 20
689.1586217581846
 30
0.0
 40
14.99999845350111
  0
CIRCLE
  5
3F4
330
1F
100
AcDbEntity
  8
0-8
  6
Continuous
 62
     3
370
     9
100
AcDbCircle
 10
-429.8489128616464
 20
589.1585562455458
 30
0.0
 40
14.99999845350111
  0
CIRCLE
  5
3F5
330
1F
100
AcDbEntity
  8
0-8
  6
Continuous
 62
     3
370
     9
100
AcDbCircle
 10
-429.8489128616464
 20
489.1585607230283
 30
0.0
 40
14.99999845350111
  0
CIRCLE
  5
3F6
330
1F
100
AcDbEntity
  8
0-8
  6
Continuous
 62
     3
370
     9
100
AcDbCircle
 10
-429.8489128616464
 20
389.1585652005108
 30
0.0
 40
14.99999845350111
  0
ARC
  5
3F7
330
1F
100
AcDbEntity
  8
0-8
  6
Continuous
 62
     3
370
     9
100
AcDbCircle
 10
-315.8488633736818
 20
939.1583655990536
 30
0.0
 40
5.999999381400443
100
AcDbArc
 50
270.0
 51
90.0
  0
ARC
  5
3F8
330
1F
100
AcDbEntity
  8
0-8
  6
Continuous
 62
     3
370
     9
100
AcDbCircle
 10
-383.8489555155587
 20
939.1583655990536
 30
0.0
 40
5.999999381400443
100
AcDbArc
 50
90.0
 51
270.0
  0
ARC
  5
3F9
330
1F
100
AcDbEntity
  8
0-8
  6
Continuous
 62
     3
370
     9
100
AcDbCircle
 10
-315.8488633736818
 20
839.1585100567789
 30
0.0
 40
5.999999381400443
100
AcDbArc
 50
270.0
 51
90.0
  0
ARC
  5
3FA
330
1F
100
AcDbEntity
  8
0-8
  6
Continuous
 62
     3
370
     9
100
AcDbCircle
 10
-383.8489555155587
 20
839.1585100567789
 30
0.0
 40
5.999999381400443
100
AcDbArc
 50
90.0
 51
270.0
  0
ARC
  5
3FB
330
1F
100
AcDbEntity
  8
0-8
  6
Continuous
 62
     3
370
     9
100
AcDbCircle
 10
-315.8488633736818
 20
739.1584445441401
 30
0.0
 40
5.999999381400443
100
AcDbArc
 50
270.0
 51
90.0
  0
ARC
  5
3FC
330
1F
100
AcDbEntity
  8
0-8
  6
Continuous
 62
     3
370
     9
100
AcDbCircle
 10
-383.8489555155587
 20
739.1584445441401
 30
0.0
 40
5.999999381400443
100
AcDbArc
 50
90.0
 51
270.0
  0
ARC
  5
3FD
330
1F
100
AcDbEntity
  8
0-8
  6
Continuous
 62
     3
370
     9
100
AcDbCircle
 10
-315.8488633736818
 20
639.1585190117439
 30
0.0
 40
5.999999381400443
100
AcDbArc
 50
270.0
 51
90.0
  0
ARC
  5
3FE
330
1F
100
AcDbEntity
  8
0-8
  6
Continuous
 62
     3
370
     9
100
AcDbCircle
 10
-383.8489555155587
 20
639.1585190117439
 30
0.0
 40
5.999999381400443
100
AcDbArc
 50
90.0
 51
270.0
  0
ARC
  5
3FF
330
1F
100
AcDbEntity
  8
0-8
  6
Continuous
 62
     3
370
     9
100
AcDbCircle
 10
-315.8488633736818
 20
539.1584534991051
 30
0.0
 40
5.999999381400443
100
AcDbArc
 50
270.0
 51
90.0
  0
ARC
  5
400
330
1F
100
AcDbEntity
  8
0-8
  6
Continuous
 62
     3
370
     9
100
AcDbCircle
 10
-383.8489555155587
 20
539.1584534991051
 30
0.0
 40
5.999999381400443
100
AcDbArc
 50
90.0
 51
270.0
  0
ARC
  5
401
330
1F
100
AcDbEntity
  8
0-8
  6
Continuous
 62
     3
370
     9
100
AcDbCircle
 10
-315.8488633736818
 20
439.1584579765876
 30
0.0
 40
5.999999381400443
100
AcDbArc
 50
270.0
 51
90.0
  0
ARC
  5
402
330
1F
100
AcDbEntity
  8
0-8
  6
Continuous
 62
     3
370
     9
100
AcDbCircle
 10
-383.8489555155587
 20
439.1584579765876
 30
0.0
 40
5.999999381400443
100
AcDbArc
 50
90.0
 51
270.0
  0
CIRCLE
  5
403
330
1F
100
AcDbEntity
  8
0-8
  6
Continuous
 62
     3
370
     9
100
AcDbCircle
 10
-429.8489128616464
 20
289.1585696779933
 30
0.0
 40
14.99999845350111
  0
ARC
  5
404
330
1F
100
AcDbEntity
  8
0-8
  6
Continuous
 62
     3
370
     9
100
AcDbCircle
 10
-315.8488633736818
 20
339.1584624540701
 30
0.0
 40
5.999999381400443
100
AcDbArc
 50
270.0
 51
90.0
  0
ARC
  5
405
330
1F
100
AcDbEntity
  8
0-8
  6
Continuous
 62
     3
370
     9
100
AcDbCircle
 10
-383.8489555155587
 20
339.1584624540701
 30
0.0
 40
5.999999381400443
100
AcDbArc
 50
90.0
 51
270.0
  0
CIRCLE
  5
406
330
1F
100
AcDbEntity
  8
0-8
  6
Continuous
 62
     3
370
     9
100
AcDbCircle
 10
-269.8488360374728
 20
1089.158533858133
 30
0.0
 40
14.99999845350111
  0
ARC
  5
407
330
1F
100
AcDbEntity
  8
0-8
  6
Continuous
 62
     3
370
     9
100
AcDbCircle
 10
-155.8487865495082
 20
1039.158431111692
 30
0.0
 40
5.999999381400443
100
AcDbArc
 50
270.0
 51
90.0
  0
ARC
  5
408
330
1F
100
AcDbEntity
  8
0-8
  6
Continuous
 62
     3
370
     9
100
AcDbCircle
 10
-223.8489486815064
 20
1039.158431111692
 30
0.0
 40
5.999999381400443
100
AcDbArc
 50
90.0
 51
270.0
  0
CIRCLE
  5
409
330
1F
100
AcDbEntity
  8
0-8
  6
Continuous
 62
     3
370
     9
100
AcDbCircle
 10
-269.8488360374728
 20
989.1584683454943
 30
0.0
 40
14.99999845350111
  0
CIRCLE
  5
40A
330
1F
100
AcDbEntity
  8
0-8
  6
Continuous
 62
     3
370
     9
100
AcDbCircle
 10
-269.8488360374728
 20
889.158542813098
 30
0.0
 40
14.99999845350111
  0
CIRCLE
  5
40B
330
1F
100
AcDbEntity
  8
0-8
  6
Continuous
 62
     3
370
     9
100
AcDbCircle
 10
-269.8488360374728
 20
789.1585472905808
 30
0.0
 40
14.99999845350111
  0
CIRCLE
  5
40C
330
1F
100
AcDbEntity
  8
0-8
  6
Continuous
 62
     3
370
     9
100
AcDbCircle
 10
-269.8488360374728
 20
689.1586217581846
 30
0.0
 40
14.99999845350111
  0
CIRCLE
  5
40D
330
1F
100
AcDbEntity
  8
0-8
  6
Continuous
 62
     3
370
     9
100
AcDbCircle
 10
-269.8488360374728
 20
589.1585562455458
 30
0.0
 40
14.99999845350111
  0
CIRCLE
  5
40E
330
1F
100
AcDbEntity
  8
0-8
  6
Continuous
 62
     3
370
     9
100
AcDbCircle
 10
-269.8488360374728
 20
489.1585607230283
 30
0.0
 40
14.99999845350111
  0
CIRCLE
  5
40F
330
1F
100
AcDbEntity
  8
0-8
  6
Continuous
 62
     3
370
     9
100
AcDbCircle
 10
-269.8488360374728
 20
389.1585652005108
 30
0.0
 40
14.99999845350111
  0
ARC
  5
410
330
1F
100
AcDbEntity
  8
0-8
  6
Continuous
 62
     3
370
     9
100
AcDbCircle
 10
-155.8487865495082
 20
939.1583655990536
 30
0.0
 40
5.999999381400443
100
AcDbArc
 50
270.0
 51
90.0
  0
ARC
  5
411
330
1F
100
AcDbEntity
  8
0-8
  6
Continuous
 62
     3
370
     9
100
AcDbCircle
 10
-223.8489486815064
 20
939.1583655990536
 30
0.0
 40
5.999999381400443
100
AcDbArc
 50
90.0
 51
270.0
  0
ARC
  5
412
330
1F
100
AcDbEntity
  8
0-8
  6
Continuous
 62
     3
370
     9
100
AcDbCircle
 10
-155.8487865495082
 20
839.1585100567789
 30
0.0
 40
5.999999381400443
100
AcDbArc
 50
270.0
 51
90.0
  0
ARC
  5
413
330
1F
100
AcDbEntity
  8
0-8
  6
Continuous
 62
     3
370
     9
100
AcDbCircle
 10
-223.8489486815064
 20
839.1585100567789
 30
0.0
 40
5.999999381400443
100
AcDbArc
 50
90.0
 51
270.0
  0
ARC
  5
414
330
1F
100
AcDbEntity
  8
0-8
  6
Continuous
 62
     3
370
     9
100
AcDbCircle
 10
-155.8487865495082
 20
739.1584445441401
 30
0.0
 40
5.999999381400443
100
AcDbArc
 50
270.0
 51
90.0
  0
ARC
  5
415
330
1F
100
AcDbEntity
  8
0-8
  6
Continuous
 62
     3
370
     9
100
AcDbCircle
 10
-223.8489486815064
 20
739.1584445441401
 30
0.0
 40
5.999999381400443
100
AcDbArc
 50
90.0
 51
270.0
  0
ARC
  5
416
330
1F
100
AcDbEntity
  8
0-8
  6
Continuous
 62
     3
370
     9
100
AcDbCircle
 10
-155.8487865495082
 20
639.1585190117439
 30
0.0
 40
5.999999381400443
100
AcDbArc
 50
270.0
 51
90.0
  0
ARC
  5
417
330
1F
100
AcDbEntity
  8
0-8
  6
Continuous
 62
     3
370
     9
100
AcDbCircle
 10
-223.8489486815064
 20
639.1585190117439
 30
0.0
 40
5.999999381400443
100
AcDbArc
 50
90.0
 51
270.0
  0
ARC
  5
418
330
1F
100
AcDbEntity
  8
0-8
  6
Continuous
 62
     3
370
     9
100
AcDbCircle
 10
-155.8487865495082
 20
539.1584534991051
 30
0.0
 40
5.999999381400443
100
AcDbArc
 50
270.0
 51
90.0
  0
ARC
  5
419
330
1F
100
AcDbEntity
  8
0-8
  6
Continuous
 62
     3
370
     9
100
AcDbCircle
 10
-223.8489486815064
 20
539.1584534991051
 30
0.0
 40
5.999999381400443
100
AcDbArc
 50
90.0
 51
270.0
  0
ARC
  5
41A
330
1F
100
AcDbEntity
  8
0-8
  6
Continuous
 62
     3
370
     9
100
AcDbCircle
 10
-155.8487865495082
 20
439.1584579765876
 30
0.0
 40
5.999999381400443
100
AcDbArc
 50
270.0
 51
90.0
  0
ARC
  5
41B
330
1F
100
AcDbEntity
  8
0-8
  6
Continuous
 62
     3
370
     9
100
AcDbCircle
 10
-223.8489486815064
 20
439.1584579765876
 30
0.0
 40
5.999999381400443
100
AcDbArc
 50
90.0
 51
270.0
  0
CIRCLE
  5
41C
330
1F
100
AcDbEntity
  8
0-8
  6
Continuous
 62
     3
370
     9
100
AcDbCircle
 10
-269.8488360374728
 20
289.1585696779933
 30
0.0
 40
14.99999845350111
  0
ARC
  5
41D
330
1F
100
AcDbEntity
  8
0-8
  6
Continuous
 62
     3
370
     9
100
AcDbCircle
 10
-155.8487865495082
 20
339.1584624540701
 30
0.0
 40
5.999999381400443
100
AcDbArc
 50
270.0
 51
90.0
  0
ARC
  5
41E
330
1F
100
AcDbEntity
  8
0-8
  6
Continuous
 62
     3
370
     9
100
AcDbCircle
 10
-223.8489486815064
 20
339.1584624540701
 30
0.0
 40
5.999999381400443
100
AcDbArc
 50
90.0
 51
270.0
  0
CIRCLE
  5
41F
330
1F
100
AcDbEntity
  8
0-8
  6
Continuous
 62
     3
370
     9
100
AcDbCircle
 10
-509.8486013231268
 20
279.1587311030204
 30
0.0
 40
14.99999845350111
  0
CIRCLE
  5
420
330
1F
100
AcDbEntity
  8
0-8
  6
Continuous
 62
     3
370
     9
100
AcDbCircle
 10
-109.8487592132994
 20
1089.158533858133
 30
0.0
 40
14.99999845350111
  0
CIRCLE
  5
421
330
1F
100
AcDbEntity
  8
0-8
  6
Continuous
 62
     3
370
     9
100
AcDbCircle
 10
-109.8487592132994
 20
989.1584683454943
 30
0.0
 40
14.99999845350111
  0
CIRCLE
  5
422
330
1F
100
AcDbEntity
  8
0-8
  6
Continuous
 62
     3
370
     9
100
AcDbCircle
 10
-109.8487592132994
 20
889.158542813098
 30
0.0
 40
14.99999845350111
  0
CIRCLE
  5
423
330
1F
100
AcDbEntity
  8
0-8
  6
Continuous
 62
     3
370
     9
100
AcDbCircle
 10
-109.8487592132994
 20
789.1585472905808
 30
0.0
 40
14.99999845350111
  0
CIRCLE
  5
424
330
1F
100
AcDbEntity
  8
0-8
  6
Continuous
 62
     3
370
     9
100
AcDbCircle
 10
-109.8487592132994
 20
689.1586217581846
 30
0.0
 40
14.99999845350111
  0
CIRCLE
  5
425
330
1F
100
AcDbEntity
  8
0-8
  6
Continuous
 62
     3
370
     9
100
AcDbCircle
 10
-109.8487592132994
 20
589.1585562455458
 30
0.0
 40
14.99999845350111
  0
CIRCLE
  5
426
330
1F
100
AcDbEntity
  8
0-8
  6
Continuous
 62
     3
370
     9
100
AcDbCircle
 10
-109.8487592132994
 20
489.1585607230283
 30
0.0
 40
14.99999845350111
  0
CIRCLE
  5
427
330
1F
100
AcDbEntity
  8
0-8
  6
Continuous
 62
     3
370
     9
100
AcDbCircle
 10
-109.8487592132994
 20
389.1585652005108
 30
0.0
 40
14.99999845350111
  0
CIRCLE
  5
428
330
1F
100
AcDbEntity
  8
0-8
  6
Continuous
 62
     3
370
     9
100
AcDbCircle
 10
-109.8487592132994
 20
289.1585696779933
 30
0.0
 40
14.99999845350111
  0
LINE
  5
429
330
1F
100
AcDbEntity
  8
0-0
  6
Continuous
 62
     3
370
     9
100
AcDbLine
 10
637.9293141733949
 20
1139.158496624332
 30
0.0
 11
637.9293141733949
 21
1133.158383508984
 31
0.0
  0
LINE
  5
42A
330
1F
100
AcDbEntity
  8
0-0
  6
Continuous
 62
     3
370
     9
100
AcDbLine
 10
637.9293141733949
 20
245.1588250123245
 30
0.0
 11
637.9293141733949
 21
239.1587118969773
 31
0.0
  0
LINE
  5
42B
330
1F
100
AcDbEntity
  8
0-A
  6
Continuous
 62
     4
370
     9
100
AcDbLine
 10
663.9293843991732
 20
1069.15843676746
 30
0.0
 11
613.9294216329749
 21
1069.15843676746
 31
0.0
  0
LINE
  5
42C
330
1F
100
AcDbEntity
  8
0-A
  6
Continuous
 62
     4
370
     9
100
AcDbLine
 10
663.9293843991732
 20
309.158736758788
 30
0.0
 11
613.9294216329749
 21
309.158736758788
 31
0.0
  0
LINE
  5
42D
330
1F
100
AcDbEntity
  8
0-A
  6
Continuous
 62
     4
370
     9
100
AcDbLine
 10
613.9294216329749
 20
1069.15843676746
 30
0.0
 11
613.9294216329749
 21
359.1587695151071
 31
0.0
  0
LINE
  5
42E
330
1F
100
AcDbEntity
  8
0-0
  6
JWW_CENTER1
 62
     7
370
     9
100
AcDbLine
 10
594.061745851725
 20
689.1586917483056
 30
0.0
 11
679.3416290412762
 21
689.1586917483056
 31
0.0
  0
LINE
  5
42F
330
1F
100
AcDbEntity
  8
0-0
  6
Continuous
 62
     3
370
     9
100
AcDbLine
 10
614.5296569128978
 20
239.1587818870983
 30
0.0
 11
637.9293141733949
 21
239.1587818870983
 31
0.0
  0
LINE
  5
430
330
1F
100
AcDbEntity
  8
0-0
  6
Continuous
 62
     3
370
     9
100
AcDbLine
 10
607.9295884781126
 20
1132.558428189546
 30
0.0
 11
607.9295884781126
 21
245.7587803317622
 31
0.0
  0
LINE
  5
431
330
1F
100
AcDbEntity
  8
0-0
  6
Continuous
 62
     3
370
     9
100
AcDbLine
 10
614.5296569128978
 20
1139.158496624332
 30
0.0
 11
637.9293141733949
 21
1139.158496624332
 31
0.0
  0
LINE
  5
432
330
1F
100
AcDbEntity
  8
0-0
  6
Continuous
 62
     3
370
     9
100
AcDbLine
 10
614.5293769524128
 20
1133.158383508984
 30
0.0
 11
637.9293141733949
 21
1133.158383508984
 31
0.0
  0
LINE
  5
433
330
1F
100
AcDbEntity
  8
0-0
  6
Continuous
 62
     3
370
     9
100
AcDbLine
 10
614.5293769524128
 20
245.1588250123245
 30
0.0
 11
637.9293141733949
 21
245.1588250123245
 31
0.0
  0
LINE
  5
434
330
1F
100
AcDbEntity
  8
0-0
  6
Continuous
 62
     3
370
     9
100
AcDbLine
 10
613.9294216329749
 20
245.7588503218835
 30
0.0
 11
613.9294216329749
 21
1132.558428189546
 31
0.0
  0
LINE
  5
435
330
1F
100
AcDbEntity
  8
0-A
  6
JWW_DASHED2
 62
     4
370
     9
100
AcDbLine
 10
619.9293947680801
 20
1069.15843676746
 30
0.0
 11
619.9293947680801
 21
309.158736758788
 31
0.0
  0
LINE
  5
436
330
1F
100
AcDbEntity
  8
0-A
  6
Continuous
 62
     4
370
     9
100
AcDbLine
 10
663.9293843991732
 20
1069.15843676746
 30
0.0
 11
663.9293843991732
 21
309.158736758788
 31
0.0
  0
ARC
  5
437
330
1F
100
AcDbEntity
  8
0-0
  6
Continuous
 62
     3
370
     9
100
AcDbCircle
 10
614.5296569128978
 20
245.7587803317622
 30
0.0
 40
6.600000085057439
100
AcDbArc
 50
180.0
 51
270.0
  0
ARC
  5
438
330
1F
100
AcDbEntity
  8
0-0
  6
Continuous
 62
     3
370
     9
100
AcDbCircle
 10
614.5296569128978
 20
1132.558428189546
 30
0.0
 40
6.600000085057439
100
AcDbArc
 50
90.0
 51
180.0
  0
ARC
  5
439
330
1F
100
AcDbEntity
  8
0-0
  6
Continuous
 62
     3
370
     9
100
AcDbCircle
 10
614.5293769524128
 20
1132.558428189546
 30
0.0
 40
0.6000000201597177
100
AcDbArc
 50
90.0
 51
180.0
  0
ARC
  5
43A
330
1F
100
AcDbEntity
  8
0-0
  6
Continuous
 62
     3
370
     9
100
AcDbCircle
 10
614.5293769524128
 20
245.7588503218835
 30
0.0
 40
0.6000000201597177
100
AcDbArc
 50
180.0
 51
270.0
  0
LINE
  5
43B
330
1F
100
AcDbEntity
  8
0-4
  6
Continuous
 62
     7
370
     9
100
AcDbLine
 10
-829.8488949517163
 20
1195.332677435393
 30
0.0
 11
-189.8488676155075
 21
1195.332677435393
 31
0.0
  0
LINE
  5
43C
330
1F
100
AcDbEntity
  8
0-4
  6
Continuous
 62
     7
370
     9
100
AcDbLine
 10
-829.8488949517163
 20
1195.332677435393
 30
0.0
 11
-800.1055491105019
 21
1199.248463201995
 31
0.0
  0
LINE
  5
43D
330
1F
100
AcDbEntity
  8
0-4
  6
Continuous
 62
     7
370
     9
100
AcDbLine
 10
-829.8488949517163
 20
1195.332677435393
 30
0.0
 11
-800.1055491105019
 21
1191.416891668792
 31
0.0
  0
LINE
  5
43E
330
1F
100
AcDbEntity
  8
0-4
  6
Continuous
 62
     7
370
     9
100
AcDbLine
 10
-640.1055422764498
 20
1191.416891668792
 30
0.0
 11
-699.5922339588785
 21
1199.248463201995
 31
0.0
  0
LINE
  5
43F
330
1F
100
AcDbEntity
  8
0-4
  6
Continuous
 62
     7
370
     9
100
AcDbLine
 10
-640.1055422764498
 20
1199.248463201995
 30
0.0
 11
-699.5922339588785
 21
1191.416891668792
 31
0.0
  0
LINE
  5
440
330
1F
100
AcDbEntity
  8
0-4
  6
Continuous
 62
     7
370
     9
100
AcDbLine
 10
-829.8488949517163
 20
1198.332677435394
 30
0.0
 11
-829.8488949517163
 21
1098.654609351096
 31
0.0
  0
LINE
  5
441
330
1F
100
AcDbEntity
  8
0-4
  6
Continuous
 62
     7
370
     9
100
AcDbLine
 10
-669.848888117664
 20
1198.332677435394
 30
0.0
 11
-669.848888117664
 21
1098.654609351096
 31
0.0
  0
TEXT
  5
442
330
1F
100
AcDbEntity
  8
0-4
  6
Continuous
 62
     2
370
   211
100
AcDbText
 10
-771.0988915346902
 20
1205.972677435394
 30
0.0
 40
30.48
  1
80
 41
1.0625
  7
ＭＳ ゴシック
100
AcDbText
  0
LINE
  5
443
330
1F
100
AcDbEntity
  8
0-4
  6
Continuous
 62
     7
370
     9
100
AcDbLine
 10
-480.1055354423975
 20
1191.416891668792
 30
0.0
 11
-539.5922271248261
 21
1199.248463201995
 31
0.0
  0
LINE
  5
444
330
1F
100
AcDbEntity
  8
0-4
  6
Continuous
 62
     7
370
     9
100
AcDbLine
 10
-480.1055354423975
 20
1199.248463201995
 30
0.0
 11
-539.5922271248261
 21
1191.416891668792
 31
0.0
  0
LINE
  5
445
330
1F
100
AcDbEntity
  8
0-4
  6
Continuous
 62
     7
370
     9
100
AcDbLine
 10
-509.8488812836118
 20
1198.332677435394
 30
0.0
 11
-509.8488812836118
 21
1098.654609351096
 31
0.0
  0
TEXT
  5
446
330
1F
100
AcDbEntity
  8
0-4
  6
Continuous
 62
     2
370
   211
100
AcDbText
 10
-611.0988847006379
 20
1205.972677435394
 30
0.0
 40
30.48
  1
80
 41
1.0625
  7
ＭＳ ゴシック
100
AcDbText
  0
LINE
  5
447
330
1F
100
AcDbEntity
  8
0-4
  6
Continuous
 62
     7
370
     9
100
AcDbLine
 10
-320.1055286083453
 20
1191.416891668792
 30
0.0
 11
-379.5922202907739
 21
1199.248463201995
 31
0.0
  0
LINE
  5
448
330
1F
100
AcDbEntity
  8
0-4
  6
Continuous
 62
     7
370
     9
100
AcDbLine
 10
-320.1055286083453
 20
1199.248463201995
 30
0.0
 11
-379.5922202907739
 21
1191.416891668792
 31
0.0
  0
LINE
  5
449
330
1F
100
AcDbEntity
  8
0-4
  6
Continuous
 62
     7
370
     9
100
AcDbLine
 10
-349.8488744495596
 20
1198.332677435394
 30
0.0
 11
-349.8488744495596
 21
1098.654609351096
 31
0.0
  0
TEXT
  5
44A
330
1F
100
AcDbEntity
  8
0-4
  6
Continuous
 62
     2
370
   211
100
AcDbText
 10
-451.0988778665857
 20
1205.972677435394
 30
0.0
 40
30.48
  1
80
 41
1.0625
  7
ＭＳ ゴシック
100
AcDbText
  0
LINE
  5
44B
330
1F
100
AcDbEntity
  8
0-4
  6
Continuous
 62
     7
370
     9
100
AcDbLine
 10
-189.8488676155075
 20
1195.332677435393
 30
0.0
 11
-219.5922134567218
 21
1199.248463201995
 31
0.0
  0
LINE
  5
44C
330
1F
100
AcDbEntity
  8
0-4
  6
Continuous
 62
     7
370
     9
100
AcDbLine
 10
-189.8488676155075
 20
1195.332677435393
 30
0.0
 11
-219.5922134567218
 21
1191.416891668792
 31
0.0
  0
LINE
  5
44D
330
1F
100
AcDbEntity
  8
0-4
  6
Continuous
 62
     7
370
     9
100
AcDbLine
 10
-189.8488676155075
 20
1198.332677435394
 30
0.0
 11
-189.8488676155075
 21
1098.654609351096
 31
0.0
  0
TEXT
  5
44E
330
1F
100
AcDbEntity
  8
0-4
  6
Continuous
 62
     2
370
   211
100
AcDbText
 10
-291.0988710325335
 20
1205.972677435394
 30
0.0
 40
30.48
  1
80
 41
1.0625
  7
ＭＳ ゴシック
100
AcDbText
  0
LINE
  5
44F
330
1F
100
AcDbEntity
  8
0-4
  6
Continuous
 62
     7
370
     9
100
AcDbLine
 10
-959.8488961300012
 20
1261.121987762625
 30
0.0
 11
-59.84893642734392
 21
1261.121987762625
 31
0.0
  0
LINE
  5
450
330
1F
100
AcDbEntity
  8
0-4
  6
Continuous
 62
     7
370
     9
100
AcDbLine
 10
-959.8488961300012
 20
1261.121987762625
 30
0.0
 11
-930.1055502887868
 21
1265.037773529227
 31
0.0
  0
LINE
  5
451
330
1F
100
AcDbEntity
  8
0-4
  6
Continuous
 62
     7
370
     9
100
AcDbLine
 10
-959.8488961300012
 20
1261.121987762625
 30
0.0
 11
-930.1055502887868
 21
1257.206201996024
 31
0.0
  0
LINE
  5
452
330
1F
100
AcDbEntity
  8
0-4
  6
Continuous
 62
     7
370
     9
100
AcDbLine
 10
-59.84893642734392
 20
1261.121987762625
 30
0.0
 11
-89.59228226855822
 21
1265.037773529227
 31
0.0
  0
LINE
  5
453
330
1F
100
AcDbEntity
  8
0-4
  6
Continuous
 62
     7
370
     9
100
AcDbLine
 10
-59.84893642734392
 20
1261.121987762625
 30
0.0
 11
-89.59228226855822
 21
1257.206201996024
 31
0.0
  0
LINE
  5
454
330
1F
100
AcDbEntity
  8
0-4
  6
Continuous
 62
     7
370
     9
100
AcDbLine
 10
-959.8488961300012
 20
1264.121987762625
 30
0.0
 11
-959.8488961300012
 21
1156.832666488339
 31
0.0
  0
LINE
  5
455
330
1F
100
AcDbEntity
  8
0-4
  6
Continuous
 62
     7
370
     9
100
AcDbLine
 10
-59.84893642734392
 20
1264.121987762625
 30
0.0
 11
-59.84893642734392
 21
1156.832666488339
 31
0.0
  0
TEXT
  5
456
330
1F
100
AcDbEntity
  8
0-4
  6
Continuous
 62
     2
370
   211
100
AcDbText
 10
-542.3489162786725
 20
1271.761987762625
 30
0.0
 40
30.48
  1
450
 41
1.083333333333333
  7
ＭＳ ゴシック
100
AcDbText
  0
LINE
  5
457
330
1F
100
AcDbEntity
  8
0-4
  6
Continuous
 62
     7
370
     9
100
AcDbLine
 10
687.929314173395
 20
1261.121987762625
 30
0.0
 11
557.9296568278403
 21
1261.121987762625
 31
0.0
  0
LINE
  5
458
330
1F
100
AcDbEntity
  8
0-4
  6
Continuous
 62
     7
370
     9
100
AcDbLine
 10
607.9296568278403
 20
1261.121987762625
 30
0.0
 11
578.186310986626
 21
1257.206201996024
 31
0.0
  0
LINE
  5
459
330
1F
100
AcDbEntity
  8
0-4
  6
Continuous
 62
     7
370
     9
100
AcDbLine
 10
607.9296568278403
 20
1261.121987762625
 30
0.0
 11
578.186310986626
 21
1265.037773529227
 31
0.0
  0
LINE
  5
45A
330
1F
100
AcDbEntity
  8
0-4
  6
Continuous
 62
     7
370
     9
100
AcDbLine
 10
637.929314173395
 20
1261.121987762625
 30
0.0
 11
667.6726600146094
 21
1257.206201996024
 31
0.0
  0
LINE
  5
45B
330
1F
100
AcDbEntity
  8
0-4
  6
Continuous
 62
     7
370
     9
100
AcDbLine
 10
637.929314173395
 20
1261.121987762625
 30
0.0
 11
667.6726600146094
 21
1265.037773529227
 31
0.0
  0
LINE
  5
45C
330
1F
100
AcDbEntity
  8
0-4
  6
Continuous
 62
     7
370
     9
100
AcDbLine
 10
607.9296568278403
 20
1264.121987762625
 30
0.0
 11
607.9296568278403
 21
1156.832666488339
 31
0.0
  0
LINE
  5
45D
330
1F
100
AcDbEntity
  8
0-4
  6
Continuous
 62
     7
370
     9
100
AcDbLine
 10
637.929314173395
 20
1264.121987762625
 30
0.0
 11
637.929314173395
 21
1156.832666488339
 31
0.0
  0
TEXT
  5
45E
330
1F
100
AcDbEntity
  8
0-4
  6
Continuous
 62
     2
370
   211
100
AcDbText
 10
601.6794855006176
 20
1271.761987762625
 30
0.0
 40
30.48
  1
15
 41
1.0625
  7
ＭＳ ゴシック
100
AcDbText
  0
LINE
  5
45F
330
1F
100
AcDbEntity
  8
0-4
  6
Continuous
 62
     7
370
     9
100
AcDbLine
 10
-909.8488983687425
 20
171.6689391619803
 30
0.0
 11
-109.8487592132994
 21
171.6689391619803
 31
0.0
  0
LINE
  5
460
330
1F
100
AcDbEntity
  8
0-4
  6
Continuous
 62
     7
370
     9
100
AcDbLine
 10
-909.8488983687425
 20
171.6689391619803
 30
0.0
 11
-880.1055525275283
 21
175.5847249285819
 31
0.0
  0
LINE
  5
461
330
1F
100
AcDbEntity
  8
0-4
  6
Continuous
 62
     7
370
     9
100
AcDbLine
 10
-909.8488983687425
 20
171.6689391619803
 30
0.0
 11
-880.1055525275283
 21
167.7531533953788
 31
0.0
  0
LINE
  5
462
330
1F
100
AcDbEntity
  8
0-4
  6
Continuous
 62
     7
370
     9
100
AcDbLine
 10
-720.1055456934757
 20
167.7531533953788
 30
0.0
 11
-779.5922373759045
 21
175.5847249285819
 31
0.0
  0
LINE
  5
463
330
1F
100
AcDbEntity
  8
0-4
  6
Continuous
 62
     7
370
     9
100
AcDbLine
 10
-720.1055456934757
 20
175.5847249285819
 30
0.0
 11
-779.5922373759045
 21
167.7531533953788
 31
0.0
  0
LINE
  5
464
330
1F
100
AcDbEntity
  8
0-4
  6
Continuous
 62
     7
370
     9
100
AcDbLine
 10
-909.8488983687425
 20
168.6689391619802
 30
0.0
 11
-909.8488983687425
 21
260.6570584857695
 31
0.0
  0
LINE
  5
465
330
1F
100
AcDbEntity
  8
0-4
  6
Continuous
 62
     7
370
     9
100
AcDbLine
 10
-749.8488915346901
 20
168.6689391619802
 30
0.0
 11
-749.8488915346901
 21
260.6570584857695
 31
0.0
  0
TEXT
  5
466
330
1F
100
AcDbEntity
  8
0-4
  6
Continuous
 62
     2
370
   211
100
AcDbText
 10
-851.0988949517164
 20
182.3089391619803
 30
0.0
 40
30.48
  1
80
 41
1.0625
  7
ＭＳ ゴシック
100
AcDbText
  0
LINE
  5
467
330
1F
100
AcDbEntity
  8
0-4
  6
Continuous
 62
     7
370
     9
100
AcDbLine
 10
-560.105503864363
 20
167.7531533953788
 30
0.0
 11
-619.5921955467917
 21
175.5847249285819
 31
0.0
  0
LINE
  5
468
330
1F
100
AcDbEntity
  8
0-4
  6
Continuous
 62
     7
370
     9
100
AcDbLine
 10
-560.105503864363
 20
175.5847249285819
 30
0.0
 11
-619.5921955467917
 21
167.7531533953788
 31
0.0
  0
LINE
  5
469
330
1F
100
AcDbEntity
  8
0-4
  6
Continuous
 62
     7
370
     9
100
AcDbLine
 10
-589.8488497055773
 20
168.6689391619802
 30
0.0
 11
-589.8488497055773
 21
260.6570584857695
 31
0.0
  0
TEXT
  5
46A
330
1F
100
AcDbEntity
  8
0-4
  6
Continuous
 62
     2
370
   211
100
AcDbText
 10
-691.0988706201338
 20
182.3089391619803
 30
0.0
 40
30.48
  1
80
 41
1.0625
  7
ＭＳ ゴシック
100
AcDbText
  0
LINE
  5
46B
330
1F
100
AcDbEntity
  8
0-4
  6
Continuous
 62
     7
370
     9
100
AcDbLine
 10
-400.1055670204321
 20
167.7531533953788
 30
0.0
 11
-459.5922587028607
 21
175.5847249285819
 31
0.0
  0
LINE
  5
46C
330
1F
100
AcDbEntity
  8
0-4
  6
Continuous
 62
     7
370
     9
100
AcDbLine
 10
-400.1055670204321
 20
175.5847249285819
 30
0.0
 11
-459.5922587028607
 21
167.7531533953788
 31
0.0
  0
LINE
  5
46D
330
1F
100
AcDbEntity
  8
0-4
  6
Continuous
 62
     7
370
     9
100
AcDbLine
 10
-429.8489128616464
 20
168.6689391619802
 30
0.0
 11
-429.8489128616464
 21
260.6570584857695
 31
0.0
  0
TEXT
  5
46E
330
1F
100
AcDbEntity
  8
0-4
  6
Continuous
 62
     2
370
   211
100
AcDbText
 10
-531.0988812836118
 20
182.3089391619803
 30
0.0
 40
30.48
  1
80
 41
1.0625
  7
ＭＳ ゴシック
100
AcDbText
  0
LINE
  5
46F
330
1F
100
AcDbEntity
  8
0-4
  6
Continuous
 62
     7
370
     9
100
AcDbLine
 10
-240.1054901962585
 20
167.7531533953788
 30
0.0
 11
-299.5921818786871
 21
175.5847249285819
 31
0.0
  0
LINE
  5
470
330
1F
100
AcDbEntity
  8
0-4
  6
Continuous
 62
     7
370
     9
100
AcDbLine
 10
-240.1054901962585
 20
175.5847249285819
 30
0.0
 11
-299.5921818786871
 21
167.7531533953788
 31
0.0
  0
LINE
  5
471
330
1F
100
AcDbEntity
  8
0-4
  6
Continuous
 62
     7
370
     9
100
AcDbLine
 10
-269.8488360374728
 20
168.6689391619802
 30
0.0
 11
-269.8488360374728
 21
260.6570584857695
 31
0.0
  0
TEXT
  5
472
330
1F
100
AcDbEntity
  8
0-4
  6
Continuous
 62
     2
370
   211
100
AcDbText
 10
-371.0988744495596
 20
182.3089391619803
 30
0.0
 40
30.48
  1
80
 41
1.0625
  7
ＭＳ ゴシック
100
AcDbText
  0
LINE
  5
473
330
1F
100
AcDbEntity
  8
0-4
  6
Continuous
 62
     7
370
     9
100
AcDbLine
 10
-109.8487592132994
 20
171.6689391619803
 30
0.0
 11
-139.5921050545138
 21
175.5847249285819
 31
0.0
  0
LINE
  5
474
330
1F
100
AcDbEntity
  8
0-4
  6
Continuous
 62
     7
370
     9
100
AcDbLine
 10
-109.8487592132994
 20
171.6689391619803
 30
0.0
 11
-139.5921050545138
 21
167.7531533953788
 31
0.0
  0
LINE
  5
475
330
1F
100
AcDbEntity
  8
0-4
  6
Continuous
 62
     7
370
     9
100
AcDbLine
 10
-109.8487592132994
 20
168.6689391619802
 30
0.0
 11
-109.8487592132994
 21
260.6570584857695
 31
0.0
  0
TEXT
  5
476
330
1F
100
AcDbEntity
  8
0-4
  6
Continuous
 62
     2
370
   211
100
AcDbText
 10
-211.0987976253861
 20
182.3089391619803
 30
0.0
 40
30.48
  1
80
 41
1.0625
  7
ＭＳ ゴシック
100
AcDbText
  0
LINE
  5
477
330
1F
100
AcDbEntity
  8
0-4
  6
Continuous
 62
     7
370
     9
100
AcDbLine
 10
-1017.247914870093
 20
339.1584624540701
 30
0.0
 11
-1017.247914870093
 21
1039.158431111692
 31
0.0
  0
LINE
  5
478
330
1F
100
AcDbEntity
  8
0-4
  6
Continuous
 62
     7
370
     9
100
AcDbLine
 10
-1017.247914870093
 20
339.1584624540701
 30
0.0
 11
-1021.163700636695
 21
368.9018082952845
 31
0.0
  0
LINE
  5
479
330
1F
100
AcDbEntity
  8
0-4
  6
Continuous
 62
     7
370
     9
100
AcDbLine
 10
-1017.247914870093
 20
339.1584624540701
 30
0.0
 11
-1013.332129103492
 21
368.9018082952845
 31
0.0
  0
LINE
  5
47A
330
1F
100
AcDbEntity
  8
0-4
  6
Continuous
 62
     7
370
     9
100
AcDbLine
 10
-1013.332129103492
 20
468.901803817802
 30
0.0
 11
-1021.163700636695
 21
409.4151121353732
 31
0.0
  0
LINE
  5
47B
330
1F
100
AcDbEntity
  8
0-4
  6
Continuous
 62
     7
370
     9
100
AcDbLine
 10
-1021.163700636695
 20
468.901803817802
 30
0.0
 11
-1013.332129103492
 21
409.4151121353732
 31
0.0
  0
LINE
  5
47C
330
1F
100
AcDbEntity
  8
0-4
  6
Continuous
 62
     7
370
     9
100
AcDbLine
 10
-1020.247914870093
 20
339.1584624540701
 30
0.0
 11
-920.314427749537
 21
339.1584624540701
 31
0.0
  0
LINE
  5
47D
330
1F
100
AcDbEntity
  8
0-4
  6
Continuous
 62
     7
370
     9
100
AcDbLine
 10
-1020.247914870093
 20
439.1584579765876
 30
0.0
 11
-920.314427749537
 21
439.1584579765876
 31
0.0
  0
TEXT
  5
47E
330
1F
100
AcDbEntity
  8
0-4
  6
Continuous
 62
     2
370
   211
100
AcDbText
 10
-1027.887914870093
 20
367.908460215329
 30
0.0
 40
30.48
  1
50
 50
90.0
 41
1.0625
  7
ＭＳ ゴシック
100
AcDbText
  0
LINE
  5
47F
330
1F
100
AcDbEntity
  8
0-4
  6
Continuous
 62
     7
370
     9
100
AcDbLine
 10
-1013.332129103492
 20
568.9017993403195
 30
0.0
 11
-1021.163700636695
 21
509.4151076578908
 31
0.0
  0
LINE
  5
480
330
1F
100
AcDbEntity
  8
0-4
  6
Continuous
 62
     7
370
     9
100
AcDbLine
 10
-1021.163700636695
 20
568.9017993403195
 30
0.0
 11
-1013.332129103492
 21
509.4151076578908
 31
0.0
  0
LINE
  5
481
330
1F
100
AcDbEntity
  8
0-4
  6
Continuous
 62
     7
370
     9
100
AcDbLine
 10
-1020.247914870093
 20
539.1584534991051
 30
0.0
 11
-920.314427749537
 21
539.1584534991051
 31
0.0
  0
TEXT
  5
482
330
1F
100
AcDbEntity
  8
0-4
  6
Continuous
 62
     2
370
   211
100
AcDbText
 10
-1027.887914870093
 20
467.9084557378462
 30
0.0
 40
30.48
  1
50
 50
90.0
 41
1.0625
  7
ＭＳ ゴシック
100
AcDbText
  0
LINE
  5
483
330
1F
100
AcDbEntity
  8
0-4
  6
Continuous
 62
     7
370
     9
100
AcDbLine
 10
-1013.332129103492
 20
668.9018648529583
 30
0.0
 11
-1021.163700636695
 21
609.4151731705296
 31
0.0
  0
LINE
  5
484
330
1F
100
AcDbEntity
  8
0-4
  6
Continuous
 62
     7
370
     9
100
AcDbLine
 10
-1021.163700636695
 20
668.9018648529583
 30
0.0
 11
-1013.332129103492
 21
609.4151731705296
 31
0.0
  0
LINE
  5
485
330
1F
100
AcDbEntity
  8
0-4
  6
Continuous
 62
     7
370
     9
100
AcDbLine
 10
-1020.247914870093
 20
639.1585190117439
 30
0.0
 11
-920.314427749537
 21
639.1585190117439
 31
0.0
  0
TEXT
  5
486
330
1F
100
AcDbEntity
  8
0-4
  6
Continuous
 62
     2
370
   211
100
AcDbText
 10
-1027.887914870093
 20
567.9084862554246
 30
0.0
 40
30.48
  1
50
 50
90.0
 41
1.062500000000007
  7
ＭＳ ゴシック
100
AcDbText
  0
LINE
  5
487
330
1F
100
AcDbEntity
  8
0-4
  6
Continuous
 62
     7
370
     9
100
AcDbLine
 10
-1013.332129103492
 20
768.9017903853545
 30
0.0
 11
-1021.163700636695
 21
709.4150987029258
 31
0.0
  0
LINE
  5
488
330
1F
100
AcDbEntity
  8
0-4
  6
Continuous
 62
     7
370
     9
100
AcDbLine
 10
-1021.163700636695
 20
768.9017903853545
 30
0.0
 11
-1013.332129103492
 21
709.4150987029258
 31
0.0
  0
LINE
  5
489
330
1F
100
AcDbEntity
  8
0-4
  6
Continuous
 62
     7
370
     9
100
AcDbLine
 10
-1020.247914870093
 20
739.1584445441401
 30
0.0
 11
-920.314427749537
 21
739.1584445441401
 31
0.0
  0
TEXT
  5
48A
330
1F
100
AcDbEntity
  8
0-4
  6
Continuous
 62
     2
370
   211
100
AcDbText
 10
-1027.887914870093
 20
667.908481777942
 30
0.0
 40
30.48
  1
50
 50
90.0
 41
1.0625
  7
ＭＳ ゴシック
100
AcDbText
  0
LINE
  5
48B
330
1F
100
AcDbEntity
  8
0-4
  6
Continuous
 62
     7
370
     9
100
AcDbLine
 10
-1013.332129103492
 20
868.9018558979933
 30
0.0
 11
-1021.163700636695
 21
809.4151642155646
 31
0.0
  0
LINE
  5
48C
330
1F
100
AcDbEntity
  8
0-4
  6
Continuous
 62
     7
370
     9
100
AcDbLine
 10
-1021.163700636695
 20
868.9018558979933
 30
0.0
 11
-1013.332129103492
 21
809.4151642155646
 31
0.0
  0
LINE
  5
48D
330
1F
100
AcDbEntity
  8
0-4
  6
Continuous
 62
     7
370
     9
100
AcDbLine
 10
-1020.247914870093
 20
839.1585100567789
 30
0.0
 11
-920.314427749537
 21
839.1585100567789
 31
0.0
  0
TEXT
  5
48E
330
1F
100
AcDbEntity
  8
0-4
  6
Continuous
 62
     2
370
   211
100
AcDbText
 10
-1027.887914870093
 20
767.9084773004593
 30
0.0
 40
30.48
  1
50
 50
90.0
 41
1.0625
  7
ＭＳ ゴシック
100
AcDbText
  0
LINE
  5
48F
330
1F
100
AcDbEntity
  8
0-4
  6
Continuous
 62
     7
370
     9
100
AcDbLine
 10
-1013.332129103492
 20
968.901711440268
 30
0.0
 11
-1021.163700636695
 21
909.4150197578392
 31
0.0
  0
LINE
  5
490
330
1F
100
AcDbEntity
  8
0-4
  6
Continuous
 62
     7
370
     9
100
AcDbLine
 10
-1021.163700636695
 20
968.901711440268
 30
0.0
 11
-1013.332129103492
 21
909.4150197578392
 31
0.0
  0
LINE
  5
491
330
1F
100
AcDbEntity
  8
0-4
  6
Continuous
 62
     7
370
     9
100
AcDbLine
 10
-1020.247914870093
 20
939.1583655990536
 30
0.0
 11
-920.314427749537
 21
939.1583655990536
 31
0.0
  0
TEXT
  5
492
330
1F
100
AcDbEntity
  8
0-4
  6
Continuous
 62
     2
370
   211
100
AcDbText
 10
-1027.887914870093
 20
867.9084378279163
 30
0.0
 40
30.48
  1
50
 50
90.0
 41
1.0625
  7
ＭＳ ゴシック
100
AcDbText
  0
LINE
  5
493
330
1F
100
AcDbEntity
  8
0-4
  6
Continuous
 62
     7
370
     9
100
AcDbLine
 10
-1017.247914870093
 20
1039.158431111692
 30
0.0
 11
-1021.163700636695
 21
1009.415085270478
 31
0.0
  0
LINE
  5
494
330
1F
100
AcDbEntity
  8
0-4
  6
Continuous
 62
     7
370
     9
100
AcDbLine
 10
-1017.247914870093
 20
1039.158431111692
 30
0.0
 11
-1013.332129103492
 21
1009.415085270478
 31
0.0
  0
LINE
  5
495
330
1F
100
AcDbEntity
  8
0-4
  6
Continuous
 62
     7
370
     9
100
AcDbLine
 10
-1020.247914870093
 20
1039.158431111692
 30
0.0
 11
-920.314427749537
 21
1039.158431111692
 31
0.0
  0
TEXT
  5
496
330
1F
100
AcDbEntity
  8
0-4
  6
Continuous
 62
     2
370
   211
100
AcDbText
 10
-1027.887914870093
 20
967.9083983553733
 30
0.0
 40
30.48
  1
50
 50
90.0
 41
1.0625
  7
ＭＳ ゴシック
100
AcDbText
  0
LINE
  5
497
330
1F
100
AcDbEntity
  8
0-4
  6
Continuous
 62
     7
370
     9
100
AcDbLine
 10
16.89297802104249
 20
289.1585696779933
 30
0.0
 11
16.89297802104253
 21
1089.158533858133
 31
0.0
  0
LINE
  5
498
330
1F
100
AcDbEntity
  8
0-4
  6
Continuous
 62
     7
370
     9
100
AcDbLine
 10
16.89297802104249
 20
289.1585696779933
 30
0.0
 11
12.97719225444094
 21
318.9019155192076
 31
0.0
  0
LINE
  5
499
330
1F
100
AcDbEntity
  8
0-4
  6
Continuous
 62
     7
370
     9
100
AcDbLine
 10
16.89297802104249
 20
289.1585696779933
 30
0.0
 11
20.80876378764403
 21
318.9019155192076
 31
0.0
  0
LINE
  5
49A
330
1F
100
AcDbEntity
  8
0-4
  6
Continuous
 62
     7
370
     9
100
AcDbLine
 10
20.80876378764404
 20
418.9019110417252
 30
0.0
 11
12.97719225444094
 21
359.4152193592964
 31
0.0
  0
LINE
  5
49B
330
1F
100
AcDbEntity
  8
0-4
  6
Continuous
 62
     7
370
     9
100
AcDbLine
 10
12.97719225444094
 20
418.9019110417252
 30
0.0
 11
20.80876378764404
 21
359.4152193592964
 31
0.0
  0
LINE
  5
49C
330
1F
100
AcDbEntity
  8
0-4
  6
Continuous
 62
     7
370
     9
100
AcDbLine
 10
19.89297802104248
 20
289.1585696779933
 30
0.0
 11
-76.51636773289394
 21
289.1585696779933
 31
0.0
  0
LINE
  5
49D
330
1F
100
AcDbEntity
  8
0-4
  6
Continuous
 62
     7
370
     9
100
AcDbLine
 10
19.8929780210425
 20
389.1585652005108
 30
0.0
 11
-76.51636773289394
 21
389.1585652005108
 31
0.0
  0
TEXT
  5
49E
330
1F
100
AcDbEntity
  8
0-4
  6
Continuous
 62
     2
370
   211
100
AcDbText
 10
6.252978021042486
 20
317.9085674392519
 30
0.0
 40
30.48
  1
50
 50
90.0
 41
1.0625
  7
ＭＳ ゴシック
100
AcDbText
  0
LINE
  5
49F
330
1F
100
AcDbEntity
  8
0-4
  6
Continuous
 62
     7
370
     9
100
AcDbLine
 10
20.80876378764405
 20
518.9019065642426
 30
0.0
 11
12.97719225444095
 21
459.4152148818139
 31
0.0
  0
LINE
  5
4A0
330
1F
100
AcDbEntity
  8
0-4
  6
Continuous
 62
     7
370
     9
100
AcDbLine
 10
12.97719225444095
 20
518.9019065642426
 30
0.0
 11
20.80876378764405
 21
459.4152148818139
 31
0.0
  0
LINE
  5
4A1
330
1F
100
AcDbEntity
  8
0-4
  6
Continuous
 62
     7
370
     9
100
AcDbLine
 10
19.8929780210425
 20
489.1585607230283
 30
0.0
 11
-76.51636773289394
 21
489.1585607230283
 31
0.0
  0
TEXT
  5
4A2
330
1F
100
AcDbEntity
  8
0-4
  6
Continuous
 62
     2
370
   211
100
AcDbText
 10
6.252978021042495
 20
417.9085629617697
 30
0.0
 40
30.48
  1
50
 50
90.0
 41
1.0625
  7
ＭＳ ゴシック
100
AcDbText
  0
LINE
  5
4A3
330
1F
100
AcDbEntity
  8
0-4
  6
Continuous
 62
     7
370
     9
100
AcDbLine
 10
20.80876378764405
 20
618.9019020867602
 30
0.0
 11
12.97719225444096
 21
559.4152104043314
 31
0.0
  0
LINE
  5
4A4
330
1F
100
AcDbEntity
  8
0-4
  6
Continuous
 62
     7
370
     9
100
AcDbLine
 10
12.97719225444096
 20
618.9019020867602
 30
0.0
 11
20.80876378764405
 21
559.4152104043314
 31
0.0
  0
LINE
  5
4A5
330
1F
100
AcDbEntity
  8
0-4
  6
Continuous
 62
     7
370
     9
100
AcDbLine
 10
19.8929780210425
 20
589.1585562455458
 30
0.0
 11
-76.51636773289394
 21
589.1585562455458
 31
0.0
  0
TEXT
  5
4A6
330
1F
100
AcDbEntity
  8
0-4
  6
Continuous
 62
     2
370
   211
100
AcDbText
 10
6.252978021042503
 20
517.9085584842869
 30
0.0
 40
30.48
  1
50
 50
90.0
 41
1.0625
  7
ＭＳ ゴシック
100
AcDbText
  0
LINE
  5
4A7
330
1F
100
AcDbEntity
  8
0-4
  6
Continuous
 62
     7
370
     9
100
AcDbLine
 10
20.80876378764405
 20
718.90203758952
 30
0.0
 11
12.97719225444096
 21
659.4153459070913
 31
0.0
  0
LINE
  5
4A8
330
1F
100
AcDbEntity
  8
0-4
  6
Continuous
 62
     7
370
     9
100
AcDbLine
 10
12.97719225444096
 20
718.90203758952
 30
0.0
 11
20.80876378764405
 21
659.4153459070913
 31
0.0
  0
LINE
  5
4A9
330
1F
100
AcDbEntity
  8
0-4
  6
Continuous
 62
     7
370
     9
100
AcDbLine
 10
19.89297802104251
 20
689.1586917483056
 30
0.0
 11
-76.51636773289391
 21
689.1586917483056
 31
0.0
  0
TEXT
  5
4AA
330
1F
100
AcDbEntity
  8
0-4
  6
Continuous
 62
     2
370
   211
100
AcDbText
 10
6.252978021042503
 20
617.9086239969257
 30
0.0
 40
30.48
  1
50
 50
90.0
 41
1.0625
  7
ＭＳ ゴシック
100
AcDbText
  0
LINE
  5
4AB
330
1F
100
AcDbEntity
  8
0-4
  6
Continuous
 62
     7
370
     9
100
AcDbLine
 10
20.80876378764406
 20
818.9018931317952
 30
0.0
 11
12.97719225444097
 21
759.4152014493665
 31
0.0
  0
LINE
  5
4AC
330
1F
100
AcDbEntity
  8
0-4
  6
Continuous
 62
     7
370
     9
100
AcDbLine
 10
12.97719225444097
 20
818.9018931317952
 30
0.0
 11
20.80876378764406
 21
759.4152014493665
 31
0.0
  0
LINE
  5
4AD
330
1F
100
AcDbEntity
  8
0-4
  6
Continuous
 62
     7
370
     9
100
AcDbLine
 10
19.89297802104252
 20
789.1585472905808
 30
0.0
 11
-76.51636773289391
 21
789.1585472905808
 31
0.0
  0
TEXT
  5
4AE
330
1F
100
AcDbEntity
  8
0-4
  6
Continuous
 62
     2
370
   211
100
AcDbText
 10
6.252978021042512
 20
717.9086195194429
 30
0.0
 40
30.48
  1
50
 50
90.0
 41
1.0625
  7
ＭＳ ゴシック
100
AcDbText
  0
LINE
  5
4AF
330
1F
100
AcDbEntity
  8
0-4
  6
Continuous
 62
     7
370
     9
100
AcDbLine
 10
20.80876378764407
 20
918.9018886543124
 30
0.0
 11
12.97719225444098
 21
859.4151969718837
 31
0.0
  0
LINE
  5
4B0
330
1F
100
AcDbEntity
  8
0-4
  6
Continuous
 62
     7
370
     9
100
AcDbLine
 10
12.97719225444098
 20
918.9018886543124
 30
0.0
 11
20.80876378764407
 21
859.4151969718837
 31
0.0
  0
LINE
  5
4B1
330
1F
100
AcDbEntity
  8
0-4
  6
Continuous
 62
     7
370
     9
100
AcDbLine
 10
19.89297802104252
 20
889.158542813098
 30
0.0
 11
-76.5163677328939
 21
889.158542813098
 31
0.0
  0
TEXT
  5
4B2
330
1F
100
AcDbEntity
  8
0-4
  6
Continuous
 62
     2
370
   211
100
AcDbText
 10
6.252978021042521
 20
817.9085450518392
 30
0.0
 40
30.48
  1
50
 50
90.0
 41
1.0625
  7
ＭＳ ゴシック
100
AcDbText
  0
LINE
  5
4B3
330
1F
100
AcDbEntity
  8
0-4
  6
Continuous
 62
     7
370
     9
100
AcDbLine
 10
20.80876378764408
 20
1018.901814186709
 30
0.0
 11
12.97719225444098
 21
959.4151225042799
 31
0.0
  0
LINE
  5
4B4
330
1F
100
AcDbEntity
  8
0-4
  6
Continuous
 62
     7
370
     9
100
AcDbLine
 10
12.97719225444098
 20
1018.901814186709
 30
0.0
 11
20.80876378764408
 21
959.4151225042799
 31
0.0
  0
LINE
  5
4B5
330
1F
100
AcDbEntity
  8
0-4
  6
Continuous
 62
     7
370
     9
100
AcDbLine
 10
19.89297802104253
 20
989.1584683454943
 30
0.0
 11
-76.5163677328939
 21
989.1584683454943
 31
0.0
  0
TEXT
  5
4B6
330
1F
100
AcDbEntity
  8
0-4
  6
Continuous
 62
     2
370
   211
100
AcDbText
 10
6.25297802104253
 20
917.9085055792962
 30
0.0
 40
30.48
  1
50
 50
90.0
 41
1.0625
  7
ＭＳ ゴシック
100
AcDbText
  0
LINE
  5
4B7
330
1F
100
AcDbEntity
  8
0-4
  6
Continuous
 62
     7
370
     9
100
AcDbLine
 10
16.89297802104253
 20
1089.158533858133
 30
0.0
 11
12.97719225444099
 21
1059.415188016919
 31
0.0
  0
LINE
  5
4B8
330
1F
100
AcDbEntity
  8
0-4
  6
Continuous
 62
     7
370
     9
100
AcDbLine
 10
16.89297802104253
 20
1089.158533858133
 30
0.0
 11
20.80876378764408
 21
1059.415188016919
 31
0.0
  0
LINE
  5
4B9
330
1F
100
AcDbEntity
  8
0-4
  6
Continuous
 62
     7
370
     9
100
AcDbLine
 10
19.89297802104254
 20
1089.158533858133
 30
0.0
 11
-76.5163677328939
 21
1089.158533858133
 31
0.0
  0
TEXT
  5
4BA
330
1F
100
AcDbEntity
  8
0-4
  6
Continuous
 62
     2
370
   211
100
AcDbText
 10
6.25297802104253
 20
1017.908501101814
 30
0.0
 40
30.48
  1
50
 50
90.0
 41
1.0625
  7
ＭＳ ゴシック
100
AcDbText
  0
LINE
  5
4BB
330
1F
100
AcDbEntity
  8
0-4
  6
Continuous
 62
     7
370
     9
100
AcDbLine
 10
530.854858853768
 20
239.1587118969773
 30
0.0
 11
530.854858853768
 21
1139.158496624332
 31
0.0
  0
LINE
  5
4BC
330
1F
100
AcDbEntity
  8
0-4
  6
Continuous
 62
     7
370
     9
100
AcDbLine
 10
530.854858853768
 20
239.1587118969773
 30
0.0
 11
526.9390730871664
 21
268.9020577381916
 31
0.0
  0
LINE
  5
4BD
330
1F
100
AcDbEntity
  8
0-4
  6
Continuous
 62
     7
370
     9
100
AcDbLine
 10
530.854858853768
 20
239.1587118969773
 30
0.0
 11
534.7706446203695
 21
268.9020577381916
 31
0.0
  0
LINE
  5
4BE
330
1F
100
AcDbEntity
  8
0-4
  6
Continuous
 62
     7
370
     9
100
AcDbLine
 10
534.7706446203695
 20
338.9020826000024
 30
0.0
 11
526.9390730871664
 21
279.4153909175736
 31
0.0
  0
LINE
  5
4BF
330
1F
100
AcDbEntity
  8
0-4
  6
Continuous
 62
     7
370
     9
100
AcDbLine
 10
526.9390730871664
 20
338.9020826000024
 30
0.0
 11
534.7706446203695
 21
279.4153909175736
 31
0.0
  0
LINE
  5
4C0
330
1F
100
AcDbEntity
  8
0-4
  6
Continuous
 62
     7
370
     9
100
AcDbLine
 10
446.9565020191388
 20
239.1587118969773
 30
0.0
 11
587.718863004254
 21
239.1587118969773
 31
0.0
  0
LINE
  5
4C1
330
1F
100
AcDbEntity
  8
0-4
  6
Continuous
 62
     7
370
     9
100
AcDbLine
 10
527.8548588537681
 20
309.158736758788
 30
0.0
 11
587.718863004254
 21
309.158736758788
 31
0.0
  0
TEXT
  5
4C2
330
1F
100
AcDbEntity
  8
0-4
  6
Continuous
 62
     2
370
   211
100
AcDbText
 10
520.214858853768
 20
252.9087243278826
 30
0.0
 40
30.48
  1
35
 50
90.0
 41
1.0625
  7
ＭＳ ゴシック
100
AcDbText
  0
LINE
  5
4C3
330
1F
100
AcDbEntity
  8
0-4
  6
Continuous
 62
     7
370
     9
100
AcDbLine
 10
534.7706446203695
 20
1098.901782608675
 30
0.0
 11
526.9390730871664
 21
1039.415090926246
 31
0.0
  0
LINE
  5
4C4
330
1F
100
AcDbEntity
  8
0-4
  6
Continuous
 62
     7
370
     9
100
AcDbLine
 10
526.9390730871664
 20
1098.901782608675
 30
0.0
 11
534.7706446203695
 21
1039.415090926246
 31
0.0
  0
LINE
  5
4C5
330
1F
100
AcDbEntity
  8
0-4
  6
Continuous
 62
     7
370
     9
100
AcDbLine
 10
527.8548588537681
 20
1069.15843676746
 30
0.0
 11
587.718863004254
 21
1069.15843676746
 31
0.0
  0
TEXT
  5
4C6
330
1F
100
AcDbEntity
  8
0-4
  6
Continuous
 62
     2
370
   211
100
AcDbText
 10
520.214858853768
 20
656.6585867631238
 30
0.0
 40
30.48
  1
380
 50
90.0
 41
1.083333333333333
  7
ＭＳ ゴシック
100
AcDbText
  0
LINE
  5
4C7
330
1F
100
AcDbEntity
  8
0-4
  6
Continuous
 62
     7
370
     9
100
AcDbLine
 10
530.854858853768
 20
1139.158496624332
 30
0.0
 11
526.9390730871664
 21
1109.415150783117
 31
0.0
  0
LINE
  5
4C8
330
1F
100
AcDbEntity
  8
0-4
  6
Continuous
 62
     7
370
     9
100
AcDbLine
 10
530.854858853768
 20
1139.158496624332
 30
0.0
 11
534.7706446203695
 21
1109.415150783117
 31
0.0
  0
LINE
  5
4C9
330
1F
100
AcDbEntity
  8
0-4
  6
Continuous
 62
     7
370
     9
100
AcDbLine
 10
446.9565020191388
 20
1139.158496624332
 30
0.0
 11
587.718863004254
 21
1139.158496624332
 31
0.0
  0
TEXT
  5
4CA
330
1F
100
AcDbEntity
  8
0-4
  6
Continuous
 62
     2
370
   211
100
AcDbText
 10
520.214858853768
 20
1082.908466695896
 30
0.0
 40
30.48
  1
35
 50
90.0
 41
1.0625
  7
ＭＳ ゴシック
100
AcDbText
  0
LINE
  5
4CB
330
1F
100
AcDbEntity
  8
0-4
  6
Continuous
 62
     7
370
     9
100
AcDbLine
 10
449.9565020191387
 20
239.1587118969773
 30
0.0
 11
449.9565020191387
 21
1139.158496624332
 31
0.0
  0
LINE
  5
4CC
330
1F
100
AcDbEntity
  8
0-4
  6
Continuous
 62
     7
370
     9
100
AcDbLine
 10
449.9565020191387
 20
239.1587118969773
 30
0.0
 11
446.0407162525372
 21
268.9020577381916
 31
0.0
  0
LINE
  5
4CD
330
1F
100
AcDbEntity
  8
0-4
  6
Continuous
 62
     7
370
     9
100
AcDbLine
 10
449.9565020191387
 20
239.1587118969773
 30
0.0
 11
453.8722877857402
 21
268.9020577381916
 31
0.0
  0
LINE
  5
4CE
330
1F
100
AcDbEntity
  8
0-4
  6
Continuous
 62
     7
370
     9
100
AcDbLine
 10
449.9565020191387
 20
1139.158496624332
 30
0.0
 11
446.0407162525372
 21
1109.415150783117
 31
0.0
  0
LINE
  5
4CF
330
1F
100
AcDbEntity
  8
0-4
  6
Continuous
 62
     7
370
     9
100
AcDbLine
 10
449.9565020191387
 20
1139.158496624332
 30
0.0
 11
453.8722877857402
 21
1109.415150783117
 31
0.0
  0
TEXT
  5
4D0
330
1F
100
AcDbEntity
  8
0-4
  6
Continuous
 62
     2
370
   211
100
AcDbText
 10
439.3165020191387
 20
656.6586042606548
 30
0.0
 40
30.48
  1
450
 50
90.0
 41
1.083333333333333
  7
ＭＳ ゴシック
100
AcDbText
  0
LINE
  5
4D1
330
1F
100
AcDbEntity
  8
0-4
  6
Continuous
 62
     7
370
     9
100
AcDbLine
 10
663.929421632975
 20
927.7318408896957
 30
0.0
 11
557.9295884781126
 21
927.7318408896957
 31
0.0
  0
LINE
  5
4D2
330
1F
100
AcDbEntity
  8
0-4
  6
Continuous
 62
     7
370
     9
100
AcDbLine
 10
607.9295884781126
 20
927.7318408896957
 30
0.0
 11
578.1862426368982
 21
923.8160551230942
 31
0.0
  0
LINE
  5
4D3
330
1F
100
AcDbEntity
  8
0-4
  6
Continuous
 62
     7
370
     9
100
AcDbLine
 10
607.9295884781126
 20
927.7318408896957
 30
0.0
 11
578.1862426368982
 21
931.6476266562972
 31
0.0
  0
LINE
  5
4D4
330
1F
100
AcDbEntity
  8
0-4
  6
Continuous
 62
     7
370
     9
100
AcDbLine
 10
613.9294216329749
 20
927.7318408896957
 30
0.0
 11
643.6727674741893
 21
923.8160551230942
 31
0.0
  0
LINE
  5
4D5
330
1F
100
AcDbEntity
  8
0-4
  6
Continuous
 62
     7
370
     9
100
AcDbLine
 10
613.9294216329749
 20
927.7318408896957
 30
0.0
 11
643.6727674741893
 21
931.6476266562972
 31
0.0
  0
TEXT
  5
4D6
330
1F
100
AcDbEntity
  8
0-4
  6
Continuous
 62
     2
370
   211
100
AcDbText
 10
564.3597536316184
 20
939.8920964933436
 30
0.0
 40
30.48
  1
3
 41
0.9999999999999998
  7
ＭＳ ゴシック
100
AcDbText
  0
LINE
  5
4D7
330
1F
100
AcDbEntity
  8
0-0
  6
Continuous
 62
     3
370
     9
100
AcDbLine
 10
-59.84893642734384
 20
-87.96532333496884
 30
0.0
 11
-959.8488961300012
 21
-87.96532333496884
 31
0.0
  0
LINE
  5
4D8
330
1F
100
AcDbEntity
  8
0-0
  6
Continuous
 62
     3
370
     9
100
AcDbLine
 10
-59.84893642734384
 20
-117.9653289907361
 30
0.0
 11
-959.8488961300012
 21
-117.9653289907361
 31
0.0
  0
LINE
  5
4D9
330
1F
100
AcDbEntity
  8
0-0
  6
Continuous
 62
     3
370
     9
100
AcDbLine
 10
-959.8488961300012
 20
-117.9653289907361
 30
0.0
 11
-959.8488961300012
 21
-87.96532333496884
 31
0.0
  0
LINE
  5
4DA
330
1F
100
AcDbEntity
  8
0-0
  6
Continuous
 62
     3
370
     9
100
AcDbLine
 10
-59.84893642734384
 20
-117.9653289907361
 30
0.0
 11
-59.84893642734384
 21
-87.96532333496884
 31
0.0
  0
LINE
  5
4DB
330
1F
100
AcDbEntity
  8
0-0
  6
JWW_DASHED2
 62
     3
370
     9
100
AcDbLine
 10
-59.84893642734384
 20
-93.96529647007384
 30
0.0
 11
-959.8488961300012
 21
-93.96529647007384
 31
0.0
  0
LINE
  5
4DC
330
1F
100
AcDbEntity
  8
0-0
  6
JWW_CENTER1
 62
     7
370
     9
100
AcDbLine
 10
-509.8488812836118
 20
-134.4402336439248
 30
0.0
 11
-509.8488812836118
 21
-76.7046827156247
 31
0.0
  0
LINE
  5
4DD
330
1F
100
AcDbEntity
  8
0-A
  6
JWW_DASHED2
 62
     4
370
     9
100
AcDbLine
 10
-724.8488051664093
 20
-93.96529647007384
 30
0.0
 11
-774.8489079128499
 21
-93.96529647007384
 31
0.0
  0
LINE
  5
4DE
330
1F
100
AcDbEntity
  8
0-A
  6
JWW_DASHED2
 62
     4
370
     9
100
AcDbLine
 10
-762.848681682155
 20
-99.96526960517883
 30
0.0
 11
-730.8486383212717
 21
-99.96526960517883
 31
0.0
  0
LINE
  5
4DF
330
1F
100
AcDbEntity
  8
0-A
  6
JWW_DASHED2
 62
     4
370
     9
100
AcDbLine
 10
-294.8489574008144
 20
-93.96529647007384
 30
0.0
 11
-244.8488546543737
 21
-93.96529647007384
 31
0.0
  0
LINE
  5
4E0
330
1F
100
AcDbEntity
  8
0-A
  6
JWW_DASHED2
 62
     4
370
     9
100
AcDbLine
 10
-256.8490808850687
 20
-99.96526960517883
 30
0.0
 11
-288.8491242459519
 21
-99.96526960517883
 31
0.0
  0
LINE
  5
4E1
330
1F
100
AcDbEntity
  8
0-A
  6
JWW_DASHED2
 62
     4
370
     9
100
AcDbLine
 10
-768.8487947975024
 20
-105.9652427402838
 30
0.0
 11
-768.8487947975024
 21
-117.9653289907361
 31
0.0
  0
LINE
  5
4E2
330
1F
100
AcDbEntity
  8
0-A
  6
JWW_DASHED2
 62
     4
370
     9
100
AcDbLine
 10
-774.8489079128499
 20
-93.96529647007384
 30
0.0
 11
-774.8489079128499
 21
-117.9653289907361
 31
0.0
  0
LINE
  5
4E3
330
1F
100
AcDbEntity
  8
0-A
  6
Continuous
 62
     4
370
     9
100
AcDbLine
 10
-774.8489079128499
 20
-117.9653289907361
 30
0.0
 11
-774.8489079128499
 21
-143.9652592362719
 31
0.0
  0
LINE
  5
4E4
330
1F
100
AcDbEntity
  8
0-A
  6
Continuous
 62
     4
370
     9
100
AcDbLine
 10
-768.8487947975024
 20
-117.9653289907361
 30
0.0
 11
-768.8487947975024
 21
-137.965286101167
 31
0.0
  0
LINE
  5
4E5
330
1F
100
AcDbEntity
  8
0-A
  6
JWW_DASHED2
 62
     4
370
     9
100
AcDbLine
 10
-250.8489677697213
 20
-105.9652427402838
 30
0.0
 11
-250.8489677697213
 21
-117.9653289907361
 31
0.0
  0
LINE
  5
4E6
330
1F
100
AcDbEntity
  8
0-A
  6
JWW_DASHED2
 62
     4
370
     9
100
AcDbLine
 10
-244.8488546543737
 20
-93.96529647007384
 30
0.0
 11
-244.8488546543737
 21
-117.9653289907361
 31
0.0
  0
LINE
  5
4E7
330
1F
100
AcDbEntity
  8
0-A
  6
Continuous
 62
     4
370
     9
100
AcDbLine
 10
-244.8488546543737
 20
-117.9653289907361
 30
0.0
 11
-244.8488546543737
 21
-143.9652592362719
 31
0.0
  0
LINE
  5
4E8
330
1F
100
AcDbEntity
  8
0-A
  6
Continuous
 62
     4
370
     9
100
AcDbLine
 10
-250.8489677697213
 20
-117.9653289907361
 30
0.0
 11
-250.8489677697213
 21
-137.965286101167
 31
0.0
  0
ARC
  5
4E9
330
1F
100
AcDbEntity
  8
0-A
  6
Continuous
 62
     4
370
     9
100
AcDbCircle
 10
-774.8489079128499
 20
-137.965286101167
 30
0.0
 40
5.999973135104971
100
AcDbArc
 50
270.0
 51
0.0
  0
ARC
  5
4EA
330
1F
100
AcDbEntity
  8
0-A
  6
JWW_DASHED2
 62
     4
370
     9
100
AcDbCircle
 10
-730.8486383212717
 20
-93.96529647007384
 30
0.0
 40
5.999973135104971
100
AcDbArc
 50
270.0
 51
0.0
  0
ARC
  5
4EB
330
1F
100
AcDbEntity
  8
0-A
  6
JWW_DASHED2
 62
     4
370
     9
100
AcDbCircle
 10
-762.848681682155
 20
-105.9652427402838
 30
0.0
 40
5.999999928198267
100
AcDbArc
 50
90.0
 51
180.0
  0
ARC
  5
4EC
330
1F
100
AcDbEntity
  8
0-A
  6
JWW_DASHED2
 62
     4
370
     9
100
AcDbCircle
 10
-288.8491242459519
 20
-93.96529647007384
 30
0.0
 40
5.999973135104971
100
AcDbArc
 50
180.0
 51
270.0
  0
ARC
  5
4ED
330
1F
100
AcDbEntity
  8
0-A
  6
JWW_DASHED2
 62
     4
370
     9
100
AcDbCircle
 10
-256.8490808850687
 20
-105.9652427402838
 30
0.0
 40
5.999999928198267
100
AcDbArc
 50
0.0
 51
90.0
  0
ARC
  5
4EE
330
1F
100
AcDbEntity
  8
0-A
  6
Continuous
 62
     4
370
     9
100
AcDbCircle
 10
-244.8488546543737
 20
-137.965286101167
 30
0.0
 40
5.999973135104971
100
AcDbArc
 50
180.0
 51
270.0
  0
TEXT
  5
4EF
330
1F
100
AcDbEntity
  8
0-5
  6
Continuous
 62
     2
370
     9
100
AcDbText
 10
-144.2652854118492
 20
-258.4443578638794
 30
0.0
 40
30.48
  1
補強材Ｌ-25Ｘ25Ｘ3
 41
1.118055555555555
  7
ＭＳ ゴシック
100
AcDbText
  0
LINE
  5
4F0
330
1F
100
AcDbEntity
  8
0-5
  6
Continuous
 62
     7
370
     9
100
AcDbLine
 10
-159.9752253057149
 20
-272.2352272580034
 30
0.0
 11
274.1032509293071
 21
-272.2352272580034
 31
0.0
  0
TEXT
  5
4F1
330
1F
100
AcDbEntity
  8
0-5
  6
Continuous
 62
     2
370
     9
100
AcDbText
 10
-140.3812323538019
 20
-316.5699557959715
 30
0.0
 40
30.48
  1
ＳＵＳ３０４
 41
1.104166666666667
  7
ＭＳ ゴシック
100
AcDbText
  0
TEXT
  5
4F2
330
1F
100
AcDbEntity
  8
A-5
  6
Continuous
 62
     2
370
     9
100
AcDbText
 10
22.35451687323369
 20
-420.6718974943535
 30
0.0
 40
30.48
  1
詳細図　Ｓ＝１：５
 41
1.111111111111111
  7
ＭＳ ゴシック
100
AcDbText
  0
LINE
  5
4F3
330
1F
100
AcDbEntity
  8
A-5
  6
Continuous
 62
     7
370
     9
100
AcDbLine
 10
-60.08222613092101
 20
-377.9547947830929
 30
0.0
 11
504.7912598773884
 21
-377.9547947830929
 31
0.0
  0
LINE
  5
4F4
330
1F
100
AcDbEntity
  8
A-5
  6
Continuous
 62
     7
370
     9
100
AcDbLine
 10
504.7912598773884
 20
-434.6690002056138
 30
0.0
 11
-60.08222613092101
 21
-434.6690002056138
 31
0.0
  0
LINE
  5
4F5
330
1F
100
AcDbEntity
  8
A-5
  6
Continuous
 62
     7
370
     9
100
AcDbLine
 10
-60.08222613092101
 20
-434.6690002056138
 30
0.0
 11
-60.08222613092101
 21
-377.9547947830929
 31
0.0
  0
LINE
  5
4F6
330
1F
100
AcDbEntity
  8
A-5
  6
Continuous
 62
     7
370
     9
100
AcDbLine
 10
504.7912598773884
 20
-377.9547947830929
 30
0.0
 11
504.7912598773884
 21
-434.6690002056138
 31
0.0
  0
LINE
  5
4F7
330
1F
100
AcDbEntity
  8
A-5
  6
Continuous
 62
     7
370
     9
100
AcDbLine
 10
-244.8488546543737
 20
-143.9652592362719
 30
0.0
 11
-225.1703259323828
 21
-166.6093645914802
 31
0.0
  0
LINE
  5
4F8
330
1F
100
AcDbEntity
  8
A-5
  6
Continuous
 62
     7
370
     9
100
AcDbLine
 10
-159.9752253057149
 20
-272.2352272580034
 30
0.0
 11
-244.8488546543737
 21
-143.9652592362719
 31
0.0
  0
LINE
  5
4F9
330
1F
100
AcDbEntity
  8
A-5
  6
Continuous
 62
     7
370
     9
100
AcDbLine
 10
-244.8488546543737
 20
-143.9652592362719
 30
0.0
 11
-231.7015812636674
 21
-170.9309634249266
 31
0.0
  0
LINE
  5
4FA
330
1F
100
AcDbEntity
  8
0-5
  6
Continuous
 62
     7
370
     9
100
AcDbLine
 10
-467.354856423307
 20
188.6371426242741
 30
0.0
 11
-503.4746958290282
 21
265.580318737897
 31
0.0
  0
LINE
  5
4FB
330
1F
100
AcDbEntity
  8
0-5
  6
Continuous
 62
     7
370
     9
100
AcDbLine
 10
-503.4746958290282
 20
265.580318737897
 30
0.0
 11
-487.2908387609625
 21
240.3200184546378
 31
0.0
  0
LINE
  5
4FC
330
1F
100
AcDbEntity
  8
0-5
  6
Continuous
 62
     7
370
     9
100
AcDbLine
 10
-503.4746958290282
 20
265.580318737897
 30
0.0
 11
-494.3801371163288
 21
236.9920518820476
 31
0.0
  0
TEXT
  5
4FD
330
1F
100
AcDbEntity
  8
A-5
  6
Continuous
 62
     2
370
     9
100
AcDbText
 10
-360.7813798952947
 20
44.72149575392258
 30
0.0
 40
30.48
  1
指掛け穴：φ２０
 41
1.109375
  7
ＭＳ ゴシック
100
AcDbText
  0
TEXT
  5
4FE
330
1F
100
AcDbEntity
  8
A-5
  6
Continuous
 62
     2
370
     9
100
AcDbText
 10
-332.8290915281095
 20
-25.54756435936234
 30
0.0
 40
30.48
  1
１ヶ／枚
 41
1.09375
  7
ＭＳ ゴシック
100
AcDbText
  0
LINE
  5
4FF
330
1F
100
AcDbEntity
  8
0-5
  6
Continuous
 62
     7
370
     9
100
AcDbLine
 10
-391.7127061081308
 20
27.50278020538019
 30
0.0
 11
-451.3283764799151
 21
154.4972270251333
 31
0.0
  0
LINE
  5
500
330
1F
100
AcDbEntity
  8
A-5
  6
Continuous
 62
     7
370
     9
100
AcDbLine
 10
11.33051867010629
 20
27.50278020538019
 30
0.0
 11
-391.7127061081308
 21
27.50278020538019
 31
0.0
  0
LINE
  5
501
330
1F
100
AcDbEntity
  8
A-5
  6
Continuous
 62
     7
370
     9
100
AcDbLine
 10
-102.4786703421407
 20
276.0940473508563
 30
0.0
 11
-84.45407030037835
 21
252.1125170966272
 31
0.0
  0
LINE
  5
502
330
1F
100
AcDbEntity
  8
A-5
  6
Continuous
 62
     7
370
     9
100
AcDbLine
 10
-102.4786703421407
 20
276.0940473508563
 30
0.0
 11
-91.27512041376825
 21
248.2645581532
 31
0.0
  0
TEXT
  5
503
330
1F
100
AcDbEntity
  8
A-5
  6
Continuous
 62
     2
370
     9
100
AcDbText
 10
-25.32854286271192
 20
163.6027116884674
 30
0.0
 40
30.48
  1
滑り止め
 41
1.09375
  7
ＭＳ ゴシック
100
AcDbText
  0
LINE
  5
504
330
1F
100
AcDbEntity
  8
A-5
  6
Continuous
 62
     7
370
     9
100
AcDbLine
 10
-102.4786703421407
 20
276.0940473508563
 30
0.0
 11
-31.53394241987016
 21
150.3345079292606
 31
0.0
  0
LINE
  5
505
330
1F
100
AcDbEntity
  8
A-5
  6
Continuous
 62
     7
370
     9
100
AcDbLine
 10
-31.53394241987016
 20
150.3345079292606
 30
0.0
 11
156.3120032797708
 21
150.3345079292606
 31
0.0
  0
LINE
  5
506
330
1F
100
AcDbEntity
  8
2-F
  6
Continuous
 62
     7
370
     9
100
AcDbLine
 10
229.5272155408776
 20
-754.5138347543491
 30
0.0
 11
80.88849512054085
 21
-754.5138347543491
 31
0.0
  0
LINE
  5
507
330
1F
100
AcDbEntity
  8
2-0
  6
Continuous
 62
     3
370
     9
100
AcDbLine
 10
67.66036220246693
 20
-893.8604917009512
 30
0.0
 11
263.4381291923916
 21
-893.8604917009512
 31
0.0
  0
LINE
  5
508
330
1F
100
AcDbEntity
  8
2-0
  6
Continuous
 62
     3
370
     9
100
AcDbLine
 10
53.59794703897766
 20
-914.9545518844432
 30
0.0
 11
67.66036220246693
 21
-893.8604917009512
 31
0.0
  0
LINE
  5
509
330
1F
100
AcDbEntity
  8
2-0
  6
Continuous
 62
     3
370
     9
100
AcDbLine
 10
277.5012442570944
 20
-914.9545518844432
 30
0.0
 11
263.4381291923916
 21
-893.8604917009512
 31
0.0
  0
LINE
  5
50A
330
1F
100
AcDbEntity
  8
2-F
  6
Continuous
 62
     7
370
     9
100
AcDbLine
 10
15.54921741859236
 20
-673.1464693333338
 30
0.0
 11
315.5492739762662
 21
-673.1464693333338
 31
0.0
  0
LINE
  5
50B
330
1F
100
AcDbEntity
  8
2-F
  6
Continuous
 62
     7
370
     9
100
AcDbLine
 10
315.5492739762662
 20
-843.8605114372227
 30
0.0
 11
315.5492739762662
 21
-670.1464302731904
 31
0.0
  0
LINE
  5
50C
330
1F
100
AcDbEntity
  8
2-F
  6
Continuous
 62
     7
370
     9
100
AcDbLine
 10
15.54921741859236
 20
-673.1464693333338
 30
0.0
 11
45.29291925030694
 21
-669.2306970241594
 31
0.0
  0
LINE
  5
50D
330
1F
100
AcDbEntity
  8
2-F
  6
Continuous
 62
     7
370
     9
100
AcDbLine
 10
15.54921741859236
 20
-673.1464693333338
 30
0.0
 11
45.29291925030694
 21
-677.0622416425083
 31
0.0
  0
LINE
  5
50E
330
1F
100
AcDbEntity
  8
2-F
  6
Continuous
 62
     7
370
     9
100
AcDbLine
 10
315.5492739762662
 20
-673.1464693333338
 30
0.0
 11
285.8062720457651
 21
-669.2306970241594
 31
0.0
  0
LINE
  5
50F
330
1F
100
AcDbEntity
  8
2-F
  6
Continuous
 62
     7
370
     9
100
AcDbLine
 10
315.5492739762662
 20
-673.1464693333338
 30
0.0
 11
285.8062720457651
 21
-677.0622416425083
 31
0.0
  0
LINE
  5
510
330
1F
100
AcDbEntity
  8
2-F
  6
Continuous
 62
     7
370
     9
100
AcDbLine
 10
175.5494342230083
 20
-813.8604707863947
 30
0.0
 11
175.5494342230083
 21
-751.5137956942057
 31
0.0
  0
LINE
  5
511
330
1F
100
AcDbEntity
  8
2-F
  6
Continuous
 62
     7
370
     9
100
AcDbLine
 10
155.5497570730626
 20
-813.8604707863947
 30
0.0
 11
155.5497570730626
 21
-751.5137956942057
 31
0.0
  0
LINE
  5
512
330
1F
100
AcDbEntity
  8
2-F
  6
Continuous
 62
     7
370
     9
100
AcDbLine
 10
175.5494342230083
 20
-754.5138347543491
 30
0.0
 11
205.2931360547229
 21
-750.5980624451747
 31
0.0
  0
LINE
  5
513
330
1F
100
AcDbEntity
  8
2-F
  6
Continuous
 62
     7
370
     9
100
AcDbLine
 10
175.5494342230083
 20
-754.5138347543491
 30
0.0
 11
205.2931360547229
 21
-758.4296070635236
 31
0.0
  0
LINE
  5
514
330
1F
100
AcDbEntity
  8
2-F
  6
Continuous
 62
     7
370
     9
100
AcDbLine
 10
135.5493800219046
 20
-813.8604707863947
 30
0.0
 11
135.5493800219046
 21
-751.5137956942057
 31
0.0
  0
LINE
  5
515
330
1F
100
AcDbEntity
  8
2-F
  6
Continuous
 62
     7
370
     9
100
AcDbLine
 10
135.5493800219046
 20
-754.5138347543491
 30
0.0
 11
105.8063780914023
 21
-750.5980624451747
 31
0.0
  0
LINE
  5
516
330
1F
100
AcDbEntity
  8
2-F
  6
Continuous
 62
     7
370
     9
100
AcDbLine
 10
135.5493800219046
 20
-754.5138347543491
 30
0.0
 11
105.8063780914023
 21
-758.4296070635236
 31
0.0
  0
LINE
  5
517
330
1F
100
AcDbEntity
  8
2-0
  6
Continuous
 62
     3
370
     9
100
AcDbLine
 10
36.9570958082824
 20
-923.860532351779
 30
0.0
 11
-69.05064175279958
 21
-923.860532351779
 31
0.0
  0
LINE
  5
518
330
1F
100
AcDbEntity
  8
2-0
  6
Continuous
 62
     3
370
     9
100
AcDbLine
 10
294.1420954877896
 20
-923.860532351779
 30
0.0
 11
400.1494830982648
 21
-923.860532351779
 31
0.0
  0
LINE
  5
519
330
1F
100
AcDbEntity
  8
2-F
  6
Continuous
 62
     7
370
     9
100
AcDbLine
 10
-89.050668853352
 20
-863.8605385377747
 30
0.0
 11
-219.0669427348297
 21
-863.8605385377747
 31
0.0
  0
LINE
  5
51A
330
1F
100
AcDbEntity
  8
2-F
  6
Continuous
 62
     7
370
     9
100
AcDbLine
 10
-216.0669911623381
 20
-833.8604978869467
 30
0.0
 11
-219.982763471512
 21
-804.1171460058385
 31
0.0
  0
LINE
  5
51B
330
1F
100
AcDbEntity
  8
2-F
  6
Continuous
 62
     7
370
     9
100
AcDbLine
 10
-216.0669911623381
 20
-833.8604978869467
 30
0.0
 11
-212.1512188531636
 21
-804.1171460058385
 31
0.0
  0
LINE
  5
51C
330
1F
100
AcDbEntity
  8
2-F
  6
Continuous
 62
     7
370
     9
100
AcDbLine
 10
-216.0669911623381
 20
-863.8605385377747
 30
0.0
 11
-219.982763471512
 21
-893.603890418883
 31
0.0
  0
LINE
  5
51D
330
1F
100
AcDbEntity
  8
2-F
  6
Continuous
 62
     7
370
     9
100
AcDbLine
 10
-216.0669911623381
 20
-863.8605385377747
 30
0.0
 11
-212.1512188531636
 21
-893.603890418883
 31
0.0
  0
LINE
  5
51E
330
1F
100
AcDbEntity
  8
2-F
  6
Continuous
 62
     7
370
     9
100
AcDbLine
 10
-216.0669911623381
 20
-793.33578023935
 30
0.0
 11
-216.0669911623381
 21
-904.5776415311839
 31
0.0
  0
LINE
  5
51F
330
1F
100
AcDbEntity
  8
2-F
  6
Continuous
 62
     7
370
     9
100
AcDbLine
 10
-127.2985203687204
 20
-833.860235423992
 30
0.0
 11
-144.2984209214773
 21
-833.860235423992
 31
0.0
  0
LINE
  5
520
330
1F
100
AcDbEntity
  8
2-F
  6
Continuous
 62
     7
370
     9
100
AcDbLine
 10
-147.2981975186661
 20
-833.860235423992
 30
0.0
 11
-151.214144803144
 21
-804.1168835428837
 31
0.0
  0
LINE
  5
521
330
1F
100
AcDbEntity
  8
2-F
  6
Continuous
 62
     7
370
     9
100
AcDbLine
 10
-147.2981975186661
 20
-833.860235423992
 30
0.0
 11
-143.382600184795
 21
-804.1168835428837
 31
0.0
  0
LINE
  5
522
330
1F
100
AcDbEntity
  8
2-F
  6
Continuous
 62
     7
370
     9
100
AcDbLine
 10
-147.2981975186661
 20
-843.8603364619196
 30
0.0
 11
-151.214144803144
 21
-873.6036883430278
 31
0.0
  0
LINE
  5
523
330
1F
100
AcDbEntity
  8
2-F
  6
Continuous
 62
     7
370
     9
100
AcDbLine
 10
-147.2981975186661
 20
-843.8603364619196
 30
0.0
 11
-143.382600184795
 21
-873.6036883430278
 31
0.0
  0
LINE
  5
524
330
1F
100
AcDbEntity
  8
2-F
  6
Continuous
 62
     7
370
     9
100
AcDbLine
 10
-147.2981975186661
 20
-738.278138838096
 30
0.0
 11
-147.2981975186661
 21
-879.5266023546259
 31
0.0
  0
LINE
  5
525
330
1F
100
AcDbEntity
  8
2-0
  6
Continuous
 62
     3
370
     9
100
AcDbLine
 10
293.8246902878763
 20
-835.5855794006941
 30
0.0
 11
286.9639086513991
 21
-842.4462735495199
 31
0.0
  0
LINE
  5
526
330
1F
100
AcDbEntity
  8
2-0
  6
Continuous
 62
     3
370
     9
100
AcDbLine
 10
37.27450100819571
 20
-835.5854919130423
 30
0.0
 11
44.13528264467292
 21
-842.4461860618683
 31
0.0
  0
LINE
  5
527
330
1F
100
AcDbEntity
  8
2-0
  6
Continuous
 62
     3
370
     9
100
AcDbLine
 10
400.1494830982648
 20
-863.8605385377747
 30
0.0
 11
315.5492739762662
 21
-863.8605385377747
 31
0.0
  0
LINE
  5
528
330
1F
100
AcDbEntity
  8
2-0
  6
Continuous
 62
     3
370
     9
100
AcDbLine
 10
296.9032057714828
 20
-835.8903863787798
 30
0.0
 11
315.5492739762662
 21
-863.8605385377747
 31
0.0
  0
LINE
  5
529
330
1F
100
AcDbEntity
  8
2-0
  6
Continuous
 62
     3
370
     9
100
AcDbLine
 10
15.54921741859236
 20
-863.8605385377747
 30
0.0
 11
-69.05064175279958
 21
-863.8605385377747
 31
0.0
  0
LINE
  5
52A
330
1F
100
AcDbEntity
  8
2-0
  6
Continuous
 62
     3
370
     9
100
AcDbLine
 10
15.54921741859236
 20
-863.8605385377747
 30
0.0
 11
34.19598552458925
 21
-835.8903863787798
 31
0.0
  0
LINE
  5
52B
330
1F
100
AcDbEntity
  8
2-0
  6
Continuous
 62
     3
370
     9
100
AcDbLine
 10
55.54927161969719
 20
-833.8604978869467
 30
0.0
 11
46.96358344477463
 21
-842.4461860618683
 31
0.0
  0
LINE
  5
52C
330
1F
100
AcDbEntity
  8
2-0
  6
Continuous
 62
     3
370
     9
100
AcDbLine
 10
75.54964867085519
 20
-833.8604978869467
 30
0.0
 11
55.54927161969719
 21
-833.8604978869467
 31
0.0
  0
LINE
  5
52D
330
1F
100
AcDbEntity
  8
2-0
  6
Continuous
 62
     3
370
     9
100
AcDbLine
 10
75.54964867085519
 20
-833.8604978869467
 30
0.0
 11
84.1353368457766
 21
-842.4462735495199
 31
0.0
  0
LINE
  5
52E
330
1F
100
AcDbEntity
  8
2-0
  6
Continuous
 62
     3
370
     9
100
AcDbLine
 10
95.54932582080087
 20
-833.8604978869467
 30
0.0
 11
86.96363764587946
 21
-842.4462735495199
 31
0.0
  0
LINE
  5
52F
330
1F
100
AcDbEntity
  8
2-0
  6
Continuous
 62
     3
370
     9
100
AcDbLine
 10
115.5497028719589
 20
-833.8604978869467
 30
0.0
 11
95.54932582080087
 21
-833.8604978869467
 31
0.0
  0
LINE
  5
530
330
1F
100
AcDbEntity
  8
2-0
  6
Continuous
 62
     3
370
     9
100
AcDbLine
 10
115.5497028719589
 20
-833.8604978869467
 30
0.0
 11
124.1353910468803
 21
-842.4462735495199
 31
0.0
  0
LINE
  5
531
330
1F
100
AcDbEntity
  8
2-0
  6
Continuous
 62
     3
370
     9
100
AcDbLine
 10
135.5493800219046
 20
-833.8604978869467
 30
0.0
 11
126.9636918469832
 21
-842.4462735495199
 31
0.0
  0
LINE
  5
532
330
1F
100
AcDbEntity
  8
2-0
  6
Continuous
 62
     3
370
     9
100
AcDbLine
 10
155.5497570730626
 20
-833.8604978869467
 30
0.0
 11
135.5493800219046
 21
-833.8604978869467
 31
0.0
  0
LINE
  5
533
330
1F
100
AcDbEntity
  8
2-0
  6
Continuous
 62
     3
370
     9
100
AcDbLine
 10
155.5497570730626
 20
-833.8604978869467
 30
0.0
 11
164.1354452479851
 21
-842.4462735495199
 31
0.0
  0
LINE
  5
534
330
1F
100
AcDbEntity
  8
2-0
  6
Continuous
 62
     3
370
     9
100
AcDbLine
 10
175.5494342230083
 20
-833.8604978869467
 30
0.0
 11
166.9637460480868
 21
-842.4462735495199
 31
0.0
  0
LINE
  5
535
330
1F
100
AcDbEntity
  8
2-0
  6
Continuous
 62
     3
370
     9
100
AcDbLine
 10
195.5498112741674
 20
-833.8604978869467
 30
0.0
 11
175.5494342230083
 21
-833.8604978869467
 31
0.0
  0
LINE
  5
536
330
1F
100
AcDbEntity
  8
2-0
  6
Continuous
 62
     3
370
     9
100
AcDbLine
 10
195.5498112741674
 20
-833.8604978869467
 30
0.0
 11
204.1354994490888
 21
-842.4462735495199
 31
0.0
  0
LINE
  5
537
330
1F
100
AcDbEntity
  8
2-0
  6
Continuous
 62
     3
370
     9
100
AcDbLine
 10
215.5494884241131
 20
-833.8604978869467
 30
0.0
 11
206.9638002491917
 21
-842.4462735495199
 31
0.0
  0
LINE
  5
538
330
1F
100
AcDbEntity
  8
2-0
  6
Continuous
 62
     3
370
     9
100
AcDbLine
 10
235.5498654752711
 20
-833.8604978869467
 30
0.0
 11
215.5494884241131
 21
-833.8604978869467
 31
0.0
  0
LINE
  5
539
330
1F
100
AcDbEntity
  8
2-0
  6
Continuous
 62
     3
370
     9
100
AcDbLine
 10
235.5498654752711
 20
-833.8604978869467
 30
0.0
 11
244.1355536501925
 21
-842.4462735495199
 31
0.0
  0
LINE
  5
53A
330
1F
100
AcDbEntity
  8
2-0
  6
Continuous
 62
     3
370
     9
100
AcDbLine
 10
255.5495426252168
 20
-833.8604978869467
 30
0.0
 11
246.9638544502954
 21
-842.4462735495199
 31
0.0
  0
LINE
  5
53B
330
1F
100
AcDbEntity
  8
2-0
  6
Continuous
 62
     3
370
     9
100
AcDbLine
 10
275.5499196763748
 20
-833.8604978869467
 30
0.0
 11
255.5495426252168
 21
-833.8604978869467
 31
0.0
  0
LINE
  5
53C
330
1F
100
AcDbEntity
  8
2-0
  6
Continuous
 62
     3
370
     9
100
AcDbLine
 10
275.5499196763748
 20
-833.8604978869467
 30
0.0
 11
284.1356078512962
 21
-842.4462735495199
 31
0.0
  0
LINE
  5
53D
330
1F
100
AcDbEntity
  8
2-F
  6
Continuous
 62
     7
370
     9
100
AcDbLine
 10
15.54921741859236
 20
-843.8605114372227
 30
0.0
 11
15.54921741859236
 21
-670.1464302731904
 31
0.0
  0
LINE
  5
53E
330
1F
100
AcDbEntity
  8
2-F
  6
Continuous
 62
     7
370
     9
100
AcDbLine
 10
-0.1628649029867901
 20
-843.8603364619196
 30
0.0
 11
-150.298324066461
 21
-843.8603364619196
 31
0.0
  0
LINE
  5
53F
330
1F
100
AcDbEntity
  8
2-F
  6
Continuous
 62
     7
370
     9
100
AcDbLine
 10
2.558700962194429
 20
-833.8604978869467
 30
0.0
 11
-219.0669427348297
 21
-833.8604978869467
 31
0.0
  0
ARC
  5
540
330
1F
100
AcDbEntity
  8
2-0
  6
Continuous
 62
     3
370
     9
100
AcDbCircle
 10
36.9570958082824
 20
-903.8605052512271
 30
0.0
 40
19.99999976066088
100
AcDbArc
 50
270.0
 51
326.3095855712891
  0
ARC
  5
541
330
1F
100
AcDbEntity
  8
2-0
  6
Continuous
 62
     3
370
     9
100
AcDbCircle
 10
294.1420954877896
 20
-903.8605052512271
 30
0.0
 40
19.99999976066088
100
AcDbArc
 50
213.690414428711
 51
270.0
  0
ARC
  5
542
330
1F
100
AcDbEntity
  8
2-0
  6
Continuous
 62
     3
370
     9
100
AcDbCircle
 10
45.54943304472378
 20
-841.0319481741653
 30
0.0
 40
2.000000010240953
100
AcDbArc
 50
225.0017700195312
 51
314.9982299804688
  0
ARC
  5
543
330
1F
100
AcDbEntity
  8
2-0
  6
Continuous
 62
     3
370
     9
100
AcDbCircle
 10
85.54948724582746
 20
-841.0321231494686
 30
0.0
 40
2.000000010240953
100
AcDbArc
 50
225.0
 51
315.0
  0
ARC
  5
544
330
1F
100
AcDbEntity
  8
2-0
  6
Continuous
 62
     3
370
     9
100
AcDbCircle
 10
125.5495414469323
 20
-841.0321231494686
 30
0.0
 40
2.000000010240953
100
AcDbArc
 50
225.0
 51
315.0
  0
ARC
  5
545
330
1F
100
AcDbEntity
  8
2-0
  6
Continuous
 62
     3
370
     9
100
AcDbCircle
 10
165.549595648036
 20
-841.0321231494686
 30
0.0
 40
2.000000010240953
100
AcDbArc
 50
225.0
 51
315.0
  0
ARC
  5
546
330
1F
100
AcDbEntity
  8
2-0
  6
Continuous
 62
     3
370
     9
100
AcDbCircle
 10
205.5496498491397
 20
-841.0321231494686
 30
0.0
 40
2.000000010240953
100
AcDbArc
 50
225.0
 51
315.0
  0
ARC
  5
547
330
1F
100
AcDbEntity
  8
2-0
  6
Continuous
 62
     3
370
     9
100
AcDbCircle
 10
245.5497040502434
 20
-841.0321231494686
 30
0.0
 40
2.000000010240953
100
AcDbArc
 50
225.0
 51
315.0
  0
ARC
  5
548
330
1F
100
AcDbEntity
  8
2-0
  6
Continuous
 62
     3
370
     9
100
AcDbCircle
 10
285.5497582513482
 20
-841.0321231494686
 30
0.0
 40
2.000000010240953
100
AcDbArc
 50
225.0
 51
315.0
  0
ARC
  5
549
330
1F
100
AcDbEntity
  8
2-0
  6
Continuous
 62
     3
370
     9
100
AcDbCircle
 10
295.2388406879283
 20
-836.9998172883969
 30
0.0
 40
2.000000010240953
100
AcDbArc
 50
33.68937683105469
 51
134.9982299804688
  0
ARC
  5
54A
330
1F
100
AcDbEntity
  8
2-0
  6
Continuous
 62
     3
370
     9
100
AcDbCircle
 10
35.86035060814371
 20
-836.9997298007452
 30
0.0
 40
2.000000010240953
100
AcDbArc
 50
45.00177001953125
 51
146.3127136230469
  0
TEXT
  5
54B
330
1F
100
AcDbEntity
  8
2-F
  6
Continuous
 62
     2
370
     9
100
AcDbText
 10
121.7990707221265
 20
-662.5064625581958
 30
0.0
 40
30.48
  1
Φ15
 41
1.09375
  7
ＭＳ ゴシック
100
AcDbText
  0
TEXT
  5
54C
330
1F
100
AcDbEntity
  8
2-F
  6
Continuous
 62
     2
370
     9
100
AcDbText
 10
209.372173872012
 20
-743.8738279792111
 30
0.0
 40
30.48
  1
1
 41
0.9999999999999998
  7
ＭＳ ゴシック
100
AcDbText
  0
TEXT
  5
54D
330
1F
100
AcDbEntity
  8
2-F
  6
Continuous
 62
     2
370
     9
100
AcDbText
 10
82.89022613884359
 20
-743.8738279792111
 30
0.0
 40
30.48
  1
1
 41
0.9999999999999998
  7
ＭＳ ゴシック
100
AcDbText
  0
TEXT
  5
54E
330
1F
100
AcDbEntity
  8
2-F
  6
Continuous
 62
     2
370
     9
100
AcDbText
 10
-226.7069104498242
 20
-881.3605182123606
 30
0.0
 40
30.48
  1
1.5
 50
90.0
 41
1.083333333333333
  7
ＭＳ ゴシック
100
AcDbText
  0
TEXT
  5
54F
330
1F
100
AcDbEntity
  8
2-F
  6
Continuous
 62
     2
370
     9
100
AcDbText
 10
-157.9382917814556
 20
-801.0935724728504
 30
0.0
 40
30.48
  1
0.5
 50
90.0
 41
1.083333333333333
  7
ＭＳ ゴシック
100
AcDbText
  0
LWPOLYLINE
  5
550
330
1F
100
AcDbEntity
  8
2-F
  6
Continuous
 62
     7
370
     9
100
AcDbPolyline
 90
        4
 70
     1
 43
1.0
 10
156.0497570730626
 20
-754.5138347543491
 42
0.4142135623731
 10
155.5497570730626
 20
-754.0138347543491
 42
0.4142135623731
 10
155.0497570730626
 20
-754.5138347543491
 42
0.4142135623731
 10
155.5497570730626
 20
-755.0138347543491
 42
0.4142135623731
  0
TEXT
  5
551
330
1F
100
AcDbEntity
  8
D-5
  6
Continuous
 62
     2
370
     9
100
AcDbText
 10
1189.730164353651
 20
-931.6425177184893
 30
0.0
 40
30.48
  1
ＸＱ－Ｂ－１５　４５０Ｘ４５０
 50
359.999975610655
 41
1.116666666666666
  7
ＭＳ ゴシック
100
AcDbText
  0
TEXT
  5
552
330
1F
100
AcDbEntity
  8
F-5
  6
Continuous
 62
     2
370
     9
100
AcDbText
 10
-835.0002886797931
 20
-1347.468295749974
 30
0.0
 40
30.48
  1
ステンレス製排水蓋　ＸＱ－Ｂ－１５　４５０Ｘ４５０
 41
1.12
  7
ＭＳ ゴシック
100
AcDbText
  0
LINE
  5
553
330
1F
100
AcDbEntity
  8
0-0
  6
JWW_CENTER1
 62
     7
370
     9
100
AcDbLine
 10
-509.8488812836118
 20
1087.715894301879
 30
0.0
 11
-509.8488812836118
 21
219.8616655743569
 31
0.0
  0
LINE
  5
554
330
1F
100
AcDbEntity
  8
0-4
  6
Continuous
 62
     7
370
     9
100
AcDbLine
 10
-1017.247914870093
 20
239.1587118969773
 30
0.0
 11
-1017.247914870093
 21
279.1587311030205
 31
0.0
  0
LINE
  5
555
330
1F
100
AcDbEntity
  8
0-4
  6
Continuous
 62
     7
370
     9
100
AcDbLine
 10
-1017.247914870093
 20
239.1587118969773
 30
0.0
 11
-1013.332129103492
 21
209.4153660557629
 31
0.0
  0
LINE
  5
556
330
1F
100
AcDbEntity
  8
0-4
  6
Continuous
 62
     7
370
     9
100
AcDbLine
 10
-1017.247914870093
 20
239.1587118969773
 30
0.0
 11
-1021.163700636695
 21
209.4153660557629
 31
0.0
  0
LINE
  5
557
330
1F
100
AcDbEntity
  8
0-4
  6
Continuous
 62
     7
370
     9
100
AcDbLine
 10
-1017.247914870093
 20
279.1587311030205
 30
0.0
 11
-1013.332129103492
 21
308.9020769442348
 31
0.0
  0
LINE
  5
558
330
1F
100
AcDbEntity
  8
0-4
  6
Continuous
 62
     7
370
     9
100
AcDbLine
 10
-1017.247914870093
 20
279.1587311030205
 30
0.0
 11
-1021.163700636695
 21
308.9020769442348
 31
0.0
  0
LINE
  5
559
330
1F
100
AcDbEntity
  8
0-4
  6
Continuous
 62
     7
370
     9
100
AcDbLine
 10
-1020.247914870093
 20
239.1587118969773
 30
0.0
 11
-969.0895061728395
 21
239.1587118969773
 31
0.0
  0
TEXT
  5
55A
330
1F
100
AcDbEntity
  8
0-4
  6
Continuous
 62
     2
370
   211
100
AcDbText
 10
-1027.887914870093
 20
237.9087214999988
 30
0.0
 40
30.48
  1
20
 50
90.0
 41
1.0625
  7
ＭＳ ゴシック
100
AcDbText
  0
LINE
  5
55B
330
1F
100
AcDbEntity
  8
0-4
  6
Continuous
 62
     7
370
     9
100
AcDbLine
 10
-1020.247914870093
 20
279.1587311030205
 30
0.0
 11
-558.343621399177
 21
279.1587311030205
 31
0.0
  0
LINE
  5
55C
330
1F
100
AcDbEntity
  8
0-4
  6
Continuous
 62
     7
370
     9
100
AcDbLine
 10
-1017.247914870093
 20
192.4776816249514
 30
0.0
 11
-1017.247914870093
 21
313.6294589323811
 31
0.0
  0
ENDSEC
  0
SECTION
  2
OBJECTS
  0
DICTIONARY
  5
C
330
0
100
AcDbDictionary
281
     1
  3
ACAD_GROUP
350
D
  3
ACAD_LAYOUT
350
1A
  3
ACAD_MLEADERSTYLE
350
55E
  3
ACAD_MLINESTYLE
350
17
  3
ACAD_PLOTSETTINGS
350
19
  3
ACAD_PLOTSTYLENAME
350
E
  3
ACAD_TABLESTYLE
350
55D
  3
ACAD_VISUALSTYLE
350
2A
  0
DICTIONARY
  5
D
102
{ACAD_REACTORS
330
C
102
}
330
C
100
AcDbDictionary
281
     1
  0
DICTIONARY
  5
1A
102
{ACAD_REACTORS
330
C
102
}
330
C
100
AcDbDictionary
281
     1
  3
Layout1
350
1E
  3
Layout2
350
26
  3
Model
350
22
  0
DICTIONARY
  5
55E
102
{ACAD_REACTORS
330
C
102
}
330
C
100
AcDbDictionary
281
     1
  0
DICTIONARY
  5
17
102
{ACAD_REACTORS
330
C
102
}
330
C
100
AcDbDictionary
281
     1
  3
Standard
350
18
  0
DICTIONARY
  5
19
102
{ACAD_REACTORS
330
C
102
}
330
C
100
AcDbDictionary
281
     1
  0
ACDBDICTIONARYWDFLT
  5
E
102
{ACAD_REACTORS
330
C
102
}
330
C
100
AcDbDictionary
281
     1
  3
Normal
350
F
100
AcDbDictionaryWithDefault
340
F
  0
DICTIONARY
  5
55D
102
{ACAD_REACTORS
330
C
102
}
330
C
100
AcDbDictionary
281
     1
  0
DICTIONARY
  5
2A
102
{ACAD_REACTORS
330
C
102
}
330
C
100
AcDbDictionary
281
     1
  3
2dWireframe
350
2F
  3
3D Hidden
350
31
  3
3dWireframe
350
30
  3
Basic
350
32
  3
Brighten
350
36
  3
ColorChange
350
3A
  3
Conceptual
350
34
  3
Dim
350
35
  3
Facepattern
350
39
  3
Flat
350
2B
  3
FlatWithEdges
350
2C
  3
Gouraud
350
2D
  3
GouraudWithEdges
350
2E
  3
Linepattern
350
38
  3
Realistic
350
33
  3
Thicken
350
37
  0
LAYOUT
  5
1E
102
{ACAD_REACTORS
330
1A
102
}
330
1A
100
AcDbPlotSettings
  1

  2
none_device
  4

  6

 40
0.0
 41
0.0
 42
0.0
 43
0.0
 44
0.0
 45
0.0
 46
0.0
 47
0.0
 48
0.0
 49
0.0
140
0.0
141
0.0
142
1.0
143
1.0
 70
   688
 72
     0
 73
     0
 74
     5
  7

 75
    16
 76
     0
 77
     5
 78
   300
147
1.0
148
0.0
149
0.0
100
AcDbLayout
  1
Layout1
 70
     1
 71
     1
 10
0.0
 20
0.0
 11
420.0
 21
297.0
 12
0.0
 22
0.0
 32
0.0
 14
1.000000000000000E+20
 24
1.000000000000000E+20
 34
1.000000000000000E+20
 15
-1.000000000000000E+20
 25
-1.000000000000000E+20
 35
-1.000000000000000E+20
146
0.0
 13
0.0
 23
0.0
 33
0.0
 16
1.0
 26
0.0
 36
0.0
 17
0.0
 27
1.0
 37
0.0
 76
     0
330
1B
  0
LAYOUT
  5
26
102
{ACAD_REACTORS
330
1A
102
}
330
1A
100
AcDbPlotSettings
  1

  2
none_device
  4

  6

 40
0.0
 41
0.0
 42
0.0
 43
0.0
 44
0.0
 45
0.0
 46
0.0
 47
0.0
 48
0.0
 49
0.0
140
0.0
141
0.0
142
1.0
143
1.0
 70
   688
 72
     0
 73
     0
 74
     5
  7

 75
    16
 76
     0
 77
     5
 78
   300
147
1.0
148
0.0
149
0.0
100
AcDbLayout
  1
Layout2
 70
     1
 71
     2
 10
0.0
 20
0.0
 11
0.0
 21
0.0
 12
0.0
 22
0.0
 32
0.0
 14
0.0
 24
0.0
 34
0.0
 15
0.0
 25
0.0
 35
0.0
146
0.0
 13
0.0
 23
0.0
 33
0.0
 16
1.0
 26
0.0
 36
0.0
 17
0.0
 27
1.0
 37
0.0
 76
     0
330
23
  0
LAYOUT
  5
22
102
{ACAD_REACTORS
330
1A
102
}
330
1A
100
AcDbPlotSettings
  1

  2
none_device
  4

  6

 40
0.0
 41
0.0
 42
0.0
 43
0.0
 44
0.0
 45
0.0
 46
0.0
 47
0.0
 48
0.0
 49
0.0
140
0.0
141
0.0
142
1.0
143
1.0
 70
  1712
 72
     0
 73
     0
 74
     0
  7

 75
     0
 76
     0
 77
     5
 78
   300
147
1.0
148
0.0
149
0.0
100
AcDbLayout
  1
Model
 70
     1
 71
     0
 10
-2100.0
 20
-1485.0
 11
2100.0
 21
1485.0
 12
0.0
 22
0.0
 32
0.0
 14
-2100.0
 24
-1485.0
 34
0.0
 15
2100.0
 25
1485.0
 35
0.0
146
0.0
 13
0.0
 23
0.0
 33
0.0
 16
1.0
 26
0.0
 36
0.0
 17
0.0
 27
1.0
 37
0.0
 76
     0
330
1F
331
29
  0
MLINESTYLE
  5
18
102
{ACAD_REACTORS
330
17
102
}
330
17
100
AcDbMlineStyle
  2
Standard
 70
     0
  3

 62
   256
 51
90.0
 52
90.0
 71
     2
 49
0.5
 62
   256
  6
BYLAYER
 49
-0.5
 62
   256
  6
BYLAYER
  0
ACDBPLACEHOLDER
  5
F
102
{ACAD_REACTORS
330
E
102
}
330
E
  0
VISUALSTYLE
  5
2F
102
{ACAD_REACTORS
330
2A
102
}
330
2A
100
AcDbVisualStyle
  2
2dWireframe
 70
     4
 71
     0
 72
     2
 73
     0
 90
        0
 40
-0.6
 41
-30.0
 62
     5
 63
     7
421
 16777215
 74
     1
 91
        4
 64
     7
 65
   257
 75
     1
175
     1
 42
1.0
 92
        0
 66
   257
 43
1.0
 76
     1
 77
     6
 78
     2
 67
     7
 79
     5
170
     0
171
     0
290
     0
174
     0
 93
        1
 44
0.0
173
     0
291
     0
 45
0.0
1001
ACAD
1000
AcDbSavedByObjectVersion
1070
     0
  0
VISUALSTYLE
  5
31
102
{ACAD_REACTORS
330
2A
102
}
330
2A
100
AcDbVisualStyle
  2
3D Hidden
 70
     6
 71
     1
 72
     2
 73
     2
 90
        0
 40
-0.6
 41
-30.0
 62
     5
 63
     7
421
 16777215
 74
     2
 91
        2
 64
     7
 65
   257
 75
     2
175
     1
 42
40.0
 92
        0
 66
   257
 43
1.0
 76
     1
 77
     6
 78
     2
 67
     7
 79
     3
170
     0
171
     0
290
     0
174
     0
 93
        1
 44
0.0
173
     0
291
     0
 45
0.0
1001
ACAD
1000
AcDbSavedByObjectVersion
1070
     0
  0
VISUALSTYLE
  5
30
102
{ACAD_REACTORS
330
2A
102
}
330
2A
100
AcDbVisualStyle
  2
3dWireframe
 70
     5
 71
     0
 72
     2
 73
     0
 90
        0
 40
-0.6
 41
-30.0
 62
     5
 63
     7
421
 16777215
 74
     1
 91
        4
 64
     7
 65
   257
 75
     1
175
     1
 42
1.0
 92
        0
 66
   257
 43
1.0
 76
     1
 77
     6
 78
     2
 67
     7
 79
     5
170
     0
171
     0
290
     0
174
     0
 93
        1
 44
0.0
173
     0
291
     0
 45
0.0
1001
ACAD
1000
AcDbSavedByObjectVersion
1070
     0
  0
VISUALSTYLE
  5
32
102
{ACAD_REACTORS
330
2A
102
}
330
2A
100
AcDbVisualStyle
  2
Basic
 70
     7
 71
     1
 72
     0
 73
     1
 90
        0
 40
-0.6
 41
-30.0
 62
     5
 63
     7
421
 16777215
 74
     0
 91
        4
 64
     7
 65
   257
 75
     1
175
     1
 42
1.0
 92
        8
 66
     7
 43
1.0
 76
     1
 77
     6
 78
     2
 67
     7
 79
     5
170
     0
171
     0
290
     0
174
     0
 93
        1
 44
0.0
173
     0
291
     1
 45
0.0
1001
ACAD
1000
AcDbSavedByObjectVersion
1070
     0
  0
VISUALSTYLE
  5
36
102
{ACAD_REACTORS
330
2A
102
}
330
2A
100
AcDbVisualStyle
  2
Brighten
 70
    12
 71
     2
 72
     2
 73
     0
 90
        0
 40
-0.6
 41
-30.0
 62
     5
 63
     7
421
 16777215
 74
     1
 91
        4
 64
     7
 65
   257
 75
     1
175
     1
 42
1.0
 92
        8
 66
     7
 43
1.0
 76
     1
 77
     6
 78
     2
 67
     7
 79
     5
170
     0
171
     0
290
     0
174
     0
 93
        1
 44
50.0
173
     0
291
     1
 45
0.0
1001
ACAD
1000
AcDbSavedByObjectVersion
1070
     0
  0
VISUALSTYLE
  5
3A
102
{ACAD_REACTORS
330
2A
102
}
330
2A
100
AcDbVisualStyle
  2
ColorChange
 70
    16
 71
     2
 72
     2
 73
     3
 90
        0
 40
-0.6
 41
-30.0
 62
     5
 63
     8
421
  8421504
 74
     1
 91
        4
 64
     7
 65
   257
 75
     1
175
     1
 42
1.0
 92
        8
 66
     8
424
  8421504
 43
1.0
 76
     1
 77
     6
 78
     2
 67
     7
 79
     5
170
     0
171
     0
290
     0
174
     0
 93
        1
 44
0.0
173
     0
291
     1
 45
0.0
1001
ACAD
1000
AcDbSavedByObjectVersion
1070
     0
  0
VISUALSTYLE
  5
34
102
{ACAD_REACTORS
330
2A
102
}
330
2A
100
AcDbVisualStyle
  2
Conceptual
 70
     9
 71
     3
 72
     2
 73
     0
 90
        0
 40
-0.6
 41
-30.0
 62
     5
 63
     7
421
 16777215
 74
     2
 91
        2
 64
     7
 65
   257
 75
     1
175
     1
 42
40.0
 92
        8
 66
     7
 43
1.0
 76
     1
 77
     6
 78
     2
 67
     7
 79
     3
170
     0
171
     0
290
     0
174
     0
 93
        1
 44
0.0
173
     0
291
     0
 45
0.0
1001
ACAD
1000
AcDbSavedByObjectVersion
1070
     0
  0
VISUALSTYLE
  5
35
102
{ACAD_REACTORS
330
2A
102
}
330
2A
100
AcDbVisualStyle
  2
Dim
 70
    11
 71
     2
 72
     2
 73
     0
 90
        0
 40
-0.6
 41
-30.0
 62
     5
 63
     7
421
 16777215
 74
     1
 91
        4
 64
     7
 65
   257
 75
     1
175
     1
 42
1.0
 92
        8
 66
     7
 43
1.0
 76
     1
 77
     6
 78
     2
 67
     7
 79
     5
170
     0
171
     0
290
     0
174
     0
 93
        1
 44
-50.0
173
     0
291
     1
 45
0.0
1001
ACAD
1000
AcDbSavedByObjectVersion
1070
     0
  0
VISUALSTYLE
  5
39
102
{ACAD_REACTORS
330
2A
102
}
330
2A
100
AcDbVisualStyle
  2
Facepattern
 70
    15
 71
     2
 72
     2
 73
     0
 90
        0
 40
-0.6
 41
-30.0
 62
     5
 63
     7
421
 16777215
 74
     1
 91
        4
 64
     7
 65
   257
 75
     1
175
     1
 42
1.0
 92
        8
 66
     7
 43
1.0
 76
     1
 77
     6
 78
     2
 67
     7
 79
     5
170
     0
171
     0
290
     0
174
     0
 93
        1
 44
0.0
173
     0
291
     1
 45
0.0
1001
ACAD
1000
AcDbSavedByObjectVersion
1070
     0
  0
VISUALSTYLE
  5
2B
102
{ACAD_REACTORS
330
2A
102
}
330
2A
100
AcDbVisualStyle
  2
Flat
 70
     0
 71
     2
 72
     1
 73
     1
 90
        2
 40
-0.6
 41
30.0
 62
     5
 63
     7
421
 16777215
 74
     0
 91
        4
 64
     7
 65
   257
 75
     1
175
     1
 42
1.0
 92
        8
 66
     7
 43
1.0
 76
     1
 77
     6
 78
     2
 67
     7
 79
     5
170
     0
171
     0
290
     0
174
     0
 93
       13
 44
0.0
173
     0
291
     1
 45
0.0
1001
ACAD
1000
AcDbSavedByObjectVersion
1070
     0
  0
VISUALSTYLE
  5
2C
102
{ACAD_REACTORS
330
2A
102
}
330
2A
100
AcDbVisualStyle
  2
FlatWithEdges
 70
     1
 71
     2
 72
     1
 73
     1
 90
        2
 40
-0.6
 41
30.0
 62
     5
 63
     7
421
 16777215
 74
     1
 91
        4
 64
     7
 65
   257
 75
     1
175
     1
 42
1.0
 92
        0
 66
   257
 43
1.0
 76
     1
 77
     6
 78
     2
 67
     7
 79
     5
170
     0
171
     0
290
     0
174
     0
 93
       13
 44
0.0
173
     0
291
     1
 45
0.0
1001
ACAD
1000
AcDbSavedByObjectVersion
1070
     0
  0
VISUALSTYLE
  5
2D
102
{ACAD_REACTORS
330
2A
102
}
330
2A
100
AcDbVisualStyle
  2
Gouraud
 70
     2
 71
     2
 72
     2
 73
     1
 90
        2
 40
-0.6
 41
30.0
 62
     5
 63
     7
421
 16777215
 74
     0
 91
        4
 64
     7
 65
   257
 75
     1
175
     1
 42
1.0
 92
        0
 66
     7
 43
1.0
 76
     1
 77
     6
 78
     2
 67
     7
 79
     5
170
     0
171
     0
290
     0
174
     0
 93
       13
 44
0.0
173
     0
291
     1
 45
0.0
1001
ACAD
1000
AcDbSavedByObjectVersion
1070
     0
  0
VISUALSTYLE
  5
2E
102
{ACAD_REACTORS
330
2A
102
}
330
2A
100
AcDbVisualStyle
  2
GouraudWithEdges
 70
     3
 71
     2
 72
     2
 73
     1
 90
        2
 40
-0.6
 41
30.0
 62
     5
 63
     7
421
 16777215
 74
     1
 91
        4
 64
     7
 65
   257
 75
     1
175
     1
 42
1.0
 92
        0
 66
   257
 43
1.0
 76
     1
 77
     6
 78
     2
 67
     7
 79
     5
170
     0
171
     0
290
     0
174
     0
 93
       13
 44
0.0
173
     0
291
     1
 45
0.0
1001
ACAD
1000
AcDbSavedByObjectVersion
1070
     0
  0
VISUALSTYLE
  5
38
102
{ACAD_REACTORS
330
2A
102
}
330
2A
100
AcDbVisualStyle
  2
Linepattern
 70
    14
 71
     2
 72
     2
 73
     0
 90
        0
 40
-0.6
 41
-30.0
 62
     5
 63
     7
421
 16777215
 74
     1
 91
        4
 64
     7
 65
   257
 75
     7
175
     7
 42
1.0
 92
        8
 66
     7
 43
1.0
 76
     1
 77
     6
 78
     2
 67
     7
 79
     5
170
     0
171
     0
290
     0
174
     0
 93
        1
 44
0.0
173
     0
291
     1
 45
0.0
1001
ACAD
1000
AcDbSavedByObjectVersion
1070
     0
  0
VISUALSTYLE
  5
33
102
{ACAD_REACTORS
330
2A
102
}
330
2A
100
AcDbVisualStyle
  2
Realistic
 70
     8
 71
     2
 72
     2
 73
     0
 90
        0
 40
-0.6
 41
-30.0
 62
     5
 63
     7
421
 16777215
 74
     1
 91
        0
 64
     7
 65
   257
 75
     1
175
     1
 42
1.0
 92
        8
 66
     8
424
  7895160
 43
1.0
 76
     1
 77
     6
 78
     2
 67
     7
 79
     5
170
     0
171
     0
290
     0
174
     0
 93
       13
 44
0.0
173
     0
291
     0
 45
0.0
1001
ACAD
1000
AcDbSavedByObjectVersion
1070
     0
  0
VISUALSTYLE
  5
37
102
{ACAD_REACTORS
330
2A
102
}
330
2A
100
AcDbVisualStyle
  2
Thicken
 70
    13
 71
     2
 72
     2
 73
     0
 90
        0
 40
-0.6
 41
-30.0
 62
     5
 63
     7
421
 16777215
 74
     1
 91
        4
 64
     7
 65
   257
 75
     1
175
     1
 42
1.0
 92
       12
 66
     7
 43
1.0
 76
     1
 77
     6
 78
     2
 67
     7
 79
     5
170
     0
171
     0
290
     0
174
     0
 93
        1
 44
0.0
173
     0
291
     1
 45
0.0
1001
ACAD
1000
AcDbSavedByObjectVersion
1070
     0
  0
ENDSEC
  0
EOF
