  0
SECTION
  2
HEADER
  9
$ACADVER
  1
AC1018
  9
$ACADMAINTVER
 70
     0
  9
$DWGCODEPAGE
  3
ANSI_932
  9
$INSBASE
 10
0.0
 20
0.0
 30
0.0
  9
$EXTMIN
 10
-2100.0
 20
-1485.0
 30
0.0
  9
$EXTMAX
 10
2100.0
 20
1485.0
 30
0.0
  9
$LIMMIN
 10
-2100.0
 20
-1485.0
  9
$LIMMAX
 10
2100.0
 20
1485.0
  9
$ORTHOMODE
 70
     0
  9
$REGENMODE
 70
     1
  9
$FILLMODE
 70
     1
  9
$QTEXTMODE
 70
     0
  9
$MIRRTEXT
 70
     1
  9
$LTSCALE
 40
10.0
  9
$ATTMODE
 70
     1
  9
$TEXTSIZE
 40
2.5
  9
$TRACEWID
 40
1.0
  9
$TEXTSTYLE
  7
Standard
  9
$CLAYER
  8
0
  9
$CELTYPE
  6
ByLayer
  9
$CECOLOR
 62
   256
  9
$CELTSCALE
 40
1.0
  9
$DISPSILH
 70
     0
  9
$DIMSCALE
 40
1.0
  9
$DIMASZ
 40
2.5
  9
$DIMEXO
 40
0.625
  9
$DIMDLI
 40
3.75
  9
$DIMRND
 40
0.0
  9
$DIMDLE
 40
0.0
  9
$DIMEXE
 40
1.25
  9
$DIMTP
 40
0.0
  9
$DIMTM
 40
0.0
  9
$DIMTXT
 40
2.5
  9
$DIMCEN
 40
2.5
  9
$DIMTSZ
 40
0.0
  9
$DIMTOL
 70
     0
  9
$DIMLIM
 70
     0
  9
$DIMTIH
 70
     0
  9
$DIMTOH
 70
     0
  9
$DIMSE1
 70
     0
  9
$DIMSE2
 70
     0
  9
$DIMTAD
 70
     1
  9
$DIMZIN
 70
     8
  9
$DIMBLK
  1

  9
$DIMASO
 70
     1
  9
$DIMSHO
 70
     1
  9
$DIMPOST
  1

  9
$DIMAPOST
  1

  9
$DIMALT
 70
     0
  9
$DIMALTD
 70
     3
  9
$DIMALTF
 40
0.03937007874016
  9
$DIMLFAC
 40
1.0
  9
$DIMTOFL
 70
     1
  9
$DIMTVP
 40
0.0
  9
$DIMTIX
 70
     0
  9
$DIMSOXD
 70
     0
  9
$DIMSAH
 70
     0
  9
$DIMBLK1
  1

  9
$DIMBLK2
  1

  9
$DIMSTYLE
  2
ISO-25
  9
$DIMCLRD
 70
     0
  9
$DIMCLRE
 70
     0
  9
$DIMCLRT
 70
     0
  9
$DIMTFAC
 40
1.0
  9
$DIMGAP
 40
0.625
  9
$DIMJUST
 70
     0
  9
$DIMSD1
 70
     0
  9
$DIMSD2
 70
     0
  9
$DIMTOLJ
 70
     0
  9
$DIMTZIN
 70
     8
  9
$DIMALTZ
 70
     0
  9
$DIMALTTZ
 70
     0
  9
$DIMUPT
 70
     0
  9
$DIMDEC
 70
     2
  9
$DIMTDEC
 70
     2
  9
$DIMALTU
 70
     2
  9
$DIMALTTD
 70
     3
  9
$DIMTXSTY
  7
Standard
  9
$DIMAUNIT
 70
     0
  9
$DIMADEC
 70
     0
  9
$DIMALTRND
 40
0.0
  9
$DIMAZIN
 70
     0
  9
$DIMDSEP
 70
    44
  9
$DIMATFIT
 70
     3
  9
$DIMFRAC
 70
     0
  9
$DIMLDRBLK
  1

  9
$DIMLUNIT
 70
     2
  9
$DIMLWD
 70
    -2
  9
$DIMLWE
 70
    -2
  9
$DIMTMOVE
 70
     0
  9
$LUNITS
 70
     2
  9
$LUPREC
 70
     4
  9
$SKETCHINC
 40
1.0
  9
$FILLETRAD
 40
10.0
  9
$AUNITS
 70
     0
  9
$AUPREC
 70
     0
  9
$MENU
  1
.
  9
$ELEVATION
 40
0.0
  9
$PELEVATION
 40
0.0
  9
$THICKNESS
 40
0.0
  9
$LIMCHECK
 70
     0
  9
$CHAMFERA
 40
10.0
  9
$CHAMFERB
 40
10.0
  9
$CHAMFERC
 40
20.0
  9
$CHAMFERD
 40
0.0
  9
$SKPOLY
 70
     0
  9
$TDCREATE
 40
2456499.588108414
  9
$TDUCREATE
 40
2456499.213108414
  9
$TDUPDATE
 40
2456499.588108426
  9
$TDUUPDATE
 40
2456499.213108426
  9
$TDINDWG
 40
0.0000000116
  9
$TDUSRTIMER
 40
0.0000000116
  9
$USRTIMER
 70
     1
  9
$ANGBASE
 50
0.0
  9
$ANGDIR
 70
     0
  9
$PDMODE
 70
     0
  9
$PDSIZE
 40
0.0
  9
$PLINEWID
 40
0.0
  9
$SPLFRAME
 70
     0
  9
$SPLINETYPE
 70
     6
  9
$SPLINESEGS
 70
     8
  9
$HANDSEED
  5
1C5
  9
$SURFTAB1
 70
     6
  9
$SURFTAB2
 70
     6
  9
$SURFTYPE
 70
     6
  9
$SURFU
 70
     6
  9
$SURFV
 70
     6
  9
$UCSBASE
  2

  9
$UCSNAME
  2

  9
$UCSORG
 10
0.0
 20
0.0
 30
0.0
  9
$UCSXDIR
 10
1.0
 20
0.0
 30
0.0
  9
$UCSYDIR
 10
0.0
 20
1.0
 30
0.0
  9
$UCSORTHOREF
  2

  9
$UCSORTHOVIEW
 70
     0
  9
$UCSORGTOP
 10
0.0
 20
0.0
 30
0.0
  9
$UCSORGBOTTOM
 10
0.0
 20
0.0
 30
0.0
  9
$UCSORGLEFT
 10
0.0
 20
0.0
 30
0.0
  9
$UCSORGRIGHT
 10
0.0
 20
0.0
 30
0.0
  9
$UCSORGFRONT
 10
0.0
 20
0.0
 30
0.0
  9
$UCSORGBACK
 10
0.0
 20
0.0
 30
0.0
  9
$PUCSBASE
  2

  9
$PUCSNAME
  2

  9
$PUCSORG
 10
0.0
 20
0.0
 30
0.0
  9
$PUCSXDIR
 10
1.0
 20
0.0
 30
0.0
  9
$PUCSYDIR
 10
0.0
 20
1.0
 30
0.0
  9
$PUCSORTHOREF
  2

  9
$PUCSORTHOVIEW
 70
     0
  9
$PUCSORGTOP
 10
0.0
 20
0.0
 30
0.0
  9
$PUCSORGBOTTOM
 10
0.0
 20
0.0
 30
0.0
  9
$PUCSORGLEFT
 10
0.0
 20
0.0
 30
0.0
  9
$PUCSORGRIGHT
 10
0.0
 20
0.0
 30
0.0
  9
$PUCSORGFRONT
 10
0.0
 20
0.0
 30
0.0
  9
$PUCSORGBACK
 10
0.0
 20
0.0
 30
0.0
  9
$USERI1
 70
     0
  9
$USERI2
 70
     0
  9
$USERI3
 70
     0
  9
$USERI4
 70
     0
  9
$USERI5
 70
     0
  9
$USERR1
 40
0.0
  9
$USERR2
 40
0.0
  9
$USERR3
 40
0.0
  9
$USERR4
 40
0.0
  9
$USERR5
 40
0.0
  9
$WORLDVIEW
 70
     1
  9
$SHADEDGE
 70
     3
  9
$SHADEDIF
 70
    70
  9
$TILEMODE
 70
     1
  9
$MAXACTVP
 70
    64
  9
$PINSBASE
 10
0.0
 20
0.0
 30
0.0
  9
$PLIMCHECK
 70
     0
  9
$PEXTMIN
 10
1.000000000000000E+20
 20
1.000000000000000E+20
 30
1.000000000000000E+20
  9
$PEXTMAX
 10
-1.000000000000000E+20
 20
-1.000000000000000E+20
 30
-1.000000000000000E+20
  9
$PLIMMIN
 10
0.0
 20
0.0
  9
$PLIMMAX
 10
420.0
 20
297.0
  9
$UNITMODE
 70
     0
  9
$VISRETAIN
 70
     1
  9
$PLINEGEN
 70
     0
  9
$PSLTSCALE
 70
     1
  9
$TREEDEPTH
 70
  3020
  9
$CMLSTYLE
  2
Standard
  9
$CMLJUST
 70
     0
  9
$CMLSCALE
 40
20.0
  9
$PROXYGRAPHICS
 70
     1
  9
$MEASUREMENT
 70
     1
  9
$CELWEIGHT
370
    -1
  9
$ENDCAPS
280
     0
  9
$JOINSTYLE
280
     0
  9
$LWDISPLAY
290
     0
  9
$INSUNITS
 70
     4
  9
$HYPERLINKBASE
  1

  9
$STYLESHEET
  1

  9
$XEDIT
290
     1
  9
$CEPSNTYPE
380
     0
  9
$PSTYLEMODE
290
     1
  9
$FINGERPRINTGUID
  2
{EAAF86C3-B137-438F-8C67-4EA107A33404}
  9
$VERSIONGUID
  2
{FAEB1C32-E019-11D5-929B-00C0DF256EC4}
  9
$EXTNAMES
290
     1
  9
$PSVPSCALE
 40
0.0
  9
$OLESTARTUP
290
     0
  9
$SORTENTS
280
   127
  9
$INDEXCTL
280
     0
  9
$HIDETEXT
280
     1
  9
$XCLIPFRAME
290
     0
  9
$HALOGAP
280
     0
  9
$OBSCOLOR
 70
   257
  9
$OBSLTYPE
280
     0
  9
$INTERSECTIONDISPLAY
280
     0
  9
$INTERSECTIONCOLOR
 70
   257
  9
$DIMASSOC
280
     2
  9
$PROJECTNAME
  1

  0
ENDSEC
  0
SECTION
  2
CLASSES
  0
CLASS
  1
ACDBDICTIONARYWDFLT
  2
AcDbDictionaryWithDefault
  3
ObjectDBX Classes
 90
        0
 91
        4
280
     0
281
     0
  0
CLASS
  1
VISUALSTYLE
  2
AcDbVisualStyle
  3
ObjectDBX Classes
 90
     4095
 91
        4
280
     0
281
     0
  0
ENDSEC
  0
SECTION
  2
TABLES
  0
TABLE
  2
VPORT
  5
8
330
0
100
AcDbSymbolTable
 70
     1
  0
VPORT
  5
29
330
8
100
AcDbSymbolTableRecord
100
AcDbViewportTableRecord
  2
*Active
 70
     0
 10
0.0
 20
0.0
 11
1.0
 21
1.0
 12
0.0
 22
0.0
 13
0.0
 23
0.0
 14
10.0
 24
10.0
 15
10.0
 25
10.0
 16
0.0
 26
0.0
 36
1.0
 17
0.0
 27
0.0
 37
0.0
 40
3267.0
 41
1.414141414141414
 42
50.0
 43
0.0
 44
0.0
 50
0.0
 51
0.0
 71
     0
 72
 10000
 73
     1
 74
     3
 75
     0
 76
     0
 77
     0
 78
     0
281
     0
 65
     1
110
0.0
120
0.0
130
0.0
111
1.0
121
0.0
131
0.0
112
0.0
122
1.0
132
0.0
 79
     0
146
0.0
  0
ENDTAB
  0
TABLE
  2
LTYPE
  5
5
330
0
100
AcDbSymbolTable
 70
     3
  0
LTYPE
  5
14
330
5
100
AcDbSymbolTableRecord
100
AcDbLinetypeTableRecord
  2
ByBlock
 70
     0
  3

 72
    65
 73
     0
 40
0.0
  0
LTYPE
  5
15
330
5
100
AcDbSymbolTableRecord
100
AcDbLinetypeTableRecord
  2
ByLayer
 70
     0
  3

 72
    65
 73
     0
 40
0.0
  0
LTYPE
  5
16
330
5
100
AcDbSymbolTableRecord
100
AcDbLinetypeTableRecord
  2
Continuous
 70
     0
  3
Solid line
 72
    65
 73
     0
 40
0.0
  0
LTYPE
  5
3C
330
5
100
AcDbSymbolTableRecord
100
AcDbLinetypeTableRecord
  2
JWW_CENTER1
 70
     0
  3
-----  --  ----------  --  -----
 72
    65
 73
     4
 40
6.773333333333333
 49
4.233333333333333
 74
     0
 49
-0.8466666666666667
 74
     0
 49
0.8466666666666667
 74
     0
 49
-0.8466666666666667
 74
     0
  0
LTYPE
  5
3D
330
5
100
AcDbSymbolTableRecord
100
AcDbLinetypeTableRecord
  2
JWW_DASHED1
 70
     0
  3
-  --  --  --  --  --  --  --  -
 72
    65
 73
     2
 40
1.693333333333333
 49
0.8466666666666667
 74
     0
 49
-0.8466666666666667
 74
     0
  0
ENDTAB
  0
TABLE
  2
LAYER
  5
2
330
0
100
AcDbSymbolTable
 70
     6
  0
LAYER
  5
10
330
2
100
AcDbSymbolTableRecord
100
AcDbLayerTableRecord
  2
0
 70
     0
 62
     7
  6
Continuous
370
    -3
390
F
  0
LAYER
  5
3E
330
2
100
AcDbSymbolTableRecord
100
AcDbLayerTableRecord
  2
0-F
 70
     0
 62
     7
  6
Continuous
370
    -3
390
F
  0
LAYER
  5
3F
330
2
100
AcDbSymbolTableRecord
100
AcDbLayerTableRecord
  2
0-0
 70
     0
 62
     7
  6
Continuous
370
    -3
390
F
  0
LAYER
  5
40
330
2
100
AcDbSymbolTableRecord
100
AcDbLayerTableRecord
  2
0-D
 70
     0
 62
     7
  6
Continuous
370
    -3
390
F
  0
LAYER
  5
41
330
2
100
AcDbSymbolTableRecord
100
AcDbLayerTableRecord
  2
0-1
 70
     0
 62
     7
  6
Continuous
370
    -3
390
F
  0
LAYER
  5
42
330
2
100
AcDbSymbolTableRecord
100
AcDbLayerTableRecord
  2
0-5
 70
     0
 62
     7
  6
Continuous
370
    -3
390
F
  0
ENDTAB
  0
TABLE
  2
STYLE
  5
3
330
0
100
AcDbSymbolTable
 70
     2
  0
STYLE
  5
11
330
3
100
AcDbSymbolTableRecord
100
AcDbTextStyleTableRecord
  2
Standard
 70
     0
 40
0.0
 41
1.0
 50
0.0
 71
     0
 42
2.5
  3
txt
  4

1001
ACAD
1000

1071
        0
  0
STYLE
  5
3B
330
3
100
AcDbSymbolTableRecord
100
AcDbTextStyleTableRecord
  2
ＭＳ ゴシック
 70
     0
 40
1.0
 41
1.0
 50
0.0
 71
     0
 42
10.0
  3

  4

1001
ACAD
1000
MS Gothic
1071
    32817
  0
ENDTAB
  0
TABLE
  2
VIEW
  5
6
330
0
100
AcDbSymbolTable
 70
     0
  0
ENDTAB
  0
TABLE
  2
UCS
  5
7
330
0
100
AcDbSymbolTable
 70
     0
  0
ENDTAB
  0
TABLE
  2
APPID
  5
9
330
0
100
AcDbSymbolTable
 70
     1
  0
APPID
  5
12
330
9
100
AcDbSymbolTableRecord
100
AcDbRegAppTableRecord
  2
ACAD
 70
     0
  0
ENDTAB
  0
TABLE
  2
DIMSTYLE
  5
A
330
0
100
AcDbSymbolTable
 70
     1
100
AcDbDimStyleTable
  0
DIMSTYLE
105
27
330
A
100
AcDbSymbolTableRecord
100
AcDbDimStyleTableRecord
  2
ISO-25
 70
     0
 41
2.5
 42
0.625
 43
3.75
 44
1.25
 73
     0
 74
     0
 77
     1
 78
     8
140
2.5
141
2.5
143
0.03937007874016
147
0.625
171
     3
172
     1
271
     2
272
     2
274
     3
278
    44
283
     0
284
     8
340
11
  0
ENDTAB
  0
TABLE
  2
BLOCK_RECORD
  5
1
330
0
100
AcDbSymbolTable
 70
     1
  0
BLOCK_RECORD
  5
1F
330
1
100
AcDbSymbolTableRecord
100
AcDbBlockTableRecord
  2
*Model_Space
340
22
  0
BLOCK_RECORD
  5
1B
330
1
100
AcDbSymbolTableRecord
100
AcDbBlockTableRecord
  2
*Paper_Space
340
1E
  0
BLOCK_RECORD
  5
23
330
1
100
AcDbSymbolTableRecord
100
AcDbBlockTableRecord
  2
*Paper_Space0
340
26
  0
ENDTAB
  0
ENDSEC
  0
SECTION
  2
BLOCKS
  0
BLOCK
  5
20
330
1F
100
AcDbEntity
  8
0
100
AcDbBlockBegin
  2
*Model_Space
 70
     0
 10
0.0
 20
0.0
 30
0.0
  3
*Model_Space
  1

  0
ENDBLK
  5
21
330
1F
100
AcDbEntity
  8
0
100
AcDbBlockEnd
  0
BLOCK
  5
1C
330
1B
100
AcDbEntity
 67
     1
  8
0
100
AcDbBlockBegin
  2
*Paper_Space
 70
     0
 10
0.0
 20
0.0
 30
0.0
  3
*Paper_Space
  1

  0
ENDBLK
  5
1D
330
1B
100
AcDbEntity
 67
     1
  8
0
100
AcDbBlockEnd
  0
BLOCK
  5
24
330
23
100
AcDbEntity
  8
0
100
AcDbBlockBegin
  2
*Paper_Space0
 70
     0
 10
0.0
 20
0.0
 30
0.0
  3
*Paper_Space0
  1

  0
ENDBLK
  5
25
330
23
100
AcDbEntity
  8
0
100
AcDbBlockEnd
  0
ENDSEC
  0
SECTION
  2
ENTITIES
  0
LINE
  5
43
330
1F
100
AcDbEntity
  8
0-F
  6
Continuous
 62
     7
370
    13
100
AcDbLine
 10
-1264.82403729413
 20
1073.954599741343
 30
0.0
 11
-1240.037742820946
 21
1077.21734124261
 31
0.0
  0
LINE
  5
44
330
1F
100
AcDbEntity
  8
0-F
  6
Continuous
 62
     7
370
    13
100
AcDbLine
 10
-1264.82403729413
 20
1073.954599741343
 30
0.0
 11
-1240.037742820946
 21
1070.691363360431
 31
0.0
  0
LINE
  5
45
330
1F
100
AcDbEntity
  8
0-F
  6
Continuous
 62
     7
370
    13
100
AcDbLine
 10
-98.1573981207768
 20
1073.954599741343
 30
0.0
 11
-122.9434451541385
 21
1077.21734124261
 31
0.0
  0
LINE
  5
46
330
1F
100
AcDbEntity
  8
0-F
  6
Continuous
 62
     7
370
    13
100
AcDbLine
 10
-98.1573981207768
 20
1073.954599741343
 30
0.0
 11
-122.9434451541385
 21
1070.691363360431
 31
0.0
  0
LINE
  5
47
330
1F
100
AcDbEntity
  8
0-F
  6
Continuous
 62
     7
370
    13
100
AcDbLine
 10
-1264.82403729413
 20
758.3792526657519
 30
0.0
 11
-1264.82403729413
 21
1076.954560150971
 31
0.0
  0
LINE
  5
48
330
1F
100
AcDbEntity
  8
0-F
  6
Continuous
 62
     7
370
    13
100
AcDbLine
 10
-98.1573981207768
 20
758.3792526657519
 30
0.0
 11
-98.1573981207768
 21
1076.954560150971
 31
0.0
  0
LINE
  5
49
330
1F
100
AcDbEntity
  8
0-F
  6
Continuous
 62
     7
370
    13
100
AcDbLine
 10
-1264.82403729413
 20
1073.954599741343
 30
0.0
 11
-98.1573981207768
 21
1073.954599741343
 31
0.0
  0
LINE
  5
4A
330
1F
100
AcDbEntity
  8
0-F
  6
Continuous
 62
     7
370
    13
100
AcDbLine
 10
-922.7407094594594
 20
631.8729215054898
 30
0.0
 11
-1175.33148688239
 21
777.706282332137
 31
0.0
  0
LINE
  5
4B
330
1F
100
AcDbEntity
  8
0-F
  6
Continuous
 62
     7
370
    13
100
AcDbLine
 10
-1011.251913534628
 20
682.9746885557432
 30
0.0
 11
-1175.33148688239
 21
777.706282332137
 31
0.0
  0
LINE
  5
4C
330
1F
100
AcDbEntity
  8
0-0
  6
Continuous
 62
     3
370
    13
100
AcDbLine
 10
-681.4905939875422
 20
873.1205625791811
 30
0.0
 11
-922.7397197001688
 21
873.122542097762
 31
0.0
  0
LINE
  5
4D
330
1F
100
AcDbEntity
  8
0-0
  6
JWW_CENTER1
 62
     3
370
    13
100
AcDbLine
 10
-681.4905939875422
 20
923.5374162003802
 30
0.0
 11
-922.7395959802575
 21
923.5393957189613
 31
0.0
  0
LINE
  5
4E
330
1F
100
AcDbEntity
  8
0-0
  6
Continuous
 62
     3
370
    13
100
AcDbLine
 10
-681.4905939875422
 20
973.9542698215794
 30
0.0
 11
-922.7393485404349
 21
973.9562493401606
 31
0.0
  0
LINE
  5
4F
330
1F
100
AcDbEntity
  8
0-0
  6
Continuous
 62
     3
370
    13
100
AcDbLine
 10
934.3426678631761
 20
-526.042760900549
 30
0.0
 11
1035.175880225929
 21
-526.042389740815
 31
0.0
  0
LINE
  5
50
330
1F
100
AcDbEntity
  8
0-0
  6
Continuous
 62
     3
370
    13
100
AcDbLine
 10
898.2783137141047
 20
923.5406329180745
 30
0.0
 11
1076.656692092483
 21
923.5413752375425
 31
0.0
  0
LINE
  5
51
330
1F
100
AcDbEntity
  8
0-0
  6
Continuous
 62
     3
370
    13
100
AcDbLine
 10
934.3426678631761
 20
-109.3756268475505
 30
0.0
 11
934.3426678631761
 21
-526.042760900549
 31
0.0
  0
LINE
  5
52
330
1F
100
AcDbEntity
  8
0-0
  6
Continuous
 62
     3
370
    13
100
AcDbLine
 10
1035.175880225929
 20
-109.3756268475505
 30
0.0
 11
1035.175880225929
 21
-526.042389740815
 31
0.0
  0
LINE
  5
53
330
1F
100
AcDbEntity
  8
0-0
  6
JWW_CENTER1
 62
     3
370
    13
100
AcDbLine
 10
984.759521484375
 20
1005.684962917019
 30
0.0
 11
984.759521484375
 21
-595.8811662003801
 31
0.0
  0
LINE
  5
54
330
1F
100
AcDbEntity
  8
0-0
  6
Continuous
 62
     3
370
    13
100
AcDbLine
 10
934.3426678631761
 20
923.5408803578971
 30
0.0
 11
934.3426678631761
 21
-109.3756268475505
 31
0.0
  0
LINE
  5
55
330
1F
100
AcDbEntity
  8
0-0
  6
Continuous
 62
     3
370
    13
100
AcDbLine
 10
1035.175880225929
 20
923.5408803578971
 30
0.0
 11
1035.175880225929
 21
-109.3756268475505
 31
0.0
  0
LINE
  5
56
330
1F
100
AcDbEntity
  8
0-F
  6
Continuous
 62
     7
370
    13
100
AcDbLine
 10
1563.255021378801
 20
-559.3756268475506
 30
0.0
 11
426.7683699324326
 21
-559.3756268475506
 31
0.0
  0
LINE
  5
57
330
1F
100
AcDbEntity
  8
0-D
  6
Continuous
 62
     2
370
    13
100
AcDbLine
 10
1234.734117662584
 20
-474.3755938555742
 30
0.0
 11
1268.117708773227
 21
-474.3755938555742
 31
0.0
  0
LINE
  5
58
330
1F
100
AcDbEntity
  8
0-D
  6
Continuous
 62
     2
370
    13
100
AcDbLine
 10
1046.842172983531
 20
-259.3508828652871
 30
0.0
 11
1046.842172983531
 21
-292.7339790962837
 31
0.0
  0
LINE
  5
59
330
1F
100
AcDbEntity
  8
0-D
  6
Continuous
 62
     2
370
    13
100
AcDbLine
 10
1058.080889727618
 20
-292.7339790962837
 30
0.0
 11
1046.842172983531
 21
-292.7339790962837
 31
0.0
  0
LINE
  5
5A
330
1F
100
AcDbEntity
  8
0-D
  6
Continuous
 62
     2
370
    13
100
AcDbLine
 10
1058.080889727618
 20
-259.3508828652871
 30
0.0
 11
1046.842172983531
 21
-259.3508828652871
 31
0.0
  0
LINE
  5
5B
330
1F
100
AcDbEntity
  8
0-D
  6
Continuous
 62
     2
370
    13
100
AcDbLine
 10
1059.342337943413
 20
-262.6965167071367
 30
0.0
 11
1059.342337943413
 21
-289.3880978146115
 31
0.0
  0
LINE
  5
5C
330
1F
100
AcDbEntity
  8
0-D
  6
Continuous
 62
     2
370
    13
100
AcDbLine
 10
907.8859071473818
 20
-294.2923550992398
 30
0.0
 11
922.6758802259292
 21
-294.2923550992398
 31
0.0
  0
LINE
  5
5D
330
1F
100
AcDbEntity
  8
0-D
  6
Continuous
 62
     2
370
    13
100
AcDbLine
 10
922.6758802259292
 20
-294.2923550992398
 30
0.0
 11
922.6758802259292
 21
-257.7922594225083
 31
0.0
  0
LINE
  5
5E
330
1F
100
AcDbEntity
  8
0-D
  6
Continuous
 62
     2
370
    13
100
AcDbLine
 10
907.8859071473818
 20
-257.7922594225083
 30
0.0
 11
922.6758802259292
 21
-257.7922594225083
 31
0.0
  0
LINE
  5
5F
330
1F
100
AcDbEntity
  8
0-D
  6
Continuous
 62
     2
370
    13
100
AcDbLine
 10
907.8859071473818
 20
-285.1509382918074
 30
0.0
 11
922.6758802259292
 21
-285.1509382918074
 31
0.0
  0
LINE
  5
60
330
1F
100
AcDbEntity
  8
0-D
  6
Continuous
 62
     2
370
    13
100
AcDbLine
 10
907.8859071473818
 20
-266.9336762299407
 30
0.0
 11
922.6758802259292
 21
-266.9336762299407
 31
0.0
  0
LINE
  5
61
330
1F
100
AcDbEntity
  8
0-D
  6
Continuous
 62
     2
370
    13
100
AcDbLine
 10
906.0093235325172
 20
-289.7216466955235
 30
0.0
 11
906.0093235325172
 21
-262.3629678262246
 31
0.0
  0
LINE
  5
62
330
1F
100
AcDbEntity
  8
0-D
  6
Continuous
 62
     2
370
    13
100
AcDbLine
 10
896.8421729835308
 20
-284.4640453441723
 30
0.0
 11
898.4208390519427
 21
-286.0422165329392
 31
0.0
  0
LINE
  5
63
330
1F
100
AcDbEntity
  8
0-D
  6
Continuous
 62
     2
370
    13
100
AcDbLine
 10
896.8421729835308
 20
-284.4640453441723
 30
0.0
 11
896.8421729835308
 21
-267.6205691775759
 31
0.0
  0
LINE
  5
64
330
1F
100
AcDbEntity
  8
0-D
  6
Continuous
 62
     2
370
    13
100
AcDbLine
 10
896.8421729835308
 20
-267.6205691775759
 30
0.0
 11
898.4208390519427
 21
-266.0421505489865
 31
0.0
  0
LINE
  5
65
330
1F
100
AcDbEntity
  8
0-D
  6
Continuous
 62
     2
370
    13
100
AcDbLine
 10
898.4208390519427
 20
-266.0421505489865
 30
0.0
 11
898.4208390519427
 21
-286.0422165329392
 31
0.0
  0
LINE
  5
66
330
1F
100
AcDbEntity
  8
0-D
  6
Continuous
 62
     2
370
    13
100
AcDbLine
 10
1058.080889727618
 20
-266.0421505489865
 30
0.0
 11
922.6758802259292
 21
-266.0421505489865
 31
0.0
  0
LINE
  5
67
330
1F
100
AcDbEntity
  8
0-D
  6
Continuous
 62
     2
370
    13
100
AcDbLine
 10
906.0093235325172
 20
-266.0421505489865
 30
0.0
 11
898.4208390519427
 21
-266.0421505489865
 31
0.0
  0
LINE
  5
68
330
1F
100
AcDbEntity
  8
0-D
  6
Continuous
 62
     2
370
    13
100
AcDbLine
 10
1046.842172983531
 20
-284.4640453441723
 30
0.0
 11
922.6758802259292
 21
-284.4640453441723
 31
0.0
  0
LINE
  5
69
330
1F
100
AcDbEntity
  8
0-D
  6
Continuous
 62
     2
370
    13
100
AcDbLine
 10
906.0093235325172
 20
-284.4640453441723
 30
0.0
 11
896.8421729835308
 21
-284.4640453441723
 31
0.0
  0
LINE
  5
6A
330
1F
100
AcDbEntity
  8
0-D
  6
Continuous
 62
     2
370
    13
100
AcDbLine
 10
1058.080889727618
 20
-286.0422165329392
 30
0.0
 11
922.6758802259292
 21
-286.0422165329392
 31
0.0
  0
LINE
  5
6B
330
1F
100
AcDbEntity
  8
0-D
  6
Continuous
 62
     2
370
    13
100
AcDbLine
 10
906.0093235325172
 20
-286.0422165329392
 30
0.0
 11
898.4208390519427
 21
-286.0422165329392
 31
0.0
  0
LINE
  5
6C
330
1F
100
AcDbEntity
  8
0-D
  6
Continuous
 62
     2
370
    13
100
AcDbLine
 10
1046.842172983531
 20
-267.6205691775759
 30
0.0
 11
922.6758802259292
 21
-267.6205691775759
 31
0.0
  0
LINE
  5
6D
330
1F
100
AcDbEntity
  8
0-D
  6
Continuous
 62
     2
370
    13
100
AcDbLine
 10
906.0093235325172
 20
-267.6205691775759
 30
0.0
 11
896.8421729835308
 21
-267.6205691775759
 31
0.0
  0
LINE
  5
6E
330
1F
100
AcDbEntity
  8
0-D
  6
JWW_CENTER1
 62
     2
370
    13
100
AcDbLine
 10
1069.298326646959
 20
-276.0421835409628
 30
0.0
 11
892.9929991026182
 21
-276.0421835409628
 31
0.0
  0
LINE
  5
6F
330
1F
100
AcDbEntity
  8
0-0
  6
Continuous
 62
     2
370
    13
100
AcDbLine
 10
1023.044895481419
 20
-526.8309804555531
 30
0.0
 11
1036.05676599451
 21
-526.0874237885346
 31
0.0
  0
LINE
  5
70
330
1F
100
AcDbEntity
  8
0-0
  6
Continuous
 62
     2
370
    13
100
AcDbLine
 10
1022.259521484375
 20
-527.6628731392525
 30
0.0
 11
1022.259521484375
 21
-544.3758247994087
 31
0.0
  0
LINE
  5
71
330
1F
100
AcDbEntity
  8
0-0
  6
Continuous
 62
     2
370
    13
100
AcDbLine
 10
1303.685698638091
 20
-491.8713213946367
 30
0.0
 11
1288.992721970017
 21
-489.8449129671662
 31
0.0
  0
LINE
  5
72
330
1F
100
AcDbEntity
  8
0-0
  6
Continuous
 62
     2
370
    13
100
AcDbLine
 10
1037.676012193834
 20
-264.3758907833615
 30
0.0
 11
1046.842172983531
 21
-264.3758907833615
 31
0.0
  0
LINE
  5
73
330
1F
100
AcDbEntity
  8
0-0
  6
Continuous
 62
     2
370
    13
100
AcDbLine
 10
1037.676012193834
 20
-287.7089711782094
 30
0.0
 11
1046.842172983531
 21
-287.7089711782094
 31
0.0
  0
LINE
  5
74
330
1F
100
AcDbEntity
  8
0-0
  6
Continuous
 62
     2
370
    13
100
AcDbLine
 10
1067.921076594173
 20
-459.3756680875211
 30
0.0
 11
1055.175946209882
 21
-459.3756680875211
 31
0.0
  0
LINE
  5
75
330
1F
100
AcDbEntity
  8
0-0
  6
Continuous
 62
     2
370
    13
100
AcDbLine
 10
1068.262543549409
 20
-459.3991748706713
 30
0.0
 11
1176.67236328125
 21
-474.352087072424
 31
0.0
  0
LINE
  5
76
330
1F
100
AcDbEntity
  8
0-0
  6
Continuous
 62
     2
370
    13
100
AcDbLine
 10
1282.518706450591
 20
-474.3755938555742
 30
0.0
 11
1177.013830236486
 21
-474.3755938555742
 31
0.0
  0
LINE
  5
77
330
1F
100
AcDbEntity
  8
0-0
  6
Continuous
 62
     2
370
    13
100
AcDbLine
 10
1285.003992029139
 20
-476.6029234190245
 30
0.0
 11
1286.135286898227
 21
-486.9065650733741
 31
0.0
  0
LINE
  5
78
330
1F
100
AcDbEntity
  8
0-0
  6
Continuous
 62
     2
370
    13
100
AcDbLine
 10
1317.97435863598
 20
-542.0002787822001
 30
0.0
 11
1310.767426361909
 21
-498.756953059016
 31
0.0
  0
LINE
  5
79
330
1F
100
AcDbEntity
  8
0-0
  6
Continuous
 62
     2
370
    13
100
AcDbLine
 10
1046.842172983531
 20
-195.209037162162
 30
0.0
 11
1046.842172983531
 21
-266.0421505489865
 31
0.0
  0
LINE
  5
7A
330
1F
100
AcDbEntity
  8
0-0
  6
Continuous
 62
     2
370
    13
100
AcDbLine
 10
1046.842172983531
 20
-286.0422165329392
 30
0.0
 11
1046.842172983531
 21
-451.0422660209036
 31
0.0
  0
LINE
  5
7B
330
1F
100
AcDbEntity
  8
0-0
  6
Continuous
 62
     2
370
    13
100
AcDbLine
 10
1036.8426348712
 20
-192.7091526340794
 30
0.0
 11
1036.8426348712
 21
-266.0421505489865
 31
0.0
  0
LINE
  5
7C
330
1F
100
AcDbEntity
  8
0-0
  6
Continuous
 62
     2
370
    13
100
AcDbLine
 10
1036.8426348712
 20
-286.0422165329392
 30
0.0
 11
1036.8426348712
 21
-525.2555311048353
 31
0.0
  0
LINE
  5
7D
330
1F
100
AcDbEntity
  8
0-0
  6
Continuous
 62
     2
370
    13
100
AcDbLine
 10
1317.816492029139
 20
-543.3728274783572
 30
0.0
 11
1311.148483688767
 21
-559.3756268475506
 31
0.0
  0
LINE
  5
7E
330
1F
100
AcDbEntity
  8
0-0
  6
Continuous
 62
     2
370
    13
100
AcDbLine
 10
1224.91075670397
 20
-559.3756268475506
 30
0.0
 11
1218.758907833615
 21
-545.8414108688767
 31
0.0
  0
LINE
  5
7F
330
1F
100
AcDbEntity
  8
0-0
  6
Continuous
 62
     2
370
    13
100
AcDbLine
 10
1263.092700855152
 20
-474.3755938555742
 30
0.0
 11
1263.092700855152
 21
-559.3756268475506
 31
0.0
  0
LINE
  5
80
330
1F
100
AcDbEntity
  8
0-0
  6
Continuous
 62
     2
370
    13
100
AcDbLine
 10
1239.759125580659
 20
-474.3755938555742
 30
0.0
 11
1239.759125580659
 21
-559.3756268475506
 31
0.0
  0
LINE
  5
81
330
1F
100
AcDbEntity
  8
0-0
  6
Continuous
 62
     2
370
    13
100
AcDbLine
 10
946.473652607686
 20
-526.8309804555531
 30
0.0
 11
933.4617820945948
 21
-526.0874237885346
 31
0.0
  0
LINE
  5
82
330
1F
100
AcDbEntity
  8
0-0
  6
Continuous
 62
     2
370
    13
100
AcDbLine
 10
947.259521484375
 20
-527.6628731392525
 30
0.0
 11
947.259521484375
 21
-544.3758247994087
 31
0.0
  0
LINE
  5
83
330
1F
100
AcDbEntity
  8
0-0
  6
Continuous
 62
     2
370
    13
100
AcDbLine
 10
665.8323545713682
 20
-491.8713213946367
 30
0.0
 11
680.525826119088
 21
-489.8449129671662
 31
0.0
  0
LINE
  5
84
330
1F
100
AcDbEntity
  8
0-0
  6
Continuous
 62
     2
370
    13
100
AcDbLine
 10
931.8430307749156
 20
-264.3758907833615
 30
0.0
 11
922.6758802259292
 21
-264.3758907833615
 31
0.0
  0
LINE
  5
85
330
1F
100
AcDbEntity
  8
0-0
  6
Continuous
 62
     2
370
    13
100
AcDbLine
 10
931.8430307749156
 20
-287.7089711782094
 30
0.0
 11
922.6758802259292
 21
-287.7089711782094
 31
0.0
  0
LINE
  5
86
330
1F
100
AcDbEntity
  8
0-0
  6
Continuous
 62
     2
370
    13
100
AcDbLine
 10
901.5979663745776
 20
-459.3756680875211
 30
0.0
 11
914.3430967588682
 21
-459.3756680875211
 31
0.0
  0
LINE
  5
87
330
1F
100
AcDbEntity
  8
0-0
  6
Continuous
 62
     2
370
    13
100
AcDbLine
 10
901.2560045396964
 20
-459.3991748706713
 30
0.0
 11
792.8461848078547
 21
-474.352087072424
 31
0.0
  0
LINE
  5
88
330
1F
100
AcDbEntity
  8
0-0
  6
Continuous
 62
     2
370
    13
100
AcDbLine
 10
686.9998416385135
 20
-474.3755938555742
 30
0.0
 11
792.5047178526182
 21
-474.3755938555742
 31
0.0
  0
LINE
  5
89
330
1F
100
AcDbEntity
  8
0-0
  6
Continuous
 62
     2
370
    13
100
AcDbLine
 10
684.5145560599661
 20
-476.6029234190245
 30
0.0
 11
683.3832611908787
 21
-486.9065650733741
 31
0.0
  0
LINE
  5
8A
330
1F
100
AcDbEntity
  8
0-0
  6
Continuous
 62
     2
370
    13
100
AcDbLine
 10
651.544189453125
 20
-542.0002787822001
 30
0.0
 11
658.7511217271958
 21
-498.756953059016
 31
0.0
  0
LINE
  5
8B
330
1F
100
AcDbEntity
  8
0-0
  6
Continuous
 62
     2
370
    13
100
AcDbLine
 10
922.6758802259292
 20
-195.209037162162
 30
0.0
 11
922.6758802259292
 21
-266.0421505489865
 31
0.0
  0
LINE
  5
8C
330
1F
100
AcDbEntity
  8
0-0
  6
Continuous
 62
     2
370
    13
100
AcDbLine
 10
922.6758802259292
 20
-286.0422165329392
 30
0.0
 11
922.6758802259292
 21
-451.0422660209036
 31
0.0
  0
LINE
  5
8D
330
1F
100
AcDbEntity
  8
0-0
  6
Continuous
 62
     2
370
    13
100
AcDbLine
 10
932.6759132179058
 20
-192.7091526340794
 30
0.0
 11
932.6759132179058
 21
-266.0421505489865
 31
0.0
  0
LINE
  5
8E
330
1F
100
AcDbEntity
  8
0-0
  6
Continuous
 62
     2
370
    13
100
AcDbLine
 10
932.6759132179058
 20
-286.0422165329392
 30
0.0
 11
932.6759132179058
 21
-525.2555311048353
 31
0.0
  0
LINE
  5
8F
330
1F
100
AcDbEntity
  8
0-0
  6
Continuous
 62
     2
370
    13
100
AcDbLine
 10
651.7025509396115
 20
-543.3728274783572
 30
0.0
 11
658.3705592799834
 21
-559.375750567462
 31
0.0
  0
LINE
  5
90
330
1F
100
AcDbEntity
  8
0-0
  6
Continuous
 62
     2
370
    13
100
AcDbLine
 10
744.6077913851354
 20
-559.375750567462
 30
0.0
 11
750.7596402554901
 21
-545.8414108688767
 31
0.0
  0
LINE
  5
91
330
1F
100
AcDbEntity
  8
0-0
  6
Continuous
 62
     2
370
    13
100
AcDbLine
 10
706.4258472339526
 20
-474.3755938555742
 30
0.0
 11
706.4258472339526
 21
-559.375750567462
 31
0.0
  0
LINE
  5
92
330
1F
100
AcDbEntity
  8
0-0
  6
Continuous
 62
     2
370
    13
100
AcDbLine
 10
729.7589276288011
 20
-474.3755938555742
 30
0.0
 11
729.7589276288011
 21
-559.375750567462
 31
0.0
  0
LINE
  5
93
330
1F
100
AcDbEntity
  8
0-0
  6
Continuous
 62
     2
370
    13
100
AcDbLine
 10
925.1760121938344
 20
-192.7091526340794
 30
0.0
 11
934.3421729835308
 21
-192.7091526340794
 31
0.0
  0
LINE
  5
94
330
1F
100
AcDbEntity
  8
0-0
  6
Continuous
 62
     2
370
    13
100
AcDbLine
 10
1044.343030774916
 20
-192.7091526340794
 30
0.0
 11
1035.175880225929
 21
-192.7091526340794
 31
0.0
  0
LINE
  5
95
330
1F
100
AcDbEntity
  8
0-0
  6
Continuous
 62
     2
370
    13
100
AcDbLine
 10
934.7489640519427
 20
-526.0426371806376
 30
0.0
 11
1034.769089157517
 21
-526.0426371806376
 31
0.0
  0
LINE
  5
96
330
1F
100
AcDbEntity
  8
0-0
  6
Continuous
 62
     2
370
    13
100
AcDbLine
 10
947.259521484375
 20
-526.8760145032728
 30
0.0
 11
1022.259521484375
 21
-526.8760145032728
 31
0.0
  0
LINE
  5
97
330
1F
100
AcDbEntity
  8
0-0
  6
Continuous
 62
     2
370
    13
100
AcDbLine
 10
753.0360866237334
 20
-544.3758247994087
 30
0.0
 11
1216.482956345017
 21
-544.37594851932
 31
0.0
  0
LINE
  5
98
330
1F
100
AcDbEntity
  8
0-0
  6
Continuous
 62
     3
370
    13
100
AcDbLine
 10
-1264.823789854308
 20
-109.3756268475505
 30
0.0
 11
-1264.823789854308
 21
-195.4115666569891
 31
0.0
  0
LINE
  5
99
330
1F
100
AcDbEntity
  8
0-0
  6
Continuous
 62
     3
370
    13
100
AcDbLine
 10
-1163.990577491554
 20
-109.3756268475505
 30
0.0
 11
-1163.990577491554
 21
-195.4114429370776
 31
0.0
  0
LINE
  5
9A
330
1F
100
AcDbEntity
  8
0-1
  6
Continuous
 62
     2
370
    13
100
AcDbLine
 10
-1231.098731788429
 20
-276.0425547006968
 30
0.0
 11
-1222.753081450591
 21
-261.5871202623521
 31
0.0
  0
LINE
  5
9B
330
1F
100
AcDbEntity
  8
0-1
  6
Continuous
 62
     2
370
    13
100
AcDbLine
 10
-1222.753081450591
 20
-261.5871202623521
 30
0.0
 11
-1206.061533335093
 21
-261.5871202623521
 31
0.0
  0
LINE
  5
9C
330
1F
100
AcDbEntity
  8
0-1
  6
Continuous
 62
     2
370
    13
100
AcDbLine
 10
-1206.061533335093
 20
-261.5871202623521
 30
0.0
 11
-1197.715635557433
 21
-276.0425547006968
 31
0.0
  0
LINE
  5
9D
330
1F
100
AcDbEntity
  8
0-1
  6
Continuous
 62
     2
370
    13
100
AcDbLine
 10
-1197.715635557433
 20
-276.0425547006968
 30
0.0
 11
-1206.061533335093
 21
-290.4977416992188
 31
0.0
  0
LINE
  5
9E
330
1F
100
AcDbEntity
  8
0-1
  6
Continuous
 62
     2
370
    13
100
AcDbLine
 10
-1222.753081450591
 20
-290.4977416992188
 30
0.0
 11
-1231.098731788429
 21
-276.0425547006968
 31
0.0
  0
LINE
  5
9F
330
1F
100
AcDbEntity
  8
0-D
  6
JWW_CENTER1
 62
     2
370
    13
100
AcDbLine
 10
-1233.412789009713
 20
-276.0425547006968
 30
0.0
 11
-1194.126768369933
 21
-276.0425547006968
 31
0.0
  0
LINE
  5
A0
330
1F
100
AcDbEntity
  8
0-1
  6
Continuous
 62
     2
370
    13
100
AcDbLine
 10
-1206.061533335093
 20
-290.4977416992188
 30
0.0
 11
-1222.753081450591
 21
-290.4977416992188
 31
0.0
  0
LINE
  5
A1
330
1F
100
AcDbEntity
  8
0-0
  6
Continuous
 62
     2
370
    13
100
AcDbLine
 10
-1302.30053051098
 20
-495.7886649466849
 30
0.0
 11
-1214.407431112753
 21
-492.709028914168
 31
0.0
  0
LINE
  5
A2
330
1F
100
AcDbEntity
  8
0-0
  6
Continuous
 62
     2
370
    13
100
AcDbLine
 10
-1298.838352512669
 20
-462.4456539669552
 30
0.0
 11
-1214.407431112753
 21
-459.3755443676098
 31
0.0
  0
LINE
  5
A3
330
1F
100
AcDbEntity
  8
0-0
  6
Continuous
 62
     2
370
    13
100
AcDbLine
 10
-1126.514084274704
 20
-495.7886649466849
 30
0.0
 11
-1214.407431112753
 21
-492.709028914168
 31
0.0
  0
LINE
  5
A4
330
1F
100
AcDbEntity
  8
0-0
  6
Continuous
 62
     2
370
    13
100
AcDbLine
 10
-1129.976014833192
 20
-462.4456539669552
 30
0.0
 11
-1214.407431112753
 21
-459.3755443676098
 31
0.0
  0
LINE
  5
A5
330
1F
100
AcDbEntity
  8
0-0
  6
Continuous
 62
     2
370
    13
100
AcDbLine
 10
-1115.534931904561
 20
-542.7090701541384
 30
0.0
 11
-1313.444230363175
 21
-542.7090701541384
 31
0.0
  0
LINE
  5
A6
330
1F
100
AcDbEntity
  8
0-0
  6
Continuous
 62
     2
370
    13
100
AcDbLine
 10
-1248.1070028769
 20
-477.9751009554475
 30
0.0
 11
-1248.892624313767
 21
-482.1141505885768
 31
0.0
  0
LINE
  5
A7
330
1F
100
AcDbEntity
  8
0-0
  6
Continuous
 62
     2
370
    13
100
AcDbLine
 10
-1245.775872307855
 20
-475.9439911713471
 30
0.0
 11
-1214.407431112753
 21
-474.3758412953969
 31
0.0
  0
LINE
  5
A8
330
1F
100
AcDbEntity
  8
0-0
  6
Continuous
 62
     2
370
    13
100
AcDbLine
 10
-1183.038247598184
 20
-475.9439911713471
 30
0.0
 11
-1214.407431112753
 21
-474.3758412953969
 31
0.0
  0
LINE
  5
A9
330
1F
100
AcDbEntity
  8
0-0
  6
Continuous
 62
     2
370
    13
100
AcDbLine
 10
-1180.707117029138
 20
-477.9751009554475
 30
0.0
 11
-1179.921743032095
 21
-482.1141505885768
 31
0.0
  0
LINE
  5
AA
330
1F
100
AcDbEntity
  8
0-0
  6
Continuous
 62
     2
370
    13
100
AcDbLine
 10
-1276.490330051731
 20
-198.4065782701646
 30
0.0
 11
-1276.490330051731
 21
-461.6334327491553
 31
0.0
  0
LINE
  5
AB
330
1F
100
AcDbEntity
  8
0-0
  6
Continuous
 62
     2
370
    13
100
AcDbLine
 10
-1274.124063027872
 20
-195.9101578995987
 30
0.0
 11
-1214.407431112753
 21
-192.7092763539906
 31
0.0
  0
LINE
  5
AC
330
1F
100
AcDbEntity
  8
0-0
  6
Continuous
 62
     2
370
    13
100
AcDbLine
 10
-1154.690056878167
 20
-195.9101578995987
 30
0.0
 11
-1214.407431112753
 21
-192.7092763539906
 31
0.0
  0
LINE
  5
AD
330
1F
100
AcDbEntity
  8
0-0
  6
Continuous
 62
     2
370
    13
100
AcDbLine
 10
-1152.323789854308
 20
-198.4065782701646
 30
0.0
 11
-1152.323789854308
 21
-461.6334327491553
 31
0.0
  0
LINE
  5
AE
330
1F
100
AcDbEntity
  8
0-0
  6
Continuous
 62
     2
370
    13
100
AcDbLine
 10
-1314.336745803421
 20
-542.0338068781672
 30
0.0
 11
-1306.824225348395
 21
-469.9105422561233
 31
0.0
  0
LINE
  5
AF
330
1F
100
AcDbEntity
  8
0-0
  6
Continuous
 62
     2
370
    13
100
AcDbLine
 10
-1114.477374102618
 20
-542.0338068781672
 30
0.0
 11
-1121.990389437289
 21
-469.9105422561233
 31
0.0
  0
LINE
  5
B0
330
1F
100
AcDbEntity
  8
0-1
  6
JWW_DASHED1
 62
     4
370
    13
100
AcDbLine
 10
-1264.82403729413
 20
-195.4115666569891
 30
0.0
 11
-1264.82403729413
 21
-526.0425134607262
 31
0.0
  0
LINE
  5
B1
330
1F
100
AcDbEntity
  8
0-1
  6
JWW_DASHED1
 62
     4
370
    13
100
AcDbLine
 10
-1163.990577491554
 20
-195.4115666569891
 30
0.0
 11
-1163.990577491554
 21
-526.0425134607262
 31
0.0
  0
LINE
  5
B2
330
1F
100
AcDbEntity
  8
0-0
  6
Continuous
 62
     2
370
    13
100
AcDbLine
 10
-1306.831648543075
 20
-559.3756268475506
 30
0.0
 11
-1314.126174514358
 21
-543.3274222709036
 31
0.0
  0
LINE
  5
B3
330
1F
100
AcDbEntity
  8
0-0
  6
Continuous
 62
     2
370
    13
100
AcDbLine
 10
-1121.982471362964
 20
-559.3756268475506
 30
0.0
 11
-1114.688192831503
 21
-543.3274222709036
 31
0.0
  0
LINE
  5
B4
330
1F
100
AcDbEntity
  8
0-0
  6
JWW_DASHED1
 62
     2
370
    13
100
AcDbLine
 10
-1176.121562236064
 20
-526.8308567356418
 30
0.0
 11
-1163.109691722973
 21
-526.0874237885346
 31
0.0
  0
LINE
  5
B5
330
1F
100
AcDbEntity
  8
0-0
  6
JWW_DASHED1
 62
     2
370
    13
100
AcDbLine
 10
-1252.69305254962
 20
-526.8308567356418
 30
0.0
 11
-1265.704923062711
 21
-526.0874237885346
 31
0.0
  0
LINE
  5
B6
330
1F
100
AcDbEntity
  8
0-0
  6
JWW_DASHED1
 62
     2
370
    13
100
AcDbLine
 10
-1264.41749366554
 20
-526.0425134607262
 30
0.0
 11
-1164.397121120144
 21
-526.0425134607262
 31
0.0
  0
LINE
  5
B7
330
1F
100
AcDbEntity
  8
0-0
  6
JWW_DASHED1
 62
     2
370
    13
100
AcDbLine
 10
-1251.907183672931
 20
-526.8758907833615
 30
0.0
 11
-1176.907431112753
 21
-526.8758907833615
 31
0.0
  0
LINE
  5
B8
330
1F
100
AcDbEntity
  8
0-0
  6
JWW_DASHED1
 62
     2
370
    13
100
AcDbLine
 10
-1162.324070286106
 20
-195.5008924329601
 30
0.0
 11
-1162.324070286106
 21
-525.255407384924
 31
0.0
  0
LINE
  5
B9
330
1F
100
AcDbEntity
  8
0-0
  6
JWW_DASHED1
 62
     2
370
    13
100
AcDbLine
 10
-1266.490544499577
 20
-195.5008924329601
 30
0.0
 11
-1266.490544499577
 21
-525.255407384924
 31
0.0
  0
LINE
  5
BA
330
1F
100
AcDbEntity
  8
0-0
  6
JWW_DASHED1
 62
     2
370
    13
100
AcDbLine
 10
-1251.907183672931
 20
-527.6627494193411
 30
0.0
 11
-1251.907183672931
 21
-543.7507918074324
 31
0.0
  0
LINE
  5
BB
330
1F
100
AcDbEntity
  8
0-0
  6
JWW_DASHED1
 62
     2
370
    13
100
AcDbLine
 10
-1314.315218538851
 20
-542.7108022328969
 30
0.0
 11
-1214.407431112753
 21
-544.3758247994087
 31
0.0
  0
LINE
  5
BC
330
1F
100
AcDbEntity
  8
0-0
  6
JWW_DASHED1
 62
     2
370
    13
100
AcDbLine
 10
-1114.499643686655
 20
-542.7108022328969
 30
0.0
 11
-1214.407431112753
 21
-544.3758247994087
 31
0.0
  0
LINE
  5
BD
330
1F
100
AcDbEntity
  8
0-0
  6
JWW_DASHED1
 62
     2
370
    13
100
AcDbLine
 10
-1176.907431112753
 20
-527.6627494193411
 30
0.0
 11
-1176.907431112753
 21
-543.7507918074324
 31
0.0
  0
LINE
  5
BE
330
1F
100
AcDbEntity
  8
0-0
  6
Continuous
 62
     3
370
    13
100
AcDbLine
 10
939.0093829180745
 20
923.5408803578971
 30
0.0
 11
939.0093829180745
 21
-266.0421505489865
 31
0.0
  0
LINE
  5
BF
330
1F
100
AcDbEntity
  8
0-0
  6
Continuous
 62
     3
370
    13
100
AcDbLine
 10
1030.509165171031
 20
923.5408803578971
 30
0.0
 11
1030.509165171031
 21
-266.0421505489865
 31
0.0
  0
LINE
  5
C0
330
1F
100
AcDbEntity
  8
0-1
  6
Continuous
 62
     4
370
    13
100
AcDbLine
 10
934.3421729835308
 20
-264.3756433435388
 30
0.0
 11
939.0093829180745
 21
-264.3756433435388
 31
0.0
  0
LINE
  5
C1
330
1F
100
AcDbEntity
  8
0-1
  6
Continuous
 62
     4
370
    13
100
AcDbLine
 10
1035.175880225929
 20
-264.3756433435388
 30
0.0
 11
1030.509165171031
 21
-264.3756433435388
 31
0.0
  0
LINE
  5
C2
330
1F
100
AcDbEntity
  8
0-1
  6
Continuous
 62
     4
370
    13
100
AcDbLine
 10
934.3421729835308
 20
-287.7089711782094
 30
0.0
 11
939.0093829180745
 21
-287.7089711782094
 31
0.0
  0
LINE
  5
C3
330
1F
100
AcDbEntity
  8
0-1
  6
Continuous
 62
     4
370
    13
100
AcDbLine
 10
1035.175880225929
 20
-287.7089711782094
 30
0.0
 11
1030.509165171031
 21
-287.7089711782094
 31
0.0
  0
LINE
  5
C4
330
1F
100
AcDbEntity
  8
0-0
  6
Continuous
 62
     3
370
    13
100
AcDbLine
 10
939.0093829180745
 20
-526.042760900549
 30
0.0
 11
939.0093829180745
 21
-286.0422165329392
 31
0.0
  0
LINE
  5
C5
330
1F
100
AcDbEntity
  8
0-0
  6
Continuous
 62
     3
370
    13
100
AcDbLine
 10
1030.509165171031
 20
-526.042389740815
 30
0.0
 11
1030.509165171031
 21
-286.0422165329392
 31
0.0
  0
LINE
  5
C6
330
1F
100
AcDbEntity
  8
0-0
  6
Continuous
 62
     2
370
    13
100
AcDbLine
 10
-1214.407431112753
 20
-562.7091361380911
 30
0.0
 11
-1214.407431112753
 21
-474.3758412953969
 31
0.0
  0
LINE
  5
C7
330
1F
100
AcDbEntity
  8
0-1
  6
Continuous
 62
     2
370
    13
100
AcDbLine
 10
-165.2654286977406
 20
-276.0425547006968
 30
0.0
 11
-156.9196546399914
 21
-261.5871202623521
 31
0.0
  0
LINE
  5
C8
330
1F
100
AcDbEntity
  8
0-1
  6
Continuous
 62
     2
370
    13
100
AcDbLine
 10
-156.9196546399914
 20
-261.5871202623521
 30
0.0
 11
-140.2281065244932
 21
-261.5871202623521
 31
0.0
  0
LINE
  5
C9
330
1F
100
AcDbEntity
  8
0-1
  6
Continuous
 62
     2
370
    13
100
AcDbLine
 10
-140.2281065244932
 20
-261.5871202623521
 30
0.0
 11
-131.8824561866552
 21
-276.0425547006968
 31
0.0
  0
LINE
  5
CA
330
1F
100
AcDbEntity
  8
0-1
  6
Continuous
 62
     2
370
    13
100
AcDbLine
 10
-131.8824561866552
 20
-276.0425547006968
 30
0.0
 11
-140.2281065244932
 21
-290.4977416992188
 31
0.0
  0
LINE
  5
CB
330
1F
100
AcDbEntity
  8
0-1
  6
Continuous
 62
     2
370
    13
100
AcDbLine
 10
-156.9196546399914
 20
-290.4977416992188
 30
0.0
 11
-165.2654286977406
 21
-276.0425547006968
 31
0.0
  0
LINE
  5
CC
330
1F
100
AcDbEntity
  8
0-D
  6
JWW_CENTER1
 62
     2
370
    13
100
AcDbLine
 10
-167.5794859190245
 20
-276.0425547006968
 30
0.0
 11
-128.2935889991552
 21
-276.0425547006968
 31
0.0
  0
LINE
  5
CD
330
1F
100
AcDbEntity
  8
0-1
  6
Continuous
 62
     2
370
    13
100
AcDbLine
 10
-140.2281065244932
 20
-290.4977416992188
 30
0.0
 11
-156.9196546399914
 21
-290.4977416992188
 31
0.0
  0
LINE
  5
CE
330
1F
100
AcDbEntity
  8
0-0
  6
Continuous
 62
     2
370
    13
100
AcDbLine
 10
-236.4671037003799
 20
-495.7886649466849
 30
0.0
 11
-148.5740043021536
 21
-492.709028914168
 31
0.0
  0
LINE
  5
CF
330
1F
100
AcDbEntity
  8
0-0
  6
Continuous
 62
     2
370
    13
100
AcDbLine
 10
-233.0050494219805
 20
-462.4456539669552
 30
0.0
 11
-148.5740043021536
 21
-459.3755443676098
 31
0.0
  0
LINE
  5
D0
330
1F
100
AcDbEntity
  8
0-0
  6
Continuous
 62
     2
370
    13
100
AcDbLine
 10
-60.68065746410468
 20
-495.7886649466849
 30
0.0
 11
-148.5740043021536
 21
-492.709028914168
 31
0.0
  0
LINE
  5
D1
330
1F
100
AcDbEntity
  8
0-0
  6
Continuous
 62
     2
370
    13
100
AcDbLine
 10
-64.14283546241535
 20
-462.4456539669552
 30
0.0
 11
-148.5740043021536
 21
-459.3755443676098
 31
0.0
  0
LINE
  5
D2
330
1F
100
AcDbEntity
  8
0-0
  6
Continuous
 62
     2
370
    13
100
AcDbLine
 10
-49.70175253378358
 20
-542.7090701541384
 30
0.0
 11
-247.6106798326646
 21
-542.7090701541384
 31
0.0
  0
LINE
  5
D3
330
1F
100
AcDbEntity
  8
0-0
  6
Continuous
 62
     2
370
    13
100
AcDbLine
 10
-182.2735760663005
 20
-477.9751009554475
 30
0.0
 11
-183.0593212230784
 21
-482.1141505885768
 31
0.0
  0
LINE
  5
D4
330
1F
100
AcDbEntity
  8
0-0
  6
Continuous
 62
     2
370
    13
100
AcDbLine
 10
-179.9424454972549
 20
-475.9439911713471
 30
0.0
 11
-148.5740043021536
 21
-474.3758412953969
 31
0.0
  0
LINE
  5
D5
330
1F
100
AcDbEntity
  8
0-0
  6
Continuous
 62
     2
370
    13
100
AcDbLine
 10
-117.2048207875844
 20
-475.9439911713471
 30
0.0
 11
-148.5740043021536
 21
-474.3758412953969
 31
0.0
  0
LINE
  5
D6
330
1F
100
AcDbEntity
  8
0-0
  6
Continuous
 62
     2
370
    13
100
AcDbLine
 10
-114.8739376583615
 20
-477.9751009554475
 30
0.0
 11
-114.0885636613174
 21
-482.1141505885768
 31
0.0
  0
LINE
  5
D7
330
1F
100
AcDbEntity
  8
0-0
  6
Continuous
 62
     2
370
    13
100
AcDbLine
 10
-210.6569032411318
 20
-198.4065782701646
 30
0.0
 11
-210.6569032411318
 21
-461.6334327491553
 31
0.0
  0
LINE
  5
D8
330
1F
100
AcDbEntity
  8
0-0
  6
Continuous
 62
     2
370
    13
100
AcDbLine
 10
-208.2906362172719
 20
-195.9101578995987
 30
0.0
 11
-148.5740043021536
 21
-192.7092763539906
 31
0.0
  0
LINE
  5
D9
330
1F
100
AcDbEntity
  8
0-0
  6
Continuous
 62
     2
370
    13
100
AcDbLine
 10
-88.85663006756744
 20
-195.9101578995987
 30
0.0
 11
-148.5740043021536
 21
-192.7092763539906
 31
0.0
  0
LINE
  5
DA
330
1F
100
AcDbEntity
  8
0-0
  6
Continuous
 62
     2
370
    13
100
AcDbLine
 10
-86.49061048353019
 20
-198.4065782701646
 30
0.0
 11
-86.49061048353019
 21
-461.6334327491553
 31
0.0
  0
LINE
  5
DB
330
1F
100
AcDbEntity
  8
0-0
  6
Continuous
 62
     2
370
    13
100
AcDbLine
 10
-248.5033189928208
 20
-542.0338068781672
 30
0.0
 11
-240.9907985377956
 21
-469.9105422561233
 31
0.0
  0
LINE
  5
DC
330
1F
100
AcDbEntity
  8
0-0
  6
Continuous
 62
     2
370
    13
100
AcDbLine
 10
-48.64419473184114
 20
-542.0338068781672
 30
0.0
 11
-56.15696262668905
 21
-469.9105422561233
 31
0.0
  0
LINE
  5
DD
330
1F
100
AcDbEntity
  8
0-1
  6
JWW_DASHED1
 62
     4
370
    13
100
AcDbLine
 10
-198.9906104835302
 20
-195.4115666569891
 30
0.0
 11
-198.9906104835302
 21
-526.0425134607262
 31
0.0
  0
LINE
  5
DE
330
1F
100
AcDbEntity
  8
0-1
  6
JWW_DASHED1
 62
     4
370
    13
100
AcDbLine
 10
-98.15690324113177
 20
-195.4115666569891
 30
0.0
 11
-98.15690324113177
 21
-526.0425134607262
 31
0.0
  0
LINE
  5
DF
330
1F
100
AcDbEntity
  8
0-0
  6
Continuous
 62
     2
370
    13
100
AcDbLine
 10
-240.9982217324745
 20
-559.3756268475506
 30
0.0
 11
-248.2927477037583
 21
-543.3274222709036
 31
0.0
  0
LINE
  5
E0
330
1F
100
AcDbEntity
  8
0-0
  6
Continuous
 62
     2
370
    13
100
AcDbLine
 10
-56.14904455236484
 20
-559.3756268475506
 30
0.0
 11
-48.85451858108098
 21
-543.3274222709036
 31
0.0
  0
LINE
  5
E1
330
1F
100
AcDbEntity
  8
0-0
  6
JWW_DASHED1
 62
     2
370
    13
100
AcDbLine
 10
-110.288382865287
 20
-526.8308567356418
 30
0.0
 11
-97.27651235219582
 21
-526.0874237885346
 31
0.0
  0
LINE
  5
E2
330
1F
100
AcDbEntity
  8
0-0
  6
JWW_DASHED1
 62
     2
370
    13
100
AcDbLine
 10
-186.85962573902
 20
-526.8308567356418
 30
0.0
 11
-199.8714962521115
 21
-526.0874237885346
 31
0.0
  0
LINE
  5
E3
330
1F
100
AcDbEntity
  8
0-0
  6
JWW_DASHED1
 62
     2
370
    13
100
AcDbLine
 10
-198.5840668549409
 20
-526.0425134607262
 30
0.0
 11
-98.56369430954373
 21
-526.0425134607262
 31
0.0
  0
LINE
  5
E4
330
1F
100
AcDbEntity
  8
0-0
  6
JWW_DASHED1
 62
     2
370
    13
100
AcDbLine
 10
-186.073756862331
 20
-526.8758907833615
 30
0.0
 11
-111.0742517419763
 21
-526.8758907833615
 31
0.0
  0
LINE
  5
E5
330
1F
100
AcDbEntity
  8
0-0
  6
JWW_DASHED1
 62
     2
370
    13
100
AcDbLine
 10
-96.49064347550677
 20
-195.5008924329601
 30
0.0
 11
-96.49064347550677
 21
-525.255407384924
 31
0.0
  0
LINE
  5
E6
330
1F
100
AcDbEntity
  8
0-0
  6
JWW_DASHED1
 62
     2
370
    13
100
AcDbLine
 10
-200.6571176889778
 20
-195.5008924329601
 30
0.0
 11
-200.6571176889778
 21
-525.255407384924
 31
0.0
  0
LINE
  5
E7
330
1F
100
AcDbEntity
  8
0-0
  6
Continuous
 62
     2
370
    13
100
AcDbLine
 10
-148.5740043021536
 20
-474.3758412953969
 30
0.0
 11
-148.5740043021536
 21
-459.3755443676098
 31
0.0
  0
LINE
  5
E8
330
1F
100
AcDbEntity
  8
0-0
  6
JWW_DASHED1
 62
     2
370
    13
100
AcDbLine
 10
-186.073756862331
 20
-527.6627494193411
 30
0.0
 11
-186.073756862331
 21
-543.7507918074324
 31
0.0
  0
LINE
  5
E9
330
1F
100
AcDbEntity
  8
0-0
  6
JWW_DASHED1
 62
     2
370
    13
100
AcDbLine
 10
-248.4816680083404
 20
-542.7108022328969
 30
0.0
 11
-148.5740043021536
 21
-544.3758247994087
 31
0.0
  0
LINE
  5
EA
330
1F
100
AcDbEntity
  8
0-0
  6
JWW_DASHED1
 62
     2
370
    13
100
AcDbLine
 10
-48.66596943623307
 20
-542.7108022328969
 30
0.0
 11
-148.5740043021536
 21
-544.3758247994087
 31
0.0
  0
LINE
  5
EB
330
1F
100
AcDbEntity
  8
0-0
  6
JWW_DASHED1
 62
     2
370
    13
100
AcDbLine
 10
-111.0742517419763
 20
-527.6627494193411
 30
0.0
 11
-111.0742517419763
 21
-543.7507918074324
 31
0.0
  0
LINE
  5
EC
330
1F
100
AcDbEntity
  8
0-0
  6
Continuous
 62
     2
370
    13
100
AcDbLine
 10
-148.5740043021536
 20
-562.7091361380911
 30
0.0
 11
-148.5740043021536
 21
-474.3758412953969
 31
0.0
  0
LINE
  5
ED
330
1F
100
AcDbEntity
  8
0-F
  6
Continuous
 62
     7
370
    13
100
AcDbLine
 10
-1542.262226826436
 20
-559.3756268475506
 30
0.0
 11
-1542.262226826436
 21
973.9562493401606
 31
0.0
  0
LINE
  5
EE
330
1F
100
AcDbEntity
  8
0-F
  6
Continuous
 62
     7
370
    13
100
AcDbLine
 10
-1522.262160842483
 20
-559.3756268475506
 30
0.0
 11
-1539.262266416807
 21
-559.3756268475506
 31
0.0
  0
LINE
  5
EF
330
1F
100
AcDbEntity
  8
0-F
  6
Continuous
 62
     7
370
    13
100
AcDbLine
 10
-942.7392908044762
 20
973.9562493401606
 30
0.0
 11
-1545.262187236064
 21
973.9562493401606
 31
0.0
  0
LINE
  5
F0
330
1F
100
AcDbEntity
  8
0-F
  6
Continuous
 62
     7
370
    13
100
AcDbLine
 10
-1542.262226826436
 20
-559.3756268475506
 30
0.0
 11
-1546.177962019637
 21
-529.6322466876054
 31
0.0
  0
LINE
  5
F1
330
1F
100
AcDbEntity
  8
0-F
  6
Continuous
 62
     7
370
    13
100
AcDbLine
 10
-1542.262226826436
 20
-559.3756268475506
 30
0.0
 11
-1538.346491633235
 21
-529.6322466876054
 31
0.0
  0
LINE
  5
F2
330
1F
100
AcDbEntity
  8
0-F
  6
Continuous
 62
     7
370
    13
100
AcDbLine
 10
-1542.262226826436
 20
973.9562493401606
 30
0.0
 11
-1546.177962019637
 21
944.2129929001269
 31
0.0
  0
LINE
  5
F3
330
1F
100
AcDbEntity
  8
0-F
  6
Continuous
 62
     7
370
    13
100
AcDbLine
 10
-1542.262226826436
 20
973.9562493401606
 30
0.0
 11
-1538.346491633235
 21
944.2129929001269
 31
0.0
  0
LINE
  5
F4
330
1F
100
AcDbEntity
  8
0-F
  6
Continuous
 62
     7
370
    13
100
AcDbLine
 10
-1428.639839790963
 20
-559.375379407728
 30
0.0
 11
-1428.639839790963
 21
-192.7092763539906
 31
0.0
  0
LINE
  5
F5
330
1F
100
AcDbEntity
  8
0-F
  6
Continuous
 62
     7
370
    13
100
AcDbLine
 10
-1408.640021246833
 20
-559.375379407728
 30
0.0
 11
-1425.639879381334
 21
-559.375379407728
 31
0.0
  0
LINE
  5
F6
330
1F
100
AcDbEntity
  8
0-F
  6
Continuous
 62
     7
370
    13
100
AcDbLine
 10
-1428.639839790963
 20
-559.375379407728
 30
0.0
 11
-1432.555822423986
 21
-529.6321229676943
 31
0.0
  0
LINE
  5
F7
330
1F
100
AcDbEntity
  8
0-F
  6
Continuous
 62
     7
370
    13
100
AcDbLine
 10
-1428.639839790963
 20
-559.375379407728
 30
0.0
 11
-1424.724104597762
 21
-529.6321229676943
 31
0.0
  0
LINE
  5
F8
330
1F
100
AcDbEntity
  8
0-F
  6
Continuous
 62
     7
370
    13
100
AcDbLine
 10
-1428.639839790963
 20
-192.7092763539906
 30
0.0
 11
-1432.555822423986
 21
-222.4526565139358
 31
0.0
  0
LINE
  5
F9
330
1F
100
AcDbEntity
  8
0-F
  6
Continuous
 62
     7
370
    13
100
AcDbLine
 10
-1428.639839790963
 20
-192.7092763539906
 30
0.0
 11
-1424.724104597762
 21
-222.4526565139358
 31
0.0
  0
LINE
  5
FA
330
1F
100
AcDbEntity
  8
0-F
  6
Continuous
 62
     7
370
    13
100
AcDbLine
 10
-1428.639839790963
 20
-192.7092763539906
 30
0.0
 11
-1428.639839790963
 21
973.9562493401606
 31
0.0
  0
LINE
  5
FB
330
1F
100
AcDbEntity
  8
0-F
  6
Continuous
 62
     7
370
    13
100
AcDbLine
 10
-1408.640021246833
 20
973.9562493401606
 30
0.0
 11
-1425.639879381334
 21
973.9562493401606
 31
0.0
  0
LINE
  5
FC
330
1F
100
AcDbEntity
  8
0-F
  6
Continuous
 62
     7
370
    13
100
AcDbLine
 10
-1428.639839790963
 20
-192.7092763539906
 30
0.0
 11
-1432.555822423986
 21
-162.9658961940456
 31
0.0
  0
LINE
  5
FD
330
1F
100
AcDbEntity
  8
0-F
  6
Continuous
 62
     7
370
    13
100
AcDbLine
 10
-1428.639839790963
 20
-192.7092763539906
 30
0.0
 11
-1424.724104597762
 21
-162.9658961940456
 31
0.0
  0
LINE
  5
FE
330
1F
100
AcDbEntity
  8
0-F
  6
Continuous
 62
     7
370
    13
100
AcDbLine
 10
-1428.639839790963
 20
973.9562493401606
 30
0.0
 11
-1432.555822423986
 21
944.2129929001269
 31
0.0
  0
LINE
  5
FF
330
1F
100
AcDbEntity
  8
0-F
  6
Continuous
 62
     7
370
    13
100
AcDbLine
 10
-1428.639839790963
 20
973.9562493401606
 30
0.0
 11
-1424.724104597762
 21
944.2129929001269
 31
0.0
  0
LINE
  5
100
330
1F
100
AcDbEntity
  8
0-F
  6
Continuous
 62
     7
370
    13
100
AcDbLine
 10
198.8208667652029
 20
-559.3756268475506
 30
0.0
 11
-1753.073037637247
 21
-559.3756268475506
 31
0.0
  0
LINE
  5
101
330
1F
100
AcDbEntity
  8
0-F
  6
Continuous
 62
     7
370
    13
100
AcDbLine
 10
-1271.169384105785
 20
-192.7092763539906
 30
0.0
 11
-1431.640047640414
 21
-192.7092763539906
 31
0.0
  0
LINE
  5
102
330
1F
100
AcDbEntity
  8
0-D
  6
JWW_CENTER1
 62
     2
370
    13
100
AcDbLine
 10
718.0926348711995
 20
-455.8870140281883
 30
0.0
 11
718.0926348711995
 21
-573.1346419050886
 31
0.0
  0
LINE
  5
103
330
1F
100
AcDbEntity
  8
0-D
  6
JWW_CENTER1
 62
     2
370
    13
100
AcDbLine
 10
1251.425913217906
 20
-457.5537686734586
 30
0.0
 11
1251.425913217906
 21
-573.1346419050886
 31
0.0
  0
LINE
  5
104
330
1F
100
AcDbEntity
  8
0-0
  6
Continuous
 62
     2
370
    13
100
AcDbLine
 10
-1214.407431112753
 20
-459.3755443676098
 30
0.0
 11
-1214.407431112753
 21
-474.3755938555742
 31
0.0
  0
LINE
  5
105
330
1F
100
AcDbEntity
  8
0-F
  6
Continuous
 62
     7
370
    13
100
AcDbLine
 10
651.5095478779563
 20
-790.7438618427998
 30
0.0
 11
1318.008010451858
 21
-790.7438618427998
 31
0.0
  0
LINE
  5
106
330
1F
100
AcDbEntity
  8
0-F
  6
Continuous
 62
     7
370
    13
100
AcDbLine
 10
651.5095478779563
 20
-562.4112185916384
 30
0.0
 11
651.5095478779563
 21
-793.7438222524281
 31
0.0
  0
LINE
  5
107
330
1F
100
AcDbEntity
  8
0-F
  6
Continuous
 62
     7
370
    13
100
AcDbLine
 10
1318.008010451858
 20
-562.4112185916384
 30
0.0
 11
1318.008010451858
 21
-793.7438222524281
 31
0.0
  0
LINE
  5
108
330
1F
100
AcDbEntity
  8
0-F
  6
Continuous
 62
     7
370
    13
100
AcDbLine
 10
651.5095478779563
 20
-790.7438618427998
 30
0.0
 11
681.2528043179901
 21
-786.8280029296875
 31
0.0
  0
LINE
  5
109
330
1F
100
AcDbEntity
  8
0-F
  6
Continuous
 62
     7
370
    13
100
AcDbLine
 10
651.5095478779563
 20
-790.7438618427998
 30
0.0
 11
681.2528043179901
 21
-794.6595970360008
 31
0.0
  0
LINE
  5
10A
330
1F
100
AcDbEntity
  8
0-F
  6
Continuous
 62
     7
370
    13
100
AcDbLine
 10
1318.008010451858
 20
-790.7438618427998
 30
0.0
 11
1288.264754011825
 21
-786.8280029296875
 31
0.0
  0
LINE
  5
10B
330
1F
100
AcDbEntity
  8
0-F
  6
Continuous
 62
     7
370
    13
100
AcDbLine
 10
1318.008010451858
 20
-790.7438618427998
 30
0.0
 11
1288.264754011825
 21
-794.6595970360008
 31
0.0
  0
LINE
  5
10C
330
1F
100
AcDbEntity
  8
0-F
  6
Continuous
 62
     7
370
    13
100
AcDbLine
 10
-1214.407183672931
 20
-710.1373703415329
 30
0.0
 11
-148.573756862331
 21
-710.1373703415329
 31
0.0
  0
LINE
  5
10D
330
1F
100
AcDbEntity
  8
0-F
  6
Continuous
 62
     7
370
    13
100
AcDbLine
 10
-1214.407183672931
 20
-615.8812321843327
 30
0.0
 11
-1214.407183672931
 21
-713.1374544710727
 31
0.0
  0
LINE
  5
10E
330
1F
100
AcDbEntity
  8
0-F
  6
Continuous
 62
     7
370
    13
100
AcDbLine
 10
-148.573756862331
 20
-615.8812321843327
 30
0.0
 11
-148.573756862331
 21
-713.1374544710727
 31
0.0
  0
LINE
  5
10F
330
1F
100
AcDbEntity
  8
0-F
  6
Continuous
 62
     7
370
    13
100
AcDbLine
 10
-1214.407183672931
 20
-710.1373703415329
 30
0.0
 11
-1184.663927232897
 21
-706.2215114284206
 31
0.0
  0
LINE
  5
110
330
1F
100
AcDbEntity
  8
0-F
  6
Continuous
 62
     7
370
    13
100
AcDbLine
 10
-1214.407183672931
 20
-710.1373703415329
 30
0.0
 11
-1184.663927232897
 21
-714.0532292546452
 31
0.0
  0
LINE
  5
111
330
1F
100
AcDbEntity
  8
0-F
  6
Continuous
 62
     7
370
    13
100
AcDbLine
 10
-148.573756862331
 20
-710.1373703415329
 30
0.0
 11
-178.3172607421875
 21
-706.2215114284206
 31
0.0
  0
LINE
  5
112
330
1F
100
AcDbEntity
  8
0-F
  6
Continuous
 62
     7
370
    13
100
AcDbLine
 10
-148.573756862331
 20
-710.1373703415329
 30
0.0
 11
-178.3172607421875
 21
-714.0532292546452
 31
0.0
  0
LINE
  5
113
330
1F
100
AcDbEntity
  8
0-F
  6
Continuous
 62
     7
370
    13
100
AcDbLine
 10
718.0926348711995
 20
-710.1373703415329
 30
0.0
 11
1251.425913217906
 21
-710.1373703415329
 31
0.0
  0
LINE
  5
114
330
1F
100
AcDbEntity
  8
0-F
  6
Continuous
 62
     7
370
    13
100
AcDbLine
 10
718.0926348711995
 20
-593.1345841691301
 30
0.0
 11
718.0926348711995
 21
-713.1374544710727
 31
0.0
  0
LINE
  5
115
330
1F
100
AcDbEntity
  8
0-F
  6
Continuous
 62
     7
370
    13
100
AcDbLine
 10
1251.425913217906
 20
-593.1345841691301
 30
0.0
 11
1251.425913217906
 21
-713.1374544710727
 31
0.0
  0
LINE
  5
116
330
1F
100
AcDbEntity
  8
0-F
  6
Continuous
 62
     7
370
    13
100
AcDbLine
 10
718.0926348711995
 20
-710.1373703415329
 30
0.0
 11
747.8358913112334
 21
-706.2215114284206
 31
0.0
  0
LINE
  5
117
330
1F
100
AcDbEntity
  8
0-F
  6
Continuous
 62
     7
370
    13
100
AcDbLine
 10
718.0926348711995
 20
-710.1373703415329
 30
0.0
 11
747.8358913112334
 21
-714.0532292546452
 31
0.0
  0
LINE
  5
118
330
1F
100
AcDbEntity
  8
0-F
  6
Continuous
 62
     7
370
    13
100
AcDbLine
 10
1251.425913217906
 20
-710.1373703415329
 30
0.0
 11
1221.682656777872
 21
-706.2215114284206
 31
0.0
  0
LINE
  5
119
330
1F
100
AcDbEntity
  8
0-F
  6
Continuous
 62
     7
370
    13
100
AcDbLine
 10
1251.425913217906
 20
-710.1373703415329
 30
0.0
 11
1221.682656777872
 21
-714.0532292546452
 31
0.0
  0
LINE
  5
11A
330
1F
100
AcDbEntity
  8
0-F
  6
Continuous
 62
     7
370
    13
100
AcDbLine
 10
-248.5169281830659
 20
-807.7035110061233
 30
0.0
 11
-48.63083298141873
 21
-807.7035110061233
 31
0.0
  0
LINE
  5
11B
330
1F
100
AcDbEntity
  8
0-F
  6
Continuous
 62
     7
370
    13
100
AcDbLine
 10
-48.63083298141873
 20
-584.9423465213259
 30
0.0
 11
-48.63083298141873
 21
-810.7034714157517
 31
0.0
  0
LINE
  5
11C
330
1F
100
AcDbEntity
  8
0-F
  6
Continuous
 62
     7
370
    13
100
AcDbLine
 10
-248.5169281830659
 20
-807.7035110061233
 30
0.0
 11
-218.7735480231206
 21
-803.7876520930109
 31
0.0
  0
LINE
  5
11D
330
1F
100
AcDbEntity
  8
0-F
  6
Continuous
 62
     7
370
    13
100
AcDbLine
 10
-248.5169281830659
 20
-807.7035110061233
 30
0.0
 11
-218.7735480231206
 21
-811.6192461993244
 31
0.0
  0
LINE
  5
11E
330
1F
100
AcDbEntity
  8
0-F
  6
Continuous
 62
     7
370
    13
100
AcDbLine
 10
-48.63083298141873
 20
-807.7035110061233
 30
0.0
 11
-78.3740894214526
 21
-803.7876520930109
 31
0.0
  0
LINE
  5
11F
330
1F
100
AcDbEntity
  8
0-F
  6
Continuous
 62
     7
370
    13
100
AcDbLine
 10
-48.63083298141873
 20
-807.7035110061233
 30
0.0
 11
-78.3740894214526
 21
-811.6192461993244
 31
0.0
  0
LINE
  5
120
330
1F
100
AcDbEntity
  8
0-F
  6
Continuous
 62
     7
370
    13
100
AcDbLine
 10
-248.5169281830659
 20
-730.7638302364865
 30
0.0
 11
-248.5169281830659
 21
-810.7034714157517
 31
0.0
  0
LINE
  5
121
330
1F
100
AcDbEntity
  8
0-F
  6
Continuous
 62
     7
370
    13
100
AcDbLine
 10
-248.5169281830659
 20
-584.9423465213259
 30
0.0
 11
-248.5169281830659
 21
-687.3099332242398
 31
0.0
  0
LINE
  5
122
330
1F
100
AcDbEntity
  8
0-F
  6
Continuous
 62
     7
370
    13
100
AcDbLine
 10
1251.425913217906
 20
-474.3755938555742
 30
0.0
 11
1262.906131228885
 21
-446.6593644425676
 31
0.0
  0
LINE
  5
123
330
1F
100
AcDbEntity
  8
0-F
  6
Continuous
 62
     7
370
    13
100
AcDbLine
 10
1251.425913217906
 20
-474.3755938555742
 30
0.0
 11
1269.688456767315
 21
-450.5750996357685
 31
0.0
  0
LINE
  5
124
330
1F
100
AcDbEntity
  8
0-F
  6
Continuous
 62
     7
370
    13
100
AcDbLine
 10
1323.059246991132
 20
-350.3022147513724
 30
0.0
 11
1644.070352090372
 21
-350.3022147513724
 31
0.0
  0
LINE
  5
125
330
1F
100
AcDbEntity
  8
0-F
  6
Continuous
 62
     7
370
    13
100
AcDbLine
 10
1251.425913217906
 20
-474.3755938555742
 30
0.0
 11
1323.059246991132
 21
-350.3022147513724
 31
0.0
  0
LINE
  5
126
330
1F
100
AcDbEntity
  8
0-F
  6
Continuous
 62
     7
370
    13
100
AcDbLine
 10
1255.441861539274
 20
-226.1918433936866
 30
0.0
 11
1732.192085884713
 21
-226.1918433936866
 31
0.0
  0
LINE
  5
127
330
1F
100
AcDbEntity
  8
0-F
  6
Continuous
 62
     7
370
    13
100
AcDbLine
 10
1116.925048828125
 20
-466.1112274994721
 30
0.0
 11
1255.441861539274
 21
-226.1918433936866
 31
0.0
  0
LINE
  5
128
330
1F
100
AcDbEntity
  8
0-F
  6
Continuous
 62
     7
370
    13
100
AcDbLine
 10
1116.925048828125
 20
-466.1112274994721
 30
0.0
 11
1128.405266839105
 21
-438.3947506466427
 31
0.0
  0
LINE
  5
129
330
1F
100
AcDbEntity
  8
0-F
  6
Continuous
 62
     7
370
    13
100
AcDbLine
 10
1116.925048828125
 20
-466.1112274994721
 30
0.0
 11
1135.187592377534
 21
-442.3106095597551
 31
0.0
  0
LINE
  5
12A
330
1F
100
AcDbEntity
  8
0-F
  6
Continuous
 62
     7
370
    13
100
AcDbLine
 10
1058.080889727618
 20
-259.3508828652871
 30
0.0
 11
1157.227552259291
 21
-87.62306831978464
 31
0.0
  0
LINE
  5
12B
330
1F
100
AcDbEntity
  8
0-F
  6
Continuous
 62
     7
370
    13
100
AcDbLine
 10
1058.080889727618
 20
-259.3508828652871
 30
0.0
 11
1069.561602618243
 21
-231.634529732369
 31
0.0
  0
LINE
  5
12C
330
1F
100
AcDbEntity
  8
0-F
  6
Continuous
 62
     7
370
    13
100
AcDbLine
 10
1058.080889727618
 20
-259.3508828652871
 30
0.0
 11
1076.343928156673
 21
-235.55026492557
 31
0.0
  0
LINE
  5
12D
330
1F
100
AcDbEntity
  8
0-F
  6
Continuous
 62
     7
370
    13
100
AcDbLine
 10
1251.425913217906
 20
-474.3755938555742
 30
0.0
 11
1262.906626108531
 21
-446.6593644425676
 31
0.0
  0
LINE
  5
12E
330
1F
100
AcDbEntity
  8
0-F
  6
Continuous
 62
     7
370
    13
100
AcDbLine
 10
1251.425913217906
 20
-474.3755938555742
 30
0.0
 11
1269.688951646959
 21
-450.5750996357685
 31
0.0
  0
LINE
  5
12F
330
1F
100
AcDbEntity
  8
0-F
  6
Continuous
 62
     7
370
    13
100
AcDbLine
 10
-1175.33148688239
 20
777.706282332137
 30
0.0
 11
-1147.615010029561
 21
766.2258168813346
 31
0.0
  0
LINE
  5
130
330
1F
100
AcDbEntity
  8
0-F
  6
Continuous
 62
     7
370
    13
100
AcDbLine
 10
-1175.33148688239
 20
777.706282332137
 30
0.0
 11
-1151.530992662584
 21
759.4434913429054
 31
0.0
  0
LINE
  5
131
330
1F
100
AcDbEntity
  8
0-F
  6
Continuous
 62
     7
370
    13
100
AcDbLine
 10
-1264.823789854308
 20
445.5596428948482
 30
0.0
 11
-1264.823789854308
 21
432.284867570207
 31
0.0
  0
LINE
  5
132
330
1F
100
AcDbEntity
  8
0-F
  6
Continuous
 62
     7
370
    13
100
AcDbLine
 10
-1264.823789854308
 20
432.284867570207
 30
0.0
 11
-1264.823789854308
 21
419.0102159654774
 31
0.0
  0
LINE
  5
133
330
1F
100
AcDbEntity
  8
0-0
  6
Continuous
 62
     3
370
    13
100
AcDbLine
 10
-1264.823789854308
 20
631.8726740656675
 30
0.0
 11
-1264.823789854308
 21
-109.3756268475505
 31
0.0
  0
LINE
  5
134
330
1F
100
AcDbEntity
  8
0-F
  6
Continuous
 62
     7
370
    13
100
AcDbLine
 10
-997.7674329603041
 20
432.284867570207
 30
0.0
 11
-1315.594234982052
 21
432.284867570207
 31
0.0
  0
LINE
  5
135
330
1F
100
AcDbEntity
  8
0-F
  6
Continuous
 62
     7
370
    13
100
AcDbLine
 10
-1163.990577491554
 20
432.284867570207
 30
0.0
 11
-1134.24732105152
 21
436.2007264833193
 31
0.0
  0
LINE
  5
136
330
1F
100
AcDbEntity
  8
0-F
  6
Continuous
 62
     7
370
    13
100
AcDbLine
 10
-1163.990577491554
 20
432.284867570207
 30
0.0
 11
-1134.24732105152
 21
428.369132377006
 31
0.0
  0
LINE
  5
137
330
1F
100
AcDbEntity
  8
0-F
  6
Continuous
 62
     7
370
    13
100
AcDbLine
 10
-1264.823789854308
 20
432.284867570207
 30
0.0
 11
-1294.567046294341
 21
436.2007264833193
 31
0.0
  0
LINE
  5
138
330
1F
100
AcDbEntity
  8
0-F
  6
Continuous
 62
     7
370
    13
100
AcDbLine
 10
-1264.823789854308
 20
432.284867570207
 30
0.0
 11
-1294.567046294341
 21
428.369132377006
 31
0.0
  0
LINE
  5
139
330
1F
100
AcDbEntity
  8
0-F
  6
Continuous
 62
     7
370
    13
100
AcDbLine
 10
1157.227552259291
 20
-87.62306831978464
 30
0.0
 11
1590.785670924831
 21
-87.62306831978464
 31
0.0
  0
LINE
  5
13A
330
1F
100
AcDbEntity
  8
0-0
  6
Continuous
 62
     3
370
    13
100
AcDbLine
 10
-1163.990577491554
 20
631.8721791860221
 30
0.0
 11
-1163.990577491554
 21
-109.3756268475505
 31
0.0
  0
LINE
  5
13B
330
1F
100
AcDbEntity
  8
0-F
  6
Continuous
 62
     7
370
    13
100
AcDbLine
 10
1035.175880225929
 20
588.3259871199325
 30
0.0
 11
1044.743140968117
 21
611.4225150443415
 31
0.0
  0
LINE
  5
13C
330
1F
100
AcDbEntity
  8
0-F
  6
Continuous
 62
     7
370
    13
100
AcDbLine
 10
1035.175880225929
 20
588.3259871199325
 30
0.0
 11
1050.394913956926
 21
608.1597735430745
 31
0.0
  0
LINE
  5
13D
330
1F
100
AcDbEntity
  8
0-F
  6
Continuous
 62
     7
370
    13
100
AcDbLine
 10
1035.175880225929
 20
588.3259871199325
 30
0.0
 11
1136.674210831926
 21
764.1265374260981
 31
0.0
  0
LINE
  5
13E
330
1F
100
AcDbEntity
  8
0-F
  6
Continuous
 62
     7
370
    13
100
AcDbLine
 10
1136.674210831926
 20
764.1265374260981
 30
0.0
 11
1476.887635926943
 21
764.1265374260981
 31
0.0
  0
LINE
  5
13F
330
1F
100
AcDbEntity
  8
0-0
  6
JWW_CENTER1
 62
     3
370
    13
100
AcDbLine
 10
-681.4904702676307
 20
785.2702702702703
 30
0.0
 11
-681.4904702676307
 21
1044.72972972973
 31
0.0
  0
LINE
  5
140
330
1F
100
AcDbEntity
  8
0-0
  6
Continuous
 62
     3
370
    13
100
AcDbLine
 10
-681.4905939875422
 20
973.9542698215794
 30
0.0
 11
-681.4904702676307
 21
973.9542698215794
 31
0.0
  0
LINE
  5
141
330
1F
100
AcDbEntity
  8
0-0
  6
JWW_CENTER1
 62
     3
370
    13
100
AcDbLine
 10
-681.4905939875422
 20
923.5374162003802
 30
0.0
 11
-681.4904702676307
 21
923.5374162003802
 31
0.0
  0
LINE
  5
142
330
1F
100
AcDbEntity
  8
0-0
  6
Continuous
 62
     3
370
    13
100
AcDbLine
 10
-681.4905939875422
 20
873.1205625791811
 30
0.0
 11
-681.4904702676307
 21
873.1205625791811
 31
0.0
  0
LINE
  5
143
330
1F
100
AcDbEntity
  8
0-F
  6
Continuous
 62
     7
370
    13
100
AcDbLine
 10
-98.15702696104296
 20
432.2847438502959
 30
0.0
 11
-98.15702696104296
 21
429.2847834406675
 31
0.0
  0
LINE
  5
144
330
1F
100
AcDbEntity
  8
0-F
  6
Continuous
 62
     7
370
    13
100
AcDbLine
 10
-103.1570434570312
 20
432.2847438502959
 30
0.0
 11
-103.1570434570312
 21
429.2847834406675
 31
0.0
  0
LINE
  5
145
330
1F
100
AcDbEntity
  8
0-F
  6
Continuous
 62
     7
370
    13
100
AcDbLine
 10
-98.15702696104296
 20
432.2847438502959
 30
0.0
 11
-73.3709799276815
 21
429.0220023490289
 31
0.0
  0
LINE
  5
146
330
1F
100
AcDbEntity
  8
0-F
  6
Continuous
 62
     7
370
    13
100
AcDbLine
 10
-103.1570434570312
 20
432.2847438502959
 30
0.0
 11
-127.9430904903927
 21
435.5479802312078
 31
0.0
  0
LINE
  5
147
330
1F
100
AcDbEntity
  8
0-F
  6
Continuous
 62
     7
370
    13
100
AcDbLine
 10
-103.1570434570312
 20
432.2847438502959
 30
0.0
 11
-127.9430904903927
 21
429.0220023490289
 31
0.0
  0
LINE
  5
148
330
1F
100
AcDbEntity
  8
0-F
  6
Continuous
 62
     7
370
    13
100
AcDbLine
 10
-98.15702696104296
 20
432.2847438502959
 30
0.0
 11
-73.3709799276815
 21
435.5479802312078
 31
0.0
  0
LINE
  5
149
330
1F
100
AcDbEntity
  8
0-F
  6
Continuous
 62
     7
370
    13
100
AcDbLine
 10
-23.31724424619921
 20
432.2847438502959
 30
0.0
 11
-171.1912412901182
 21
432.2847438502959
 31
0.0
  0
LINE
  5
14A
330
1F
100
AcDbEntity
  8
0-0
  6
Continuous
 62
     3
370
    13
100
AcDbLine
 10
-198.9903630437075
 20
-526.042760900549
 30
0.0
 11
-98.15727440086562
 21
-526.0422660209036
 31
0.0
  0
LINE
  5
14B
330
1F
100
AcDbEntity
  8
0-0
  6
Continuous
 62
     3
370
    13
100
AcDbLine
 10
-681.4904702676307
 20
873.1205625791811
 30
0.0
 11
-440.2413445550042
 21
873.122542097762
 31
0.0
  0
LINE
  5
14C
330
1F
100
AcDbEntity
  8
0-0
  6
JWW_CENTER1
 62
     3
370
    13
100
AcDbLine
 10
-681.4904702676307
 20
923.5374162003802
 30
0.0
 11
-440.2415919948268
 21
923.5393957189613
 31
0.0
  0
LINE
  5
14D
330
1F
100
AcDbEntity
  8
0-0
  6
Continuous
 62
     3
370
    13
100
AcDbLine
 10
-681.4904702676307
 20
973.9542698215794
 30
0.0
 11
-440.241715714738
 21
973.9562493401606
 31
0.0
  0
LINE
  5
14E
330
1F
100
AcDbEntity
  8
0-0
  6
Continuous
 62
     3
370
    13
100
AcDbLine
 10
-681.4904702676307
 20
968.9545007654141
 30
0.0
 11
-440.241715714738
 21
968.956480283995
 31
0.0
  0
LINE
  5
14F
330
1F
100
AcDbEntity
  8
0-0
  6
Continuous
 62
     3
370
    13
100
AcDbLine
 10
-681.4904702676307
 20
878.1203316353464
 30
0.0
 11
-440.2413445550042
 21
878.1223111539276
 31
0.0
  0
LINE
  5
150
330
1F
100
AcDbEntity
  8
0-0
  6
Continuous
 62
     3
370
    13
100
AcDbLine
 10
-98.15727440086562
 20
631.8726740656675
 30
0.0
 11
-98.15727440086562
 21
-109.3753794077278
 31
0.0
  0
LINE
  5
151
330
1F
100
AcDbEntity
  8
0-0
  6
Continuous
 62
     3
370
    13
100
AcDbLine
 10
-103.1572908968539
 20
631.8726740656675
 30
0.0
 11
-103.1572908968539
 21
-109.3753794077278
 31
0.0
  0
LINE
  5
152
330
1F
100
AcDbEntity
  8
0-0
  6
Continuous
 62
     3
370
    13
100
AcDbLine
 10
-193.9903465477195
 20
631.8721791860221
 30
0.0
 11
-193.9903465477195
 21
-109.3753794077278
 31
0.0
  0
LINE
  5
153
330
1F
100
AcDbEntity
  8
0-0
  6
Continuous
 62
     3
370
    13
100
AcDbLine
 10
-198.9903630437075
 20
631.8721791860221
 30
0.0
 11
-198.9903630437075
 21
-109.3753794077278
 31
0.0
  0
LINE
  5
154
330
1F
100
AcDbEntity
  8
0-1
  6
Continuous
 62
     3
370
    13
100
AcDbLine
 10
-130.0770115207979
 20
-276.0424309807854
 30
0.0
 11
-168.5025601773648
 21
-276.0424309807854
 31
0.0
  0
LINE
  5
155
330
1F
100
AcDbEntity
  8
0-0
  6
JWW_CENTER1
 62
     3
370
    13
100
AcDbLine
 10
-148.573756862331
 20
631.8731689453125
 30
0.0
 11
-148.573756862331
 21
-595.8811662003801
 31
0.0
  0
LINE
  5
156
330
1F
100
AcDbEntity
  8
0-0
  6
JWW_CENTER1
 62
     3
370
    13
100
AcDbLine
 10
-1214.407183672931
 20
631.8729215054898
 30
0.0
 11
-1214.407183672931
 21
-595.8811662003801
 31
0.0
  0
LINE
  5
157
330
1F
100
AcDbEntity
  8
0-0
  6
Continuous
 62
     3
370
    13
100
AcDbLine
 10
-198.9903630437075
 20
-109.3753794077278
 30
0.0
 11
-198.9903630437075
 21
-195.5008924329601
 31
0.0
  0
LINE
  5
158
330
1F
100
AcDbEntity
  8
0-0
  6
Continuous
 62
     3
370
    13
100
AcDbLine
 10
-193.9903465477195
 20
-109.3753794077278
 30
0.0
 11
-193.9903465477195
 21
-195.1437130489865
 31
0.0
  0
LINE
  5
159
330
1F
100
AcDbEntity
  8
0-0
  6
Continuous
 62
     3
370
    13
100
AcDbLine
 10
-103.1572908968539
 20
-109.3753794077278
 30
0.0
 11
-103.1572908968539
 21
-195.143589329075
 31
0.0
  0
LINE
  5
15A
330
1F
100
AcDbEntity
  8
0-0
  6
Continuous
 62
     3
370
    13
100
AcDbLine
 10
-98.15727440086562
 20
-109.3753794077278
 30
0.0
 11
-98.15727440086562
 21
-195.4116903769003
 31
0.0
  0
ARC
  5
15B
330
1F
100
AcDbEntity
  8
0-0
  6
JWW_CENTER1
 62
     3
370
    13
100
AcDbCircle
 10
-922.7407094594594
 20
631.8729215054898
 30
0.0
 40
291.6666597933383
100
AcDbArc
 50
89.99975585937501
 51
180.0
  0
ARC
  5
15C
330
1F
100
AcDbEntity
  8
0-0
  6
Continuous
 62
     3
370
    13
100
AcDbCircle
 10
-922.7407094594594
 20
631.8726740656675
 30
0.0
 40
342.0833278346706
100
AcDbArc
 50
89.99977111816406
 51
180.0
  0
ARC
  5
15D
330
1F
100
AcDbEntity
  8
0-0
  6
Continuous
 62
     3
370
    13
100
AcDbCircle
 10
-922.7407094594594
 20
631.8721791860221
 30
0.0
 40
241.2500072169948
100
AcDbArc
 50
89.99980163574219
 51
180.0
  0
ARC
  5
15E
330
1F
100
AcDbEntity
  8
0-0
  6
Continuous
 62
     3
370
    13
100
AcDbCircle
 10
984.7590266047297
 20
923.5408803578971
 30
0.0
 40
50.41660618137669
100
AcDbArc
 50
0.0
 51
180.0
  0
ARC
  5
15F
330
1F
100
AcDbEntity
  8
0-D
  6
Continuous
 62
     2
370
    13
100
AcDbCircle
 10
1054.275760135135
 20
-289.3880978146115
 30
0.0
 40
5.066666731963286
100
AcDbArc
 50
318.6724548339844
 51
41.32754516601564
  0
ARC
  5
160
330
1F
100
AcDbEntity
  8
0-D
  6
Continuous
 62
     2
370
    13
100
AcDbCircle
 10
1054.275760135135
 20
-262.6965167071367
 30
0.0
 40
5.066666731963286
100
AcDbArc
 50
318.6724548339844
 51
41.32754516601564
  0
ARC
  5
161
330
1F
100
AcDbEntity
  8
0-D
  6
Continuous
 62
     2
370
    13
100
AcDbCircle
 10
1019.086353198902
 20
-276.0421835409628
 30
0.0
 40
40.25578756590147
100
AcDbArc
 50
345.6165313720703
 51
14.38359069824219
  0
ARC
  5
162
330
1F
100
AcDbEntity
  8
0-D
  6
Continuous
 62
     2
370
    13
100
AcDbCircle
 10
912.5145164695948
 20
-289.7216466955235
 30
0.0
 40
6.505050369211146
100
AcDbArc
 50
135.3612976074219
 51
224.6389617919922
  0
ARC
  5
163
330
1F
100
AcDbEntity
  8
0-D
  6
Continuous
 62
     2
370
    13
100
AcDbCircle
 10
929.0558686127537
 20
-276.0421835409628
 30
0.0
 40
23.04650061839336
100
AcDbArc
 50
156.7198028564453
 51
203.2803039550781
  0
ARC
  5
164
330
1F
100
AcDbEntity
  8
0-D
  6
Continuous
 62
     2
370
    13
100
AcDbCircle
 10
912.5145164695948
 20
-262.3629678262246
 30
0.0
 40
6.505101113706022
100
AcDbArc
 50
135.3612976074219
 51
224.63818359375
  0
ARC
  5
165
330
1F
100
AcDbEntity
  8
0-0
  6
Continuous
 62
     2
370
    13
100
AcDbCircle
 10
1289.448506123311
 20
-486.5425810942779
 30
0.0
 40
3.333333376291636
100
AcDbArc
 50
186.2657318115234
 51
262.1466522216797
  0
ARC
  5
166
330
1F
100
AcDbEntity
  8
0-0
  6
Continuous
 62
     2
370
    13
100
AcDbCircle
 10
1302.54747545397
 20
-500.1267799171241
 30
0.0
 40
8.333334407290899
100
AcDbArc
 50
9.462356567382812
 51
82.14665222167969
  0
ARC
  5
167
330
1F
100
AcDbEntity
  8
0-0
  6
Continuous
 62
     2
370
    13
100
AcDbCircle
 10
1055.175946209882
 20
-451.0422660209036
 30
0.0
 40
8.333334407290899
100
AcDbArc
 50
180.0
 51
270.0
  0
ARC
  5
168
330
1F
100
AcDbEntity
  8
0-0
  6
Continuous
 62
     2
370
    13
100
AcDbCircle
 10
1036.009257548565
 20
-525.2555311048353
 30
0.0
 40
0.833333344072909
100
AcDbArc
 50
273.2700347900391
 51
359.9999999999999
  0
ARC
  5
169
330
1F
100
AcDbEntity
  8
0-0
  6
Continuous
 62
     2
370
    13
100
AcDbCircle
 10
1023.092403927365
 20
-527.6628731392525
 30
0.0
 40
0.833333344072909
100
AcDbArc
 50
93.27003479003906
 51
180.0
  0
ARC
  5
16A
330
1F
100
AcDbEntity
  8
0-0
  6
Continuous
 62
     2
370
    13
100
AcDbCircle
 10
1037.676012193834
 20
-263.5422660209036
 30
0.0
 40
0.833333344072909
100
AcDbArc
 50
180.0
 51
270.0
  0
ARC
  5
16B
330
1F
100
AcDbEntity
  8
0-0
  6
Continuous
 62
     2
370
    13
100
AcDbCircle
 10
1037.676012193834
 20
-288.5423485008445
 30
0.0
 40
0.833333344072909
100
AcDbArc
 50
90.0
 51
180.0
  0
ARC
  5
16C
330
1F
100
AcDbEntity
  8
0-0
  6
Continuous
 62
     2
370
    13
100
AcDbCircle
 10
1177.013830236486
 20
-471.8755856075802
 30
0.0
 40
2.500000273859179
100
AcDbArc
 50
262.1459045410156
 51
270.0
  0
ARC
  5
16D
330
1F
100
AcDbEntity
  8
0-0
  6
Continuous
 62
     2
370
    13
100
AcDbCircle
 10
1044.343030774916
 20
-195.209037162162
 30
0.0
 40
2.500000273859179
100
AcDbArc
 50
0.0
 51
90.0
  0
ARC
  5
16E
330
1F
100
AcDbEntity
  8
0-0
  6
Continuous
 62
     2
370
    13
100
AcDbCircle
 10
1067.921076594173
 20
-461.8758000554265
 30
0.0
 40
2.500000273859179
100
AcDbArc
 50
82.1468505859375
 51
90.0
  0
ARC
  5
16F
330
1F
100
AcDbEntity
  8
0-0
  6
Continuous
 62
     2
370
    13
100
AcDbCircle
 10
1282.518706450591
 20
-476.875849543391
 30
0.0
 40
2.500000273859179
100
AcDbArc
 50
6.265106201171875
 51
90.0
  0
ARC
  5
170
330
1F
100
AcDbEntity
  8
0-0
  6
Continuous
 62
     2
370
    13
100
AcDbCircle
 10
1216.482956345017
 20
-546.8758330474029
 30
0.0
 40
2.500000273859179
100
AcDbArc
 50
24.44400024414062
 51
90.0
  0
ARC
  5
171
330
1F
100
AcDbEntity
  8
0-0
  6
Continuous
 62
     2
370
    13
100
AcDbCircle
 10
1315.508373363598
 20
-542.4112763275971
 30
0.0
 40
2.500000273859179
100
AcDbArc
 50
337.3799133300781
 51
9.462326049804702
  0
ARC
  5
172
330
1F
100
AcDbEntity
  8
0-0
  6
Continuous
 62
     2
370
    13
100
AcDbCircle
 10
680.0700419657943
 20
-486.5425810942779
 30
0.0
 40
3.333333376291636
100
AcDbArc
 50
277.8533477783203
 51
353.7342681884766
  0
ARC
  5
173
330
1F
100
AcDbEntity
  8
0-0
  6
Continuous
 62
     2
370
    13
100
AcDbCircle
 10
666.9715675147808
 20
-500.1267799171241
 30
0.0
 40
8.333334407290899
100
AcDbArc
 50
97.85334777832031
 51
170.5376434326172
  0
ARC
  5
174
330
1F
100
AcDbEntity
  8
0-0
  6
Continuous
 62
     2
370
    13
100
AcDbCircle
 10
914.3430967588682
 20
-451.0422660209036
 30
0.0
 40
8.333334407290899
100
AcDbArc
 50
270.0
 51
0.0
  0
ARC
  5
175
330
1F
100
AcDbEntity
  8
0-0
  6
Continuous
 62
     2
370
    13
100
AcDbCircle
 10
933.5092905405406
 20
-525.2555311048353
 30
0.0
 40
0.833333344072909
100
AcDbArc
 50
180.0
 51
266.7299652099609
  0
ARC
  5
176
330
1F
100
AcDbEntity
  8
0-0
  6
Continuous
 62
     2
370
    13
100
AcDbCircle
 10
946.4261441617401
 20
-527.6628731392525
 30
0.0
 40
0.833333344072909
100
AcDbArc
 50
0.0
 51
86.72996520996094
  0
ARC
  5
177
330
1F
100
AcDbEntity
  8
0-0
  6
Continuous
 62
     2
370
    13
100
AcDbCircle
 10
931.8430307749156
 20
-263.5422660209036
 30
0.0
 40
0.833333344072909
100
AcDbArc
 50
270.0
 51
0.0
  0
ARC
  5
178
330
1F
100
AcDbEntity
  8
0-0
  6
Continuous
 62
     2
370
    13
100
AcDbCircle
 10
931.8430307749156
 20
-288.5423485008445
 30
0.0
 40
0.833333344072909
100
AcDbArc
 50
0.0
 51
90.0
  0
ARC
  5
179
330
1F
100
AcDbEntity
  8
0-0
  6
Continuous
 62
     2
370
    13
100
AcDbCircle
 10
792.5047178526182
 20
-471.8755856075802
 30
0.0
 40
2.500000273859179
100
AcDbArc
 50
270.0
 51
277.8540954589844
  0
ARC
  5
17A
330
1F
100
AcDbEntity
  8
0-0
  6
Continuous
 62
     2
370
    13
100
AcDbCircle
 10
925.1760121938344
 20
-195.209037162162
 30
0.0
 40
2.500000273859179
100
AcDbArc
 50
90.0
 51
180.0
  0
ARC
  5
17B
330
1F
100
AcDbEntity
  8
0-0
  6
Continuous
 62
     2
370
    13
100
AcDbCircle
 10
901.5979663745776
 20
-461.8758000554265
 30
0.0
 40
2.500000273859179
100
AcDbArc
 50
90.0
 51
97.8531494140625
  0
ARC
  5
17C
330
1F
100
AcDbEntity
  8
0-0
  6
Continuous
 62
     2
370
    13
100
AcDbCircle
 10
686.9998416385135
 20
-476.875849543391
 30
0.0
 40
2.500000273859179
100
AcDbArc
 50
90.0
 51
173.7348937988281
  0
ARC
  5
17D
330
1F
100
AcDbEntity
  8
0-0
  6
Continuous
 62
     2
370
    13
100
AcDbCircle
 10
753.0360866237334
 20
-546.8758330474029
 30
0.0
 40
2.500000273859179
100
AcDbArc
 50
90.0
 51
155.5559997558594
  0
ARC
  5
17E
330
1F
100
AcDbEntity
  8
0-0
  6
Continuous
 62
     2
370
    13
100
AcDbCircle
 10
654.0096798458615
 20
-542.4112763275971
 30
0.0
 40
2.500000273859179
100
AcDbArc
 50
170.5376739501953
 51
202.6200866699219
  0
CIRCLE
  5
17F
330
1F
100
AcDbEntity
  8
0-1
  6
Continuous
 62
     2
370
    13
100
AcDbCircle
 10
-1214.407431112753
 20
-276.0423072608741
 30
0.0
 40
14.45539287618689
  0
ELLIPSE
  5
180
330
1F
100
AcDbEntity
  8
0-0
  6
Continuous
 62
     2
370
    13
100
AcDbEllipse
 10
-1214.406936233108
 20
-484.8262147645693
 30
0.0
 11
34.99996468827531
 21
0.0
 31
0.0
210
0.0
220
0.0
230
1.0
 40
0.1351
 41
3.141592653589792
 42
6.283185307179586
  0
ARC
  5
181
330
1F
100
AcDbEntity
  8
0-0
  6
Continuous
 62
     2
370
    13
100
AcDbCircle
 10
-1252.16724292652
 20
-481.4929529138513
 30
0.0
 40
3.333333376291636
100
AcDbArc
 50
270.0
 51
349.2559356689454
  0
CIRCLE
  5
182
330
1F
100
AcDbEntity
  8
0-0
  6
Continuous
 62
     2
370
    13
100
AcDbCircle
 10
-1214.407431112753
 20
-276.0425547006968
 30
0.0
 40
11.66665521827904
  0
ARC
  5
183
330
1F
100
AcDbEntity
  8
0-0
  6
Continuous
 62
     2
370
    13
100
AcDbCircle
 10
-1176.646876979519
 20
-481.4929529138513
 30
0.0
 40
3.333333376291636
100
AcDbArc
 50
190.7440643310547
 51
270.0
  0
ARC
  5
184
330
1F
100
AcDbEntity
  8
0-0
  6
Continuous
 62
     2
370
    13
100
AcDbCircle
 10
-1302.00855152027
 20
-504.116870777027
 30
0.0
 40
8.333334407290899
100
AcDbArc
 50
92.007080078125
 51
174.0531921386719
  0
ARC
  5
185
330
1F
100
AcDbEntity
  8
0-0
  6
Continuous
 62
     2
370
    13
100
AcDbCircle
 10
-1298.535486169764
 20
-470.7738597972973
 30
0.0
 40
8.333334407290899
100
AcDbArc
 50
92.08251953124999
 51
174.0531005859375
  0
ARC
  5
186
330
1F
100
AcDbEntity
  8
0-0
  6
Continuous
 62
     2
370
    13
100
AcDbCircle
 10
-1126.805568385769
 20
-504.116870777027
 30
0.0
 40
8.333334407290899
100
AcDbArc
 50
5.946807861328125
 51
87.992919921875
  0
ARC
  5
187
330
1F
100
AcDbEntity
  8
0-0
  6
Continuous
 62
     2
370
    13
100
AcDbCircle
 10
-1130.278881176098
 20
-470.7738597972973
 30
0.0
 40
8.333334407290899
100
AcDbArc
 50
5.946899414062499
 51
87.91748046875
  0
ARC
  5
188
330
1F
100
AcDbEntity
  8
0-0
  6
Continuous
 62
     2
370
    13
100
AcDbCircle
 10
-1245.650667757601
 20
-478.4410301414695
 30
0.0
 40
2.500000273859179
100
AcDbArc
 50
92.86273193359376
 51
169.2561798095703
  0
ARC
  5
189
330
1F
100
AcDbEntity
  8
0-0
  6
Continuous
 62
     2
370
    13
100
AcDbCircle
 10
-1183.163452148438
 20
-478.4410301414695
 30
0.0
 40
2.500000273859179
100
AcDbArc
 50
10.74382019042969
 51
87.13726806640625
  0
ARC
  5
18A
330
1F
100
AcDbEntity
  8
0-0
  6
Continuous
 62
     2
370
    13
100
AcDbCircle
 10
-1273.990198083826
 20
-198.4065782701646
 30
0.0
 40
2.500000273859179
100
AcDbArc
 50
93.06739807128906
 51
180.0
  0
ARC
  5
18B
330
1F
100
AcDbEntity
  8
0-0
  6
Continuous
 62
     2
370
    13
100
AcDbCircle
 10
-1154.823921822213
 20
-198.4065782701646
 30
0.0
 40
2.500000273859179
100
AcDbArc
 50
0.0
 51
86.93260192871094
  0
ARC
  5
18C
330
1F
100
AcDbEntity
  8
0-0
  6
Continuous
 62
     2
370
    13
100
AcDbCircle
 10
-1311.85022302576
 20
-542.2928763724661
 30
0.0
 40
2.500000273859179
100
AcDbArc
 50
174.0530242919922
 51
204.4447784423828
  0
ARC
  5
18D
330
1F
100
AcDbEntity
  8
0-0
  6
Continuous
 62
     2
370
    13
100
AcDbCircle
 10
-1116.963896880279
 20
-542.2928763724661
 30
0.0
 40
2.500000273859179
100
AcDbArc
 50
335.5550079345703
 51
5.946975708007843
  0
ARC
  5
18E
330
1F
100
AcDbEntity
  8
0-0
  6
JWW_DASHED1
 62
     2
370
    13
100
AcDbCircle
 10
-1163.157200168919
 20
-525.255407384924
 30
0.0
 40
0.833333344072909
100
AcDbArc
 50
273.2700347900391
 51
359.9999999999999
  0
ARC
  5
18F
330
1F
100
AcDbEntity
  8
0-0
  6
JWW_DASHED1
 62
     2
370
    13
100
AcDbCircle
 10
-1176.074053790118
 20
-527.6627494193411
 30
0.0
 40
0.833333344072909
100
AcDbArc
 50
93.27003479003906
 51
180.0
  0
ARC
  5
190
330
1F
100
AcDbEntity
  8
0-0
  6
JWW_DASHED1
 62
     2
370
    13
100
AcDbCircle
 10
-1265.657414616765
 20
-525.255407384924
 30
0.0
 40
0.833333344072909
100
AcDbArc
 50
180.0
 51
266.7299652099609
  0
ARC
  5
191
330
1F
100
AcDbEntity
  8
0-0
  6
JWW_DASHED1
 62
     2
370
    13
100
AcDbCircle
 10
-1252.740560995566
 20
-527.6627494193411
 30
0.0
 40
0.833333344072909
100
AcDbArc
 50
0.0
 51
86.72996520996094
  0
ARC
  5
192
330
1F
100
AcDbEntity
  8
0-0
  6
Continuous
 62
     3
370
    13
100
AcDbCircle
 10
984.7590266047297
 20
923.5408803578971
 30
0.0
 40
45.74993752144479
100
AcDbArc
 50
0.0
 51
180.0
  0
CIRCLE
  5
193
330
1F
100
AcDbEntity
  8
0-1
  6
Continuous
 62
     2
370
    13
100
AcDbCircle
 10
-148.5740043021536
 20
-276.0423072608741
 30
0.0
 40
14.45539287618689
  0
ELLIPSE
  5
194
330
1F
100
AcDbEntity
  8
0-0
  6
Continuous
 62
     2
370
    13
100
AcDbEllipse
 10
-148.5735094225083
 20
-484.8262147645693
 30
0.0
 11
34.99996468827531
 21
0.0
 31
0.0
210
0.0
220
0.0
230
1.0
 40
0.1351
 41
3.141592653589792
 42
6.283185307179586
  0
ARC
  5
195
330
1F
100
AcDbEntity
  8
0-0
  6
Continuous
 62
     2
370
    13
100
AcDbCircle
 10
-186.3339398358318
 20
-481.4929529138513
 30
0.0
 40
3.333333376291636
100
AcDbArc
 50
270.0
 51
349.2559356689454
  0
ARC
  5
196
330
1F
100
AcDbEntity
  8
0-0
  6
Continuous
 62
     2
370
    13
100
AcDbCircle
 10
-110.8134501689187
 20
-481.4929529138513
 30
0.0
 40
3.333333376291636
100
AcDbArc
 50
190.7440643310547
 51
270.0
  0
ARC
  5
197
330
1F
100
AcDbEntity
  8
0-0
  6
Continuous
 62
     2
370
    13
100
AcDbCircle
 10
-236.1752484295818
 20
-504.116870777027
 30
0.0
 40
8.333334407290899
100
AcDbArc
 50
92.007080078125
 51
174.0531921386719
  0
ARC
  5
198
330
1F
100
AcDbEntity
  8
0-0
  6
Continuous
 62
     2
370
    13
100
AcDbCircle
 10
-232.7020593591638
 20
-470.7738597972973
 30
0.0
 40
8.333334407290899
100
AcDbArc
 50
92.08251953124999
 51
174.0531005859375
  0
ARC
  5
199
330
1F
100
AcDbEntity
  8
0-0
  6
Continuous
 62
     2
370
    13
100
AcDbCircle
 10
-60.97214157516873
 20
-504.116870777027
 30
0.0
 40
8.333334407290899
100
AcDbArc
 50
5.946807861328125
 51
87.992919921875
  0
ARC
  5
19A
330
1F
100
AcDbEntity
  8
0-0
  6
Continuous
 62
     2
370
    13
100
AcDbCircle
 10
-64.4452069256755
 20
-470.7738597972973
 30
0.0
 40
8.333334407290899
100
AcDbArc
 50
5.946899414062499
 51
87.91748046875
  0
ARC
  5
19B
330
1F
100
AcDbEntity
  8
0-0
  6
Continuous
 62
     2
370
    13
100
AcDbCircle
 10
-179.8172409470016
 20
-478.4410301414695
 30
0.0
 40
2.500000273859179
100
AcDbArc
 50
92.86273193359376
 51
169.2561798095703
  0
ARC
  5
19C
330
1F
100
AcDbEntity
  8
0-0
  6
Continuous
 62
     2
370
    13
100
AcDbCircle
 10
-117.3300253378378
 20
-478.4410301414695
 30
0.0
 40
2.500000273859179
100
AcDbArc
 50
10.74382019042969
 51
87.13726806640625
  0
ARC
  5
19D
330
1F
100
AcDbEntity
  8
0-0
  6
Continuous
 62
     2
370
    13
100
AcDbCircle
 10
-208.1567712732263
 20
-198.4065782701646
 30
0.0
 40
2.500000273859179
100
AcDbArc
 50
93.06739807128906
 51
180.0
  0
ARC
  5
19E
330
1F
100
AcDbEntity
  8
0-0
  6
Continuous
 62
     2
370
    13
100
AcDbCircle
 10
-88.99074245143566
 20
-198.4065782701646
 30
0.0
 40
2.500000273859179
100
AcDbArc
 50
0.0
 51
86.93260192871094
  0
ARC
  5
19F
330
1F
100
AcDbEntity
  8
0-0
  6
Continuous
 62
     2
370
    13
100
AcDbCircle
 10
-246.0169199350716
 20
-542.2928763724661
 30
0.0
 40
2.500000273859179
100
AcDbArc
 50
174.0530242919922
 51
204.4447784423828
  0
ARC
  5
1A0
330
1F
100
AcDbEntity
  8
0-0
  6
Continuous
 62
     2
370
    13
100
AcDbCircle
 10
-51.13047006967889
 20
-542.2928763724661
 30
0.0
 40
2.500000273859179
100
AcDbArc
 50
335.5550079345703
 51
5.946975708007843
  0
ARC
  5
1A1
330
1F
100
AcDbEntity
  8
0-0
  6
JWW_DASHED1
 62
     2
370
    13
100
AcDbCircle
 10
-97.32402079814165
 20
-525.255407384924
 30
0.0
 40
0.833333344072909
100
AcDbArc
 50
273.2700347900391
 51
359.9999999999999
  0
ARC
  5
1A2
330
1F
100
AcDbEntity
  8
0-0
  6
JWW_DASHED1
 62
     2
370
    13
100
AcDbCircle
 10
-110.2408744193411
 20
-527.6627494193411
 30
0.0
 40
0.833333344072909
100
AcDbArc
 50
93.27003479003906
 51
180.0
  0
ARC
  5
1A3
330
1F
100
AcDbEntity
  8
0-0
  6
JWW_DASHED1
 62
     2
370
    13
100
AcDbCircle
 10
-199.8239878061653
 20
-525.255407384924
 30
0.0
 40
0.833333344072909
100
AcDbArc
 50
180.0
 51
266.7299652099609
  0
ARC
  5
1A4
330
1F
100
AcDbEntity
  8
0-0
  6
JWW_DASHED1
 62
     2
370
    13
100
AcDbCircle
 10
-186.9071341849661
 20
-527.6627494193411
 30
0.0
 40
0.833333344072909
100
AcDbArc
 50
0.0
 51
86.72996520996094
  0
ARC
  5
1A5
330
1F
100
AcDbEntity
  8
0-0
  6
JWW_CENTER1
 62
     3
370
    13
100
AcDbCircle
 10
-440.2403547957135
 20
631.8731689453125
 30
0.0
 40
291.6666597933383
100
AcDbArc
 50
0.0
 51
90.000244140625
  0
ARC
  5
1A6
330
1F
100
AcDbEntity
  8
0-0
  6
Continuous
 62
     3
370
    13
100
AcDbCircle
 10
-440.2403547957135
 20
631.8726740656675
 30
0.0
 40
342.0833278346706
100
AcDbArc
 50
0.0
 51
90.00022888183595
  0
ARC
  5
1A7
330
1F
100
AcDbEntity
  8
0-0
  6
Continuous
 62
     3
370
    13
100
AcDbCircle
 10
-440.2406022355362
 20
631.8721791860221
 30
0.0
 40
241.2500072169948
100
AcDbArc
 50
0.0
 51
90.00019836425781
  0
ARC
  5
1A8
330
1F
100
AcDbEntity
  8
0-0
  6
Continuous
 62
     3
370
    13
100
AcDbCircle
 10
-440.2403547957135
 20
631.8726740656675
 30
0.0
 40
337.0833422686603
100
AcDbArc
 50
0.0
 51
90.00022888183595
  0
ARC
  5
1A9
330
1F
100
AcDbEntity
  8
0-0
  6
Continuous
 62
     3
370
    13
100
AcDbCircle
 10
-440.2406022355362
 20
631.8721791860221
 30
0.0
 40
246.2500082479941
100
AcDbArc
 50
0.0
 51
90.00019836425781
  0
CIRCLE
  5
1AA
330
1F
100
AcDbEntity
  8
0-0
  6
Continuous
 62
     2
370
    13
100
AcDbCircle
 10
-148.5740043021536
 20
-276.0425547006968
 30
0.0
 40
11.66665521827904
  0
TEXT
  5
1AB
330
1F
100
AcDbEntity
  8
0-F
  6
Continuous
 62
     2
370
    13
100
AcDbText
 10
-1142.36083984375
 20
442.9248840661953
 30
0.0
 40
30.48
  1
φ60.5
 41
1.104166666666667
  7
ＭＳ ゴシック
100
AcDbText
  0
TEXT
  5
1AC
330
1F
100
AcDbEntity
  8
0-F
  6
Continuous
 62
     2
370
    13
100
AcDbText
 10
-1000.546979005994
 20
693.6038728199738
 30
0.0
 40
30.48
  1
R175
 50
329.9999479387552
 41
1.093749999999999
  7
ＭＳ ゴシック
100
AcDbText
  0
TEXT
  5
1AD
330
1F
100
AcDbEntity
  8
0-F
  6
Continuous
 62
     2
370
    13
100
AcDbText
 10
-710.8525621568834
 20
1084.594368797508
 30
0.0
 40
30.48
  1
700
 41
1.083333333333333
  7
ＭＳ ゴシック
100
AcDbText
  0
TEXT
  5
1AE
330
1F
100
AcDbEntity
  8
0-F
  6
Continuous
 62
     2
370
    13
100
AcDbText
 10
87.99895442774793
 20
-546.87189360754
 30
0.0
 40
30.48
  1
G.L.
 50
0.0000810129783828
 41
1.09375
  7
ＭＳ ゴシック
100
AcDbText
  0
TEXT
  5
1AF
330
1F
100
AcDbEntity
  8
0-F
  6
Continuous
 62
     2
370
    13
100
AcDbText
 10
-1552.902241901804
 20
174.7904347196841
 30
0.0
 40
30.48
  1
920
 50
90.00000250447816
 41
1.083333333333333
  7
ＭＳ ゴシック
100
AcDbText
  0
TEXT
  5
1B0
330
1F
100
AcDbEntity
  8
0-F
  6
Continuous
 62
     2
370
    13
100
AcDbText
 10
-1439.280102306153
 20
-408.5422662674359
 30
0.0
 40
30.48
  1
220
 50
90.00000250447816
 41
1.083333333333333
  7
ＭＳ ゴシック
100
AcDbText
  0
TEXT
  5
1B1
330
1F
100
AcDbEntity
  8
0-F
  6
Continuous
 62
     2
370
    13
100
AcDbText
 10
-1439.280102306153
 20
358.1235481065084
 30
0.0
 40
30.48
  1
700
 50
90.00000250447816
 41
1.083333333333333
  7
ＭＳ ゴシック
100
AcDbText
  0
TEXT
  5
1B2
330
1F
100
AcDbEntity
  8
0-F
  6
Continuous
 62
     2
370
    13
100
AcDbText
 10
952.2587737973785
 20
-780.1038453468306
 30
0.0
 40
30.48
  1
400
 50
0.0000545279424189
 41
1.083333333333333
  7
ＭＳ ゴシック
100
AcDbText
  0
TEXT
  5
1B3
330
1F
100
AcDbEntity
  8
0-F
  6
Continuous
 62
     2
370
    13
100
AcDbText
 10
-736.4905321275866
 20
-699.4973538455447
 30
0.0
 40
30.48
  1
639.5
 41
1.1
  7
ＭＳ ゴシック
100
AcDbText
  0
TEXT
  5
1B4
330
1F
100
AcDbEntity
  8
0-F
  6
Continuous
 62
     2
370
    13
100
AcDbText
 10
952.2592686770238
 20
-699.4973538455637
 30
0.0
 40
30.48
  1
320
 50
0.0000545279424189
 41
1.083333333333333
  7
ＭＳ ゴシック
100
AcDbText
  0
TEXT
  5
1B5
330
1F
100
AcDbEntity
  8
0-F
  6
Continuous
 62
     2
370
    13
100
AcDbText
 10
-181.0737622298599
 20
-797.063494510154
 30
0.0
 40
30.48
  1
120
 50
0.0000545279424189
 41
1.083333333333333
  7
ＭＳ ゴシック
100
AcDbText
  0
TEXT
  5
1B6
330
1F
100
AcDbEntity
  8
0-F
  6
Continuous
 62
     7
370
    13
100
AcDbText
 10
1334.579071869722
 20
-337.4301315060177
 30
0.0
 40
22.86
  1
アンカー穴：φ１４
 41
1.148148148148148
  7
ＭＳ ゴシック
100
AcDbText
  0
TEXT
  5
1B7
330
1F
100
AcDbEntity
  8
0-F
  6
Continuous
 62
     7
370
    13
100
AcDbText
 10
1266.961620433911
 20
-213.3197601483319
 30
0.0
 40
22.86
  1
支持脚：ＦＣＤ５００
 41
1.15
  7
ＭＳ ゴシック
100
AcDbText
  0
TEXT
  5
1B8
330
1F
100
AcDbEntity
  8
0-F
  6
Continuous
 62
     7
370
    13
100
AcDbText
 10
1171.567250844595
 20
-74.75098507442995
 30
0.0
 40
22.86
  1
六角ボルト：Ｍ１２×９０
 41
1.152777777777778
  7
ＭＳ ゴシック
100
AcDbText
  0
TEXT
  5
1B9
330
1F
100
AcDbEntity
  8
0-F
  6
Continuous
 62
     7
370
    13
100
AcDbText
 10
1171.56720135663
 20
-38.82507350612316
 30
0.0
 40
22.86
  1
六角ナット：Ｍ１２
 41
1.148148148148148
  7
ＭＳ ゴシック
100
AcDbText
  0
TEXT
  5
1BA
330
1F
100
AcDbEntity
  8
0-F
  6
Continuous
 62
     2
370
    13
100
AcDbText
 10
239.8936668602197
 20
-992.255223256704
 30
0.0
 40
30.48
  1
注記
 41
1.0625
  7
ＭＳ ゴシック
100
AcDbText
  0
TEXT
  5
1BB
330
1F
100
AcDbEntity
  8
0-F
  6
Continuous
 62
     2
370
    13
100
AcDbText
 10
265.7345993454395
 20
-1118.222321183488
 30
0.0
 40
30.48
  1
　　Ｍ１２のアンカーボルトで固定できます。
 41
1.119047619047619
  7
ＭＳ ゴシック
100
AcDbText
  0
TEXT
  5
1BC
330
1F
100
AcDbEntity
  8
0-F
  6
Continuous
 62
     7
370
    13
100
AcDbText
 10
1171.567209604625
 20
-119.121770349451
 30
0.0
 40
22.86
  1
溶融亜鉛めっき
 41
1.142857142857143
  7
ＭＳ ゴシック
100
AcDbText
  0
TEXT
  5
1BD
330
1F
100
AcDbEntity
  8
0-F
  6
Continuous
 62
     7
370
    13
100
AcDbText
 10
1188.366641482792
 20
728.0584879117401
 30
0.0
 40
22.86
  1
ヘアライン仕上
 41
1.142857142857143
  7
ＭＳ ゴシック
100
AcDbText
  0
TEXT
  5
1BE
330
1F
100
AcDbEntity
  8
0-F
  6
Continuous
 62
     7
370
    13
100
AcDbText
 10
1160.583100190034
 20
772.9396178209461
 30
0.0
 40
22.86
  1
本体：ＳＵＳ３０４
 41
1.148148148148148
  7
ＭＳ ゴシック
100
AcDbText
  0
TEXT
  5
1BF
330
1F
100
AcDbEntity
  8
0-F
  6
Continuous
 62
     2
370
    13
100
AcDbText
 10
-56.25906042150532
 20
442.9250077861065
 30
0.0
 40
30.48
  1
3
 41
0.9999999999999998
  7
ＭＳ ゴシック
100
AcDbText
  0
TEXT
  5
1C0
330
1F
100
AcDbEntity
  8
0-F
  6
Continuous
 62
     2
370
    13
100
AcDbText
 10
265.7345993454395
 20
-1060.671932125607
 30
0.0
 40
30.48
  1
一定の場所に固定したい場合には、
 41
1.1171875
  7
ＭＳ ゴシック
100
AcDbText
  0
TEXT
  5
1C1
330
1F
100
AcDbEntity
  8
0-5
  6
Continuous
 62
     2
370
    13
100
AcDbText
 10
-811.3514132113069
 20
-1353.414058178051
 30
0.0
 40
30.48
  1
アーチ型据置式ステンレス製車止め　　ＹＡ６Ｌ７－Ｓ
 41
1.12
  7
ＭＳ ゴシック
100
AcDbText
  0
TEXT
  5
1C2
330
1F
100
AcDbEntity
  8
0-F
  6
Continuous
 62
     7
370
    13
100
AcDbText
 10
1266.961669921875
 20
-257.690545423353
 30
0.0
 40
22.86
  1
溶融亜鉛めっき＋樹脂系塗装
 41
1.153846153846154
  7
ＭＳ ゴシック
100
AcDbText
  0
ENDSEC
  0
SECTION
  2
OBJECTS
  0
DICTIONARY
  5
C
330
0
100
AcDbDictionary
281
     1
  3
ACAD_GROUP
350
D
  3
ACAD_LAYOUT
350
1A
  3
ACAD_MLEADERSTYLE
350
1C4
  3
ACAD_MLINESTYLE
350
17
  3
ACAD_PLOTSETTINGS
350
19
  3
ACAD_PLOTSTYLENAME
350
E
  3
ACAD_TABLESTYLE
350
1C3
  3
ACAD_VISUALSTYLE
350
2A
  0
DICTIONARY
  5
D
102
{ACAD_REACTORS
330
C
102
}
330
C
100
AcDbDictionary
281
     1
  0
DICTIONARY
  5
1A
102
{ACAD_REACTORS
330
C
102
}
330
C
100
AcDbDictionary
281
     1
  3
Layout1
350
1E
  3
Layout2
350
26
  3
Model
350
22
  0
DICTIONARY
  5
1C4
102
{ACAD_REACTORS
330
C
102
}
330
C
100
AcDbDictionary
281
     1
  0
DICTIONARY
  5
17
102
{ACAD_REACTORS
330
C
102
}
330
C
100
AcDbDictionary
281
     1
  3
Standard
350
18
  0
DICTIONARY
  5
19
102
{ACAD_REACTORS
330
C
102
}
330
C
100
AcDbDictionary
281
     1
  0
ACDBDICTIONARYWDFLT
  5
E
102
{ACAD_REACTORS
330
C
102
}
330
C
100
AcDbDictionary
281
     1
  3
Normal
350
F
100
AcDbDictionaryWithDefault
340
F
  0
DICTIONARY
  5
1C3
102
{ACAD_REACTORS
330
C
102
}
330
C
100
AcDbDictionary
281
     1
  0
DICTIONARY
  5
2A
102
{ACAD_REACTORS
330
C
102
}
330
C
100
AcDbDictionary
281
     1
  3
2dWireframe
350
2F
  3
3D Hidden
350
31
  3
3dWireframe
350
30
  3
Basic
350
32
  3
Brighten
350
36
  3
ColorChange
350
3A
  3
Conceptual
350
34
  3
Dim
350
35
  3
Facepattern
350
39
  3
Flat
350
2B
  3
FlatWithEdges
350
2C
  3
Gouraud
350
2D
  3
GouraudWithEdges
350
2E
  3
Linepattern
350
38
  3
Realistic
350
33
  3
Thicken
350
37
  0
LAYOUT
  5
1E
102
{ACAD_REACTORS
330
1A
102
}
330
1A
100
AcDbPlotSettings
  1

  2
none_device
  4

  6

 40
0.0
 41
0.0
 42
0.0
 43
0.0
 44
0.0
 45
0.0
 46
0.0
 47
0.0
 48
0.0
 49
0.0
140
0.0
141
0.0
142
1.0
143
1.0
 70
   688
 72
     0
 73
     0
 74
     5
  7

 75
    16
 76
     0
 77
     5
 78
   300
147
1.0
148
0.0
149
0.0
100
AcDbLayout
  1
Layout1
 70
     1
 71
     1
 10
0.0
 20
0.0
 11
420.0
 21
297.0
 12
0.0
 22
0.0
 32
0.0
 14
1.000000000000000E+20
 24
1.000000000000000E+20
 34
1.000000000000000E+20
 15
-1.000000000000000E+20
 25
-1.000000000000000E+20
 35
-1.000000000000000E+20
146
0.0
 13
0.0
 23
0.0
 33
0.0
 16
1.0
 26
0.0
 36
0.0
 17
0.0
 27
1.0
 37
0.0
 76
     0
330
1B
  0
LAYOUT
  5
26
102
{ACAD_REACTORS
330
1A
102
}
330
1A
100
AcDbPlotSettings
  1

  2
none_device
  4

  6

 40
0.0
 41
0.0
 42
0.0
 43
0.0
 44
0.0
 45
0.0
 46
0.0
 47
0.0
 48
0.0
 49
0.0
140
0.0
141
0.0
142
1.0
143
1.0
 70
   688
 72
     0
 73
     0
 74
     5
  7

 75
    16
 76
     0
 77
     5
 78
   300
147
1.0
148
0.0
149
0.0
100
AcDbLayout
  1
Layout2
 70
     1
 71
     2
 10
0.0
 20
0.0
 11
0.0
 21
0.0
 12
0.0
 22
0.0
 32
0.0
 14
0.0
 24
0.0
 34
0.0
 15
0.0
 25
0.0
 35
0.0
146
0.0
 13
0.0
 23
0.0
 33
0.0
 16
1.0
 26
0.0
 36
0.0
 17
0.0
 27
1.0
 37
0.0
 76
     0
330
23
  0
LAYOUT
  5
22
102
{ACAD_REACTORS
330
1A
102
}
330
1A
100
AcDbPlotSettings
  1

  2
none_device
  4

  6

 40
0.0
 41
0.0
 42
0.0
 43
0.0
 44
0.0
 45
0.0
 46
0.0
 47
0.0
 48
0.0
 49
0.0
140
0.0
141
0.0
142
1.0
143
1.0
 70
  1712
 72
     0
 73
     0
 74
     0
  7

 75
     0
 76
     0
 77
     5
 78
   300
147
1.0
148
0.0
149
0.0
100
AcDbLayout
  1
Model
 70
     1
 71
     0
 10
-2100.0
 20
-1485.0
 11
2100.0
 21
1485.0
 12
0.0
 22
0.0
 32
0.0
 14
-2100.0
 24
-1485.0
 34
0.0
 15
2100.0
 25
1485.0
 35
0.0
146
0.0
 13
0.0
 23
0.0
 33
0.0
 16
1.0
 26
0.0
 36
0.0
 17
0.0
 27
1.0
 37
0.0
 76
     0
330
1F
331
29
  0
MLINESTYLE
  5
18
102
{ACAD_REACTORS
330
17
102
}
330
17
100
AcDbMlineStyle
  2
Standard
 70
     0
  3

 62
   256
 51
90.0
 52
90.0
 71
     2
 49
0.5
 62
   256
  6
BYLAYER
 49
-0.5
 62
   256
  6
BYLAYER
  0
ACDBPLACEHOLDER
  5
F
102
{ACAD_REACTORS
330
E
102
}
330
E
  0
VISUALSTYLE
  5
2F
102
{ACAD_REACTORS
330
2A
102
}
330
2A
100
AcDbVisualStyle
  2
2dWireframe
 70
     4
 71
     0
 72
     2
 73
     0
 90
        0
 40
-0.6
 41
-30.0
 62
     5
 63
     7
421
 16777215
 74
     1
 91
        4
 64
     7
 65
   257
 75
     1
175
     1
 42
1.0
 92
        0
 66
   257
 43
1.0
 76
     1
 77
     6
 78
     2
 67
     7
 79
     5
170
     0
171
     0
290
     0
174
     0
 93
        1
 44
0.0
173
     0
291
     0
 45
0.0
1001
ACAD
1000
AcDbSavedByObjectVersion
1070
     0
  0
VISUALSTYLE
  5
31
102
{ACAD_REACTORS
330
2A
102
}
330
2A
100
AcDbVisualStyle
  2
3D Hidden
 70
     6
 71
     1
 72
     2
 73
     2
 90
        0
 40
-0.6
 41
-30.0
 62
     5
 63
     7
421
 16777215
 74
     2
 91
        2
 64
     7
 65
   257
 75
     2
175
     1
 42
40.0
 92
        0
 66
   257
 43
1.0
 76
     1
 77
     6
 78
     2
 67
     7
 79
     3
170
     0
171
     0
290
     0
174
     0
 93
        1
 44
0.0
173
     0
291
     0
 45
0.0
1001
ACAD
1000
AcDbSavedByObjectVersion
1070
     0
  0
VISUALSTYLE
  5
30
102
{ACAD_REACTORS
330
2A
102
}
330
2A
100
AcDbVisualStyle
  2
3dWireframe
 70
     5
 71
     0
 72
     2
 73
     0
 90
        0
 40
-0.6
 41
-30.0
 62
     5
 63
     7
421
 16777215
 74
     1
 91
        4
 64
     7
 65
   257
 75
     1
175
     1
 42
1.0
 92
        0
 66
   257
 43
1.0
 76
     1
 77
     6
 78
     2
 67
     7
 79
     5
170
     0
171
     0
290
     0
174
     0
 93
        1
 44
0.0
173
     0
291
     0
 45
0.0
1001
ACAD
1000
AcDbSavedByObjectVersion
1070
     0
  0
VISUALSTYLE
  5
32
102
{ACAD_REACTORS
330
2A
102
}
330
2A
100
AcDbVisualStyle
  2
Basic
 70
     7
 71
     1
 72
     0
 73
     1
 90
        0
 40
-0.6
 41
-30.0
 62
     5
 63
     7
421
 16777215
 74
     0
 91
        4
 64
     7
 65
   257
 75
     1
175
     1
 42
1.0
 92
        8
 66
     7
 43
1.0
 76
     1
 77
     6
 78
     2
 67
     7
 79
     5
170
     0
171
     0
290
     0
174
     0
 93
        1
 44
0.0
173
     0
291
     1
 45
0.0
1001
ACAD
1000
AcDbSavedByObjectVersion
1070
     0
  0
VISUALSTYLE
  5
36
102
{ACAD_REACTORS
330
2A
102
}
330
2A
100
AcDbVisualStyle
  2
Brighten
 70
    12
 71
     2
 72
     2
 73
     0
 90
        0
 40
-0.6
 41
-30.0
 62
     5
 63
     7
421
 16777215
 74
     1
 91
        4
 64
     7
 65
   257
 75
     1
175
     1
 42
1.0
 92
        8
 66
     7
 43
1.0
 76
     1
 77
     6
 78
     2
 67
     7
 79
     5
170
     0
171
     0
290
     0
174
     0
 93
        1
 44
50.0
173
     0
291
     1
 45
0.0
1001
ACAD
1000
AcDbSavedByObjectVersion
1070
     0
  0
VISUALSTYLE
  5
3A
102
{ACAD_REACTORS
330
2A
102
}
330
2A
100
AcDbVisualStyle
  2
ColorChange
 70
    16
 71
     2
 72
     2
 73
     3
 90
        0
 40
-0.6
 41
-30.0
 62
     5
 63
     8
421
  8421504
 74
     1
 91
        4
 64
     7
 65
   257
 75
     1
175
     1
 42
1.0
 92
        8
 66
     8
424
  8421504
 43
1.0
 76
     1
 77
     6
 78
     2
 67
     7
 79
     5
170
     0
171
     0
290
     0
174
     0
 93
        1
 44
0.0
173
     0
291
     1
 45
0.0
1001
ACAD
1000
AcDbSavedByObjectVersion
1070
     0
  0
VISUALSTYLE
  5
34
102
{ACAD_REACTORS
330
2A
102
}
330
2A
100
AcDbVisualStyle
  2
Conceptual
 70
     9
 71
     3
 72
     2
 73
     0
 90
        0
 40
-0.6
 41
-30.0
 62
     5
 63
     7
421
 16777215
 74
     2
 91
        2
 64
     7
 65
   257
 75
     1
175
     1
 42
40.0
 92
        8
 66
     7
 43
1.0
 76
     1
 77
     6
 78
     2
 67
     7
 79
     3
170
     0
171
     0
290
     0
174
     0
 93
        1
 44
0.0
173
     0
291
     0
 45
0.0
1001
ACAD
1000
AcDbSavedByObjectVersion
1070
     0
  0
VISUALSTYLE
  5
35
102
{ACAD_REACTORS
330
2A
102
}
330
2A
100
AcDbVisualStyle
  2
Dim
 70
    11
 71
     2
 72
     2
 73
     0
 90
        0
 40
-0.6
 41
-30.0
 62
     5
 63
     7
421
 16777215
 74
     1
 91
        4
 64
     7
 65
   257
 75
     1
175
     1
 42
1.0
 92
        8
 66
     7
 43
1.0
 76
     1
 77
     6
 78
     2
 67
     7
 79
     5
170
     0
171
     0
290
     0
174
     0
 93
        1
 44
-50.0
173
     0
291
     1
 45
0.0
1001
ACAD
1000
AcDbSavedByObjectVersion
1070
     0
  0
VISUALSTYLE
  5
39
102
{ACAD_REACTORS
330
2A
102
}
330
2A
100
AcDbVisualStyle
  2
Facepattern
 70
    15
 71
     2
 72
     2
 73
     0
 90
        0
 40
-0.6
 41
-30.0
 62
     5
 63
     7
421
 16777215
 74
     1
 91
        4
 64
     7
 65
   257
 75
     1
175
     1
 42
1.0
 92
        8
 66
     7
 43
1.0
 76
     1
 77
     6
 78
     2
 67
     7
 79
     5
170
     0
171
     0
290
     0
174
     0
 93
        1
 44
0.0
173
     0
291
     1
 45
0.0
1001
ACAD
1000
AcDbSavedByObjectVersion
1070
     0
  0
VISUALSTYLE
  5
2B
102
{ACAD_REACTORS
330
2A
102
}
330
2A
100
AcDbVisualStyle
  2
Flat
 70
     0
 71
     2
 72
     1
 73
     1
 90
        2
 40
-0.6
 41
30.0
 62
     5
 63
     7
421
 16777215
 74
     0
 91
        4
 64
     7
 65
   257
 75
     1
175
     1
 42
1.0
 92
        8
 66
     7
 43
1.0
 76
     1
 77
     6
 78
     2
 67
     7
 79
     5
170
     0
171
     0
290
     0
174
     0
 93
       13
 44
0.0
173
     0
291
     1
 45
0.0
1001
ACAD
1000
AcDbSavedByObjectVersion
1070
     0
  0
VISUALSTYLE
  5
2C
102
{ACAD_REACTORS
330
2A
102
}
330
2A
100
AcDbVisualStyle
  2
FlatWithEdges
 70
     1
 71
     2
 72
     1
 73
     1
 90
        2
 40
-0.6
 41
30.0
 62
     5
 63
     7
421
 16777215
 74
     1
 91
        4
 64
     7
 65
   257
 75
     1
175
     1
 42
1.0
 92
        0
 66
   257
 43
1.0
 76
     1
 77
     6
 78
     2
 67
     7
 79
     5
170
     0
171
     0
290
     0
174
     0
 93
       13
 44
0.0
173
     0
291
     1
 45
0.0
1001
ACAD
1000
AcDbSavedByObjectVersion
1070
     0
  0
VISUALSTYLE
  5
2D
102
{ACAD_REACTORS
330
2A
102
}
330
2A
100
AcDbVisualStyle
  2
Gouraud
 70
     2
 71
     2
 72
     2
 73
     1
 90
        2
 40
-0.6
 41
30.0
 62
     5
 63
     7
421
 16777215
 74
     0
 91
        4
 64
     7
 65
   257
 75
     1
175
     1
 42
1.0
 92
        0
 66
     7
 43
1.0
 76
     1
 77
     6
 78
     2
 67
     7
 79
     5
170
     0
171
     0
290
     0
174
     0
 93
       13
 44
0.0
173
     0
291
     1
 45
0.0
1001
ACAD
1000
AcDbSavedByObjectVersion
1070
     0
  0
VISUALSTYLE
  5
2E
102
{ACAD_REACTORS
330
2A
102
}
330
2A
100
AcDbVisualStyle
  2
GouraudWithEdges
 70
     3
 71
     2
 72
     2
 73
     1
 90
        2
 40
-0.6
 41
30.0
 62
     5
 63
     7
421
 16777215
 74
     1
 91
        4
 64
     7
 65
   257
 75
     1
175
     1
 42
1.0
 92
        0
 66
   257
 43
1.0
 76
     1
 77
     6
 78
     2
 67
     7
 79
     5
170
     0
171
     0
290
     0
174
     0
 93
       13
 44
0.0
173
     0
291
     1
 45
0.0
1001
ACAD
1000
AcDbSavedByObjectVersion
1070
     0
  0
VISUALSTYLE
  5
38
102
{ACAD_REACTORS
330
2A
102
}
330
2A
100
AcDbVisualStyle
  2
Linepattern
 70
    14
 71
     2
 72
     2
 73
     0
 90
        0
 40
-0.6
 41
-30.0
 62
     5
 63
     7
421
 16777215
 74
     1
 91
        4
 64
     7
 65
   257
 75
     7
175
     7
 42
1.0
 92
        8
 66
     7
 43
1.0
 76
     1
 77
     6
 78
     2
 67
     7
 79
     5
170
     0
171
     0
290
     0
174
     0
 93
        1
 44
0.0
173
     0
291
     1
 45
0.0
1001
ACAD
1000
AcDbSavedByObjectVersion
1070
     0
  0
VISUALSTYLE
  5
33
102
{ACAD_REACTORS
330
2A
102
}
330
2A
100
AcDbVisualStyle
  2
Realistic
 70
     8
 71
     2
 72
     2
 73
     0
 90
        0
 40
-0.6
 41
-30.0
 62
     5
 63
     7
421
 16777215
 74
     1
 91
        0
 64
     7
 65
   257
 75
     1
175
     1
 42
1.0
 92
        8
 66
     8
424
  7895160
 43
1.0
 76
     1
 77
     6
 78
     2
 67
     7
 79
     5
170
     0
171
     0
290
     0
174
     0
 93
       13
 44
0.0
173
     0
291
     0
 45
0.0
1001
ACAD
1000
AcDbSavedByObjectVersion
1070
     0
  0
VISUALSTYLE
  5
37
102
{ACAD_REACTORS
330
2A
102
}
330
2A
100
AcDbVisualStyle
  2
Thicken
 70
    13
 71
     2
 72
     2
 73
     0
 90
        0
 40
-0.6
 41
-30.0
 62
     5
 63
     7
421
 16777215
 74
     1
 91
        4
 64
     7
 65
   257
 75
     1
175
     1
 42
1.0
 92
       12
 66
     7
 43
1.0
 76
     1
 77
     6
 78
     2
 67
     7
 79
     5
170
     0
171
     0
290
     0
174
     0
 93
        1
 44
0.0
173
     0
291
     1
 45
0.0
1001
ACAD
1000
AcDbSavedByObjectVersion
1070
     0
  0
ENDSEC
  0
EOF
