  0
SECTION
  2
HEADER
  9
$ACADVER
  1
AC1018
  9
$ACADMAINTVER
 70
     0
  9
$DWGCODEPAGE
  3
ANSI_932
  9
$INSBASE
 10
0.0
 20
0.0
 30
0.0
  9
$EXTMIN
 10
-3150.0
 20
-2227.5
 30
0.0
  9
$EXTMAX
 10
3150.0
 20
2227.5
 30
0.0
  9
$LIMMIN
 10
-3150.0
 20
-2227.5
  9
$LIMMAX
 10
3150.0
 20
2227.5
  9
$ORTHOMODE
 70
     0
  9
$REGENMODE
 70
     1
  9
$FILLMODE
 70
     1
  9
$QTEXTMODE
 70
     0
  9
$MIRRTEXT
 70
     1
  9
$LTSCALE
 40
15.0
  9
$ATTMODE
 70
     1
  9
$TEXTSIZE
 40
2.5
  9
$TRACEWID
 40
1.0
  9
$TEXTSTYLE
  7
Standard
  9
$CLAYER
  8
0
  9
$CELTYPE
  6
ByLayer
  9
$CECOLOR
 62
   256
  9
$CELTSCALE
 40
1.0
  9
$DISPSILH
 70
     0
  9
$DIMSCALE
 40
1.0
  9
$DIMASZ
 40
2.5
  9
$DIMEXO
 40
0.625
  9
$DIMDLI
 40
3.75
  9
$DIMRND
 40
0.0
  9
$DIMDLE
 40
0.0
  9
$DIMEXE
 40
1.25
  9
$DIMTP
 40
0.0
  9
$DIMTM
 40
0.0
  9
$DIMTXT
 40
2.5
  9
$DIMCEN
 40
2.5
  9
$DIMTSZ
 40
0.0
  9
$DIMTOL
 70
     0
  9
$DIMLIM
 70
     0
  9
$DIMTIH
 70
     0
  9
$DIMTOH
 70
     0
  9
$DIMSE1
 70
     0
  9
$DIMSE2
 70
     0
  9
$DIMTAD
 70
     1
  9
$DIMZIN
 70
     8
  9
$DIMBLK
  1

  9
$DIMASO
 70
     1
  9
$DIMSHO
 70
     1
  9
$DIMPOST
  1

  9
$DIMAPOST
  1

  9
$DIMALT
 70
     0
  9
$DIMALTD
 70
     3
  9
$DIMALTF
 40
0.03937007874016
  9
$DIMLFAC
 40
1.0
  9
$DIMTOFL
 70
     1
  9
$DIMTVP
 40
0.0
  9
$DIMTIX
 70
     0
  9
$DIMSOXD
 70
     0
  9
$DIMSAH
 70
     0
  9
$DIMBLK1
  1

  9
$DIMBLK2
  1

  9
$DIMSTYLE
  2
ISO-25
  9
$DIMCLRD
 70
     0
  9
$DIMCLRE
 70
     0
  9
$DIMCLRT
 70
     0
  9
$DIMTFAC
 40
1.0
  9
$DIMGAP
 40
0.625
  9
$DIMJUST
 70
     0
  9
$DIMSD1
 70
     0
  9
$DIMSD2
 70
     0
  9
$DIMTOLJ
 70
     0
  9
$DIMTZIN
 70
     8
  9
$DIMALTZ
 70
     0
  9
$DIMALTTZ
 70
     0
  9
$DIMUPT
 70
     0
  9
$DIMDEC
 70
     2
  9
$DIMTDEC
 70
     2
  9
$DIMALTU
 70
     2
  9
$DIMALTTD
 70
     3
  9
$DIMTXSTY
  7
Standard
  9
$DIMAUNIT
 70
     0
  9
$DIMADEC
 70
     0
  9
$DIMALTRND
 40
0.0
  9
$DIMAZIN
 70
     0
  9
$DIMDSEP
 70
    44
  9
$DIMATFIT
 70
     3
  9
$DIMFRAC
 70
     0
  9
$DIMLDRBLK
  1

  9
$DIMLUNIT
 70
     2
  9
$DIMLWD
 70
    -2
  9
$DIMLWE
 70
    -2
  9
$DIMTMOVE
 70
     0
  9
$LUNITS
 70
     2
  9
$LUPREC
 70
     4
  9
$SKETCHINC
 40
1.0
  9
$FILLETRAD
 40
10.0
  9
$AUNITS
 70
     0
  9
$AUPREC
 70
     0
  9
$MENU
  1
.
  9
$ELEVATION
 40
0.0
  9
$PELEVATION
 40
0.0
  9
$THICKNESS
 40
0.0
  9
$LIMCHECK
 70
     0
  9
$CHAMFERA
 40
0.0
  9
$CHAMFERB
 40
0.0
  9
$CHAMFERC
 40
0.0
  9
$CHAMFERD
 40
0.0
  9
$SKPOLY
 70
     0
  9
$TDCREATE
 40
2460518.70038419
  9
$TDUCREATE
 40
2460518.32538419
  9
$TDUPDATE
 40
2460518.700384317
  9
$TDUUPDATE
 40
2460518.325384317
  9
$TDINDWG
 40
0.0000000116
  9
$TDUSRTIMER
 40
0.0000000116
  9
$USRTIMER
 70
     1
  9
$ANGBASE
 50
0.0
  9
$ANGDIR
 70
     0
  9
$PDMODE
 70
     0
  9
$PDSIZE
 40
0.0
  9
$PLINEWID
 40
0.0
  9
$SPLFRAME
 70
     0
  9
$SPLINETYPE
 70
     6
  9
$SPLINESEGS
 70
     8
  9
$HANDSEED
  5
2B7
  9
$SURFTAB1
 70
     6
  9
$SURFTAB2
 70
     6
  9
$SURFTYPE
 70
     6
  9
$SURFU
 70
     6
  9
$SURFV
 70
     6
  9
$UCSBASE
  2

  9
$UCSNAME
  2

  9
$UCSORG
 10
0.0
 20
0.0
 30
0.0
  9
$UCSXDIR
 10
1.0
 20
0.0
 30
0.0
  9
$UCSYDIR
 10
0.0
 20
1.0
 30
0.0
  9
$UCSORTHOREF
  2

  9
$UCSORTHOVIEW
 70
     0
  9
$UCSORGTOP
 10
0.0
 20
0.0
 30
0.0
  9
$UCSORGBOTTOM
 10
0.0
 20
0.0
 30
0.0
  9
$UCSORGLEFT
 10
0.0
 20
0.0
 30
0.0
  9
$UCSORGRIGHT
 10
0.0
 20
0.0
 30
0.0
  9
$UCSORGFRONT
 10
0.0
 20
0.0
 30
0.0
  9
$UCSORGBACK
 10
0.0
 20
0.0
 30
0.0
  9
$PUCSBASE
  2

  9
$PUCSNAME
  2

  9
$PUCSORG
 10
0.0
 20
0.0
 30
0.0
  9
$PUCSXDIR
 10
1.0
 20
0.0
 30
0.0
  9
$PUCSYDIR
 10
0.0
 20
1.0
 30
0.0
  9
$PUCSORTHOREF
  2

  9
$PUCSORTHOVIEW
 70
     0
  9
$PUCSORGTOP
 10
0.0
 20
0.0
 30
0.0
  9
$PUCSORGBOTTOM
 10
0.0
 20
0.0
 30
0.0
  9
$PUCSORGLEFT
 10
0.0
 20
0.0
 30
0.0
  9
$PUCSORGRIGHT
 10
0.0
 20
0.0
 30
0.0
  9
$PUCSORGFRONT
 10
0.0
 20
0.0
 30
0.0
  9
$PUCSORGBACK
 10
0.0
 20
0.0
 30
0.0
  9
$USERI1
 70
     0
  9
$USERI2
 70
     0
  9
$USERI3
 70
     0
  9
$USERI4
 70
     0
  9
$USERI5
 70
     0
  9
$USERR1
 40
0.0
  9
$USERR2
 40
0.0
  9
$USERR3
 40
0.0
  9
$USERR4
 40
0.0
  9
$USERR5
 40
0.0
  9
$WORLDVIEW
 70
     1
  9
$SHADEDGE
 70
     3
  9
$SHADEDIF
 70
    70
  9
$TILEMODE
 70
     1
  9
$MAXACTVP
 70
    64
  9
$PINSBASE
 10
0.0
 20
0.0
 30
0.0
  9
$PLIMCHECK
 70
     0
  9
$PEXTMIN
 10
1.000000000000000E+20
 20
1.000000000000000E+20
 30
1.000000000000000E+20
  9
$PEXTMAX
 10
-1.000000000000000E+20
 20
-1.000000000000000E+20
 30
-1.000000000000000E+20
  9
$PLIMMIN
 10
0.0
 20
0.0
  9
$PLIMMAX
 10
420.0
 20
297.0
  9
$UNITMODE
 70
     0
  9
$VISRETAIN
 70
     1
  9
$PLINEGEN
 70
     0
  9
$PSLTSCALE
 70
     1
  9
$TREEDEPTH
 70
  3020
  9
$CMLSTYLE
  2
Standard
  9
$CMLJUST
 70
     0
  9
$CMLSCALE
 40
20.0
  9
$PROXYGRAPHICS
 70
     1
  9
$MEASUREMENT
 70
     1
  9
$CELWEIGHT
370
    -1
  9
$ENDCAPS
280
     0
  9
$JOINSTYLE
280
     0
  9
$LWDISPLAY
290
     0
  9
$INSUNITS
 70
     4
  9
$HYPERLINKBASE
  1

  9
$STYLESHEET
  1

  9
$XEDIT
290
     1
  9
$CEPSNTYPE
380
     0
  9
$PSTYLEMODE
290
     1
  9
$FINGERPRINTGUID
  2
{638257A5-4283-4F0A-8BE5-2132D0FA6D65}
  9
$VERSIONGUID
  2
{FAEB1C32-E019-11D5-929B-00C0DF256EC4}
  9
$EXTNAMES
290
     1
  9
$PSVPSCALE
 40
0.0
  9
$OLESTARTUP
290
     0
  9
$SORTENTS
280
   127
  9
$INDEXCTL
280
     0
  9
$HIDETEXT
280
     1
  9
$XCLIPFRAME
290
     0
  9
$HALOGAP
280
     0
  9
$OBSCOLOR
 70
   257
  9
$OBSLTYPE
280
     0
  9
$INTERSECTIONDISPLAY
280
     0
  9
$INTERSECTIONCOLOR
 70
   257
  9
$DIMASSOC
280
     2
  9
$PROJECTNAME
  1

  0
ENDSEC
  0
SECTION
  2
CLASSES
  0
CLASS
  1
ACDBDICTIONARYWDFLT
  2
AcDbDictionaryWithDefault
  3
ObjectDBX Classes
 90
        0
 91
        4
280
     0
281
     0
  0
CLASS
  1
VISUALSTYLE
  2
AcDbVisualStyle
  3
ObjectDBX Classes
 90
     4095
 91
        4
280
     0
281
     0
  0
CLASS
  1
MATERIAL
  2
AcDbMaterial
  3
ObjectDBX Classes
 90
     1153
 91
        4
280
     0
281
     0
  0
CLASS
  1
SCALE
  2
AcDbScale
  3
ObjectDBX Classes
 90
     1153
 91
        4
280
     0
281
     0
  0
CLASS
  1
TABLESTYLE
  2
AcDbTableStyle
  3
ObjectDBX Classes
 90
     4095
 91
        4
280
     0
281
     0
  0
CLASS
  1
MLEADERSTYLE
  2
AcDbMLeaderStyle
  3
ACDB_MLEADERSTYLE_CLASS
 90
     4095
 91
        4
280
     0
281
     0
  0
CLASS
  1
SUN
  2
AcDbSun
  3
SCENEOE
 90
     1153
 91
        4
280
     0
281
     0
  0
CLASS
  1
DICTIONARYVAR
  2
AcDbDictionaryVar
  3
ObjectDBX Classes
 90
        0
 91
        4
280
     0
281
     0
  0
CLASS
  1
CELLSTYLEMAP
  2
AcDbCellStyleMap
  3
ObjectDBX Classes
 90
     1152
 91
        4
280
     0
281
     0
  0
ENDSEC
  0
SECTION
  2
TABLES
  0
TABLE
  2
VPORT
  5
8
102
{ACAD_XDICTIONARY
360
26E
102
}
330
0
100
AcDbSymbolTable
 70
     1
  0
VPORT
  5
29
330
8
100
AcDbSymbolTableRecord
100
AcDbViewportTableRecord
  2
*Active
 70
     0
 10
0.0
 20
0.0
 11
1.0
 21
1.0
 12
0.0
 22
0.0
 13
0.0
 23
0.0
 14
10.0
 24
10.0
 15
10.0
 25
10.0
 16
0.0
 26
0.0
 36
1.0
 17
0.0
 27
0.0
 37
0.0
 40
4900.5
 41
1.414141414141414
 42
50.0
 43
0.0
 44
0.0
 50
0.0
 51
0.0
 71
     0
 72
 10000
 73
     1
 74
     3
 75
     0
 76
     0
 77
     0
 78
     0
281
     0
 65
     1
110
0.0
120
0.0
130
0.0
111
1.0
121
0.0
131
0.0
112
0.0
122
1.0
132
0.0
 79
     0
146
0.0
  0
ENDTAB
  0
TABLE
  2
LTYPE
  5
5
330
0
100
AcDbSymbolTable
 70
     6
  0
LTYPE
  5
14
330
5
100
AcDbSymbolTableRecord
100
AcDbLinetypeTableRecord
  2
ByBlock
 70
     0
  3

 72
    65
 73
     0
 40
0.0
  0
LTYPE
  5
15
330
5
100
AcDbSymbolTableRecord
100
AcDbLinetypeTableRecord
  2
ByLayer
 70
     0
  3

 72
    65
 73
     0
 40
0.0
  0
LTYPE
  5
16
330
5
100
AcDbSymbolTableRecord
100
AcDbLinetypeTableRecord
  2
Continuous
 70
     0
  3
Solid line
 72
    65
 73
     0
 40
0.0
  0
LTYPE
  5
6F
330
5
100
AcDbSymbolTableRecord
100
AcDbLinetypeTableRecord
  2
JWW_CENTER1
 70
     0
  3
-----  --  ----------  --  -----
 72
    65
 73
     4
 40
6.773333333333333
 49
4.233333333333333
 74
     0
 49
-0.8466666666666667
 74
     0
 49
0.8466666666666667
 74
     0
 49
-0.8466666666666667
 74
     0
  0
LTYPE
  5
70
330
5
100
AcDbSymbolTableRecord
100
AcDbLinetypeTableRecord
  2
JWW_DASHED1
 70
     0
  3
-  --  --  --  --  --  --  --  -
 72
    65
 73
     2
 40
1.693333333333333
 49
0.8466666666666667
 74
     0
 49
-0.8466666666666667
 74
     0
  0
LTYPE
  5
71
330
5
100
AcDbSymbolTableRecord
100
AcDbLinetypeTableRecord
  2
JWW_PHANTOM1
 70
     0
  3
----  -  -  --------  -  -  ----
 72
    65
 73
     6
 40
6.773333333333333
 49
3.386666666666667
 74
     0
 49
-0.8466666666666667
 74
     0
 49
0.4233333333333333
 74
     0
 49
-0.8466666666666667
 74
     0
 49
0.4233333333333333
 74
     0
 49
-0.8466666666666667
 74
     0
  0
LTYPE
  5
72
330
5
100
AcDbSymbolTableRecord
100
AcDbLinetypeTableRecord
  2
JWW_CENTER2
 70
     0
  3
-------------  --  -------------
 72
    65
 73
     4
 40
13.54666666666667
 49
11.00666666666667
 74
     0
 49
-0.8466666666666667
 74
     0
 49
0.8466666666666667
 74
     0
 49
-0.8466666666666667
 74
     0
  0
LTYPE
  5
73
330
5
100
AcDbSymbolTableRecord
100
AcDbLinetypeTableRecord
  2
JWW_DASHED2
 70
     0
  3
--    ----    ----    ----    --
 72
    65
 73
     2
 40
3.386666666666667
 49
1.693333333333333
 74
     0
 49
-1.693333333333333
 74
     0
  0
ENDTAB
  0
TABLE
  2
LAYER
  5
2
330
0
100
AcDbSymbolTable
 70
    20
  0
LAYER
  5
10
330
2
100
AcDbSymbolTableRecord
100
AcDbLayerTableRecord
  2
0
 70
     0
 62
     7
  6
Continuous
370
    -3
390
F
  0
LAYER
  5
74
330
2
100
AcDbSymbolTableRecord
100
AcDbLayerTableRecord
  2
D-E_見え係り
 70
     0
 62
     7
  6
Continuous
370
    -3
390
F
  0
LAYER
  5
75
330
2
100
AcDbSymbolTableRecord
100
AcDbLayerTableRecord
  2
D-4_文字
 70
     0
 62
     7
  6
Continuous
370
    -3
390
F
  0
LAYER
  5
76
330
2
100
AcDbSymbolTableRecord
100
AcDbLayerTableRecord
  2
D-1_躯体
 70
     0
 62
     7
  6
Continuous
370
    -3
390
F
  0
LAYER
  5
77
330
2
100
AcDbSymbolTableRecord
100
AcDbLayerTableRecord
  2
D-A_インテリア
 70
     0
 62
     7
  6
Continuous
370
    -3
390
F
  0
LAYER
  5
78
330
2
100
AcDbSymbolTableRecord
100
AcDbLayerTableRecord
  2
D-6_間仕切
 70
     0
 62
     7
  6
Continuous
370
    -3
390
F
  0
LAYER
  5
79
330
2
100
AcDbSymbolTableRecord
100
AcDbLayerTableRecord
  2
D-0_通り芯
 70
     0
 62
     7
  6
Continuous
370
    -3
390
F
  0
LAYER
  5
7A
330
2
100
AcDbSymbolTableRecord
100
AcDbLayerTableRecord
  2
D-5_建具
 70
     0
 62
     7
  6
Continuous
370
    -3
390
F
  0
LAYER
  5
7B
330
2
100
AcDbSymbolTableRecord
100
AcDbLayerTableRecord
  2
D-2_仕上
 70
     0
 62
     7
  6
Continuous
370
    -3
390
F
  0
LAYER
  5
7C
330
2
100
AcDbSymbolTableRecord
100
AcDbLayerTableRecord
  2
A-2_仕上
 70
     0
 62
     7
  6
Continuous
370
    -3
390
F
  0
LAYER
  5
7D
330
2
100
AcDbSymbolTableRecord
100
AcDbLayerTableRecord
  2
A-E_見え係り
 70
     0
 62
     7
  6
Continuous
370
    -3
390
F
  0
LAYER
  5
7E
330
2
100
AcDbSymbolTableRecord
100
AcDbLayerTableRecord
  2
A-1_躯体
 70
     0
 62
     7
  6
Continuous
370
    -3
390
F
  0
LAYER
  5
7F
330
2
100
AcDbSymbolTableRecord
100
AcDbLayerTableRecord
  2
A-3_寸法
 70
     0
 62
     7
  6
Continuous
370
    -3
390
F
  0
LAYER
  5
80
330
2
100
AcDbSymbolTableRecord
100
AcDbLayerTableRecord
  2
A-0_通り芯
 70
     0
 62
     7
  6
Continuous
370
    -3
390
F
  0
LAYER
  5
81
330
2
100
AcDbSymbolTableRecord
100
AcDbLayerTableRecord
  2
A-5_建具
 70
     0
 62
     7
  6
Continuous
370
    -3
390
F
  0
LAYER
  5
82
330
2
100
AcDbSymbolTableRecord
100
AcDbLayerTableRecord
  2
A-6_間仕切
 70
     0
 62
     7
  6
Continuous
370
    -3
390
F
  0
LAYER
  5
83
330
2
100
AcDbSymbolTableRecord
100
AcDbLayerTableRecord
  2
F-5ﾚｲﾔ
 70
     0
 62
     7
  6
Continuous
370
    -3
390
F
  0
LAYER
  5
84
330
2
100
AcDbSymbolTableRecord
100
AcDbLayerTableRecord
  2
F-Fﾚｲﾔ
 70
     0
 62
     7
  6
Continuous
370
    -3
390
F
  0
LAYER
  5
85
330
2
100
AcDbSymbolTableRecord
100
AcDbLayerTableRecord
  2
A-4_文字
 70
     0
 62
     7
  6
Continuous
370
    -3
390
F
  0
LAYER
  5
86
330
2
100
AcDbSymbolTableRecord
100
AcDbLayerTableRecord
  2
A-A_インテリア
 70
     0
 62
     7
  6
Continuous
370
    -3
390
F
  0
ENDTAB
  0
TABLE
  2
STYLE
  5
3
330
0
100
AcDbSymbolTable
 70
     2
  0
STYLE
  5
11
330
3
100
AcDbSymbolTableRecord
100
AcDbTextStyleTableRecord
  2
Standard
 70
     0
 40
0.0
 41
1.0
 50
0.0
 71
     0
 42
2.5
  3
txt
  4

  0
STYLE
  5
6E
330
3
100
AcDbSymbolTableRecord
100
AcDbTextStyleTableRecord
  2
ＭＳ ゴシック
 70
     0
 40
1.0
 41
1.0
 50
0.0
 71
     0
 42
2.5
  3

  4

1001
ACAD
1000
MS Gothic
1071
    32817
  0
ENDTAB
  0
TABLE
  2
VIEW
  5
6
330
0
100
AcDbSymbolTable
 70
     0
  0
ENDTAB
  0
TABLE
  2
UCS
  5
7
330
0
100
AcDbSymbolTable
 70
     0
  0
ENDTAB
  0
TABLE
  2
APPID
  5
9
330
0
100
AcDbSymbolTable
 70
     2
  0
APPID
  5
12
330
9
100
AcDbSymbolTableRecord
100
AcDbRegAppTableRecord
  2
ACAD
 70
     0
  0
APPID
  5
2AD
330
9
100
AcDbSymbolTableRecord
100
AcDbRegAppTableRecord
  2
ACAD_MLEADERVER
 70
     0
  0
ENDTAB
  0
TABLE
  2
DIMSTYLE
  5
A
330
0
100
AcDbSymbolTable
 70
     1
100
AcDbDimStyleTable
  0
DIMSTYLE
105
27
330
A
100
AcDbSymbolTableRecord
100
AcDbDimStyleTableRecord
  2
ISO-25
 70
     0
 41
2.5
 42
0.625
 43
3.75
 44
1.25
 73
     0
 74
     0
 77
     1
 78
     8
140
2.5
141
2.5
143
0.03937007874016
147
0.625
171
     3
172
     1
178
     0
271
     2
272
     2
274
     3
278
    44
283
     0
284
     8
340
11
  0
ENDTAB
  0
TABLE
  2
BLOCK_RECORD
  5
1
330
0
100
AcDbSymbolTable
 70
     1
  0
BLOCK_RECORD
  5
1F
330
1
100
AcDbSymbolTableRecord
100
AcDbBlockTableRecord
  2
*Model_Space
340
22
  0
BLOCK_RECORD
  5
1B
330
1
100
AcDbSymbolTableRecord
100
AcDbBlockTableRecord
  2
*Paper_Space
340
1E
  0
BLOCK_RECORD
  5
23
330
1
100
AcDbSymbolTableRecord
100
AcDbBlockTableRecord
  2
*Paper_Space0
340
26
  0
ENDTAB
  0
ENDSEC
  0
SECTION
  2
BLOCKS
  0
BLOCK
  5
20
330
1F
100
AcDbEntity
  8
0
100
AcDbBlockBegin
  2
*Model_Space
 70
     0
 10
0.0
 20
0.0
 30
0.0
  3
*Model_Space
  1

  0
ENDBLK
  5
21
330
1F
100
AcDbEntity
  8
0
100
AcDbBlockEnd
  0
BLOCK
  5
1C
330
1B
100
AcDbEntity
 67
     1
  8
0
100
AcDbBlockBegin
  2
*Paper_Space
 70
     0
 10
0.0
 20
0.0
 30
0.0
  3
*Paper_Space
  1

  0
ENDBLK
  5
1D
330
1B
100
AcDbEntity
 67
     1
  8
0
100
AcDbBlockEnd
  0
BLOCK
  5
24
330
23
100
AcDbEntity
  8
0
100
AcDbBlockBegin
  2
*Paper_Space0
 70
     0
 10
0.0
 20
0.0
 30
0.0
  3
*Paper_Space0
  1

  0
ENDBLK
  5
25
330
23
100
AcDbEntity
  8
0
100
AcDbBlockEnd
  0
ENDSEC
  0
SECTION
  2
ENTITIES
  0
LINE
  5
87
330
1F
100
AcDbEntity
  8
D-E_見え係り
  6
Continuous
 62
     6
370
     5
100
AcDbLine
 10
2672.473334003666
 20
-2604.532558515842
 30
0.0
 11
2674.18124142357
 21
-2604.532558515842
 31
0.0
  0
LINE
  5
88
330
1F
100
AcDbEntity
  8
D-4_文字
  6
Continuous
 62
     7
370
     9
100
AcDbLine
 10
2157.052972254989
 20
-671.9127255876986
 30
0.0
 11
2062.639305197014
 21
-671.9127255876986
 31
0.0
  0
LINE
  5
89
330
1F
100
AcDbEntity
  8
D-1_躯体
  6
Continuous
 62
     3
370
     9
100
AcDbLine
 10
1505.140030951251
 20
-755.4123664975486
 30
0.0
 11
1505.140030951251
 21
-667.9125726974006
 31
0.0
  0
LINE
  5
8A
330
1F
100
AcDbEntity
  8
D-1_躯体
  6
Continuous
 62
     3
370
     9
100
AcDbLine
 10
1512.638942216032
 20
-762.9120200817966
 30
0.0
 11
1667.639701031489
 21
-762.9120200817966
 31
0.0
  0
ARC
  5
8B
330
1F
100
AcDbEntity
  8
D-1_躯体
  6
Continuous
 62
     3
370
     9
100
AcDbCircle
 10
1512.638942216032
 20
-667.9125726974006
 30
0.0
 40
7.499999371734825
100
AcDbArc
 50
90.0
 51
180.0
  0
ARC
  5
8C
330
1F
100
AcDbEntity
  8
D-1_躯体
  6
Continuous
 62
     3
370
     9
100
AcDbCircle
 10
1512.638942216032
 20
-755.4123664975486
 30
0.0
 40
7.499999371734825
100
AcDbArc
 50
180.0
 51
270.0
  0
CIRCLE
  5
8D
330
1F
100
AcDbEntity
  8
D-A_インテリア
  6
Continuous
 62
     2
370
     9
100
AcDbCircle
 10
1587.139608653954
 20
-699.4121569984986
 30
0.0
 40
12.50000016109364
  0
LINE
  5
8E
330
1F
100
AcDbEntity
  8
D-1_躯体
  6
Continuous
 62
     3
370
     9
100
AcDbLine
 10
1686.389206151842
 20
-660.4121767936847
 30
0.0
 11
1512.638942216032
 21
-660.4121767936847
 31
0.0
  0
LINE
  5
8F
330
1F
100
AcDbEntity
  8
D-A_インテリア
  6
Continuous
 62
     2
370
     9
100
AcDbLine
 10
2095.41208520059
 20
-428.1619425506522
 30
0.0
 11
2095.41208520059
 21
-516.9125446542206
 31
0.0
  0
LINE
  5
90
330
1F
100
AcDbEntity
  8
D-A_インテリア
  6
Continuous
 62
     2
370
     9
100
AcDbLine
 10
2072.911639808907
 20
-428.1619425506522
 30
0.0
 11
2072.911639808907
 21
-516.9125446542206
 31
0.0
  0
LINE
  5
91
330
1F
100
AcDbEntity
  8
D-A_インテリア
  6
Continuous
 62
     2
370
     9
100
AcDbLine
 10
2070.412992479938
 20
-516.9125446542206
 30
0.0
 11
2070.412992479938
 21
-634.412066270564
 31
0.0
  0
LINE
  5
92
330
1F
100
AcDbEntity
  8
D-A_インテリア
  6
Continuous
 62
     2
370
     9
100
AcDbLine
 10
2059.162398624365
 20
-516.9125446542206
 30
0.0
 11
2109.162068704601
 21
-516.9125446542206
 31
0.0
  0
LINE
  5
93
330
1F
100
AcDbEntity
  8
D-A_インテリア
  6
Continuous
 62
     2
370
     9
100
AcDbLine
 10
2097.912217168493
 20
-516.9125446542206
 30
0.0
 11
2097.912217168493
 21
-634.412066270564
 31
0.0
  0
LINE
  5
94
330
1F
100
AcDbEntity
  8
D-A_インテリア
  6
Continuous
 62
     2
370
     9
100
AcDbLine
 10
2109.162068704601
 20
-516.9125446542206
 30
0.0
 11
2109.162068704601
 21
-634.412066270564
 31
0.0
  0
LINE
  5
95
330
1F
100
AcDbEntity
  8
D-A_インテリア
  6
Continuous
 62
     2
370
     9
100
AcDbLine
 10
2059.162398624365
 20
-516.9125446542206
 30
0.0
 11
2059.162398624365
 21
-634.412066270564
 31
0.0
  0
LINE
  5
96
330
1F
100
AcDbEntity
  8
D-A_インテリア
  6
Continuous
 62
     2
370
     9
100
AcDbLine
 10
2059.162398624365
 20
-634.412066270564
 30
0.0
 11
2109.162068704601
 21
-634.412066270564
 31
0.0
  0
ARC
  5
97
330
1F
100
AcDbEntity
  8
D-A_インテリア
  6
Continuous
 62
     2
370
     9
100
AcDbCircle
 10
2084.162233664482
 20
-428.1619425506522
 30
0.0
 40
11.25000159482698
100
AcDbArc
 50
0.0000000000000064
 51
180.0
  0
LINE
  5
98
330
1F
100
AcDbEntity
  8
D-6_間仕切
  6
JWW_CENTER1
 62
     7
370
     9
100
AcDbLine
 10
2084.162233664482
 20
-399.3309967366741
 30
0.0
 11
2084.162233664482
 21
-444.6425482173537
 31
0.0
  0
LINE
  5
99
330
1F
100
AcDbEntity
  8
D-6_間仕切
  6
Continuous
 62
     7
370
     9
100
AcDbLine
 10
2124.161375873097
 20
-396.9121487505044
 30
0.0
 11
2124.161375873097
 21
-446.9121899904749
 31
0.0
  0
ARC
  5
9A
330
1F
100
AcDbEntity
  8
D-6_間仕切
  6
Continuous
 62
     7
370
     9
100
AcDbCircle
 10
2119.161854256753
 20
-396.9121487505044
 30
0.0
 40
5.000000064437454
100
AcDbArc
 50
0.0000000000000127
 51
90.00000000000001
  0
ARC
  5
9B
330
1F
100
AcDbEntity
  8
D-6_間仕切
  6
Continuous
 62
     7
370
     9
100
AcDbCircle
 10
2119.161854256753
 20
-446.9121899904749
 30
0.0
 40
5.000000064437454
100
AcDbArc
 50
270.0
 51
0.0
  0
ARC
  5
9C
330
1F
100
AcDbEntity
  8
D-6_間仕切
  6
Continuous
 62
     7
370
     9
100
AcDbCircle
 10
2084.162233664482
 20
-421.9123549503569
 30
0.0
 40
17.50000022553109
100
AcDbArc
 50
310.0047302246094
 51
229.9922332763672
  0
LINE
  5
9D
330
1F
100
AcDbEntity
  8
D-6_間仕切
  6
Continuous
 62
     7
370
     9
100
AcDbLine
 10
1564.161507841002
 20
-466.9121322545163
 30
0.0
 11
1564.161507841002
 21
-376.9122064864632
 31
0.0
  0
ARC
  5
9E
330
1F
100
AcDbEntity
  8
D-6_間仕切
  6
Continuous
 62
     7
370
     9
100
AcDbCircle
 10
1569.161771776813
 20
-466.9121322545163
 30
0.0
 40
5.000000064437454
100
AcDbArc
 50
180.0
 51
270.0
  0
ARC
  5
9F
330
1F
100
AcDbEntity
  8
D-6_間仕切
  6
Continuous
 62
     7
370
     9
100
AcDbCircle
 10
1569.161771776813
 20
-376.9122064864632
 30
0.0
 40
5.000000064437454
100
AcDbArc
 50
90.0
 51
180.0
  0
LINE
  5
A0
330
1F
100
AcDbEntity
  8
D-6_間仕切
  6
Continuous
 62
     7
370
     9
100
AcDbLine
 10
2119.161854256753
 20
-391.9122559744272
 30
0.0
 11
1988.890327879039
 21
-391.9122559744272
 31
0.0
  0
LINE
  5
A1
330
1F
100
AcDbEntity
  8
D-6_間仕切
  6
Continuous
 62
     7
370
     9
100
AcDbLine
 10
1571.836150981677
 20
-471.9120250305928
 30
0.0
 11
1569.161771776813
 21
-471.9120250305928
 31
0.0
  0
LINE
  5
A2
330
1F
100
AcDbEntity
  8
D-6_間仕切
  6
Continuous
 62
     7
370
     9
100
AcDbLine
 10
1569.161771776813
 20
-371.9119425506522
 30
0.0
 11
1582.346316236793
 21
-371.9119425506522
 31
0.0
  0
LINE
  5
A3
330
1F
100
AcDbEntity
  8
D-6_間仕切
  6
Continuous
 62
     7
370
     9
100
AcDbLine
 10
1686.389206151842
 20
-391.9122559744272
 30
0.0
 11
1621.972949685415
 21
-391.9122559744272
 31
0.0
  0
LINE
  5
A4
330
1F
100
AcDbEntity
  8
D-6_間仕切
  6
Continuous
 62
     7
370
     9
100
AcDbLine
 10
1686.389206151842
 20
-451.9120827665514
 30
0.0
 11
1615.666945805559
 21
-451.9120827665514
 31
0.0
  0
LINE
  5
A5
330
1F
100
AcDbEntity
  8
D-6_間仕切
  6
JWW_DASHED1
 62
     7
370
     9
100
AcDbLine
 10
1988.890327879039
 20
-391.9122559744272
 30
0.0
 11
1686.389206151842
 21
-391.9122559744272
 31
0.0
  0
LINE
  5
A6
330
1F
100
AcDbEntity
  8
D-6_間仕切
  6
JWW_DASHED1
 62
     7
370
     9
100
AcDbLine
 10
1988.890327879039
 20
-451.9120827665514
 30
0.0
 11
1686.389114935835
 21
-451.9120827665514
 31
0.0
  0
LINE
  5
A7
330
1F
100
AcDbEntity
  8
D-0_通り芯
  6
Continuous
 62
     4
370
     9
100
AcDbLine
 10
1667.639701031487
 20
-679.4122147344572
 30
0.0
 11
1667.639701031487
 21
-898.8882489204667
 31
0.0
  0
LINE
  5
A8
330
1F
100
AcDbEntity
  8
D-0_通り芯
  6
Continuous
 62
     4
370
     9
100
AcDbLine
 10
2007.639832999393
 20
-679.4122147344572
 30
0.0
 11
2007.639832999393
 21
-898.8882489204667
 31
0.0
  0
LINE
  5
A9
330
1F
100
AcDbEntity
  8
D-5_建具
  6
Continuous
 62
     7
370
     9
100
AcDbLine
 10
1534.548475932332
 20
-188.5060750851081
 30
0.0
 11
1446.34500875599
 21
-188.5060750851081
 31
0.0
  0
TEXT
  5
AA
330
1F
100
AcDbEntity
  8
D-5_建具
  6
Continuous
 62
     7
370
     9
100
AcDbText
 10
1446.34500875599
 20
-172.1610750851082
 30
0.0
 40
34.29
  1
蓋
  7
ＭＳ ゴシック
100
AcDbText
  0
LINE
  5
AB
330
1F
100
AcDbEntity
  8
D-5_建具
  6
Continuous
 62
     7
370
     9
100
AcDbLine
 10
1591.292935572837
 20
-286.7903622305034
 30
0.0
 11
1534.548475932332
 21
-188.5060750851081
 31
0.0
  0
LINE
  5
AC
330
1F
100
AcDbEntity
  8
D-5_建具
  6
Continuous
 62
     7
370
     9
100
AcDbLine
 10
1591.292935572837
 20
-286.7903622305034
 30
0.0
 11
1576.942306859146
 21
-252.1448797613297
 31
0.0
  0
LINE
  5
AD
330
1F
100
AcDbEntity
  8
D-5_建具
  6
Continuous
 62
     7
370
     9
100
AcDbLine
 10
1591.292935572837
 20
-286.7903622305034
 30
0.0
 11
1568.464381985011
 21
-257.0396119695818
 31
0.0
  0
LINE
  5
AE
330
1F
100
AcDbEntity
  8
D-5_建具
  6
Continuous
 62
     7
370
     9
100
AcDbLine
 10
2124.161854321193
 20
-396.9121487505044
 30
0.0
 11
2219.823286075811
 21
-231.2216886267211
 31
0.0
  0
LINE
  5
AF
330
1F
100
AcDbEntity
  8
D-5_建具
  6
Continuous
 62
     7
370
     9
100
AcDbLine
 10
2124.161854321193
 20
-396.9121487505044
 30
0.0
 11
2138.512483034884
 21
-362.266666281331
 31
0.0
  0
LINE
  5
B0
330
1F
100
AcDbEntity
  8
D-5_建具
  6
Continuous
 62
     7
370
     9
100
AcDbLine
 10
2124.161854321193
 20
-396.9121487505044
 30
0.0
 11
2146.990407909019
 21
-367.161398489583
 31
0.0
  0
ARC
  5
B1
330
1F
100
AcDbEntity
  8
D-0_通り芯
  6
Continuous
 62
     4
370
     9
100
AcDbCircle
 10
1752.639734023463
 20
-813.1738830827935
 30
0.0
 40
120.7143658376731
100
AcDbArc
 50
225.2397455553741
 51
314.7602544446259
  0
ARC
  5
B2
330
1F
100
AcDbEntity
  8
D-0_通り芯
  6
Continuous
 62
     4
370
     9
100
AcDbCircle
 10
1752.639734023463
 20
-984.6026147581399
 30
0.0
 40
120.7143658376731
100
AcDbArc
 50
45.23974555537411
 51
134.7602544446259
  0
ARC
  5
B3
330
1F
100
AcDbEntity
  8
D-0_通り芯
  6
Continuous
 62
     4
370
     9
100
AcDbCircle
 10
1922.639800007417
 20
-813.1738830827935
 30
0.0
 40
120.7143658376731
100
AcDbArc
 50
225.2397455553741
 51
314.7602544446259
  0
LINE
  5
B4
330
1F
100
AcDbEntity
  8
D-4_文字
  6
Continuous
 62
     7
370
     9
100
AcDbLine
 10
2034.161375873098
 20
-391.9122559744272
 30
0.0
 11
2034.161375873098
 21
-451.9120827665514
 31
0.0
  0
LINE
  5
B5
330
1F
100
AcDbEntity
  8
D-0_通り芯
  6
Continuous
 62
     4
370
     9
100
AcDbLine
 10
2032.639272135795
 20
-671.9121899904752
 30
0.0
 11
2032.639272135795
 21
-679.4122147344572
 31
0.0
  0
LINE
  5
B6
330
1F
100
AcDbEntity
  8
D-0_通り芯
  6
Continuous
 62
     4
370
     9
100
AcDbLine
 10
1642.639519575617
 20
-671.9121899904752
 30
0.0
 11
1642.639519575617
 21
-679.4122147344572
 31
0.0
  0
LINE
  5
B7
330
1F
100
AcDbEntity
  8
D-0_通り芯
  6
Continuous
 62
     4
370
     9
100
AcDbLine
 10
1642.639519575617
 20
-679.4122147344572
 30
0.0
 11
2032.639272135795
 21
-679.4122147344572
 31
0.0
  0
ARC
  5
B8
330
1F
100
AcDbEntity
  8
D-0_通り芯
  6
JWW_PHANTOM1
 62
     4
370
     9
100
AcDbCircle
 10
1587.139608653954
 20
-699.4121569984986
 30
0.0
 40
446.3476205244918
100
AcDbArc
 50
3.532293018336564
 51
87.53222413509872
  0
LINE
  5
B9
330
1F
100
AcDbEntity
  8
D-2_仕上
  6
JWW_PHANTOM1
 62
     6
370
     5
100
AcDbLine
 10
1923.688092541491
 20
-671.9124754424859
 30
0.0
 11
1676.080709704555
 21
-671.9120585481178
 31
0.0
  0
LINE
  5
BA
330
1F
100
AcDbEntity
  8
D-2_仕上
  6
JWW_PHANTOM1
 62
     6
370
     5
100
AcDbLine
 10
1913.433986249125
 20
-671.9146449721392
 30
0.0
 11
2032.639305197014
 21
-671.9127255876986
 31
0.0
  0
LWPOLYLINE
  5
BB
330
1F
100
AcDbEntity
  8
D-4_文字
  6
Continuous
 62
     7
370
     9
100
AcDbPolyline
 90
        4
 70
     1
 43
3.0
 10
2154.05297225499
 20
-660.4120016703077
 42
0.4142135623731
 10
2152.55297225499
 20
-658.9120016703077
 42
0.4142135623731
 10
2151.05297225499
 20
-660.4120016703077
 42
0.4142135623731
 10
2152.55297225499
 20
-661.9120016703077
 42
0.4142135623731
  0
LWPOLYLINE
  5
BC
330
1F
100
AcDbEntity
  8
D-4_文字
  6
Continuous
 62
     7
370
     9
100
AcDbPolyline
 90
        4
 70
     1
 43
3.0
 10
2154.05297225499
 20
-671.9127255876986
 42
0.4142135623731
 10
2152.55297225499
 20
-670.4127255876986
 42
0.4142135623731
 10
2151.05297225499
 20
-671.9127255876986
 42
0.4142135623731
 10
2152.55297225499
 20
-673.4127255876986
 42
0.4142135623731
  0
LINE
  5
BD
330
1F
100
AcDbEntity
  8
D-4_文字
  6
Continuous
 62
     7
370
     9
100
AcDbLine
 10
2157.052972254989
 20
-660.4120016703077
 30
0.0
 11
2062.639345020819
 21
-660.4120016703077
 31
0.0
  0
TEXT
  5
BE
330
1F
100
AcDbEntity
  8
D-4_文字
  6
Continuous
 62
     2
370
   211
100
AcDbText
 10
2213.092972254989
 20
-774.675756477556
 30
0.0
 40
45.72
  1
2.3
 50
90.0
 41
1.083333333333333
  7
ＭＳ ゴシック
100
AcDbText
  0
LINE
  5
BF
330
1F
100
AcDbEntity
  8
D-4_文字
  6
Continuous
 62
     7
370
     9
100
AcDbLine
 10
2152.55297225499
 20
-660.4120016703077
 30
0.0
 11
2152.55297225499
 21
-777.1030614420947
 31
0.0
  0
LINE
  5
C0
330
1F
100
AcDbEntity
  8
D-2_仕上
  6
Continuous
 62
     4
370
     9
100
AcDbLine
 10
1602.125856005008
 20
-580.7500457469737
 30
0.0
 11
1615.666945805559
 21
-451.9120827665514
 31
0.0
  0
LINE
  5
C1
330
1F
100
AcDbEntity
  8
D-2_仕上
  6
Continuous
 62
     4
370
     9
100
AcDbLine
 10
1594.556232162533
 20
-592.2587884443888
 30
0.0
 11
1570.871044287109
 21
-605.3885611901628
 31
0.0
  0
ARC
  5
C2
330
1F
100
AcDbEntity
  8
D-2_仕上
  6
Continuous
 62
     4
370
     9
100
AcDbCircle
 10
1587.207902045001
 20
-579.182013219466
 30
0.0
 40
15.00000019331236
100
AcDbArc
 50
299.0017242431641
 51
353.9996490478516
  0
ARC
  5
C3
330
1F
100
AcDbEntity
  8
D-2_仕上
  6
Continuous
 62
     4
370
     9
100
AcDbCircle
 10
1572.567877498971
 20
-608.4494428805722
 30
0.0
 40
3.500000045106218
100
AcDbArc
 50
119.0022735595703
 51
174.00244140625
  0
LINE
  5
C4
330
1F
100
AcDbEntity
  8
D-2_仕上
  6
Continuous
 62
     4
370
     9
100
AcDbLine
 10
1569.088153905254
 20
-608.0838591503149
 30
0.0
 11
1563.588286032346
 21
-660.412280788371
 31
0.0
  0
LINE
  5
C5
330
1F
100
AcDbEntity
  8
D-2_仕上
  6
Continuous
 62
     4
370
     9
100
AcDbLine
 10
1552.024263975336
 20
-660.4122629852812
 30
0.0
 11
1581.49022758343
 21
-380.0582941830174
 31
0.0
  0
LINE
  5
C6
330
1F
100
AcDbEntity
  8
D-2_仕上
  6
Continuous
 62
     4
370
     9
100
AcDbLine
 10
1594.969469066667
 20
-361.8328214659467
 30
0.0
 11
1569.087035234419
 21
-608.0837415747869
 31
0.0
  0
ARC
  5
C7
330
1F
100
AcDbEntity
  8
D-2_仕上
  6
Continuous
 62
     4
370
     9
100
AcDbCircle
 10
1606.343413288667
 20
-287.1023145021937
 30
0.0
 40
3.500000045106218
100
AcDbArc
 50
173.9979858398438
 51
228.9988861083984
  0
LINE
  5
C8
330
1F
100
AcDbEntity
  8
D-2_仕上
  6
Continuous
 62
     4
370
     9
100
AcDbLine
 10
1593.899780738486
 20
-372.0309814687384
 30
0.0
 11
1606.358220671587
 21
-253.4784811003987
 31
0.0
  0
LINE
  5
C9
330
1F
100
AcDbEntity
  8
D-2_仕上
  6
Continuous
 62
     4
370
     9
100
AcDbLine
 10
1624.418486574952
 20
-307.452244940667
 30
0.0
 11
1604.046725592175
 21
-289.7442477788185
 31
0.0
  0
ARC
  5
CA
330
1F
100
AcDbEntity
  8
D-2_仕上
  6
Continuous
 62
     4
370
     9
100
AcDbCircle
 10
1614.577220826673
 20
-318.7730034406441
 30
0.0
 40
15.00000019331236
100
AcDbArc
 50
353.9995574951172
 51
48.99919128417969
  0
LINE
  5
CB
330
1F
100
AcDbEntity
  8
D-2_仕上
  6
Continuous
 62
     4
370
     9
100
AcDbLine
 10
1612.836458076784
 20
-478.8427242506814
 30
0.0
 11
1629.495164322338
 21
-320.3410589687293
 31
0.0
  0
LINE
  5
CC
330
1F
100
AcDbEntity
  8
D-2_仕上
  6
Continuous
 62
     4
370
     9
100
AcDbLine
 10
1580.805473867173
 20
-386.5721099948878
 30
0.0
 11
1594.920503085877
 21
-252.276288497202
 31
0.0
  0
LINE
  5
CD
330
1F
100
AcDbEntity
  8
D-2_仕上
  6
Continuous
 62
     4
370
     9
100
AcDbLine
 10
1594.920503085877
 20
-252.276288497202
 30
0.0
 11
1606.358220671587
 21
-253.4784811003987
 31
0.0
  0
LINE
  5
CE
330
1F
100
AcDbEntity
  8
D-0_通り芯
  6
JWW_PHANTOM1
 62
     4
370
     9
100
AcDbLine
 10
1897.603787771693
 20
-660.4120319029628
 30
0.0
 11
2032.639345020819
 21
-660.4120016703077
 31
0.0
  0
LINE
  5
CF
330
1F
100
AcDbEntity
  8
D-0_通り芯
  6
JWW_PHANTOM1
 62
     4
370
     9
100
AcDbLine
 10
2032.639345020819
 20
-660.4120016703077
 30
0.0
 11
2032.639305197014
 21
-671.9127255876986
 31
0.0
  0
LINE
  5
D0
330
1F
100
AcDbEntity
  8
D-0_通り芯
  6
JWW_PHANTOM1
 62
     4
370
     9
100
AcDbLine
 10
1622.25530415077
 20
-660.4125788634062
 30
0.0
 11
1904.15349647267
 21
-660.412155309892
 31
0.0
  0
LINE
  5
D1
330
1F
100
AcDbEntity
  8
D-0_通り芯
  6
JWW_PHANTOM1
 62
     4
370
     9
100
AcDbLine
 10
1676.080709706061
 20
-671.9131833807455
 30
0.0
 11
1623.464055900021
 21
-671.9132538585541
 31
0.0
  0
LINE
  5
D2
330
1F
100
AcDbEntity
  8
D-1_躯体
  6
Continuous
 62
     3
370
     9
100
AcDbLine
 10
1686.389114935835
 20
-451.9120827665378
 30
0.0
 11
1686.389082431931
 21
-671.9109093516768
 31
0.0
  0
LINE
  5
D3
330
1F
100
AcDbEntity
  8
D-0_通り芯
  6
JWW_PHANTOM1
 62
     4
370
     9
100
AcDbLine
 10
2032.639272135795
 20
-671.9121899904752
 30
0.0
 11
1676.080709706061
 21
-671.9121899904752
 31
0.0
  0
LINE
  5
D4
330
1F
100
AcDbEntity
  8
D-0_通り芯
  6
JWW_CENTER2
 62
     7
370
     9
100
AcDbLine
 10
1540.088829816297
 20
-421.9123549503568
 30
0.0
 11
2133.112264017101
 21
-421.9123549503568
 31
0.0
  0
LINE
  5
D5
330
1F
100
AcDbEntity
  8
D-6_間仕切
  6
Continuous
 62
     7
370
     9
100
AcDbLine
 10
2119.161854256753
 20
-451.9120827665514
 30
0.0
 11
2095.41208520059
 21
-451.9120827665514
 31
0.0
  0
LINE
  5
D6
330
1F
100
AcDbEntity
  8
D-6_間仕切
  6
Continuous
 62
     7
370
     9
100
AcDbLine
 10
2072.911639808907
 20
-451.9120827665514
 30
0.0
 11
1988.890327879039
 21
-451.9120827665514
 31
0.0
  0
LINE
  5
D7
330
1F
100
AcDbEntity
  8
D-5_建具
  6
Continuous
 62
     7
370
     9
100
AcDbLine
 10
2109.161433673494
 20
-556.6455430044268
 30
0.0
 11
2131.98998726132
 21
-526.8947927435057
 31
0.0
  0
LINE
  5
D8
330
1F
100
AcDbEntity
  8
D-5_建具
  6
Continuous
 62
     7
370
     9
100
AcDbLine
 10
2109.161433673494
 20
-556.6455430044268
 30
0.0
 11
2123.512062387185
 21
-522.0000605352536
 31
0.0
  0
LINE
  5
D9
330
1F
100
AcDbEntity
  8
D-5_建具
  6
Continuous
 62
     7
370
     9
100
AcDbLine
 10
2109.161433673494
 20
-556.6455430044268
 30
0.0
 11
2169.415194567616
 21
-452.4083667898626
 31
0.0
  0
LINE
  5
DA
330
1F
100
AcDbEntity
  8
D-1_躯体
  6
Continuous
 62
     3
370
     9
100
AcDbLine
 10
1988.890327879039
 20
-96.93416076516307
 30
0.0
 11
1988.890327879039
 21
-671.9121899904752
 31
0.0
  0
ARC
  5
DB
330
1F
100
AcDbEntity
  8
D-1_躯体
  6
Continuous
 62
     3
370
     9
100
AcDbCircle
 10
1913.265047447238
 20
-32.73154590247294
 30
0.0
 40
99.20261486268966
100
AcDbArc
 50
220.3298268570517
 51
319.6701731429483
  0
ARC
  5
DC
330
1F
100
AcDbEntity
  8
D-1_躯体
  6
Continuous
 62
     3
370
     9
100
AcDbCircle
 10
1913.265047447238
 20
-161.1367756278523
 30
0.0
 40
99.20261486268966
100
AcDbArc
 50
40.32982685705169
 51
139.6701731429483
  0
ARC
  5
DD
330
1F
100
AcDbEntity
  8
D-1_躯体
  6
Continuous
 62
     3
370
     9
100
AcDbCircle
 10
1762.014486583642
 20
-161.1367756278523
 30
0.0
 40
99.20261486268966
100
AcDbArc
 50
40.32982685705169
 51
139.6701731429483
  0
LINE
  5
DE
330
1F
100
AcDbEntity
  8
D-1_躯体
  6
Continuous
 62
     3
370
     9
100
AcDbLine
 10
1686.389206151842
 20
-96.93416076516307
 30
0.0
 11
1686.389206151842
 21
-671.9119424027751
 31
0.0
  0
LINE
  5
DF
330
1F
100
AcDbEntity
  8
D-0_通り芯
  6
JWW_CENTER2
 62
     7
370
     9
100
AcDbLine
 10
1837.63976701544
 20
-9.766064753503763
 30
0.0
 11
1837.63976701544
 21
-962.7457378986509
 31
0.0
  0
LINE
  5
E0
330
1F
100
AcDbEntity
  8
D-E_見え係り
  6
Continuous
 62
     6
370
     5
100
AcDbLine
 10
1505.140030951251
 20
-671.9122070614679
 30
0.0
 11
1209.855560451505
 21
-671.9122070614679
 31
0.0
  0
LINE
  5
E1
330
1F
100
AcDbEntity
  8
D-E_見え係り
  6
Continuous
 62
     6
370
     5
100
AcDbLine
 10
2033.151677422985
 20
-671.9121899904752
 30
0.0
 11
2481.148432369996
 21
-671.9121899904752
 31
0.0
  0
TEXT
  5
E2
330
1F
100
AcDbEntity
  8
D-5_建具
  6
Continuous
 62
     7
370
     9
100
AcDbText
 10
2219.8232890104
 20
-214.8766886267219
 30
0.0
 40
34.29
  1
ロックピン：SCS13A
 50
359.9999735004548
 41
1.157407407407409
  7
ＭＳ ゴシック
100
AcDbText
  0
LINE
  5
E3
330
1F
100
AcDbEntity
  8
D-5_建具
  6
Continuous
 62
     7
370
     9
100
AcDbLine
 10
2219.823286075811
 20
-231.2216886267211
 30
0.0
 11
2691.384576883711
 21
-231.2216886267211
 31
0.0
  0
TEXT
  5
E4
330
1F
100
AcDbEntity
  8
D-5_建具
  6
Continuous
 62
     7
370
     9
100
AcDbText
 10
2169.415194567616
 20
-439.8647057085263
 30
0.0
 40
34.29
  1
南京錠：CAC202
 41
1.154761904761905
  7
ＭＳ ゴシック
100
AcDbText
  0
LINE
  5
E5
330
1F
100
AcDbEntity
  8
D-5_建具
  6
Continuous
 62
     7
370
     9
100
AcDbLine
 10
2169.415194567616
 20
-452.4083667898626
 30
0.0
 11
2534.81249941093
 21
-452.4083667898626
 31
0.0
  0
LINE
  5
E6
330
1F
100
AcDbEntity
  8
A-2_仕上
  6
Continuous
 62
     3
370
     9
100
AcDbLine
 10
1807.389506378827
 20
1268.484244440926
 30
0.0
 11
1807.389506378827
 21
718.4594952464579
 31
0.0
  0
LINE
  5
E7
330
1F
100
AcDbEntity
  8
A-2_仕上
  6
Continuous
 62
     3
370
     9
100
AcDbLine
 10
1867.889532772408
 20
1268.484244440926
 30
0.0
 11
1867.889532772408
 21
718.526133128977
 31
0.0
  0
LINE
  5
E8
330
1F
100
AcDbEntity
  8
A-E_見え係り
  6
Continuous
 62
     6
370
     5
100
AcDbLine
 10
1687.63976701544
 20
396.3465465918251
 30
0.0
 11
1687.63976701544
 21
647.8465465918254
 31
0.0
  0
LINE
  5
E9
330
1F
100
AcDbEntity
  8
A-E_見え係り
  6
Continuous
 62
     6
370
     5
100
AcDbLine
 10
1987.639767015441
 20
396.3465465918251
 30
0.0
 11
1987.639767015441
 21
647.8465465918254
 31
0.0
  0
LINE
  5
EA
330
1F
100
AcDbEntity
  8
A-E_見え係り
  6
Continuous
 62
     6
370
     5
100
AcDbLine
 10
2037.639767015441
 20
296.346546591825
 30
0.0
 11
2037.639767015441
 21
396.3465465918251
 31
0.0
  0
LINE
  5
EB
330
1F
100
AcDbEntity
  8
A-E_見え係り
  6
Continuous
 62
     6
370
     5
100
AcDbLine
 10
1637.63976701544
 20
396.3465465918251
 30
0.0
 11
2037.639767015441
 21
396.3465465918251
 31
0.0
  0
LINE
  5
EC
330
1F
100
AcDbEntity
  8
A-E_見え係り
  6
Continuous
 62
     6
370
     5
100
AcDbLine
 10
1637.63976701544
 20
296.346546591825
 30
0.0
 11
1637.63976701544
 21
396.3465465918251
 31
0.0
  0
LINE
  5
ED
330
1F
100
AcDbEntity
  8
A-E_見え係り
  6
Continuous
 62
     6
370
     5
100
AcDbLine
 10
1637.63976701544
 20
296.346546591825
 30
0.0
 11
2037.639767015441
 21
296.346546591825
 31
0.0
  0
LINE
  5
EE
330
1F
100
AcDbEntity
  8
A-E_見え係り
  6
Continuous
 62
     6
370
     5
100
AcDbLine
 10
1837.63976701544
 20
396.3465465918251
 30
0.0
 11
1810.844847772328
 21
296.346546591825
 31
0.0
  0
LINE
  5
EF
330
1F
100
AcDbEntity
  8
A-E_見え係り
  6
Continuous
 62
     6
370
     5
100
AcDbLine
 10
1823.894216585868
 20
296.346546591825
 30
0.0
 11
1817.369532179098
 21
320.697000301243
 31
0.0
  0
LINE
  5
F0
330
1F
100
AcDbEntity
  8
A-E_見え係り
  6
Continuous
 62
     6
370
     5
100
AcDbLine
 10
1824.5903982019
 20
396.3465465918251
 30
0.0
 11
1831.11508260867
 21
371.9960928824071
 31
0.0
  0
LINE
  5
F1
330
1F
100
AcDbEntity
  8
A-E_見え係り
  6
Continuous
 62
     6
370
     5
100
AcDbLine
 10
1787.63976701544
 20
396.3465465918251
 30
0.0
 11
1760.844847772328
 21
296.346546591825
 31
0.0
  0
LINE
  5
F2
330
1F
100
AcDbEntity
  8
A-E_見え係り
  6
Continuous
 62
     6
370
     5
100
AcDbLine
 10
1773.894216585868
 20
296.346546591825
 30
0.0
 11
1767.369532179098
 21
320.697000301243
 31
0.0
  0
LINE
  5
F3
330
1F
100
AcDbEntity
  8
A-E_見え係り
  6
Continuous
 62
     6
370
     5
100
AcDbLine
 10
1774.5903982019
 20
396.3465465918251
 30
0.0
 11
1781.11508260867
 21
371.9960928824071
 31
0.0
  0
LINE
  5
F4
330
1F
100
AcDbEntity
  8
A-E_見え係り
  6
Continuous
 62
     6
370
     5
100
AcDbLine
 10
1737.63976701544
 20
396.3465465918251
 30
0.0
 11
1710.844847772328
 21
296.346546591825
 31
0.0
  0
LINE
  5
F5
330
1F
100
AcDbEntity
  8
A-E_見え係り
  6
Continuous
 62
     6
370
     5
100
AcDbLine
 10
1723.894216585868
 20
296.346546591825
 30
0.0
 11
1717.369532179098
 21
320.697000301243
 31
0.0
  0
LINE
  5
F6
330
1F
100
AcDbEntity
  8
A-E_見え係り
  6
Continuous
 62
     6
370
     5
100
AcDbLine
 10
1724.5903982019
 20
396.3465465918251
 30
0.0
 11
1731.11508260867
 21
371.9960928824071
 31
0.0
  0
LINE
  5
F7
330
1F
100
AcDbEntity
  8
A-E_見え係り
  6
Continuous
 62
     6
370
     5
100
AcDbLine
 10
1687.63976701544
 20
396.3465465918251
 30
0.0
 11
1660.844847772328
 21
296.346546591825
 31
0.0
  0
LINE
  5
F8
330
1F
100
AcDbEntity
  8
A-E_見え係り
  6
Continuous
 62
     6
370
     5
100
AcDbLine
 10
1673.894216585868
 20
296.346546591825
 30
0.0
 11
1667.369532179098
 21
320.697000301243
 31
0.0
  0
LINE
  5
F9
330
1F
100
AcDbEntity
  8
A-E_見え係り
  6
Continuous
 62
     6
370
     5
100
AcDbLine
 10
1674.5903982019
 20
396.3465465918251
 30
0.0
 11
1681.11508260867
 21
371.9960928824071
 31
0.0
  0
LINE
  5
FA
330
1F
100
AcDbEntity
  8
A-E_見え係り
  6
Continuous
 62
     6
370
     5
100
AcDbLine
 10
1887.63976701544
 20
396.3465465918251
 30
0.0
 11
1860.844847772328
 21
296.346546591825
 31
0.0
  0
LINE
  5
FB
330
1F
100
AcDbEntity
  8
A-E_見え係り
  6
Continuous
 62
     6
370
     5
100
AcDbLine
 10
1873.894216585868
 20
296.346546591825
 30
0.0
 11
1867.369532179098
 21
320.697000301243
 31
0.0
  0
LINE
  5
FC
330
1F
100
AcDbEntity
  8
A-E_見え係り
  6
Continuous
 62
     6
370
     5
100
AcDbLine
 10
1874.5903982019
 20
396.3465465918251
 30
0.0
 11
1881.11508260867
 21
371.9960928824071
 31
0.0
  0
LINE
  5
FD
330
1F
100
AcDbEntity
  8
A-E_見え係り
  6
Continuous
 62
     6
370
     5
100
AcDbLine
 10
1937.63976701544
 20
396.3465465918251
 30
0.0
 11
1910.844847772328
 21
296.346546591825
 31
0.0
  0
LINE
  5
FE
330
1F
100
AcDbEntity
  8
A-E_見え係り
  6
Continuous
 62
     6
370
     5
100
AcDbLine
 10
1923.894216585868
 20
296.346546591825
 30
0.0
 11
1917.369532179098
 21
320.697000301243
 31
0.0
  0
LINE
  5
FF
330
1F
100
AcDbEntity
  8
A-E_見え係り
  6
Continuous
 62
     6
370
     5
100
AcDbLine
 10
1924.5903982019
 20
396.3465465918251
 30
0.0
 11
1931.11508260867
 21
371.9960928824071
 31
0.0
  0
LINE
  5
100
330
1F
100
AcDbEntity
  8
A-E_見え係り
  6
Continuous
 62
     6
370
     5
100
AcDbLine
 10
1987.639767015441
 20
396.3465465918251
 30
0.0
 11
1960.844847772328
 21
296.346546591825
 31
0.0
  0
LINE
  5
101
330
1F
100
AcDbEntity
  8
A-E_見え係り
  6
Continuous
 62
     6
370
     5
100
AcDbLine
 10
1973.894216585868
 20
296.346546591825
 30
0.0
 11
1967.369532179098
 21
320.697000301243
 31
0.0
  0
LINE
  5
102
330
1F
100
AcDbEntity
  8
A-E_見え係り
  6
Continuous
 62
     6
370
     5
100
AcDbLine
 10
1974.5903982019
 20
396.3465465918251
 30
0.0
 11
1981.11508260867
 21
371.9960928824071
 31
0.0
  0
LINE
  5
103
330
1F
100
AcDbEntity
  8
A-E_見え係り
  6
Continuous
 62
     6
370
     5
100
AcDbLine
 10
2037.639767015441
 20
396.3465465918251
 30
0.0
 11
2010.844847772328
 21
296.346546591825
 31
0.0
  0
LINE
  5
104
330
1F
100
AcDbEntity
  8
A-E_見え係り
  6
Continuous
 62
     6
370
     5
100
AcDbLine
 10
2023.894216585868
 20
296.346546591825
 30
0.0
 11
2017.369532179098
 21
320.697000301243
 31
0.0
  0
LINE
  5
105
330
1F
100
AcDbEntity
  8
A-E_見え係り
  6
Continuous
 62
     6
370
     5
100
AcDbLine
 10
2024.5903982019
 20
396.3465465918251
 30
0.0
 11
2031.11508260867
 21
371.9960928824071
 31
0.0
  0
LINE
  5
106
330
1F
100
AcDbEntity
  8
A-1_躯体
  6
Continuous
 62
     7
370
     9
100
AcDbLine
 10
1797.639734023463
 20
397.8465144246479
 30
0.0
 11
1797.639734023463
 21
396.3465465918251
 31
0.0
  0
LINE
  5
107
330
1F
100
AcDbEntity
  8
A-1_躯体
  6
Continuous
 62
     7
370
     9
100
AcDbLine
 10
1825.139701031487
 20
397.8465144246479
 30
0.0
 11
1825.139701031487
 21
396.3465465918251
 31
0.0
  0
LINE
  5
108
330
1F
100
AcDbEntity
  8
A-1_躯体
  6
Continuous
 62
     7
370
     9
100
AcDbLine
 10
1850.139832999392
 20
397.8465144246479
 30
0.0
 11
1850.139832999392
 21
396.3465465918251
 31
0.0
  0
LINE
  5
109
330
1F
100
AcDbEntity
  8
A-1_躯体
  6
Continuous
 62
     7
370
     9
100
AcDbLine
 10
1877.639800007416
 20
397.8465144246479
 30
0.0
 11
1877.639800007416
 21
396.3465465918251
 31
0.0
  0
LINE
  5
10A
330
1F
100
AcDbEntity
  8
A-E_見え係り
  6
Continuous
 62
     6
370
     5
100
AcDbLine
 10
1987.639767015441
 20
598.7739470585046
 30
0.0
 11
1871.639780212231
 21
482.7739602552948
 31
0.0
  0
LINE
  5
10B
330
1F
100
AcDbEntity
  8
A-E_見え係り
  6
Continuous
 62
     6
370
     5
100
AcDbLine
 10
1987.639767015441
 20
584.6318114347736
 30
0.0
 11
1871.639780212231
 21
468.6318246315643
 31
0.0
  0
LINE
  5
10C
330
1F
100
AcDbEntity
  8
A-E_見え係り
  6
Continuous
 62
     6
370
     5
100
AcDbLine
 10
1987.639767015441
 20
570.4896758110426
 30
0.0
 11
1871.639780212231
 21
454.4896890078326
 31
0.0
  0
LINE
  5
10D
330
1F
100
AcDbEntity
  8
A-E_見え係り
  6
Continuous
 62
     6
370
     5
100
AcDbLine
 10
1803.63975381865
 20
585.3708241966422
 30
0.0
 11
1687.63976701544
 21
469.3708373934329
 31
0.0
  0
LINE
  5
10E
330
1F
100
AcDbEntity
  8
A-E_見え係り
  6
Continuous
 62
     6
370
     5
100
AcDbLine
 10
1803.63975381865
 20
599.5129598203732
 30
0.0
 11
1687.63976701544
 21
483.5129730171639
 31
0.0
  0
LINE
  5
10F
330
1F
100
AcDbEntity
  8
A-E_見え係り
  6
Continuous
 62
     6
370
     5
100
AcDbLine
 10
1803.63975381865
 20
613.6550954441044
 30
0.0
 11
1687.63976701544
 21
497.655108640895
 31
0.0
  0
LINE
  5
110
330
1F
100
AcDbEntity
  8
A-3_寸法
  6
JWW_DASHED2
 62
     3
370
     9
100
AcDbLine
 10
1807.389654842721
 20
647.8465350446334
 30
0.0
 11
1807.389654842721
 21
397.8465144246479
 31
0.0
  0
LINE
  5
111
330
1F
100
AcDbEntity
  8
A-0_通り芯
  6
Continuous
 62
     4
370
     9
100
AcDbLine
 10
1803.63975381865
 20
646.346530095837
 30
0.0
 11
1803.63975381865
 21
397.8465144246479
 31
0.0
  0
LINE
  5
112
330
1F
100
AcDbEntity
  8
A-0_通り芯
  6
JWW_DASHED2
 62
     4
370
     9
100
AcDbLine
 10
1870.139701033058
 20
646.346530095837
 30
0.0
 11
1870.139701033058
 21
397.8465144246479
 31
0.0
  0
LINE
  5
113
330
1F
100
AcDbEntity
  8
A-3_寸法
  6
JWW_DASHED2
 62
     3
370
     9
100
AcDbLine
 10
1867.88987918816
 20
647.8465350446334
 30
0.0
 11
1867.88987918816
 21
397.8465144246479
 31
0.0
  0
LINE
  5
114
330
1F
100
AcDbEntity
  8
A-1_躯体
  6
Continuous
 62
     7
370
     9
100
AcDbLine
 10
1877.639800007416
 20
397.8465144246479
 30
0.0
 11
1797.639734023463
 21
397.8465144246479
 31
0.0
  0
LINE
  5
115
330
1F
100
AcDbEntity
  8
A-0_通り芯
  6
Continuous
 62
     4
370
     9
100
AcDbLine
 10
1871.639780212231
 20
646.346530095837
 30
0.0
 11
1871.639780212231
 21
397.8465144246479
 31
0.0
  0
LINE
  5
116
330
1F
100
AcDbEntity
  8
A-0_通り芯
  6
JWW_DASHED2
 62
     4
370
     9
100
AcDbLine
 10
1805.139832997821
 20
646.346530095837
 30
0.0
 11
1805.139832997821
 21
397.8465144246479
 31
0.0
  0
LINE
  5
117
330
1F
100
AcDbEntity
  8
A-0_通り芯
  6
Continuous
 62
     4
370
     9
100
AcDbLine
 10
1875.139816503405
 20
646.346530095837
 30
0.0
 11
1871.639780212231
 21
646.346530095837
 31
0.0
  0
LINE
  5
118
330
1F
100
AcDbEntity
  8
A-0_通り芯
  6
Continuous
 62
     4
370
     9
100
AcDbLine
 10
1800.139717527476
 20
646.346530095837
 30
0.0
 11
1803.63975381865
 21
646.346530095837
 31
0.0
  0
ARC
  5
119
330
1F
100
AcDbEntity
  8
A-0_通り芯
  6
JWW_DASHED2
 62
     4
370
     9
100
AcDbCircle
 10
1803.639753817078
 20
646.346530095837
 30
0.0
 40
1.499999874346965
100
AcDbArc
 50
0.0000000000000127
 51
90.00000000000001
  0
LINE
  5
11A
330
1F
100
AcDbEntity
  8
A-0_通り芯
  6
Continuous
 62
     4
370
     9
100
AcDbLine
 10
1800.139717527476
 20
647.8465350446334
 30
0.0
 11
1800.139717527476
 21
646.346530095837
 31
0.0
  0
LINE
  5
11B
330
1F
100
AcDbEntity
  8
A-0_通り芯
  6
Continuous
 62
     4
370
     9
100
AcDbLine
 10
1800.139865991369
 20
647.8465350446334
 30
0.0
 11
1800.139865991369
 21
646.346530095837
 31
0.0
  0
ARC
  5
11C
330
1F
100
AcDbEntity
  8
A-0_通り芯
  6
JWW_DASHED2
 62
     4
370
     9
100
AcDbCircle
 10
1871.639780213802
 20
646.346530095837
 30
0.0
 40
1.499999874346965
100
AcDbArc
 50
90.0
 51
180.0
  0
LINE
  5
11D
330
1F
100
AcDbEntity
  8
A-0_通り芯
  6
Continuous
 62
     4
370
     9
100
AcDbLine
 10
1875.139816503405
 20
647.8465350446334
 30
0.0
 11
1875.139816503405
 21
646.346530095837
 31
0.0
  0
LINE
  5
11E
330
1F
100
AcDbEntity
  8
A-0_通り芯
  6
JWW_CENTER2
 62
     7
370
     9
100
AcDbLine
 10
1785.750893889384
 20
1268.483997001103
 30
0.0
 11
1892.77801989234
 21
1268.484491880749
 31
0.0
  0
ARC
  5
11F
330
1F
100
AcDbEntity
  8
A-2_仕上
  6
Continuous
 62
     3
370
     9
100
AcDbCircle
 10
1837.639519575617
 20
1268.484244440926
 30
0.0
 40
30.24996486870018
100
AcDbArc
 50
0.0
 51
180.0
  0
ARC
  5
120
330
1F
100
AcDbEntity
  8
A-2_仕上
  6
JWW_DASHED2
 62
     3
370
     9
100
AcDbCircle
 10
1837.639519575617
 20
1268.484244440926
 30
0.0
 40
30.24996486870018
100
AcDbArc
 50
180.0004730224609
 51
0.0004730224609375
  0
LINE
  5
121
330
1F
100
AcDbEntity
  8
A-0_通り芯
  6
JWW_CENTER2
 62
     7
370
     9
100
AcDbLine
 10
1837.63976701544
 20
1325.001726889195
 30
0.0
 11
1837.63976701544
 21
356.8304835933731
 31
0.0
  0
LINE
  5
122
330
1F
100
AcDbEntity
  8
A-1_躯体
  6
Continuous
 62
     3
370
     9
100
AcDbLine
 10
1807.38975381865
 20
752.8247870461183
 30
0.0
 11
1807.38975381865
 21
647.8465350446334
 31
0.0
  0
LINE
  5
123
330
1F
100
AcDbEntity
  8
A-1_躯体
  6
Continuous
 62
     3
370
     9
100
AcDbLine
 10
1867.889780212231
 20
737.3289655087946
 30
0.0
 11
1867.889780212231
 21
647.8465350446334
 31
0.0
  0
LINE
  5
124
330
1F
100
AcDbEntity
  8
A-0_通り芯
  6
Continuous
 62
     4
370
     9
100
AcDbLine
 10
1800.139717527476
 20
647.8465350446334
 30
0.0
 11
1875.139816503405
 21
647.8465350446334
 31
0.0
  0
ELLIPSE
  5
125
330
1F
100
AcDbEntity
  8
A-2_仕上
  6
Continuous
 62
     4
370
     9
100
AcDbEllipse
 10
1837.639841247387
 20
692.9874528484236
 30
0.0
 11
39.75001979518581
 21
0.0
 31
0.0
210
0.0
220
0.0
230
1.0
 40
0.9945000000000002
 41
5.577248869866441
 42
6.987058575626626
  0
ELLIPSE
  5
126
330
1F
100
AcDbEntity
  8
A-2_仕上
  6
Continuous
 62
     4
370
     9
100
AcDbEllipse
 10
1837.639841247387
 20
692.9874528484236
 30
0.0
 11
39.75001979518581
 21
0.0
 31
0.0
210
0.0
220
0.0
230
1.0
 40
0.9945000000000002
 41
2.435661973456155
 42
3.847523333723431
  0
ELLIPSE
  5
127
330
1F
100
AcDbEntity
  8
A-2_仕上
  6
Continuous
 62
     4
370
     9
100
AcDbEllipse
 10
1837.639841247387
 20
692.9874157324501
 30
0.0
 11
30.74998778265876
 21
0.0
 31
0.0
210
0.0
220
0.0
230
1.0
 40
0.9945
 41
2.961031481398526
 42
3.32215382578106
  0
ELLIPSE
  5
128
330
1F
100
AcDbEntity
  8
A-2_仕上
  6
Continuous
 62
     4
370
     9
100
AcDbEllipse
 10
1837.639841247387
 20
692.9874157324501
 30
0.0
 11
30.74998778265876
 21
0.0
 31
0.0
210
0.0
220
0.0
230
1.0
 40
0.9945
 41
6.102597251726474
 42
6.463773362632698
  0
ARC
  5
129
330
1F
100
AcDbEntity
  8
A-5_建具
  6
Continuous
 62
     7
370
     9
100
AcDbCircle
 10
1837.63976701544
 20
698.0826353519931
 30
0.0
 40
6.000019795185811
100
AcDbArc
 50
349.8367004394531
 51
190.1632995605469
  0
LINE
  5
12A
330
1F
100
AcDbEntity
  8
A-5_建具
  6
Continuous
 62
     7
370
     9
100
AcDbLine
 10
1835.139783511428
 20
693.3128987269403
 30
0.0
 11
1835.139783511428
 21
702.852371977046
 31
0.0
  0
ARC
  5
12B
330
1F
100
AcDbEntity
  8
A-5_建具
  6
Continuous
 62
     7
370
     9
100
AcDbCircle
 10
1837.63976701544
 20
698.0826353519931
 30
0.0
 40
6.000019795185811
100
AcDbArc
 50
234.7026977539062
 51
305.2973022460938
  0
ARC
  5
12C
330
1F
100
AcDbEntity
  8
A-5_建具
  6
Continuous
 62
     7
370
     9
100
AcDbCircle
 10
1836.139836298591
 20
693.3128987269403
 30
0.0
 40
1.000000012887491
100
AcDbArc
 50
180.0
 51
252.5401763916015
  0
ARC
  5
12D
330
1F
100
AcDbEntity
  8
A-5_建具
  6
Continuous
 62
     7
370
     9
100
AcDbCircle
 10
1839.13969773229
 20
693.3128987269403
 30
0.0
 40
1.000000012887491
100
AcDbArc
 50
287.4598236083985
 51
0.0000000000000127
  0
LINE
  5
12E
330
1F
100
AcDbEntity
  8
A-5_建具
  6
Continuous
 62
     7
370
     9
100
AcDbLine
 10
1840.139750519451
 20
693.3128987269403
 30
0.0
 11
1840.139750519451
 21
702.852371977046
 31
0.0
  0
ARC
  5
12F
330
1F
100
AcDbEntity
  8
A-5_建具
  6
Continuous
 62
     7
370
     9
100
AcDbCircle
 10
1839.13969773229
 20
702.852371977046
 30
0.0
 40
1.000000012887491
100
AcDbArc
 50
0.0
 51
72.54017639160156
  0
ARC
  5
130
330
1F
100
AcDbEntity
  8
A-5_建具
  6
Continuous
 62
     7
370
     9
100
AcDbCircle
 10
1836.139836298591
 20
702.852371977046
 30
0.0
 40
1.000000012887491
100
AcDbArc
 50
107.4598236083985
 51
180.0
  0
ARC
  5
131
330
1F
100
AcDbEntity
  8
A-6_間仕切
  6
Continuous
 62
     2
370
     9
100
AcDbCircle
 10
1837.63976701544
 20
689.5826691687688
 30
0.0
 40
9.500056666296882
100
AcDbArc
 50
105.2573547363281
 51
180.0
  0
ARC
  5
132
330
1F
100
AcDbEntity
  8
A-6_間仕切
  6
Continuous
 62
     2
370
     9
100
AcDbCircle
 10
1837.63976701544
 20
689.5826691687688
 30
0.0
 40
5.00011547191723
100
AcDbArc
 50
119.9991455078125
 51
180.0
  0
LINE
  5
133
330
1F
100
AcDbEntity
  8
A-6_間仕切
  6
Continuous
 62
     2
370
     9
100
AcDbLine
 10
1832.639651543523
 20
689.5826691687688
 30
0.0
 11
1832.639651543523
 21
679.0825602952469
 31
0.0
  0
LINE
  5
134
330
1F
100
AcDbEntity
  8
A-6_間仕切
  6
Continuous
 62
     2
370
     9
100
AcDbLine
 10
1828.13971092908
 20
689.5826691687688
 30
0.0
 11
1828.13971092908
 21
679.0825602952469
 31
0.0
  0
ARC
  5
135
330
1F
100
AcDbEntity
  8
A-6_間仕切
  6
Continuous
 62
     2
370
     9
100
AcDbCircle
 10
1837.63976701544
 20
689.5826691687688
 30
0.0
 40
5.00011547191723
100
AcDbArc
 50
0.0
 51
60.00085449218751
  0
LINE
  5
136
330
1F
100
AcDbEntity
  8
A-6_間仕切
  6
Continuous
 62
     2
370
     9
100
AcDbLine
 10
1842.639882487357
 20
689.5826691687688
 30
0.0
 11
1842.639882487357
 21
679.0825602952469
 31
0.0
  0
ARC
  5
137
330
1F
100
AcDbEntity
  8
A-6_間仕切
  6
Continuous
 62
     2
370
     9
100
AcDbCircle
 10
1837.63976701544
 20
689.5826691687688
 30
0.0
 40
9.500056666296882
100
AcDbArc
 50
0.0
 51
74.74270629882814
  0
LINE
  5
138
330
1F
100
AcDbEntity
  8
A-6_間仕切
  6
Continuous
 62
     2
370
     9
100
AcDbLine
 10
1849.639806605812
 20
679.0825602952469
 30
0.0
 11
1849.639806605812
 21
655.5826559719784
 31
0.0
  0
LINE
  5
139
330
1F
100
AcDbEntity
  8
A-6_間仕切
  6
Continuous
 62
     2
370
     9
100
AcDbLine
 10
1847.1398231018
 20
689.5826691687688
 30
0.0
 11
1847.1398231018
 21
679.0825602952469
 31
0.0
  0
LINE
  5
13A
330
1F
100
AcDbEntity
  8
A-6_間仕切
  6
Continuous
 62
     2
370
     9
100
AcDbLine
 10
1825.639727425068
 20
679.0825602952469
 30
0.0
 11
1849.639806605812
 21
679.0825602952469
 31
0.0
  0
LINE
  5
13B
330
1F
100
AcDbEntity
  8
A-6_間仕切
  6
Continuous
 62
     2
370
     9
100
AcDbLine
 10
1825.639727425068
 20
679.0825602952469
 30
0.0
 11
1825.639727425068
 21
655.5826559719784
 31
0.0
  0
LINE
  5
13C
330
1F
100
AcDbEntity
  8
A-6_間仕切
  6
Continuous
 62
     2
370
     9
100
AcDbLine
 10
1825.639727425068
 20
655.5826559719784
 30
0.0
 11
1849.639806605812
 21
655.5826559719784
 31
0.0
  0
ARC
  5
13D
330
1F
100
AcDbEntity
  8
A-0_通り芯
  6
Continuous
 62
     4
370
     9
100
AcDbCircle
 10
1837.639915479334
 20
698.9230894535556
 30
0.0
 40
6.999924118454394
100
AcDbArc
 50
359.9993896484376
 51
180.0006103515626
  0
LINE
  5
13E
330
1F
100
AcDbEntity
  8
A-0_通り芯
  6
Continuous
 62
     4
370
     9
100
AcDbLine
 10
1844.639839597788
 20
698.9230152216088
 30
0.0
 11
1844.639839597788
 21
697.0106518083909
 31
0.0
  0
ARC
  5
13F
330
1F
100
AcDbEntity
  8
A-0_通り芯
  6
Continuous
 62
     4
370
     9
100
AcDbCircle
 10
1837.639915479334
 20
697.0105775764441
 30
0.0
 40
6.999924118454394
100
AcDbArc
 50
229.5813903808594
 51
310.4159698486328
  0
ARC
  5
140
330
1F
100
AcDbEntity
  8
A-0_通り芯
  6
Continuous
 62
     4
370
     9
100
AcDbCircle
 10
1837.639915479334
 20
697.0105775764441
 30
0.0
 40
6.999924118454394
100
AcDbArc
 50
352.3052215576173
 51
0.0006103515625301
  0
LINE
  5
141
330
1F
100
AcDbEntity
  8
A-0_通り芯
  6
Continuous
 62
     4
370
     9
100
AcDbLine
 10
1830.639991360879
 20
698.9230152216088
 30
0.0
 11
1830.639991360879
 21
697.0106518083909
 31
0.0
  0
ARC
  5
142
330
1F
100
AcDbEntity
  8
A-0_通り芯
  6
Continuous
 62
     4
370
     9
100
AcDbCircle
 10
1837.639915479334
 20
697.0105775764441
 30
0.0
 40
6.999924118454394
100
AcDbArc
 50
179.9993896484375
 51
187.6925048828125
  0
TEXT
  5
143
330
1F
100
AcDbEntity
  8
F-5ﾚｲﾔ
  6
Continuous
 62
     2
370
     9
100
AcDbText
 10
1779.423763934562
 20
-1606.39584742203
 30
0.0
 40
45.72
  1
本体色は、黄または白です。
 41
1.115384615384615
  7
ＭＳ ゴシック
100
AcDbText
  0
TEXT
  5
144
330
1F
100
AcDbEntity
  8
F-5ﾚｲﾔ
  6
Continuous
 62
     2
370
     9
100
AcDbText
 10
1779.423763934562
 20
-1695.602314589921
 30
0.0
 40
45.72
  1
ご注文の際にご指示ください。
 41
1.116071428571429
  7
ＭＳ ゴシック
100
AcDbText
  0
LINE
  5
145
330
1F
100
AcDbEntity
  8
D-5_建具
  6
Continuous
 62
     7
370
     9
100
AcDbLine
 10
1375.639769609901
 20
-1038.275673160943
 30
0.0
 11
2299.6397696099
 21
-1038.275673160943
 31
0.0
  0
LINE
  5
146
330
1F
100
AcDbEntity
  8
D-5_建具
  6
Continuous
 62
     7
370
     9
100
AcDbLine
 10
1375.639769609901
 20
-1143.275673160943
 30
0.0
 11
2299.6397696099
 21
-1143.275673160943
 31
0.0
  0
LINE
  5
147
330
1F
100
AcDbEntity
  8
D-5_建具
  6
Continuous
 62
     7
370
     9
100
AcDbLine
 10
1375.639769609901
 20
-1038.275673160943
 30
0.0
 11
1375.639769609901
 21
-1143.275673160943
 31
0.0
  0
LINE
  5
148
330
1F
100
AcDbEntity
  8
D-5_建具
  6
Continuous
 62
     7
370
     9
100
AcDbLine
 10
2299.6397696099
 20
-1038.275673160943
 30
0.0
 11
2299.6397696099
 21
-1143.275673160943
 31
0.0
  0
TEXT
  5
149
330
1F
100
AcDbEntity
  8
D-5_建具
  6
Continuous
 62
     2
370
     9
100
AcDbText
 10
1402.639769609901
 20
-1112.315673160943
 30
0.0
 40
45.72
  1
南京錠部詳細図　Ｓ＝１：３
 41
1.115384615384615
  7
ＭＳ ゴシック
100
AcDbText
  0
TEXT
  5
14A
330
1F
100
AcDbEntity
  8
F-5ﾚｲﾔ
  6
Continuous
 62
     2
370
     0
100
AcDbText
 10
2037.732059275498
 20
-1518.155849222796
 30
0.0
 40
45.72000000000005
  1
支柱質量：18.5kg／本
 41
1.112499999999999
  7
ＭＳ ゴシック
100
AcDbText
  0
TEXT
  5
14B
330
1F
100
AcDbEntity
  8
F-Fﾚｲﾔ
  6
Continuous
 62
     2
370
     9
100
AcDbText
 10
-1277.034818720889
 20
-2083.180650008755
 30
0.0
 40
40.005
  1
車止め　スチール製　アーチ型　脱着式　スチール製蓋　鍵付　ＹＢ６Ｌ３０－ＤＬ
 41
0.8571428571428571
  7
ＭＳ ゴシック
100
AcDbText
  0
TEXT
  5
14C
330
1F
100
AcDbEntity
  8
A-5_建具
  6
Continuous
 62
     2
370
     9
100
AcDbText
 10
1938.588586451636
 20
664.3835421267441
 30
0.0
 40
45.71999999999984
  1
▽G.L.
 41
1.104166666666671
  7
ＭＳ ゴシック
100
AcDbText
  0
TEXT
  5
14D
330
1F
100
AcDbEntity
  8
D-4_文字
  6
Continuous
 62
     2
370
     9
100
AcDbText
 10
2277.569123580568
 20
-657.2542030513762
 30
0.0
 40
45.72000000000009
  1
▽G.L.
 41
1.104166666666664
  7
ＭＳ ゴシック
100
AcDbText
  0
LINE
  5
14E
330
1F
100
AcDbEntity
  8
A-E_見え係り
  6
Continuous
 62
     6
370
     5
100
AcDbLine
 10
1875.139816503405
 20
647.8465465918254
 30
0.0
 11
2137.338586451636
 21
647.8465465918254
 31
0.0
  0
LINE
  5
14F
330
1F
100
AcDbEntity
  8
A-E_見え係り
  6
Continuous
 62
     6
370
     5
100
AcDbLine
 10
1550.18801150188
 20
647.8465465918254
 30
0.0
 11
1800.139717527476
 21
647.8465465918254
 31
0.0
  0
TEXT
  5
150
330
1F
100
AcDbEntity
  8
A-4_文字
  6
Continuous
 62
     2
370
   211
100
AcDbText
 10
-1835.340258807496
 20
439.5965523654212
 30
0.0
 40
45.72
  1
251.5
 50
90.0
 41
1.1
  7
ＭＳ ゴシック
100
AcDbText
  0
LINE
  5
151
330
1F
100
AcDbEntity
  8
A-4_文字
  6
Continuous
 62
     7
370
     9
100
AcDbLine
 10
-1813.380258807496
 20
396.3465581390171
 30
0.0
 11
-1950.600625594309
 21
396.3465581390171
 31
0.0
  0
LINE
  5
152
330
1F
100
AcDbEntity
  8
A-4_文字
  6
Continuous
 62
     7
370
     9
100
AcDbLine
 10
-1817.880258807496
 20
647.8465465918254
 30
0.0
 11
-1812.985526599244
 21
610.6673642903075
 31
0.0
  0
LINE
  5
153
330
1F
100
AcDbEntity
  8
A-4_文字
  6
Continuous
 62
     7
370
     9
100
AcDbLine
 10
-1817.880258807496
 20
647.8465465918254
 30
0.0
 11
-1822.774991015748
 21
610.6673642903075
 31
0.0
  0
LINE
  5
154
330
1F
100
AcDbEntity
  8
A-4_文字
  6
Continuous
 62
     7
370
     9
100
AcDbLine
 10
-1817.880258807496
 20
396.3465581390171
 30
0.0
 11
-1812.985526599244
 21
433.5257404405349
 31
0.0
  0
LINE
  5
155
330
1F
100
AcDbEntity
  8
A-4_文字
  6
Continuous
 62
     7
370
     9
100
AcDbLine
 10
-1817.880258807496
 20
396.3465581390171
 30
0.0
 11
-1822.774991015748
 21
433.5257404405349
 31
0.0
  0
LINE
  5
156
330
1F
100
AcDbEntity
  8
A-4_文字
  6
Continuous
 62
     7
370
     9
100
AcDbLine
 10
-1817.880258807496
 20
396.3465581390171
 30
0.0
 11
-1817.880258807496
 21
647.8465465918254
 31
0.0
  0
LINE
  5
157
330
1F
100
AcDbEntity
  8
A-0_通り芯
  6
Continuous
 62
     4
370
     9
100
AcDbLine
 10
-2218.100675082274
 20
647.8465465918254
 30
0.0
 11
-2180.600625594309
 21
647.8465465918254
 31
0.0
  0
LINE
  5
158
330
1F
100
AcDbEntity
  8
A-0_通り芯
  6
Continuous
 62
     4
370
     9
100
AcDbLine
 10
-2143.100576106344
 20
647.8465465918254
 30
0.0
 11
-2180.600625594309
 21
647.8465465918254
 31
0.0
  0
LINE
  5
159
330
1F
100
AcDbEntity
  8
A-0_通り芯
  6
Continuous
 62
     4
370
     9
100
AcDbLine
 10
-2143.100576106344
 20
647.8465465918254
 30
0.0
 11
-2143.100576106344
 21
646.346541643029
 31
0.0
  0
LINE
  5
15A
330
1F
100
AcDbEntity
  8
A-0_通り芯
  6
Continuous
 62
     4
370
     9
100
AcDbLine
 10
-2146.600612397519
 20
646.346541643029
 30
0.0
 11
-2146.600612397519
 21
397.8465259718399
 31
0.0
  0
LINE
  5
15B
330
1F
100
AcDbEntity
  8
A-1_躯体
  6
Continuous
 62
     7
370
     9
100
AcDbLine
 10
-2140.600592602333
 20
397.8465259718399
 30
0.0
 11
-2220.600658586286
 21
397.8465259718399
 31
0.0
  0
LINE
  5
15C
330
1F
100
AcDbEntity
  8
A-3_寸法
  6
JWW_DASHED2
 62
     3
370
     9
100
AcDbLine
 10
-2150.350513421591
 20
647.8465465918254
 30
0.0
 11
-2150.350513421591
 21
397.8465259718399
 31
0.0
  0
LINE
  5
15D
330
1F
100
AcDbEntity
  8
A-0_通り芯
  6
JWW_DASHED2
 62
     4
370
     9
100
AcDbLine
 10
-2148.100691576691
 20
646.346541643029
 30
0.0
 11
-2148.100691576691
 21
397.8465259718399
 31
0.0
  0
ARC
  5
15E
330
1F
100
AcDbEntity
  8
A-0_通り芯
  6
JWW_DASHED2
 62
     4
370
     9
100
AcDbCircle
 10
-2146.600612395948
 20
646.346541643029
 30
0.0
 40
1.499999874346965
100
AcDbArc
 50
90.0
 51
180.0
  0
LINE
  5
15F
330
1F
100
AcDbEntity
  8
A-0_通り芯
  6
Continuous
 62
     4
370
     9
100
AcDbLine
 10
-2218.100526618379
 20
647.8465465918254
 30
0.0
 11
-2218.100526618379
 21
646.346541643029
 31
0.0
  0
LINE
  5
160
330
1F
100
AcDbEntity
  8
A-0_通り芯
  6
Continuous
 62
     4
370
     9
100
AcDbLine
 10
-2214.600638791101
 20
646.346541643029
 30
0.0
 11
-2214.600638791101
 21
397.8465259718399
 31
0.0
  0
LINE
  5
161
330
1F
100
AcDbEntity
  8
A-0_通り芯
  6
Continuous
 62
     4
370
     9
100
AcDbLine
 10
-2214.6006387911
 20
646.346541643029
 30
0.0
 11
-2218.100675082274
 21
646.346541643029
 31
0.0
  0
LINE
  5
162
330
1F
100
AcDbEntity
  8
A-0_通り芯
  6
Continuous
 62
     4
370
     9
100
AcDbLine
 10
-2218.100675082274
 20
647.8465465918254
 30
0.0
 11
-2218.100675082274
 21
646.346541643029
 31
0.0
  0
LINE
  5
163
330
1F
100
AcDbEntity
  8
A-3_寸法
  6
JWW_DASHED2
 62
     3
370
     9
100
AcDbLine
 10
-2210.850737767028
 20
647.8465465918254
 30
0.0
 11
-2210.850737767028
 21
397.8465259718399
 31
0.0
  0
LINE
  5
164
330
1F
100
AcDbEntity
  8
A-0_通り芯
  6
JWW_DASHED2
 62
     4
370
     9
100
AcDbLine
 10
-2213.100559611928
 20
646.346541643029
 30
0.0
 11
-2213.100559611928
 21
397.8465259718399
 31
0.0
  0
ARC
  5
165
330
1F
100
AcDbEntity
  8
A-0_通り芯
  6
JWW_DASHED2
 62
     4
370
     9
100
AcDbCircle
 10
-2214.600638792672
 20
646.346541643029
 30
0.0
 40
1.499999874346965
100
AcDbArc
 50
0.0000000000000127
 51
90.00000000000001
  0
LINE
  5
166
330
1F
100
AcDbEntity
  8
A-0_通り芯
  6
Continuous
 62
     4
370
     9
100
AcDbLine
 10
-2143.100576106344
 20
646.346541643029
 30
0.0
 11
-2146.600612397519
 21
646.346541643029
 31
0.0
  0
LINE
  5
167
330
1F
100
AcDbEntity
  8
A-E_見え係り
  6
Continuous
 62
     6
370
     5
100
AcDbLine
 10
-2214.600638791101
 20
613.6551069912964
 30
0.0
 11
-2330.600625594309
 21
497.655120188087
 31
0.0
  0
LINE
  5
168
330
1F
100
AcDbEntity
  8
A-E_見え係り
  6
Continuous
 62
     6
370
     5
100
AcDbLine
 10
-2214.600638791101
 20
599.5129713675652
 30
0.0
 11
-2330.600625594309
 21
483.5129845643559
 31
0.0
  0
LINE
  5
169
330
1F
100
AcDbEntity
  8
A-E_見え係り
  6
Continuous
 62
     6
370
     5
100
AcDbLine
 10
-2214.6006387911
 20
585.3708357438348
 30
0.0
 11
-2330.600625594309
 21
469.3708489406248
 31
0.0
  0
LINE
  5
16A
330
1F
100
AcDbEntity
  8
A-E_見え係り
  6
Continuous
 62
     6
370
     5
100
AcDbLine
 10
-2030.600625594309
 20
598.7739586056966
 30
0.0
 11
-2146.600612397519
 21
482.7739718024868
 31
0.0
  0
LINE
  5
16B
330
1F
100
AcDbEntity
  8
A-E_見え係り
  6
Continuous
 62
     6
370
     5
100
AcDbLine
 10
-2030.600625594309
 20
584.6318229819656
 30
0.0
 11
-2146.600612397519
 21
468.6318361787562
 31
0.0
  0
LINE
  5
16C
330
1F
100
AcDbEntity
  8
A-E_見え係り
  6
Continuous
 62
     6
370
     5
100
AcDbLine
 10
-2030.600625594309
 20
570.4896873582346
 30
0.0
 11
-2146.600612397519
 21
454.4897005550246
 31
0.0
  0
LINE
  5
16D
330
1F
100
AcDbEntity
  8
A-E_見え係り
  6
Continuous
 62
     6
370
     5
100
AcDbLine
 10
-2330.600625594309
 20
396.3465581390171
 30
0.0
 11
-2330.600625594309
 21
647.8465581390174
 31
0.0
  0
LINE
  5
16E
330
1F
100
AcDbEntity
  8
A-E_見え係り
  6
Continuous
 62
     6
370
     5
100
AcDbLine
 10
-2030.600625594309
 20
396.3465581390171
 30
0.0
 11
-2030.600625594309
 21
647.8465581390174
 31
0.0
  0
LINE
  5
16F
330
1F
100
AcDbEntity
  8
A-E_見え係り
  6
Continuous
 62
     6
370
     5
100
AcDbLine
 10
-1980.600625594309
 20
296.3465581390171
 30
0.0
 11
-1980.600625594309
 21
396.3465581390171
 31
0.0
  0
LINE
  5
170
330
1F
100
AcDbEntity
  8
A-E_見え係り
  6
Continuous
 62
     6
370
     5
100
AcDbLine
 10
-2380.600625594309
 20
396.3465581390171
 30
0.0
 11
-1980.600625594309
 21
396.3465581390171
 31
0.0
  0
LINE
  5
171
330
1F
100
AcDbEntity
  8
A-E_見え係り
  6
Continuous
 62
     6
370
     5
100
AcDbLine
 10
-2380.600625594309
 20
296.3465581390171
 30
0.0
 11
-2380.600625594309
 21
396.3465581390171
 31
0.0
  0
LINE
  5
172
330
1F
100
AcDbEntity
  8
A-E_見え係り
  6
Continuous
 62
     6
370
     5
100
AcDbLine
 10
-2380.600625594309
 20
296.3465581390171
 30
0.0
 11
-1980.600625594309
 21
296.3465581390171
 31
0.0
  0
LINE
  5
173
330
1F
100
AcDbEntity
  8
A-E_見え係り
  6
Continuous
 62
     6
370
     5
100
AcDbLine
 10
-2180.600625594309
 20
396.3465581390171
 30
0.0
 11
-2207.395544837421
 21
296.3465581390171
 31
0.0
  0
LINE
  5
174
330
1F
100
AcDbEntity
  8
A-E_見え係り
  6
Continuous
 62
     6
370
     5
100
AcDbLine
 10
-2194.346176023883
 20
296.3465581390171
 30
0.0
 11
-2200.870860430653
 21
320.697011848435
 31
0.0
  0
LINE
  5
175
330
1F
100
AcDbEntity
  8
A-E_見え係り
  6
Continuous
 62
     6
370
     5
100
AcDbLine
 10
-2193.649994407849
 20
396.3465581390171
 30
0.0
 11
-2187.125310001079
 21
371.9961044295991
 31
0.0
  0
LINE
  5
176
330
1F
100
AcDbEntity
  8
A-E_見え係り
  6
Continuous
 62
     6
370
     5
100
AcDbLine
 10
-2230.600625594309
 20
396.3465581390171
 30
0.0
 11
-2257.395544837422
 21
296.3465581390171
 31
0.0
  0
LINE
  5
177
330
1F
100
AcDbEntity
  8
A-E_見え係り
  6
Continuous
 62
     6
370
     5
100
AcDbLine
 10
-2244.346176023883
 20
296.3465581390171
 30
0.0
 11
-2250.870860430651
 21
320.697011848435
 31
0.0
  0
LINE
  5
178
330
1F
100
AcDbEntity
  8
A-E_見え係り
  6
Continuous
 62
     6
370
     5
100
AcDbLine
 10
-2243.649994407849
 20
396.3465581390171
 30
0.0
 11
-2237.125310001079
 21
371.9961044295991
 31
0.0
  0
LINE
  5
179
330
1F
100
AcDbEntity
  8
A-E_見え係り
  6
Continuous
 62
     6
370
     5
100
AcDbLine
 10
-2280.600625594308
 20
396.3465581390171
 30
0.0
 11
-2307.395544837423
 21
296.3465581390171
 31
0.0
  0
LINE
  5
17A
330
1F
100
AcDbEntity
  8
A-E_見え係り
  6
Continuous
 62
     6
370
     5
100
AcDbLine
 10
-2294.346176023882
 20
296.3465581390171
 30
0.0
 11
-2300.870860430653
 21
320.697011848435
 31
0.0
  0
LINE
  5
17B
330
1F
100
AcDbEntity
  8
A-E_見え係り
  6
Continuous
 62
     6
370
     5
100
AcDbLine
 10
-2293.64999440785
 20
396.3465581390171
 30
0.0
 11
-2287.12531000108
 21
371.9961044295991
 31
0.0
  0
LINE
  5
17C
330
1F
100
AcDbEntity
  8
A-E_見え係り
  6
Continuous
 62
     6
370
     5
100
AcDbLine
 10
-2330.600625594309
 20
396.3465581390171
 30
0.0
 11
-2357.395544837421
 21
296.3465581390171
 31
0.0
  0
LINE
  5
17D
330
1F
100
AcDbEntity
  8
A-E_見え係り
  6
Continuous
 62
     6
370
     5
100
AcDbLine
 10
-2344.346176023883
 20
296.3465581390171
 30
0.0
 11
-2350.870860430652
 21
320.697011848435
 31
0.0
  0
LINE
  5
17E
330
1F
100
AcDbEntity
  8
A-E_見え係り
  6
Continuous
 62
     6
370
     5
100
AcDbLine
 10
-2343.649994407849
 20
396.3465581390171
 30
0.0
 11
-2337.125310001079
 21
371.9961044295991
 31
0.0
  0
LINE
  5
17F
330
1F
100
AcDbEntity
  8
A-E_見え係り
  6
Continuous
 62
     6
370
     5
100
AcDbLine
 10
-2130.600625594308
 20
396.3465581390171
 30
0.0
 11
-2157.395544837422
 21
296.3465581390171
 31
0.0
  0
LINE
  5
180
330
1F
100
AcDbEntity
  8
A-E_見え係り
  6
Continuous
 62
     6
370
     5
100
AcDbLine
 10
-2144.346176023882
 20
296.3465581390171
 30
0.0
 11
-2150.870860430653
 21
320.697011848435
 31
0.0
  0
LINE
  5
181
330
1F
100
AcDbEntity
  8
A-E_見え係り
  6
Continuous
 62
     6
370
     5
100
AcDbLine
 10
-2143.64999440785
 20
396.3465581390171
 30
0.0
 11
-2137.125310001079
 21
371.9961044295991
 31
0.0
  0
LINE
  5
182
330
1F
100
AcDbEntity
  8
A-E_見え係り
  6
Continuous
 62
     6
370
     5
100
AcDbLine
 10
-2080.600625594309
 20
396.3465581390171
 30
0.0
 11
-2107.395544837422
 21
296.3465581390171
 31
0.0
  0
LINE
  5
183
330
1F
100
AcDbEntity
  8
A-E_見え係り
  6
Continuous
 62
     6
370
     5
100
AcDbLine
 10
-2094.346176023883
 20
296.3465581390171
 30
0.0
 11
-2100.870860430651
 21
320.697011848435
 31
0.0
  0
LINE
  5
184
330
1F
100
AcDbEntity
  8
A-E_見え係り
  6
Continuous
 62
     6
370
     5
100
AcDbLine
 10
-2093.649994407849
 20
396.3465581390171
 30
0.0
 11
-2087.125310001079
 21
371.9961044295991
 31
0.0
  0
LINE
  5
185
330
1F
100
AcDbEntity
  8
A-E_見え係り
  6
Continuous
 62
     6
370
     5
100
AcDbLine
 10
-2030.600625594309
 20
396.3465581390171
 30
0.0
 11
-2057.395544837421
 21
296.3465581390171
 31
0.0
  0
LINE
  5
186
330
1F
100
AcDbEntity
  8
A-E_見え係り
  6
Continuous
 62
     6
370
     5
100
AcDbLine
 10
-2044.346176023883
 20
296.3465581390171
 30
0.0
 11
-2050.870860430651
 21
320.697011848435
 31
0.0
  0
LINE
  5
187
330
1F
100
AcDbEntity
  8
A-E_見え係り
  6
Continuous
 62
     6
370
     5
100
AcDbLine
 10
-2043.649994407849
 20
396.3465581390171
 30
0.0
 11
-2037.125310001079
 21
371.9961044295991
 31
0.0
  0
LINE
  5
188
330
1F
100
AcDbEntity
  8
A-E_見え係り
  6
Continuous
 62
     6
370
     5
100
AcDbLine
 10
-1980.600625594309
 20
396.3465581390171
 30
0.0
 11
-2007.395544837422
 21
296.3465581390171
 31
0.0
  0
LINE
  5
189
330
1F
100
AcDbEntity
  8
A-E_見え係り
  6
Continuous
 62
     6
370
     5
100
AcDbLine
 10
-1994.346176023882
 20
296.3465581390171
 30
0.0
 11
-2000.870860430651
 21
320.697011848435
 31
0.0
  0
LINE
  5
18A
330
1F
100
AcDbEntity
  8
A-E_見え係り
  6
Continuous
 62
     6
370
     5
100
AcDbLine
 10
-1993.649994407849
 20
396.3465581390171
 30
0.0
 11
-1987.125310001079
 21
371.9961044295991
 31
0.0
  0
LINE
  5
18B
330
1F
100
AcDbEntity
  8
A-1_躯体
  6
Continuous
 62
     7
370
     9
100
AcDbLine
 10
-2220.600658586286
 20
397.8465259718399
 30
0.0
 11
-2220.600658586286
 21
396.3465581390171
 31
0.0
  0
LINE
  5
18C
330
1F
100
AcDbEntity
  8
A-1_躯体
  6
Continuous
 62
     7
370
     9
100
AcDbLine
 10
-2193.100691578262
 20
397.8465259718399
 30
0.0
 11
-2193.100691578262
 21
396.3465581390171
 31
0.0
  0
LINE
  5
18D
330
1F
100
AcDbEntity
  8
A-1_躯体
  6
Continuous
 62
     7
370
     9
100
AcDbLine
 10
-2168.100559610357
 20
397.8465259718399
 30
0.0
 11
-2168.100559610357
 21
396.3465581390171
 31
0.0
  0
LINE
  5
18E
330
1F
100
AcDbEntity
  8
A-1_躯体
  6
Continuous
 62
     7
370
     9
100
AcDbLine
 10
-2140.600592602333
 20
397.8465259718399
 30
0.0
 11
-2140.600592602333
 21
396.3465581390171
 31
0.0
  0
ARC
  5
18F
330
1F
100
AcDbEntity
  8
A-0_通り芯
  6
JWW_CENTER2
 62
     7
370
     9
100
AcDbCircle
 10
-2005.600666834279
 20
1092.595738288405
 30
0.0
 40
175.0000051549963
100
AcDbArc
 50
89.999755859375
 51
180.0
  0
ARC
  5
190
330
1F
100
AcDbEntity
  8
A-2_仕上
  6
Continuous
 62
     3
370
     9
100
AcDbCircle
 10
-2005.600666834279
 20
1092.595738288405
 30
0.0
 40
205.2500106192924
100
AcDbArc
 50
89.99977111816406
 51
180.0
  0
ARC
  5
191
330
1F
100
AcDbEntity
  8
A-2_仕上
  6
Continuous
 62
     3
370
     9
100
AcDbCircle
 10
-2005.600481254412
 20
1092.595367128671
 30
0.0
 40
144.7500112894419
100
AcDbArc
 50
89.9998016357422
 51
180.0
  0
LINE
  5
192
330
1F
100
AcDbEntity
  8
A-0_通り芯
  6
JWW_CENTER2
 62
     7
370
     9
100
AcDbLine
 10
-210.8506181711141
 20
1267.594583569232
 30
0.0
 11
-2005.599924514811
 21
1267.595697048434
 31
0.0
  0
LINE
  5
193
330
1F
100
AcDbEntity
  8
A-0_通り芯
  6
JWW_CENTER2
 62
     7
370
     9
100
AcDbLine
 10
-210.8506181711141
 20
1267.594583569232
 30
0.0
 11
583.8986881725833
 21
1267.595697048434
 31
0.0
  0
LINE
  5
194
330
1F
100
AcDbEntity
  8
A-2_仕上
  6
Continuous
 62
     3
370
     9
100
AcDbLine
 10
-210.8506181711141
 20
1297.844473046112
 30
0.0
 11
-2005.599738934945
 21
1297.845957685047
 31
0.0
  0
LINE
  5
195
330
1F
100
AcDbEntity
  8
A-2_仕上
  6
Continuous
 62
     3
370
     9
100
AcDbLine
 10
-210.8506181711141
 20
1237.344322932619
 30
0.0
 11
-2005.600110094679
 21
1237.345436411821
 31
0.0
  0
ARC
  5
196
330
1F
100
AcDbEntity
  8
A-0_通り芯
  6
JWW_CENTER2
 62
     7
370
     9
100
AcDbCircle
 10
583.899430492051
 20
1092.595738288405
 30
0.0
 40
175.0000051549963
100
AcDbArc
 50
0.0000000000000127
 51
90.000244140625
  0
LINE
  5
197
330
1F
100
AcDbEntity
  8
A-2_仕上
  6
Continuous
 62
     3
370
     9
100
AcDbLine
 10
-210.8506181711141
 20
1297.844473046112
 30
0.0
 11
583.8985025927167
 21
1297.845957685047
 31
0.0
  0
ARC
  5
198
330
1F
100
AcDbEntity
  8
A-2_仕上
  6
Continuous
 62
     3
370
     9
100
AcDbCircle
 10
583.899430492051
 20
1092.595738288405
 30
0.0
 40
205.2500106192924
100
AcDbArc
 50
0.0
 51
90.00022888183592
  0
ARC
  5
199
330
1F
100
AcDbEntity
  8
A-2_仕上
  6
Continuous
 62
     3
370
     9
100
AcDbCircle
 10
583.8992449121843
 20
1092.595367128671
 30
0.0
 40
144.7500112894419
100
AcDbArc
 50
0.0
 51
90.0001983642578
  0
LINE
  5
19A
330
1F
100
AcDbEntity
  8
A-2_仕上
  6
Continuous
 62
     3
370
     9
100
AcDbLine
 10
-210.8506181711141
 20
1237.344322932619
 30
0.0
 11
583.8988737524504
 21
1237.345436411821
 31
0.0
  0
LINE
  5
19B
330
1F
100
AcDbEntity
  8
A-4_文字
  6
Continuous
 62
     7
370
     9
100
AcDbLine
 10
-2210.850700651055
 20
1456.254987490552
 30
0.0
 11
789.1494643088272
 21
1456.254987490552
 31
0.0
  0
LINE
  5
19C
330
1F
100
AcDbEntity
  8
A-4_文字
  6
Continuous
 62
     7
370
     9
100
AcDbLine
 10
-2210.850700651055
 20
1456.254987490552
 30
0.0
 11
-2173.671518349537
 21
1461.149719698804
 31
0.0
  0
LINE
  5
19D
330
1F
100
AcDbEntity
  8
A-4_文字
  6
Continuous
 62
     7
370
     9
100
AcDbLine
 10
-2210.850700651055
 20
1456.254987490552
 30
0.0
 11
-2173.671518349537
 21
1451.3602552823
 31
0.0
  0
LINE
  5
19E
330
1F
100
AcDbEntity
  8
A-4_文字
  6
Continuous
 62
     7
370
     9
100
AcDbLine
 10
789.1494643088272
 20
1456.254987490552
 30
0.0
 11
751.9702820073093
 21
1461.149719698804
 31
0.0
  0
LINE
  5
19F
330
1F
100
AcDbEntity
  8
A-4_文字
  6
Continuous
 62
     7
370
     9
100
AcDbLine
 10
789.1494643088272
 20
1456.254987490552
 30
0.0
 11
751.9702820073093
 21
1451.3602552823
 31
0.0
  0
TEXT
  5
1A0
330
1F
100
AcDbEntity
  8
A-4_文字
  6
Continuous
 62
     2
370
   211
100
AcDbText
 10
-776.4756181711136
 20
1473.714987490552
 30
0.0
 40
45.72
  1
3000
 41
1.09375
  7
ＭＳ ゴシック
100
AcDbText
  0
LINE
  5
1A1
330
1F
100
AcDbEntity
  8
A-4_文字
  6
Continuous
 62
     7
370
     9
100
AcDbLine
 10
-2380.600625594309
 20
-0.4144312076824619
 30
0.0
 11
-1980.600625594309
 21
-0.4144312076824619
 31
0.0
  0
LINE
  5
1A2
330
1F
100
AcDbEntity
  8
A-4_文字
  6
Continuous
 62
     7
370
     9
100
AcDbLine
 10
-2380.600625594309
 20
-0.4144312076824619
 30
0.0
 11
-2343.421443292791
 21
4.480301000569575
 31
0.0
  0
LINE
  5
1A3
330
1F
100
AcDbEntity
  8
A-4_文字
  6
Continuous
 62
     7
370
     9
100
AcDbLine
 10
-2380.600625594309
 20
-0.4144312076824619
 30
0.0
 11
-2343.421443292791
 21
-5.309163415934499
 31
0.0
  0
LINE
  5
1A4
330
1F
100
AcDbEntity
  8
A-4_文字
  6
Continuous
 62
     7
370
     9
100
AcDbLine
 10
-1980.600625594309
 20
-0.4144312076824619
 30
0.0
 11
-2017.779807895827
 21
4.480301000569575
 31
0.0
  0
LINE
  5
1A5
330
1F
100
AcDbEntity
  8
A-4_文字
  6
Continuous
 62
     7
370
     9
100
AcDbLine
 10
-1980.600625594309
 20
-0.4144312076824619
 30
0.0
 11
-2017.779807895827
 21
-5.309163415934499
 31
0.0
  0
LINE
  5
1A6
330
1F
100
AcDbEntity
  8
A-4_文字
  6
Continuous
 62
     7
370
     9
100
AcDbLine
 10
-2380.600625594309
 20
-4.914431207682632
 30
0.0
 11
-2380.600625594309
 21
267.8465465918252
 31
0.0
  0
LINE
  5
1A7
330
1F
100
AcDbEntity
  8
A-4_文字
  6
Continuous
 62
     7
370
     9
100
AcDbLine
 10
-1980.600625594309
 20
-4.914431207682632
 30
0.0
 11
-1980.600625594309
 21
267.8465465918252
 31
0.0
  0
TEXT
  5
1A8
330
1F
100
AcDbEntity
  8
A-4_文字
  6
Continuous
 62
     2
370
   211
100
AcDbText
 10
-2263.100625594309
 20
17.04556879231788
 30
0.0
 40
45.72
  1
□400
 41
1.1
  7
ＭＳ ゴシック
100
AcDbText
  0
LINE
  5
1A9
330
1F
100
AcDbEntity
  8
A-4_文字
  6
Continuous
 62
     7
370
     9
100
AcDbLine
 10
-2330.600625594309
 20
132.6387602816799
 30
0.0
 11
-2030.600625594309
 21
132.6387602816799
 31
0.0
  0
LINE
  5
1AA
330
1F
100
AcDbEntity
  8
A-4_文字
  6
Continuous
 62
     7
370
     9
100
AcDbLine
 10
-2330.600625594309
 20
132.6387602816799
 30
0.0
 11
-2293.421443292791
 21
137.5334924899319
 31
0.0
  0
LINE
  5
1AB
330
1F
100
AcDbEntity
  8
A-4_文字
  6
Continuous
 62
     7
370
     9
100
AcDbLine
 10
-2330.600625594309
 20
132.6387602816799
 30
0.0
 11
-2293.421443292791
 21
127.7440280734278
 31
0.0
  0
LINE
  5
1AC
330
1F
100
AcDbEntity
  8
A-4_文字
  6
Continuous
 62
     7
370
     9
100
AcDbLine
 10
-2030.600625594309
 20
132.6387602816799
 30
0.0
 11
-2067.779807895827
 21
137.5334924899319
 31
0.0
  0
LINE
  5
1AD
330
1F
100
AcDbEntity
  8
A-4_文字
  6
Continuous
 62
     7
370
     9
100
AcDbLine
 10
-2030.600625594309
 20
132.6387602816799
 30
0.0
 11
-2067.779807895827
 21
127.7440280734278
 31
0.0
  0
TEXT
  5
1AE
330
1F
100
AcDbEntity
  8
A-4_文字
  6
Continuous
 62
     2
370
   211
100
AcDbText
 10
-2263.100625594309
 20
150.0987602816802
 30
0.0
 40
45.72
  1
□300
 41
1.1
  7
ＭＳ ゴシック
100
AcDbText
  0
LINE
  5
1AF
330
1F
100
AcDbEntity
  8
A-4_文字
  6
Continuous
 62
     7
370
     9
100
AcDbLine
 10
-2330.600625594309
 20
128.1387602816797
 30
0.0
 11
-2330.600625594309
 21
267.8465465918252
 31
0.0
  0
LINE
  5
1B0
330
1F
100
AcDbEntity
  8
A-4_文字
  6
Continuous
 62
     7
370
     9
100
AcDbLine
 10
-2030.600625594309
 20
128.1387602816797
 30
0.0
 11
-2030.600625594309
 21
267.8465465918252
 31
0.0
  0
LINE
  5
1B1
330
1F
100
AcDbEntity
  8
A-4_文字
  6
Continuous
 62
     7
370
     9
100
AcDbLine
 10
-2210.850700651055
 20
1460.754987490552
 30
0.0
 11
-2210.850700651055
 21
1165.341719169039
 31
0.0
  0
LINE
  5
1B2
330
1F
100
AcDbEntity
  8
A-4_文字
  6
Continuous
 62
     7
370
     9
100
AcDbLine
 10
789.1494643088272
 20
1460.754987490552
 30
0.0
 11
789.1494643088272
 21
1165.341719169039
 31
0.0
  0
LINE
  5
1B3
330
1F
100
AcDbEntity
  8
A-4_文字
  6
Continuous
 62
     7
370
     9
100
AcDbLine
 10
-2129.344542766925
 20
1216.339799800917
 30
0.0
 11
-2099.600948507374
 21
1193.501923355783
 31
0.0
  0
LINE
  5
1B4
330
1F
100
AcDbEntity
  8
A-4_文字
  6
Continuous
 62
     7
370
     9
100
AcDbLine
 10
-2129.344542766925
 20
1216.339799800917
 30
0.0
 11
-2106.525314278661
 21
1186.581896460789
 31
0.0
  0
LINE
  5
1B5
330
1F
100
AcDbEntity
  8
A-4_文字
  6
Continuous
 62
     7
370
     9
100
AcDbLine
 10
-1982.629210437507
 20
1069.532476546184
 30
0.0
 11
-2129.344542766925
 21
1216.339799800917
 31
0.0
  0
TEXT
  5
1B6
330
1F
100
AcDbEntity
  8
A-4_文字
  6
Continuous
 62
     2
370
   211
100
AcDbText
 10
-2066.311654955618
 20
1172.691147695748
 30
0.0
 40
45.72000000000106
  1
R175
 50
314.9999999999961
 41
1.093749999999958
  7
ＭＳ ゴシック
100
AcDbText
  0
LINE
  5
1B7
330
1F
100
AcDbEntity
  8
A-E_見え係り
  6
Continuous
 62
     6
370
     5
100
AcDbLine
 10
1124.63852287496
 20
647.8465465918254
 30
0.0
 11
789.1494643088271
 21
647.8465465918254
 31
0.0
  0
LINE
  5
1B8
330
1F
100
AcDbEntity
  8
A-0_通り芯
  6
Continuous
 62
     4
370
     9
100
AcDbLine
 10
721.3993397641162
 20
647.8465465918254
 30
0.0
 11
758.899389252081
 21
647.8465465918254
 31
0.0
  0
LINE
  5
1B9
330
1F
100
AcDbEntity
  8
A-0_通り芯
  6
Continuous
 62
     4
370
     9
100
AcDbLine
 10
796.399438740046
 20
647.8465465918254
 30
0.0
 11
758.899389252081
 21
647.8465465918254
 31
0.0
  0
LINE
  5
1BA
330
1F
100
AcDbEntity
  8
A-0_通り芯
  6
Continuous
 62
     4
370
     9
100
AcDbLine
 10
796.399438740046
 20
647.8465465918254
 30
0.0
 11
796.399438740046
 21
646.346541643029
 31
0.0
  0
LINE
  5
1BB
330
1F
100
AcDbEntity
  8
A-0_通り芯
  6
Continuous
 62
     4
370
     9
100
AcDbLine
 10
792.8994024488709
 20
646.346541643029
 30
0.0
 11
792.8994024488709
 21
397.8465259718399
 31
0.0
  0
LINE
  5
1BC
330
1F
100
AcDbEntity
  8
A-1_躯体
  6
Continuous
 62
     7
370
     9
100
AcDbLine
 10
798.8994222440576
 20
397.8465259718399
 30
0.0
 11
718.8993562601037
 21
397.8465259718399
 31
0.0
  0
LINE
  5
1BD
330
1F
100
AcDbEntity
  8
A-3_寸法
  6
JWW_DASHED2
 62
     3
370
     9
100
AcDbLine
 10
789.1495014247997
 20
647.8465465918254
 30
0.0
 11
789.1495014247997
 21
397.8465259718399
 31
0.0
  0
LINE
  5
1BE
330
1F
100
AcDbEntity
  8
A-0_通り芯
  6
JWW_DASHED2
 62
     4
370
     9
100
AcDbLine
 10
791.3993232696994
 20
646.346541643029
 30
0.0
 11
791.3993232696994
 21
397.8465259718399
 31
0.0
  0
ARC
  5
1BF
330
1F
100
AcDbEntity
  8
A-0_通り芯
  6
JWW_DASHED2
 62
     4
370
     9
100
AcDbCircle
 10
792.8994024504423
 20
646.346541643029
 30
0.0
 40
1.499999874346965
100
AcDbArc
 50
90.0
 51
180.0
  0
LINE
  5
1C0
330
1F
100
AcDbEntity
  8
A-0_通り芯
  6
Continuous
 62
     4
370
     9
100
AcDbLine
 10
721.3994882280108
 20
647.8465465918254
 30
0.0
 11
721.3994882280108
 21
646.346541643029
 31
0.0
  0
LINE
  5
1C1
330
1F
100
AcDbEntity
  8
A-0_通り芯
  6
Continuous
 62
     4
370
     9
100
AcDbLine
 10
724.8993760552896
 20
646.346541643029
 30
0.0
 11
724.8993760552896
 21
397.8465259718399
 31
0.0
  0
LINE
  5
1C2
330
1F
100
AcDbEntity
  8
A-0_通り芯
  6
Continuous
 62
     4
370
     9
100
AcDbLine
 10
724.8993760552904
 20
646.346541643029
 30
0.0
 11
721.3993397641162
 21
646.346541643029
 31
0.0
  0
LINE
  5
1C3
330
1F
100
AcDbEntity
  8
A-0_通り芯
  6
Continuous
 62
     4
370
     9
100
AcDbLine
 10
721.3993397641162
 20
647.8465465918254
 30
0.0
 11
721.3993397641162
 21
646.346541643029
 31
0.0
  0
LINE
  5
1C4
330
1F
100
AcDbEntity
  8
A-3_寸法
  6
JWW_DASHED2
 62
     3
370
     9
100
AcDbLine
 10
728.6492770793616
 20
647.8465465918254
 30
0.0
 11
728.6492770793616
 21
397.8465259718399
 31
0.0
  0
LINE
  5
1C5
330
1F
100
AcDbEntity
  8
A-0_通り芯
  6
JWW_DASHED2
 62
     4
370
     9
100
AcDbLine
 10
726.3994552344619
 20
646.346541643029
 30
0.0
 11
726.3994552344619
 21
397.8465259718399
 31
0.0
  0
ARC
  5
1C6
330
1F
100
AcDbEntity
  8
A-0_通り芯
  6
JWW_DASHED2
 62
     4
370
     9
100
AcDbCircle
 10
724.8993760537181
 20
646.346541643029
 30
0.0
 40
1.499999874346965
100
AcDbArc
 50
0.0000000000000127
 51
90.00000000000001
  0
LINE
  5
1C7
330
1F
100
AcDbEntity
  8
A-0_通り芯
  6
Continuous
 62
     4
370
     9
100
AcDbLine
 10
796.399438740046
 20
646.346541643029
 30
0.0
 11
792.8994024488709
 21
646.346541643029
 31
0.0
  0
LINE
  5
1C8
330
1F
100
AcDbEntity
  8
A-E_見え係り
  6
Continuous
 62
     6
370
     5
100
AcDbLine
 10
724.8993760552896
 20
613.6551069912964
 30
0.0
 11
608.899389252081
 21
497.655120188087
 31
0.0
  0
LINE
  5
1C9
330
1F
100
AcDbEntity
  8
A-E_見え係り
  6
Continuous
 62
     6
370
     5
100
AcDbLine
 10
724.8993760552896
 20
599.5129713675652
 30
0.0
 11
608.899389252081
 21
483.5129845643559
 31
0.0
  0
LINE
  5
1CA
330
1F
100
AcDbEntity
  8
A-E_見え係り
  6
Continuous
 62
     6
370
     5
100
AcDbLine
 10
724.8993760552904
 20
585.3708357438348
 30
0.0
 11
608.899389252081
 21
469.3708489406248
 31
0.0
  0
LINE
  5
1CB
330
1F
100
AcDbEntity
  8
A-E_見え係り
  6
Continuous
 62
     6
370
     5
100
AcDbLine
 10
908.8993892520813
 20
598.7739586056966
 30
0.0
 11
792.8994024488709
 21
482.7739718024868
 31
0.0
  0
LINE
  5
1CC
330
1F
100
AcDbEntity
  8
A-E_見え係り
  6
Continuous
 62
     6
370
     5
100
AcDbLine
 10
908.8993892520813
 20
584.6318229819656
 30
0.0
 11
792.8994024488709
 21
468.6318361787562
 31
0.0
  0
LINE
  5
1CD
330
1F
100
AcDbEntity
  8
A-E_見え係り
  6
Continuous
 62
     6
370
     5
100
AcDbLine
 10
908.8993892520813
 20
570.4896873582346
 30
0.0
 11
792.8994024488709
 21
454.4897005550246
 31
0.0
  0
LINE
  5
1CE
330
1F
100
AcDbEntity
  8
A-E_見え係り
  6
Continuous
 62
     6
370
     5
100
AcDbLine
 10
608.899389252081
 20
396.3465581390171
 30
0.0
 11
608.899389252081
 21
647.8465581390174
 31
0.0
  0
LINE
  5
1CF
330
1F
100
AcDbEntity
  8
A-E_見え係り
  6
Continuous
 62
     6
370
     5
100
AcDbLine
 10
908.8993892520813
 20
396.3465581390171
 30
0.0
 11
908.8993892520813
 21
647.8465581390174
 31
0.0
  0
LINE
  5
1D0
330
1F
100
AcDbEntity
  8
A-E_見え係り
  6
Continuous
 62
     6
370
     5
100
AcDbLine
 10
958.8993892520815
 20
296.3465581390171
 30
0.0
 11
958.8993892520815
 21
396.3465581390171
 31
0.0
  0
LINE
  5
1D1
330
1F
100
AcDbEntity
  8
A-E_見え係り
  6
Continuous
 62
     6
370
     5
100
AcDbLine
 10
558.8993892520814
 20
396.3465581390171
 30
0.0
 11
958.8993892520815
 21
396.3465581390171
 31
0.0
  0
LINE
  5
1D2
330
1F
100
AcDbEntity
  8
A-E_見え係り
  6
Continuous
 62
     6
370
     5
100
AcDbLine
 10
558.8993892520814
 20
296.3465581390171
 30
0.0
 11
558.8993892520814
 21
396.3465581390171
 31
0.0
  0
LINE
  5
1D3
330
1F
100
AcDbEntity
  8
A-E_見え係り
  6
Continuous
 62
     6
370
     5
100
AcDbLine
 10
558.8993892520814
 20
296.3465581390171
 30
0.0
 11
958.8993892520815
 21
296.3465581390171
 31
0.0
  0
LINE
  5
1D4
330
1F
100
AcDbEntity
  8
A-E_見え係り
  6
Continuous
 62
     6
370
     5
100
AcDbLine
 10
758.899389252081
 20
396.3465581390171
 30
0.0
 11
732.104470008969
 21
296.3465581390171
 31
0.0
  0
LINE
  5
1D5
330
1F
100
AcDbEntity
  8
A-E_見え係り
  6
Continuous
 62
     6
370
     5
100
AcDbLine
 10
745.1538388225073
 20
296.3465581390171
 30
0.0
 11
738.6291544157377
 21
320.697011848435
 31
0.0
  0
LINE
  5
1D6
330
1F
100
AcDbEntity
  8
A-E_見え係り
  6
Continuous
 62
     6
370
     5
100
AcDbLine
 10
745.8500204385412
 20
396.3465581390171
 30
0.0
 11
752.3747048453107
 21
371.9961044295991
 31
0.0
  0
LINE
  5
1D7
330
1F
100
AcDbEntity
  8
A-E_見え係り
  6
Continuous
 62
     6
370
     5
100
AcDbLine
 10
708.8993892520814
 20
396.3465581390171
 30
0.0
 11
682.1044700089684
 21
296.3465581390171
 31
0.0
  0
LINE
  5
1D8
330
1F
100
AcDbEntity
  8
A-E_見え係り
  6
Continuous
 62
     6
370
     5
100
AcDbLine
 10
695.1538388225075
 20
296.3465581390171
 30
0.0
 11
688.6291544157389
 21
320.697011848435
 31
0.0
  0
LINE
  5
1D9
330
1F
100
AcDbEntity
  8
A-E_見え係り
  6
Continuous
 62
     6
370
     5
100
AcDbLine
 10
695.8500204385414
 20
396.3465581390171
 30
0.0
 11
702.3747048453109
 21
371.9961044295991
 31
0.0
  0
LINE
  5
1DA
330
1F
100
AcDbEntity
  8
A-E_見え係り
  6
Continuous
 62
     6
370
     5
100
AcDbLine
 10
658.8993892520816
 20
396.3465581390171
 30
0.0
 11
632.104470008967
 21
296.3465581390171
 31
0.0
  0
LINE
  5
1DB
330
1F
100
AcDbEntity
  8
A-E_見え係り
  6
Continuous
 62
     6
370
     5
100
AcDbLine
 10
645.1538388225086
 20
296.3465581390171
 30
0.0
 11
638.6291544157374
 21
320.697011848435
 31
0.0
  0
LINE
  5
1DC
330
1F
100
AcDbEntity
  8
A-E_見え係り
  6
Continuous
 62
     6
370
     5
100
AcDbLine
 10
645.8500204385408
 20
396.3465581390171
 30
0.0
 11
652.3747048453104
 21
371.9961044295991
 31
0.0
  0
LINE
  5
1DD
330
1F
100
AcDbEntity
  8
A-E_見え係り
  6
Continuous
 62
     6
370
     5
100
AcDbLine
 10
608.899389252081
 20
396.3465581390171
 30
0.0
 11
582.104470008969
 21
296.3465581390171
 31
0.0
  0
LINE
  5
1DE
330
1F
100
AcDbEntity
  8
A-E_見え係り
  6
Continuous
 62
     6
370
     5
100
AcDbLine
 10
595.1538388225073
 20
296.3465581390171
 30
0.0
 11
588.6291544157385
 21
320.697011848435
 31
0.0
  0
LINE
  5
1DF
330
1F
100
AcDbEntity
  8
A-E_見え係り
  6
Continuous
 62
     6
370
     5
100
AcDbLine
 10
595.8500204385412
 20
396.3465581390171
 30
0.0
 11
602.3747048453107
 21
371.9961044295991
 31
0.0
  0
LINE
  5
1E0
330
1F
100
AcDbEntity
  8
A-E_見え係り
  6
Continuous
 62
     6
370
     5
100
AcDbLine
 10
808.8993892520816
 20
396.3465581390171
 30
0.0
 11
782.1044700089687
 21
296.3465581390171
 31
0.0
  0
LINE
  5
1E1
330
1F
100
AcDbEntity
  8
A-E_見え係り
  6
Continuous
 62
     6
370
     5
100
AcDbLine
 10
795.1538388225079
 20
296.3465581390171
 30
0.0
 11
788.6291544157374
 21
320.697011848435
 31
0.0
  0
LINE
  5
1E2
330
1F
100
AcDbEntity
  8
A-E_見え係り
  6
Continuous
 62
     6
370
     5
100
AcDbLine
 10
795.8500204385408
 20
396.3465581390171
 30
0.0
 11
802.3747048453113
 21
371.9961044295991
 31
0.0
  0
LINE
  5
1E3
330
1F
100
AcDbEntity
  8
A-E_見え係り
  6
Continuous
 62
     6
370
     5
100
AcDbLine
 10
858.8993892520814
 20
396.3465581390171
 30
0.0
 11
832.1044700089684
 21
296.3465581390171
 31
0.0
  0
LINE
  5
1E4
330
1F
100
AcDbEntity
  8
A-E_見え係り
  6
Continuous
 62
     6
370
     5
100
AcDbLine
 10
845.1538388225075
 20
296.3465581390171
 30
0.0
 11
838.6291544157389
 21
320.697011848435
 31
0.0
  0
LINE
  5
1E5
330
1F
100
AcDbEntity
  8
A-E_見え係り
  6
Continuous
 62
     6
370
     5
100
AcDbLine
 10
845.8500204385414
 20
396.3465581390171
 30
0.0
 11
852.3747048453109
 21
371.9961044295991
 31
0.0
  0
LINE
  5
1E6
330
1F
100
AcDbEntity
  8
A-E_見え係り
  6
Continuous
 62
     6
370
     5
100
AcDbLine
 10
908.8993892520813
 20
396.3465581390171
 30
0.0
 11
882.1044700089689
 21
296.3465581390171
 31
0.0
  0
LINE
  5
1E7
330
1F
100
AcDbEntity
  8
A-E_見え係り
  6
Continuous
 62
     6
370
     5
100
AcDbLine
 10
895.1538388225075
 20
296.3465581390171
 30
0.0
 11
888.6291544157388
 21
320.697011848435
 31
0.0
  0
LINE
  5
1E8
330
1F
100
AcDbEntity
  8
A-E_見え係り
  6
Continuous
 62
     6
370
     5
100
AcDbLine
 10
895.8500204385412
 20
396.3465581390171
 30
0.0
 11
902.3747048453109
 21
371.9961044295991
 31
0.0
  0
LINE
  5
1E9
330
1F
100
AcDbEntity
  8
A-E_見え係り
  6
Continuous
 62
     6
370
     5
100
AcDbLine
 10
958.8993892520815
 20
396.3465581390171
 30
0.0
 11
932.1044700089687
 21
296.3465581390171
 31
0.0
  0
LINE
  5
1EA
330
1F
100
AcDbEntity
  8
A-E_見え係り
  6
Continuous
 62
     6
370
     5
100
AcDbLine
 10
945.1538388225076
 20
296.3465581390171
 30
0.0
 11
938.629154415739
 21
320.697011848435
 31
0.0
  0
LINE
  5
1EB
330
1F
100
AcDbEntity
  8
A-E_見え係り
  6
Continuous
 62
     6
370
     5
100
AcDbLine
 10
945.850020438541
 20
396.3465581390171
 30
0.0
 11
952.374704845311
 21
371.9961044295991
 31
0.0
  0
LINE
  5
1EC
330
1F
100
AcDbEntity
  8
A-1_躯体
  6
Continuous
 62
     7
370
     9
100
AcDbLine
 10
718.8993562601037
 20
397.8465259718399
 30
0.0
 11
718.8993562601037
 21
396.3465581390171
 31
0.0
  0
LINE
  5
1ED
330
1F
100
AcDbEntity
  8
A-1_躯体
  6
Continuous
 62
     7
370
     9
100
AcDbLine
 10
746.3993232681279
 20
397.8465259718399
 30
0.0
 11
746.3993232681279
 21
396.3465581390171
 31
0.0
  0
LINE
  5
1EE
330
1F
100
AcDbEntity
  8
A-1_躯体
  6
Continuous
 62
     7
370
     9
100
AcDbLine
 10
771.3994552360334
 20
397.8465259718399
 30
0.0
 11
771.3994552360334
 21
396.3465581390171
 31
0.0
  0
LINE
  5
1EF
330
1F
100
AcDbEntity
  8
A-1_躯体
  6
Continuous
 62
     7
370
     9
100
AcDbLine
 10
798.8994222440576
 20
397.8465259718399
 30
0.0
 11
798.8994222440576
 21
396.3465581390171
 31
0.0
  0
LINE
  5
1F0
330
1F
100
AcDbEntity
  8
A-4_文字
  6
Continuous
 62
     7
370
     9
100
AcDbLine
 10
-2628.071583368137
 20
397.8465465918251
 30
0.0
 11
-2628.071583368137
 21
1297.845957685047
 31
0.0
  0
LINE
  5
1F1
330
1F
100
AcDbEntity
  8
A-4_文字
  6
Continuous
 62
     7
370
     9
100
AcDbLine
 10
-2628.071583368137
 20
397.8465465918251
 30
0.0
 11
-2632.96631557639
 21
435.0257288933432
 31
0.0
  0
LINE
  5
1F2
330
1F
100
AcDbEntity
  8
A-4_文字
  6
Continuous
 62
     7
370
     9
100
AcDbLine
 10
-2628.071583368137
 20
397.8465465918251
 30
0.0
 11
-2623.176851159885
 21
435.0257288933432
 31
0.0
  0
LINE
  5
1F3
330
1F
100
AcDbEntity
  8
A-4_文字
  6
Continuous
 62
     7
370
     9
100
AcDbLine
 10
-2628.071583368137
 20
1297.845957685047
 30
0.0
 11
-2632.96631557639
 21
1260.666775383529
 31
0.0
  0
LINE
  5
1F4
330
1F
100
AcDbEntity
  8
A-4_文字
  6
Continuous
 62
     7
370
     9
100
AcDbLine
 10
-2628.071583368137
 20
1297.845957685047
 30
0.0
 11
-2623.176851159885
 21
1260.666775383529
 31
0.0
  0
TEXT
  5
1F5
330
1F
100
AcDbEntity
  8
A-4_文字
  6
Continuous
 62
     2
370
   211
100
AcDbText
 10
-2645.531583368137
 20
799.0962521384363
 30
0.0
 40
45.72
  1
900
 50
90.0
 41
1.083333333333333
  7
ＭＳ ゴシック
100
AcDbText
  0
LINE
  5
1F6
330
1F
100
AcDbEntity
  8
A-4_文字
  6
Continuous
 62
     7
370
     9
100
AcDbLine
 10
-2495.972743336419
 20
397.8465465918251
 30
0.0
 11
-2495.972743336419
 21
1297.845957685047
 31
0.0
  0
LINE
  5
1F7
330
1F
100
AcDbEntity
  8
A-4_文字
  6
Continuous
 62
     7
370
     9
100
AcDbLine
 10
-2495.972743336419
 20
647.8465465918254
 30
0.0
 11
-2500.867475544671
 21
685.0257288933435
 31
0.0
  0
LINE
  5
1F8
330
1F
100
AcDbEntity
  8
A-4_文字
  6
Continuous
 62
     7
370
     9
100
AcDbLine
 10
-2495.972743336419
 20
647.8465465918254
 30
0.0
 11
-2491.078011128167
 21
685.0257288933435
 31
0.0
  0
LINE
  5
1F9
330
1F
100
AcDbEntity
  8
A-4_文字
  6
Continuous
 62
     7
370
     9
100
AcDbLine
 10
-2495.972743336419
 20
1297.845957685047
 30
0.0
 11
-2500.867475544671
 21
1260.666775383529
 31
0.0
  0
LINE
  5
1FA
330
1F
100
AcDbEntity
  8
A-4_文字
  6
Continuous
 62
     7
370
     9
100
AcDbLine
 10
-2495.972743336419
 20
1297.845957685047
 30
0.0
 11
-2491.078011128167
 21
1260.666775383529
 31
0.0
  0
TEXT
  5
1FB
330
1F
100
AcDbEntity
  8
A-4_文字
  6
Continuous
 62
     2
370
   211
100
AcDbText
 10
-2513.432743336419
 20
924.0962521384361
 30
0.0
 40
45.72
  1
650
 50
90.0
 41
1.083333333333335
  7
ＭＳ ゴシック
100
AcDbText
  0
LINE
  5
1FC
330
1F
100
AcDbEntity
  8
A-4_文字
  6
Continuous
 62
     7
370
     9
100
AcDbLine
 10
-2495.972743336419
 20
397.8465465918251
 30
0.0
 11
-2500.867475544671
 21
435.0257288933432
 31
0.0
  0
LINE
  5
1FD
330
1F
100
AcDbEntity
  8
A-4_文字
  6
Continuous
 62
     7
370
     9
100
AcDbLine
 10
-2495.972743336419
 20
397.8465465918251
 30
0.0
 11
-2491.078011128167
 21
435.0257288933432
 31
0.0
  0
LINE
  5
1FE
330
1F
100
AcDbEntity
  8
A-4_文字
  6
Continuous
 62
     7
370
     9
100
AcDbLine
 10
-2495.972743336419
 20
647.846571143633
 30
0.0
 11
-2500.867475544671
 21
610.667388842115
 31
0.0
  0
LINE
  5
1FF
330
1F
100
AcDbEntity
  8
A-4_文字
  6
Continuous
 62
     7
370
     9
100
AcDbLine
 10
-2495.972743336419
 20
647.846571143633
 30
0.0
 11
-2491.078011128167
 21
610.667388842115
 31
0.0
  0
TEXT
  5
200
330
1F
100
AcDbEntity
  8
A-4_文字
  6
Continuous
 62
     2
370
   211
100
AcDbText
 10
-2513.432743336419
 20
474.0965588677288
 30
0.0
 40
45.72
  1
250
 50
90.0
 41
1.083333333333333
  7
ＭＳ ゴシック
100
AcDbText
  0
LINE
  5
201
330
1F
100
AcDbEntity
  8
A-4_文字
  6
Continuous
 62
     7
370
     9
100
AcDbLine
 10
-2632.571583368137
 20
1297.845957685047
 30
0.0
 11
-2076.073242276128
 21
1297.845957685047
 31
0.0
  0
LINE
  5
202
330
1F
100
AcDbEntity
  8
A-E_見え係り
  6
Continuous
 62
     6
370
     5
100
AcDbLine
 10
-2218.100526618379
 20
647.8465465918254
 30
0.0
 11
-2563.509207745507
 21
647.8465465918254
 31
0.0
  0
LINE
  5
203
330
1F
100
AcDbEntity
  8
A-4_文字
  6
Continuous
 62
     7
370
     9
100
AcDbLine
 10
-2495.972743336419
 20
397.8465465918251
 30
0.0
 11
-2495.972743336419
 21
396.3465581390171
 31
0.0
  0
LINE
  5
204
330
1F
100
AcDbEntity
  8
A-4_文字
  6
Continuous
 62
     7
370
     9
100
AcDbLine
 10
-2495.972743336419
 20
396.3465581390171
 30
0.0
 11
-2500.867475544671
 21
359.1673758374992
 31
0.0
  0
LINE
  5
205
330
1F
100
AcDbEntity
  8
A-4_文字
  6
Continuous
 62
     7
370
     9
100
AcDbLine
 10
-2495.972743336419
 20
396.3465581390171
 30
0.0
 11
-2491.078011128167
 21
359.1673758374992
 31
0.0
  0
LINE
  5
206
330
1F
100
AcDbEntity
  8
A-4_文字
  6
Continuous
 62
     7
370
     9
100
AcDbLine
 10
-2500.472743336419
 20
396.3465581390171
 30
0.0
 11
-2410.600625594309
 21
396.3465581390171
 31
0.0
  0
LINE
  5
207
330
1F
100
AcDbEntity
  8
A-4_文字
  6
Continuous
 62
     7
370
     9
100
AcDbLine
 10
-2495.972743336419
 20
396.3465581390171
 30
0.0
 11
-2495.972743336419
 21
265.5914079809253
 31
0.0
  0
TEXT
  5
208
330
1F
100
AcDbEntity
  8
A-4_文字
  6
Continuous
 62
     2
370
   211
100
AcDbText
 10
-2513.432743336419
 20
275.3000368225328
 30
0.0
 40
45.72
  1
1.5
 50
90.0
 41
1.083333333333333
  7
ＭＳ ゴシック
100
AcDbText
  0
LINE
  5
209
330
1F
100
AcDbEntity
  8
A-4_文字
  6
Continuous
 62
     7
370
     9
100
AcDbLine
 10
-2632.571583368137
 20
397.8465465918251
 30
0.0
 11
-2234.553957476617
 21
397.8465465918251
 31
0.0
  0
LINE
  5
20A
330
1F
100
AcDbEntity
  8
A-4_文字
  6
Continuous
 62
     7
370
     9
100
AcDbLine
 10
-1817.880258807496
 20
296.3465581390171
 30
0.0
 11
-1817.880258807496
 21
396.3465581390171
 31
0.0
  0
LINE
  5
20B
330
1F
100
AcDbEntity
  8
A-4_文字
  6
Continuous
 62
     7
370
     9
100
AcDbLine
 10
-1817.880258807496
 20
296.3465581390171
 30
0.0
 11
-1822.774991015748
 21
333.525740440535
 31
0.0
  0
LINE
  5
20C
330
1F
100
AcDbEntity
  8
A-4_文字
  6
Continuous
 62
     7
370
     9
100
AcDbLine
 10
-1817.880258807496
 20
296.3465581390171
 30
0.0
 11
-1812.985526599244
 21
333.525740440535
 31
0.0
  0
LINE
  5
20D
330
1F
100
AcDbEntity
  8
A-4_文字
  6
Continuous
 62
     7
370
     9
100
AcDbLine
 10
-1817.880258807496
 20
396.3465581390171
 30
0.0
 11
-1822.774991015748
 21
359.1673758374992
 31
0.0
  0
LINE
  5
20E
330
1F
100
AcDbEntity
  8
A-4_文字
  6
Continuous
 62
     7
370
     9
100
AcDbLine
 10
-1817.880258807496
 20
396.3465581390171
 30
0.0
 11
-1812.985526599244
 21
359.1673758374992
 31
0.0
  0
LINE
  5
20F
330
1F
100
AcDbEntity
  8
A-4_文字
  6
Continuous
 62
     7
370
     9
100
AcDbLine
 10
-1813.380258807496
 20
296.3465581390171
 30
0.0
 11
-1950.600625594309
 21
296.3465581390171
 31
0.0
  0
TEXT
  5
210
330
1F
100
AcDbEntity
  8
A-4_文字
  6
Continuous
 62
     2
370
   211
100
AcDbText
 10
-1835.340258807496
 20
297.5965581390171
 30
0.0
 40
45.72
  1
100
 50
90.0
 41
1.083333333333333
  7
ＭＳ ゴシック
100
AcDbText
  0
LINE
  5
211
330
1F
100
AcDbEntity
  8
A-1_躯体
  6
Continuous
 62
     3
370
     9
100
AcDbLine
 10
697.6493760552894
 20
650.1465465918251
 30
0.0
 11
728.6493760552908
 21
650.1465465918251
 31
0.0
  0
ARC
  5
212
330
1F
100
AcDbEntity
  8
A-1_躯体
  6
Continuous
 62
     3
370
     9
100
AcDbCircle
 10
697.6493760552894
 20
648.6465465918247
 30
0.0
 40
1.5
100
AcDbArc
 50
90.0
 51
180.0
  0
LINE
  5
213
330
1F
100
AcDbEntity
  8
A-2_仕上
  6
Continuous
 62
     4
370
     9
100
AcDbLine
 10
725.4553380143211
 20
720.0274814604229
 30
0.0
 11
721.6379602227563
 21
723.8446661765993
 31
0.0
  0
LINE
  5
214
330
1F
100
AcDbEntity
  8
A-2_仕上
  6
Continuous
 62
     4
370
     9
100
AcDbLine
 10
720.4701450388468
 20
732.1860493238499
 30
0.0
 11
722.7353323424547
 21
731.786627598277
 31
0.0
  0
ARC
  5
215
330
1F
100
AcDbEntity
  8
A-2_仕上
  6
Continuous
 62
     4
370
     9
100
AcDbCircle
 10
714.2403676417866
 20
666.3330476489035
 30
0.0
 40
3.000000038662472
100
AcDbArc
 50
295.0017242431641
 51
349.9996490478515
  0
LINE
  5
216
330
1F
100
AcDbEntity
  8
A-2_仕上
  6
Continuous
 62
     4
370
     9
100
AcDbLine
 10
715.5240156871976
 20
663.6215447579808
 30
0.0
 11
710.6153399680018
 21
661.3324259393584
 31
0.0
  0
ARC
  5
217
330
1F
100
AcDbEntity
  8
A-2_仕上
  6
Continuous
 62
     4
370
     9
100
AcDbCircle
 10
710.9111766676365
 20
660.6980678117902
 30
0.0
 40
0.7000000090212437
100
AcDbArc
 50
115.0022735595703
 51
170.00244140625
  0
ARC
  5
218
330
1F
100
AcDbEntity
  8
A-2_仕上
  6
Continuous
 62
     4
370
     9
100
AcDbCircle
 10
723.3339401918006
 20
717.9061435193289
 30
0.0
 40
3.000000038662472
100
AcDbArc
 50
349.9995574951172
 51
44.99919128417969
  0
ARC
  5
219
330
1F
100
AcDbEntity
  8
A-2_仕上
  6
Continuous
 62
     4
370
     9
100
AcDbCircle
 10
722.1330372287441
 20
724.339723941588
 30
0.0
 40
0.7000000090212437
100
AcDbArc
 50
169.9979858398437
 51
224.9988861083984
  0
LINE
  5
21A
330
1F
100
AcDbEntity
  8
A-2_仕上
  6
Continuous
 62
     4
370
     9
100
AcDbLine
 10
706.0044846446858
 20
650.1465426327878
 30
0.0
 11
719.2694123920663
 21
725.3763471786705
 31
0.0
  0
LINE
  5
21B
330
1F
100
AcDbEntity
  8
A-2_仕上
  6
Continuous
 62
     4
370
     9
100
AcDbLine
 10
720.4701450388468
 20
732.1860493238499
 30
0.0
 11
719.2694123872419
 21
725.3763471513098
 31
0.0
  0
LINE
  5
21C
330
1F
100
AcDbEntity
  8
A-2_仕上
  6
Continuous
 62
     4
370
     9
100
AcDbLine
 10
708.3413380499367
 20
650.1465426327878
 30
0.0
 11
722.7353323424547
 21
731.786627598277
 31
0.0
  0
LINE
  5
21D
330
1F
100
AcDbEntity
  8
A-2_仕上
  6
Continuous
 62
     4
370
     9
100
AcDbLine
 10
717.1948144726066
 20
665.8120803003426
 30
0.0
 11
718.8105058500527
 21
674.9752554408026
 31
0.0
  0
LINE
  5
21E
330
1F
100
AcDbEntity
  8
A-2_仕上
  6
Continuous
 62
     4
370
     9
100
AcDbLine
 10
726.2883846139614
 20
717.3851717278485
 30
0.0
 11
718.8105058496186
 21
674.9752554383401
 31
0.0
  0
CIRCLE
  5
21F
330
1F
100
AcDbEntity
  8
A-E_見え係り
  6
Continuous
 62
     4
370
     9
100
AcDbCircle
 10
712.5493760552895
 20
642.3465465918254
 30
0.0
 40
2.5
  0
LINE
  5
220
330
1F
100
AcDbEntity
  8
A-1_躯体
  6
Continuous
 62
     3
370
     9
100
AcDbLine
 10
696.1493760552908
 20
631.1465465918253
 30
0.0
 11
696.1493760552908
 21
648.6465465918247
 31
0.0
  0
ARC
  5
221
330
1F
100
AcDbEntity
  8
A-1_躯体
  6
Continuous
 62
     3
370
     9
100
AcDbCircle
 10
697.6493760552894
 20
631.1465465918253
 30
0.0
 40
1.5
100
AcDbArc
 50
180.0
 51
270.0
  0
LINE
  5
222
330
1F
100
AcDbEntity
  8
A-1_躯体
  6
Continuous
 62
     3
370
     9
100
AcDbLine
 10
697.6493760552894
 20
629.646546591825
 30
0.0
 11
724.8993760552908
 21
629.646546591825
 31
0.0
  0
LINE
  5
223
330
1F
100
AcDbEntity
  8
A-1_躯体
  6
Continuous
 62
     3
370
     9
100
AcDbLine
 10
-2119.350612397518
 20
650.1465465918251
 30
0.0
 11
-2150.35061239752
 21
650.1465465918251
 31
0.0
  0
ELLIPSE
  5
224
330
1F
100
AcDbEntity
  8
A-1_躯体
  6
Continuous
 62
     3
370
     9
100
AcDbEllipse
 10
-2119.350612397518
 20
648.6465465918247
 30
0.0
 11
-1.060660171779821
 21
-1.060660171779821
 31
0.0
210
0.0
220
0.0
230
1.0
 40
0.9999999999999999
 41
2.356194490192345
 42
3.926990816987241
  0
LINE
  5
225
330
1F
100
AcDbEntity
  8
A-1_躯体
  6
Continuous
 62
     3
370
     9
100
AcDbLine
 10
-2117.85061239752
 20
631.1465465918253
 30
0.0
 11
-2117.85061239752
 21
648.6465465918247
 31
0.0
  0
ELLIPSE
  5
226
330
1F
100
AcDbEntity
  8
A-1_躯体
  6
Continuous
 62
     3
370
     9
100
AcDbEllipse
 10
-2119.350612397518
 20
631.1465465918253
 30
0.0
 11
-1.060660171779821
 21
-1.060660171779821
 31
0.0
210
0.0
220
0.0
230
1.0
 40
0.9999999999999999
 41
0.7853981633974483
 42
2.356194490192345
  0
CIRCLE
  5
227
330
1F
100
AcDbEntity
  8
A-E_見え係り
  6
Continuous
 62
     4
370
     9
100
AcDbCircle
 10
-2134.250612397519
 20
642.3465465918254
 30
0.0
 40
2.5
  0
LINE
  5
228
330
1F
100
AcDbEntity
  8
A-2_仕上
  6
Continuous
 62
     4
370
     9
100
AcDbLine
 10
-2147.156574349963
 20
720.0274814604229
 30
0.0
 11
-2143.339196558398
 21
723.8446661765993
 31
0.0
  0
LINE
  5
229
330
1F
100
AcDbEntity
  8
A-2_仕上
  6
Continuous
 62
     4
370
     9
100
AcDbLine
 10
-2142.171381374489
 20
732.1860493238499
 30
0.0
 11
-2144.436568678097
 21
731.786627598277
 31
0.0
  0
ARC
  5
22A
330
1F
100
AcDbEntity
  8
A-2_仕上
  6
Continuous
 62
     4
370
     9
100
AcDbCircle
 10
-2135.941603977429
 20
666.3330476489035
 30
0.0
 40
3.000000038662472
100
AcDbArc
 50
190.0003509521485
 51
244.9982757568359
  0
LINE
  5
22B
330
1F
100
AcDbEntity
  8
A-2_仕上
  6
Continuous
 62
     4
370
     9
100
AcDbLine
 10
-2137.22525202284
 20
663.6215447579808
 30
0.0
 11
-2132.316576303644
 21
661.3324259393584
 31
0.0
  0
ARC
  5
22C
330
1F
100
AcDbEntity
  8
A-2_仕上
  6
Continuous
 62
     4
370
     9
100
AcDbCircle
 10
-2132.612413003279
 20
660.6980678117902
 30
0.0
 40
0.7000000090212437
100
AcDbArc
 50
9.997558593750014
 51
64.9977264404297
  0
ARC
  5
22D
330
1F
100
AcDbEntity
  8
A-2_仕上
  6
Continuous
 62
     4
370
     9
100
AcDbCircle
 10
-2145.035176527443
 20
717.9061435193289
 30
0.0
 40
3.000000038662472
100
AcDbArc
 50
135.0008087158203
 51
190.0004425048828
  0
ARC
  5
22E
330
1F
100
AcDbEntity
  8
A-2_仕上
  6
Continuous
 62
     4
370
     9
100
AcDbCircle
 10
-2143.834273564386
 20
724.339723941588
 30
0.0
 40
0.7000000090212437
100
AcDbArc
 50
315.0011138916016
 51
10.00201416015627
  0
LINE
  5
22F
330
1F
100
AcDbEntity
  8
A-2_仕上
  6
Continuous
 62
     4
370
     9
100
AcDbLine
 10
-2138.896050808249
 20
665.8120803003426
 30
0.0
 11
-2140.511742163712
 21
674.9752553161322
 31
0.0
  0
LINE
  5
230
330
1F
100
AcDbEntity
  8
A-2_仕上
  6
Continuous
 62
     4
370
     9
100
AcDbLine
 10
-2147.989620949603
 20
717.3851717278485
 30
0.0
 11
-2140.511742201485
 21
674.9752555303565
 31
0.0
  0
LINE
  5
231
330
1F
100
AcDbEntity
  8
A-2_仕上
  6
Continuous
 62
     4
370
     9
100
AcDbLine
 10
-2127.705720980328
 20
650.1465426327878
 30
0.0
 11
-2140.970648746802
 21
725.3763472869547
 31
0.0
  0
LINE
  5
232
330
1F
100
AcDbEntity
  8
A-2_仕上
  6
Continuous
 62
     4
370
     9
100
AcDbLine
 10
-2142.171381374489
 20
732.1860493238499
 30
0.0
 11
-2140.97064875566
 21
725.3763473371929
 31
0.0
  0
LINE
  5
233
330
1F
100
AcDbEntity
  8
A-2_仕上
  6
Continuous
 62
     4
370
     9
100
AcDbLine
 10
-2130.042574385579
 20
650.1465426327878
 30
0.0
 11
-2144.436568678097
 21
731.786627598277
 31
0.0
  0
LINE
  5
234
330
1F
100
AcDbEntity
  8
A-1_躯体
  6
Continuous
 62
     3
370
     9
100
AcDbLine
 10
-2119.350612397518
 20
629.646546591825
 30
0.0
 11
-2146.60061239752
 21
629.646546591825
 31
0.0
  0
LINE
  5
235
330
1F
100
AcDbEntity
  8
A-E_見え係り
  6
Continuous
 62
     6
370
     5
100
AcDbLine
 10
-2117.85061239752
 20
647.8465465918254
 30
0.0
 11
696.1493760552906
 21
647.8465465918254
 31
0.0
  0
LINE
  5
236
330
1F
100
AcDbEntity
  8
A-6_間仕切
  6
Continuous
 62
     7
370
     9
100
AcDbLine
 10
711.1586630964963
 20
689.0826658695718
 30
0.0
 11
711.1586630964963
 21
707.0826510231825
 31
0.0
  0
LINE
  5
237
330
1F
100
AcDbEntity
  8
A-6_間仕切
  6
Continuous
 62
     7
370
     9
100
AcDbLine
 10
712.6935917246307
 20
688.0826873143566
 30
0.0
 11
712.1587158836577
 21
688.0826873143566
 31
0.0
  0
LINE
  5
238
330
1F
100
AcDbEntity
  8
A-6_間仕切
  6
Continuous
 62
     7
370
     9
100
AcDbLine
 10
712.1587158836577
 20
708.0827038103445
 30
0.0
 11
716.220080463611
 21
708.0827038103445
 31
0.0
  0
LINE
  5
239
330
1F
100
AcDbEntity
  8
A-A_インテリア
  6
Continuous
 62
     2
370
     9
100
AcDbLine
 10
817.408778568413
 20
696.8327038103445
 30
0.0
 11
817.408778568413
 21
679.0825833896309
 31
0.0
  0
LINE
  5
23A
330
1F
100
AcDbEntity
  8
A-A_インテリア
  6
Continuous
 62
     2
370
     9
100
AcDbLine
 10
812.9086894900764
 20
696.8327038103445
 30
0.0
 11
812.9086894900764
 21
679.0825833896309
 31
0.0
  0
LINE
  5
23B
330
1F
100
AcDbEntity
  8
A-A_インテリア
  6
Continuous
 62
     2
370
     9
100
AcDbLine
 10
812.4089600242827
 20
679.0825833896309
 30
0.0
 11
812.4089600242827
 21
655.5826790663622
 31
0.0
  0
LINE
  5
23C
330
1F
100
AcDbEntity
  8
A-A_インテリア
  6
Continuous
 62
     2
370
     9
100
AcDbLine
 10
810.1588412531681
 20
679.0825833896309
 30
0.0
 11
820.1587752692155
 21
679.0825833896309
 31
0.0
  0
LINE
  5
23D
330
1F
100
AcDbEntity
  8
A-A_インテリア
  6
Continuous
 62
     2
370
     9
100
AcDbLine
 10
817.9088049619943
 20
679.0825833896309
 30
0.0
 11
817.9088049619943
 21
655.5826790663622
 31
0.0
  0
LINE
  5
23E
330
1F
100
AcDbEntity
  8
A-A_インテリア
  6
Continuous
 62
     2
370
     9
100
AcDbLine
 10
820.1587752692155
 20
679.0825833896309
 30
0.0
 11
820.1587752692155
 21
655.5826790663622
 31
0.0
  0
LINE
  5
23F
330
1F
100
AcDbEntity
  8
A-A_インテリア
  6
Continuous
 62
     2
370
     9
100
AcDbLine
 10
810.1588412531681
 20
679.0825833896309
 30
0.0
 11
810.1588412531681
 21
655.5826790663622
 31
0.0
  0
LINE
  5
240
330
1F
100
AcDbEntity
  8
A-A_インテリア
  6
Continuous
 62
     2
370
     9
100
AcDbLine
 10
810.1588412531681
 20
655.5826790663622
 30
0.0
 11
820.1587752692155
 21
655.5826790663622
 31
0.0
  0
ARC
  5
241
330
1F
100
AcDbEntity
  8
A-A_インテリア
  6
Continuous
 62
     2
370
     9
100
AcDbCircle
 10
815.1588082611921
 20
696.8327038103445
 30
0.0
 40
2.250000318965396
100
AcDbArc
 50
0.0000000000000064
 51
180.0
  0
LINE
  5
242
330
1F
100
AcDbEntity
  8
A-6_間仕切
  6
JWW_CENTER1
 62
     7
370
     9
100
AcDbLine
 10
815.1588082611921
 20
702.5988929731401
 30
0.0
 11
815.1588082611921
 21
693.5365826770043
 31
0.0
  0
LINE
  5
243
330
1F
100
AcDbEntity
  8
A-6_間仕切
  6
Continuous
 62
     7
370
     9
100
AcDbLine
 10
823.1586367029151
 20
703.0826625703742
 30
0.0
 11
823.1586367029151
 21
693.08265432238
 31
0.0
  0
ARC
  5
244
330
1F
100
AcDbEntity
  8
A-6_間仕切
  6
Continuous
 62
     7
370
     9
100
AcDbCircle
 10
822.1587323796464
 20
703.0826625703742
 30
0.0
 40
1.000000012887491
100
AcDbArc
 50
0.0000000000000127
 51
90.00000000000001
  0
ARC
  5
245
330
1F
100
AcDbEntity
  8
A-6_間仕切
  6
Continuous
 62
     7
370
     9
100
AcDbCircle
 10
822.1587323796464
 20
693.08265432238
 30
0.0
 40
1.000000012887491
100
AcDbArc
 50
270.0
 51
0.0
  0
ARC
  5
246
330
1F
100
AcDbEntity
  8
A-6_間仕切
  6
Continuous
 62
     7
370
     9
100
AcDbCircle
 10
815.1588082611921
 20
698.0826213304035
 30
0.0
 40
3.500000045106217
100
AcDbArc
 50
310.0047302246094
 51
229.9922332763672
  0
ARC
  5
247
330
1F
100
AcDbEntity
  8
A-6_間仕切
  6
Continuous
 62
     7
370
     9
100
AcDbCircle
 10
712.1587158836577
 20
689.0826658695718
 30
0.0
 40
1.000000012887491
100
AcDbArc
 50
180.0
 51
270.0
  0
ARC
  5
248
330
1F
100
AcDbEntity
  8
A-6_間仕切
  6
Continuous
 62
     7
370
     9
100
AcDbCircle
 10
712.1587158836577
 20
707.0826510231825
 30
0.0
 40
1.000000012887491
100
AcDbArc
 50
90.0
 51
180.0
  0
LINE
  5
249
330
1F
100
AcDbEntity
  8
A-6_間仕切
  6
Continuous
 62
     7
370
     9
100
AcDbLine
 10
805.158725781251
 20
704.0826411255897
 30
0.0
 11
805.158725781251
 21
692.0826757671648
 31
0.0
  0
LINE
  5
24A
330
1F
100
AcDbEntity
  8
A-6_間仕切
  6
Continuous
 62
     7
370
     9
100
AcDbLine
 10
822.1587323796464
 20
692.0826757671648
 30
0.0
 11
817.408778568413
 21
692.0826757671648
 31
0.0
  0
LINE
  5
24B
330
1F
100
AcDbEntity
  8
A-6_間仕切
  6
Continuous
 62
     7
370
     9
100
AcDbLine
 10
728.6493142019217
 20
704.0826411255897
 30
0.0
 11
723.9428315026124
 21
704.0826411255897
 31
0.0
  0
LINE
  5
24C
330
1F
100
AcDbEntity
  8
A-6_間仕切
  6
Continuous
 62
     7
370
     9
100
AcDbLine
 10
728.6493142019217
 20
692.0826757671648
 30
0.0
 11
721.8269516806846
 21
692.0826757671648
 31
0.0
  0
LINE
  5
24D
330
1F
100
AcDbEntity
  8
A-6_間仕切
  6
JWW_DASHED1
 62
     7
370
     9
100
AcDbLine
 10
789.1494643154134
 20
704.0826411255897
 30
0.0
 11
728.6493142019217
 21
704.0826411255897
 31
0.0
  0
LINE
  5
24E
330
1F
100
AcDbEntity
  8
A-6_間仕切
  6
JWW_DASHED1
 62
     7
370
     9
100
AcDbLine
 10
789.1494643154134
 20
692.0826757671648
 30
0.0
 11
728.6493142019217
 21
692.0826757671648
 31
0.0
  0
LINE
  5
24F
330
1F
100
AcDbEntity
  8
A-6_間仕切
  6
Continuous
 62
     7
370
     9
100
AcDbLine
 10
812.9086894900764
 20
692.0826757671648
 30
0.0
 11
789.1494643154134
 21
692.0826757671648
 31
0.0
  0
LINE
  5
250
330
1F
100
AcDbEntity
  8
A-6_間仕切
  6
Continuous
 62
     7
370
     9
100
AcDbLine
 10
822.1587323796464
 20
704.0826411255897
 30
0.0
 11
789.1494643154134
 21
704.0826411255897
 31
0.0
  0
LINE
  5
251
330
1F
100
AcDbEntity
  8
A-0_通り芯
  6
JWW_CENTER2
 62
     7
370
     9
100
AcDbLine
 10
707.0368887166582
 20
698.0823678420023
 30
0.0
 11
825.6415755568187
 21
698.0823678420023
 31
0.0
  0
LINE
  5
252
330
1F
100
AcDbEntity
  8
A-0_通り芯
  6
JWW_CENTER2
 62
     7
370
     9
100
AcDbLine
 10
-2180.600625594309
 20
1092.595738288405
 30
0.0
 11
-2180.600625594309
 21
355.9433227808556
 31
0.0
  0
LINE
  5
253
330
1F
100
AcDbEntity
  8
A-0_通り芯
  6
JWW_CENTER2
 62
     7
370
     9
100
AcDbLine
 10
758.8993892520806
 20
1092.595738288405
 30
0.0
 11
758.8993892520806
 21
355.9433227808556
 31
0.0
  0
LINE
  5
254
330
1F
100
AcDbEntity
  8
A-2_仕上
  6
Continuous
 62
     3
370
     9
100
AcDbLine
 10
-2150.350550537563
 20
1092.595367128671
 30
0.0
 11
-2150.350550537563
 21
397.8465465918251
 31
0.0
  0
LINE
  5
255
330
1F
100
AcDbEntity
  8
A-2_仕上
  6
Continuous
 62
     3
370
     9
100
AcDbLine
 10
-2210.850700651055
 20
1092.595738288405
 30
0.0
 11
-2210.850700651055
 21
397.8465465918251
 31
0.0
  0
LINE
  5
256
330
1F
100
AcDbEntity
  8
A-2_仕上
  6
Continuous
 62
     3
370
     9
100
AcDbLine
 10
728.6493141953348
 20
1092.595367128671
 30
0.0
 11
728.6493141953348
 21
397.8465465918251
 31
0.0
  0
LINE
  5
257
330
1F
100
AcDbEntity
  8
A-2_仕上
  6
Continuous
 62
     3
370
     9
100
AcDbLine
 10
789.1494643088271
 20
1092.595738288405
 30
0.0
 11
789.1494643088271
 21
397.8465465918251
 31
0.0
  0
LINE
  5
258
330
1F
100
AcDbEntity
  8
A-4_文字
  6
Continuous
 62
     7
370
     9
100
AcDbLine
 10
-2150.350550537563
 20
921.0943540075392
 30
0.0
 11
-2210.850700651055
 21
921.0943540075392
 31
0.0
  0
LINE
  5
259
330
1F
100
AcDbEntity
  8
A-4_文字
  6
Continuous
 62
     7
370
     9
100
AcDbLine
 10
-2150.350550537563
 20
921.0943540075392
 30
0.0
 11
-2113.171368236046
 21
925.9890862157913
 31
0.0
  0
LINE
  5
25A
330
1F
100
AcDbEntity
  8
A-4_文字
  6
Continuous
 62
     7
370
     9
100
AcDbLine
 10
-2150.350550537563
 20
921.0943540075392
 30
0.0
 11
-2113.171368236046
 21
916.1996217992872
 31
0.0
  0
LINE
  5
25B
330
1F
100
AcDbEntity
  8
A-4_文字
  6
Continuous
 62
     7
370
     9
100
AcDbLine
 10
-2210.850700651055
 20
921.0943540075392
 30
0.0
 11
-2248.029882952573
 21
925.9890862157913
 31
0.0
  0
LINE
  5
25C
330
1F
100
AcDbEntity
  8
A-4_文字
  6
Continuous
 62
     7
370
     9
100
AcDbLine
 10
-2210.850700651055
 20
921.0943540075392
 30
0.0
 11
-2248.029882952573
 21
916.1996217992872
 31
0.0
  0
TEXT
  5
25D
330
1F
100
AcDbEntity
  8
A-4_文字
  6
Continuous
 62
     2
370
     9
100
AcDbText
 10
-2100.535121708751
 20
937.0437157096671
 30
0.0
 40
45.71999999999903
  1
φ60.5
 41
1.10416666666669
  7
ＭＳ ゴシック
100
AcDbText
  0
LINE
  5
25E
330
1F
100
AcDbEntity
  8
A-4_文字
  6
Continuous
 62
     7
370
     9
100
AcDbLine
 10
-2150.350550537563
 20
921.0943540075392
 30
0.0
 11
-1889.755866389602
 21
921.0943540075392
 31
0.0
  0
LINE
  5
25F
330
1F
100
AcDbEntity
  8
A-4_文字
  6
Continuous
 62
     7
370
     9
100
AcDbLine
 10
-2210.850700651055
 20
921.0943540075392
 30
0.0
 11
-2256.834274585031
 21
921.0943540075392
 31
0.0
  0
TEXT
  5
260
330
1F
100
AcDbEntity
  8
A-5_建具
  6
Continuous
 62
     2
370
     9
100
AcDbText
 10
915.1363118251717
 20
664.3835421267441
 30
0.0
 40
45.71999999999984
  1
▽G.L.
 41
1.10416666666667
  7
ＭＳ ゴシック
100
AcDbText
  0
TEXT
  5
261
330
1F
100
AcDbEntity
  8
A-5_建具
  6
Continuous
 62
     7
370
     9
100
AcDbText
 10
279.3343249119825
 20
1588.58682873105
 30
0.0
 40
34.29
  1
本体：φ60.5×2.8
 41
1.156862745098039
  7
ＭＳ ゴシック
100
AcDbText
  0
TEXT
  5
262
330
1F
100
AcDbEntity
  8
A-5_建具
  6
Continuous
 62
     7
370
     9
100
AcDbText
 10
279.3343249119825
 20
1520.766497761783
 30
0.0
 40
34.29
  1
STK400　溶融亜鉛めっき＋焼付塗装
 41
1.15625
  7
ＭＳ ゴシック
100
AcDbText
  0
LINE
  5
263
330
1F
100
AcDbEntity
  8
A-5_建具
  6
Continuous
 62
     7
370
     9
100
AcDbLine
 10
110.2464882365045
 20
1297.845072874729
 30
0.0
 11
267.6796885365986
 21
1570.525610033365
 31
0.0
  0
LINE
  5
264
330
1F
100
AcDbEntity
  8
A-4_文字
  6
Continuous
 62
     7
370
     9
100
AcDbLine
 10
110.2464882365046
 20
1297.845072874729
 30
0.0
 11
133.075125188516
 21
1327.595759167876
 31
0.0
  0
LINE
  5
265
330
1F
100
AcDbEntity
  8
A-4_文字
  6
Continuous
 62
     7
370
     9
100
AcDbLine
 10
110.2464882365046
 20
1297.845072874729
 30
0.0
 11
124.5972140298922
 21
1332.490515132016
 31
0.0
  0
LINE
  5
266
330
1F
100
AcDbEntity
  8
A-5_建具
  6
Continuous
 62
     7
370
     9
100
AcDbLine
 10
792.8994024488708
 20
550.7030540250446
 30
0.0
 11
1016.948976566897
 21
159.8562150700076
 31
0.0
  0
TEXT
  5
267
330
1F
100
AcDbEntity
  8
A-5_建具
  6
Continuous
 62
     7
370
     9
100
AcDbText
 10
1028.729230890844
 20
178.8761487216508
 30
0.0
 40
34.29000000000049
  1
脱着用埋設管
 41
1.138888888888898
  7
ＭＳ ゴシック
100
AcDbText
  0
LINE
  5
268
330
1F
100
AcDbEntity
  8
A-4_文字
  6
Continuous
 62
     7
370
     9
100
AcDbLine
 10
792.8994024488708
 20
550.7030540250446
 30
0.0
 11
815.6360019631297
 21
520.8819701659995
 31
0.0
  0
LINE
  5
269
330
1F
100
AcDbEntity
  8
A-4_文字
  6
Continuous
 62
     7
370
     9
100
AcDbLine
 10
792.8994024488708
 20
550.7030540250446
 30
0.0
 11
807.1430066733647
 21
516.0134339825019
 31
0.0
  0
TEXT
  5
26A
330
1F
100
AcDbEntity
  8
A-5_建具
  6
Continuous
 62
     7
370
     9
100
AcDbText
 10
1028.729230890844
 20
45.66005058298553
 30
0.0
 40
34.29000000000008
  1
埋設管本体：SUS
 41
1.155555555555553
  7
ＭＳ ゴシック
100
AcDbText
  0
TEXT
  5
26B
330
1F
100
AcDbEntity
  8
A-5_建具
  6
Continuous
 62
     7
370
     9
100
AcDbText
 10
1028.729230890844
 20
103.0784902992948
 30
0.0
 40
34.28999999999968
  1
蓋：SPHC　溶融亜鉛めっき
 41
1.152777777777789
  7
ＭＳ ゴシック
100
AcDbText
  0
LINE
  5
26C
330
1F
100
AcDbEntity
  8
A-5_建具
  6
Continuous
 62
     7
370
     9
100
AcDbLine
 10
1657.356283259549
 20
159.8562150700076
 30
0.0
 11
1016.948976566897
 21
159.8562150700076
 31
0.0
  0
LINE
  5
26D
330
1F
100
AcDbEntity
  8
A-5_建具
  6
Continuous
 62
     7
370
     9
100
AcDbLine
 10
267.6796885365986
 20
1570.525610033365
 30
0.0
 11
1111.834324911983
 21
1570.525610033365
 31
0.0
  0
ENDSEC
  0
SECTION
  2
OBJECTS
  0
DICTIONARY
  5
C
330
0
100
AcDbDictionary
281
     1
  3
ACAD_DETAILVIEWSTYLE
350
2B3
  3
ACAD_GROUP
350
D
  3
ACAD_LAYOUT
350
1A
  3
ACAD_MATERIAL
350
43
  3
ACAD_MLEADERSTYLE
350
6B
  3
ACAD_MLINESTYLE
350
17
  3
ACAD_PLOTSETTINGS
350
19
  3
ACAD_PLOTSTYLENAME
350
E
  3
ACAD_SCALELIST
350
47
  3
ACAD_SECTIONVIEWSTYLE
350
2B4
  3
ACAD_TABLESTYLE
350
69
  3
ACAD_VISUALSTYLE
350
2A
  3
ACDB_RECOMPOSE_DATA
350
2B0
  3
AcDbVariableDictionary
350
270
  0
DICTIONARY
  5
26E
330
8
100
AcDbDictionary
280
     1
281
     1
  3
ACAD_XREC_ROUNDTRIP
360
26F
  0
DICTIONARY
  5
2B3
102
{ACAD_REACTORS
330
C
102
}
330
C
100
AcDbDictionary
281
     1
  0
DICTIONARY
  5
D
102
{ACAD_REACTORS
330
C
102
}
330
C
100
AcDbDictionary
281
     1
  0
DICTIONARY
  5
1A
102
{ACAD_REACTORS
330
C
102
}
330
C
100
AcDbDictionary
281
     1
  3
Layout1
350
1E
  3
Layout2
350
26
  3
Model
350
22
  0
DICTIONARY
  5
43
102
{ACAD_REACTORS
330
C
102
}
330
C
100
AcDbDictionary
281
     1
  3
ByBlock
350
45
  3
ByLayer
350
44
  3
Global
350
46
  0
DICTIONARY
  5
6B
102
{ACAD_REACTORS
330
C
102
}
330
C
100
AcDbDictionary
281
     1
  3
Standard
350
6C
  0
DICTIONARY
  5
17
102
{ACAD_REACTORS
330
C
102
}
330
C
100
AcDbDictionary
281
     1
  3
Standard
350
18
  0
DICTIONARY
  5
19
102
{ACAD_REACTORS
330
C
102
}
330
C
100
AcDbDictionary
281
     1
  0
ACDBDICTIONARYWDFLT
  5
E
102
{ACAD_REACTORS
330
C
102
}
330
C
100
AcDbDictionary
281
     1
  3
Normal
350
F
100
AcDbDictionaryWithDefault
340
F
  0
DICTIONARY
  5
47
102
{ACAD_REACTORS
330
C
102
}
330
C
100
AcDbDictionary
281
     1
  3
A0
350
48
  3
A1
350
49
  3
A2
350
4A
  3
A3
350
4B
  3
A4
350
4C
  3
A5
350
4D
  3
A6
350
4E
  3
A7
350
4F
  3
A8
350
50
  3
A9
350
51
  3
B0
350
52
  3
B1
350
53
  3
B2
350
54
  3
B3
350
55
  3
B4
350
56
  3
B5
350
57
  3
B6
350
58
  3
B7
350
59
  3
B8
350
5A
  3
B9
350
5B
  3
C0
350
5C
  3
C1
350
5D
  3
C2
350
5E
  3
C3
350
5F
  3
C4
350
60
  3
C5
350
61
  3
C6
350
62
  3
C7
350
63
  3
C8
350
64
  3
C9
350
65
  3
D0
350
66
  3
D1
350
67
  3
D2
350
68
  0
DICTIONARY
  5
2B4
102
{ACAD_REACTORS
330
C
102
}
330
C
100
AcDbDictionary
281
     1
  0
DICTIONARY
  5
69
102
{ACAD_REACTORS
330
C
102
}
330
C
100
AcDbDictionary
281
     1
  3
Standard
350
6A
  0
DICTIONARY
  5
2A
102
{ACAD_REACTORS
330
C
102
}
330
C
100
AcDbDictionary
281
     1
  3
2dWireframe
350
2F
  3
Basic
350
32
  3
Brighten
350
36
  3
ColorChange
350
3A
  3
Conceptual
350
34
  3
Dim
350
35
  3
EdgeColorOff
350
3D
  3
Facepattern
350
39
  3
Flat
350
2B
  3
FlatWithEdges
350
2C
  3
Gouraud
350
2D
  3
GouraudWithEdges
350
2E
  3
Hidden
350
31
  3
JitterOff
350
3B
  3
Linepattern
350
38
  3
OverhangOff
350
3C
  3
Realistic
350
33
  3
Shaded
350
42
  3
Shaded with edges
350
41
  3
Shades of Gray
350
3E
  3
Sketchy
350
3F
  3
Thicken
350
37
  3
Wireframe
350
30
  3
X-Ray
350
40
  0
XRECORD
  5
2B0
102
{ACAD_REACTORS
330
C
102
}
330
C
100
AcDbXrecord
280
     1
 90
        1
330
6A
  0
DICTIONARY
  5
270
102
{ACAD_REACTORS
330
C
102
}
330
C
100
AcDbDictionary
281
     1
  3
CANNOSCALE
350
271
  3
CENTEREXE
350
2B5
  3
CENTERLTYPEFILE
350
2B6
  3
CMLEADERSTYLE
350
2B2
  3
CTABLESTYLE
350
2B1
  3
MSLTSCALE
350
272
  3
XCLIPFRAME
350
273
  0
XRECORD
  5
26F
102
{ACAD_REACTORS
330
26E
102
}
330
26E
100
AcDbXrecord
280
     1
102
VTR_0.000_0.000_1.000_1.000_VISUALSTYLE
340
2F
102
VTR_0.000_0.000_1.000_1.000_GRIDDISPLAY
 70
     3
102
VTR_0.000_0.000_1.000_1.000_GRIDMAJOR
 70
     5
102
VTR_0.000_0.000_1.000_1.000_DEFAULTLIGHTING
280
     1
102
VTR_0.000_0.000_1.000_1.000_DEFAULTLIGHTINGTYPE
 70
     1
102
VTR_0.000_0.000_1.000_1.000_BRIGHTNESS
141
0.0
102
VTR_0.000_0.000_1.000_1.000_CONTRAST
142
0.0
  0
LAYOUT
  5
1E
102
{ACAD_REACTORS
330
1A
102
}
330
1A
100
AcDbPlotSettings
  1

  2
none_device
  4

  6

 40
0.0
 41
0.0
 42
0.0
 43
0.0
 44
0.0
 45
0.0
 46
0.0
 47
0.0
 48
0.0
 49
0.0
140
0.0
141
0.0
142
1.0
143
1.0
 70
   688
 72
     1
 73
     0
 74
     5
  7

 75
    16
 76
     0
 77
     5
 78
   300
147
1.0
148
0.0
149
0.0
100
AcDbLayout
  1
Layout1
 70
     1
 71
     1
 10
0.0
 20
0.0
 11
420.0
 21
297.0
 12
0.0
 22
0.0
 32
0.0
 14
1.000000000000000E+20
 24
1.000000000000000E+20
 34
1.000000000000000E+20
 15
-1.000000000000000E+20
 25
-1.000000000000000E+20
 35
-1.000000000000000E+20
146
0.0
 13
0.0
 23
0.0
 33
0.0
 16
1.0
 26
0.0
 36
0.0
 17
0.0
 27
1.0
 37
0.0
 76
     0
330
1B
  0
LAYOUT
  5
26
102
{ACAD_REACTORS
330
1A
102
}
330
1A
100
AcDbPlotSettings
  1

  2
none_device
  4

  6

 40
0.0
 41
0.0
 42
0.0
 43
0.0
 44
0.0
 45
0.0
 46
0.0
 47
0.0
 48
0.0
 49
0.0
140
0.0
141
0.0
142
1.0
143
1.0
 70
   688
 72
     1
 73
     0
 74
     5
  7

 75
    16
 76
     0
 77
     5
 78
   300
147
1.0
148
0.0
149
0.0
100
AcDbLayout
  1
Layout2
 70
     1
 71
     2
 10
0.0
 20
0.0
 11
0.0
 21
0.0
 12
0.0
 22
0.0
 32
0.0
 14
0.0
 24
0.0
 34
0.0
 15
0.0
 25
0.0
 35
0.0
146
0.0
 13
0.0
 23
0.0
 33
0.0
 16
1.0
 26
0.0
 36
0.0
 17
0.0
 27
1.0
 37
0.0
 76
     0
330
23
  0
LAYOUT
  5
22
102
{ACAD_REACTORS
330
1A
102
}
330
1A
100
AcDbPlotSettings
  1

  2
none_device
  4
Letter_(8.50_x_11.00_Inches)
  6

 40
6.35
 41
6.35
 42
6.35000508
 43
6.35000508
 44
215.9
 45
279.4
 46
0.0
 47
0.0
 48
0.0
 49
0.0
140
0.0
141
0.0
142
1.0
143
1.0
 70
  1712
 72
     1
 73
     0
 74
     0
  7

 75
     0
 76
     0
 77
     5
 78
   300
147
1.0
148
0.0
149
0.0
100
AcDbLayout
  1
Model
 70
     1
 71
     0
 10
-3150.0
 20
-2227.5
 11
3150.0
 21
2227.5
 12
0.0
 22
0.0
 32
0.0
 14
-3150.0
 24
-2227.5
 34
0.0
 15
3150.0
 25
2227.5
 35
0.0
146
0.0
 13
0.0
 23
0.0
 33
0.0
 16
1.0
 26
0.0
 36
0.0
 17
0.0
 27
1.0
 37
0.0
 76
     0
330
1F
331
29
  0
MATERIAL
  5
45
102
{ACAD_REACTORS
330
43
102
}
102
{ACAD_XDICTIONARY
360
2A6
102
}
330
43
100
AcDbMaterial
  1
ByBlock
  0
MATERIAL
  5
44
102
{ACAD_REACTORS
330
43
102
}
102
{ACAD_XDICTIONARY
360
2A4
102
}
330
43
100
AcDbMaterial
  1
ByLayer
  0
MATERIAL
  5
46
102
{ACAD_REACTORS
330
43
102
}
102
{ACAD_XDICTIONARY
360
2A8
102
}
330
43
100
AcDbMaterial
  1
Global
  0
MLEADERSTYLE
  5
6C
102
{ACAD_REACTORS
330
6B
102
}
102
{ACAD_XDICTIONARY
360
2AE
102
}
330
6B
100
AcDbMLeaderStyle
170
     2
171
     1
172
     0
 90
        2
 40
0.0
 41
0.0
173
     1
 91
-1056964608
340
14
 92
       -2
290
     1
 42
2.0
291
     1
 43
8.0
  3
Standard
341
0
 44
4.0
300

342
11
174
     1
178
     6
175
     1
176
     0
 93
-1056964608
 45
4.0
292
     0
297
     0
 46
4.0
343
0
 94
-1056964608
 47
1.0
 49
1.0
140
1.0
293
     1
141
0.0
294
     1
177
     0
142
1.0
295
     0
296
     0
143
3.75
1001
ACAD_MLEADERVER
1070
     2
  0
MLINESTYLE
  5
18
102
{ACAD_REACTORS
330
17
102
}
330
17
100
AcDbMlineStyle
  2
Standard
 70
     0
  3

 62
   256
 51
90.0
 52
90.0
 71
     2
 49
0.5
 62
   256
  6
BYLAYER
 49
-0.5
 62
   256
  6
BYLAYER
  0
ACDBPLACEHOLDER
  5
F
102
{ACAD_REACTORS
330
E
102
}
330
E
  0
SCALE
  5
48
102
{ACAD_REACTORS
330
47
102
}
330
47
100
AcDbScale
 70
     0
300
1:1
140
1.0
141
1.0
290
     1
  0
SCALE
  5
49
102
{ACAD_REACTORS
330
47
102
}
330
47
100
AcDbScale
 70
     0
300
1:2
140
1.0
141
2.0
290
     0
  0
SCALE
  5
4A
102
{ACAD_REACTORS
330
47
102
}
330
47
100
AcDbScale
 70
     0
300
1:4
140
1.0
141
4.0
290
     0
  0
SCALE
  5
4B
102
{ACAD_REACTORS
330
47
102
}
330
47
100
AcDbScale
 70
     0
300
1:5
140
1.0
141
5.0
290
     0
  0
SCALE
  5
4C
102
{ACAD_REACTORS
330
47
102
}
330
47
100
AcDbScale
 70
     0
300
1:8
140
1.0
141
8.0
290
     0
  0
SCALE
  5
4D
102
{ACAD_REACTORS
330
47
102
}
330
47
100
AcDbScale
 70
     0
300
1:10
140
1.0
141
10.0
290
     0
  0
SCALE
  5
4E
102
{ACAD_REACTORS
330
47
102
}
330
47
100
AcDbScale
 70
     0
300
1:16
140
1.0
141
16.0
290
     0
  0
SCALE
  5
4F
102
{ACAD_REACTORS
330
47
102
}
330
47
100
AcDbScale
 70
     0
300
1:20
140
1.0
141
20.0
290
     0
  0
SCALE
  5
50
102
{ACAD_REACTORS
330
47
102
}
330
47
100
AcDbScale
 70
     0
300
1:30
140
1.0
141
30.0
290
     0
  0
SCALE
  5
51
102
{ACAD_REACTORS
330
47
102
}
330
47
100
AcDbScale
 70
     0
300
1:40
140
1.0
141
40.0
290
     0
  0
SCALE
  5
52
102
{ACAD_REACTORS
330
47
102
}
330
47
100
AcDbScale
 70
     0
300
1:50
140
1.0
141
50.0
290
     0
  0
SCALE
  5
53
102
{ACAD_REACTORS
330
47
102
}
330
47
100
AcDbScale
 70
     0
300
1:100
140
1.0
141
100.0
290
     0
  0
SCALE
  5
54
102
{ACAD_REACTORS
330
47
102
}
330
47
100
AcDbScale
 70
     0
300
2:1
140
2.0
141
1.0
290
     0
  0
SCALE
  5
55
102
{ACAD_REACTORS
330
47
102
}
330
47
100
AcDbScale
 70
     0
300
4:1
140
4.0
141
1.0
290
     0
  0
SCALE
  5
56
102
{ACAD_REACTORS
330
47
102
}
330
47
100
AcDbScale
 70
     0
300
8:1
140
8.0
141
1.0
290
     0
  0
SCALE
  5
57
102
{ACAD_REACTORS
330
47
102
}
330
47
100
AcDbScale
 70
     0
300
10:1
140
10.0
141
1.0
290
     0
  0
SCALE
  5
58
102
{ACAD_REACTORS
330
47
102
}
330
47
100
AcDbScale
 70
     0
300
100:1
140
100.0
141
1.0
290
     0
  0
SCALE
  5
59
102
{ACAD_REACTORS
330
47
102
}
330
47
100
AcDbScale
 70
     0
300
1/128" = 1'-0"
140
0.0078125
141
12.0
290
     0
  0
SCALE
  5
5A
102
{ACAD_REACTORS
330
47
102
}
330
47
100
AcDbScale
 70
     0
300
1/64" = 1'-0"
140
0.015625
141
12.0
290
     0
  0
SCALE
  5
5B
102
{ACAD_REACTORS
330
47
102
}
330
47
100
AcDbScale
 70
     0
300
1/32" = 1'-0"
140
0.03125
141
12.0
290
     0
  0
SCALE
  5
5C
102
{ACAD_REACTORS
330
47
102
}
330
47
100
AcDbScale
 70
     0
300
1/16" = 1'-0"
140
0.0625
141
12.0
290
     0
  0
SCALE
  5
5D
102
{ACAD_REACTORS
330
47
102
}
330
47
100
AcDbScale
 70
     0
300
3/32" = 1'-0"
140
0.09375
141
12.0
290
     0
  0
SCALE
  5
5E
102
{ACAD_REACTORS
330
47
102
}
330
47
100
AcDbScale
 70
     0
300
1/8" = 1'-0"
140
0.125
141
12.0
290
     0
  0
SCALE
  5
5F
102
{ACAD_REACTORS
330
47
102
}
330
47
100
AcDbScale
 70
     0
300
3/16" = 1'-0"
140
0.1875
141
12.0
290
     0
  0
SCALE
  5
60
102
{ACAD_REACTORS
330
47
102
}
330
47
100
AcDbScale
 70
     0
300
1/4" = 1'-0"
140
0.25
141
12.0
290
     0
  0
SCALE
  5
61
102
{ACAD_REACTORS
330
47
102
}
330
47
100
AcDbScale
 70
     0
300
3/8" = 1'-0"
140
0.375
141
12.0
290
     0
  0
SCALE
  5
62
102
{ACAD_REACTORS
330
47
102
}
330
47
100
AcDbScale
 70
     0
300
1/2" = 1'-0"
140
0.5
141
12.0
290
     0
  0
SCALE
  5
63
102
{ACAD_REACTORS
330
47
102
}
330
47
100
AcDbScale
 70
     0
300
3/4" = 1'-0"
140
0.75
141
12.0
290
     0
  0
SCALE
  5
64
102
{ACAD_REACTORS
330
47
102
}
330
47
100
AcDbScale
 70
     0
300
1" = 1'-0"
140
1.0
141
12.0
290
     0
  0
SCALE
  5
65
102
{ACAD_REACTORS
330
47
102
}
330
47
100
AcDbScale
 70
     0
300
1-1/2" = 1'-0"
140
1.5
141
12.0
290
     0
  0
SCALE
  5
66
102
{ACAD_REACTORS
330
47
102
}
330
47
100
AcDbScale
 70
     0
300
3" = 1'-0"
140
3.0
141
12.0
290
     0
  0
SCALE
  5
67
102
{ACAD_REACTORS
330
47
102
}
330
47
100
AcDbScale
 70
     0
300
6" = 1'-0"
140
6.0
141
12.0
290
     0
  0
SCALE
  5
68
102
{ACAD_REACTORS
330
47
102
}
330
47
100
AcDbScale
 70
     0
300
1'-0" = 1'-0"
140
12.0
141
12.0
290
     0
  0
TABLESTYLE
  5
6A
102
{ACAD_REACTORS
330
69
102
}
102
{ACAD_XDICTIONARY
360
2AA
102
}
330
69
100
AcDbTableStyle
  3
Standard
 70
     0
 71
     0
 40
0.06
 41
0.06
280
     0
281
     0
  7
Standard
140
4.5
170
     2
 62
     0
 63
   257
283
     0
274
    -2
284
     1
 64
     0
275
    -2
285
     1
 65
     0
276
    -2
286
     1
 66
     0
277
    -2
287
     1
 67
     0
278
    -2
288
     1
 68
     0
279
    -2
289
     1
 69
     0
  7
Standard
140
6.0
170
     5
 62
     0
 63
   257
283
     0
274
    -2
284
     1
 64
     0
275
    -2
285
     1
 65
     0
276
    -2
286
     1
 66
     0
277
    -2
287
     1
 67
     0
278
    -2
288
     1
 68
     0
279
    -2
289
     1
 69
     0
  7
Standard
140
4.5
170
     5
 62
     0
 63
   257
283
     0
274
    -2
284
     1
 64
     0
275
    -2
285
     1
 65
     0
276
    -2
286
     1
 66
     0
277
    -2
287
     1
 67
     0
278
    -2
288
     1
 68
     0
279
    -2
289
     1
 69
     0
  0
VISUALSTYLE
  5
2F
102
{ACAD_REACTORS
330
2A
102
}
102
{ACAD_XDICTIONARY
360
27C
102
}
330
2A
100
AcDbVisualStyle
  2
2dWireframe
 70
     4
 71
     0
 72
     2
 73
     0
 90
        0
 40
0.6
 41
30.0
 62
     5
 63
     7
421
 16777215
 74
     1
 91
        4
 64
     7
 65
   257
 75
     1
175
     1
 42
1.0
 92
        0
 66
   257
 43
1.0
 76
     1
 77
     6
 78
     2
 67
     7
 79
     5
170
     0
171
     0
290
     0
174
     0
 93
        1
 44
0.0
173
     0
291
     0
 45
0.0
1001
ACAD
1000
AcDbSavedByObjectVersion
1070
     0
  0
VISUALSTYLE
  5
32
102
{ACAD_REACTORS
330
2A
102
}
102
{ACAD_XDICTIONARY
360
282
102
}
330
2A
100
AcDbVisualStyle
  2
Basic
 70
     7
 71
     1
 72
     0
 73
     1
 90
        0
 40
0.6
 41
30.0
 62
     5
 63
     7
421
 16777215
 74
     0
 91
        4
 64
     7
 65
   257
 75
     1
175
     1
 42
1.0
 92
        8
 66
     7
 43
1.0
 76
     1
 77
     6
 78
     2
 67
     7
 79
     5
170
     0
171
     0
290
     0
174
     0
 93
        1
 44
0.0
173
     0
291
     1
 45
0.0
1001
ACAD
1000
AcDbSavedByObjectVersion
1070
     0
  0
VISUALSTYLE
  5
36
102
{ACAD_REACTORS
330
2A
102
}
102
{ACAD_XDICTIONARY
360
28A
102
}
330
2A
100
AcDbVisualStyle
  2
Brighten
 70
    12
 71
     2
 72
     2
 73
     0
 90
        0
 40
0.6
 41
30.0
 62
     5
 63
     7
421
 16777215
 74
     1
 91
        4
 64
     7
 65
   257
 75
     1
175
     1
 42
1.0
 92
        8
 66
     7
 43
1.0
 76
     1
 77
     6
 78
     2
 67
     7
 79
     5
170
     0
171
     0
290
     0
174
     0
 93
        1
 44
50.0
173
     0
291
     1
 45
0.0
1001
ACAD
1000
AcDbSavedByObjectVersion
1070
     0
  0
VISUALSTYLE
  5
3A
102
{ACAD_REACTORS
330
2A
102
}
102
{ACAD_XDICTIONARY
360
292
102
}
330
2A
100
AcDbVisualStyle
  2
ColorChange
 70
    16
 71
     2
 72
     2
 73
     3
 90
        0
 40
0.6
 41
30.0
 62
     5
 63
     8
421
  8421504
 74
     1
 91
        4
 64
     7
 65
   257
 75
     1
175
     1
 42
1.0
 92
        8
 66
     8
424
  8421504
 43
1.0
 76
     1
 77
     6
 78
     2
 67
     7
 79
     5
170
     0
171
     0
290
     0
174
     0
 93
        1
 44
0.0
173
     0
291
     1
 45
0.0
1001
ACAD
1000
AcDbSavedByObjectVersion
1070
     0
  0
VISUALSTYLE
  5
34
102
{ACAD_REACTORS
330
2A
102
}
102
{ACAD_XDICTIONARY
360
286
102
}
330
2A
100
AcDbVisualStyle
  2
Conceptual
 70
     9
 71
     3
 72
     2
 73
     0
 90
        0
 40
0.6
 41
30.0
 62
     5
 63
     7
421
 16777215
 74
     2
 91
        2
 64
     7
 65
   257
 75
     1
175
     1
 42
179.0
 92
        8
 66
     7
 43
1.0
 76
     1
 77
     6
 78
     2
 67
     7
 79
     3
170
     0
171
     0
290
     0
174
     0
 93
        1
 44
0.0
173
     0
291
     0
 45
0.0
1001
ACAD
1000
AcDbSavedByObjectVersion
1070
     0
  0
VISUALSTYLE
  5
35
102
{ACAD_REACTORS
330
2A
102
}
102
{ACAD_XDICTIONARY
360
288
102
}
330
2A
100
AcDbVisualStyle
  2
Dim
 70
    11
 71
     2
 72
     2
 73
     0
 90
        0
 40
0.6
 41
30.0
 62
     5
 63
     7
421
 16777215
 74
     1
 91
        4
 64
     7
 65
   257
 75
     1
175
     1
 42
1.0
 92
        8
 66
     7
 43
1.0
 76
     1
 77
     6
 78
     2
 67
     7
 79
     5
170
     0
171
     0
290
     0
174
     0
 93
        1
 44
-50.0
173
     0
291
     1
 45
0.0
1001
ACAD
1000
AcDbSavedByObjectVersion
1070
     0
  0
VISUALSTYLE
  5
3D
102
{ACAD_REACTORS
330
2A
102
}
102
{ACAD_XDICTIONARY
360
298
102
}
330
2A
100
AcDbVisualStyle
  2
EdgeColorOff
 70
    22
 71
     2
 72
     2
 73
     0
 90
        0
 40
0.6
 41
30.0
 62
     5
 63
     7
421
 16777215
 74
     1
 91
        4
 64
     7
 65
   257
 75
     1
175
     1
 42
1.0
 92
        8
 66
     7
 43
1.0
 76
     1
 77
     6
 78
     2
 67
     7
 79
     5
170
     0
171
     0
290
     0
174
     0
 93
        1
 44
0.0
173
     0
291
     1
 45
0.0
1001
ACAD
1000
AcDbSavedByObjectVersion
1070
     0
  0
VISUALSTYLE
  5
39
102
{ACAD_REACTORS
330
2A
102
}
102
{ACAD_XDICTIONARY
360
290
102
}
330
2A
100
AcDbVisualStyle
  2
Facepattern
 70
    15
 71
     2
 72
     2
 73
     0
 90
        0
 40
0.6
 41
30.0
 62
     5
 63
     7
421
 16777215
 74
     1
 91
        4
 64
     7
 65
   257
 75
     1
175
     1
 42
1.0
 92
        8
 66
     7
 43
1.0
 76
     1
 77
     6
 78
     2
 67
     7
 79
     5
170
     0
171
     0
290
     0
174
     0
 93
        1
 44
0.0
173
     0
291
     1
 45
0.0
1001
ACAD
1000
AcDbSavedByObjectVersion
1070
     0
  0
VISUALSTYLE
  5
2B
102
{ACAD_REACTORS
330
2A
102
}
102
{ACAD_XDICTIONARY
360
274
102
}
330
2A
100
AcDbVisualStyle
  2
Flat
 70
     0
 71
     2
 72
     1
 73
     1
 90
        2
 40
0.6
 41
30.0
 62
     5
 63
     7
421
 16777215
 74
     0
 91
        0
 64
     7
 65
   257
 75
     1
175
     1
 42
1.0
 92
        8
 66
     7
 43
1.0
 76
     1
 77
     6
 78
     2
 67
     7
 79
     5
170
     0
171
     0
290
     0
174
     0
 93
       13
 44
0.0
173
     0
291
     1
 45
0.0
1001
ACAD
1000
AcDbSavedByObjectVersion
1070
     0
  0
VISUALSTYLE
  5
2C
102
{ACAD_REACTORS
330
2A
102
}
102
{ACAD_XDICTIONARY
360
276
102
}
330
2A
100
AcDbVisualStyle
  2
FlatWithEdges
 70
     1
 71
     2
 72
     1
 73
     1
 90
        2
 40
0.6
 41
30.0
 62
     5
 63
     7
421
 16777215
 74
     1
 91
        0
 64
     7
 65
   257
 75
     1
175
     1
 42
1.0
 92
        0
 66
   257
 43
1.0
 76
     1
 77
     6
 78
     2
 67
     7
 79
     5
170
     0
171
     0
290
     0
174
     0
 93
       13
 44
0.0
173
     0
291
     1
 45
0.0
1001
ACAD
1000
AcDbSavedByObjectVersion
1070
     0
  0
VISUALSTYLE
  5
2D
102
{ACAD_REACTORS
330
2A
102
}
102
{ACAD_XDICTIONARY
360
278
102
}
330
2A
100
AcDbVisualStyle
  2
Gouraud
 70
     2
 71
     2
 72
     2
 73
     1
 90
        2
 40
0.6
 41
30.0
 62
     5
 63
     7
421
 16777215
 74
     0
 91
        0
 64
     7
 65
   257
 75
     1
175
     1
 42
1.0
 92
        0
 66
     7
 43
1.0
 76
     1
 77
     6
 78
     2
 67
     7
 79
     5
170
     0
171
     0
290
     0
174
     0
 93
       13
 44
0.0
173
     0
291
     1
 45
0.0
1001
ACAD
1000
AcDbSavedByObjectVersion
1070
     0
  0
VISUALSTYLE
  5
2E
102
{ACAD_REACTORS
330
2A
102
}
102
{ACAD_XDICTIONARY
360
27A
102
}
330
2A
100
AcDbVisualStyle
  2
GouraudWithEdges
 70
     3
 71
     2
 72
     2
 73
     1
 90
        2
 40
0.6
 41
30.0
 62
     5
 63
     7
421
 16777215
 74
     1
 91
        0
 64
     7
 65
   257
 75
     1
175
     1
 42
1.0
 92
        0
 66
   257
 43
1.0
 76
     1
 77
     6
 78
     2
 67
     7
 79
     5
170
     0
171
     0
290
     0
174
     0
 93
       13
 44
0.0
173
     0
291
     1
 45
0.0
1001
ACAD
1000
AcDbSavedByObjectVersion
1070
     0
  0
VISUALSTYLE
  5
31
102
{ACAD_REACTORS
330
2A
102
}
102
{ACAD_XDICTIONARY
360
280
102
}
330
2A
100
AcDbVisualStyle
  2
Hidden
 70
     6
 71
     1
 72
     2
 73
     2
 90
        0
 40
0.6
 41
30.0
 62
     5
 63
     7
421
 16777215
 74
     2
 91
        2
 64
     7
 65
   257
 75
     2
175
     1
 42
40.0
 92
        0
 66
   257
 43
1.0
 76
     1
 77
     6
 78
     2
 67
     7
 79
     3
170
     0
171
     0
290
     0
174
     0
 93
        1
 44
0.0
173
     0
291
     0
 45
0.0
1001
ACAD
1000
AcDbSavedByObjectVersion
1070
     0
  0
VISUALSTYLE
  5
3B
102
{ACAD_REACTORS
330
2A
102
}
102
{ACAD_XDICTIONARY
360
294
102
}
330
2A
100
AcDbVisualStyle
  2
JitterOff
 70
    20
 71
     2
 72
     2
 73
     0
 90
        0
 40
0.6
 41
30.0
 62
     5
 63
     7
421
 16777215
 74
     1
 91
        4
 64
     7
 65
   257
 75
     1
175
     1
 42
1.0
 92
       10
 66
     7
 43
1.0
 76
     1
 77
     6
 78
     2
 67
     7
 79
     5
170
     0
171
     0
290
     0
174
     0
 93
        1
 44
0.0
173
     0
291
     1
 45
0.0
1001
ACAD
1000
AcDbSavedByObjectVersion
1070
     0
  0
VISUALSTYLE
  5
38
102
{ACAD_REACTORS
330
2A
102
}
102
{ACAD_XDICTIONARY
360
28E
102
}
330
2A
100
AcDbVisualStyle
  2
Linepattern
 70
    14
 71
     2
 72
     2
 73
     0
 90
        0
 40
0.6
 41
30.0
 62
     5
 63
     7
421
 16777215
 74
     1
 91
        4
 64
     7
 65
   257
 75
     7
175
     7
 42
1.0
 92
        8
 66
     7
 43
1.0
 76
     1
 77
     6
 78
     2
 67
     7
 79
     5
170
     0
171
     0
290
     0
174
     0
 93
        1
 44
0.0
173
     0
291
     1
 45
0.0
1001
ACAD
1000
AcDbSavedByObjectVersion
1070
     0
  0
VISUALSTYLE
  5
3C
102
{ACAD_REACTORS
330
2A
102
}
102
{ACAD_XDICTIONARY
360
296
102
}
330
2A
100
AcDbVisualStyle
  2
OverhangOff
 70
    21
 71
     2
 72
     2
 73
     0
 90
        0
 40
0.6
 41
30.0
 62
     5
 63
     7
421
 16777215
 74
     1
 91
        4
 64
     7
 65
   257
 75
     1
175
     1
 42
1.0
 92
        9
 66
     7
 43
1.0
 76
     1
 77
     6
 78
     2
 67
     7
 79
     5
170
     0
171
     0
290
     0
174
     0
 93
        1
 44
0.0
173
     0
291
     1
 45
0.0
1001
ACAD
1000
AcDbSavedByObjectVersion
1070
     0
  0
VISUALSTYLE
  5
33
102
{ACAD_REACTORS
330
2A
102
}
102
{ACAD_XDICTIONARY
360
284
102
}
330
2A
100
AcDbVisualStyle
  2
Realistic
 70
     8
 71
     2
 72
     3
 73
     0
 90
        2
 40
0.6
 41
30.0
 62
     5
 63
     7
421
 16777215
 74
     0
 91
        0
 64
     7
 65
   257
 75
     1
175
     1
 42
1.0
 92
        8
 66
   257
 43
1.0
 76
     1
 77
     6
 78
     2
 67
     7
 79
     3
170
     0
171
     0
290
     0
174
     0
 93
       13
 44
0.0
173
     0
291
     0
 45
0.0
1001
ACAD
1000
AcDbSavedByObjectVersion
1070
     0
  0
VISUALSTYLE
  5
42
102
{ACAD_REACTORS
330
2A
102
}
102
{ACAD_XDICTIONARY
360
2A2
102
}
330
2A
100
AcDbVisualStyle
  2
Shaded
 70
    27
 71
     2
 72
     2
 73
     1
 90
        2
 40
0.6
 41
30.0
 62
     5
 63
     7
421
 16777215
 74
     0
 91
        4
 64
     7
 65
   257
 75
     1
175
     1
 42
1.0
 92
        8
 66
   257
 43
1.0
 76
     1
 77
     6
 78
     2
 67
     8
425
  7895160
 79
     3
170
     0
171
     0
290
     0
174
     0
 93
        5
 44
0.0
173
     0
291
     0
 45
0.0
1001
ACAD
1000
AcDbSavedByObjectVersion
1070
     0
  0
VISUALSTYLE
  5
41
102
{ACAD_REACTORS
330
2A
102
}
102
{ACAD_XDICTIONARY
360
2A0
102
}
330
2A
100
AcDbVisualStyle
  2
Shaded with edges
 70
    26
 71
     2
 72
     2
 73
     1
 90
        2
 40
0.6
 41
30.0
 62
     5
 63
     7
421
 16777215
 74
     1
 91
       10
 64
     7
 65
   257
 75
     2
175
     1
 42
1.0
 92
        8
 66
   257
 43
1.0
 76
     1
 77
     6
 78
     2
 67
     7
 79
     3
170
     0
171
     0
290
     0
174
     0
 93
        5
 44
0.0
173
     0
291
     0
 45
0.0
1001
ACAD
1000
AcDbSavedByObjectVersion
1070
     0
  0
VISUALSTYLE
  5
3E
102
{ACAD_REACTORS
330
2A
102
}
102
{ACAD_XDICTIONARY
360
29A
102
}
330
2A
100
AcDbVisualStyle
  2
Shades of Gray
 70
    23
 71
     2
 72
     2
 73
     3
 90
        0
 40
0.6
 41
30.0
 62
     5
 63
     7
421
 16777215
 74
     2
 91
        2
 64
     7
 65
     7
 75
     1
175
     1
 42
40.0
 92
        8
 66
     7
 43
1.0
 76
     1
 77
     6
 78
     2
 67
     7
 79
     3
170
     0
171
     0
290
     0
174
     0
 93
        1
 44
0.0
173
     0
291
     0
 45
0.0
1001
ACAD
1000
AcDbSavedByObjectVersion
1070
     0
  0
VISUALSTYLE
  5
3F
102
{ACAD_REACTORS
330
2A
102
}
102
{ACAD_XDICTIONARY
360
29C
102
}
330
2A
100
AcDbVisualStyle
  2
Sketchy
 70
    24
 71
     1
 72
     2
 73
     2
 90
        0
 40
0.6
 41
30.0
 62
     5
 63
     7
421
 16777215
 74
     2
 91
        2
 64
     7
 65
     7
 75
     1
175
     1
 42
40.0
 92
       11
 66
     7
 43
1.0
 76
     1
 77
     6
 78
     2
 67
     7
 79
     6
170
     0
171
     0
290
     0
174
     0
 93
        1
 44
0.0
173
     0
291
     0
 45
0.0
1001
ACAD
1000
AcDbSavedByObjectVersion
1070
     0
  0
VISUALSTYLE
  5
37
102
{ACAD_REACTORS
330
2A
102
}
102
{ACAD_XDICTIONARY
360
28C
102
}
330
2A
100
AcDbVisualStyle
  2
Thicken
 70
    13
 71
     2
 72
     2
 73
     0
 90
        0
 40
0.6
 41
30.0
 62
     5
 63
     7
421
 16777215
 74
     1
 91
        4
 64
     7
 65
   257
 75
     1
175
     1
 42
1.0
 92
       12
 66
     7
 43
1.0
 76
     1
 77
     6
 78
     2
 67
     7
 79
     5
170
     0
171
     0
290
     0
174
     0
 93
        1
 44
0.0
173
     0
291
     1
 45
0.0
1001
ACAD
1000
AcDbSavedByObjectVersion
1070
     0
  0
VISUALSTYLE
  5
30
102
{ACAD_REACTORS
330
2A
102
}
102
{ACAD_XDICTIONARY
360
27E
102
}
330
2A
100
AcDbVisualStyle
  2
Wireframe
 70
     5
 71
     0
 72
     2
 73
     0
 90
        0
 40
0.6
 41
30.0
 62
     5
 63
     7
421
 16777215
 74
     1
 91
        4
 64
     7
 65
   257
 75
     1
175
     1
 42
1.0
 92
        0
 66
   257
 43
1.0
 76
     1
 77
     6
 78
     2
 67
     7
 79
     3
170
     0
171
     0
290
     0
174
     0
 93
        1
 44
0.0
173
     0
291
     0
 45
0.0
1001
ACAD
1000
AcDbSavedByObjectVersion
1070
     0
  0
VISUALSTYLE
  5
40
102
{ACAD_REACTORS
330
2A
102
}
102
{ACAD_XDICTIONARY
360
29E
102
}
330
2A
100
AcDbVisualStyle
  2
X-Ray
 70
    25
 71
     2
 72
     2
 73
     1
 90
        1
 40
0.5
 41
30.0
 62
     5
 63
     7
421
 16777215
 74
     1
 91
        0
 64
     7
 65
   257
 75
     1
175
     1
 42
1.0
 92
        8
 66
     7
 43
1.0
 76
     1
 77
     6
 78
     2
 67
     7
 79
     3
170
     0
171
     0
290
     0
174
     0
 93
       13
 44
0.0
173
     0
291
     0
 45
0.0
1001
ACAD
1000
AcDbSavedByObjectVersion
1070
     0
  0
DICTIONARYVAR
  5
271
102
{ACAD_REACTORS
330
270
102
}
330
270
100
DictionaryVariables
280
     0
  1
1:1
  0
DICTIONARYVAR
  5
2B5
102
{ACAD_REACTORS
330
270
102
}
330
270
100
DictionaryVariables
280
     0
  1
3.500000
  0
DICTIONARYVAR
  5
2B6
102
{ACAD_REACTORS
330
270
102
}
330
270
100
DictionaryVariables
280
     0
  1
acadiso.lin
  0
DICTIONARYVAR
  5
2B2
102
{ACAD_REACTORS
330
270
102
}
330
270
100
DictionaryVariables
280
     0
  1
Standard
  0
DICTIONARYVAR
  5
2B1
102
{ACAD_REACTORS
330
270
102
}
330
270
100
DictionaryVariables
280
     0
  1
Standard
  0
DICTIONARYVAR
  5
272
102
{ACAD_REACTORS
330
270
102
}
330
270
100
DictionaryVariables
280
     0
  1
1
  0
DICTIONARYVAR
  5
273
102
{ACAD_REACTORS
330
270
102
}
330
270
100
DictionaryVariables
280
     0
  1
2
  0
DICTIONARY
  5
2A6
330
45
100
AcDbDictionary
280
     1
281
     1
  3
ACAD_XREC_ROUNDTRIP
360
2A7
  0
DICTIONARY
  5
2A4
330
44
100
AcDbDictionary
280
     1
281
     1
  3
ACAD_XREC_ROUNDTRIP
360
2A5
  0
DICTIONARY
  5
2A8
330
46
100
AcDbDictionary
280
     1
281
     1
  3
ACAD_XREC_ROUNDTRIP
360
2A9
  0
DICTIONARY
  5
2AE
330
6C
100
AcDbDictionary
280
     1
281
     1
  3
ACAD_XREC_ROUNDTRIP
360
2AF
  0
DICTIONARY
  5
2AA
330
6A
100
AcDbDictionary
280
     1
281
     1
  3
ACAD_ROUNDTRIP_2008_TABLESTYLE_CELLSTYLEMAP
360
2AC
  3
ACAD_XREC_ROUNDTRIP
360
2AB
  0
DICTIONARY
  5
27C
330
2F
100
AcDbDictionary
280
     1
281
     1
  3
ACAD_XREC_ROUNDTRIP
360
27D
  0
DICTIONARY
  5
282
330
32
100
AcDbDictionary
280
     1
281
     1
  3
ACAD_XREC_ROUNDTRIP
360
283
  0
DICTIONARY
  5
28A
330
36
100
AcDbDictionary
280
     1
281
     1
  3
ACAD_XREC_ROUNDTRIP
360
28B
  0
DICTIONARY
  5
292
330
3A
100
AcDbDictionary
280
     1
281
     1
  3
ACAD_XREC_ROUNDTRIP
360
293
  0
DICTIONARY
  5
286
330
34
100
AcDbDictionary
280
     1
281
     1
  3
ACAD_XREC_ROUNDTRIP
360
287
  0
DICTIONARY
  5
288
330
35
100
AcDbDictionary
280
     1
281
     1
  3
ACAD_XREC_ROUNDTRIP
360
289
  0
DICTIONARY
  5
298
330
3D
100
AcDbDictionary
280
     1
281
     1
  3
ACAD_XREC_ROUNDTRIP
360
299
  0
DICTIONARY
  5
290
330
39
100
AcDbDictionary
280
     1
281
     1
  3
ACAD_XREC_ROUNDTRIP
360
291
  0
DICTIONARY
  5
274
330
2B
100
AcDbDictionary
280
     1
281
     1
  3
ACAD_XREC_ROUNDTRIP
360
275
  0
DICTIONARY
  5
276
330
2C
100
AcDbDictionary
280
     1
281
     1
  3
ACAD_XREC_ROUNDTRIP
360
277
  0
DICTIONARY
  5
278
330
2D
100
AcDbDictionary
280
     1
281
     1
  3
ACAD_XREC_ROUNDTRIP
360
279
  0
DICTIONARY
  5
27A
330
2E
100
AcDbDictionary
280
     1
281
     1
  3
ACAD_XREC_ROUNDTRIP
360
27B
  0
DICTIONARY
  5
280
330
31
100
AcDbDictionary
280
     1
281
     1
  3
ACAD_XREC_ROUNDTRIP
360
281
  0
DICTIONARY
  5
294
330
3B
100
AcDbDictionary
280
     1
281
     1
  3
ACAD_XREC_ROUNDTRIP
360
295
  0
DICTIONARY
  5
28E
330
38
100
AcDbDictionary
280
     1
281
     1
  3
ACAD_XREC_ROUNDTRIP
360
28F
  0
DICTIONARY
  5
296
330
3C
100
AcDbDictionary
280
     1
281
     1
  3
ACAD_XREC_ROUNDTRIP
360
297
  0
DICTIONARY
  5
284
330
33
100
AcDbDictionary
280
     1
281
     1
  3
ACAD_XREC_ROUNDTRIP
360
285
  0
DICTIONARY
  5
2A2
330
42
100
AcDbDictionary
280
     1
281
     1
  3
ACAD_XREC_ROUNDTRIP
360
2A3
  0
DICTIONARY
  5
2A0
330
41
100
AcDbDictionary
280
     1
281
     1
  3
ACAD_XREC_ROUNDTRIP
360
2A1
  0
DICTIONARY
  5
29A
330
3E
100
AcDbDictionary
280
     1
281
     1
  3
ACAD_XREC_ROUNDTRIP
360
29B
  0
DICTIONARY
  5
29C
330
3F
100
AcDbDictionary
280
     1
281
     1
  3
ACAD_XREC_ROUNDTRIP
360
29D
  0
DICTIONARY
  5
28C
330
37
100
AcDbDictionary
280
     1
281
     1
  3
ACAD_XREC_ROUNDTRIP
360
28D
  0
DICTIONARY
  5
27E
330
30
100
AcDbDictionary
280
     1
281
     1
  3
ACAD_XREC_ROUNDTRIP
360
27F
  0
DICTIONARY
  5
29E
330
40
100
AcDbDictionary
280
     1
281
     1
  3
ACAD_XREC_ROUNDTRIP
360
29F
  0
XRECORD
  5
2A7
102
{ACAD_REACTORS
330
2A6
102
}
330
2A6
100
AcDbXrecord
280
     1
102
MATERIAL
148
0.0
149
0.0
149
0.0
 93
        0
 94
      127
282
     0
 72
     1
 77
     1
171
     1
175
     1
179
     1
273
     0
  0
XRECORD
  5
2A5
102
{ACAD_REACTORS
330
2A4
102
}
330
2A4
100
AcDbXrecord
280
     1
102
MATERIAL
148
0.0
149
0.0
149
0.0
 93
        0
 94
      127
282
     0
 72
     1
 77
     1
171
     1
175
     1
179
     1
273
     0
  0
XRECORD
  5
2A9
102
{ACAD_REACTORS
330
2A8
102
}
330
2A8
100
AcDbXrecord
280
     1
102
MATERIAL
148
0.0
149
0.0
149
0.0
 93
        0
 94
      127
282
     0
 72
     1
 77
     1
171
     1
175
     1
179
     1
273
     0
  0
XRECORD
  5
2AF
102
{ACAD_REACTORS
330
2AE
102
}
330
2AE
100
AcDbXrecord
280
     1
102
ACAD_ROUNDTRIP_2010_MLEADER_STYLE
  0
CELLSTYLEMAP
  5
2AC
102
{ACAD_REACTORS
330
2AA
102
}
330
2AA
100
AcDbCellStyleMap
 90
        3
300
CELLSTYLE
  1
TABLEFORMAT_BEGIN
 90
        5
170
     1
 91
        0
 92
    32768
 62
   257
 93
        1
300
CONTENTFORMAT
  1
CONTENTFORMAT_BEGIN
 90
        0
 91
        0
 92
        4
 93
        0
300

 40
0.0
140
1.0
 94
        5
 62
     0
340
11
144
6.0
309
CONTENTFORMAT_END
171
     1
301
MARGIN
  1
CELLMARGIN_BEGIN
 40
1.5
 40
1.5
 40
1.5
 40
1.5
 40
1.5
 40
1.5
309
CELLMARGIN_END
 94
        6
 95
        1
302
GRIDFORMAT
  1
GRIDFORMAT_BEGIN
 90
        0
 91
        1
 62
     0
 92
       -2
340
14
 93
        0
 40
0.045
309
GRIDFORMAT_END
 95
        2
302
GRIDFORMAT
  1
GRIDFORMAT_BEGIN
 90
        0
 91
        1
 62
     0
 92
       -2
340
14
 93
        0
 40
0.045
309
GRIDFORMAT_END
 95
        4
302
GRIDFORMAT
  1
GRIDFORMAT_BEGIN
 90
        0
 91
        1
 62
     0
 92
       -2
340
14
 93
        0
 40
0.045
309
GRIDFORMAT_END
 95
        8
302
GRIDFORMAT
  1
GRIDFORMAT_BEGIN
 90
        0
 91
        1
 62
     0
 92
       -2
340
14
 93
        0
 40
0.045
309
GRIDFORMAT_END
 95
       16
302
GRIDFORMAT
  1
GRIDFORMAT_BEGIN
 90
        0
 91
        1
 62
     0
 92
       -2
340
14
 93
        0
 40
0.045
309
GRIDFORMAT_END
 95
       32
302
GRIDFORMAT
  1
GRIDFORMAT_BEGIN
 90
        0
 91
        1
 62
     0
 92
       -2
340
14
 93
        0
 40
0.045
309
GRIDFORMAT_END
309
TABLEFORMAT_END
  1
CELLSTYLE_BEGIN
 90
        1
 91
        1
300
_TITLE
309
CELLSTYLE_END
300
CELLSTYLE
  1
TABLEFORMAT_BEGIN
 90
        5
170
     1
 91
        0
 92
        0
 62
   257
 93
        1
300
CONTENTFORMAT
  1
CONTENTFORMAT_BEGIN
 90
        0
 91
        0
 92
        4
 93
        0
300

 40
0.0
140
1.0
 94
        5
 62
     0
340
11
144
4.5
309
CONTENTFORMAT_END
171
     1
301
MARGIN
  1
CELLMARGIN_BEGIN
 40
1.5
 40
1.5
 40
1.5
 40
1.5
 40
1.5
 40
1.5
309
CELLMARGIN_END
 94
        6
 95
        1
302
GRIDFORMAT
  1
GRIDFORMAT_BEGIN
 90
        0
 91
        1
 62
     0
 92
       -2
340
14
 93
        0
 40
0.045
309
GRIDFORMAT_END
 95
        2
302
GRIDFORMAT
  1
GRIDFORMAT_BEGIN
 90
        0
 91
        1
 62
     0
 92
       -2
340
14
 93
        0
 40
0.045
309
GRIDFORMAT_END
 95
        4
302
GRIDFORMAT
  1
GRIDFORMAT_BEGIN
 90
        0
 91
        1
 62
     0
 92
       -2
340
14
 93
        0
 40
0.045
309
GRIDFORMAT_END
 95
        8
302
GRIDFORMAT
  1
GRIDFORMAT_BEGIN
 90
        0
 91
        1
 62
     0
 92
       -2
340
14
 93
        0
 40
0.045
309
GRIDFORMAT_END
 95
       16
302
GRIDFORMAT
  1
GRIDFORMAT_BEGIN
 90
        0
 91
        1
 62
     0
 92
       -2
340
14
 93
        0
 40
0.045
309
GRIDFORMAT_END
 95
       32
302
GRIDFORMAT
  1
GRIDFORMAT_BEGIN
 90
        0
 91
        1
 62
     0
 92
       -2
340
14
 93
        0
 40
0.045
309
GRIDFORMAT_END
309
TABLEFORMAT_END
  1
CELLSTYLE_BEGIN
 90
        2
 91
        1
300
_HEADER
309
CELLSTYLE_END
300
CELLSTYLE
  1
TABLEFORMAT_BEGIN
 90
        5
170
     1
 91
        0
 92
        0
 62
   257
 93
        1
300
CONTENTFORMAT
  1
CONTENTFORMAT_BEGIN
 90
        0
 91
        0
 92
        4
 93
        0
300

 40
0.0
140
1.0
 94
        2
 62
     0
340
11
144
4.5
309
CONTENTFORMAT_END
171
     1
301
MARGIN
  1
CELLMARGIN_BEGIN
 40
1.5
 40
1.5
 40
1.5
 40
1.5
 40
1.5
 40
1.5
309
CELLMARGIN_END
 94
        6
 95
        1
302
GRIDFORMAT
  1
GRIDFORMAT_BEGIN
 90
        0
 91
        1
 62
     0
 92
       -2
340
14
 93
        0
 40
0.045
309
GRIDFORMAT_END
 95
        2
302
GRIDFORMAT
  1
GRIDFORMAT_BEGIN
 90
        0
 91
        1
 62
     0
 92
       -2
340
14
 93
        0
 40
0.045
309
GRIDFORMAT_END
 95
        4
302
GRIDFORMAT
  1
GRIDFORMAT_BEGIN
 90
        0
 91
        1
 62
     0
 92
       -2
340
14
 93
        0
 40
0.045
309
GRIDFORMAT_END
 95
        8
302
GRIDFORMAT
  1
GRIDFORMAT_BEGIN
 90
        0
 91
        1
 62
     0
 92
       -2
340
14
 93
        0
 40
0.045
309
GRIDFORMAT_END
 95
       16
302
GRIDFORMAT
  1
GRIDFORMAT_BEGIN
 90
        0
 91
        1
 62
     0
 92
       -2
340
14
 93
        0
 40
0.045
309
GRIDFORMAT_END
 95
       32
302
GRIDFORMAT
  1
GRIDFORMAT_BEGIN
 90
        0
 91
        1
 62
     0
 92
       -2
340
14
 93
        0
 40
0.045
309
GRIDFORMAT_END
309
TABLEFORMAT_END
  1
CELLSTYLE_BEGIN
 90
        3
 91
        2
300
_DATA
309
CELLSTYLE_END
  0
XRECORD
  5
2AB
102
{ACAD_REACTORS
330
2AA
102
}
330
2AA
100
AcDbXrecord
280
     1
102
ACAD_ROUNDTRIP_PRE2007_TABLESTYLE
 90
        4
 91
        0
  1

 92
        4
 93
        0
  2

 94
        4
 95
        0
  3

  0
XRECORD
  5
27D
102
{ACAD_REACTORS
330
27C
102
}
330
27C
100
AcDbXrecord
280
     1
102
RTVSPropertyOp0
 70
     1
102
RTVSPropertyOp1
 70
     1
102
RTVSPropertyOp2
 70
     1
102
RTVSPropertyOp3
 70
     1
102
RTVSPropertyOp4
 70
     1
102
RTVSPropertyOp5
 70
     1
102
RTVSPropertyOp6
 70
     1
102
RTVSPropertyOp7
 70
     1
102
RTVSPropertyOp8
 70
     1
102
RTVSPropertyOp9
 70
     1
102
RTVSPropertyOp10
 70
     1
102
RTVSPropertyOp11
 70
     1
102
RTVSPropertyOp12
 70
     1
102
RTVSPropertyOp13
 70
     1
102
RTVSPropertyOp14
 70
     1
102
RTVSPropertyOp15
 70
     1
102
RTVSPropertyOp16
 70
     1
102
RTVSPropertyOp17
 70
     1
102
RTVSPropertyOp18
 70
     1
102
RTVSPropertyOp19
 70
     1
102
RTVSPropertyOp20
 70
     1
102
RTVSPropertyOp21
 70
     1
102
RTVSPropertyOp22
 70
     1
102
RTVSPropertyOp23
 70
     1
102
RTVSPropertyOp24
 70
     1
102
RTVSPropertyOp25
 70
     1
102
RTVSPropertyOp26
 70
     1
102
RTVSPropertyOp27
 70
     1
102
RTVSPropertyOp28
 70
     1
102
RTVSPropertyOp29
 70
     1
102
RTVSPropertyOp30
 70
     1
102
RTVSPropertyOp31
 70
     1
102
RTVSPropertyOp32
 70
     1
102
RTVSPropertyOp33
 70
     1
102
RTVSPropertyOp34
 70
     1
102
RTVSPropertyOp35
 70
     1
102
RTVSPropertyOp36
 70
     1
102
RTVSPropertyOp37
 70
     1
102
RTVSPropertyOp38
 70
     1
102
RTVSPropertyOp39
 70
     1
102
RTVSPropertyOp40
 70
     1
102
RTVSPropertyOp41
 70
     1
102
RTVSPropertyOp42
 70
     1
102
RTVSPropertyOp43
 70
     1
102
RTVSPropertyOp44
 70
     1
102
RTVSPropertyOp45
 70
     1
102
RTVSPropertyOp46
 70
     1
102
RTVSPropertyOp47
 70
     1
102
RTVSPropertyOp48
 70
     1
102
RTVSPropertyOp49
 70
     1
102
RTVSPropertyOp50
 70
     1
102
RTVSPropertyOp51
 70
     0
102
RTVSPropertyOp52
 70
     0
102
RTVSPropertyOp53
 70
     1
102
RTVSPropertyOp54
 70
     1
102
RTVSPropertyOp55
 70
     1
102
RTVSPropertyOp56
 70
     1
102
RTVSPropertyOp57
 70
     1
102
RTVSPost2010Prop28
280
     1
102
RTVSPost2010PropOp28
 70
     1
102
RTVSPost2010Prop29
280
     1
102
RTVSPost2010PropOp29
 70
     1
102
RTVSPost2010Prop30
280
     0
102
RTVSPost2010PropOp30
 70
     1
102
RTVSPost2010Prop31
280
     0
102
RTVSPost2010PropOp31
 70
     1
102
RTVSPost2010Prop32
280
     0
102
RTVSPost2010PropOp32
 70
     1
102
RTVSPost2010Prop33
280
     0
102
RTVSPost2010PropOp33
 70
     1
102
RTVSPost2010Prop34
280
     0
102
RTVSPost2010PropOp34
 70
     1
102
RTVSPost2010Prop35
280
     0
102
RTVSPost2010PropOp35
 70
     1
102
RTVSPost2010Prop36
280
     0
102
RTVSPost2010PropOp36
 70
     1
102
RTVSPost2010Prop37
 90
       50
102
RTVSPost2010PropOp37
 70
     1
102
RTVSPost2010Prop38
140
0.0
102
RTVSPost2010PropOp38
 70
     1
102
RTVSPost2010Prop39
140
1.0
102
RTVSPost2010PropOp39
 70
     1
102
RTVSPost2010Prop40
 90
        0
102
RTVSPost2010PropOp40
 70
     1
102
RTVSPost2010Prop41ColorIndex
 90
       18
102
RTVSPost2010Prop41ColorRGB
 90
        0
102
RTVSPost2010PropOp41
 70
     1
102
RTVSPost2010Prop42
 90
       50
102
RTVSPost2010PropOp42
 70
     1
102
RTVSPost2010Prop43
 90
        3
102
RTVSPost2010PropOp43
 70
     1
102
RTVSPost2010Prop44ColorIndex
 90
        5
102
RTVSPost2010Prop44ColorRGB
 90
      255
102
RTVSPost2010PropOp44
 70
     1
102
RTVSPost2010Prop45
280
     0
102
RTVSPost2010PropOp45
 70
     1
102
RTVSPost2010Prop46
 90
       50
102
RTVSPost2010PropOp46
 70
     1
102
RTVSPost2010Prop47
 90
       50
102
RTVSPost2010PropOp47
 70
     1
102
RTVSPost2010Prop48
 90
       50
102
RTVSPost2010PropOp48
 70
     1
102
RTVSPost2010Prop49
280
     0
102
RTVSPost2010PropOp49
 70
     1
102
RTVSPost2010Prop50
 90
       50
102
RTVSPost2010PropOp50
 70
     1
102
RTVSPost2010Prop51ColorIndex
 90
      256
102
RTVSPost2010Prop51ColorRGB
 90
-16777216
102
RTVSPost2010PropOp51
 70
     0
102
RTVSPost2010Prop52
140
1.0
102
RTVSPost2010PropOp52
 70
     0
102
RTVSPost2010Prop53
 90
        2
102
RTVSPost2010PropOp53
 70
     1
102
RTVSPost2010Prop54
  1
strokes_ogs.tif
102
RTVSPost2010PropOp54
 70
     1
102
RTVSPost2010Prop55
280
     0
102
RTVSPost2010PropOp55
 70
     1
102
RTVSPost2010Prop56
140
1.0
102
RTVSPost2010PropOp56
 70
     1
102
RTVSPost2010Prop57
140
1.0
102
RTVSPost2010PropOp57
 70
     1
  0
XRECORD
  5
283
102
{ACAD_REACTORS
330
282
102
}
330
282
100
AcDbXrecord
280
     1
102
RTVSPropertyOp0
 70
     1
102
RTVSPropertyOp1
 70
     1
102
RTVSPropertyOp2
 70
     1
102
RTVSPropertyOp3
 70
     1
102
RTVSPropertyOp4
 70
     1
102
RTVSPropertyOp5
 70
     1
102
RTVSPropertyOp6
 70
     1
102
RTVSPropertyOp7
 70
     1
102
RTVSPropertyOp8
 70
     1
102
RTVSPropertyOp9
 70
     1
102
RTVSPropertyOp10
 70
     1
102
RTVSPropertyOp11
 70
     1
102
RTVSPropertyOp12
 70
     1
102
RTVSPropertyOp13
 70
     1
102
RTVSPropertyOp14
 70
     1
102
RTVSPropertyOp15
 70
     1
102
RTVSPropertyOp16
 70
     1
102
RTVSPropertyOp17
 70
     1
102
RTVSPropertyOp18
 70
     1
102
RTVSPropertyOp19
 70
     1
102
RTVSPropertyOp20
 70
     1
102
RTVSPropertyOp21
 70
     1
102
RTVSPropertyOp22
 70
     1
102
RTVSPropertyOp23
 70
     1
102
RTVSPropertyOp24
 70
     1
102
RTVSPropertyOp25
 70
     1
102
RTVSPropertyOp26
 70
     1
102
RTVSPropertyOp27
 70
     1
102
RTVSPropertyOp28
 70
     1
102
RTVSPropertyOp29
 70
     1
102
RTVSPropertyOp30
 70
     1
102
RTVSPropertyOp31
 70
     1
102
RTVSPropertyOp32
 70
     1
102
RTVSPropertyOp33
 70
     1
102
RTVSPropertyOp34
 70
     1
102
RTVSPropertyOp35
 70
     1
102
RTVSPropertyOp36
 70
     1
102
RTVSPropertyOp37
 70
     1
102
RTVSPropertyOp38
 70
     1
102
RTVSPropertyOp39
 70
     1
102
RTVSPropertyOp40
 70
     1
102
RTVSPropertyOp41
 70
     1
102
RTVSPropertyOp42
 70
     1
102
RTVSPropertyOp43
 70
     1
102
RTVSPropertyOp44
 70
     1
102
RTVSPropertyOp45
 70
     1
102
RTVSPropertyOp46
 70
     1
102
RTVSPropertyOp47
 70
     1
102
RTVSPropertyOp48
 70
     1
102
RTVSPropertyOp49
 70
     1
102
RTVSPropertyOp50
 70
     1
102
RTVSPropertyOp51
 70
     0
102
RTVSPropertyOp52
 70
     0
102
RTVSPropertyOp53
 70
     1
102
RTVSPropertyOp54
 70
     1
102
RTVSPropertyOp55
 70
     1
102
RTVSPropertyOp56
 70
     1
102
RTVSPropertyOp57
 70
     1
102
RTVSPost2010Prop28
280
     0
102
RTVSPost2010PropOp28
 70
     1
102
RTVSPost2010Prop29
280
     1
102
RTVSPost2010PropOp29
 70
     1
102
RTVSPost2010Prop30
280
     1
102
RTVSPost2010PropOp30
 70
     1
102
RTVSPost2010Prop31
280
     0
102
RTVSPost2010PropOp31
 70
     1
102
RTVSPost2010Prop32
280
     0
102
RTVSPost2010PropOp32
 70
     1
102
RTVSPost2010Prop33
280
     0
102
RTVSPost2010PropOp33
 70
     1
102
RTVSPost2010Prop34
280
     0
102
RTVSPost2010PropOp34
 70
     1
102
RTVSPost2010Prop35
280
     0
102
RTVSPost2010PropOp35
 70
     1
102
RTVSPost2010Prop36
280
     0
102
RTVSPost2010PropOp36
 70
     1
102
RTVSPost2010Prop37
 90
       50
102
RTVSPost2010PropOp37
 70
     1
102
RTVSPost2010Prop38
140
0.0
102
RTVSPost2010PropOp38
 70
     1
102
RTVSPost2010Prop39
140
1.0
102
RTVSPost2010PropOp39
 70
     1
102
RTVSPost2010Prop40
 90
        0
102
RTVSPost2010PropOp40
 70
     1
102
RTVSPost2010Prop41ColorIndex
 90
       18
102
RTVSPost2010Prop41ColorRGB
 90
        0
102
RTVSPost2010PropOp41
 70
     1
102
RTVSPost2010Prop42
 90
       50
102
RTVSPost2010PropOp42
 70
     1
102
RTVSPost2010Prop43
 90
        3
102
RTVSPost2010PropOp43
 70
     1
102
RTVSPost2010Prop44ColorIndex
 90
        5
102
RTVSPost2010Prop44ColorRGB
 90
      255
102
RTVSPost2010PropOp44
 70
     1
102
RTVSPost2010Prop45
280
     0
102
RTVSPost2010PropOp45
 70
     1
102
RTVSPost2010Prop46
 90
       50
102
RTVSPost2010PropOp46
 70
     1
102
RTVSPost2010Prop47
 90
       50
102
RTVSPost2010PropOp47
 70
     1
102
RTVSPost2010Prop48
 90
       50
102
RTVSPost2010PropOp48
 70
     1
102
RTVSPost2010Prop49
280
     0
102
RTVSPost2010PropOp49
 70
     1
102
RTVSPost2010Prop50
 90
       50
102
RTVSPost2010PropOp50
 70
     1
102
RTVSPost2010Prop51ColorIndex
 90
      256
102
RTVSPost2010Prop51ColorRGB
 90
-16777216
102
RTVSPost2010PropOp51
 70
     0
102
RTVSPost2010Prop52
140
1.0
102
RTVSPost2010PropOp52
 70
     0
102
RTVSPost2010Prop53
 90
        2
102
RTVSPost2010PropOp53
 70
     1
102
RTVSPost2010Prop54
  1
strokes_ogs.tif
102
RTVSPost2010PropOp54
 70
     1
102
RTVSPost2010Prop55
280
     0
102
RTVSPost2010PropOp55
 70
     1
102
RTVSPost2010Prop56
140
1.0
102
RTVSPost2010PropOp56
 70
     1
102
RTVSPost2010Prop57
140
1.0
102
RTVSPost2010PropOp57
 70
     1
  0
XRECORD
  5
28B
102
{ACAD_REACTORS
330
28A
102
}
330
28A
100
AcDbXrecord
280
     1
102
RTVSPropertyOp0
 70
     1
102
RTVSPropertyOp1
 70
     1
102
RTVSPropertyOp2
 70
     1
102
RTVSPropertyOp3
 70
     1
102
RTVSPropertyOp4
 70
     1
102
RTVSPropertyOp5
 70
     1
102
RTVSPropertyOp6
 70
     1
102
RTVSPropertyOp7
 70
     1
102
RTVSPropertyOp8
 70
     1
102
RTVSPropertyOp9
 70
     1
102
RTVSPropertyOp10
 70
     1
102
RTVSPropertyOp11
 70
     1
102
RTVSPropertyOp12
 70
     1
102
RTVSPropertyOp13
 70
     1
102
RTVSPropertyOp14
 70
     1
102
RTVSPropertyOp15
 70
     1
102
RTVSPropertyOp16
 70
     1
102
RTVSPropertyOp17
 70
     1
102
RTVSPropertyOp18
 70
     1
102
RTVSPropertyOp19
 70
     1
102
RTVSPropertyOp20
 70
     1
102
RTVSPropertyOp21
 70
     1
102
RTVSPropertyOp22
 70
     1
102
RTVSPropertyOp23
 70
     1
102
RTVSPropertyOp24
 70
     1
102
RTVSPropertyOp25
 70
     1
102
RTVSPropertyOp26
 70
     1
102
RTVSPropertyOp27
 70
     1
102
RTVSPropertyOp28
 70
     1
102
RTVSPropertyOp29
 70
     1
102
RTVSPropertyOp30
 70
     1
102
RTVSPropertyOp31
 70
     1
102
RTVSPropertyOp32
 70
     1
102
RTVSPropertyOp33
 70
     1
102
RTVSPropertyOp34
 70
     1
102
RTVSPropertyOp35
 70
     1
102
RTVSPropertyOp36
 70
     1
102
RTVSPropertyOp37
 70
     1
102
RTVSPropertyOp38
 70
     1
102
RTVSPropertyOp39
 70
     1
102
RTVSPropertyOp40
 70
     1
102
RTVSPropertyOp41
 70
     1
102
RTVSPropertyOp42
 70
     1
102
RTVSPropertyOp43
 70
     1
102
RTVSPropertyOp44
 70
     1
102
RTVSPropertyOp45
 70
     1
102
RTVSPropertyOp46
 70
     1
102
RTVSPropertyOp47
 70
     1
102
RTVSPropertyOp48
 70
     1
102
RTVSPropertyOp49
 70
     1
102
RTVSPropertyOp50
 70
     1
102
RTVSPropertyOp51
 70
     0
102
RTVSPropertyOp52
 70
     0
102
RTVSPropertyOp53
 70
     1
102
RTVSPropertyOp54
 70
     1
102
RTVSPropertyOp55
 70
     1
102
RTVSPropertyOp56
 70
     1
102
RTVSPropertyOp57
 70
     1
102
RTVSPost2010Prop28
280
     0
102
RTVSPost2010PropOp28
 70
     1
102
RTVSPost2010Prop29
280
     1
102
RTVSPost2010PropOp29
 70
     1
102
RTVSPost2010Prop30
280
     1
102
RTVSPost2010PropOp30
 70
     1
102
RTVSPost2010Prop31
280
     0
102
RTVSPost2010PropOp31
 70
     1
102
RTVSPost2010Prop32
280
     0
102
RTVSPost2010PropOp32
 70
     1
102
RTVSPost2010Prop33
280
     0
102
RTVSPost2010PropOp33
 70
     1
102
RTVSPost2010Prop34
280
     0
102
RTVSPost2010PropOp34
 70
     1
102
RTVSPost2010Prop35
280
     0
102
RTVSPost2010PropOp35
 70
     1
102
RTVSPost2010Prop36
280
     0
102
RTVSPost2010PropOp36
 70
     1
102
RTVSPost2010Prop37
 90
       50
102
RTVSPost2010PropOp37
 70
     1
102
RTVSPost2010Prop38
140
0.0
102
RTVSPost2010PropOp38
 70
     1
102
RTVSPost2010Prop39
140
1.0
102
RTVSPost2010PropOp39
 70
     1
102
RTVSPost2010Prop40
 90
        0
102
RTVSPost2010PropOp40
 70
     1
102
RTVSPost2010Prop41ColorIndex
 90
       18
102
RTVSPost2010Prop41ColorRGB
 90
        0
102
RTVSPost2010PropOp41
 70
     1
102
RTVSPost2010Prop42
 90
       50
102
RTVSPost2010PropOp42
 70
     1
102
RTVSPost2010Prop43
 90
        3
102
RTVSPost2010PropOp43
 70
     1
102
RTVSPost2010Prop44ColorIndex
 90
        5
102
RTVSPost2010Prop44ColorRGB
 90
      255
102
RTVSPost2010PropOp44
 70
     1
102
RTVSPost2010Prop45
280
     0
102
RTVSPost2010PropOp45
 70
     1
102
RTVSPost2010Prop46
 90
       50
102
RTVSPost2010PropOp46
 70
     1
102
RTVSPost2010Prop47
 90
       50
102
RTVSPost2010PropOp47
 70
     1
102
RTVSPost2010Prop48
 90
       50
102
RTVSPost2010PropOp48
 70
     1
102
RTVSPost2010Prop49
280
     0
102
RTVSPost2010PropOp49
 70
     1
102
RTVSPost2010Prop50
 90
       50
102
RTVSPost2010PropOp50
 70
     1
102
RTVSPost2010Prop51ColorIndex
 90
      256
102
RTVSPost2010Prop51ColorRGB
 90
-16777216
102
RTVSPost2010PropOp51
 70
     0
102
RTVSPost2010Prop52
140
1.0
102
RTVSPost2010PropOp52
 70
     0
102
RTVSPost2010Prop53
 90
        2
102
RTVSPost2010PropOp53
 70
     1
102
RTVSPost2010Prop54
  1
strokes_ogs.tif
102
RTVSPost2010PropOp54
 70
     1
102
RTVSPost2010Prop55
280
     0
102
RTVSPost2010PropOp55
 70
     1
102
RTVSPost2010Prop56
140
1.0
102
RTVSPost2010PropOp56
 70
     1
102
RTVSPost2010Prop57
140
1.0
102
RTVSPost2010PropOp57
 70
     1
  0
XRECORD
  5
293
102
{ACAD_REACTORS
330
292
102
}
330
292
100
AcDbXrecord
280
     1
102
RTVSPropertyOp0
 70
     1
102
RTVSPropertyOp1
 70
     1
102
RTVSPropertyOp2
 70
     1
102
RTVSPropertyOp3
 70
     1
102
RTVSPropertyOp4
 70
     1
102
RTVSPropertyOp5
 70
     1
102
RTVSPropertyOp6
 70
     1
102
RTVSPropertyOp7
 70
     1
102
RTVSPropertyOp8
 70
     1
102
RTVSPropertyOp9
 70
     1
102
RTVSPropertyOp10
 70
     1
102
RTVSPropertyOp11
 70
     1
102
RTVSPropertyOp12
 70
     1
102
RTVSPropertyOp13
 70
     1
102
RTVSPropertyOp14
 70
     1
102
RTVSPropertyOp15
 70
     1
102
RTVSPropertyOp16
 70
     1
102
RTVSPropertyOp17
 70
     1
102
RTVSPropertyOp18
 70
     1
102
RTVSPropertyOp19
 70
     1
102
RTVSPropertyOp20
 70
     1
102
RTVSPropertyOp21
 70
     1
102
RTVSPropertyOp22
 70
     1
102
RTVSPropertyOp23
 70
     1
102
RTVSPropertyOp24
 70
     1
102
RTVSPropertyOp25
 70
     1
102
RTVSPropertyOp26
 70
     1
102
RTVSPropertyOp27
 70
     1
102
RTVSPropertyOp28
 70
     1
102
RTVSPropertyOp29
 70
     1
102
RTVSPropertyOp30
 70
     1
102
RTVSPropertyOp31
 70
     1
102
RTVSPropertyOp32
 70
     1
102
RTVSPropertyOp33
 70
     1
102
RTVSPropertyOp34
 70
     1
102
RTVSPropertyOp35
 70
     1
102
RTVSPropertyOp36
 70
     1
102
RTVSPropertyOp37
 70
     1
102
RTVSPropertyOp38
 70
     1
102
RTVSPropertyOp39
 70
     1
102
RTVSPropertyOp40
 70
     1
102
RTVSPropertyOp41
 70
     1
102
RTVSPropertyOp42
 70
     1
102
RTVSPropertyOp43
 70
     1
102
RTVSPropertyOp44
 70
     1
102
RTVSPropertyOp45
 70
     1
102
RTVSPropertyOp46
 70
     1
102
RTVSPropertyOp47
 70
     1
102
RTVSPropertyOp48
 70
     1
102
RTVSPropertyOp49
 70
     1
102
RTVSPropertyOp50
 70
     1
102
RTVSPropertyOp51
 70
     0
102
RTVSPropertyOp52
 70
     0
102
RTVSPropertyOp53
 70
     1
102
RTVSPropertyOp54
 70
     1
102
RTVSPropertyOp55
 70
     1
102
RTVSPropertyOp56
 70
     1
102
RTVSPropertyOp57
 70
     1
102
RTVSPost2010Prop28
280
     0
102
RTVSPost2010PropOp28
 70
     1
102
RTVSPost2010Prop29
280
     1
102
RTVSPost2010PropOp29
 70
     1
102
RTVSPost2010Prop30
280
     1
102
RTVSPost2010PropOp30
 70
     1
102
RTVSPost2010Prop31
280
     0
102
RTVSPost2010PropOp31
 70
     1
102
RTVSPost2010Prop32
280
     0
102
RTVSPost2010PropOp32
 70
     1
102
RTVSPost2010Prop33
280
     0
102
RTVSPost2010PropOp33
 70
     1
102
RTVSPost2010Prop34
280
     0
102
RTVSPost2010PropOp34
 70
     1
102
RTVSPost2010Prop35
280
     0
102
RTVSPost2010PropOp35
 70
     1
102
RTVSPost2010Prop36
280
     0
102
RTVSPost2010PropOp36
 70
     1
102
RTVSPost2010Prop37
 90
       50
102
RTVSPost2010PropOp37
 70
     1
102
RTVSPost2010Prop38
140
0.0
102
RTVSPost2010PropOp38
 70
     1
102
RTVSPost2010Prop39
140
1.0
102
RTVSPost2010PropOp39
 70
     1
102
RTVSPost2010Prop40
 90
        0
102
RTVSPost2010PropOp40
 70
     1
102
RTVSPost2010Prop41ColorIndex
 90
       18
102
RTVSPost2010Prop41ColorRGB
 90
        0
102
RTVSPost2010PropOp41
 70
     1
102
RTVSPost2010Prop42
 90
       50
102
RTVSPost2010PropOp42
 70
     1
102
RTVSPost2010Prop43
 90
        3
102
RTVSPost2010PropOp43
 70
     1
102
RTVSPost2010Prop44ColorIndex
 90
        5
102
RTVSPost2010Prop44ColorRGB
 90
      255
102
RTVSPost2010PropOp44
 70
     1
102
RTVSPost2010Prop45
280
     0
102
RTVSPost2010PropOp45
 70
     1
102
RTVSPost2010Prop46
 90
       50
102
RTVSPost2010PropOp46
 70
     1
102
RTVSPost2010Prop47
 90
       50
102
RTVSPost2010PropOp47
 70
     1
102
RTVSPost2010Prop48
 90
       50
102
RTVSPost2010PropOp48
 70
     1
102
RTVSPost2010Prop49
280
     0
102
RTVSPost2010PropOp49
 70
     1
102
RTVSPost2010Prop50
 90
       50
102
RTVSPost2010PropOp50
 70
     1
102
RTVSPost2010Prop51ColorIndex
 90
      256
102
RTVSPost2010Prop51ColorRGB
 90
-16777216
102
RTVSPost2010PropOp51
 70
     0
102
RTVSPost2010Prop52
140
1.0
102
RTVSPost2010PropOp52
 70
     0
102
RTVSPost2010Prop53
 90
        2
102
RTVSPost2010PropOp53
 70
     1
102
RTVSPost2010Prop54
  1
strokes_ogs.tif
102
RTVSPost2010PropOp54
 70
     1
102
RTVSPost2010Prop55
280
     0
102
RTVSPost2010PropOp55
 70
     1
102
RTVSPost2010Prop56
140
1.0
102
RTVSPost2010PropOp56
 70
     1
102
RTVSPost2010Prop57
140
1.0
102
RTVSPost2010PropOp57
 70
     1
  0
XRECORD
  5
287
102
{ACAD_REACTORS
330
286
102
}
330
286
100
AcDbXrecord
280
     1
102
RTVSPropertyOp0
 70
     1
102
RTVSPropertyOp1
 70
     1
102
RTVSPropertyOp2
 70
     1
102
RTVSPropertyOp3
 70
     1
102
RTVSPropertyOp4
 70
     1
102
RTVSPropertyOp5
 70
     1
102
RTVSPropertyOp6
 70
     1
102
RTVSPropertyOp7
 70
     1
102
RTVSPropertyOp8
 70
     1
102
RTVSPropertyOp9
 70
     1
102
RTVSPropertyOp10
 70
     1
102
RTVSPropertyOp11
 70
     1
102
RTVSPropertyOp12
 70
     1
102
RTVSPropertyOp13
 70
     1
102
RTVSPropertyOp14
 70
     1
102
RTVSPropertyOp15
 70
     1
102
RTVSPropertyOp16
 70
     1
102
RTVSPropertyOp17
 70
     1
102
RTVSPropertyOp18
 70
     1
102
RTVSPropertyOp19
 70
     1
102
RTVSPropertyOp20
 70
     1
102
RTVSPropertyOp21
 70
     1
102
RTVSPropertyOp22
 70
     1
102
RTVSPropertyOp23
 70
     1
102
RTVSPropertyOp24
 70
     1
102
RTVSPropertyOp25
 70
     1
102
RTVSPropertyOp26
 70
     1
102
RTVSPropertyOp27
 70
     1
102
RTVSPropertyOp28
 70
     1
102
RTVSPropertyOp29
 70
     1
102
RTVSPropertyOp30
 70
     1
102
RTVSPropertyOp31
 70
     1
102
RTVSPropertyOp32
 70
     1
102
RTVSPropertyOp33
 70
     1
102
RTVSPropertyOp34
 70
     1
102
RTVSPropertyOp35
 70
     1
102
RTVSPropertyOp36
 70
     1
102
RTVSPropertyOp37
 70
     1
102
RTVSPropertyOp38
 70
     1
102
RTVSPropertyOp39
 70
     1
102
RTVSPropertyOp40
 70
     1
102
RTVSPropertyOp41
 70
     1
102
RTVSPropertyOp42
 70
     1
102
RTVSPropertyOp43
 70
     1
102
RTVSPropertyOp44
 70
     1
102
RTVSPropertyOp45
 70
     1
102
RTVSPropertyOp46
 70
     1
102
RTVSPropertyOp47
 70
     1
102
RTVSPropertyOp48
 70
     1
102
RTVSPropertyOp49
 70
     1
102
RTVSPropertyOp50
 70
     1
102
RTVSPropertyOp51
 70
     0
102
RTVSPropertyOp52
 70
     0
102
RTVSPropertyOp53
 70
     1
102
RTVSPropertyOp54
 70
     1
102
RTVSPropertyOp55
 70
     1
102
RTVSPropertyOp56
 70
     1
102
RTVSPropertyOp57
 70
     1
102
RTVSPost2010Prop28
280
     0
102
RTVSPost2010PropOp28
 70
     1
102
RTVSPost2010Prop29
280
     1
102
RTVSPost2010PropOp29
 70
     1
102
RTVSPost2010Prop30
280
     1
102
RTVSPost2010PropOp30
 70
     1
102
RTVSPost2010Prop31
280
     0
102
RTVSPost2010PropOp31
 70
     1
102
RTVSPost2010Prop32
280
     0
102
RTVSPost2010PropOp32
 70
     1
102
RTVSPost2010Prop33
280
     0
102
RTVSPost2010PropOp33
 70
     1
102
RTVSPost2010Prop34
280
     0
102
RTVSPost2010PropOp34
 70
     1
102
RTVSPost2010Prop35
280
     0
102
RTVSPost2010PropOp35
 70
     1
102
RTVSPost2010Prop36
280
     0
102
RTVSPost2010PropOp36
 70
     1
102
RTVSPost2010Prop37
 90
       50
102
RTVSPost2010PropOp37
 70
     1
102
RTVSPost2010Prop38
140
0.0
102
RTVSPost2010PropOp38
 70
     1
102
RTVSPost2010Prop39
140
1.0
102
RTVSPost2010PropOp39
 70
     1
102
RTVSPost2010Prop40
 90
        0
102
RTVSPost2010PropOp40
 70
     1
102
RTVSPost2010Prop41ColorIndex
 90
       18
102
RTVSPost2010Prop41ColorRGB
 90
        0
102
RTVSPost2010PropOp41
 70
     1
102
RTVSPost2010Prop42
 90
       50
102
RTVSPost2010PropOp42
 70
     1
102
RTVSPost2010Prop43
 90
        3
102
RTVSPost2010PropOp43
 70
     1
102
RTVSPost2010Prop44ColorIndex
 90
        5
102
RTVSPost2010Prop44ColorRGB
 90
      255
102
RTVSPost2010PropOp44
 70
     1
102
RTVSPost2010Prop45
280
     0
102
RTVSPost2010PropOp45
 70
     1
102
RTVSPost2010Prop46
 90
       50
102
RTVSPost2010PropOp46
 70
     1
102
RTVSPost2010Prop47
 90
       50
102
RTVSPost2010PropOp47
 70
     1
102
RTVSPost2010Prop48
 90
       50
102
RTVSPost2010PropOp48
 70
     1
102
RTVSPost2010Prop49
280
     0
102
RTVSPost2010PropOp49
 70
     1
102
RTVSPost2010Prop50
 90
       50
102
RTVSPost2010PropOp50
 70
     1
102
RTVSPost2010Prop51ColorIndex
 90
      256
102
RTVSPost2010Prop51ColorRGB
 90
-16777216
102
RTVSPost2010PropOp51
 70
     0
102
RTVSPost2010Prop52
140
1.0
102
RTVSPost2010PropOp52
 70
     0
102
RTVSPost2010Prop53
 90
        2
102
RTVSPost2010PropOp53
 70
     1
102
RTVSPost2010Prop54
  1
strokes_ogs.tif
102
RTVSPost2010PropOp54
 70
     1
102
RTVSPost2010Prop55
280
     0
102
RTVSPost2010PropOp55
 70
     1
102
RTVSPost2010Prop56
140
1.0
102
RTVSPost2010PropOp56
 70
     1
102
RTVSPost2010Prop57
140
1.0
102
RTVSPost2010PropOp57
 70
     1
  0
XRECORD
  5
289
102
{ACAD_REACTORS
330
288
102
}
330
288
100
AcDbXrecord
280
     1
102
RTVSPropertyOp0
 70
     1
102
RTVSPropertyOp1
 70
     1
102
RTVSPropertyOp2
 70
     1
102
RTVSPropertyOp3
 70
     1
102
RTVSPropertyOp4
 70
     1
102
RTVSPropertyOp5
 70
     1
102
RTVSPropertyOp6
 70
     1
102
RTVSPropertyOp7
 70
     1
102
RTVSPropertyOp8
 70
     1
102
RTVSPropertyOp9
 70
     1
102
RTVSPropertyOp10
 70
     1
102
RTVSPropertyOp11
 70
     1
102
RTVSPropertyOp12
 70
     1
102
RTVSPropertyOp13
 70
     1
102
RTVSPropertyOp14
 70
     1
102
RTVSPropertyOp15
 70
     1
102
RTVSPropertyOp16
 70
     1
102
RTVSPropertyOp17
 70
     1
102
RTVSPropertyOp18
 70
     1
102
RTVSPropertyOp19
 70
     1
102
RTVSPropertyOp20
 70
     1
102
RTVSPropertyOp21
 70
     1
102
RTVSPropertyOp22
 70
     1
102
RTVSPropertyOp23
 70
     1
102
RTVSPropertyOp24
 70
     1
102
RTVSPropertyOp25
 70
     1
102
RTVSPropertyOp26
 70
     1
102
RTVSPropertyOp27
 70
     1
102
RTVSPropertyOp28
 70
     1
102
RTVSPropertyOp29
 70
     1
102
RTVSPropertyOp30
 70
     1
102
RTVSPropertyOp31
 70
     1
102
RTVSPropertyOp32
 70
     1
102
RTVSPropertyOp33
 70
     1
102
RTVSPropertyOp34
 70
     1
102
RTVSPropertyOp35
 70
     1
102
RTVSPropertyOp36
 70
     1
102
RTVSPropertyOp37
 70
     1
102
RTVSPropertyOp38
 70
     1
102
RTVSPropertyOp39
 70
     1
102
RTVSPropertyOp40
 70
     1
102
RTVSPropertyOp41
 70
     1
102
RTVSPropertyOp42
 70
     1
102
RTVSPropertyOp43
 70
     1
102
RTVSPropertyOp44
 70
     1
102
RTVSPropertyOp45
 70
     1
102
RTVSPropertyOp46
 70
     1
102
RTVSPropertyOp47
 70
     1
102
RTVSPropertyOp48
 70
     1
102
RTVSPropertyOp49
 70
     1
102
RTVSPropertyOp50
 70
     1
102
RTVSPropertyOp51
 70
     0
102
RTVSPropertyOp52
 70
     0
102
RTVSPropertyOp53
 70
     1
102
RTVSPropertyOp54
 70
     1
102
RTVSPropertyOp55
 70
     1
102
RTVSPropertyOp56
 70
     1
102
RTVSPropertyOp57
 70
     1
102
RTVSPost2010Prop28
280
     0
102
RTVSPost2010PropOp28
 70
     1
102
RTVSPost2010Prop29
280
     1
102
RTVSPost2010PropOp29
 70
     1
102
RTVSPost2010Prop30
280
     1
102
RTVSPost2010PropOp30
 70
     1
102
RTVSPost2010Prop31
280
     0
102
RTVSPost2010PropOp31
 70
     1
102
RTVSPost2010Prop32
280
     0
102
RTVSPost2010PropOp32
 70
     1
102
RTVSPost2010Prop33
280
     0
102
RTVSPost2010PropOp33
 70
     1
102
RTVSPost2010Prop34
280
     0
102
RTVSPost2010PropOp34
 70
     1
102
RTVSPost2010Prop35
280
     0
102
RTVSPost2010PropOp35
 70
     1
102
RTVSPost2010Prop36
280
     0
102
RTVSPost2010PropOp36
 70
     1
102
RTVSPost2010Prop37
 90
       50
102
RTVSPost2010PropOp37
 70
     1
102
RTVSPost2010Prop38
140
0.0
102
RTVSPost2010PropOp38
 70
     1
102
RTVSPost2010Prop39
140
1.0
102
RTVSPost2010PropOp39
 70
     1
102
RTVSPost2010Prop40
 90
        0
102
RTVSPost2010PropOp40
 70
     1
102
RTVSPost2010Prop41ColorIndex
 90
       18
102
RTVSPost2010Prop41ColorRGB
 90
        0
102
RTVSPost2010PropOp41
 70
     1
102
RTVSPost2010Prop42
 90
       50
102
RTVSPost2010PropOp42
 70
     1
102
RTVSPost2010Prop43
 90
        3
102
RTVSPost2010PropOp43
 70
     1
102
RTVSPost2010Prop44ColorIndex
 90
        5
102
RTVSPost2010Prop44ColorRGB
 90
      255
102
RTVSPost2010PropOp44
 70
     1
102
RTVSPost2010Prop45
280
     0
102
RTVSPost2010PropOp45
 70
     1
102
RTVSPost2010Prop46
 90
       50
102
RTVSPost2010PropOp46
 70
     1
102
RTVSPost2010Prop47
 90
       50
102
RTVSPost2010PropOp47
 70
     1
102
RTVSPost2010Prop48
 90
       50
102
RTVSPost2010PropOp48
 70
     1
102
RTVSPost2010Prop49
280
     0
102
RTVSPost2010PropOp49
 70
     1
102
RTVSPost2010Prop50
 90
       50
102
RTVSPost2010PropOp50
 70
     1
102
RTVSPost2010Prop51ColorIndex
 90
      256
102
RTVSPost2010Prop51ColorRGB
 90
-16777216
102
RTVSPost2010PropOp51
 70
     0
102
RTVSPost2010Prop52
140
1.0
102
RTVSPost2010PropOp52
 70
     0
102
RTVSPost2010Prop53
 90
        2
102
RTVSPost2010PropOp53
 70
     1
102
RTVSPost2010Prop54
  1
strokes_ogs.tif
102
RTVSPost2010PropOp54
 70
     1
102
RTVSPost2010Prop55
280
     0
102
RTVSPost2010PropOp55
 70
     1
102
RTVSPost2010Prop56
140
1.0
102
RTVSPost2010PropOp56
 70
     1
102
RTVSPost2010Prop57
140
1.0
102
RTVSPost2010PropOp57
 70
     1
  0
XRECORD
  5
299
102
{ACAD_REACTORS
330
298
102
}
330
298
100
AcDbXrecord
280
     1
102
RTVSPropertyOp0
 70
     0
102
RTVSPropertyOp1
 70
     0
102
RTVSPropertyOp2
 70
     0
102
RTVSPropertyOp3
 70
     0
102
RTVSPropertyOp4
 70
     0
102
RTVSPropertyOp5
 70
     0
102
RTVSPropertyOp6
 70
     0
102
RTVSPropertyOp7
 70
     0
102
RTVSPropertyOp8
 70
     0
102
RTVSPropertyOp9
 70
     0
102
RTVSPropertyOp10
 70
     0
102
RTVSPropertyOp11
 70
     0
102
RTVSPropertyOp12
 70
     0
102
RTVSPropertyOp13
 70
     0
102
RTVSPropertyOp14
 70
     2
102
RTVSPropertyOp15
 70
     0
102
RTVSPropertyOp16
 70
     0
102
RTVSPropertyOp17
 70
     0
102
RTVSPropertyOp18
 70
     0
102
RTVSPropertyOp19
 70
     0
102
RTVSPropertyOp20
 70
     0
102
RTVSPropertyOp21
 70
     0
102
RTVSPropertyOp22
 70
     0
102
RTVSPropertyOp23
 70
     0
102
RTVSPropertyOp24
 70
     0
102
RTVSPropertyOp25
 70
     0
102
RTVSPropertyOp26
 70
     0
102
RTVSPropertyOp27
 70
     0
102
RTVSPropertyOp28
 70
     0
102
RTVSPropertyOp29
 70
     0
102
RTVSPropertyOp30
 70
     0
102
RTVSPropertyOp31
 70
     0
102
RTVSPropertyOp32
 70
     0
102
RTVSPropertyOp33
 70
     0
102
RTVSPropertyOp34
 70
     0
102
RTVSPropertyOp35
 70
     0
102
RTVSPropertyOp36
 70
     0
102
RTVSPropertyOp37
 70
     0
102
RTVSPropertyOp38
 70
     0
102
RTVSPropertyOp39
 70
     0
102
RTVSPropertyOp40
 70
     0
102
RTVSPropertyOp41
 70
     0
102
RTVSPropertyOp42
 70
     0
102
RTVSPropertyOp43
 70
     0
102
RTVSPropertyOp44
 70
     0
102
RTVSPropertyOp45
 70
     0
102
RTVSPropertyOp46
 70
     0
102
RTVSPropertyOp47
 70
     0
102
RTVSPropertyOp48
 70
     0
102
RTVSPropertyOp49
 70
     0
102
RTVSPropertyOp50
 70
     0
102
RTVSPropertyOp51
 70
     0
102
RTVSPropertyOp52
 70
     0
102
RTVSPropertyOp53
 70
     0
102
RTVSPropertyOp54
 70
     0
102
RTVSPropertyOp55
 70
     0
102
RTVSPropertyOp56
 70
     0
102
RTVSPropertyOp57
 70
     0
102
RTVSPost2010Prop28
280
     0
102
RTVSPost2010PropOp28
 70
     0
102
RTVSPost2010Prop29
280
     1
102
RTVSPost2010PropOp29
 70
     0
102
RTVSPost2010Prop30
280
     1
102
RTVSPost2010PropOp30
 70
     0
102
RTVSPost2010Prop31
280
     0
102
RTVSPost2010PropOp31
 70
     0
102
RTVSPost2010Prop32
280
     0
102
RTVSPost2010PropOp32
 70
     0
102
RTVSPost2010Prop33
280
     0
102
RTVSPost2010PropOp33
 70
     0
102
RTVSPost2010Prop34
280
     0
102
RTVSPost2010PropOp34
 70
     0
102
RTVSPost2010Prop35
280
     0
102
RTVSPost2010PropOp35
 70
     0
102
RTVSPost2010Prop36
280
     0
102
RTVSPost2010PropOp36
 70
     0
102
RTVSPost2010Prop37
 90
       50
102
RTVSPost2010PropOp37
 70
     0
102
RTVSPost2010Prop38
140
0.0
102
RTVSPost2010PropOp38
 70
     0
102
RTVSPost2010Prop39
140
1.0
102
RTVSPost2010PropOp39
 70
     0
102
RTVSPost2010Prop40
 90
        0
102
RTVSPost2010PropOp40
 70
     0
102
RTVSPost2010Prop41ColorIndex
 90
       18
102
RTVSPost2010Prop41ColorRGB
 90
        0
102
RTVSPost2010PropOp41
 70
     0
102
RTVSPost2010Prop42
 90
       50
102
RTVSPost2010PropOp42
 70
     0
102
RTVSPost2010Prop43
 90
        3
102
RTVSPost2010PropOp43
 70
     0
102
RTVSPost2010Prop44ColorIndex
 90
        5
102
RTVSPost2010Prop44ColorRGB
 90
      255
102
RTVSPost2010PropOp44
 70
     0
102
RTVSPost2010Prop45
280
     0
102
RTVSPost2010PropOp45
 70
     0
102
RTVSPost2010Prop46
 90
       50
102
RTVSPost2010PropOp46
 70
     0
102
RTVSPost2010Prop47
 90
       50
102
RTVSPost2010PropOp47
 70
     0
102
RTVSPost2010Prop48
 90
       50
102
RTVSPost2010PropOp48
 70
     0
102
RTVSPost2010Prop49
280
     0
102
RTVSPost2010PropOp49
 70
     0
102
RTVSPost2010Prop50
 90
       50
102
RTVSPost2010PropOp50
 70
     0
102
RTVSPost2010Prop51ColorIndex
 90
      256
102
RTVSPost2010Prop51ColorRGB
 90
-16777216
102
RTVSPost2010PropOp51
 70
     0
102
RTVSPost2010Prop52
140
1.0
102
RTVSPost2010PropOp52
 70
     0
102
RTVSPost2010Prop53
 90
        2
102
RTVSPost2010PropOp53
 70
     0
102
RTVSPost2010Prop54
  1
strokes_ogs.tif
102
RTVSPost2010PropOp54
 70
     0
102
RTVSPost2010Prop55
280
     0
102
RTVSPost2010PropOp55
 70
     0
102
RTVSPost2010Prop56
140
1.0
102
RTVSPost2010PropOp56
 70
     0
102
RTVSPost2010Prop57
140
1.0
102
RTVSPost2010PropOp57
 70
     0
  0
XRECORD
  5
291
102
{ACAD_REACTORS
330
290
102
}
330
290
100
AcDbXrecord
280
     1
102
RTVSPropertyOp0
 70
     1
102
RTVSPropertyOp1
 70
     1
102
RTVSPropertyOp2
 70
     1
102
RTVSPropertyOp3
 70
     1
102
RTVSPropertyOp4
 70
     1
102
RTVSPropertyOp5
 70
     1
102
RTVSPropertyOp6
 70
     1
102
RTVSPropertyOp7
 70
     1
102
RTVSPropertyOp8
 70
     1
102
RTVSPropertyOp9
 70
     1
102
RTVSPropertyOp10
 70
     1
102
RTVSPropertyOp11
 70
     1
102
RTVSPropertyOp12
 70
     1
102
RTVSPropertyOp13
 70
     1
102
RTVSPropertyOp14
 70
     1
102
RTVSPropertyOp15
 70
     1
102
RTVSPropertyOp16
 70
     1
102
RTVSPropertyOp17
 70
     1
102
RTVSPropertyOp18
 70
     1
102
RTVSPropertyOp19
 70
     1
102
RTVSPropertyOp20
 70
     1
102
RTVSPropertyOp21
 70
     1
102
RTVSPropertyOp22
 70
     1
102
RTVSPropertyOp23
 70
     1
102
RTVSPropertyOp24
 70
     1
102
RTVSPropertyOp25
 70
     1
102
RTVSPropertyOp26
 70
     1
102
RTVSPropertyOp27
 70
     1
102
RTVSPropertyOp28
 70
     1
102
RTVSPropertyOp29
 70
     1
102
RTVSPropertyOp30
 70
     1
102
RTVSPropertyOp31
 70
     1
102
RTVSPropertyOp32
 70
     1
102
RTVSPropertyOp33
 70
     1
102
RTVSPropertyOp34
 70
     1
102
RTVSPropertyOp35
 70
     1
102
RTVSPropertyOp36
 70
     1
102
RTVSPropertyOp37
 70
     1
102
RTVSPropertyOp38
 70
     1
102
RTVSPropertyOp39
 70
     1
102
RTVSPropertyOp40
 70
     1
102
RTVSPropertyOp41
 70
     1
102
RTVSPropertyOp42
 70
     1
102
RTVSPropertyOp43
 70
     1
102
RTVSPropertyOp44
 70
     1
102
RTVSPropertyOp45
 70
     1
102
RTVSPropertyOp46
 70
     1
102
RTVSPropertyOp47
 70
     1
102
RTVSPropertyOp48
 70
     1
102
RTVSPropertyOp49
 70
     1
102
RTVSPropertyOp50
 70
     1
102
RTVSPropertyOp51
 70
     0
102
RTVSPropertyOp52
 70
     0
102
RTVSPropertyOp53
 70
     1
102
RTVSPropertyOp54
 70
     1
102
RTVSPropertyOp55
 70
     1
102
RTVSPropertyOp56
 70
     1
102
RTVSPropertyOp57
 70
     1
102
RTVSPost2010Prop28
280
     0
102
RTVSPost2010PropOp28
 70
     1
102
RTVSPost2010Prop29
280
     1
102
RTVSPost2010PropOp29
 70
     1
102
RTVSPost2010Prop30
280
     1
102
RTVSPost2010PropOp30
 70
     1
102
RTVSPost2010Prop31
280
     0
102
RTVSPost2010PropOp31
 70
     1
102
RTVSPost2010Prop32
280
     0
102
RTVSPost2010PropOp32
 70
     1
102
RTVSPost2010Prop33
280
     0
102
RTVSPost2010PropOp33
 70
     1
102
RTVSPost2010Prop34
280
     0
102
RTVSPost2010PropOp34
 70
     1
102
RTVSPost2010Prop35
280
     0
102
RTVSPost2010PropOp35
 70
     1
102
RTVSPost2010Prop36
280
     0
102
RTVSPost2010PropOp36
 70
     1
102
RTVSPost2010Prop37
 90
       50
102
RTVSPost2010PropOp37
 70
     1
102
RTVSPost2010Prop38
140
0.0
102
RTVSPost2010PropOp38
 70
     1
102
RTVSPost2010Prop39
140
1.0
102
RTVSPost2010PropOp39
 70
     1
102
RTVSPost2010Prop40
 90
        0
102
RTVSPost2010PropOp40
 70
     1
102
RTVSPost2010Prop41ColorIndex
 90
       18
102
RTVSPost2010Prop41ColorRGB
 90
        0
102
RTVSPost2010PropOp41
 70
     1
102
RTVSPost2010Prop42
 90
       50
102
RTVSPost2010PropOp42
 70
     1
102
RTVSPost2010Prop43
 90
        3
102
RTVSPost2010PropOp43
 70
     1
102
RTVSPost2010Prop44ColorIndex
 90
        5
102
RTVSPost2010Prop44ColorRGB
 90
      255
102
RTVSPost2010PropOp44
 70
     1
102
RTVSPost2010Prop45
280
     0
102
RTVSPost2010PropOp45
 70
     1
102
RTVSPost2010Prop46
 90
       50
102
RTVSPost2010PropOp46
 70
     1
102
RTVSPost2010Prop47
 90
       50
102
RTVSPost2010PropOp47
 70
     1
102
RTVSPost2010Prop48
 90
       50
102
RTVSPost2010PropOp48
 70
     1
102
RTVSPost2010Prop49
280
     0
102
RTVSPost2010PropOp49
 70
     1
102
RTVSPost2010Prop50
 90
       50
102
RTVSPost2010PropOp50
 70
     1
102
RTVSPost2010Prop51ColorIndex
 90
      256
102
RTVSPost2010Prop51ColorRGB
 90
-16777216
102
RTVSPost2010PropOp51
 70
     0
102
RTVSPost2010Prop52
140
1.0
102
RTVSPost2010PropOp52
 70
     0
102
RTVSPost2010Prop53
 90
        2
102
RTVSPost2010PropOp53
 70
     1
102
RTVSPost2010Prop54
  1
strokes_ogs.tif
102
RTVSPost2010PropOp54
 70
     1
102
RTVSPost2010Prop55
280
     0
102
RTVSPost2010PropOp55
 70
     1
102
RTVSPost2010Prop56
140
1.0
102
RTVSPost2010PropOp56
 70
     1
102
RTVSPost2010Prop57
140
1.0
102
RTVSPost2010PropOp57
 70
     1
  0
XRECORD
  5
275
102
{ACAD_REACTORS
330
274
102
}
330
274
100
AcDbXrecord
280
     1
102
RTVSPropertyOp0
 70
     1
102
RTVSPropertyOp1
 70
     1
102
RTVSPropertyOp2
 70
     1
102
RTVSPropertyOp3
 70
     1
102
RTVSPropertyOp4
 70
     1
102
RTVSPropertyOp5
 70
     1
102
RTVSPropertyOp6
 70
     1
102
RTVSPropertyOp7
 70
     1
102
RTVSPropertyOp8
 70
     1
102
RTVSPropertyOp9
 70
     1
102
RTVSPropertyOp10
 70
     1
102
RTVSPropertyOp11
 70
     1
102
RTVSPropertyOp12
 70
     1
102
RTVSPropertyOp13
 70
     1
102
RTVSPropertyOp14
 70
     1
102
RTVSPropertyOp15
 70
     1
102
RTVSPropertyOp16
 70
     1
102
RTVSPropertyOp17
 70
     1
102
RTVSPropertyOp18
 70
     1
102
RTVSPropertyOp19
 70
     1
102
RTVSPropertyOp20
 70
     1
102
RTVSPropertyOp21
 70
     1
102
RTVSPropertyOp22
 70
     1
102
RTVSPropertyOp23
 70
     1
102
RTVSPropertyOp24
 70
     1
102
RTVSPropertyOp25
 70
     1
102
RTVSPropertyOp26
 70
     1
102
RTVSPropertyOp27
 70
     1
102
RTVSPropertyOp28
 70
     1
102
RTVSPropertyOp29
 70
     1
102
RTVSPropertyOp30
 70
     1
102
RTVSPropertyOp31
 70
     1
102
RTVSPropertyOp32
 70
     1
102
RTVSPropertyOp33
 70
     1
102
RTVSPropertyOp34
 70
     1
102
RTVSPropertyOp35
 70
     1
102
RTVSPropertyOp36
 70
     1
102
RTVSPropertyOp37
 70
     1
102
RTVSPropertyOp38
 70
     1
102
RTVSPropertyOp39
 70
     1
102
RTVSPropertyOp40
 70
     1
102
RTVSPropertyOp41
 70
     1
102
RTVSPropertyOp42
 70
     1
102
RTVSPropertyOp43
 70
     1
102
RTVSPropertyOp44
 70
     1
102
RTVSPropertyOp45
 70
     1
102
RTVSPropertyOp46
 70
     1
102
RTVSPropertyOp47
 70
     1
102
RTVSPropertyOp48
 70
     1
102
RTVSPropertyOp49
 70
     1
102
RTVSPropertyOp50
 70
     1
102
RTVSPropertyOp51
 70
     0
102
RTVSPropertyOp52
 70
     0
102
RTVSPropertyOp53
 70
     1
102
RTVSPropertyOp54
 70
     1
102
RTVSPropertyOp55
 70
     1
102
RTVSPropertyOp56
 70
     1
102
RTVSPropertyOp57
 70
     1
102
RTVSPost2010Prop28
280
     0
102
RTVSPost2010PropOp28
 70
     1
102
RTVSPost2010Prop29
280
     1
102
RTVSPost2010PropOp29
 70
     1
102
RTVSPost2010Prop30
280
     1
102
RTVSPost2010PropOp30
 70
     1
102
RTVSPost2010Prop31
280
     0
102
RTVSPost2010PropOp31
 70
     1
102
RTVSPost2010Prop32
280
     0
102
RTVSPost2010PropOp32
 70
     1
102
RTVSPost2010Prop33
280
     0
102
RTVSPost2010PropOp33
 70
     1
102
RTVSPost2010Prop34
280
     0
102
RTVSPost2010PropOp34
 70
     1
102
RTVSPost2010Prop35
280
     0
102
RTVSPost2010PropOp35
 70
     1
102
RTVSPost2010Prop36
280
     0
102
RTVSPost2010PropOp36
 70
     1
102
RTVSPost2010Prop37
 90
       50
102
RTVSPost2010PropOp37
 70
     1
102
RTVSPost2010Prop38
140
0.0
102
RTVSPost2010PropOp38
 70
     1
102
RTVSPost2010Prop39
140
1.0
102
RTVSPost2010PropOp39
 70
     1
102
RTVSPost2010Prop40
 90
        0
102
RTVSPost2010PropOp40
 70
     1
102
RTVSPost2010Prop41ColorIndex
 90
       18
102
RTVSPost2010Prop41ColorRGB
 90
        0
102
RTVSPost2010PropOp41
 70
     1
102
RTVSPost2010Prop42
 90
       50
102
RTVSPost2010PropOp42
 70
     1
102
RTVSPost2010Prop43
 90
        3
102
RTVSPost2010PropOp43
 70
     1
102
RTVSPost2010Prop44ColorIndex
 90
        5
102
RTVSPost2010Prop44ColorRGB
 90
      255
102
RTVSPost2010PropOp44
 70
     1
102
RTVSPost2010Prop45
280
     0
102
RTVSPost2010PropOp45
 70
     1
102
RTVSPost2010Prop46
 90
       50
102
RTVSPost2010PropOp46
 70
     1
102
RTVSPost2010Prop47
 90
       50
102
RTVSPost2010PropOp47
 70
     1
102
RTVSPost2010Prop48
 90
       50
102
RTVSPost2010PropOp48
 70
     1
102
RTVSPost2010Prop49
280
     0
102
RTVSPost2010PropOp49
 70
     1
102
RTVSPost2010Prop50
 90
       50
102
RTVSPost2010PropOp50
 70
     1
102
RTVSPost2010Prop51ColorIndex
 90
      256
102
RTVSPost2010Prop51ColorRGB
 90
-16777216
102
RTVSPost2010PropOp51
 70
     0
102
RTVSPost2010Prop52
140
1.0
102
RTVSPost2010PropOp52
 70
     0
102
RTVSPost2010Prop53
 90
        2
102
RTVSPost2010PropOp53
 70
     1
102
RTVSPost2010Prop54
  1
strokes_ogs.tif
102
RTVSPost2010PropOp54
 70
     1
102
RTVSPost2010Prop55
280
     0
102
RTVSPost2010PropOp55
 70
     1
102
RTVSPost2010Prop56
140
1.0
102
RTVSPost2010PropOp56
 70
     1
102
RTVSPost2010Prop57
140
1.0
102
RTVSPost2010PropOp57
 70
     1
  0
XRECORD
  5
277
102
{ACAD_REACTORS
330
276
102
}
330
276
100
AcDbXrecord
280
     1
102
RTVSPropertyOp0
 70
     1
102
RTVSPropertyOp1
 70
     1
102
RTVSPropertyOp2
 70
     1
102
RTVSPropertyOp3
 70
     1
102
RTVSPropertyOp4
 70
     1
102
RTVSPropertyOp5
 70
     1
102
RTVSPropertyOp6
 70
     1
102
RTVSPropertyOp7
 70
     1
102
RTVSPropertyOp8
 70
     1
102
RTVSPropertyOp9
 70
     1
102
RTVSPropertyOp10
 70
     1
102
RTVSPropertyOp11
 70
     1
102
RTVSPropertyOp12
 70
     1
102
RTVSPropertyOp13
 70
     1
102
RTVSPropertyOp14
 70
     1
102
RTVSPropertyOp15
 70
     1
102
RTVSPropertyOp16
 70
     1
102
RTVSPropertyOp17
 70
     1
102
RTVSPropertyOp18
 70
     1
102
RTVSPropertyOp19
 70
     1
102
RTVSPropertyOp20
 70
     1
102
RTVSPropertyOp21
 70
     1
102
RTVSPropertyOp22
 70
     1
102
RTVSPropertyOp23
 70
     1
102
RTVSPropertyOp24
 70
     1
102
RTVSPropertyOp25
 70
     1
102
RTVSPropertyOp26
 70
     1
102
RTVSPropertyOp27
 70
     1
102
RTVSPropertyOp28
 70
     1
102
RTVSPropertyOp29
 70
     1
102
RTVSPropertyOp30
 70
     1
102
RTVSPropertyOp31
 70
     1
102
RTVSPropertyOp32
 70
     1
102
RTVSPropertyOp33
 70
     1
102
RTVSPropertyOp34
 70
     1
102
RTVSPropertyOp35
 70
     1
102
RTVSPropertyOp36
 70
     1
102
RTVSPropertyOp37
 70
     1
102
RTVSPropertyOp38
 70
     1
102
RTVSPropertyOp39
 70
     1
102
RTVSPropertyOp40
 70
     1
102
RTVSPropertyOp41
 70
     1
102
RTVSPropertyOp42
 70
     1
102
RTVSPropertyOp43
 70
     1
102
RTVSPropertyOp44
 70
     1
102
RTVSPropertyOp45
 70
     1
102
RTVSPropertyOp46
 70
     1
102
RTVSPropertyOp47
 70
     1
102
RTVSPropertyOp48
 70
     1
102
RTVSPropertyOp49
 70
     1
102
RTVSPropertyOp50
 70
     1
102
RTVSPropertyOp51
 70
     0
102
RTVSPropertyOp52
 70
     0
102
RTVSPropertyOp53
 70
     1
102
RTVSPropertyOp54
 70
     1
102
RTVSPropertyOp55
 70
     1
102
RTVSPropertyOp56
 70
     1
102
RTVSPropertyOp57
 70
     1
102
RTVSPost2010Prop28
280
     0
102
RTVSPost2010PropOp28
 70
     1
102
RTVSPost2010Prop29
280
     1
102
RTVSPost2010PropOp29
 70
     1
102
RTVSPost2010Prop30
280
     1
102
RTVSPost2010PropOp30
 70
     1
102
RTVSPost2010Prop31
280
     0
102
RTVSPost2010PropOp31
 70
     1
102
RTVSPost2010Prop32
280
     0
102
RTVSPost2010PropOp32
 70
     1
102
RTVSPost2010Prop33
280
     0
102
RTVSPost2010PropOp33
 70
     1
102
RTVSPost2010Prop34
280
     0
102
RTVSPost2010PropOp34
 70
     1
102
RTVSPost2010Prop35
280
     0
102
RTVSPost2010PropOp35
 70
     1
102
RTVSPost2010Prop36
280
     0
102
RTVSPost2010PropOp36
 70
     1
102
RTVSPost2010Prop37
 90
       50
102
RTVSPost2010PropOp37
 70
     1
102
RTVSPost2010Prop38
140
0.0
102
RTVSPost2010PropOp38
 70
     1
102
RTVSPost2010Prop39
140
1.0
102
RTVSPost2010PropOp39
 70
     1
102
RTVSPost2010Prop40
 90
        0
102
RTVSPost2010PropOp40
 70
     1
102
RTVSPost2010Prop41ColorIndex
 90
       18
102
RTVSPost2010Prop41ColorRGB
 90
        0
102
RTVSPost2010PropOp41
 70
     1
102
RTVSPost2010Prop42
 90
       50
102
RTVSPost2010PropOp42
 70
     1
102
RTVSPost2010Prop43
 90
        3
102
RTVSPost2010PropOp43
 70
     1
102
RTVSPost2010Prop44ColorIndex
 90
        5
102
RTVSPost2010Prop44ColorRGB
 90
      255
102
RTVSPost2010PropOp44
 70
     1
102
RTVSPost2010Prop45
280
     0
102
RTVSPost2010PropOp45
 70
     1
102
RTVSPost2010Prop46
 90
       50
102
RTVSPost2010PropOp46
 70
     1
102
RTVSPost2010Prop47
 90
       50
102
RTVSPost2010PropOp47
 70
     1
102
RTVSPost2010Prop48
 90
       50
102
RTVSPost2010PropOp48
 70
     1
102
RTVSPost2010Prop49
280
     0
102
RTVSPost2010PropOp49
 70
     1
102
RTVSPost2010Prop50
 90
       50
102
RTVSPost2010PropOp50
 70
     1
102
RTVSPost2010Prop51ColorIndex
 90
      256
102
RTVSPost2010Prop51ColorRGB
 90
-16777216
102
RTVSPost2010PropOp51
 70
     0
102
RTVSPost2010Prop52
140
1.0
102
RTVSPost2010PropOp52
 70
     0
102
RTVSPost2010Prop53
 90
        2
102
RTVSPost2010PropOp53
 70
     1
102
RTVSPost2010Prop54
  1
strokes_ogs.tif
102
RTVSPost2010PropOp54
 70
     1
102
RTVSPost2010Prop55
280
     0
102
RTVSPost2010PropOp55
 70
     1
102
RTVSPost2010Prop56
140
1.0
102
RTVSPost2010PropOp56
 70
     1
102
RTVSPost2010Prop57
140
1.0
102
RTVSPost2010PropOp57
 70
     1
  0
XRECORD
  5
279
102
{ACAD_REACTORS
330
278
102
}
330
278
100
AcDbXrecord
280
     1
102
RTVSPropertyOp0
 70
     1
102
RTVSPropertyOp1
 70
     1
102
RTVSPropertyOp2
 70
     1
102
RTVSPropertyOp3
 70
     1
102
RTVSPropertyOp4
 70
     1
102
RTVSPropertyOp5
 70
     1
102
RTVSPropertyOp6
 70
     1
102
RTVSPropertyOp7
 70
     1
102
RTVSPropertyOp8
 70
     1
102
RTVSPropertyOp9
 70
     1
102
RTVSPropertyOp10
 70
     1
102
RTVSPropertyOp11
 70
     1
102
RTVSPropertyOp12
 70
     1
102
RTVSPropertyOp13
 70
     1
102
RTVSPropertyOp14
 70
     1
102
RTVSPropertyOp15
 70
     1
102
RTVSPropertyOp16
 70
     1
102
RTVSPropertyOp17
 70
     1
102
RTVSPropertyOp18
 70
     1
102
RTVSPropertyOp19
 70
     1
102
RTVSPropertyOp20
 70
     1
102
RTVSPropertyOp21
 70
     1
102
RTVSPropertyOp22
 70
     1
102
RTVSPropertyOp23
 70
     1
102
RTVSPropertyOp24
 70
     1
102
RTVSPropertyOp25
 70
     1
102
RTVSPropertyOp26
 70
     1
102
RTVSPropertyOp27
 70
     1
102
RTVSPropertyOp28
 70
     1
102
RTVSPropertyOp29
 70
     1
102
RTVSPropertyOp30
 70
     1
102
RTVSPropertyOp31
 70
     1
102
RTVSPropertyOp32
 70
     1
102
RTVSPropertyOp33
 70
     1
102
RTVSPropertyOp34
 70
     1
102
RTVSPropertyOp35
 70
     1
102
RTVSPropertyOp36
 70
     1
102
RTVSPropertyOp37
 70
     1
102
RTVSPropertyOp38
 70
     1
102
RTVSPropertyOp39
 70
     1
102
RTVSPropertyOp40
 70
     1
102
RTVSPropertyOp41
 70
     1
102
RTVSPropertyOp42
 70
     1
102
RTVSPropertyOp43
 70
     1
102
RTVSPropertyOp44
 70
     1
102
RTVSPropertyOp45
 70
     1
102
RTVSPropertyOp46
 70
     1
102
RTVSPropertyOp47
 70
     1
102
RTVSPropertyOp48
 70
     1
102
RTVSPropertyOp49
 70
     1
102
RTVSPropertyOp50
 70
     1
102
RTVSPropertyOp51
 70
     0
102
RTVSPropertyOp52
 70
     0
102
RTVSPropertyOp53
 70
     1
102
RTVSPropertyOp54
 70
     1
102
RTVSPropertyOp55
 70
     1
102
RTVSPropertyOp56
 70
     1
102
RTVSPropertyOp57
 70
     1
102
RTVSPost2010Prop28
280
     0
102
RTVSPost2010PropOp28
 70
     1
102
RTVSPost2010Prop29
280
     1
102
RTVSPost2010PropOp29
 70
     1
102
RTVSPost2010Prop30
280
     1
102
RTVSPost2010PropOp30
 70
     1
102
RTVSPost2010Prop31
280
     0
102
RTVSPost2010PropOp31
 70
     1
102
RTVSPost2010Prop32
280
     0
102
RTVSPost2010PropOp32
 70
     1
102
RTVSPost2010Prop33
280
     0
102
RTVSPost2010PropOp33
 70
     1
102
RTVSPost2010Prop34
280
     0
102
RTVSPost2010PropOp34
 70
     1
102
RTVSPost2010Prop35
280
     0
102
RTVSPost2010PropOp35
 70
     1
102
RTVSPost2010Prop36
280
     0
102
RTVSPost2010PropOp36
 70
     1
102
RTVSPost2010Prop37
 90
       50
102
RTVSPost2010PropOp37
 70
     1
102
RTVSPost2010Prop38
140
0.0
102
RTVSPost2010PropOp38
 70
     1
102
RTVSPost2010Prop39
140
1.0
102
RTVSPost2010PropOp39
 70
     1
102
RTVSPost2010Prop40
 90
        0
102
RTVSPost2010PropOp40
 70
     1
102
RTVSPost2010Prop41ColorIndex
 90
       18
102
RTVSPost2010Prop41ColorRGB
 90
        0
102
RTVSPost2010PropOp41
 70
     1
102
RTVSPost2010Prop42
 90
       50
102
RTVSPost2010PropOp42
 70
     1
102
RTVSPost2010Prop43
 90
        3
102
RTVSPost2010PropOp43
 70
     1
102
RTVSPost2010Prop44ColorIndex
 90
        5
102
RTVSPost2010Prop44ColorRGB
 90
      255
102
RTVSPost2010PropOp44
 70
     1
102
RTVSPost2010Prop45
280
     0
102
RTVSPost2010PropOp45
 70
     1
102
RTVSPost2010Prop46
 90
       50
102
RTVSPost2010PropOp46
 70
     1
102
RTVSPost2010Prop47
 90
       50
102
RTVSPost2010PropOp47
 70
     1
102
RTVSPost2010Prop48
 90
       50
102
RTVSPost2010PropOp48
 70
     1
102
RTVSPost2010Prop49
280
     0
102
RTVSPost2010PropOp49
 70
     1
102
RTVSPost2010Prop50
 90
       50
102
RTVSPost2010PropOp50
 70
     1
102
RTVSPost2010Prop51ColorIndex
 90
      256
102
RTVSPost2010Prop51ColorRGB
 90
-16777216
102
RTVSPost2010PropOp51
 70
     0
102
RTVSPost2010Prop52
140
1.0
102
RTVSPost2010PropOp52
 70
     0
102
RTVSPost2010Prop53
 90
        2
102
RTVSPost2010PropOp53
 70
     1
102
RTVSPost2010Prop54
  1
strokes_ogs.tif
102
RTVSPost2010PropOp54
 70
     1
102
RTVSPost2010Prop55
280
     0
102
RTVSPost2010PropOp55
 70
     1
102
RTVSPost2010Prop56
140
1.0
102
RTVSPost2010PropOp56
 70
     1
102
RTVSPost2010Prop57
140
1.0
102
RTVSPost2010PropOp57
 70
     1
  0
XRECORD
  5
27B
102
{ACAD_REACTORS
330
27A
102
}
330
27A
100
AcDbXrecord
280
     1
102
RTVSPropertyOp0
 70
     1
102
RTVSPropertyOp1
 70
     1
102
RTVSPropertyOp2
 70
     1
102
RTVSPropertyOp3
 70
     1
102
RTVSPropertyOp4
 70
     1
102
RTVSPropertyOp5
 70
     1
102
RTVSPropertyOp6
 70
     1
102
RTVSPropertyOp7
 70
     1
102
RTVSPropertyOp8
 70
     1
102
RTVSPropertyOp9
 70
     1
102
RTVSPropertyOp10
 70
     1
102
RTVSPropertyOp11
 70
     1
102
RTVSPropertyOp12
 70
     1
102
RTVSPropertyOp13
 70
     1
102
RTVSPropertyOp14
 70
     1
102
RTVSPropertyOp15
 70
     1
102
RTVSPropertyOp16
 70
     1
102
RTVSPropertyOp17
 70
     1
102
RTVSPropertyOp18
 70
     1
102
RTVSPropertyOp19
 70
     1
102
RTVSPropertyOp20
 70
     1
102
RTVSPropertyOp21
 70
     1
102
RTVSPropertyOp22
 70
     1
102
RTVSPropertyOp23
 70
     1
102
RTVSPropertyOp24
 70
     1
102
RTVSPropertyOp25
 70
     1
102
RTVSPropertyOp26
 70
     1
102
RTVSPropertyOp27
 70
     1
102
RTVSPropertyOp28
 70
     1
102
RTVSPropertyOp29
 70
     1
102
RTVSPropertyOp30
 70
     1
102
RTVSPropertyOp31
 70
     1
102
RTVSPropertyOp32
 70
     1
102
RTVSPropertyOp33
 70
     1
102
RTVSPropertyOp34
 70
     1
102
RTVSPropertyOp35
 70
     1
102
RTVSPropertyOp36
 70
     1
102
RTVSPropertyOp37
 70
     1
102
RTVSPropertyOp38
 70
     1
102
RTVSPropertyOp39
 70
     1
102
RTVSPropertyOp40
 70
     1
102
RTVSPropertyOp41
 70
     1
102
RTVSPropertyOp42
 70
     1
102
RTVSPropertyOp43
 70
     1
102
RTVSPropertyOp44
 70
     1
102
RTVSPropertyOp45
 70
     1
102
RTVSPropertyOp46
 70
     1
102
RTVSPropertyOp47
 70
     1
102
RTVSPropertyOp48
 70
     1
102
RTVSPropertyOp49
 70
     1
102
RTVSPropertyOp50
 70
     1
102
RTVSPropertyOp51
 70
     0
102
RTVSPropertyOp52
 70
     0
102
RTVSPropertyOp53
 70
     1
102
RTVSPropertyOp54
 70
     1
102
RTVSPropertyOp55
 70
     1
102
RTVSPropertyOp56
 70
     1
102
RTVSPropertyOp57
 70
     1
102
RTVSPost2010Prop28
280
     0
102
RTVSPost2010PropOp28
 70
     1
102
RTVSPost2010Prop29
280
     1
102
RTVSPost2010PropOp29
 70
     1
102
RTVSPost2010Prop30
280
     1
102
RTVSPost2010PropOp30
 70
     1
102
RTVSPost2010Prop31
280
     0
102
RTVSPost2010PropOp31
 70
     1
102
RTVSPost2010Prop32
280
     0
102
RTVSPost2010PropOp32
 70
     1
102
RTVSPost2010Prop33
280
     0
102
RTVSPost2010PropOp33
 70
     1
102
RTVSPost2010Prop34
280
     0
102
RTVSPost2010PropOp34
 70
     1
102
RTVSPost2010Prop35
280
     0
102
RTVSPost2010PropOp35
 70
     1
102
RTVSPost2010Prop36
280
     0
102
RTVSPost2010PropOp36
 70
     1
102
RTVSPost2010Prop37
 90
       50
102
RTVSPost2010PropOp37
 70
     1
102
RTVSPost2010Prop38
140
0.0
102
RTVSPost2010PropOp38
 70
     1
102
RTVSPost2010Prop39
140
1.0
102
RTVSPost2010PropOp39
 70
     1
102
RTVSPost2010Prop40
 90
        0
102
RTVSPost2010PropOp40
 70
     1
102
RTVSPost2010Prop41ColorIndex
 90
       18
102
RTVSPost2010Prop41ColorRGB
 90
        0
102
RTVSPost2010PropOp41
 70
     1
102
RTVSPost2010Prop42
 90
       50
102
RTVSPost2010PropOp42
 70
     1
102
RTVSPost2010Prop43
 90
        3
102
RTVSPost2010PropOp43
 70
     1
102
RTVSPost2010Prop44ColorIndex
 90
        5
102
RTVSPost2010Prop44ColorRGB
 90
      255
102
RTVSPost2010PropOp44
 70
     1
102
RTVSPost2010Prop45
280
     0
102
RTVSPost2010PropOp45
 70
     1
102
RTVSPost2010Prop46
 90
       50
102
RTVSPost2010PropOp46
 70
     1
102
RTVSPost2010Prop47
 90
       50
102
RTVSPost2010PropOp47
 70
     1
102
RTVSPost2010Prop48
 90
       50
102
RTVSPost2010PropOp48
 70
     1
102
RTVSPost2010Prop49
280
     0
102
RTVSPost2010PropOp49
 70
     1
102
RTVSPost2010Prop50
 90
       50
102
RTVSPost2010PropOp50
 70
     1
102
RTVSPost2010Prop51ColorIndex
 90
      256
102
RTVSPost2010Prop51ColorRGB
 90
-16777216
102
RTVSPost2010PropOp51
 70
     0
102
RTVSPost2010Prop52
140
1.0
102
RTVSPost2010PropOp52
 70
     0
102
RTVSPost2010Prop53
 90
        2
102
RTVSPost2010PropOp53
 70
     1
102
RTVSPost2010Prop54
  1
strokes_ogs.tif
102
RTVSPost2010PropOp54
 70
     1
102
RTVSPost2010Prop55
280
     0
102
RTVSPost2010PropOp55
 70
     1
102
RTVSPost2010Prop56
140
1.0
102
RTVSPost2010PropOp56
 70
     1
102
RTVSPost2010Prop57
140
1.0
102
RTVSPost2010PropOp57
 70
     1
  0
XRECORD
  5
281
102
{ACAD_REACTORS
330
280
102
}
330
280
100
AcDbXrecord
280
     1
102
RTVSPropertyOp0
 70
     1
102
RTVSPropertyOp1
 70
     1
102
RTVSPropertyOp2
 70
     1
102
RTVSPropertyOp3
 70
     1
102
RTVSPropertyOp4
 70
     1
102
RTVSPropertyOp5
 70
     1
102
RTVSPropertyOp6
 70
     1
102
RTVSPropertyOp7
 70
     1
102
RTVSPropertyOp8
 70
     1
102
RTVSPropertyOp9
 70
     1
102
RTVSPropertyOp10
 70
     1
102
RTVSPropertyOp11
 70
     1
102
RTVSPropertyOp12
 70
     1
102
RTVSPropertyOp13
 70
     1
102
RTVSPropertyOp14
 70
     1
102
RTVSPropertyOp15
 70
     1
102
RTVSPropertyOp16
 70
     1
102
RTVSPropertyOp17
 70
     1
102
RTVSPropertyOp18
 70
     1
102
RTVSPropertyOp19
 70
     1
102
RTVSPropertyOp20
 70
     1
102
RTVSPropertyOp21
 70
     1
102
RTVSPropertyOp22
 70
     1
102
RTVSPropertyOp23
 70
     1
102
RTVSPropertyOp24
 70
     1
102
RTVSPropertyOp25
 70
     1
102
RTVSPropertyOp26
 70
     1
102
RTVSPropertyOp27
 70
     1
102
RTVSPropertyOp28
 70
     1
102
RTVSPropertyOp29
 70
     1
102
RTVSPropertyOp30
 70
     1
102
RTVSPropertyOp31
 70
     1
102
RTVSPropertyOp32
 70
     1
102
RTVSPropertyOp33
 70
     1
102
RTVSPropertyOp34
 70
     1
102
RTVSPropertyOp35
 70
     1
102
RTVSPropertyOp36
 70
     1
102
RTVSPropertyOp37
 70
     1
102
RTVSPropertyOp38
 70
     1
102
RTVSPropertyOp39
 70
     1
102
RTVSPropertyOp40
 70
     1
102
RTVSPropertyOp41
 70
     1
102
RTVSPropertyOp42
 70
     1
102
RTVSPropertyOp43
 70
     1
102
RTVSPropertyOp44
 70
     1
102
RTVSPropertyOp45
 70
     1
102
RTVSPropertyOp46
 70
     1
102
RTVSPropertyOp47
 70
     1
102
RTVSPropertyOp48
 70
     1
102
RTVSPropertyOp49
 70
     1
102
RTVSPropertyOp50
 70
     1
102
RTVSPropertyOp51
 70
     0
102
RTVSPropertyOp52
 70
     0
102
RTVSPropertyOp53
 70
     1
102
RTVSPropertyOp54
 70
     1
102
RTVSPropertyOp55
 70
     1
102
RTVSPropertyOp56
 70
     1
102
RTVSPropertyOp57
 70
     1
102
RTVSPost2010Prop28
280
     0
102
RTVSPost2010PropOp28
 70
     1
102
RTVSPost2010Prop29
280
     1
102
RTVSPost2010PropOp29
 70
     1
102
RTVSPost2010Prop30
280
     1
102
RTVSPost2010PropOp30
 70
     1
102
RTVSPost2010Prop31
280
     0
102
RTVSPost2010PropOp31
 70
     1
102
RTVSPost2010Prop32
280
     0
102
RTVSPost2010PropOp32
 70
     1
102
RTVSPost2010Prop33
280
     0
102
RTVSPost2010PropOp33
 70
     1
102
RTVSPost2010Prop34
280
     0
102
RTVSPost2010PropOp34
 70
     1
102
RTVSPost2010Prop35
280
     0
102
RTVSPost2010PropOp35
 70
     1
102
RTVSPost2010Prop36
280
     0
102
RTVSPost2010PropOp36
 70
     1
102
RTVSPost2010Prop37
 90
       50
102
RTVSPost2010PropOp37
 70
     1
102
RTVSPost2010Prop38
140
0.0
102
RTVSPost2010PropOp38
 70
     1
102
RTVSPost2010Prop39
140
1.0
102
RTVSPost2010PropOp39
 70
     1
102
RTVSPost2010Prop40
 90
        0
102
RTVSPost2010PropOp40
 70
     1
102
RTVSPost2010Prop41ColorIndex
 90
       18
102
RTVSPost2010Prop41ColorRGB
 90
        0
102
RTVSPost2010PropOp41
 70
     1
102
RTVSPost2010Prop42
 90
       50
102
RTVSPost2010PropOp42
 70
     1
102
RTVSPost2010Prop43
 90
        3
102
RTVSPost2010PropOp43
 70
     1
102
RTVSPost2010Prop44ColorIndex
 90
        5
102
RTVSPost2010Prop44ColorRGB
 90
      255
102
RTVSPost2010PropOp44
 70
     1
102
RTVSPost2010Prop45
280
     0
102
RTVSPost2010PropOp45
 70
     1
102
RTVSPost2010Prop46
 90
       50
102
RTVSPost2010PropOp46
 70
     1
102
RTVSPost2010Prop47
 90
       50
102
RTVSPost2010PropOp47
 70
     1
102
RTVSPost2010Prop48
 90
       50
102
RTVSPost2010PropOp48
 70
     1
102
RTVSPost2010Prop49
280
     0
102
RTVSPost2010PropOp49
 70
     1
102
RTVSPost2010Prop50
 90
       50
102
RTVSPost2010PropOp50
 70
     1
102
RTVSPost2010Prop51ColorIndex
 90
      256
102
RTVSPost2010Prop51ColorRGB
 90
-16777216
102
RTVSPost2010PropOp51
 70
     0
102
RTVSPost2010Prop52
140
1.0
102
RTVSPost2010PropOp52
 70
     0
102
RTVSPost2010Prop53
 90
        2
102
RTVSPost2010PropOp53
 70
     1
102
RTVSPost2010Prop54
  1
strokes_ogs.tif
102
RTVSPost2010PropOp54
 70
     1
102
RTVSPost2010Prop55
280
     0
102
RTVSPost2010PropOp55
 70
     1
102
RTVSPost2010Prop56
140
1.0
102
RTVSPost2010PropOp56
 70
     1
102
RTVSPost2010Prop57
140
1.0
102
RTVSPost2010PropOp57
 70
     1
  0
XRECORD
  5
295
102
{ACAD_REACTORS
330
294
102
}
330
294
100
AcDbXrecord
280
     1
102
RTVSPropertyOp0
 70
     0
102
RTVSPropertyOp1
 70
     0
102
RTVSPropertyOp2
 70
     0
102
RTVSPropertyOp3
 70
     0
102
RTVSPropertyOp4
 70
     0
102
RTVSPropertyOp5
 70
     0
102
RTVSPropertyOp6
 70
     0
102
RTVSPropertyOp7
 70
     0
102
RTVSPropertyOp8
 70
     0
102
RTVSPropertyOp9
 70
     0
102
RTVSPropertyOp10
 70
     0
102
RTVSPropertyOp11
 70
     0
102
RTVSPropertyOp12
 70
     0
102
RTVSPropertyOp13
 70
     0
102
RTVSPropertyOp14
 70
     2
102
RTVSPropertyOp15
 70
     0
102
RTVSPropertyOp16
 70
     0
102
RTVSPropertyOp17
 70
     0
102
RTVSPropertyOp18
 70
     0
102
RTVSPropertyOp19
 70
     0
102
RTVSPropertyOp20
 70
     0
102
RTVSPropertyOp21
 70
     0
102
RTVSPropertyOp22
 70
     0
102
RTVSPropertyOp23
 70
     0
102
RTVSPropertyOp24
 70
     0
102
RTVSPropertyOp25
 70
     0
102
RTVSPropertyOp26
 70
     0
102
RTVSPropertyOp27
 70
     0
102
RTVSPropertyOp28
 70
     0
102
RTVSPropertyOp29
 70
     0
102
RTVSPropertyOp30
 70
     0
102
RTVSPropertyOp31
 70
     0
102
RTVSPropertyOp32
 70
     0
102
RTVSPropertyOp33
 70
     0
102
RTVSPropertyOp34
 70
     0
102
RTVSPropertyOp35
 70
     0
102
RTVSPropertyOp36
 70
     0
102
RTVSPropertyOp37
 70
     0
102
RTVSPropertyOp38
 70
     0
102
RTVSPropertyOp39
 70
     0
102
RTVSPropertyOp40
 70
     0
102
RTVSPropertyOp41
 70
     0
102
RTVSPropertyOp42
 70
     0
102
RTVSPropertyOp43
 70
     0
102
RTVSPropertyOp44
 70
     0
102
RTVSPropertyOp45
 70
     0
102
RTVSPropertyOp46
 70
     0
102
RTVSPropertyOp47
 70
     0
102
RTVSPropertyOp48
 70
     0
102
RTVSPropertyOp49
 70
     0
102
RTVSPropertyOp50
 70
     0
102
RTVSPropertyOp51
 70
     0
102
RTVSPropertyOp52
 70
     0
102
RTVSPropertyOp53
 70
     0
102
RTVSPropertyOp54
 70
     0
102
RTVSPropertyOp55
 70
     0
102
RTVSPropertyOp56
 70
     0
102
RTVSPropertyOp57
 70
     0
102
RTVSPost2010Prop28
280
     0
102
RTVSPost2010PropOp28
 70
     0
102
RTVSPost2010Prop29
280
     1
102
RTVSPost2010PropOp29
 70
     0
102
RTVSPost2010Prop30
280
     1
102
RTVSPost2010PropOp30
 70
     0
102
RTVSPost2010Prop31
280
     0
102
RTVSPost2010PropOp31
 70
     0
102
RTVSPost2010Prop32
280
     0
102
RTVSPost2010PropOp32
 70
     0
102
RTVSPost2010Prop33
280
     0
102
RTVSPost2010PropOp33
 70
     0
102
RTVSPost2010Prop34
280
     0
102
RTVSPost2010PropOp34
 70
     0
102
RTVSPost2010Prop35
280
     0
102
RTVSPost2010PropOp35
 70
     0
102
RTVSPost2010Prop36
280
     0
102
RTVSPost2010PropOp36
 70
     0
102
RTVSPost2010Prop37
 90
       50
102
RTVSPost2010PropOp37
 70
     0
102
RTVSPost2010Prop38
140
0.0
102
RTVSPost2010PropOp38
 70
     0
102
RTVSPost2010Prop39
140
1.0
102
RTVSPost2010PropOp39
 70
     0
102
RTVSPost2010Prop40
 90
        0
102
RTVSPost2010PropOp40
 70
     0
102
RTVSPost2010Prop41ColorIndex
 90
       18
102
RTVSPost2010Prop41ColorRGB
 90
        0
102
RTVSPost2010PropOp41
 70
     0
102
RTVSPost2010Prop42
 90
       50
102
RTVSPost2010PropOp42
 70
     0
102
RTVSPost2010Prop43
 90
        3
102
RTVSPost2010PropOp43
 70
     0
102
RTVSPost2010Prop44ColorIndex
 90
        5
102
RTVSPost2010Prop44ColorRGB
 90
      255
102
RTVSPost2010PropOp44
 70
     0
102
RTVSPost2010Prop45
280
     0
102
RTVSPost2010PropOp45
 70
     0
102
RTVSPost2010Prop46
 90
       50
102
RTVSPost2010PropOp46
 70
     0
102
RTVSPost2010Prop47
 90
       50
102
RTVSPost2010PropOp47
 70
     0
102
RTVSPost2010Prop48
 90
       50
102
RTVSPost2010PropOp48
 70
     0
102
RTVSPost2010Prop49
280
     0
102
RTVSPost2010PropOp49
 70
     0
102
RTVSPost2010Prop50
 90
       50
102
RTVSPost2010PropOp50
 70
     0
102
RTVSPost2010Prop51ColorIndex
 90
      256
102
RTVSPost2010Prop51ColorRGB
 90
-16777216
102
RTVSPost2010PropOp51
 70
     0
102
RTVSPost2010Prop52
140
1.0
102
RTVSPost2010PropOp52
 70
     0
102
RTVSPost2010Prop53
 90
        2
102
RTVSPost2010PropOp53
 70
     0
102
RTVSPost2010Prop54
  1
strokes_ogs.tif
102
RTVSPost2010PropOp54
 70
     0
102
RTVSPost2010Prop55
280
     0
102
RTVSPost2010PropOp55
 70
     0
102
RTVSPost2010Prop56
140
1.0
102
RTVSPost2010PropOp56
 70
     0
102
RTVSPost2010Prop57
140
1.0
102
RTVSPost2010PropOp57
 70
     0
  0
XRECORD
  5
28F
102
{ACAD_REACTORS
330
28E
102
}
330
28E
100
AcDbXrecord
280
     1
102
RTVSPropertyOp0
 70
     1
102
RTVSPropertyOp1
 70
     1
102
RTVSPropertyOp2
 70
     1
102
RTVSPropertyOp3
 70
     1
102
RTVSPropertyOp4
 70
     1
102
RTVSPropertyOp5
 70
     1
102
RTVSPropertyOp6
 70
     1
102
RTVSPropertyOp7
 70
     1
102
RTVSPropertyOp8
 70
     1
102
RTVSPropertyOp9
 70
     1
102
RTVSPropertyOp10
 70
     1
102
RTVSPropertyOp11
 70
     1
102
RTVSPropertyOp12
 70
     1
102
RTVSPropertyOp13
 70
     1
102
RTVSPropertyOp14
 70
     1
102
RTVSPropertyOp15
 70
     1
102
RTVSPropertyOp16
 70
     1
102
RTVSPropertyOp17
 70
     1
102
RTVSPropertyOp18
 70
     1
102
RTVSPropertyOp19
 70
     1
102
RTVSPropertyOp20
 70
     1
102
RTVSPropertyOp21
 70
     1
102
RTVSPropertyOp22
 70
     1
102
RTVSPropertyOp23
 70
     1
102
RTVSPropertyOp24
 70
     1
102
RTVSPropertyOp25
 70
     1
102
RTVSPropertyOp26
 70
     1
102
RTVSPropertyOp27
 70
     1
102
RTVSPropertyOp28
 70
     1
102
RTVSPropertyOp29
 70
     1
102
RTVSPropertyOp30
 70
     1
102
RTVSPropertyOp31
 70
     1
102
RTVSPropertyOp32
 70
     1
102
RTVSPropertyOp33
 70
     1
102
RTVSPropertyOp34
 70
     1
102
RTVSPropertyOp35
 70
     1
102
RTVSPropertyOp36
 70
     1
102
RTVSPropertyOp37
 70
     1
102
RTVSPropertyOp38
 70
     1
102
RTVSPropertyOp39
 70
     1
102
RTVSPropertyOp40
 70
     1
102
RTVSPropertyOp41
 70
     1
102
RTVSPropertyOp42
 70
     1
102
RTVSPropertyOp43
 70
     1
102
RTVSPropertyOp44
 70
     1
102
RTVSPropertyOp45
 70
     1
102
RTVSPropertyOp46
 70
     1
102
RTVSPropertyOp47
 70
     1
102
RTVSPropertyOp48
 70
     1
102
RTVSPropertyOp49
 70
     1
102
RTVSPropertyOp50
 70
     1
102
RTVSPropertyOp51
 70
     0
102
RTVSPropertyOp52
 70
     0
102
RTVSPropertyOp53
 70
     1
102
RTVSPropertyOp54
 70
     1
102
RTVSPropertyOp55
 70
     1
102
RTVSPropertyOp56
 70
     1
102
RTVSPropertyOp57
 70
     1
102
RTVSPost2010Prop28
280
     0
102
RTVSPost2010PropOp28
 70
     1
102
RTVSPost2010Prop29
280
     1
102
RTVSPost2010PropOp29
 70
     1
102
RTVSPost2010Prop30
280
     1
102
RTVSPost2010PropOp30
 70
     1
102
RTVSPost2010Prop31
280
     0
102
RTVSPost2010PropOp31
 70
     1
102
RTVSPost2010Prop32
280
     0
102
RTVSPost2010PropOp32
 70
     1
102
RTVSPost2010Prop33
280
     0
102
RTVSPost2010PropOp33
 70
     1
102
RTVSPost2010Prop34
280
     0
102
RTVSPost2010PropOp34
 70
     1
102
RTVSPost2010Prop35
280
     0
102
RTVSPost2010PropOp35
 70
     1
102
RTVSPost2010Prop36
280
     0
102
RTVSPost2010PropOp36
 70
     1
102
RTVSPost2010Prop37
 90
       50
102
RTVSPost2010PropOp37
 70
     1
102
RTVSPost2010Prop38
140
0.0
102
RTVSPost2010PropOp38
 70
     1
102
RTVSPost2010Prop39
140
1.0
102
RTVSPost2010PropOp39
 70
     1
102
RTVSPost2010Prop40
 90
        0
102
RTVSPost2010PropOp40
 70
     1
102
RTVSPost2010Prop41ColorIndex
 90
       18
102
RTVSPost2010Prop41ColorRGB
 90
        0
102
RTVSPost2010PropOp41
 70
     1
102
RTVSPost2010Prop42
 90
       50
102
RTVSPost2010PropOp42
 70
     1
102
RTVSPost2010Prop43
 90
        3
102
RTVSPost2010PropOp43
 70
     1
102
RTVSPost2010Prop44ColorIndex
 90
        5
102
RTVSPost2010Prop44ColorRGB
 90
      255
102
RTVSPost2010PropOp44
 70
     1
102
RTVSPost2010Prop45
280
     0
102
RTVSPost2010PropOp45
 70
     1
102
RTVSPost2010Prop46
 90
       50
102
RTVSPost2010PropOp46
 70
     1
102
RTVSPost2010Prop47
 90
       50
102
RTVSPost2010PropOp47
 70
     1
102
RTVSPost2010Prop48
 90
       50
102
RTVSPost2010PropOp48
 70
     1
102
RTVSPost2010Prop49
280
     0
102
RTVSPost2010PropOp49
 70
     1
102
RTVSPost2010Prop50
 90
       50
102
RTVSPost2010PropOp50
 70
     1
102
RTVSPost2010Prop51ColorIndex
 90
      256
102
RTVSPost2010Prop51ColorRGB
 90
-16777216
102
RTVSPost2010PropOp51
 70
     0
102
RTVSPost2010Prop52
140
1.0
102
RTVSPost2010PropOp52
 70
     0
102
RTVSPost2010Prop53
 90
        2
102
RTVSPost2010PropOp53
 70
     1
102
RTVSPost2010Prop54
  1
strokes_ogs.tif
102
RTVSPost2010PropOp54
 70
     1
102
RTVSPost2010Prop55
280
     0
102
RTVSPost2010PropOp55
 70
     1
102
RTVSPost2010Prop56
140
1.0
102
RTVSPost2010PropOp56
 70
     1
102
RTVSPost2010Prop57
140
1.0
102
RTVSPost2010PropOp57
 70
     1
  0
XRECORD
  5
297
102
{ACAD_REACTORS
330
296
102
}
330
296
100
AcDbXrecord
280
     1
102
RTVSPropertyOp0
 70
     0
102
RTVSPropertyOp1
 70
     0
102
RTVSPropertyOp2
 70
     0
102
RTVSPropertyOp3
 70
     0
102
RTVSPropertyOp4
 70
     0
102
RTVSPropertyOp5
 70
     0
102
RTVSPropertyOp6
 70
     0
102
RTVSPropertyOp7
 70
     0
102
RTVSPropertyOp8
 70
     0
102
RTVSPropertyOp9
 70
     0
102
RTVSPropertyOp10
 70
     0
102
RTVSPropertyOp11
 70
     0
102
RTVSPropertyOp12
 70
     0
102
RTVSPropertyOp13
 70
     0
102
RTVSPropertyOp14
 70
     2
102
RTVSPropertyOp15
 70
     0
102
RTVSPropertyOp16
 70
     0
102
RTVSPropertyOp17
 70
     0
102
RTVSPropertyOp18
 70
     0
102
RTVSPropertyOp19
 70
     0
102
RTVSPropertyOp20
 70
     0
102
RTVSPropertyOp21
 70
     0
102
RTVSPropertyOp22
 70
     0
102
RTVSPropertyOp23
 70
     0
102
RTVSPropertyOp24
 70
     0
102
RTVSPropertyOp25
 70
     0
102
RTVSPropertyOp26
 70
     0
102
RTVSPropertyOp27
 70
     0
102
RTVSPropertyOp28
 70
     0
102
RTVSPropertyOp29
 70
     0
102
RTVSPropertyOp30
 70
     0
102
RTVSPropertyOp31
 70
     0
102
RTVSPropertyOp32
 70
     0
102
RTVSPropertyOp33
 70
     0
102
RTVSPropertyOp34
 70
     0
102
RTVSPropertyOp35
 70
     0
102
RTVSPropertyOp36
 70
     0
102
RTVSPropertyOp37
 70
     0
102
RTVSPropertyOp38
 70
     0
102
RTVSPropertyOp39
 70
     0
102
RTVSPropertyOp40
 70
     0
102
RTVSPropertyOp41
 70
     0
102
RTVSPropertyOp42
 70
     0
102
RTVSPropertyOp43
 70
     0
102
RTVSPropertyOp44
 70
     0
102
RTVSPropertyOp45
 70
     0
102
RTVSPropertyOp46
 70
     0
102
RTVSPropertyOp47
 70
     0
102
RTVSPropertyOp48
 70
     0
102
RTVSPropertyOp49
 70
     0
102
RTVSPropertyOp50
 70
     0
102
RTVSPropertyOp51
 70
     0
102
RTVSPropertyOp52
 70
     0
102
RTVSPropertyOp53
 70
     0
102
RTVSPropertyOp54
 70
     0
102
RTVSPropertyOp55
 70
     0
102
RTVSPropertyOp56
 70
     0
102
RTVSPropertyOp57
 70
     0
102
RTVSPost2010Prop28
280
     0
102
RTVSPost2010PropOp28
 70
     0
102
RTVSPost2010Prop29
280
     1
102
RTVSPost2010PropOp29
 70
     0
102
RTVSPost2010Prop30
280
     1
102
RTVSPost2010PropOp30
 70
     0
102
RTVSPost2010Prop31
280
     0
102
RTVSPost2010PropOp31
 70
     0
102
RTVSPost2010Prop32
280
     0
102
RTVSPost2010PropOp32
 70
     0
102
RTVSPost2010Prop33
280
     0
102
RTVSPost2010PropOp33
 70
     0
102
RTVSPost2010Prop34
280
     0
102
RTVSPost2010PropOp34
 70
     0
102
RTVSPost2010Prop35
280
     0
102
RTVSPost2010PropOp35
 70
     0
102
RTVSPost2010Prop36
280
     0
102
RTVSPost2010PropOp36
 70
     0
102
RTVSPost2010Prop37
 90
       50
102
RTVSPost2010PropOp37
 70
     0
102
RTVSPost2010Prop38
140
0.0
102
RTVSPost2010PropOp38
 70
     0
102
RTVSPost2010Prop39
140
1.0
102
RTVSPost2010PropOp39
 70
     0
102
RTVSPost2010Prop40
 90
        0
102
RTVSPost2010PropOp40
 70
     0
102
RTVSPost2010Prop41ColorIndex
 90
       18
102
RTVSPost2010Prop41ColorRGB
 90
        0
102
RTVSPost2010PropOp41
 70
     0
102
RTVSPost2010Prop42
 90
       50
102
RTVSPost2010PropOp42
 70
     0
102
RTVSPost2010Prop43
 90
        3
102
RTVSPost2010PropOp43
 70
     0
102
RTVSPost2010Prop44ColorIndex
 90
        5
102
RTVSPost2010Prop44ColorRGB
 90
      255
102
RTVSPost2010PropOp44
 70
     0
102
RTVSPost2010Prop45
280
     0
102
RTVSPost2010PropOp45
 70
     0
102
RTVSPost2010Prop46
 90
       50
102
RTVSPost2010PropOp46
 70
     0
102
RTVSPost2010Prop47
 90
       50
102
RTVSPost2010PropOp47
 70
     0
102
RTVSPost2010Prop48
 90
       50
102
RTVSPost2010PropOp48
 70
     0
102
RTVSPost2010Prop49
280
     0
102
RTVSPost2010PropOp49
 70
     0
102
RTVSPost2010Prop50
 90
       50
102
RTVSPost2010PropOp50
 70
     0
102
RTVSPost2010Prop51ColorIndex
 90
      256
102
RTVSPost2010Prop51ColorRGB
 90
-16777216
102
RTVSPost2010PropOp51
 70
     0
102
RTVSPost2010Prop52
140
1.0
102
RTVSPost2010PropOp52
 70
     0
102
RTVSPost2010Prop53
 90
        2
102
RTVSPost2010PropOp53
 70
     0
102
RTVSPost2010Prop54
  1
strokes_ogs.tif
102
RTVSPost2010PropOp54
 70
     0
102
RTVSPost2010Prop55
280
     0
102
RTVSPost2010PropOp55
 70
     0
102
RTVSPost2010Prop56
140
1.0
102
RTVSPost2010PropOp56
 70
     0
102
RTVSPost2010Prop57
140
1.0
102
RTVSPost2010PropOp57
 70
     0
  0
XRECORD
  5
285
102
{ACAD_REACTORS
330
284
102
}
330
284
100
AcDbXrecord
280
     1
102
RTVSPropertyOp0
 70
     1
102
RTVSPropertyOp1
 70
     1
102
RTVSPropertyOp2
 70
     1
102
RTVSPropertyOp3
 70
     1
102
RTVSPropertyOp4
 70
     1
102
RTVSPropertyOp5
 70
     1
102
RTVSPropertyOp6
 70
     1
102
RTVSPropertyOp7
 70
     1
102
RTVSPropertyOp8
 70
     1
102
RTVSPropertyOp9
 70
     1
102
RTVSPropertyOp10
 70
     1
102
RTVSPropertyOp11
 70
     1
102
RTVSPropertyOp12
 70
     1
102
RTVSPropertyOp13
 70
     1
102
RTVSPropertyOp14
 70
     1
102
RTVSPropertyOp15
 70
     1
102
RTVSPropertyOp16
 70
     1
102
RTVSPropertyOp17
 70
     1
102
RTVSPropertyOp18
 70
     1
102
RTVSPropertyOp19
 70
     1
102
RTVSPropertyOp20
 70
     1
102
RTVSPropertyOp21
 70
     1
102
RTVSPropertyOp22
 70
     1
102
RTVSPropertyOp23
 70
     1
102
RTVSPropertyOp24
 70
     1
102
RTVSPropertyOp25
 70
     1
102
RTVSPropertyOp26
 70
     1
102
RTVSPropertyOp27
 70
     1
102
RTVSPropertyOp28
 70
     1
102
RTVSPropertyOp29
 70
     1
102
RTVSPropertyOp30
 70
     1
102
RTVSPropertyOp31
 70
     1
102
RTVSPropertyOp32
 70
     1
102
RTVSPropertyOp33
 70
     1
102
RTVSPropertyOp34
 70
     1
102
RTVSPropertyOp35
 70
     1
102
RTVSPropertyOp36
 70
     1
102
RTVSPropertyOp37
 70
     1
102
RTVSPropertyOp38
 70
     1
102
RTVSPropertyOp39
 70
     1
102
RTVSPropertyOp40
 70
     1
102
RTVSPropertyOp41
 70
     1
102
RTVSPropertyOp42
 70
     1
102
RTVSPropertyOp43
 70
     1
102
RTVSPropertyOp44
 70
     1
102
RTVSPropertyOp45
 70
     1
102
RTVSPropertyOp46
 70
     1
102
RTVSPropertyOp47
 70
     1
102
RTVSPropertyOp48
 70
     1
102
RTVSPropertyOp49
 70
     1
102
RTVSPropertyOp50
 70
     1
102
RTVSPropertyOp51
 70
     0
102
RTVSPropertyOp52
 70
     0
102
RTVSPropertyOp53
 70
     1
102
RTVSPropertyOp54
 70
     1
102
RTVSPropertyOp55
 70
     1
102
RTVSPropertyOp56
 70
     1
102
RTVSPropertyOp57
 70
     1
102
RTVSPost2010Prop28
280
     0
102
RTVSPost2010PropOp28
 70
     1
102
RTVSPost2010Prop29
280
     1
102
RTVSPost2010PropOp29
 70
     1
102
RTVSPost2010Prop30
280
     1
102
RTVSPost2010PropOp30
 70
     1
102
RTVSPost2010Prop31
280
     0
102
RTVSPost2010PropOp31
 70
     1
102
RTVSPost2010Prop32
280
     0
102
RTVSPost2010PropOp32
 70
     1
102
RTVSPost2010Prop33
280
     0
102
RTVSPost2010PropOp33
 70
     1
102
RTVSPost2010Prop34
280
     0
102
RTVSPost2010PropOp34
 70
     1
102
RTVSPost2010Prop35
280
     0
102
RTVSPost2010PropOp35
 70
     1
102
RTVSPost2010Prop36
280
     0
102
RTVSPost2010PropOp36
 70
     1
102
RTVSPost2010Prop37
 90
       50
102
RTVSPost2010PropOp37
 70
     1
102
RTVSPost2010Prop38
140
0.0
102
RTVSPost2010PropOp38
 70
     1
102
RTVSPost2010Prop39
140
1.0
102
RTVSPost2010PropOp39
 70
     1
102
RTVSPost2010Prop40
 90
        0
102
RTVSPost2010PropOp40
 70
     1
102
RTVSPost2010Prop41ColorIndex
 90
       18
102
RTVSPost2010Prop41ColorRGB
 90
        0
102
RTVSPost2010PropOp41
 70
     1
102
RTVSPost2010Prop42
 90
       50
102
RTVSPost2010PropOp42
 70
     1
102
RTVSPost2010Prop43
 90
        3
102
RTVSPost2010PropOp43
 70
     1
102
RTVSPost2010Prop44ColorIndex
 90
        5
102
RTVSPost2010Prop44ColorRGB
 90
      255
102
RTVSPost2010PropOp44
 70
     1
102
RTVSPost2010Prop45
280
     0
102
RTVSPost2010PropOp45
 70
     1
102
RTVSPost2010Prop46
 90
       50
102
RTVSPost2010PropOp46
 70
     1
102
RTVSPost2010Prop47
 90
       50
102
RTVSPost2010PropOp47
 70
     1
102
RTVSPost2010Prop48
 90
       50
102
RTVSPost2010PropOp48
 70
     1
102
RTVSPost2010Prop49
280
     0
102
RTVSPost2010PropOp49
 70
     1
102
RTVSPost2010Prop50
 90
       50
102
RTVSPost2010PropOp50
 70
     1
102
RTVSPost2010Prop51ColorIndex
 90
      256
102
RTVSPost2010Prop51ColorRGB
 90
-16777216
102
RTVSPost2010PropOp51
 70
     0
102
RTVSPost2010Prop52
140
1.0
102
RTVSPost2010PropOp52
 70
     0
102
RTVSPost2010Prop53
 90
        2
102
RTVSPost2010PropOp53
 70
     1
102
RTVSPost2010Prop54
  1
strokes_ogs.tif
102
RTVSPost2010PropOp54
 70
     1
102
RTVSPost2010Prop55
280
     0
102
RTVSPost2010PropOp55
 70
     1
102
RTVSPost2010Prop56
140
1.0
102
RTVSPost2010PropOp56
 70
     1
102
RTVSPost2010Prop57
140
1.0
102
RTVSPost2010PropOp57
 70
     1
  0
XRECORD
  5
2A3
102
{ACAD_REACTORS
330
2A2
102
}
330
2A2
100
AcDbXrecord
280
     1
102
RTVSPropertyOp0
 70
     1
102
RTVSPropertyOp1
 70
     1
102
RTVSPropertyOp2
 70
     1
102
RTVSPropertyOp3
 70
     1
102
RTVSPropertyOp4
 70
     1
102
RTVSPropertyOp5
 70
     1
102
RTVSPropertyOp6
 70
     1
102
RTVSPropertyOp7
 70
     1
102
RTVSPropertyOp8
 70
     1
102
RTVSPropertyOp9
 70
     1
102
RTVSPropertyOp10
 70
     1
102
RTVSPropertyOp11
 70
     1
102
RTVSPropertyOp12
 70
     1
102
RTVSPropertyOp13
 70
     1
102
RTVSPropertyOp14
 70
     1
102
RTVSPropertyOp15
 70
     1
102
RTVSPropertyOp16
 70
     1
102
RTVSPropertyOp17
 70
     1
102
RTVSPropertyOp18
 70
     1
102
RTVSPropertyOp19
 70
     1
102
RTVSPropertyOp20
 70
     1
102
RTVSPropertyOp21
 70
     1
102
RTVSPropertyOp22
 70
     1
102
RTVSPropertyOp23
 70
     1
102
RTVSPropertyOp24
 70
     1
102
RTVSPropertyOp25
 70
     1
102
RTVSPropertyOp26
 70
     1
102
RTVSPropertyOp27
 70
     1
102
RTVSPropertyOp28
 70
     1
102
RTVSPropertyOp29
 70
     1
102
RTVSPropertyOp30
 70
     1
102
RTVSPropertyOp31
 70
     1
102
RTVSPropertyOp32
 70
     1
102
RTVSPropertyOp33
 70
     1
102
RTVSPropertyOp34
 70
     1
102
RTVSPropertyOp35
 70
     1
102
RTVSPropertyOp36
 70
     1
102
RTVSPropertyOp37
 70
     1
102
RTVSPropertyOp38
 70
     1
102
RTVSPropertyOp39
 70
     1
102
RTVSPropertyOp40
 70
     1
102
RTVSPropertyOp41
 70
     1
102
RTVSPropertyOp42
 70
     1
102
RTVSPropertyOp43
 70
     1
102
RTVSPropertyOp44
 70
     1
102
RTVSPropertyOp45
 70
     1
102
RTVSPropertyOp46
 70
     1
102
RTVSPropertyOp47
 70
     1
102
RTVSPropertyOp48
 70
     1
102
RTVSPropertyOp49
 70
     1
102
RTVSPropertyOp50
 70
     1
102
RTVSPropertyOp51
 70
     0
102
RTVSPropertyOp52
 70
     0
102
RTVSPropertyOp53
 70
     1
102
RTVSPropertyOp54
 70
     1
102
RTVSPropertyOp55
 70
     1
102
RTVSPropertyOp56
 70
     1
102
RTVSPropertyOp57
 70
     1
102
RTVSPost2010Prop28
280
     0
102
RTVSPost2010PropOp28
 70
     1
102
RTVSPost2010Prop29
280
     1
102
RTVSPost2010PropOp29
 70
     1
102
RTVSPost2010Prop30
280
     1
102
RTVSPost2010PropOp30
 70
     1
102
RTVSPost2010Prop31
280
     0
102
RTVSPost2010PropOp31
 70
     1
102
RTVSPost2010Prop32
280
     0
102
RTVSPost2010PropOp32
 70
     1
102
RTVSPost2010Prop33
280
     0
102
RTVSPost2010PropOp33
 70
     1
102
RTVSPost2010Prop34
280
     0
102
RTVSPost2010PropOp34
 70
     1
102
RTVSPost2010Prop35
280
     0
102
RTVSPost2010PropOp35
 70
     1
102
RTVSPost2010Prop36
280
     0
102
RTVSPost2010PropOp36
 70
     1
102
RTVSPost2010Prop37
 90
       50
102
RTVSPost2010PropOp37
 70
     1
102
RTVSPost2010Prop38
140
0.0
102
RTVSPost2010PropOp38
 70
     1
102
RTVSPost2010Prop39
140
1.0
102
RTVSPost2010PropOp39
 70
     1
102
RTVSPost2010Prop40
 90
        0
102
RTVSPost2010PropOp40
 70
     1
102
RTVSPost2010Prop41ColorIndex
 90
       18
102
RTVSPost2010Prop41ColorRGB
 90
        0
102
RTVSPost2010PropOp41
 70
     1
102
RTVSPost2010Prop42
 90
       50
102
RTVSPost2010PropOp42
 70
     1
102
RTVSPost2010Prop43
 90
        3
102
RTVSPost2010PropOp43
 70
     1
102
RTVSPost2010Prop44ColorIndex
 90
        5
102
RTVSPost2010Prop44ColorRGB
 90
      255
102
RTVSPost2010PropOp44
 70
     1
102
RTVSPost2010Prop45
280
     0
102
RTVSPost2010PropOp45
 70
     1
102
RTVSPost2010Prop46
 90
       50
102
RTVSPost2010PropOp46
 70
     1
102
RTVSPost2010Prop47
 90
       50
102
RTVSPost2010PropOp47
 70
     1
102
RTVSPost2010Prop48
 90
       50
102
RTVSPost2010PropOp48
 70
     1
102
RTVSPost2010Prop49
280
     0
102
RTVSPost2010PropOp49
 70
     1
102
RTVSPost2010Prop50
 90
       50
102
RTVSPost2010PropOp50
 70
     1
102
RTVSPost2010Prop51ColorIndex
 90
      256
102
RTVSPost2010Prop51ColorRGB
 90
-16777216
102
RTVSPost2010PropOp51
 70
     0
102
RTVSPost2010Prop52
140
1.0
102
RTVSPost2010PropOp52
 70
     0
102
RTVSPost2010Prop53
 90
        2
102
RTVSPost2010PropOp53
 70
     1
102
RTVSPost2010Prop54
  1
strokes_ogs.tif
102
RTVSPost2010PropOp54
 70
     1
102
RTVSPost2010Prop55
280
     0
102
RTVSPost2010PropOp55
 70
     1
102
RTVSPost2010Prop56
140
1.0
102
RTVSPost2010PropOp56
 70
     1
102
RTVSPost2010Prop57
140
1.0
102
RTVSPost2010PropOp57
 70
     1
  0
XRECORD
  5
2A1
102
{ACAD_REACTORS
330
2A0
102
}
330
2A0
100
AcDbXrecord
280
     1
102
RTVSPropertyOp0
 70
     1
102
RTVSPropertyOp1
 70
     1
102
RTVSPropertyOp2
 70
     1
102
RTVSPropertyOp3
 70
     1
102
RTVSPropertyOp4
 70
     1
102
RTVSPropertyOp5
 70
     1
102
RTVSPropertyOp6
 70
     1
102
RTVSPropertyOp7
 70
     1
102
RTVSPropertyOp8
 70
     1
102
RTVSPropertyOp9
 70
     1
102
RTVSPropertyOp10
 70
     1
102
RTVSPropertyOp11
 70
     1
102
RTVSPropertyOp12
 70
     1
102
RTVSPropertyOp13
 70
     1
102
RTVSPropertyOp14
 70
     1
102
RTVSPropertyOp15
 70
     1
102
RTVSPropertyOp16
 70
     1
102
RTVSPropertyOp17
 70
     1
102
RTVSPropertyOp18
 70
     1
102
RTVSPropertyOp19
 70
     1
102
RTVSPropertyOp20
 70
     1
102
RTVSPropertyOp21
 70
     1
102
RTVSPropertyOp22
 70
     1
102
RTVSPropertyOp23
 70
     1
102
RTVSPropertyOp24
 70
     1
102
RTVSPropertyOp25
 70
     1
102
RTVSPropertyOp26
 70
     1
102
RTVSPropertyOp27
 70
     1
102
RTVSPropertyOp28
 70
     1
102
RTVSPropertyOp29
 70
     1
102
RTVSPropertyOp30
 70
     1
102
RTVSPropertyOp31
 70
     1
102
RTVSPropertyOp32
 70
     1
102
RTVSPropertyOp33
 70
     1
102
RTVSPropertyOp34
 70
     1
102
RTVSPropertyOp35
 70
     1
102
RTVSPropertyOp36
 70
     1
102
RTVSPropertyOp37
 70
     1
102
RTVSPropertyOp38
 70
     1
102
RTVSPropertyOp39
 70
     1
102
RTVSPropertyOp40
 70
     1
102
RTVSPropertyOp41
 70
     1
102
RTVSPropertyOp42
 70
     1
102
RTVSPropertyOp43
 70
     1
102
RTVSPropertyOp44
 70
     1
102
RTVSPropertyOp45
 70
     1
102
RTVSPropertyOp46
 70
     1
102
RTVSPropertyOp47
 70
     1
102
RTVSPropertyOp48
 70
     1
102
RTVSPropertyOp49
 70
     1
102
RTVSPropertyOp50
 70
     1
102
RTVSPropertyOp51
 70
     0
102
RTVSPropertyOp52
 70
     0
102
RTVSPropertyOp53
 70
     1
102
RTVSPropertyOp54
 70
     1
102
RTVSPropertyOp55
 70
     1
102
RTVSPropertyOp56
 70
     1
102
RTVSPropertyOp57
 70
     1
102
RTVSPost2010Prop28
280
     0
102
RTVSPost2010PropOp28
 70
     1
102
RTVSPost2010Prop29
280
     1
102
RTVSPost2010PropOp29
 70
     1
102
RTVSPost2010Prop30
280
     1
102
RTVSPost2010PropOp30
 70
     1
102
RTVSPost2010Prop31
280
     0
102
RTVSPost2010PropOp31
 70
     1
102
RTVSPost2010Prop32
280
     0
102
RTVSPost2010PropOp32
 70
     1
102
RTVSPost2010Prop33
280
     0
102
RTVSPost2010PropOp33
 70
     1
102
RTVSPost2010Prop34
280
     0
102
RTVSPost2010PropOp34
 70
     1
102
RTVSPost2010Prop35
280
     0
102
RTVSPost2010PropOp35
 70
     1
102
RTVSPost2010Prop36
280
     0
102
RTVSPost2010PropOp36
 70
     1
102
RTVSPost2010Prop37
 90
       50
102
RTVSPost2010PropOp37
 70
     1
102
RTVSPost2010Prop38
140
0.0
102
RTVSPost2010PropOp38
 70
     1
102
RTVSPost2010Prop39
140
1.0
102
RTVSPost2010PropOp39
 70
     1
102
RTVSPost2010Prop40
 90
        0
102
RTVSPost2010PropOp40
 70
     1
102
RTVSPost2010Prop41ColorIndex
 90
       18
102
RTVSPost2010Prop41ColorRGB
 90
        0
102
RTVSPost2010PropOp41
 70
     1
102
RTVSPost2010Prop42
 90
       50
102
RTVSPost2010PropOp42
 70
     1
102
RTVSPost2010Prop43
 90
        3
102
RTVSPost2010PropOp43
 70
     1
102
RTVSPost2010Prop44ColorIndex
 90
        5
102
RTVSPost2010Prop44ColorRGB
 90
      255
102
RTVSPost2010PropOp44
 70
     1
102
RTVSPost2010Prop45
280
     0
102
RTVSPost2010PropOp45
 70
     1
102
RTVSPost2010Prop46
 90
       50
102
RTVSPost2010PropOp46
 70
     1
102
RTVSPost2010Prop47
 90
       50
102
RTVSPost2010PropOp47
 70
     1
102
RTVSPost2010Prop48
 90
       50
102
RTVSPost2010PropOp48
 70
     1
102
RTVSPost2010Prop49
280
     0
102
RTVSPost2010PropOp49
 70
     1
102
RTVSPost2010Prop50
 90
       50
102
RTVSPost2010PropOp50
 70
     1
102
RTVSPost2010Prop51ColorIndex
 90
      256
102
RTVSPost2010Prop51ColorRGB
 90
-16777216
102
RTVSPost2010PropOp51
 70
     0
102
RTVSPost2010Prop52
140
1.0
102
RTVSPost2010PropOp52
 70
     0
102
RTVSPost2010Prop53
 90
        2
102
RTVSPost2010PropOp53
 70
     1
102
RTVSPost2010Prop54
  1
strokes_ogs.tif
102
RTVSPost2010PropOp54
 70
     1
102
RTVSPost2010Prop55
280
     0
102
RTVSPost2010PropOp55
 70
     1
102
RTVSPost2010Prop56
140
1.0
102
RTVSPost2010PropOp56
 70
     1
102
RTVSPost2010Prop57
140
1.0
102
RTVSPost2010PropOp57
 70
     1
  0
XRECORD
  5
29B
102
{ACAD_REACTORS
330
29A
102
}
330
29A
100
AcDbXrecord
280
     1
102
RTVSPropertyOp0
 70
     1
102
RTVSPropertyOp1
 70
     1
102
RTVSPropertyOp2
 70
     1
102
RTVSPropertyOp3
 70
     1
102
RTVSPropertyOp4
 70
     1
102
RTVSPropertyOp5
 70
     1
102
RTVSPropertyOp6
 70
     1
102
RTVSPropertyOp7
 70
     1
102
RTVSPropertyOp8
 70
     1
102
RTVSPropertyOp9
 70
     1
102
RTVSPropertyOp10
 70
     1
102
RTVSPropertyOp11
 70
     1
102
RTVSPropertyOp12
 70
     1
102
RTVSPropertyOp13
 70
     1
102
RTVSPropertyOp14
 70
     1
102
RTVSPropertyOp15
 70
     1
102
RTVSPropertyOp16
 70
     1
102
RTVSPropertyOp17
 70
     1
102
RTVSPropertyOp18
 70
     1
102
RTVSPropertyOp19
 70
     1
102
RTVSPropertyOp20
 70
     1
102
RTVSPropertyOp21
 70
     1
102
RTVSPropertyOp22
 70
     1
102
RTVSPropertyOp23
 70
     1
102
RTVSPropertyOp24
 70
     1
102
RTVSPropertyOp25
 70
     1
102
RTVSPropertyOp26
 70
     1
102
RTVSPropertyOp27
 70
     1
102
RTVSPropertyOp28
 70
     1
102
RTVSPropertyOp29
 70
     1
102
RTVSPropertyOp30
 70
     1
102
RTVSPropertyOp31
 70
     1
102
RTVSPropertyOp32
 70
     1
102
RTVSPropertyOp33
 70
     1
102
RTVSPropertyOp34
 70
     1
102
RTVSPropertyOp35
 70
     1
102
RTVSPropertyOp36
 70
     1
102
RTVSPropertyOp37
 70
     1
102
RTVSPropertyOp38
 70
     1
102
RTVSPropertyOp39
 70
     1
102
RTVSPropertyOp40
 70
     1
102
RTVSPropertyOp41
 70
     1
102
RTVSPropertyOp42
 70
     1
102
RTVSPropertyOp43
 70
     1
102
RTVSPropertyOp44
 70
     1
102
RTVSPropertyOp45
 70
     1
102
RTVSPropertyOp46
 70
     1
102
RTVSPropertyOp47
 70
     1
102
RTVSPropertyOp48
 70
     1
102
RTVSPropertyOp49
 70
     1
102
RTVSPropertyOp50
 70
     1
102
RTVSPropertyOp51
 70
     0
102
RTVSPropertyOp52
 70
     0
102
RTVSPropertyOp53
 70
     1
102
RTVSPropertyOp54
 70
     1
102
RTVSPropertyOp55
 70
     1
102
RTVSPropertyOp56
 70
     1
102
RTVSPropertyOp57
 70
     1
102
RTVSPost2010Prop28
280
     0
102
RTVSPost2010PropOp28
 70
     1
102
RTVSPost2010Prop29
280
     1
102
RTVSPost2010PropOp29
 70
     1
102
RTVSPost2010Prop30
280
     1
102
RTVSPost2010PropOp30
 70
     1
102
RTVSPost2010Prop31
280
     0
102
RTVSPost2010PropOp31
 70
     1
102
RTVSPost2010Prop32
280
     0
102
RTVSPost2010PropOp32
 70
     1
102
RTVSPost2010Prop33
280
     0
102
RTVSPost2010PropOp33
 70
     1
102
RTVSPost2010Prop34
280
     0
102
RTVSPost2010PropOp34
 70
     1
102
RTVSPost2010Prop35
280
     0
102
RTVSPost2010PropOp35
 70
     1
102
RTVSPost2010Prop36
280
     0
102
RTVSPost2010PropOp36
 70
     1
102
RTVSPost2010Prop37
 90
       50
102
RTVSPost2010PropOp37
 70
     1
102
RTVSPost2010Prop38
140
0.0
102
RTVSPost2010PropOp38
 70
     1
102
RTVSPost2010Prop39
140
1.0
102
RTVSPost2010PropOp39
 70
     1
102
RTVSPost2010Prop40
 90
        0
102
RTVSPost2010PropOp40
 70
     1
102
RTVSPost2010Prop41ColorIndex
 90
       18
102
RTVSPost2010Prop41ColorRGB
 90
        0
102
RTVSPost2010PropOp41
 70
     1
102
RTVSPost2010Prop42
 90
       50
102
RTVSPost2010PropOp42
 70
     1
102
RTVSPost2010Prop43
 90
        3
102
RTVSPost2010PropOp43
 70
     1
102
RTVSPost2010Prop44ColorIndex
 90
        5
102
RTVSPost2010Prop44ColorRGB
 90
      255
102
RTVSPost2010PropOp44
 70
     1
102
RTVSPost2010Prop45
280
     0
102
RTVSPost2010PropOp45
 70
     1
102
RTVSPost2010Prop46
 90
       50
102
RTVSPost2010PropOp46
 70
     1
102
RTVSPost2010Prop47
 90
       50
102
RTVSPost2010PropOp47
 70
     1
102
RTVSPost2010Prop48
 90
       50
102
RTVSPost2010PropOp48
 70
     1
102
RTVSPost2010Prop49
280
     0
102
RTVSPost2010PropOp49
 70
     1
102
RTVSPost2010Prop50
 90
       50
102
RTVSPost2010PropOp50
 70
     1
102
RTVSPost2010Prop51ColorIndex
 90
      256
102
RTVSPost2010Prop51ColorRGB
 90
-16777216
102
RTVSPost2010PropOp51
 70
     0
102
RTVSPost2010Prop52
140
1.0
102
RTVSPost2010PropOp52
 70
     0
102
RTVSPost2010Prop53
 90
        2
102
RTVSPost2010PropOp53
 70
     1
102
RTVSPost2010Prop54
  1
strokes_ogs.tif
102
RTVSPost2010PropOp54
 70
     1
102
RTVSPost2010Prop55
280
     0
102
RTVSPost2010PropOp55
 70
     1
102
RTVSPost2010Prop56
140
1.0
102
RTVSPost2010PropOp56
 70
     1
102
RTVSPost2010Prop57
140
1.0
102
RTVSPost2010PropOp57
 70
     1
  0
XRECORD
  5
29D
102
{ACAD_REACTORS
330
29C
102
}
330
29C
100
AcDbXrecord
280
     1
102
RTVSPropertyOp0
 70
     1
102
RTVSPropertyOp1
 70
     1
102
RTVSPropertyOp2
 70
     1
102
RTVSPropertyOp3
 70
     1
102
RTVSPropertyOp4
 70
     1
102
RTVSPropertyOp5
 70
     1
102
RTVSPropertyOp6
 70
     1
102
RTVSPropertyOp7
 70
     1
102
RTVSPropertyOp8
 70
     1
102
RTVSPropertyOp9
 70
     1
102
RTVSPropertyOp10
 70
     1
102
RTVSPropertyOp11
 70
     1
102
RTVSPropertyOp12
 70
     1
102
RTVSPropertyOp13
 70
     1
102
RTVSPropertyOp14
 70
     1
102
RTVSPropertyOp15
 70
     1
102
RTVSPropertyOp16
 70
     1
102
RTVSPropertyOp17
 70
     1
102
RTVSPropertyOp18
 70
     1
102
RTVSPropertyOp19
 70
     1
102
RTVSPropertyOp20
 70
     1
102
RTVSPropertyOp21
 70
     1
102
RTVSPropertyOp22
 70
     1
102
RTVSPropertyOp23
 70
     1
102
RTVSPropertyOp24
 70
     1
102
RTVSPropertyOp25
 70
     1
102
RTVSPropertyOp26
 70
     1
102
RTVSPropertyOp27
 70
     1
102
RTVSPropertyOp28
 70
     1
102
RTVSPropertyOp29
 70
     1
102
RTVSPropertyOp30
 70
     1
102
RTVSPropertyOp31
 70
     1
102
RTVSPropertyOp32
 70
     1
102
RTVSPropertyOp33
 70
     1
102
RTVSPropertyOp34
 70
     1
102
RTVSPropertyOp35
 70
     1
102
RTVSPropertyOp36
 70
     1
102
RTVSPropertyOp37
 70
     1
102
RTVSPropertyOp38
 70
     1
102
RTVSPropertyOp39
 70
     1
102
RTVSPropertyOp40
 70
     1
102
RTVSPropertyOp41
 70
     1
102
RTVSPropertyOp42
 70
     1
102
RTVSPropertyOp43
 70
     1
102
RTVSPropertyOp44
 70
     1
102
RTVSPropertyOp45
 70
     1
102
RTVSPropertyOp46
 70
     1
102
RTVSPropertyOp47
 70
     1
102
RTVSPropertyOp48
 70
     1
102
RTVSPropertyOp49
 70
     1
102
RTVSPropertyOp50
 70
     1
102
RTVSPropertyOp51
 70
     0
102
RTVSPropertyOp52
 70
     0
102
RTVSPropertyOp53
 70
     1
102
RTVSPropertyOp54
 70
     1
102
RTVSPropertyOp55
 70
     1
102
RTVSPropertyOp56
 70
     1
102
RTVSPropertyOp57
 70
     1
102
RTVSPost2010Prop28
280
     0
102
RTVSPost2010PropOp28
 70
     1
102
RTVSPost2010Prop29
280
     1
102
RTVSPost2010PropOp29
 70
     1
102
RTVSPost2010Prop30
280
     1
102
RTVSPost2010PropOp30
 70
     1
102
RTVSPost2010Prop31
280
     0
102
RTVSPost2010PropOp31
 70
     1
102
RTVSPost2010Prop32
280
     0
102
RTVSPost2010PropOp32
 70
     1
102
RTVSPost2010Prop33
280
     0
102
RTVSPost2010PropOp33
 70
     1
102
RTVSPost2010Prop34
280
     0
102
RTVSPost2010PropOp34
 70
     1
102
RTVSPost2010Prop35
280
     0
102
RTVSPost2010PropOp35
 70
     1
102
RTVSPost2010Prop36
280
     0
102
RTVSPost2010PropOp36
 70
     1
102
RTVSPost2010Prop37
 90
       50
102
RTVSPost2010PropOp37
 70
     1
102
RTVSPost2010Prop38
140
0.0
102
RTVSPost2010PropOp38
 70
     1
102
RTVSPost2010Prop39
140
1.0
102
RTVSPost2010PropOp39
 70
     1
102
RTVSPost2010Prop40
 90
        0
102
RTVSPost2010PropOp40
 70
     1
102
RTVSPost2010Prop41ColorIndex
 90
       18
102
RTVSPost2010Prop41ColorRGB
 90
        0
102
RTVSPost2010PropOp41
 70
     1
102
RTVSPost2010Prop42
 90
       50
102
RTVSPost2010PropOp42
 70
     1
102
RTVSPost2010Prop43
 90
        3
102
RTVSPost2010PropOp43
 70
     1
102
RTVSPost2010Prop44ColorIndex
 90
        5
102
RTVSPost2010Prop44ColorRGB
 90
      255
102
RTVSPost2010PropOp44
 70
     1
102
RTVSPost2010Prop45
280
     0
102
RTVSPost2010PropOp45
 70
     1
102
RTVSPost2010Prop46
 90
       50
102
RTVSPost2010PropOp46
 70
     1
102
RTVSPost2010Prop47
 90
       50
102
RTVSPost2010PropOp47
 70
     1
102
RTVSPost2010Prop48
 90
       50
102
RTVSPost2010PropOp48
 70
     1
102
RTVSPost2010Prop49
280
     0
102
RTVSPost2010PropOp49
 70
     1
102
RTVSPost2010Prop50
 90
       50
102
RTVSPost2010PropOp50
 70
     1
102
RTVSPost2010Prop51ColorIndex
 90
      256
102
RTVSPost2010Prop51ColorRGB
 90
-16777216
102
RTVSPost2010PropOp51
 70
     0
102
RTVSPost2010Prop52
140
1.0
102
RTVSPost2010PropOp52
 70
     0
102
RTVSPost2010Prop53
 90
        2
102
RTVSPost2010PropOp53
 70
     1
102
RTVSPost2010Prop54
  1
strokes_ogs.tif
102
RTVSPost2010PropOp54
 70
     1
102
RTVSPost2010Prop55
280
     0
102
RTVSPost2010PropOp55
 70
     1
102
RTVSPost2010Prop56
140
1.0
102
RTVSPost2010PropOp56
 70
     1
102
RTVSPost2010Prop57
140
1.0
102
RTVSPost2010PropOp57
 70
     1
  0
XRECORD
  5
28D
102
{ACAD_REACTORS
330
28C
102
}
330
28C
100
AcDbXrecord
280
     1
102
RTVSPropertyOp0
 70
     1
102
RTVSPropertyOp1
 70
     1
102
RTVSPropertyOp2
 70
     1
102
RTVSPropertyOp3
 70
     1
102
RTVSPropertyOp4
 70
     1
102
RTVSPropertyOp5
 70
     1
102
RTVSPropertyOp6
 70
     1
102
RTVSPropertyOp7
 70
     1
102
RTVSPropertyOp8
 70
     1
102
RTVSPropertyOp9
 70
     1
102
RTVSPropertyOp10
 70
     1
102
RTVSPropertyOp11
 70
     1
102
RTVSPropertyOp12
 70
     1
102
RTVSPropertyOp13
 70
     1
102
RTVSPropertyOp14
 70
     1
102
RTVSPropertyOp15
 70
     1
102
RTVSPropertyOp16
 70
     1
102
RTVSPropertyOp17
 70
     1
102
RTVSPropertyOp18
 70
     1
102
RTVSPropertyOp19
 70
     1
102
RTVSPropertyOp20
 70
     1
102
RTVSPropertyOp21
 70
     1
102
RTVSPropertyOp22
 70
     1
102
RTVSPropertyOp23
 70
     1
102
RTVSPropertyOp24
 70
     1
102
RTVSPropertyOp25
 70
     1
102
RTVSPropertyOp26
 70
     1
102
RTVSPropertyOp27
 70
     1
102
RTVSPropertyOp28
 70
     1
102
RTVSPropertyOp29
 70
     1
102
RTVSPropertyOp30
 70
     1
102
RTVSPropertyOp31
 70
     1
102
RTVSPropertyOp32
 70
     1
102
RTVSPropertyOp33
 70
     1
102
RTVSPropertyOp34
 70
     1
102
RTVSPropertyOp35
 70
     1
102
RTVSPropertyOp36
 70
     1
102
RTVSPropertyOp37
 70
     1
102
RTVSPropertyOp38
 70
     1
102
RTVSPropertyOp39
 70
     1
102
RTVSPropertyOp40
 70
     1
102
RTVSPropertyOp41
 70
     1
102
RTVSPropertyOp42
 70
     1
102
RTVSPropertyOp43
 70
     1
102
RTVSPropertyOp44
 70
     1
102
RTVSPropertyOp45
 70
     1
102
RTVSPropertyOp46
 70
     1
102
RTVSPropertyOp47
 70
     1
102
RTVSPropertyOp48
 70
     1
102
RTVSPropertyOp49
 70
     1
102
RTVSPropertyOp50
 70
     1
102
RTVSPropertyOp51
 70
     0
102
RTVSPropertyOp52
 70
     0
102
RTVSPropertyOp53
 70
     1
102
RTVSPropertyOp54
 70
     1
102
RTVSPropertyOp55
 70
     1
102
RTVSPropertyOp56
 70
     1
102
RTVSPropertyOp57
 70
     1
102
RTVSPost2010Prop28
280
     0
102
RTVSPost2010PropOp28
 70
     1
102
RTVSPost2010Prop29
280
     1
102
RTVSPost2010PropOp29
 70
     1
102
RTVSPost2010Prop30
280
     1
102
RTVSPost2010PropOp30
 70
     1
102
RTVSPost2010Prop31
280
     0
102
RTVSPost2010PropOp31
 70
     1
102
RTVSPost2010Prop32
280
     0
102
RTVSPost2010PropOp32
 70
     1
102
RTVSPost2010Prop33
280
     0
102
RTVSPost2010PropOp33
 70
     1
102
RTVSPost2010Prop34
280
     0
102
RTVSPost2010PropOp34
 70
     1
102
RTVSPost2010Prop35
280
     0
102
RTVSPost2010PropOp35
 70
     1
102
RTVSPost2010Prop36
280
     0
102
RTVSPost2010PropOp36
 70
     1
102
RTVSPost2010Prop37
 90
       50
102
RTVSPost2010PropOp37
 70
     1
102
RTVSPost2010Prop38
140
0.0
102
RTVSPost2010PropOp38
 70
     1
102
RTVSPost2010Prop39
140
1.0
102
RTVSPost2010PropOp39
 70
     1
102
RTVSPost2010Prop40
 90
        0
102
RTVSPost2010PropOp40
 70
     1
102
RTVSPost2010Prop41ColorIndex
 90
       18
102
RTVSPost2010Prop41ColorRGB
 90
        0
102
RTVSPost2010PropOp41
 70
     1
102
RTVSPost2010Prop42
 90
       50
102
RTVSPost2010PropOp42
 70
     1
102
RTVSPost2010Prop43
 90
        3
102
RTVSPost2010PropOp43
 70
     1
102
RTVSPost2010Prop44ColorIndex
 90
        5
102
RTVSPost2010Prop44ColorRGB
 90
      255
102
RTVSPost2010PropOp44
 70
     1
102
RTVSPost2010Prop45
280
     0
102
RTVSPost2010PropOp45
 70
     1
102
RTVSPost2010Prop46
 90
       50
102
RTVSPost2010PropOp46
 70
     1
102
RTVSPost2010Prop47
 90
       50
102
RTVSPost2010PropOp47
 70
     1
102
RTVSPost2010Prop48
 90
       50
102
RTVSPost2010PropOp48
 70
     1
102
RTVSPost2010Prop49
280
     0
102
RTVSPost2010PropOp49
 70
     1
102
RTVSPost2010Prop50
 90
       50
102
RTVSPost2010PropOp50
 70
     1
102
RTVSPost2010Prop51ColorIndex
 90
      256
102
RTVSPost2010Prop51ColorRGB
 90
-16777216
102
RTVSPost2010PropOp51
 70
     0
102
RTVSPost2010Prop52
140
1.0
102
RTVSPost2010PropOp52
 70
     0
102
RTVSPost2010Prop53
 90
        2
102
RTVSPost2010PropOp53
 70
     1
102
RTVSPost2010Prop54
  1
strokes_ogs.tif
102
RTVSPost2010PropOp54
 70
     1
102
RTVSPost2010Prop55
280
     0
102
RTVSPost2010PropOp55
 70
     1
102
RTVSPost2010Prop56
140
1.0
102
RTVSPost2010PropOp56
 70
     1
102
RTVSPost2010Prop57
140
1.0
102
RTVSPost2010PropOp57
 70
     1
  0
XRECORD
  5
27F
102
{ACAD_REACTORS
330
27E
102
}
330
27E
100
AcDbXrecord
280
     1
102
RTVSPropertyOp0
 70
     1
102
RTVSPropertyOp1
 70
     1
102
RTVSPropertyOp2
 70
     1
102
RTVSPropertyOp3
 70
     1
102
RTVSPropertyOp4
 70
     1
102
RTVSPropertyOp5
 70
     1
102
RTVSPropertyOp6
 70
     1
102
RTVSPropertyOp7
 70
     1
102
RTVSPropertyOp8
 70
     1
102
RTVSPropertyOp9
 70
     1
102
RTVSPropertyOp10
 70
     1
102
RTVSPropertyOp11
 70
     1
102
RTVSPropertyOp12
 70
     1
102
RTVSPropertyOp13
 70
     1
102
RTVSPropertyOp14
 70
     1
102
RTVSPropertyOp15
 70
     1
102
RTVSPropertyOp16
 70
     1
102
RTVSPropertyOp17
 70
     1
102
RTVSPropertyOp18
 70
     1
102
RTVSPropertyOp19
 70
     1
102
RTVSPropertyOp20
 70
     1
102
RTVSPropertyOp21
 70
     1
102
RTVSPropertyOp22
 70
     1
102
RTVSPropertyOp23
 70
     1
102
RTVSPropertyOp24
 70
     1
102
RTVSPropertyOp25
 70
     1
102
RTVSPropertyOp26
 70
     1
102
RTVSPropertyOp27
 70
     1
102
RTVSPropertyOp28
 70
     1
102
RTVSPropertyOp29
 70
     1
102
RTVSPropertyOp30
 70
     1
102
RTVSPropertyOp31
 70
     1
102
RTVSPropertyOp32
 70
     1
102
RTVSPropertyOp33
 70
     1
102
RTVSPropertyOp34
 70
     1
102
RTVSPropertyOp35
 70
     1
102
RTVSPropertyOp36
 70
     1
102
RTVSPropertyOp37
 70
     1
102
RTVSPropertyOp38
 70
     1
102
RTVSPropertyOp39
 70
     1
102
RTVSPropertyOp40
 70
     1
102
RTVSPropertyOp41
 70
     1
102
RTVSPropertyOp42
 70
     1
102
RTVSPropertyOp43
 70
     1
102
RTVSPropertyOp44
 70
     1
102
RTVSPropertyOp45
 70
     1
102
RTVSPropertyOp46
 70
     1
102
RTVSPropertyOp47
 70
     1
102
RTVSPropertyOp48
 70
     1
102
RTVSPropertyOp49
 70
     1
102
RTVSPropertyOp50
 70
     1
102
RTVSPropertyOp51
 70
     0
102
RTVSPropertyOp52
 70
     0
102
RTVSPropertyOp53
 70
     1
102
RTVSPropertyOp54
 70
     1
102
RTVSPropertyOp55
 70
     1
102
RTVSPropertyOp56
 70
     1
102
RTVSPropertyOp57
 70
     1
102
RTVSPost2010Prop28
280
     0
102
RTVSPost2010PropOp28
 70
     1
102
RTVSPost2010Prop29
280
     1
102
RTVSPost2010PropOp29
 70
     1
102
RTVSPost2010Prop30
280
     1
102
RTVSPost2010PropOp30
 70
     1
102
RTVSPost2010Prop31
280
     0
102
RTVSPost2010PropOp31
 70
     1
102
RTVSPost2010Prop32
280
     0
102
RTVSPost2010PropOp32
 70
     1
102
RTVSPost2010Prop33
280
     0
102
RTVSPost2010PropOp33
 70
     1
102
RTVSPost2010Prop34
280
     0
102
RTVSPost2010PropOp34
 70
     1
102
RTVSPost2010Prop35
280
     0
102
RTVSPost2010PropOp35
 70
     1
102
RTVSPost2010Prop36
280
     0
102
RTVSPost2010PropOp36
 70
     1
102
RTVSPost2010Prop37
 90
       50
102
RTVSPost2010PropOp37
 70
     1
102
RTVSPost2010Prop38
140
0.0
102
RTVSPost2010PropOp38
 70
     1
102
RTVSPost2010Prop39
140
1.0
102
RTVSPost2010PropOp39
 70
     1
102
RTVSPost2010Prop40
 90
        0
102
RTVSPost2010PropOp40
 70
     1
102
RTVSPost2010Prop41ColorIndex
 90
       18
102
RTVSPost2010Prop41ColorRGB
 90
        0
102
RTVSPost2010PropOp41
 70
     1
102
RTVSPost2010Prop42
 90
       50
102
RTVSPost2010PropOp42
 70
     1
102
RTVSPost2010Prop43
 90
        3
102
RTVSPost2010PropOp43
 70
     1
102
RTVSPost2010Prop44ColorIndex
 90
        5
102
RTVSPost2010Prop44ColorRGB
 90
      255
102
RTVSPost2010PropOp44
 70
     1
102
RTVSPost2010Prop45
280
     0
102
RTVSPost2010PropOp45
 70
     1
102
RTVSPost2010Prop46
 90
       50
102
RTVSPost2010PropOp46
 70
     1
102
RTVSPost2010Prop47
 90
       50
102
RTVSPost2010PropOp47
 70
     1
102
RTVSPost2010Prop48
 90
       50
102
RTVSPost2010PropOp48
 70
     1
102
RTVSPost2010Prop49
280
     0
102
RTVSPost2010PropOp49
 70
     1
102
RTVSPost2010Prop50
 90
       50
102
RTVSPost2010PropOp50
 70
     1
102
RTVSPost2010Prop51ColorIndex
 90
      256
102
RTVSPost2010Prop51ColorRGB
 90
-16777216
102
RTVSPost2010PropOp51
 70
     0
102
RTVSPost2010Prop52
140
1.0
102
RTVSPost2010PropOp52
 70
     0
102
RTVSPost2010Prop53
 90
        2
102
RTVSPost2010PropOp53
 70
     1
102
RTVSPost2010Prop54
  1
strokes_ogs.tif
102
RTVSPost2010PropOp54
 70
     1
102
RTVSPost2010Prop55
280
     0
102
RTVSPost2010PropOp55
 70
     1
102
RTVSPost2010Prop56
140
1.0
102
RTVSPost2010PropOp56
 70
     1
102
RTVSPost2010Prop57
140
1.0
102
RTVSPost2010PropOp57
 70
     1
  0
XRECORD
  5
29F
102
{ACAD_REACTORS
330
29E
102
}
330
29E
100
AcDbXrecord
280
     1
102
RTVSPropertyOp0
 70
     1
102
RTVSPropertyOp1
 70
     1
102
RTVSPropertyOp2
 70
     1
102
RTVSPropertyOp3
 70
     1
102
RTVSPropertyOp4
 70
     1
102
RTVSPropertyOp5
 70
     1
102
RTVSPropertyOp6
 70
     1
102
RTVSPropertyOp7
 70
     1
102
RTVSPropertyOp8
 70
     1
102
RTVSPropertyOp9
 70
     1
102
RTVSPropertyOp10
 70
     1
102
RTVSPropertyOp11
 70
     1
102
RTVSPropertyOp12
 70
     1
102
RTVSPropertyOp13
 70
     1
102
RTVSPropertyOp14
 70
     1
102
RTVSPropertyOp15
 70
     1
102
RTVSPropertyOp16
 70
     1
102
RTVSPropertyOp17
 70
     1
102
RTVSPropertyOp18
 70
     1
102
RTVSPropertyOp19
 70
     1
102
RTVSPropertyOp20
 70
     1
102
RTVSPropertyOp21
 70
     1
102
RTVSPropertyOp22
 70
     1
102
RTVSPropertyOp23
 70
     1
102
RTVSPropertyOp24
 70
     1
102
RTVSPropertyOp25
 70
     1
102
RTVSPropertyOp26
 70
     1
102
RTVSPropertyOp27
 70
     1
102
RTVSPropertyOp28
 70
     1
102
RTVSPropertyOp29
 70
     1
102
RTVSPropertyOp30
 70
     1
102
RTVSPropertyOp31
 70
     1
102
RTVSPropertyOp32
 70
     1
102
RTVSPropertyOp33
 70
     1
102
RTVSPropertyOp34
 70
     1
102
RTVSPropertyOp35
 70
     1
102
RTVSPropertyOp36
 70
     1
102
RTVSPropertyOp37
 70
     1
102
RTVSPropertyOp38
 70
     1
102
RTVSPropertyOp39
 70
     1
102
RTVSPropertyOp40
 70
     1
102
RTVSPropertyOp41
 70
     1
102
RTVSPropertyOp42
 70
     1
102
RTVSPropertyOp43
 70
     1
102
RTVSPropertyOp44
 70
     1
102
RTVSPropertyOp45
 70
     1
102
RTVSPropertyOp46
 70
     1
102
RTVSPropertyOp47
 70
     1
102
RTVSPropertyOp48
 70
     1
102
RTVSPropertyOp49
 70
     1
102
RTVSPropertyOp50
 70
     1
102
RTVSPropertyOp51
 70
     0
102
RTVSPropertyOp52
 70
     0
102
RTVSPropertyOp53
 70
     1
102
RTVSPropertyOp54
 70
     1
102
RTVSPropertyOp55
 70
     1
102
RTVSPropertyOp56
 70
     1
102
RTVSPropertyOp57
 70
     1
102
RTVSPost2010Prop28
280
     0
102
RTVSPost2010PropOp28
 70
     1
102
RTVSPost2010Prop29
280
     1
102
RTVSPost2010PropOp29
 70
     1
102
RTVSPost2010Prop30
280
     1
102
RTVSPost2010PropOp30
 70
     1
102
RTVSPost2010Prop31
280
     0
102
RTVSPost2010PropOp31
 70
     1
102
RTVSPost2010Prop32
280
     0
102
RTVSPost2010PropOp32
 70
     1
102
RTVSPost2010Prop33
280
     0
102
RTVSPost2010PropOp33
 70
     1
102
RTVSPost2010Prop34
280
     0
102
RTVSPost2010PropOp34
 70
     1
102
RTVSPost2010Prop35
280
     0
102
RTVSPost2010PropOp35
 70
     1
102
RTVSPost2010Prop36
280
     0
102
RTVSPost2010PropOp36
 70
     1
102
RTVSPost2010Prop37
 90
       50
102
RTVSPost2010PropOp37
 70
     1
102
RTVSPost2010Prop38
140
0.0
102
RTVSPost2010PropOp38
 70
     1
102
RTVSPost2010Prop39
140
1.0
102
RTVSPost2010PropOp39
 70
     1
102
RTVSPost2010Prop40
 90
        0
102
RTVSPost2010PropOp40
 70
     1
102
RTVSPost2010Prop41ColorIndex
 90
       18
102
RTVSPost2010Prop41ColorRGB
 90
        0
102
RTVSPost2010PropOp41
 70
     1
102
RTVSPost2010Prop42
 90
       50
102
RTVSPost2010PropOp42
 70
     1
102
RTVSPost2010Prop43
 90
        3
102
RTVSPost2010PropOp43
 70
     1
102
RTVSPost2010Prop44ColorIndex
 90
        5
102
RTVSPost2010Prop44ColorRGB
 90
      255
102
RTVSPost2010PropOp44
 70
     1
102
RTVSPost2010Prop45
280
     0
102
RTVSPost2010PropOp45
 70
     1
102
RTVSPost2010Prop46
 90
       50
102
RTVSPost2010PropOp46
 70
     1
102
RTVSPost2010Prop47
 90
       50
102
RTVSPost2010PropOp47
 70
     1
102
RTVSPost2010Prop48
 90
       50
102
RTVSPost2010PropOp48
 70
     1
102
RTVSPost2010Prop49
280
     0
102
RTVSPost2010PropOp49
 70
     1
102
RTVSPost2010Prop50
 90
       50
102
RTVSPost2010PropOp50
 70
     1
102
RTVSPost2010Prop51ColorIndex
 90
      256
102
RTVSPost2010Prop51ColorRGB
 90
-16777216
102
RTVSPost2010PropOp51
 70
     0
102
RTVSPost2010Prop52
140
1.0
102
RTVSPost2010PropOp52
 70
     0
102
RTVSPost2010Prop53
 90
        2
102
RTVSPost2010PropOp53
 70
     1
102
RTVSPost2010Prop54
  1
strokes_ogs.tif
102
RTVSPost2010PropOp54
 70
     1
102
RTVSPost2010Prop55
280
     0
102
RTVSPost2010PropOp55
 70
     1
102
RTVSPost2010Prop56
140
1.0
102
RTVSPost2010PropOp56
 70
     1
102
RTVSPost2010Prop57
140
1.0
102
RTVSPost2010PropOp57
 70
     1
  0
ENDSEC
  0
EOF
