  0
SECTION
  2
HEADER
  9
$ACADVER
  1
AC1018
  9
$ACADMAINTVER
 70
     0
  9
$DWGCODEPAGE
  3
ANSI_932
  9
$INSBASE
 10
0.0
 20
0.0
 30
0.0
  9
$EXTMIN
 10
-2100.0
 20
-1485.0
 30
0.0
  9
$EXTMAX
 10
2100.0
 20
1485.0
 30
0.0
  9
$LIMMIN
 10
-2100.0
 20
-1485.0
  9
$LIMMAX
 10
2100.0
 20
1485.0
  9
$ORTHOMODE
 70
     0
  9
$REGENMODE
 70
     1
  9
$FILLMODE
 70
     1
  9
$QTEXTMODE
 70
     0
  9
$MIRRTEXT
 70
     1
  9
$LTSCALE
 40
10.0
  9
$ATTMODE
 70
     1
  9
$TEXTSIZE
 40
2.5
  9
$TRACEWID
 40
1.0
  9
$TEXTSTYLE
  7
Standard
  9
$CLAYER
  8
0
  9
$CELTYPE
  6
ByLayer
  9
$CECOLOR
 62
   256
  9
$CELTSCALE
 40
1.0
  9
$DISPSILH
 70
     0
  9
$DIMSCALE
 40
1.0
  9
$DIMASZ
 40
2.5
  9
$DIMEXO
 40
0.625
  9
$DIMDLI
 40
3.75
  9
$DIMRND
 40
0.0
  9
$DIMDLE
 40
0.0
  9
$DIMEXE
 40
1.25
  9
$DIMTP
 40
0.0
  9
$DIMTM
 40
0.0
  9
$DIMTXT
 40
2.5
  9
$DIMCEN
 40
2.5
  9
$DIMTSZ
 40
0.0
  9
$DIMTOL
 70
     0
  9
$DIMLIM
 70
     0
  9
$DIMTIH
 70
     0
  9
$DIMTOH
 70
     0
  9
$DIMSE1
 70
     0
  9
$DIMSE2
 70
     0
  9
$DIMTAD
 70
     1
  9
$DIMZIN
 70
     8
  9
$DIMBLK
  1

  9
$DIMASO
 70
     1
  9
$DIMSHO
 70
     1
  9
$DIMPOST
  1

  9
$DIMAPOST
  1

  9
$DIMALT
 70
     0
  9
$DIMALTD
 70
     3
  9
$DIMALTF
 40
0.03937007874016
  9
$DIMLFAC
 40
1.0
  9
$DIMTOFL
 70
     1
  9
$DIMTVP
 40
0.0
  9
$DIMTIX
 70
     0
  9
$DIMSOXD
 70
     0
  9
$DIMSAH
 70
     0
  9
$DIMBLK1
  1

  9
$DIMBLK2
  1

  9
$DIMSTYLE
  2
ISO-25
  9
$DIMCLRD
 70
     0
  9
$DIMCLRE
 70
     0
  9
$DIMCLRT
 70
     0
  9
$DIMTFAC
 40
1.0
  9
$DIMGAP
 40
0.625
  9
$DIMJUST
 70
     0
  9
$DIMSD1
 70
     0
  9
$DIMSD2
 70
     0
  9
$DIMTOLJ
 70
     0
  9
$DIMTZIN
 70
     8
  9
$DIMALTZ
 70
     0
  9
$DIMALTTZ
 70
     0
  9
$DIMUPT
 70
     0
  9
$DIMDEC
 70
     2
  9
$DIMTDEC
 70
     2
  9
$DIMALTU
 70
     2
  9
$DIMALTTD
 70
     3
  9
$DIMTXSTY
  7
Standard
  9
$DIMAUNIT
 70
     0
  9
$DIMADEC
 70
     0
  9
$DIMALTRND
 40
0.0
  9
$DIMAZIN
 70
     0
  9
$DIMDSEP
 70
    44
  9
$DIMATFIT
 70
     3
  9
$DIMFRAC
 70
     0
  9
$DIMLDRBLK
  1

  9
$DIMLUNIT
 70
     2
  9
$DIMLWD
 70
    -2
  9
$DIMLWE
 70
    -2
  9
$DIMTMOVE
 70
     0
  9
$LUNITS
 70
     2
  9
$LUPREC
 70
     4
  9
$SKETCHINC
 40
1.0
  9
$FILLETRAD
 40
10.0
  9
$AUNITS
 70
     0
  9
$AUPREC
 70
     0
  9
$MENU
  1
.
  9
$ELEVATION
 40
0.0
  9
$PELEVATION
 40
0.0
  9
$THICKNESS
 40
0.0
  9
$LIMCHECK
 70
     0
  9
$CHAMFERA
 40
0.0
  9
$CHAMFERB
 40
0.0
  9
$CHAMFERC
 40
0.0
  9
$CHAMFERD
 40
0.0
  9
$SKPOLY
 70
     0
  9
$TDCREATE
 40
2460516.661238275
  9
$TDUCREATE
 40
2460516.286238275
  9
$TDUPDATE
 40
2460516.661238345
  9
$TDUUPDATE
 40
2460516.286238345
  9
$TDINDWG
 40
0.0000000116
  9
$TDUSRTIMER
 40
0.0000000116
  9
$USRTIMER
 70
     1
  9
$ANGBASE
 50
0.0
  9
$ANGDIR
 70
     0
  9
$PDMODE
 70
     0
  9
$PDSIZE
 40
0.0
  9
$PLINEWID
 40
0.0
  9
$SPLFRAME
 70
     0
  9
$SPLINETYPE
 70
     6
  9
$SPLINESEGS
 70
     8
  9
$HANDSEED
  5
229
  9
$SURFTAB1
 70
     6
  9
$SURFTAB2
 70
     6
  9
$SURFTYPE
 70
     6
  9
$SURFU
 70
     6
  9
$SURFV
 70
     6
  9
$UCSBASE
  2

  9
$UCSNAME
  2

  9
$UCSORG
 10
0.0
 20
0.0
 30
0.0
  9
$UCSXDIR
 10
1.0
 20
0.0
 30
0.0
  9
$UCSYDIR
 10
0.0
 20
1.0
 30
0.0
  9
$UCSORTHOREF
  2

  9
$UCSORTHOVIEW
 70
     0
  9
$UCSORGTOP
 10
0.0
 20
0.0
 30
0.0
  9
$UCSORGBOTTOM
 10
0.0
 20
0.0
 30
0.0
  9
$UCSORGLEFT
 10
0.0
 20
0.0
 30
0.0
  9
$UCSORGRIGHT
 10
0.0
 20
0.0
 30
0.0
  9
$UCSORGFRONT
 10
0.0
 20
0.0
 30
0.0
  9
$UCSORGBACK
 10
0.0
 20
0.0
 30
0.0
  9
$PUCSBASE
  2

  9
$PUCSNAME
  2

  9
$PUCSORG
 10
0.0
 20
0.0
 30
0.0
  9
$PUCSXDIR
 10
1.0
 20
0.0
 30
0.0
  9
$PUCSYDIR
 10
0.0
 20
1.0
 30
0.0
  9
$PUCSORTHOREF
  2

  9
$PUCSORTHOVIEW
 70
     0
  9
$PUCSORGTOP
 10
0.0
 20
0.0
 30
0.0
  9
$PUCSORGBOTTOM
 10
0.0
 20
0.0
 30
0.0
  9
$PUCSORGLEFT
 10
0.0
 20
0.0
 30
0.0
  9
$PUCSORGRIGHT
 10
0.0
 20
0.0
 30
0.0
  9
$PUCSORGFRONT
 10
0.0
 20
0.0
 30
0.0
  9
$PUCSORGBACK
 10
0.0
 20
0.0
 30
0.0
  9
$USERI1
 70
     0
  9
$USERI2
 70
     0
  9
$USERI3
 70
     0
  9
$USERI4
 70
     0
  9
$USERI5
 70
     0
  9
$USERR1
 40
0.0
  9
$USERR2
 40
0.0
  9
$USERR3
 40
0.0
  9
$USERR4
 40
0.0
  9
$USERR5
 40
0.0
  9
$WORLDVIEW
 70
     1
  9
$SHADEDGE
 70
     3
  9
$SHADEDIF
 70
    70
  9
$TILEMODE
 70
     1
  9
$MAXACTVP
 70
    64
  9
$PINSBASE
 10
0.0
 20
0.0
 30
0.0
  9
$PLIMCHECK
 70
     0
  9
$PEXTMIN
 10
1.000000000000000E+20
 20
1.000000000000000E+20
 30
1.000000000000000E+20
  9
$PEXTMAX
 10
-1.000000000000000E+20
 20
-1.000000000000000E+20
 30
-1.000000000000000E+20
  9
$PLIMMIN
 10
0.0
 20
0.0
  9
$PLIMMAX
 10
420.0
 20
297.0
  9
$UNITMODE
 70
     0
  9
$VISRETAIN
 70
     1
  9
$PLINEGEN
 70
     0
  9
$PSLTSCALE
 70
     1
  9
$TREEDEPTH
 70
  3020
  9
$CMLSTYLE
  2
Standard
  9
$CMLJUST
 70
     0
  9
$CMLSCALE
 40
20.0
  9
$PROXYGRAPHICS
 70
     1
  9
$MEASUREMENT
 70
     1
  9
$CELWEIGHT
370
    -1
  9
$ENDCAPS
280
     0
  9
$JOINSTYLE
280
     0
  9
$LWDISPLAY
290
     0
  9
$INSUNITS
 70
     4
  9
$HYPERLINKBASE
  1

  9
$STYLESHEET
  1

  9
$XEDIT
290
     1
  9
$CEPSNTYPE
380
     0
  9
$PSTYLEMODE
290
     1
  9
$FINGERPRINTGUID
  2
{914782D0-DD12-40C7-849F-AE2898F10389}
  9
$VERSIONGUID
  2
{FAEB1C32-E019-11D5-929B-00C0DF256EC4}
  9
$EXTNAMES
290
     1
  9
$PSVPSCALE
 40
0.0
  9
$OLESTARTUP
290
     0
  9
$SORTENTS
280
   127
  9
$INDEXCTL
280
     0
  9
$HIDETEXT
280
     1
  9
$XCLIPFRAME
290
     0
  9
$HALOGAP
280
     0
  9
$OBSCOLOR
 70
   257
  9
$OBSLTYPE
280
     0
  9
$INTERSECTIONDISPLAY
280
     0
  9
$INTERSECTIONCOLOR
 70
   257
  9
$DIMASSOC
280
     2
  9
$PROJECTNAME
  1

  0
ENDSEC
  0
SECTION
  2
CLASSES
  0
CLASS
  1
ACDBDICTIONARYWDFLT
  2
AcDbDictionaryWithDefault
  3
ObjectDBX Classes
 90
        0
 91
        4
280
     0
281
     0
  0
CLASS
  1
VISUALSTYLE
  2
AcDbVisualStyle
  3
ObjectDBX Classes
 90
     4095
 91
        4
280
     0
281
     0
  0
CLASS
  1
MATERIAL
  2
AcDbMaterial
  3
ObjectDBX Classes
 90
     1153
 91
        4
280
     0
281
     0
  0
CLASS
  1
SCALE
  2
AcDbScale
  3
ObjectDBX Classes
 90
     1153
 91
        4
280
     0
281
     0
  0
CLASS
  1
TABLESTYLE
  2
AcDbTableStyle
  3
ObjectDBX Classes
 90
     4095
 91
        4
280
     0
281
     0
  0
CLASS
  1
MLEADERSTYLE
  2
AcDbMLeaderStyle
  3
ACDB_MLEADERSTYLE_CLASS
 90
     4095
 91
        4
280
     0
281
     0
  0
CLASS
  1
SUN
  2
AcDbSun
  3
SCENEOE
 90
     1153
 91
        4
280
     0
281
     0
  0
CLASS
  1
DICTIONARYVAR
  2
AcDbDictionaryVar
  3
ObjectDBX Classes
 90
        0
 91
        4
280
     0
281
     0
  0
CLASS
  1
CELLSTYLEMAP
  2
AcDbCellStyleMap
  3
ObjectDBX Classes
 90
     1152
 91
        4
280
     0
281
     0
  0
ENDSEC
  0
SECTION
  2
TABLES
  0
TABLE
  2
VPORT
  5
8
102
{ACAD_XDICTIONARY
360
1E0
102
}
330
0
100
AcDbSymbolTable
 70
     1
  0
VPORT
  5
29
330
8
100
AcDbSymbolTableRecord
100
AcDbViewportTableRecord
  2
*Active
 70
     0
 10
0.0
 20
0.0
 11
1.0
 21
1.0
 12
0.0
 22
0.0
 13
0.0
 23
0.0
 14
10.0
 24
10.0
 15
10.0
 25
10.0
 16
0.0
 26
0.0
 36
1.0
 17
0.0
 27
0.0
 37
0.0
 40
3267.0
 41
1.414141414141414
 42
50.0
 43
0.0
 44
0.0
 50
0.0
 51
0.0
 71
     0
 72
 10000
 73
     1
 74
     3
 75
     0
 76
     0
 77
     0
 78
     0
281
     0
 65
     1
110
0.0
120
0.0
130
0.0
111
1.0
121
0.0
131
0.0
112
0.0
122
1.0
132
0.0
 79
     0
146
0.0
  0
ENDTAB
  0
TABLE
  2
LTYPE
  5
5
330
0
100
AcDbSymbolTable
 70
     5
  0
LTYPE
  5
14
330
5
100
AcDbSymbolTableRecord
100
AcDbLinetypeTableRecord
  2
ByBlock
 70
     0
  3

 72
    65
 73
     0
 40
0.0
  0
LTYPE
  5
15
330
5
100
AcDbSymbolTableRecord
100
AcDbLinetypeTableRecord
  2
ByLayer
 70
     0
  3

 72
    65
 73
     0
 40
0.0
  0
LTYPE
  5
16
330
5
100
AcDbSymbolTableRecord
100
AcDbLinetypeTableRecord
  2
Continuous
 70
     0
  3
Solid line
 72
    65
 73
     0
 40
0.0
  0
LTYPE
  5
6F
330
5
100
AcDbSymbolTableRecord
100
AcDbLinetypeTableRecord
  2
JWW_CENTER2
 70
     0
  3
-------------  --  -------------
 72
    65
 73
     4
 40
13.54666666666667
 49
11.00666666666667
 74
     0
 49
-0.8466666666666667
 74
     0
 49
0.8466666666666667
 74
     0
 49
-0.8466666666666667
 74
     0
  0
LTYPE
  5
70
330
5
100
AcDbSymbolTableRecord
100
AcDbLinetypeTableRecord
  2
JWW_PHANTOM1
 70
     0
  3
----  -  -  --------  -  -  ----
 72
    65
 73
     6
 40
6.773333333333333
 49
3.386666666666667
 74
     0
 49
-0.8466666666666667
 74
     0
 49
0.4233333333333333
 74
     0
 49
-0.8466666666666667
 74
     0
 49
0.4233333333333333
 74
     0
 49
-0.8466666666666667
 74
     0
  0
LTYPE
  5
71
330
5
100
AcDbSymbolTableRecord
100
AcDbLinetypeTableRecord
  2
JWW_DASHED2
 70
     0
  3
--    ----    ----    ----    --
 72
    65
 73
     2
 40
3.386666666666667
 49
1.693333333333333
 74
     0
 49
-1.693333333333333
 74
     0
  0
LTYPE
  5
72
330
5
100
AcDbSymbolTableRecord
100
AcDbLinetypeTableRecord
  2
JWW_DASHED1
 70
     0
  3
-  --  --  --  --  --  --  --  -
 72
    65
 73
     2
 40
1.693333333333333
 49
0.8466666666666667
 74
     0
 49
-0.8466666666666667
 74
     0
  0
ENDTAB
  0
TABLE
  2
LAYER
  5
2
330
0
100
AcDbSymbolTable
 70
    16
  0
LAYER
  5
10
330
2
100
AcDbSymbolTableRecord
100
AcDbLayerTableRecord
  2
0
 70
     0
 62
     7
  6
Continuous
370
    -3
390
F
  0
LAYER
  5
73
330
2
100
AcDbSymbolTableRecord
100
AcDbLayerTableRecord
  2
C-2_仕上
 70
     0
 62
     7
  6
Continuous
370
    -3
390
F
  0
LAYER
  5
74
330
2
100
AcDbSymbolTableRecord
100
AcDbLayerTableRecord
  2
C-0_通り芯
 70
     0
 62
     7
  6
Continuous
370
    -3
390
F
  0
LAYER
  5
75
330
2
100
AcDbSymbolTableRecord
100
AcDbLayerTableRecord
  2
C-4_文字
 70
     0
 62
     7
  6
Continuous
370
    -3
390
F
  0
LAYER
  5
76
330
2
100
AcDbSymbolTableRecord
100
AcDbLayerTableRecord
  2
C-5_建具
 70
     0
 62
     7
  6
Continuous
370
    -3
390
F
  0
LAYER
  5
77
330
2
100
AcDbSymbolTableRecord
100
AcDbLayerTableRecord
  2
C-1_躯体
 70
     0
 62
     7
  6
Continuous
370
    -3
390
F
  0
LAYER
  5
78
330
2
100
AcDbSymbolTableRecord
100
AcDbLayerTableRecord
  2
C-E_見え係り
 70
     0
 62
     7
  6
Continuous
370
    -3
390
F
  0
LAYER
  5
79
330
2
100
AcDbSymbolTableRecord
100
AcDbLayerTableRecord
  2
B-0_通り芯
 70
     0
 62
     7
  6
Continuous
370
    -3
390
F
  0
LAYER
  5
7A
330
2
100
AcDbSymbolTableRecord
100
AcDbLayerTableRecord
  2
B-1_躯体
 70
     0
 62
     7
  6
Continuous
370
    -3
390
F
  0
LAYER
  5
7B
330
2
100
AcDbSymbolTableRecord
100
AcDbLayerTableRecord
  2
B-2_仕上
 70
     0
 62
     7
  6
Continuous
370
    -3
390
F
  0
LAYER
  5
7C
330
2
100
AcDbSymbolTableRecord
100
AcDbLayerTableRecord
  2
B-4_文字
 70
     0
 62
     7
  6
Continuous
370
    -3
390
F
  0
LAYER
  5
7D
330
2
100
AcDbSymbolTableRecord
100
AcDbLayerTableRecord
  2
B-5_建具
 70
     0
 62
     7
  6
Continuous
370
    -3
390
F
  0
LAYER
  5
7E
330
2
100
AcDbSymbolTableRecord
100
AcDbLayerTableRecord
  2
B-E_見え係り
 70
     0
 62
     7
  6
Continuous
370
    -3
390
F
  0
LAYER
  5
7F
330
2
100
AcDbSymbolTableRecord
100
AcDbLayerTableRecord
  2
C-3_寸法
 70
     0
 62
     7
  6
Continuous
370
    -3
390
F
  0
LAYER
  5
80
330
2
100
AcDbSymbolTableRecord
100
AcDbLayerTableRecord
  2
F-5ﾚｲﾔ
 70
     0
 62
     7
  6
Continuous
370
    -3
390
F
  0
LAYER
  5
81
330
2
100
AcDbSymbolTableRecord
100
AcDbLayerTableRecord
  2
F-Fﾚｲﾔ
 70
     0
 62
     7
  6
Continuous
370
    -3
390
F
  0
ENDTAB
  0
TABLE
  2
STYLE
  5
3
330
0
100
AcDbSymbolTable
 70
     2
  0
STYLE
  5
11
330
3
100
AcDbSymbolTableRecord
100
AcDbTextStyleTableRecord
  2
Standard
 70
     0
 40
0.0
 41
1.0
 50
0.0
 71
     0
 42
2.5
  3
txt
  4

  0
STYLE
  5
6E
330
3
100
AcDbSymbolTableRecord
100
AcDbTextStyleTableRecord
  2
ＭＳ ゴシック
 70
     0
 40
1.0
 41
1.0
 50
0.0
 71
     0
 42
2.5
  3

  4

1001
ACAD
1000
MS Gothic
1071
    32817
  0
ENDTAB
  0
TABLE
  2
VIEW
  5
6
330
0
100
AcDbSymbolTable
 70
     0
  0
ENDTAB
  0
TABLE
  2
UCS
  5
7
330
0
100
AcDbSymbolTable
 70
     0
  0
ENDTAB
  0
TABLE
  2
APPID
  5
9
330
0
100
AcDbSymbolTable
 70
     2
  0
APPID
  5
12
330
9
100
AcDbSymbolTableRecord
100
AcDbRegAppTableRecord
  2
ACAD
 70
     0
  0
APPID
  5
21F
330
9
100
AcDbSymbolTableRecord
100
AcDbRegAppTableRecord
  2
ACAD_MLEADERVER
 70
     0
  0
ENDTAB
  0
TABLE
  2
DIMSTYLE
  5
A
330
0
100
AcDbSymbolTable
 70
     1
100
AcDbDimStyleTable
  0
DIMSTYLE
105
27
330
A
100
AcDbSymbolTableRecord
100
AcDbDimStyleTableRecord
  2
ISO-25
 70
     0
 41
2.5
 42
0.625
 43
3.75
 44
1.25
 73
     0
 74
     0
 77
     1
 78
     8
140
2.5
141
2.5
143
0.03937007874016
147
0.625
171
     3
172
     1
178
     0
271
     2
272
     2
274
     3
278
    44
283
     0
284
     8
340
11
  0
ENDTAB
  0
TABLE
  2
BLOCK_RECORD
  5
1
330
0
100
AcDbSymbolTable
 70
     1
  0
BLOCK_RECORD
  5
1F
330
1
100
AcDbSymbolTableRecord
100
AcDbBlockTableRecord
  2
*Model_Space
340
22
  0
BLOCK_RECORD
  5
1B
330
1
100
AcDbSymbolTableRecord
100
AcDbBlockTableRecord
  2
*Paper_Space
340
1E
  0
BLOCK_RECORD
  5
23
330
1
100
AcDbSymbolTableRecord
100
AcDbBlockTableRecord
  2
*Paper_Space0
340
26
  0
ENDTAB
  0
ENDSEC
  0
SECTION
  2
BLOCKS
  0
BLOCK
  5
20
330
1F
100
AcDbEntity
  8
0
100
AcDbBlockBegin
  2
*Model_Space
 70
     0
 10
0.0
 20
0.0
 30
0.0
  3
*Model_Space
  1

  0
ENDBLK
  5
21
330
1F
100
AcDbEntity
  8
0
100
AcDbBlockEnd
  0
BLOCK
  5
1C
330
1B
100
AcDbEntity
 67
     1
  8
0
100
AcDbBlockBegin
  2
*Paper_Space
 70
     0
 10
0.0
 20
0.0
 30
0.0
  3
*Paper_Space
  1

  0
ENDBLK
  5
1D
330
1B
100
AcDbEntity
 67
     1
  8
0
100
AcDbBlockEnd
  0
BLOCK
  5
24
330
23
100
AcDbEntity
  8
0
100
AcDbBlockBegin
  2
*Paper_Space0
 70
     0
 10
0.0
 20
0.0
 30
0.0
  3
*Paper_Space0
  1

  0
ENDBLK
  5
25
330
23
100
AcDbEntity
  8
0
100
AcDbBlockEnd
  0
ENDSEC
  0
SECTION
  2
ENTITIES
  0
LINE
  5
82
330
1F
100
AcDbEntity
  8
C-2_仕上
  6
Continuous
 62
     3
370
     9
100
AcDbLine
 10
-1503.001060693036
 20
274.3969723088335
 30
0.0
 11
-1503.001060693036
 21
-287.4531269970151
 31
0.0
  0
ARC
  5
83
330
1F
100
AcDbEntity
  8
C-0_通り芯
  6
JWW_CENTER2
 62
     7
370
     9
100
AcDbCircle
 10
-1264.851019782985
 20
274.3969723088335
 30
0.0
 40
199.9999979380015
100
AcDbArc
 50
90.0
 51
180.0
  0
ARC
  5
84
330
1F
100
AcDbEntity
  8
C-2_仕上
  6
Continuous
 62
     3
370
     9
100
AcDbCircle
 10
-1264.851019782985
 20
274.3969723088335
 30
0.0
 40
161.8499920819257
100
AcDbArc
 50
90.0
 51
180.0
  0
ARC
  5
85
330
1F
100
AcDbEntity
  8
C-2_仕上
  6
Continuous
 62
     3
370
     9
100
AcDbCircle
 10
-1264.851019782985
 20
274.3969723088335
 30
0.0
 40
238.1500037940773
100
AcDbArc
 50
90.0
 51
180.0
  0
LINE
  5
86
330
1F
100
AcDbEntity
  8
C-4_文字
  6
Continuous
 62
     7
370
     9
100
AcDbLine
 10
-1503.001023577063
 20
641.6195175983412
 30
0.0
 11
-1478.214902042717
 21
644.8826724038427
 31
0.0
  0
LINE
  5
87
330
1F
100
AcDbEntity
  8
C-4_文字
  6
Continuous
 62
     7
370
     9
100
AcDbLine
 10
-1503.001023577063
 20
641.6195175983412
 30
0.0
 11
-1478.214902042717
 21
638.35636279284
 31
0.0
  0
LINE
  5
88
330
1F
100
AcDbEntity
  8
C-4_文字
  6
Continuous
 62
     7
370
     9
100
AcDbLine
 10
-1503.001023577063
 20
644.6195175983414
 30
0.0
 11
-1503.001023577063
 21
350.610589026912
 31
0.0
  0
LINE
  5
89
330
1F
100
AcDbEntity
  8
C-4_文字
  6
Continuous
 62
     7
370
     9
100
AcDbLine
 10
-1277.747646630324
 20
287.1522533084431
 30
0.0
 11
-1406.302742022115
 21
415.7879531060001
 31
0.0
  0
LINE
  5
8A
330
1F
100
AcDbEntity
  8
C-5_建具
  6
Continuous
 62
     7
370
     9
100
AcDbLine
 10
-1406.302742022115
 20
415.7879531060001
 30
0.0
 11
-1386.473679182415
 21
400.5627021425772
 31
0.0
  0
LINE
  5
8B
330
1F
100
AcDbEntity
  8
C-5_建具
  6
Continuous
 62
     7
370
     9
100
AcDbLine
 10
-1406.302742022115
 20
415.7879531060001
 30
0.0
 11
-1391.089923029939
 21
395.949350879248
 31
0.0
  0
TEXT
  5
8C
330
1F
100
AcDbEntity
  8
C-4_文字
  6
Continuous
 62
     2
370
   211
100
AcDbText
 10
-1334.574214917438
 20
358.9772298179746
 30
0.0
 40
30.4800000000007
  1
R200
 50
315.0
 41
1.093749999999943
  7
ＭＳ ゴシック
100
AcDbText
  0
LINE
  5
8D
330
1F
100
AcDbEntity
  8
C-1_躯体
  6
Continuous
 62
     3
370
     9
100
AcDbLine
 10
-1395.700430576391
 20
-285.1512627828387
 30
0.0
 11
-1426.700430576393
 21
-285.1512627828387
 31
0.0
  0
LINE
  5
8E
330
1F
100
AcDbEntity
  8
C-1_躯体
  6
Continuous
 62
     3
370
     9
100
AcDbLine
 10
-1394.200430576393
 20
-304.151262782839
 30
0.0
 11
-1394.200430576393
 21
-286.651262782839
 31
0.0
  0
ELLIPSE
  5
8F
330
1F
100
AcDbEntity
  8
C-1_躯体
  6
Continuous
 62
     3
370
     9
100
AcDbEllipse
 10
-1395.700430576391
 20
-286.651262782839
 30
0.0
 11
-1.060660171779821
 21
-1.060660171779822
 31
0.0
210
0.0
220
0.0
230
1.0
 40
0.9999999999999999
 41
2.356194490192345
 42
3.926990816987241
  0
ELLIPSE
  5
90
330
1F
100
AcDbEntity
  8
C-1_躯体
  6
Continuous
 62
     3
370
     9
100
AcDbEllipse
 10
-1395.700430576391
 20
-304.151262782839
 30
0.0
 11
-1.060660171779821
 21
-1.060660171779822
 31
0.0
210
0.0
220
0.0
230
1.0
 40
0.9999999999999999
 41
0.7853981633974483
 42
2.356194490192345
  0
CIRCLE
  5
91
330
1F
100
AcDbEntity
  8
C-0_通り芯
  6
Continuous
 62
     4
370
     9
100
AcDbCircle
 10
-1407.851036278973
 20
-293.1512396884553
 30
0.0
 40
2.7
  0
LINE
  5
92
330
1F
100
AcDbEntity
  8
C-0_通り芯
  6
Continuous
 62
     4
370
     9
100
AcDbLine
 10
-1419.03056764188
 20
-190.7581637307538
 30
0.0
 11
-1402.386517486311
 21
-285.1512627828386
 31
0.0
  0
LINE
  5
93
330
1F
100
AcDbEntity
  8
C-0_通り芯
  6
Continuous
 62
     4
370
     9
100
AcDbLine
 10
-1416.765509809952
 20
-190.3587729221198
 30
0.0
 11
-1400.051036278973
 21
-285.1512627828386
 31
0.0
  0
LINE
  5
94
330
1F
100
AcDbEntity
  8
C-0_通り芯
  6
Continuous
 62
     4
370
     9
100
AcDbLine
 10
-1419.03056764188
 20
-190.7581637307538
 30
0.0
 11
-1418.637725783239
 21
-190.6888951119237
 31
0.0
  0
LINE
  5
95
330
1F
100
AcDbEntity
  8
C-0_通り芯
  6
Continuous
 62
     4
370
     9
100
AcDbLine
 10
-1418.637725783239
 20
-190.6888951119237
 30
0.0
 11
-1416.765509809952
 21
-190.3587729221198
 31
0.0
  0
LINE
  5
96
330
1F
100
AcDbEntity
  8
C-1_躯体
  6
Continuous
 62
     7
370
     9
100
AcDbLine
 10
-1414.851036278974
 20
-537.4531426682045
 30
0.0
 11
-1514.851036278974
 21
-537.4531426682045
 31
0.0
  0
LINE
  5
97
330
1F
100
AcDbEntity
  8
C-4_文字
  6
Continuous
 62
     7
370
     9
100
AcDbLine
 10
-1123.720599428978
 20
-287.4531138002254
 30
0.0
 11
-1126.983754234479
 21
-312.2392353345706
 31
0.0
  0
LINE
  5
98
330
1F
100
AcDbEntity
  8
C-4_文字
  6
Continuous
 62
     7
370
     9
100
AcDbLine
 10
-1123.720599428978
 20
-287.4531138002254
 30
0.0
 11
-1120.457444623476
 21
-312.2392353345706
 31
0.0
  0
LINE
  5
99
330
1F
100
AcDbEntity
  8
C-0_通り芯
  6
Continuous
 62
     4
370
     9
100
AcDbLine
 10
-1422.613880193717
 20
-203.3805554885396
 30
0.0
 11
-1417.675643738146
 21
-198.4423190329677
 31
0.0
  0
ARC
  5
9A
330
1F
100
AcDbEntity
  8
C-0_通り芯
  6
Continuous
 62
     4
370
     9
100
AcDbCircle
 10
-1420.492559850158
 20
-205.5018758320992
 30
0.0
 40
3.0
100
AcDbArc
 50
135.0000000000009
 51
190.0
  0
LINE
  5
9B
330
1F
100
AcDbEntity
  8
C-0_通り芯
  6
Continuous
 62
     4
370
     9
100
AcDbLine
 10
-1412.425828371379
 20
-268.5268948608678
 30
0.0
 11
-1423.446983109194
 21
-206.0228203650999
 31
0.0
  0
LINE
  5
9C
330
1F
100
AcDbEntity
  8
C-0_通り芯
  6
Continuous
 62
     4
370
     9
100
AcDbLine
 10
-1410.739259897564
 20
-270.724873688977
 30
0.0
 11
-1404.409859200257
 21
-273.676321705663
 31
0.0
  0
ARC
  5
9D
330
1F
100
AcDbEntity
  8
C-0_通り芯
  6
Continuous
 62
     4
370
     9
100
AcDbCircle
 10
-1409.471405112342
 20
-268.005950327867
 30
0.0
 40
3.0
100
AcDbArc
 50
190.0
 51
244.9999999999996
  0
LINE
  5
9E
330
1F
100
AcDbEntity
  8
C-4_文字
  6
Continuous
 62
     7
370
     9
100
AcDbLine
 10
-1614.850281782579
 20
-764.1426700630379
 30
0.0
 11
-1314.850281782579
 21
-764.1426700630379
 31
0.0
  0
LINE
  5
9F
330
1F
100
AcDbEntity
  8
C-4_文字
  6
Continuous
 62
     7
370
     9
100
AcDbLine
 10
-1614.850281782579
 20
-764.1426700630379
 30
0.0
 11
-1590.064160248234
 21
-760.8795152575365
 31
0.0
  0
LINE
  5
A0
330
1F
100
AcDbEntity
  8
C-4_文字
  6
Continuous
 62
     7
370
     9
100
AcDbLine
 10
-1614.850281782579
 20
-764.1426700630379
 30
0.0
 11
-1590.064160248234
 21
-767.4058248685392
 31
0.0
  0
LINE
  5
A1
330
1F
100
AcDbEntity
  8
C-4_文字
  6
Continuous
 62
     7
370
     9
100
AcDbLine
 10
-1314.850281782579
 20
-764.1426700630379
 30
0.0
 11
-1339.636403316923
 21
-760.8795152575365
 31
0.0
  0
LINE
  5
A2
330
1F
100
AcDbEntity
  8
C-4_文字
  6
Continuous
 62
     7
370
     9
100
AcDbLine
 10
-1314.850281782579
 20
-764.1426700630379
 30
0.0
 11
-1339.636403316923
 21
-767.4058248685392
 31
0.0
  0
LINE
  5
A3
330
1F
100
AcDbEntity
  8
C-4_文字
  6
Continuous
 62
     7
370
     9
100
AcDbLine
 10
-1614.850281782579
 20
-767.1426700630379
 30
0.0
 11
-1614.850281782579
 21
-659.1514537239018
 31
0.0
  0
LINE
  5
A4
330
1F
100
AcDbEntity
  8
C-4_文字
  6
Continuous
 62
     7
370
     9
100
AcDbLine
 10
-1314.850281782579
 20
-767.1426700630379
 30
0.0
 11
-1314.850281782579
 21
-659.1514537239018
 31
0.0
  0
TEXT
  5
A5
330
1F
100
AcDbEntity
  8
C-4_文字
  6
Continuous
 62
     2
370
   211
100
AcDbText
 10
-1519.850281782579
 20
-752.5026700630382
 30
0.0
 40
30.48000000000003
  1
□300
 41
1.099999999999999
  7
ＭＳ ゴシック
100
AcDbText
  0
LINE
  5
A6
330
1F
100
AcDbEntity
  8
C-4_文字
  6
Continuous
 62
     7
370
     9
100
AcDbLine
 10
-1664.850281782579
 20
-868.2561650118853
 30
0.0
 11
-1264.850281782579
 21
-868.2561650118853
 31
0.0
  0
LINE
  5
A7
330
1F
100
AcDbEntity
  8
C-4_文字
  6
Continuous
 62
     7
370
     9
100
AcDbLine
 10
-1664.850281782579
 20
-868.2561650118853
 30
0.0
 11
-1640.064160248234
 21
-864.993010206384
 31
0.0
  0
LINE
  5
A8
330
1F
100
AcDbEntity
  8
C-4_文字
  6
Continuous
 62
     7
370
     9
100
AcDbLine
 10
-1664.850281782579
 20
-868.2561650118853
 30
0.0
 11
-1640.064160248234
 21
-871.5193198173868
 31
0.0
  0
LINE
  5
A9
330
1F
100
AcDbEntity
  8
C-4_文字
  6
Continuous
 62
     7
370
     9
100
AcDbLine
 10
-1264.850281782579
 20
-868.2561650118853
 30
0.0
 11
-1289.636403316923
 21
-864.993010206384
 31
0.0
  0
LINE
  5
AA
330
1F
100
AcDbEntity
  8
C-4_文字
  6
Continuous
 62
     7
370
     9
100
AcDbLine
 10
-1264.850281782579
 20
-868.2561650118853
 30
0.0
 11
-1289.636403316923
 21
-871.5193198173868
 31
0.0
  0
LINE
  5
AB
330
1F
100
AcDbEntity
  8
C-4_文字
  6
Continuous
 62
     7
370
     9
100
AcDbLine
 10
-1664.850281782579
 20
-871.2561650118855
 30
0.0
 11
-1664.850281782579
 21
-659.1514537239018
 31
0.0
  0
LINE
  5
AC
330
1F
100
AcDbEntity
  8
C-4_文字
  6
Continuous
 62
     7
370
     9
100
AcDbLine
 10
-1264.850281782579
 20
-871.2561650118855
 30
0.0
 11
-1264.850281782579
 21
-659.1514537239018
 31
0.0
  0
TEXT
  5
AD
330
1F
100
AcDbEntity
  8
C-4_文字
  6
Continuous
 62
     2
370
   211
100
AcDbText
 10
-1519.850281782579
 20
-856.6161650118851
 30
0.0
 40
30.47999999999989
  1
□400
 41
1.100000000000004
  7
ＭＳ ゴシック
100
AcDbText
  0
LINE
  5
AE
330
1F
100
AcDbEntity
  8
C-E_見え係り
  6
Continuous
 62
     6
370
     5
100
AcDbLine
 10
-1314.851036278973
 20
-540.6531138002254
 30
0.0
 11
-1314.851036278973
 21
-287.4531105010271
 31
0.0
  0
LINE
  5
AF
330
1F
100
AcDbEntity
  8
C-E_見え係り
  6
Continuous
 62
     6
370
     5
100
AcDbLine
 10
-1264.851036278973
 20
-640.6531138002254
 30
0.0
 11
-1264.851036278973
 21
-540.6531138002254
 31
0.0
  0
LINE
  5
B0
330
1F
100
AcDbEntity
  8
C-E_見え係り
  6
Continuous
 62
     6
370
     5
100
AcDbLine
 10
-1664.851036278974
 20
-540.6531138002254
 30
0.0
 11
-1264.851036278973
 21
-540.6531138002254
 31
0.0
  0
LINE
  5
B1
330
1F
100
AcDbEntity
  8
C-E_見え係り
  6
Continuous
 62
     6
370
     5
100
AcDbLine
 10
-1664.851036278974
 20
-640.6531138002254
 30
0.0
 11
-1264.851036278973
 21
-640.6531138002254
 31
0.0
  0
LINE
  5
B2
330
1F
100
AcDbEntity
  8
C-E_見え係り
  6
Continuous
 62
     6
370
     5
100
AcDbLine
 10
-1364.851036278973
 20
-540.6531138002254
 30
0.0
 11
-1391.645955522086
 21
-640.6531138002254
 31
0.0
  0
LINE
  5
B3
330
1F
100
AcDbEntity
  8
C-E_見え係り
  6
Continuous
 62
     6
370
     5
100
AcDbLine
 10
-1378.596586708546
 20
-640.6531138002254
 30
0.0
 11
-1385.121271115316
 21
-616.3026600908074
 31
0.0
  0
LINE
  5
B4
330
1F
100
AcDbEntity
  8
C-E_見え係り
  6
Continuous
 62
     6
370
     5
100
AcDbLine
 10
-1377.900405092513
 20
-540.6531138002254
 30
0.0
 11
-1371.375720685743
 21
-565.0035675096433
 31
0.0
  0
LINE
  5
B5
330
1F
100
AcDbEntity
  8
C-E_見え係り
  6
Continuous
 62
     6
370
     5
100
AcDbLine
 10
-1314.851036278973
 20
-540.6531138002254
 30
0.0
 11
-1341.645955522086
 21
-640.6531138002254
 31
0.0
  0
LINE
  5
B6
330
1F
100
AcDbEntity
  8
C-E_見え係り
  6
Continuous
 62
     6
370
     5
100
AcDbLine
 10
-1328.596586708545
 20
-640.6531138002254
 30
0.0
 11
-1335.121271115315
 21
-616.3026600908074
 31
0.0
  0
LINE
  5
B7
330
1F
100
AcDbEntity
  8
C-E_見え係り
  6
Continuous
 62
     6
370
     5
100
AcDbLine
 10
-1327.900405092513
 20
-540.6531138002254
 30
0.0
 11
-1321.375720685743
 21
-565.0035675096433
 31
0.0
  0
LINE
  5
B8
330
1F
100
AcDbEntity
  8
C-E_見え係り
  6
Continuous
 62
     6
370
     5
100
AcDbLine
 10
-1264.851036278973
 20
-540.6531138002254
 30
0.0
 11
-1291.645955522085
 21
-640.6531138002254
 31
0.0
  0
LINE
  5
B9
330
1F
100
AcDbEntity
  8
C-E_見え係り
  6
Continuous
 62
     6
370
     5
100
AcDbLine
 10
-1278.596586708545
 20
-640.6531138002254
 30
0.0
 11
-1285.121271115315
 21
-616.3026600908074
 31
0.0
  0
LINE
  5
BA
330
1F
100
AcDbEntity
  8
C-E_見え係り
  6
Continuous
 62
     6
370
     5
100
AcDbLine
 10
-1277.900405092513
 20
-540.6531138002254
 30
0.0
 11
-1271.375720685743
 21
-565.0035675096433
 31
0.0
  0
LINE
  5
BB
330
1F
100
AcDbEntity
  8
C-E_見え係り
  6
Continuous
 62
     6
370
     5
100
AcDbLine
 10
-1614.851036278974
 20
-540.6531138002254
 30
0.0
 11
-1614.851036278974
 21
-287.4531105010271
 31
0.0
  0
LINE
  5
BC
330
1F
100
AcDbEntity
  8
C-E_見え係り
  6
Continuous
 62
     6
370
     5
100
AcDbLine
 10
-1664.851036278974
 20
-640.6531138002254
 30
0.0
 11
-1664.851036278974
 21
-540.6531138002254
 31
0.0
  0
LINE
  5
BD
330
1F
100
AcDbEntity
  8
C-E_見え係り
  6
Continuous
 62
     6
370
     5
100
AcDbLine
 10
-1464.851036278974
 20
-540.6531138002254
 30
0.0
 11
-1491.645955522086
 21
-640.6531138002254
 31
0.0
  0
LINE
  5
BE
330
1F
100
AcDbEntity
  8
C-E_見え係り
  6
Continuous
 62
     6
370
     5
100
AcDbLine
 10
-1478.596586708546
 20
-640.6531138002254
 30
0.0
 11
-1485.121271115316
 21
-616.3026600908074
 31
0.0
  0
LINE
  5
BF
330
1F
100
AcDbEntity
  8
C-E_見え係り
  6
Continuous
 62
     6
370
     5
100
AcDbLine
 10
-1477.900405092514
 20
-540.6531138002254
 30
0.0
 11
-1471.375720685744
 21
-565.0035675096433
 31
0.0
  0
LINE
  5
C0
330
1F
100
AcDbEntity
  8
C-E_見え係り
  6
Continuous
 62
     6
370
     5
100
AcDbLine
 10
-1514.851036278974
 20
-540.6531138002254
 30
0.0
 11
-1541.645955522086
 21
-640.6531138002254
 31
0.0
  0
LINE
  5
C1
330
1F
100
AcDbEntity
  8
C-E_見え係り
  6
Continuous
 62
     6
370
     5
100
AcDbLine
 10
-1528.596586708546
 20
-640.6531138002254
 30
0.0
 11
-1535.121271115316
 21
-616.3026600908074
 31
0.0
  0
LINE
  5
C2
330
1F
100
AcDbEntity
  8
C-E_見え係り
  6
Continuous
 62
     6
370
     5
100
AcDbLine
 10
-1527.900405092514
 20
-540.6531138002254
 30
0.0
 11
-1521.375720685744
 21
-565.0035675096433
 31
0.0
  0
LINE
  5
C3
330
1F
100
AcDbEntity
  8
C-E_見え係り
  6
Continuous
 62
     6
370
     5
100
AcDbLine
 10
-1564.851036278974
 20
-540.6531138002254
 30
0.0
 11
-1591.645955522086
 21
-640.6531138002254
 31
0.0
  0
LINE
  5
C4
330
1F
100
AcDbEntity
  8
C-E_見え係り
  6
Continuous
 62
     6
370
     5
100
AcDbLine
 10
-1578.596586708546
 20
-640.6531138002254
 30
0.0
 11
-1585.121271115316
 21
-616.3026600908074
 31
0.0
  0
LINE
  5
C5
330
1F
100
AcDbEntity
  8
C-E_見え係り
  6
Continuous
 62
     6
370
     5
100
AcDbLine
 10
-1577.900405092514
 20
-540.6531138002254
 30
0.0
 11
-1571.375720685744
 21
-565.0035675096433
 31
0.0
  0
LINE
  5
C6
330
1F
100
AcDbEntity
  8
C-E_見え係り
  6
Continuous
 62
     6
370
     5
100
AcDbLine
 10
-1614.851036278974
 20
-540.6531138002254
 30
0.0
 11
-1641.645955522086
 21
-640.6531138002254
 31
0.0
  0
LINE
  5
C7
330
1F
100
AcDbEntity
  8
C-E_見え係り
  6
Continuous
 62
     6
370
     5
100
AcDbLine
 10
-1628.596586708546
 20
-640.6531138002254
 30
0.0
 11
-1635.121271115316
 21
-616.3026600908074
 31
0.0
  0
LINE
  5
C8
330
1F
100
AcDbEntity
  8
C-E_見え係り
  6
Continuous
 62
     6
370
     5
100
AcDbLine
 10
-1627.900405092514
 20
-540.6531138002254
 30
0.0
 11
-1621.375720685744
 21
-565.0035675096433
 31
0.0
  0
LINE
  5
C9
330
1F
100
AcDbEntity
  8
C-E_見え係り
  6
Continuous
 62
     6
370
     5
100
AcDbLine
 10
-1414.851036278974
 20
-540.6531138002254
 30
0.0
 11
-1441.645955522086
 21
-640.6531138002254
 31
0.0
  0
LINE
  5
CA
330
1F
100
AcDbEntity
  8
C-E_見え係り
  6
Continuous
 62
     6
370
     5
100
AcDbLine
 10
-1428.596586708546
 20
-640.6531138002254
 30
0.0
 11
-1435.121271115316
 21
-616.3026600908074
 31
0.0
  0
LINE
  5
CB
330
1F
100
AcDbEntity
  8
C-E_見え係り
  6
Continuous
 62
     6
370
     5
100
AcDbLine
 10
-1427.900405092514
 20
-540.6531138002254
 30
0.0
 11
-1421.375720685744
 21
-565.0035675096433
 31
0.0
  0
LINE
  5
CC
330
1F
100
AcDbEntity
  8
C-1_躯体
  6
Continuous
 62
     7
370
     9
100
AcDbLine
 10
-1414.851036278974
 20
-537.4531426682045
 30
0.0
 11
-1414.851036278974
 21
-540.6531138002254
 31
0.0
  0
LINE
  5
CD
330
1F
100
AcDbEntity
  8
C-1_躯体
  6
Continuous
 62
     7
370
     9
100
AcDbLine
 10
-1452.351036278974
 20
-537.4531426682045
 30
0.0
 11
-1452.351036278974
 21
-540.6531138002254
 31
0.0
  0
LINE
  5
CE
330
1F
100
AcDbEntity
  8
C-1_躯体
  6
Continuous
 62
     7
370
     9
100
AcDbLine
 10
-1514.851036278974
 20
-537.4531426682045
 30
0.0
 11
-1514.851036278974
 21
-540.6531138002254
 31
0.0
  0
LINE
  5
CF
330
1F
100
AcDbEntity
  8
C-1_躯体
  6
Continuous
 62
     7
370
     9
100
AcDbLine
 10
-1477.351036278974
 20
-537.4531426682045
 30
0.0
 11
-1477.351036278974
 21
-540.6531138002254
 31
0.0
  0
LINE
  5
D0
330
1F
100
AcDbEntity
  8
C-4_文字
  6
Continuous
 62
     7
370
     9
100
AcDbLine
 10
-1123.720599428978
 20
-640.6531138002254
 30
0.0
 11
-1123.720599428978
 21
-540.6531138002254
 31
0.0
  0
LINE
  5
D1
330
1F
100
AcDbEntity
  8
C-4_文字
  6
Continuous
 62
     7
370
     9
100
AcDbLine
 10
-1123.720599428978
 20
-640.6531138002254
 30
0.0
 11
-1126.983754234479
 21
-615.8669922658801
 31
0.0
  0
LINE
  5
D2
330
1F
100
AcDbEntity
  8
C-4_文字
  6
Continuous
 62
     7
370
     9
100
AcDbLine
 10
-1123.720599428978
 20
-640.6531138002254
 30
0.0
 11
-1120.457444623476
 21
-615.8669922658801
 31
0.0
  0
LINE
  5
D3
330
1F
100
AcDbEntity
  8
C-4_文字
  6
Continuous
 62
     7
370
     9
100
AcDbLine
 10
-1123.720599428978
 20
-540.6531138002254
 30
0.0
 11
-1126.983754234479
 21
-565.4392353345706
 31
0.0
  0
LINE
  5
D4
330
1F
100
AcDbEntity
  8
C-4_文字
  6
Continuous
 62
     7
370
     9
100
AcDbLine
 10
-1123.720599428978
 20
-540.6531138002254
 30
0.0
 11
-1120.457444623476
 21
-565.4392353345706
 31
0.0
  0
LINE
  5
D5
330
1F
100
AcDbEntity
  8
C-4_文字
  6
Continuous
 62
     7
370
     9
100
AcDbLine
 10
-1120.720599428978
 20
-640.6531138002254
 30
0.0
 11
-1244.851036278973
 21
-640.6531138002254
 31
0.0
  0
LINE
  5
D6
330
1F
100
AcDbEntity
  8
C-4_文字
  6
Continuous
 62
     7
370
     9
100
AcDbLine
 10
-1120.720599428978
 20
-540.6531138002254
 30
0.0
 11
-1244.851036278973
 21
-540.6531138002254
 31
0.0
  0
TEXT
  5
D7
330
1F
100
AcDbEntity
  8
C-4_文字
  6
Continuous
 62
     2
370
   211
100
AcDbText
 10
-1134.360599428978
 20
-623.1531138002254
 30
0.0
 40
30.48
  1
100
 50
90.0
 41
1.083333333333333
  7
ＭＳ ゴシック
100
AcDbText
  0
LINE
  5
D8
330
1F
100
AcDbEntity
  8
C-4_文字
  6
Continuous
 62
     7
370
     9
100
AcDbLine
 10
-1123.720599428978
 20
-540.6531138002254
 30
0.0
 11
-1126.983754234479
 21
-515.8669922658801
 31
0.0
  0
LINE
  5
D9
330
1F
100
AcDbEntity
  8
C-4_文字
  6
Continuous
 62
     7
370
     9
100
AcDbLine
 10
-1123.720599428978
 20
-540.6531138002254
 30
0.0
 11
-1120.457444623476
 21
-515.8669922658801
 31
0.0
  0
LINE
  5
DA
330
1F
100
AcDbEntity
  8
C-4_文字
  6
Continuous
 62
     7
370
     9
100
AcDbLine
 10
-1123.720599428978
 20
-540.6531138002254
 30
0.0
 11
-1123.720599428978
 21
-287.4531138002254
 31
0.0
  0
TEXT
  5
DB
330
1F
100
AcDbEntity
  8
C-4_文字
  6
Continuous
 62
     2
370
   211
100
AcDbText
 10
-1134.360599428978
 20
-469.0531138002254
 30
0.0
 40
30.48
  1
253.2
 50
90.0
 41
1.1
  7
ＭＳ ゴシック
100
AcDbText
  0
ARC
  5
DC
330
1F
100
AcDbEntity
  8
C-0_通り芯
  6
JWW_CENTER2
 62
     7
370
     9
100
AcDbCircle
 10
-241.15102737114
 20
274.3969723088335
 30
0.0
 40
199.9999979380015
100
AcDbArc
 50
0.0
 51
90.0
  0
ARC
  5
DD
330
1F
100
AcDbEntity
  8
C-2_仕上
  6
Continuous
 62
     3
370
     9
100
AcDbCircle
 10
-241.15102737114
 20
274.3969723088335
 30
0.0
 40
161.8499920819257
100
AcDbArc
 50
0.0
 51
90.0
  0
ARC
  5
DE
330
1F
100
AcDbEntity
  8
C-2_仕上
  6
Continuous
 62
     3
370
     9
100
AcDbCircle
 10
-241.15102737114
 20
274.3969723088335
 30
0.0
 40
238.1500037940773
100
AcDbArc
 50
0.0
 51
90.0
  0
LINE
  5
DF
330
1F
100
AcDbEntity
  8
C-4_文字
  6
Continuous
 62
     7
370
     9
100
AcDbLine
 10
-3.001023577062654
 20
641.6195175983412
 30
0.0
 11
-27.78714511140791
 21
644.8826724038427
 31
0.0
  0
LINE
  5
E0
330
1F
100
AcDbEntity
  8
C-4_文字
  6
Continuous
 62
     7
370
     9
100
AcDbLine
 10
-3.001023577062654
 20
641.6195175983412
 30
0.0
 11
-27.78714511140791
 21
638.35636279284
 31
0.0
  0
LINE
  5
E1
330
1F
100
AcDbEntity
  8
C-4_文字
  6
Continuous
 62
     7
370
     9
100
AcDbLine
 10
-3.001023577062654
 20
644.6195175983414
 30
0.0
 11
-3.001023577062654
 21
350.610589026912
 31
0.0
  0
LINE
  5
E2
330
1F
100
AcDbEntity
  8
C-5_建具
  6
Continuous
 62
     7
370
     9
100
AcDbLine
 10
-241.15102737114
 20
512.546976102911
 30
0.0
 11
-95.7109345383978
 21
764.4645234212619
 31
0.0
  0
LINE
  5
E3
330
1F
100
AcDbEntity
  8
C-5_建具
  6
Continuous
 62
     7
370
     9
100
AcDbLine
 10
-241.15102737114
 20
512.546976102911
 30
0.0
 11
-225.9322615561192
 21
532.3810167166529
 31
0.0
  0
LINE
  5
E4
330
1F
100
AcDbEntity
  8
C-5_建具
  6
Continuous
 62
     7
370
     9
100
AcDbLine
 10
-241.15102737114
 20
512.546976102911
 30
0.0
 11
-231.5842558783385
 21
535.6440946072725
 31
0.0
  0
LINE
  5
E5
330
1F
100
AcDbEntity
  8
C-0_通り芯
  6
JWW_CENTER2
 62
     7
370
     9
100
AcDbLine
 10
-241.15102737114
 20
474.3969888048218
 30
0.0
 11
-1264.851019782985
 21
474.3969888048218
 31
0.0
  0
LINE
  5
E6
330
1F
100
AcDbEntity
  8
C-2_仕上
  6
Continuous
 62
     3
370
     9
100
AcDbLine
 10
-1264.851019782985
 20
512.5468647549906
 30
0.0
 11
-241.15102737114
 21
512.5468647549906
 31
0.0
  0
LINE
  5
E7
330
1F
100
AcDbEntity
  8
C-2_仕上
  6
Continuous
 62
     3
370
     9
100
AcDbLine
 10
-1264.851019782985
 20
436.2468159268656
 30
0.0
 11
-241.15102737114
 21
436.2468159268656
 31
0.0
  0
LINE
  5
E8
330
1F
100
AcDbEntity
  8
C-1_躯体
  6
Continuous
 62
     7
370
     9
100
AcDbLine
 10
8.848989124848146
 20
-537.4531426682045
 30
0.0
 11
-91.15101087515185
 21
-537.4531426682045
 31
0.0
  0
LINE
  5
E9
330
1F
100
AcDbEntity
  8
C-1_躯体
  6
Continuous
 62
     3
370
     9
100
AcDbLine
 10
-110.3016165777341
 20
-285.1512627828386
 30
0.0
 11
-79.30161657773269
 21
-285.1512627828386
 31
0.0
  0
LINE
  5
EA
330
1F
100
AcDbEntity
  8
C-1_躯体
  6
Continuous
 62
     3
370
     9
100
AcDbLine
 10
-111.8016165777327
 20
-304.151262782839
 30
0.0
 11
-111.8016165777327
 21
-286.651262782839
 31
0.0
  0
ARC
  5
EB
330
1F
100
AcDbEntity
  8
C-1_躯体
  6
Continuous
 62
     3
370
     9
100
AcDbCircle
 10
-110.3016165777341
 20
-286.651262782839
 30
0.0
 40
1.5
100
AcDbArc
 50
90.0
 51
180.0
  0
ARC
  5
EC
330
1F
100
AcDbEntity
  8
C-1_躯体
  6
Continuous
 62
     3
370
     9
100
AcDbCircle
 10
-110.3016165777341
 20
-304.151262782839
 30
0.0
 40
1.5
100
AcDbArc
 50
180.0
 51
270.0
  0
CIRCLE
  5
ED
330
1F
100
AcDbEntity
  8
C-0_通り芯
  6
Continuous
 62
     4
370
     9
100
AcDbCircle
 10
-98.15101087515188
 20
-293.1512396884552
 30
0.0
 40
2.7
  0
LINE
  5
EE
330
1F
100
AcDbEntity
  8
C-0_通り芯
  6
Continuous
 62
     4
370
     9
100
AcDbLine
 10
-86.97147951224537
 20
-190.7581637307538
 30
0.0
 11
-103.6155296678146
 21
-285.1512627828386
 31
0.0
  0
LINE
  5
EF
330
1F
100
AcDbEntity
  8
C-0_通り芯
  6
Continuous
 62
     4
370
     9
100
AcDbLine
 10
-89.23653734417357
 20
-190.3587729221198
 30
0.0
 11
-105.9510108751519
 21
-285.1512627828386
 31
0.0
  0
LINE
  5
F0
330
1F
100
AcDbEntity
  8
C-0_通り芯
  6
Continuous
 62
     4
370
     9
100
AcDbLine
 10
-86.97147951224537
 20
-190.7581637307538
 30
0.0
 11
-87.36432137088627
 21
-190.6888951119237
 31
0.0
  0
LINE
  5
F1
330
1F
100
AcDbEntity
  8
C-0_通り芯
  6
Continuous
 62
     4
370
     9
100
AcDbLine
 10
-87.36432137088627
 20
-190.6888951119237
 30
0.0
 11
-89.23653734417357
 21
-190.3587729221198
 31
0.0
  0
LINE
  5
F2
330
1F
100
AcDbEntity
  8
C-E_見え係り
  6
Continuous
 62
     6
370
     5
100
AcDbLine
 10
-1394.200430576393
 20
-287.4531105010271
 30
0.0
 11
-111.8016165777327
 21
-287.4531105010271
 31
0.0
  0
LINE
  5
F3
330
1F
100
AcDbEntity
  8
C-0_通り芯
  6
Continuous
 62
     4
370
     9
100
AcDbLine
 10
-83.38816696040794
 20
-203.3805554885395
 30
0.0
 11
-88.32640341597966
 21
-198.4423190329676
 31
0.0
  0
ARC
  5
F4
330
1F
100
AcDbEntity
  8
C-0_通り芯
  6
Continuous
 62
     4
370
     9
100
AcDbCircle
 10
-85.50948730396762
 20
-205.5018758320991
 30
0.0
 40
3.0
100
AcDbArc
 50
349.9999999999999
 51
44.99999999999916
  0
LINE
  5
F5
330
1F
100
AcDbEntity
  8
C-0_通り芯
  6
Continuous
 62
     4
370
     9
100
AcDbLine
 10
-95.26278725656127
 20
-270.7248736889769
 30
0.0
 11
-101.5921879538686
 21
-273.676321705663
 31
0.0
  0
LINE
  5
F6
330
1F
100
AcDbEntity
  8
C-0_通り芯
  6
Continuous
 62
     4
370
     9
100
AcDbLine
 10
-93.57621878274671
 20
-268.5268948608678
 30
0.0
 11
-82.55506404493104
 21
-206.0228203650999
 31
0.0
  0
ARC
  5
F7
330
1F
100
AcDbEntity
  8
C-0_通り芯
  6
Continuous
 62
     4
370
     9
100
AcDbCircle
 10
-96.53064204178335
 20
-268.005950327867
 30
0.0
 40
3.0
100
AcDbArc
 50
295.0000000000005
 51
350.0000000000001
  0
LINE
  5
F8
330
1F
100
AcDbEntity
  8
C-E_見え係り
  6
Continuous
 62
     6
370
     5
100
AcDbLine
 10
108.8489891248487
 20
-540.6531138002254
 30
0.0
 11
108.8489891248487
 21
-287.4531105010271
 31
0.0
  0
LINE
  5
F9
330
1F
100
AcDbEntity
  8
C-E_見え係り
  6
Continuous
 62
     6
370
     5
100
AcDbLine
 10
158.8489891248487
 20
-640.6531138002254
 30
0.0
 11
158.8489891248487
 21
-540.6531138002254
 31
0.0
  0
LINE
  5
FA
330
1F
100
AcDbEntity
  8
C-E_見え係り
  6
Continuous
 62
     6
370
     5
100
AcDbLine
 10
-241.1510108751519
 20
-540.6531138002254
 30
0.0
 11
158.8489891248487
 21
-540.6531138002254
 31
0.0
  0
LINE
  5
FB
330
1F
100
AcDbEntity
  8
C-E_見え係り
  6
Continuous
 62
     6
370
     5
100
AcDbLine
 10
-241.1510108751519
 20
-640.6531138002254
 30
0.0
 11
158.8489891248487
 21
-640.6531138002254
 31
0.0
  0
LINE
  5
FC
330
1F
100
AcDbEntity
  8
C-E_見え係り
  6
Continuous
 62
     6
370
     5
100
AcDbLine
 10
58.84898912484871
 20
-540.6531138002254
 30
0.0
 11
32.0540698817355
 21
-640.6531138002254
 31
0.0
  0
LINE
  5
FD
330
1F
100
AcDbEntity
  8
C-E_見え係り
  6
Continuous
 62
     6
370
     5
100
AcDbLine
 10
45.10343869527574
 20
-640.6531138002254
 30
0.0
 11
38.57875428850562
 21
-616.3026600908074
 31
0.0
  0
LINE
  5
FE
330
1F
100
AcDbEntity
  8
C-E_見え係り
  6
Continuous
 62
     6
370
     5
100
AcDbLine
 10
45.79962031130847
 20
-540.6531138002254
 30
0.0
 11
52.32430471807859
 21
-565.0035675096433
 31
0.0
  0
LINE
  5
FF
330
1F
100
AcDbEntity
  8
C-E_見え係り
  6
Continuous
 62
     6
370
     5
100
AcDbLine
 10
108.8489891248487
 20
-540.6531138002254
 30
0.0
 11
82.05406988173607
 21
-640.6531138002254
 31
0.0
  0
LINE
  5
100
330
1F
100
AcDbEntity
  8
C-E_見え係り
  6
Continuous
 62
     6
370
     5
100
AcDbLine
 10
95.10343869527631
 20
-640.6531138002254
 30
0.0
 11
88.57875428850619
 21
-616.3026600908074
 31
0.0
  0
LINE
  5
101
330
1F
100
AcDbEntity
  8
C-E_見え係り
  6
Continuous
 62
     6
370
     5
100
AcDbLine
 10
95.79962031130847
 20
-540.6531138002254
 30
0.0
 11
102.3243047180786
 21
-565.0035675096433
 31
0.0
  0
LINE
  5
102
330
1F
100
AcDbEntity
  8
C-E_見え係り
  6
Continuous
 62
     6
370
     5
100
AcDbLine
 10
158.8489891248487
 20
-540.6531138002254
 30
0.0
 11
132.0540698817361
 21
-640.6531138002254
 31
0.0
  0
LINE
  5
103
330
1F
100
AcDbEntity
  8
C-E_見え係り
  6
Continuous
 62
     6
370
     5
100
AcDbLine
 10
145.1034386952763
 20
-640.6531138002254
 30
0.0
 11
138.5787542885062
 21
-616.3026600908074
 31
0.0
  0
LINE
  5
104
330
1F
100
AcDbEntity
  8
C-E_見え係り
  6
Continuous
 62
     6
370
     5
100
AcDbLine
 10
145.7996203113085
 20
-540.6531138002254
 30
0.0
 11
152.3243047180786
 21
-565.0035675096433
 31
0.0
  0
LINE
  5
105
330
1F
100
AcDbEntity
  8
C-E_見え係り
  6
Continuous
 62
     6
370
     5
100
AcDbLine
 10
-191.1510108751519
 20
-540.6531138002254
 30
0.0
 11
-191.1510108751519
 21
-287.4531105010271
 31
0.0
  0
LINE
  5
106
330
1F
100
AcDbEntity
  8
C-E_見え係り
  6
Continuous
 62
     6
370
     5
100
AcDbLine
 10
-241.1510108751519
 20
-640.6531138002254
 30
0.0
 11
-241.1510108751519
 21
-540.6531138002254
 31
0.0
  0
LINE
  5
107
330
1F
100
AcDbEntity
  8
C-E_見え係り
  6
Continuous
 62
     6
370
     5
100
AcDbLine
 10
-41.15101087515185
 20
-540.6531138002254
 30
0.0
 11
-67.9459301182645
 21
-640.6531138002254
 31
0.0
  0
LINE
  5
108
330
1F
100
AcDbEntity
  8
C-E_見え係り
  6
Continuous
 62
     6
370
     5
100
AcDbLine
 10
-54.89656130472426
 20
-640.6531138002254
 30
0.0
 11
-61.42124571149438
 21
-616.3026600908074
 31
0.0
  0
LINE
  5
109
330
1F
100
AcDbEntity
  8
C-E_見え係り
  6
Continuous
 62
     6
370
     5
100
AcDbLine
 10
-54.2003796886921
 20
-540.6531138002254
 30
0.0
 11
-47.67569528192197
 21
-565.0035675096433
 31
0.0
  0
LINE
  5
10A
330
1F
100
AcDbEntity
  8
C-E_見え係り
  6
Continuous
 62
     6
370
     5
100
AcDbLine
 10
-91.15101087515185
 20
-540.6531138002254
 30
0.0
 11
-117.9459301182645
 21
-640.6531138002254
 31
0.0
  0
LINE
  5
10B
330
1F
100
AcDbEntity
  8
C-E_見え係り
  6
Continuous
 62
     6
370
     5
100
AcDbLine
 10
-104.8965613047243
 20
-640.6531138002254
 30
0.0
 11
-111.4212457114944
 21
-616.3026600908074
 31
0.0
  0
LINE
  5
10C
330
1F
100
AcDbEntity
  8
C-E_見え係り
  6
Continuous
 62
     6
370
     5
100
AcDbLine
 10
-104.2003796886921
 20
-540.6531138002254
 30
0.0
 11
-97.67569528192197
 21
-565.0035675096433
 31
0.0
  0
LINE
  5
10D
330
1F
100
AcDbEntity
  8
C-E_見え係り
  6
Continuous
 62
     6
370
     5
100
AcDbLine
 10
-141.1510108751519
 20
-540.6531138002254
 30
0.0
 11
-167.9459301182645
 21
-640.6531138002254
 31
0.0
  0
LINE
  5
10E
330
1F
100
AcDbEntity
  8
C-E_見え係り
  6
Continuous
 62
     6
370
     5
100
AcDbLine
 10
-154.8965613047243
 20
-640.6531138002254
 30
0.0
 11
-161.4212457114944
 21
-616.3026600908074
 31
0.0
  0
LINE
  5
10F
330
1F
100
AcDbEntity
  8
C-E_見え係り
  6
Continuous
 62
     6
370
     5
100
AcDbLine
 10
-154.2003796886921
 20
-540.6531138002254
 30
0.0
 11
-147.675695281922
 21
-565.0035675096433
 31
0.0
  0
LINE
  5
110
330
1F
100
AcDbEntity
  8
C-E_見え係り
  6
Continuous
 62
     6
370
     5
100
AcDbLine
 10
-191.1510108751519
 20
-540.6531138002254
 30
0.0
 11
-217.9459301182645
 21
-640.6531138002254
 31
0.0
  0
LINE
  5
111
330
1F
100
AcDbEntity
  8
C-E_見え係り
  6
Continuous
 62
     6
370
     5
100
AcDbLine
 10
-204.8965613047243
 20
-640.6531138002254
 30
0.0
 11
-211.4212457114944
 21
-616.3026600908074
 31
0.0
  0
LINE
  5
112
330
1F
100
AcDbEntity
  8
C-E_見え係り
  6
Continuous
 62
     6
370
     5
100
AcDbLine
 10
-204.2003796886921
 20
-540.6531138002254
 30
0.0
 11
-197.675695281922
 21
-565.0035675096433
 31
0.0
  0
LINE
  5
113
330
1F
100
AcDbEntity
  8
C-E_見え係り
  6
Continuous
 62
     6
370
     5
100
AcDbLine
 10
8.848989124848146
 20
-540.6531138002254
 30
0.0
 11
-17.9459301182645
 21
-640.6531138002254
 31
0.0
  0
LINE
  5
114
330
1F
100
AcDbEntity
  8
C-E_見え係り
  6
Continuous
 62
     6
370
     5
100
AcDbLine
 10
-4.896561304724258
 20
-640.6531138002254
 30
0.0
 11
-11.42124571149438
 21
-616.3026600908074
 31
0.0
  0
LINE
  5
115
330
1F
100
AcDbEntity
  8
C-E_見え係り
  6
Continuous
 62
     6
370
     5
100
AcDbLine
 10
-4.200379688692095
 20
-540.6531138002254
 30
0.0
 11
2.324304718078025
 21
-565.0035675096433
 31
0.0
  0
LINE
  5
116
330
1F
100
AcDbEntity
  8
C-1_躯体
  6
Continuous
 62
     7
370
     9
100
AcDbLine
 10
8.848989124848146
 20
-537.4531426682045
 30
0.0
 11
8.848989124848146
 21
-540.6531138002254
 31
0.0
  0
LINE
  5
117
330
1F
100
AcDbEntity
  8
C-1_躯体
  6
Continuous
 62
     7
370
     9
100
AcDbLine
 10
-28.65101087515185
 20
-537.4531426682045
 30
0.0
 11
-28.65101087515185
 21
-540.6531138002254
 31
0.0
  0
LINE
  5
118
330
1F
100
AcDbEntity
  8
C-1_躯体
  6
Continuous
 62
     7
370
     9
100
AcDbLine
 10
-91.15101087515185
 20
-537.4531426682045
 30
0.0
 11
-91.15101087515185
 21
-540.6531138002254
 31
0.0
  0
LINE
  5
119
330
1F
100
AcDbEntity
  8
C-1_躯体
  6
Continuous
 62
     7
370
     9
100
AcDbLine
 10
-53.65101087515185
 20
-537.4531426682045
 30
0.0
 11
-53.65101087515185
 21
-540.6531138002254
 31
0.0
  0
LINE
  5
11A
330
1F
100
AcDbEntity
  8
C-5_建具
  6
Continuous
 62
     7
370
     9
100
AcDbLine
 10
739.2061115553225
 20
-731.3489189772621
 30
0.0
 11
196.4687564777519
 21
-731.3489189772621
 31
0.0
  0
TEXT
  5
11B
330
1F
100
AcDbEntity
  8
C-5_建具
  6
Continuous
 62
     7
370
     9
100
AcDbText
 10
200.0333232779836
 20
-715.2575516750697
 30
0.0
 40
22.86000000000032
  1
脱着用埋設管
 41
1.138888888888898
  7
ＭＳ ゴシック
100
AcDbText
  0
TEXT
  5
11C
330
1F
100
AcDbEntity
  8
C-5_建具
  6
Continuous
 62
     7
370
     9
100
AcDbText
 10
-87.33931188933433
 20
724.3560046260388
 30
0.0
 40
22.86000000000006
  1
STK400　溶融亜鉛めっき＋焼付塗装
 41
1.156249999999998
  7
ＭＳ ゴシック
100
AcDbText
  0
LINE
  5
11D
330
1F
100
AcDbEntity
  8
C-4_文字
  6
Continuous
 62
     7
370
     9
100
AcDbLine
 10
-1713.549211451163
 20
-537.4531105010271
 30
0.0
 11
-1713.549211451163
 21
-287.4531105010271
 31
0.0
  0
LINE
  5
11E
330
1F
100
AcDbEntity
  8
C-4_文字
  6
Continuous
 62
     7
370
     9
100
AcDbLine
 10
-1713.549211451163
 20
-537.4531105010271
 30
0.0
 11
-1716.812366256664
 21
-512.6669889666817
 31
0.0
  0
LINE
  5
11F
330
1F
100
AcDbEntity
  8
C-4_文字
  6
Continuous
 62
     7
370
     9
100
AcDbLine
 10
-1713.549211451163
 20
-537.4531105010271
 30
0.0
 11
-1710.286056645661
 21
-512.6669889666817
 31
0.0
  0
LINE
  5
120
330
1F
100
AcDbEntity
  8
C-4_文字
  6
Continuous
 62
     7
370
     9
100
AcDbLine
 10
-1713.549211451163
 20
-287.4531105010271
 30
0.0
 11
-1716.812366256664
 21
-312.2392320353725
 31
0.0
  0
LINE
  5
121
330
1F
100
AcDbEntity
  8
C-4_文字
  6
Continuous
 62
     7
370
     9
100
AcDbLine
 10
-1713.549211451163
 20
-287.4531105010271
 30
0.0
 11
-1710.286056645661
 21
-312.2392320353725
 31
0.0
  0
TEXT
  5
122
330
1F
100
AcDbEntity
  8
C-4_文字
  6
Continuous
 62
     2
370
   211
100
AcDbText
 10
-1724.189211451163
 20
-444.9531105010271
 30
0.0
 40
30.48
  1
250
 50
90.0
 41
1.083333333333333
  7
ＭＳ ゴシック
100
AcDbText
  0
LINE
  5
123
330
1F
100
AcDbEntity
  8
C-4_文字
  6
Continuous
 62
     7
370
     9
100
AcDbLine
 10
-1713.549211451163
 20
-287.4531105010271
 30
0.0
 11
-1713.549211451163
 21
512.5468647549906
 31
0.0
  0
LINE
  5
124
330
1F
100
AcDbEntity
  8
C-4_文字
  6
Continuous
 62
     7
370
     9
100
AcDbLine
 10
-1713.549211451163
 20
-287.4531105010271
 30
0.0
 11
-1716.812366256664
 21
-262.6669889666817
 31
0.0
  0
LINE
  5
125
330
1F
100
AcDbEntity
  8
C-4_文字
  6
Continuous
 62
     7
370
     9
100
AcDbLine
 10
-1713.549211451163
 20
-287.4531105010271
 30
0.0
 11
-1710.286056645661
 21
-262.6669889666817
 31
0.0
  0
LINE
  5
126
330
1F
100
AcDbEntity
  8
C-4_文字
  6
Continuous
 62
     7
370
     9
100
AcDbLine
 10
-1713.549211451163
 20
512.5468647549906
 30
0.0
 11
-1716.812366256664
 21
487.7607432206452
 31
0.0
  0
LINE
  5
127
330
1F
100
AcDbEntity
  8
C-4_文字
  6
Continuous
 62
     7
370
     9
100
AcDbLine
 10
-1713.549211451163
 20
512.5468647549906
 30
0.0
 11
-1710.286056645661
 21
487.7607432206452
 31
0.0
  0
TEXT
  5
128
330
1F
100
AcDbEntity
  8
C-4_文字
  6
Continuous
 62
     2
370
   211
100
AcDbText
 10
-1724.189211451163
 20
80.04687712698171
 30
0.0
 40
30.48
  1
800
 50
90.0
 41
1.083333333333333
  7
ＭＳ ゴシック
100
AcDbText
  0
LINE
  5
129
330
1F
100
AcDbEntity
  8
C-4_文字
  6
Continuous
 62
     7
370
     9
100
AcDbLine
 10
-1807.441472835018
 20
-537.4531105010271
 30
0.0
 11
-1807.441472835018
 21
512.5468647549906
 31
0.0
  0
LINE
  5
12A
330
1F
100
AcDbEntity
  8
C-4_文字
  6
Continuous
 62
     7
370
     9
100
AcDbLine
 10
-1807.441472835018
 20
-537.4531105010271
 30
0.0
 11
-1810.704627640519
 21
-512.6669889666817
 31
0.0
  0
LINE
  5
12B
330
1F
100
AcDbEntity
  8
C-4_文字
  6
Continuous
 62
     7
370
     9
100
AcDbLine
 10
-1807.441472835018
 20
-537.4531105010271
 30
0.0
 11
-1804.178318029516
 21
-512.6669889666817
 31
0.0
  0
LINE
  5
12C
330
1F
100
AcDbEntity
  8
C-4_文字
  6
Continuous
 62
     7
370
     9
100
AcDbLine
 10
-1807.441472835018
 20
512.5468647549906
 30
0.0
 11
-1810.704627640519
 21
487.7607432206452
 31
0.0
  0
LINE
  5
12D
330
1F
100
AcDbEntity
  8
C-4_文字
  6
Continuous
 62
     7
370
     9
100
AcDbLine
 10
-1807.441472835018
 20
512.5468647549906
 30
0.0
 11
-1804.178318029516
 21
487.7607432206452
 31
0.0
  0
TEXT
  5
12E
330
1F
100
AcDbEntity
  8
C-4_文字
  6
Continuous
 62
     2
370
   211
100
AcDbText
 10
-1818.081472835018
 20
-56.20312287301829
 30
0.0
 40
30.48
  1
1050
 50
90.0
 41
1.09375
  7
ＭＳ ゴシック
100
AcDbText
  0
LINE
  5
12F
330
1F
100
AcDbEntity
  8
C-4_文字
  6
Continuous
 62
     7
370
     9
100
AcDbLine
 10
-1810.441472835018
 20
512.5468647549906
 30
0.0
 11
-1340.252372761425
 21
512.5468647549906
 31
0.0
  0
LINE
  5
130
330
1F
100
AcDbEntity
  8
C-E_見え係り
  6
Continuous
 62
     6
370
     5
100
AcDbLine
 10
-1510.250998008281
 20
-287.4531105010271
 30
0.0
 11
-1753.001060693036
 21
-287.4531105010271
 31
0.0
  0
LINE
  5
131
330
1F
100
AcDbEntity
  8
C-4_文字
  6
Continuous
 62
     7
370
     9
100
AcDbLine
 10
-1716.549211451163
 20
-540.6531138002254
 30
0.0
 11
-1684.851036278973
 21
-540.6531138002254
 31
0.0
  0
LINE
  5
132
330
1F
100
AcDbEntity
  8
C-4_文字
  6
Continuous
 62
     7
370
     9
100
AcDbLine
 10
-1713.549211451163
 20
-540.6531138002254
 30
0.0
 11
-1716.812366256664
 21
-565.4392353345706
 31
0.0
  0
LINE
  5
133
330
1F
100
AcDbEntity
  8
C-4_文字
  6
Continuous
 62
     7
370
     9
100
AcDbLine
 10
-1713.549211451163
 20
-540.6531138002254
 30
0.0
 11
-1710.286056645661
 21
-565.4392353345706
 31
0.0
  0
LINE
  5
134
330
1F
100
AcDbEntity
  8
C-4_文字
  6
Continuous
 62
     7
370
     9
100
AcDbLine
 10
-1713.549211451163
 20
-540.6531138002254
 30
0.0
 11
-1713.549211451163
 21
-620.8815094662681
 31
0.0
  0
LINE
  5
135
330
1F
100
AcDbEntity
  8
C-4_文字
  6
Continuous
 62
     7
370
     9
100
AcDbLine
 10
-1713.549211451163
 20
-540.6531138002254
 30
0.0
 11
-1713.549211451163
 21
-537.4531138002253
 31
0.0
  0
TEXT
  5
136
330
1F
100
AcDbEntity
  8
C-4_文字
  6
Continuous
 62
     2
370
   211
100
AcDbText
 10
-1724.189211451163
 20
-620.6558858835017
 30
0.0
 40
30.48
  1
3.2
 50
90.0
 41
1.083333333333333
  7
ＭＳ ゴシック
100
AcDbText
  0
LINE
  5
137
330
1F
100
AcDbEntity
  8
C-4_文字
  6
Continuous
 62
     7
370
     9
100
AcDbLine
 10
-1810.441472835018
 20
-537.4531105010271
 30
0.0
 11
-1627.072498286693
 21
-537.4531105010271
 31
0.0
  0
LINE
  5
138
330
1F
100
AcDbEntity
  8
C-E_見え係り
  6
Continuous
 62
     6
370
     5
100
AcDbLine
 10
-3.000986461089212
 20
-287.4531105010271
 30
0.0
 11
246.9990135389108
 21
-287.4531105010271
 31
0.0
  0
ARC
  5
139
330
1F
100
AcDbEntity
  8
B-0_通り芯
  6
JWW_PHANTOM1
 62
     4
370
     9
100
AcDbCircle
 10
1210.549510356261
 20
-306.4468744591209
 30
0.0
 40
343.4285422452268
100
AcDbArc
 50
4.466134823018955
 51
83.76898529360136
  0
LINE
  5
13A
330
1F
100
AcDbEntity
  8
B-1_躯体
  6
Continuous
 62
     3
370
     9
100
AcDbLine
 10
1170.047491347656
 20
-279.7802847737319
 30
0.0
 11
1273.380824680994
 21
-279.7802847737319
 31
0.0
  0
LINE
  5
13B
330
1F
100
AcDbEntity
  8
B-1_躯体
  6
Continuous
 62
     3
370
     9
100
AcDbLine
 10
1165.047491347661
 20
-343.1136181070664
 30
0.0
 11
1165.047491347661
 21
-284.7802847737331
 31
0.0
  0
ARC
  5
13C
330
1F
100
AcDbEntity
  8
B-1_躯体
  6
Continuous
 62
     3
370
     9
100
AcDbCircle
 10
1170.047491347656
 20
-284.7802847737331
 30
0.0
 40
5.0
100
AcDbArc
 50
90.0
 51
180.0
  0
ARC
  5
13D
330
1F
100
AcDbEntity
  8
B-1_躯体
  6
Continuous
 62
     3
370
     9
100
AcDbCircle
 10
1170.047491347656
 20
-343.1136181070664
 30
0.0
 40
5.0
100
AcDbArc
 50
180.0
 51
270.0
  0
CIRCLE
  5
13E
330
1F
100
AcDbEntity
  8
B-0_通り芯
  6
Continuous
 62
     4
370
     9
100
AcDbCircle
 10
1210.549510356261
 20
-306.4468744591209
 30
0.0
 40
9.0
  0
LINE
  5
13F
330
1F
100
AcDbEntity
  8
B-0_通り芯
  6
Continuous
 62
     4
370
     9
100
AcDbLine
 10
1247.814614899284
 20
34.8633787332172
 30
0.0
 11
1192.334447714054
 21
-279.7802847737319
 31
0.0
  0
LINE
  5
140
330
1F
100
AcDbEntity
  8
B-0_通り芯
  6
Continuous
 62
     4
370
     9
100
AcDbLine
 10
1240.264422126191
 20
36.19468142866403
 30
0.0
 11
1184.549510356262
 21
-279.7802847737319
 31
0.0
  0
LINE
  5
141
330
1F
100
AcDbEntity
  8
B-0_通り芯
  6
Continuous
 62
     4
370
     9
100
AcDbLine
 10
1247.814614899284
 20
34.8633787332172
 30
0.0
 11
1246.505142037149
 21
35.09427412931775
 31
0.0
  0
LINE
  5
142
330
1F
100
AcDbEntity
  8
B-0_通り芯
  6
Continuous
 62
     4
370
     9
100
AcDbLine
 10
1246.505142037149
 20
35.09427412931775
 30
0.0
 11
1240.264422126191
 21
36.19468142866403
 31
0.0
  0
LINE
  5
143
330
1F
100
AcDbEntity
  8
B-2_仕上
  6
Continuous
 62
     3
370
     9
100
AcDbLine
 10
1273.382762309388
 20
95.86558702984276
 30
0.0
 11
1273.382762309388
 21
-287.4531654876538
 31
0.0
  0
LINE
  5
144
330
1F
100
AcDbEntity
  8
B-2_仕上
  6
Continuous
 62
     3
370
     9
100
AcDbLine
 10
1527.716258403138
 20
95.86558702984276
 30
0.0
 11
1527.716258403138
 21
-287.4531654876538
 31
0.0
  0
LINE
  5
145
330
1F
100
AcDbEntity
  8
B-0_通り芯
  6
JWW_CENTER2
 62
     7
370
     9
100
AcDbLine
 10
1400.549510356263
 20
153.9776510376157
 30
0.0
 11
1400.549510356263
 21
-481.3421310591491
 31
0.0
  0
ARC
  5
146
330
1F
100
AcDbEntity
  8
B-2_仕上
  6
Continuous
 62
     3
370
     9
100
AcDbCircle
 10
1336.966136332826
 20
20.89985114927629
 30
0.0
 40
98.29906921390048
100
AcDbArc
 50
49.69652964871275
 51
130.3034703512872
  0
ARC
  5
147
330
1F
100
AcDbEntity
  8
B-2_仕上
  6
Continuous
 62
     3
370
     9
100
AcDbCircle
 10
1464.132884379701
 20
20.89985114927629
 30
0.0
 40
98.29906921390048
100
AcDbArc
 50
49.69652964871275
 51
130.3034703512872
  0
ARC
  5
148
330
1F
100
AcDbEntity
  8
B-2_仕上
  6
Continuous
 62
     3
370
     9
100
AcDbCircle
 10
1464.132884379701
 20
170.8313229104092
 30
0.0
 40
98.29906921390048
100
AcDbArc
 50
229.6965296487128
 51
310.3034703512872
  0
LINE
  5
149
330
1F
100
AcDbEntity
  8
B-4_文字
  6
Continuous
 62
     7
370
     9
100
AcDbLine
 10
1634.825182866751
 20
-287.4535060564822
 30
0.0
 11
1571.882738161434
 21
-287.4535060564822
 31
0.0
  0
LWPOLYLINE
  5
14A
330
1F
100
AcDbEntity
  8
B-4_文字
  6
Continuous
 62
     7
370
     9
100
AcDbPolyline
 90
        4
 70
     1
 43
2.0
 10
1632.825182866751
 20
-279.7863567782216
 42
0.4142135623731
 10
1631.825182866751
 20
-278.7863567782216
 42
0.4142135623731
 10
1630.825182866751
 20
-279.7863567782216
 42
0.4142135623731
 10
1631.825182866751
 20
-280.7863567782216
 42
0.4142135623731
  0
LWPOLYLINE
  5
14B
330
1F
100
AcDbEntity
  8
B-4_文字
  6
Continuous
 62
     7
370
     9
100
AcDbPolyline
 90
        4
 70
     1
 43
2.0
 10
1632.825182866751
 20
-287.4535060564822
 42
0.4142135623731
 10
1631.825182866751
 20
-286.4535060564822
 42
0.4142135623731
 10
1630.825182866751
 20
-287.4535060564822
 42
0.4142135623731
 10
1631.825182866751
 20
-288.4535060564822
 42
0.4142135623731
  0
LINE
  5
14C
330
1F
100
AcDbEntity
  8
B-4_文字
  6
Continuous
 62
     7
370
     9
100
AcDbLine
 10
1634.825182866751
 20
-279.7863567782216
 30
0.0
 11
1571.882764710637
 21
-279.7863567782216
 31
0.0
  0
LINE
  5
14D
330
1F
100
AcDbEntity
  8
B-4_文字
  6
Continuous
 62
     7
370
     9
100
AcDbLine
 10
1631.825182866751
 20
-279.7863567782216
 30
0.0
 11
1631.825182866751
 21
-357.5803966260796
 31
0.0
  0
LINE
  5
14E
330
1F
100
AcDbEntity
  8
B-0_通り芯
  6
Continuous
 62
     4
370
     9
100
AcDbLine
 10
1220.176922418231
 20
-231.6923211275261
 30
0.0
 11
1199.078920093873
 21
-241.5304811831465
 31
0.0
  0
ARC
  5
14F
330
1F
100
AcDbEntity
  8
B-0_通り芯
  6
Continuous
 62
     4
370
     9
100
AcDbCircle
 10
1215.950739800824
 20
-222.6292432571597
 30
0.0
 40
10.0
100
AcDbArc
 50
295.0000000000003
 51
350.0000000000001
  0
LINE
  5
150
330
1F
100
AcDbEntity
  8
B-0_通り芯
  6
Continuous
 62
     4
370
     9
100
AcDbLine
 10
1259.758990072076
 20
-7.211260459401792
 30
0.0
 11
1243.298201886837
 21
9.249527725838007
 31
0.0
  0
LINE
  5
151
330
1F
100
AcDbEntity
  8
B-0_通り芯
  6
Continuous
 62
     4
370
     9
100
AcDbLine
 10
1262.535999790332
 20
-16.0188100479364
 30
0.0
 11
1225.798817330947
 21
-224.365725033829
 31
0.0
  0
ARC
  5
152
330
1F
100
AcDbEntity
  8
B-0_通り芯
  6
Continuous
 62
     4
370
     9
100
AcDbCircle
 10
1252.68792226021
 20
-14.2823282712671
 30
0.0
 40
10.0
100
AcDbArc
 50
350.0000000000001
 51
44.9999999999987
  0
LINE
  5
153
330
1F
100
AcDbEntity
  8
B-0_通り芯
  6
JWW_PHANTOM1
 62
     4
370
     9
100
AcDbLine
 10
1551.541112595827
 20
-287.4531489916671
 30
0.0
 11
1313.835404309338
 21
-287.4531489916671
 31
0.0
  0
LINE
  5
154
330
1F
100
AcDbEntity
  8
B-0_通り芯
  6
JWW_PHANTOM1
 62
     4
370
     9
100
AcDbLine
 10
1552.408979735356
 20
-279.7041470185588
 30
0.0
 11
1552.408953186153
 21
-287.3712962968194
 31
0.0
  0
TEXT
  5
155
330
1F
100
AcDbEntity
  8
B-4_文字
  6
Continuous
 62
     2
370
   211
100
AcDbText
 10
1620.185182866752
 20
-355.9621933163871
 30
0.0
 40
30.48
  1
2.3
 50
90.0
 41
1.083333333333333
  7
ＭＳ ゴシック
100
AcDbText
  0
LINE
  5
156
330
1F
100
AcDbEntity
  8
B-0_通り芯
  6
JWW_PHANTOM1
 62
     4
370
     9
100
AcDbLine
 10
1231.559563814449
 20
-279.7042188524518
 30
0.0
 11
1552.408979735356
 21
-279.7041470185588
 31
0.0
  0
LINE
  5
157
330
1F
100
AcDbEntity
  8
B-5_建具
  6
Continuous
 62
     7
370
     9
100
AcDbLine
 10
1195.324862551917
 20
61.39600297047417
 30
0.0
 11
1136.522551101022
 21
61.39600297047417
 31
0.0
  0
LINE
  5
158
330
1F
100
AcDbEntity
  8
B-5_建具
  6
Continuous
 62
     7
370
     9
100
AcDbLine
 10
1195.324862551917
 20
61.39600297047417
 30
0.0
 11
1233.154502312254
 21
-4.126855126456008
 31
0.0
  0
LINE
  5
159
330
1F
100
AcDbEntity
  8
B-5_建具
  6
Continuous
 62
     7
370
     9
100
AcDbLine
 10
1223.587416503126
 20
18.97013318632639
 30
0.0
 11
1233.154502312254
 21
-4.126855126456008
 31
0.0
  0
LINE
  5
15A
330
1F
100
AcDbEntity
  8
B-5_建具
  6
Continuous
 62
     7
370
     9
100
AcDbLine
 10
1217.935466587036
 20
15.70697838082503
 30
0.0
 11
1233.154502312254
 21
-4.126855126456008
 31
0.0
  0
TEXT
  5
15B
330
1F
100
AcDbEntity
  8
B-5_建具
  6
Continuous
 62
     7
370
     9
100
AcDbText
 10
1150.92370682647
 20
72.29266963714075
 30
0.0
 40
22.86
  1
蓋
  7
ＭＳ ゴシック
100
AcDbText
  0
LINE
  5
15C
330
1F
100
AcDbEntity
  8
B-E_見え係り
  6
Continuous
 62
     6
370
     5
100
AcDbLine
 10
965.0474913476604
 20
-287.4531105010271
 30
0.0
 11
1165.047491347661
 21
-287.4531105010271
 31
0.0
  0
LINE
  5
15D
330
1F
100
AcDbEntity
  8
B-E_見え係り
  6
Continuous
 62
     6
370
     5
100
AcDbLine
 10
1527.716258403138
 20
-287.4531105010271
 30
0.0
 11
1836.049591736471
 21
-287.4531105010271
 31
0.0
  0
LINE
  5
15E
330
1F
100
AcDbEntity
  8
C-0_通り芯
  6
JWW_CENTER2
 62
     7
370
     9
100
AcDbLine
 10
669.0916471350395
 20
474.3968403409281
 30
0.0
 11
541.5740789076322
 21
474.3968403409281
 31
0.0
  0
LINE
  5
15F
330
1F
100
AcDbEntity
  8
C-2_仕上
  6
Continuous
 62
     3
370
     9
100
AcDbLine
 10
639.9005279152334
 20
474.3968403409281
 30
0.0
 11
639.9005279152334
 21
-287.4531269970151
 31
0.0
  0
LINE
  5
160
330
1F
100
AcDbEntity
  8
C-2_仕上
  6
Continuous
 62
     3
370
     9
100
AcDbLine
 10
563.6004790871083
 20
474.3968403409281
 30
0.0
 11
563.6004790871083
 21
-287.4531269970151
 31
0.0
  0
ARC
  5
161
330
1F
100
AcDbEntity
  8
C-2_仕上
  6
Continuous
 62
     3
370
     9
100
AcDbCircle
 10
601.7503550372776
 20
474.3968403409281
 30
0.0
 40
38.15000121657913
100
AcDbArc
 50
0.0
 51
180.0
  0
ARC
  5
162
330
1F
100
AcDbEntity
  8
C-2_仕上
  6
JWW_DASHED2
 62
     3
370
     9
100
AcDbCircle
 10
601.7503550372776
 20
474.3968403409281
 30
0.0
 40
38.1500012165791
100
AcDbArc
 50
180.1468276291587
 51
0.0
  0
LINE
  5
163
330
1F
100
AcDbEntity
  8
C-1_躯体
  6
Continuous
 62
     7
370
     9
100
AcDbLine
 10
651.7505035011708
 20
-537.4531426682045
 30
0.0
 11
551.7505035011708
 21
-537.4531426682045
 31
0.0
  0
ARC
  5
164
330
1F
100
AcDbEntity
  8
C-0_通り芯
  6
Continuous
 62
     4
370
     9
100
AcDbCircle
 10
601.7503550372776
 20
-236.0593203693153
 30
0.0
 40
38.5998092255582
100
AcDbArc
 50
351.2461673585899
 51
8.753832641410087
  0
ARC
  5
165
330
1F
100
AcDbEntity
  8
C-0_通り芯
  6
Continuous
 62
     4
370
     9
100
AcDbCircle
 10
601.7503550372776
 20
-236.0593203693153
 30
0.0
 40
46.00000000000001
100
AcDbArc
 50
326.0321875406026
 51
33.96781245939765
  0
ARC
  5
166
330
1F
100
AcDbEntity
  8
C-0_通り芯
  6
Continuous
 62
     4
370
     9
100
AcDbCircle
 10
601.7503550372776
 20
-236.0593203693153
 30
0.0
 40
46.00000000000001
100
AcDbArc
 50
146.0315256104004
 51
213.856694908632
  0
ARC
  5
167
330
1F
100
AcDbEntity
  8
C-0_通り芯
  6
Continuous
 62
     4
370
     9
100
AcDbCircle
 10
601.7503550372776
 20
-236.0593203693153
 30
0.0
 40
38.5998092255582
100
AcDbArc
 50
171.2432717999485
 51
188.7567282000515
  0
LINE
  5
168
330
1F
100
AcDbEntity
  8
C-E_見え係り
  6
Continuous
 62
     6
370
     5
100
AcDbLine
 10
751.7505035011711
 20
-540.6531138002254
 30
0.0
 11
751.7505035011711
 21
-287.4531105010271
 31
0.0
  0
LINE
  5
169
330
1F
100
AcDbEntity
  8
C-E_見え係り
  6
Continuous
 62
     6
370
     5
100
AcDbLine
 10
801.7505035011711
 20
-640.6531138002254
 30
0.0
 11
801.7505035011711
 21
-540.6531138002254
 31
0.0
  0
LINE
  5
16A
330
1F
100
AcDbEntity
  8
C-E_見え係り
  6
Continuous
 62
     6
370
     5
100
AcDbLine
 10
401.7505035011708
 20
-540.6531138002254
 30
0.0
 11
801.7505035011711
 21
-540.6531138002254
 31
0.0
  0
LINE
  5
16B
330
1F
100
AcDbEntity
  8
C-E_見え係り
  6
Continuous
 62
     6
370
     5
100
AcDbLine
 10
401.7505035011708
 20
-640.6531138002254
 30
0.0
 11
801.7505035011711
 21
-640.6531138002254
 31
0.0
  0
LINE
  5
16C
330
1F
100
AcDbEntity
  8
C-E_見え係り
  6
Continuous
 62
     6
370
     5
100
AcDbLine
 10
701.7505035011711
 20
-540.6531138002254
 30
0.0
 11
674.9555842580581
 21
-640.6531138002254
 31
0.0
  0
LINE
  5
16D
330
1F
100
AcDbEntity
  8
C-E_見え係り
  6
Continuous
 62
     6
370
     5
100
AcDbLine
 10
688.0049530715983
 20
-640.6531138002254
 30
0.0
 11
681.4802686648281
 21
-616.3026600908074
 31
0.0
  0
LINE
  5
16E
330
1F
100
AcDbEntity
  8
C-E_見え係り
  6
Continuous
 62
     6
370
     5
100
AcDbLine
 10
688.7011346876309
 20
-540.6531138002254
 30
0.0
 11
695.225819094401
 21
-565.0035675096433
 31
0.0
  0
LINE
  5
16F
330
1F
100
AcDbEntity
  8
C-E_見え係り
  6
Continuous
 62
     6
370
     5
100
AcDbLine
 10
751.7505035011711
 20
-540.6531138002254
 30
0.0
 11
724.9555842580585
 21
-640.6531138002254
 31
0.0
  0
LINE
  5
170
330
1F
100
AcDbEntity
  8
C-E_見え係り
  6
Continuous
 62
     6
370
     5
100
AcDbLine
 10
738.0049530715987
 20
-640.6531138002254
 30
0.0
 11
731.4802686648286
 21
-616.3026600908074
 31
0.0
  0
LINE
  5
171
330
1F
100
AcDbEntity
  8
C-E_見え係り
  6
Continuous
 62
     6
370
     5
100
AcDbLine
 10
738.7011346876309
 20
-540.6531138002254
 30
0.0
 11
745.225819094401
 21
-565.0035675096433
 31
0.0
  0
LINE
  5
172
330
1F
100
AcDbEntity
  8
C-E_見え係り
  6
Continuous
 62
     6
370
     5
100
AcDbLine
 10
801.7505035011711
 20
-540.6531138002254
 30
0.0
 11
774.9555842580585
 21
-640.6531138002254
 31
0.0
  0
LINE
  5
173
330
1F
100
AcDbEntity
  8
C-E_見え係り
  6
Continuous
 62
     6
370
     5
100
AcDbLine
 10
788.0049530715987
 20
-640.6531138002254
 30
0.0
 11
781.4802686648286
 21
-616.3026600908074
 31
0.0
  0
LINE
  5
174
330
1F
100
AcDbEntity
  8
C-E_見え係り
  6
Continuous
 62
     6
370
     5
100
AcDbLine
 10
788.7011346876309
 20
-540.6531138002254
 30
0.0
 11
795.225819094401
 21
-565.0035675096433
 31
0.0
  0
LINE
  5
175
330
1F
100
AcDbEntity
  8
C-E_見え係り
  6
Continuous
 62
     6
370
     5
100
AcDbLine
 10
451.7505035011708
 20
-540.6531138002254
 30
0.0
 11
451.7505035011708
 21
-287.4531105010271
 31
0.0
  0
LINE
  5
176
330
1F
100
AcDbEntity
  8
C-E_見え係り
  6
Continuous
 62
     6
370
     5
100
AcDbLine
 10
401.7505035011708
 20
-640.6531138002254
 30
0.0
 11
401.7505035011708
 21
-540.6531138002254
 31
0.0
  0
LINE
  5
177
330
1F
100
AcDbEntity
  8
C-E_見え係り
  6
Continuous
 62
     6
370
     5
100
AcDbLine
 10
601.7505035011708
 20
-540.6531138002254
 30
0.0
 11
574.9555842580581
 21
-640.6531138002254
 31
0.0
  0
LINE
  5
178
330
1F
100
AcDbEntity
  8
C-E_見え係り
  6
Continuous
 62
     6
370
     5
100
AcDbLine
 10
588.0049530715984
 20
-640.6531138002254
 30
0.0
 11
581.4802686648283
 21
-616.3026600908074
 31
0.0
  0
LINE
  5
179
330
1F
100
AcDbEntity
  8
C-E_見え係り
  6
Continuous
 62
     6
370
     5
100
AcDbLine
 10
588.7011346876305
 20
-540.6531138002254
 30
0.0
 11
595.2258190944007
 21
-565.0035675096433
 31
0.0
  0
LINE
  5
17A
330
1F
100
AcDbEntity
  8
C-E_見え係り
  6
Continuous
 62
     6
370
     5
100
AcDbLine
 10
551.7505035011708
 20
-540.6531138002254
 30
0.0
 11
524.9555842580581
 21
-640.6531138002254
 31
0.0
  0
LINE
  5
17B
330
1F
100
AcDbEntity
  8
C-E_見え係り
  6
Continuous
 62
     6
370
     5
100
AcDbLine
 10
538.0049530715984
 20
-640.6531138002254
 30
0.0
 11
531.4802686648283
 21
-616.3026600908074
 31
0.0
  0
LINE
  5
17C
330
1F
100
AcDbEntity
  8
C-E_見え係り
  6
Continuous
 62
     6
370
     5
100
AcDbLine
 10
538.7011346876305
 20
-540.6531138002254
 30
0.0
 11
545.2258190944007
 21
-565.0035675096433
 31
0.0
  0
LINE
  5
17D
330
1F
100
AcDbEntity
  8
C-E_見え係り
  6
Continuous
 62
     6
370
     5
100
AcDbLine
 10
501.7505035011708
 20
-540.6531138002254
 30
0.0
 11
474.9555842580581
 21
-640.6531138002254
 31
0.0
  0
LINE
  5
17E
330
1F
100
AcDbEntity
  8
C-E_見え係り
  6
Continuous
 62
     6
370
     5
100
AcDbLine
 10
488.0049530715984
 20
-640.6531138002254
 30
0.0
 11
481.4802686648283
 21
-616.3026600908074
 31
0.0
  0
LINE
  5
17F
330
1F
100
AcDbEntity
  8
C-E_見え係り
  6
Continuous
 62
     6
370
     5
100
AcDbLine
 10
488.7011346876305
 20
-540.6531138002254
 30
0.0
 11
495.2258190944007
 21
-565.0035675096433
 31
0.0
  0
LINE
  5
180
330
1F
100
AcDbEntity
  8
C-E_見え係り
  6
Continuous
 62
     6
370
     5
100
AcDbLine
 10
451.7505035011708
 20
-540.6531138002254
 30
0.0
 11
424.9555842580581
 21
-640.6531138002254
 31
0.0
  0
LINE
  5
181
330
1F
100
AcDbEntity
  8
C-E_見え係り
  6
Continuous
 62
     6
370
     5
100
AcDbLine
 10
438.0049530715984
 20
-640.6531138002254
 30
0.0
 11
431.4802686648283
 21
-616.3026600908074
 31
0.0
  0
LINE
  5
182
330
1F
100
AcDbEntity
  8
C-E_見え係り
  6
Continuous
 62
     6
370
     5
100
AcDbLine
 10
438.7011346876305
 20
-540.6531138002254
 30
0.0
 11
445.2258190944007
 21
-565.0035675096433
 31
0.0
  0
LINE
  5
183
330
1F
100
AcDbEntity
  8
C-E_見え係り
  6
Continuous
 62
     6
370
     5
100
AcDbLine
 10
651.7505035011708
 20
-540.6531138002254
 30
0.0
 11
624.9555842580581
 21
-640.6531138002254
 31
0.0
  0
LINE
  5
184
330
1F
100
AcDbEntity
  8
C-E_見え係り
  6
Continuous
 62
     6
370
     5
100
AcDbLine
 10
638.0049530715984
 20
-640.6531138002254
 30
0.0
 11
631.4802686648283
 21
-616.3026600908074
 31
0.0
  0
LINE
  5
185
330
1F
100
AcDbEntity
  8
C-E_見え係り
  6
Continuous
 62
     6
370
     5
100
AcDbLine
 10
638.7011346876305
 20
-540.6531138002254
 30
0.0
 11
645.2258190944007
 21
-565.0035675096433
 31
0.0
  0
LINE
  5
186
330
1F
100
AcDbEntity
  8
C-1_躯体
  6
Continuous
 62
     7
370
     9
100
AcDbLine
 10
651.7505035011708
 20
-537.4531426682045
 30
0.0
 11
651.7505035011708
 21
-540.6531138002254
 31
0.0
  0
LINE
  5
187
330
1F
100
AcDbEntity
  8
C-1_躯体
  6
Continuous
 62
     7
370
     9
100
AcDbLine
 10
614.2505035011708
 20
-537.4531426682045
 30
0.0
 11
614.2505035011708
 21
-540.6531138002254
 31
0.0
  0
LINE
  5
188
330
1F
100
AcDbEntity
  8
C-1_躯体
  6
Continuous
 62
     7
370
     9
100
AcDbLine
 10
551.7505035011708
 20
-537.4531426682045
 30
0.0
 11
551.7505035011708
 21
-540.6531138002254
 31
0.0
  0
LINE
  5
189
330
1F
100
AcDbEntity
  8
C-1_躯体
  6
Continuous
 62
     7
370
     9
100
AcDbLine
 10
589.2505035011708
 20
-537.4531426682045
 30
0.0
 11
589.2505035011708
 21
-540.6531138002254
 31
0.0
  0
LINE
  5
18A
330
1F
100
AcDbEntity
  8
C-0_通り芯
  6
JWW_CENTER2
 62
     7
370
     9
100
AcDbLine
 10
601.7503550372776
 20
546.2738528514856
 30
0.0
 11
601.7503550372776
 21
-578.088437979385
 31
0.0
  0
LINE
  5
18B
330
1F
100
AcDbEntity
  8
C-E_見え係り
  6
Continuous
 62
     6
370
     5
100
AcDbLine
 10
313.6004790871083
 20
-287.4531105010271
 30
0.0
 11
563.6004790871083
 21
-287.4531105010271
 31
0.0
  0
LINE
  5
18C
330
1F
100
AcDbEntity
  8
C-E_見え係り
  6
Continuous
 62
     6
370
     5
100
AcDbLine
 10
639.9005279152334
 20
-287.4531105010271
 30
0.0
 11
889.9005279152336
 21
-287.4531105010271
 31
0.0
  0
LINE
  5
18D
330
1F
100
AcDbEntity
  8
C-4_文字
  6
Continuous
 62
     7
370
     9
100
AcDbLine
 10
-1503.001023577063
 20
641.6195175983412
 30
0.0
 11
-3.001023577062654
 21
641.6195175983412
 31
0.0
  0
TEXT
  5
18E
330
1F
100
AcDbEntity
  8
C-4_文字
  6
Continuous
 62
     2
370
   211
100
AcDbText
 10
-796.7510235770626
 20
652.2595175983412
 30
0.0
 40
30.48
  1
1500
 41
1.09375
  7
ＭＳ ゴシック
100
AcDbText
  0
LINE
  5
18F
330
1F
100
AcDbEntity
  8
C-0_通り芯
  6
Continuous
 62
     4
370
     9
100
AcDbLine
 10
-1420.301036278973
 20
-287.4531269970151
 30
0.0
 11
-1509.401036278973
 21
-287.4531269970151
 31
0.0
  0
LINE
  5
190
330
1F
100
AcDbEntity
  8
C-0_通り芯
  6
Continuous
 62
     4
370
     9
100
AcDbLine
 10
-1420.301036278973
 20
-537.4531476170006
 30
0.0
 11
-1420.301036278973
 21
-287.4531269970151
 31
0.0
  0
LINE
  5
191
330
1F
100
AcDbEntity
  8
C-0_通り芯
  6
Continuous
 62
     4
370
     9
100
AcDbLine
 10
-1509.401036278973
 20
-537.4531476170006
 30
0.0
 11
-1509.401036278973
 21
-287.4531269970151
 31
0.0
  0
LINE
  5
192
330
1F
100
AcDbEntity
  8
C-3_寸法
  6
JWW_DASHED1
 62
     3
370
     9
100
AcDbLine
 10
-1503.001060693036
 20
-287.4531269970151
 30
0.0
 11
-1503.001060693036
 21
-537.4531476170006
 31
0.0
  0
LINE
  5
193
330
1F
100
AcDbEntity
  8
C-3_寸法
  6
JWW_DASHED1
 62
     3
370
     9
100
AcDbLine
 10
-1426.701011864911
 20
-287.4531269970151
 30
0.0
 11
-1426.701011864911
 21
-537.4531476170006
 31
0.0
  0
LINE
  5
194
330
1F
100
AcDbEntity
  8
C-0_通り芯
  6
JWW_DASHED1
 62
     4
370
     9
100
AcDbLine
 10
-1505.201036278974
 20
-287.4531269970151
 30
0.0
 11
-1505.201036278974
 21
-537.4531476170006
 31
0.0
  0
LINE
  5
195
330
1F
100
AcDbEntity
  8
C-0_通り芯
  6
JWW_DASHED1
 62
     4
370
     9
100
AcDbLine
 10
-1424.501036278973
 20
-287.4531269970151
 30
0.0
 11
-1424.501036278973
 21
-537.4531476170006
 31
0.0
  0
LINE
  5
196
330
1F
100
AcDbEntity
  8
C-0_通り芯
  6
Continuous
 62
     4
370
     9
100
AcDbLine
 10
3.398989124848413
 20
-287.4531105010271
 30
0.0
 11
-85.70101087515155
 21
-287.4531105010271
 31
0.0
  0
LINE
  5
197
330
1F
100
AcDbEntity
  8
C-0_通り芯
  6
Continuous
 62
     4
370
     9
100
AcDbLine
 10
3.398989124848413
 20
-537.4531311210126
 30
0.0
 11
3.398989124848413
 21
-287.4531105010271
 31
0.0
  0
LINE
  5
198
330
1F
100
AcDbEntity
  8
C-0_通り芯
  6
Continuous
 62
     4
370
     9
100
AcDbLine
 10
-85.70101087515155
 20
-537.4531311210126
 30
0.0
 11
-85.70101087515155
 21
-287.4531105010271
 31
0.0
  0
LINE
  5
199
330
1F
100
AcDbEntity
  8
C-3_寸法
  6
JWW_DASHED1
 62
     3
370
     9
100
AcDbLine
 10
-79.30103528921421
 20
-287.4531105010271
 30
0.0
 11
-79.30103528921421
 21
-537.4531311210126
 31
0.0
  0
LINE
  5
19A
330
1F
100
AcDbEntity
  8
C-3_寸法
  6
JWW_DASHED1
 62
     3
370
     9
100
AcDbLine
 10
-3.000986461089212
 20
-287.4531105010271
 30
0.0
 11
-3.000986461089212
 21
-537.4531311210126
 31
0.0
  0
LINE
  5
19B
330
1F
100
AcDbEntity
  8
C-0_通り芯
  6
JWW_DASHED1
 62
     4
370
     9
100
AcDbLine
 10
-81.50101087515168
 20
-287.4531105010271
 30
0.0
 11
-81.50101087515168
 21
-537.4531311210126
 31
0.0
  0
LINE
  5
19C
330
1F
100
AcDbEntity
  8
C-0_通り芯
  6
JWW_DASHED1
 62
     4
370
     9
100
AcDbLine
 10
-0.8010108751514622
 20
-287.4531105010271
 30
0.0
 11
-0.8010108751514622
 21
-537.4531311210126
 31
0.0
  0
LINE
  5
19D
330
1F
100
AcDbEntity
  8
C-0_通り芯
  6
Continuous
 62
     4
370
     9
100
AcDbLine
 10
646.3005035011711
 20
-287.4531105010271
 30
0.0
 11
557.200503501171
 21
-287.4531105010271
 31
0.0
  0
LINE
  5
19E
330
1F
100
AcDbEntity
  8
C-0_通り芯
  6
Continuous
 62
     4
370
     9
100
AcDbLine
 10
646.3005035011711
 20
-537.4531311210126
 30
0.0
 11
646.3005035011711
 21
-287.4531105010271
 31
0.0
  0
LINE
  5
19F
330
1F
100
AcDbEntity
  8
C-0_通り芯
  6
Continuous
 62
     4
370
     9
100
AcDbLine
 10
557.200503501171
 20
-537.4531311210126
 30
0.0
 11
557.200503501171
 21
-287.4531105010271
 31
0.0
  0
LINE
  5
1A0
330
1F
100
AcDbEntity
  8
C-3_寸法
  6
JWW_DASHED1
 62
     3
370
     9
100
AcDbLine
 10
563.6004790871084
 20
-287.4531105010271
 30
0.0
 11
563.6004790871084
 21
-537.4531311210126
 31
0.0
  0
LINE
  5
1A1
330
1F
100
AcDbEntity
  8
C-3_寸法
  6
JWW_DASHED1
 62
     3
370
     9
100
AcDbLine
 10
639.9005279152334
 20
-287.4531105010271
 30
0.0
 11
639.9005279152334
 21
-537.4531311210126
 31
0.0
  0
LINE
  5
1A2
330
1F
100
AcDbEntity
  8
C-0_通り芯
  6
JWW_DASHED1
 62
     4
370
     9
100
AcDbLine
 10
561.400503501171
 20
-287.4531105010271
 30
0.0
 11
561.400503501171
 21
-537.4531311210126
 31
0.0
  0
LINE
  5
1A3
330
1F
100
AcDbEntity
  8
C-0_通り芯
  6
JWW_DASHED1
 62
     4
370
     9
100
AcDbLine
 10
642.1005035011711
 20
-287.4531105010271
 30
0.0
 11
642.1005035011711
 21
-537.4531311210126
 31
0.0
  0
LINE
  5
1A4
330
1F
100
AcDbEntity
  8
C-E_見え係り
  6
Continuous
 62
     6
370
     5
100
AcDbLine
 10
751.7505035011711
 20
-336.5257100343479
 30
0.0
 11
646.3005035011711
 21
-441.9757100343481
 31
0.0
  0
LINE
  5
1A5
330
1F
100
AcDbEntity
  8
C-E_見え係り
  6
Continuous
 62
     6
370
     5
100
AcDbLine
 10
751.7505035011711
 20
-364.80998128181
 30
0.0
 11
646.3005035011711
 21
-470.2599812818103
 31
0.0
  0
LINE
  5
1A6
330
1F
100
AcDbEntity
  8
C-E_見え係り
  6
Continuous
 62
     6
370
     5
100
AcDbLine
 10
751.7505035011711
 20
-350.6678456580789
 30
0.0
 11
646.3005035011711
 21
-456.1178456580787
 31
0.0
  0
LINE
  5
1A7
330
1F
100
AcDbEntity
  8
C-E_見え係り
  6
Continuous
 62
     6
370
     5
100
AcDbLine
 10
557.200503501171
 20
-332.1945484519573
 30
0.0
 11
451.7505035011708
 21
-437.6445484519576
 31
0.0
  0
LINE
  5
1A8
330
1F
100
AcDbEntity
  8
C-E_見え係り
  6
Continuous
 62
     6
370
     5
100
AcDbLine
 10
557.200503501171
 20
-360.4788196994194
 30
0.0
 11
451.7505035011708
 21
-465.9288196994197
 31
0.0
  0
LINE
  5
1A9
330
1F
100
AcDbEntity
  8
C-E_見え係り
  6
Continuous
 62
     6
370
     5
100
AcDbLine
 10
557.200503501171
 20
-346.3366840756884
 30
0.0
 11
451.7505035011708
 21
-451.7866840756886
 31
0.0
  0
LINE
  5
1AA
330
1F
100
AcDbEntity
  8
C-E_見え係り
  6
Continuous
 62
     6
370
     5
100
AcDbLine
 10
108.8489891248487
 20
-336.5257100343479
 30
0.0
 11
3.398989124848413
 21
-441.9757100343481
 31
0.0
  0
LINE
  5
1AB
330
1F
100
AcDbEntity
  8
C-E_見え係り
  6
Continuous
 62
     6
370
     5
100
AcDbLine
 10
108.8489891248487
 20
-364.80998128181
 30
0.0
 11
3.398989124848413
 21
-470.2599812818103
 31
0.0
  0
LINE
  5
1AC
330
1F
100
AcDbEntity
  8
C-E_見え係り
  6
Continuous
 62
     6
370
     5
100
AcDbLine
 10
108.8489891248487
 20
-350.6678456580789
 30
0.0
 11
3.398989124848413
 21
-456.1178456580787
 31
0.0
  0
LINE
  5
1AD
330
1F
100
AcDbEntity
  8
C-E_見え係り
  6
Continuous
 62
     6
370
     5
100
AcDbLine
 10
-85.70101087515155
 20
-332.1945484519573
 30
0.0
 11
-191.1510108751519
 21
-437.6445484519576
 31
0.0
  0
LINE
  5
1AE
330
1F
100
AcDbEntity
  8
C-E_見え係り
  6
Continuous
 62
     6
370
     5
100
AcDbLine
 10
-85.70101087515155
 20
-360.4788196994194
 30
0.0
 11
-191.1510108751519
 21
-465.9288196994197
 31
0.0
  0
LINE
  5
1AF
330
1F
100
AcDbEntity
  8
C-E_見え係り
  6
Continuous
 62
     6
370
     5
100
AcDbLine
 10
-85.70101087515155
 20
-346.3366840756884
 30
0.0
 11
-191.1510108751519
 21
-451.7866840756886
 31
0.0
  0
LINE
  5
1B0
330
1F
100
AcDbEntity
  8
C-5_建具
  6
Continuous
 62
     7
370
     9
100
AcDbLine
 10
3.398989124848406
 20
-394.5452960972873
 30
0.0
 11
196.4687564777519
 21
-731.3489189772621
 31
0.0
  0
LINE
  5
1B1
330
1F
100
AcDbEntity
  8
C-5_建具
  6
Continuous
 62
     7
370
     9
100
AcDbLine
 10
3.398989124848406
 20
-394.5452960972873
 30
0.0
 11
12.96608488410498
 21
-417.6422802885882
 31
0.0
  0
LINE
  5
1B2
330
1F
100
AcDbEntity
  8
C-5_建具
  6
Continuous
 62
     7
370
     9
100
AcDbLine
 10
3.398989124848406
 20
-394.5452960972873
 30
0.0
 11
18.61803339443582
 21
-414.3791230482399
 31
0.0
  0
LINE
  5
1B3
330
1F
100
AcDbEntity
  8
C-1_躯体
  6
Continuous
 62
     3
370
     9
100
AcDbLine
 10
-1395.700430576391
 20
-305.6512627828388
 30
0.0
 11
-1420.301036278973
 21
-305.6512627828388
 31
0.0
  0
LINE
  5
1B4
330
1F
100
AcDbEntity
  8
C-E_見え係り
  6
Continuous
 62
     6
370
     5
100
AcDbLine
 10
-1509.401036278973
 20
-332.1945484519574
 30
0.0
 11
-1614.851036278974
 21
-437.6445484519576
 31
0.0
  0
LINE
  5
1B5
330
1F
100
AcDbEntity
  8
C-E_見え係り
  6
Continuous
 62
     6
370
     5
100
AcDbLine
 10
-1509.401036278973
 20
-360.4788196994195
 30
0.0
 11
-1614.851036278974
 21
-465.9288196994197
 31
0.0
  0
LINE
  5
1B6
330
1F
100
AcDbEntity
  8
C-E_見え係り
  6
Continuous
 62
     6
370
     5
100
AcDbLine
 10
-1509.401036278973
 20
-346.3366840756885
 30
0.0
 11
-1614.851036278974
 21
-451.7866840756886
 31
0.0
  0
LINE
  5
1B7
330
1F
100
AcDbEntity
  8
C-E_見え係り
  6
Continuous
 62
     6
370
     5
100
AcDbLine
 10
-1314.851036278973
 20
-336.5257100343479
 30
0.0
 11
-1420.301036278973
 21
-441.9757100343483
 31
0.0
  0
LINE
  5
1B8
330
1F
100
AcDbEntity
  8
C-E_見え係り
  6
Continuous
 62
     6
370
     5
100
AcDbLine
 10
-1314.851036278973
 20
-364.80998128181
 30
0.0
 11
-1420.301036278973
 21
-470.2599812818104
 31
0.0
  0
LINE
  5
1B9
330
1F
100
AcDbEntity
  8
C-E_見え係り
  6
Continuous
 62
     6
370
     5
100
AcDbLine
 10
-1314.851036278973
 20
-350.6678456580789
 30
0.0
 11
-1420.301036278973
 21
-456.1178456580789
 31
0.0
  0
LINE
  5
1BA
330
1F
100
AcDbEntity
  8
C-1_躯体
  6
Continuous
 62
     3
370
     9
100
AcDbLine
 10
-110.3016165777341
 20
-305.6512627828387
 30
0.0
 11
-85.70101087515155
 21
-305.6512627828387
 31
0.0
  0
LINE
  5
1BB
330
1F
100
AcDbEntity
  8
B-0_通り芯
  6
Continuous
 62
     4
370
     9
100
AcDbLine
 10
1549.049510356263
 20
-287.4531489916671
 30
0.0
 11
1252.049510356263
 21
-287.4531489916671
 31
0.0
  0
LINE
  5
1BC
330
1F
100
AcDbEntity
  8
B-0_通り芯
  6
Continuous
 62
     4
370
     9
100
AcDbLine
 10
1549.049510356263
 20
-287.453110501027
 30
0.0
 11
1549.049510356263
 21
-438.7704717403592
 31
0.0
  0
ARC
  5
1BD
330
1F
100
AcDbEntity
  8
B-0_通り芯
  6
Continuous
 62
     4
370
     9
100
AcDbCircle
 10
1326.299510356263
 20
-332.7181143108022
 30
0.0
 40
129.4610559835141
100
AcDbArc
 50
235.0031395815678
 51
304.996860418432
  0
ARC
  5
1BE
330
1F
100
AcDbEntity
  8
B-0_通り芯
  6
Continuous
 62
     4
370
     9
100
AcDbCircle
 10
1326.299510356263
 20
-544.8228291699165
 30
0.0
 40
129.4610559835141
100
AcDbArc
 50
55.00313958156796
 51
124.9968604184322
  0
ARC
  5
1BF
330
1F
100
AcDbEntity
  8
B-0_通り芯
  6
Continuous
 62
     4
370
     9
100
AcDbCircle
 10
1474.799510356263
 20
-332.7181143108022
 30
0.0
 40
129.4610559835141
100
AcDbArc
 50
235.0031395815679
 51
304.9968604184322
  0
LINE
  5
1C0
330
1F
100
AcDbEntity
  8
B-0_通り芯
  6
Continuous
 62
     4
370
     9
100
AcDbLine
 10
1252.049510356263
 20
-438.7704717403594
 30
0.0
 11
1252.049510356263
 21
-287.4531489916671
 31
0.0
  0
LINE
  5
1C1
330
1F
100
AcDbEntity
  8
B-0_通り芯
  6
Continuous
 62
     4
370
     9
100
AcDbLine
 10
1256.239524732025
 20
-287.4531105010271
 30
0.0
 11
1531.77318088778
 21
-287.4531105010271
 31
0.0
  0
LINE
  5
1C2
330
1F
100
AcDbEntity
  8
B-1_躯体
  6
Continuous
 62
     3
370
     9
100
AcDbLine
 10
1170.047491347656
 20
-348.1136181070656
 30
0.0
 11
1252.049510356263
 21
-348.1136181070656
 31
0.0
  0
TEXT
  5
1C3
330
1F
100
AcDbEntity
  8
F-5ﾚｲﾔ
  6
Continuous
 62
     2
370
     9
100
AcDbText
 10
1192.638704563886
 20
-1052.200916680239
 30
0.0
 40
30.48
  1
本体色は、黄または白です。
 41
1.115384615384615
  7
ＭＳ ゴシック
100
AcDbText
  0
TEXT
  5
1C4
330
1F
100
AcDbEntity
  8
F-5ﾚｲﾔ
  6
Continuous
 62
     2
370
     9
100
AcDbText
 10
1192.638704563886
 20
-1111.671894792166
 30
0.0
 40
30.48
  1
ご注文の際にご指示ください。
 41
1.116071428571428
  7
ＭＳ ゴシック
100
AcDbText
  0
LINE
  5
1C5
330
1F
100
AcDbEntity
  8
C-2_仕上
  6
Continuous
 62
     3
370
     9
100
AcDbLine
 10
-1426.701011864911
 20
274.3969723088335
 30
0.0
 11
-1426.701011864911
 21
-287.4531269970151
 31
0.0
  0
LINE
  5
1C6
330
1F
100
AcDbEntity
  8
C-2_仕上
  6
Continuous
 62
     3
370
     9
100
AcDbLine
 10
-3.000986461089354
 20
274.3969723088335
 30
0.0
 11
-3.000986461089354
 21
-287.4531269970151
 31
0.0
  0
LINE
  5
1C7
330
1F
100
AcDbEntity
  8
C-2_仕上
  6
Continuous
 62
     3
370
     9
100
AcDbLine
 10
-79.30103528921435
 20
274.3969723088335
 30
0.0
 11
-79.30103528921435
 21
-287.4531269970151
 31
0.0
  0
LINE
  5
1C8
330
1F
100
AcDbEntity
  8
C-0_通り芯
  6
JWW_CENTER2
 62
     7
370
     9
100
AcDbLine
 10
-1464.851036278974
 20
274.3969723088335
 30
0.0
 11
-1464.851036278974
 21
-578.088437979385
 31
0.0
  0
LINE
  5
1C9
330
1F
100
AcDbEntity
  8
C-0_通り芯
  6
JWW_CENTER2
 62
     7
370
     9
100
AcDbLine
 10
-41.15101087515185
 20
274.3969723088335
 30
0.0
 11
-41.15101087515185
 21
-578.088437979385
 31
0.0
  0
TEXT
  5
1CA
330
1F
100
AcDbEntity
  8
B-5_建具
  6
Continuous
 62
     2
370
     9
100
AcDbText
 10
1088.049510356263
 20
-639.4098268819015
 30
0.0
 40
30.48
  1
埋設管蓋部詳細図　Ｓ＝１：３
 41
1.116071428571428
  7
ＭＳ ゴシック
100
AcDbText
  0
LINE
  5
1CB
330
1F
100
AcDbEntity
  8
B-5_建具
  6
Continuous
 62
     7
370
     9
100
AcDbLine
 10
1070.049510356263
 20
-590.0498268819015
 30
0.0
 11
1731.049510356263
 21
-590.0498268819015
 31
0.0
  0
LINE
  5
1CC
330
1F
100
AcDbEntity
  8
B-5_建具
  6
Continuous
 62
     7
370
     9
100
AcDbLine
 10
1070.049510356263
 20
-660.0498268819015
 30
0.0
 11
1731.049510356263
 21
-660.0498268819015
 31
0.0
  0
LINE
  5
1CD
330
1F
100
AcDbEntity
  8
B-5_建具
  6
Continuous
 62
     7
370
     9
100
AcDbLine
 10
1070.049510356263
 20
-590.0498268819015
 30
0.0
 11
1070.049510356263
 21
-660.0498268819015
 31
0.0
  0
LINE
  5
1CE
330
1F
100
AcDbEntity
  8
B-5_建具
  6
Continuous
 62
     7
370
     9
100
AcDbLine
 10
1731.049510356263
 20
-590.0498268819015
 30
0.0
 11
1731.049510356263
 21
-660.0498268819015
 31
0.0
  0
TEXT
  5
1CF
330
1F
100
AcDbEntity
  8
C-5_建具
  6
Continuous
 62
     7
370
     9
100
AcDbText
 10
-87.33931188933404
 20
784.0993249024629
 30
0.0
 40
22.85999999999978
  1
本体：φ76.3×2.8
 41
1.15686274509805
  7
ＭＳ ゴシック
100
AcDbText
  0
TEXT
  5
1D0
330
1F
100
AcDbEntity
  8
F-5ﾚｲﾔ
  6
Continuous
 62
     2
370
     0
100
AcDbText
 10
1364.844234791176
 20
-993.3742512140833
 30
0.0
 40
30.48000000000003
  1
支柱質量：18.5kg／本
 41
1.112499999999999
  7
ＭＳ ゴシック
100
AcDbText
  0
TEXT
  5
1D1
330
1F
100
AcDbEntity
  8
F-Fﾚｲﾔ
  6
Continuous
 62
     2
370
     9
100
AcDbText
 10
-870.0004123997041
 20
-1361.311405662464
 30
0.0
 40
26.67000000000001
  1
車止め　スチール製　アーチ型　脱着式　スチール製蓋　ＹＢ７Ｈ１５－Ｄ
 41
0.9999999999999998
  7
ＭＳ ゴシック
100
AcDbText
  0
TEXT
  5
1D2
330
1F
100
AcDbEntity
  8
C-5_建具
  6
Continuous
 62
     2
370
     9
100
AcDbText
 10
112.1176177836762
 20
-276.5885629237808
 30
0.0
 40
30.47999999999989
  1
▽G.L.
 41
1.104166666666671
  7
ＭＳ ゴシック
100
AcDbText
  0
TEXT
  5
1D3
330
1F
100
AcDbEntity
  8
C-5_建具
  6
Continuous
 62
     2
370
     9
100
AcDbText
 10
755.0191321599991
 20
-276.5885629237808
 30
0.0
 40
30.47999999999989
  1
▽G.L.
 41
1.104166666666671
  7
ＭＳ ゴシック
100
AcDbText
  0
TEXT
  5
1D4
330
1F
100
AcDbEntity
  8
B-4_文字
  6
Continuous
 62
     2
370
     9
100
AcDbText
 10
1702.36752677869
 20
-277.6811576989343
 30
0.0
 40
30.48000000000005
  1
▽G.L.
 41
1.104166666666665
  7
ＭＳ ゴシック
100
AcDbText
  0
TEXT
  5
1D5
330
1F
100
AcDbEntity
  8
C-5_建具
  6
Continuous
 62
     7
370
     9
100
AcDbText
 10
200.033323277987
 20
-808.3335921256357
 30
0.0
 40
22.86000000000006
  1
埋設管本体：SGP　溶融亜鉛めっき
 41
1.155913978494618
  7
ＭＳ ゴシック
100
AcDbText
  0
TEXT
  5
1D6
330
1F
100
AcDbEntity
  8
C-5_建具
  6
Continuous
 62
     7
370
     9
100
AcDbText
 10
200.033323277987
 20
-768.2081096461228
 30
0.0
 40
22.86000000000006
  1
蓋：SPHC　溶融亜鉛めっき
 41
1.152777777777773
  7
ＭＳ ゴシック
100
AcDbText
  0
LINE
  5
1D7
330
1F
100
AcDbEntity
  8
C-4_文字
  6
Continuous
 62
     7
370
     9
100
AcDbLine
 10
-1426.701011864911
 20
82.22710746956379
 30
0.0
 11
-1401.914890330566
 21
85.49026227506515
 31
0.0
  0
LINE
  5
1D8
330
1F
100
AcDbEntity
  8
C-4_文字
  6
Continuous
 62
     7
370
     9
100
AcDbLine
 10
-1426.701011864911
 20
82.22710746956379
 30
0.0
 11
-1503.001060693036
 21
82.22710746956379
 31
0.0
  0
LINE
  5
1D9
330
1F
100
AcDbEntity
  8
C-4_文字
  6
Continuous
 62
     7
370
     9
100
AcDbLine
 10
-1426.701011864911
 20
82.22710746956379
 30
0.0
 11
-1401.914890330566
 21
78.96395266406243
 31
0.0
  0
LINE
  5
1DA
330
1F
100
AcDbEntity
  8
C-4_文字
  6
Continuous
 62
     7
370
     9
100
AcDbLine
 10
-1503.001060693036
 20
82.22710746956379
 30
0.0
 11
-1527.787182227381
 21
85.49026227506515
 31
0.0
  0
LINE
  5
1DB
330
1F
100
AcDbEntity
  8
C-4_文字
  6
Continuous
 62
     7
370
     9
100
AcDbLine
 10
-1503.001060693036
 20
82.22710746956379
 30
0.0
 11
-1527.787182227381
 21
78.96395266406243
 31
0.0
  0
LINE
  5
1DC
330
1F
100
AcDbEntity
  8
C-4_文字
  6
Continuous
 62
     7
370
     9
100
AcDbLine
 10
-1503.001060693036
 20
82.22710746956379
 30
0.0
 11
-1536.693415845325
 21
82.22710746956379
 31
0.0
  0
TEXT
  5
1DD
330
1F
100
AcDbEntity
  8
C-4_文字
  6
Continuous
 62
     2
370
   211
100
AcDbText
 10
-1388.665827032023
 20
92.32260633577715
 30
0.0
 40
30.48
  1
φ76.3
 41
1.104166666666668
  7
ＭＳ ゴシック
100
AcDbText
  0
LINE
  5
1DE
330
1F
100
AcDbEntity
  8
C-4_文字
  6
Continuous
 62
     7
370
     9
100
AcDbLine
 10
-1426.701011864911
 20
82.22710746956379
 30
0.0
 11
-1247.419606321517
 21
82.22710746956379
 31
0.0
  0
LINE
  5
1DF
330
1F
100
AcDbEntity
  8
C-5_建具
  6
Continuous
 62
     7
370
     9
100
AcDbLine
 10
-95.7109345383978
 20
764.4645234212619
 30
0.0
 11
467.6599603375587
 21
764.4737686717457
 31
0.0
  0
ENDSEC
  0
SECTION
  2
OBJECTS
  0
DICTIONARY
  5
C
330
0
100
AcDbDictionary
281
     1
  3
ACAD_DETAILVIEWSTYLE
350
225
  3
ACAD_GROUP
350
D
  3
ACAD_LAYOUT
350
1A
  3
ACAD_MATERIAL
350
43
  3
ACAD_MLEADERSTYLE
350
6B
  3
ACAD_MLINESTYLE
350
17
  3
ACAD_PLOTSETTINGS
350
19
  3
ACAD_PLOTSTYLENAME
350
E
  3
ACAD_SCALELIST
350
47
  3
ACAD_SECTIONVIEWSTYLE
350
226
  3
ACAD_TABLESTYLE
350
69
  3
ACAD_VISUALSTYLE
350
2A
  3
ACDB_RECOMPOSE_DATA
350
222
  3
AcDbVariableDictionary
350
1E2
  0
DICTIONARY
  5
1E0
330
8
100
AcDbDictionary
280
     1
281
     1
  3
ACAD_XREC_ROUNDTRIP
360
1E1
  0
DICTIONARY
  5
225
102
{ACAD_REACTORS
330
C
102
}
330
C
100
AcDbDictionary
281
     1
  0
DICTIONARY
  5
D
102
{ACAD_REACTORS
330
C
102
}
330
C
100
AcDbDictionary
281
     1
  0
DICTIONARY
  5
1A
102
{ACAD_REACTORS
330
C
102
}
330
C
100
AcDbDictionary
281
     1
  3
Layout1
350
1E
  3
Layout2
350
26
  3
Model
350
22
  0
DICTIONARY
  5
43
102
{ACAD_REACTORS
330
C
102
}
330
C
100
AcDbDictionary
281
     1
  3
ByBlock
350
45
  3
ByLayer
350
44
  3
Global
350
46
  0
DICTIONARY
  5
6B
102
{ACAD_REACTORS
330
C
102
}
330
C
100
AcDbDictionary
281
     1
  3
Standard
350
6C
  0
DICTIONARY
  5
17
102
{ACAD_REACTORS
330
C
102
}
330
C
100
AcDbDictionary
281
     1
  3
Standard
350
18
  0
DICTIONARY
  5
19
102
{ACAD_REACTORS
330
C
102
}
330
C
100
AcDbDictionary
281
     1
  0
ACDBDICTIONARYWDFLT
  5
E
102
{ACAD_REACTORS
330
C
102
}
330
C
100
AcDbDictionary
281
     1
  3
Normal
350
F
100
AcDbDictionaryWithDefault
340
F
  0
DICTIONARY
  5
47
102
{ACAD_REACTORS
330
C
102
}
330
C
100
AcDbDictionary
281
     1
  3
A0
350
48
  3
A1
350
49
  3
A2
350
4A
  3
A3
350
4B
  3
A4
350
4C
  3
A5
350
4D
  3
A6
350
4E
  3
A7
350
4F
  3
A8
350
50
  3
A9
350
51
  3
B0
350
52
  3
B1
350
53
  3
B2
350
54
  3
B3
350
55
  3
B4
350
56
  3
B5
350
57
  3
B6
350
58
  3
B7
350
59
  3
B8
350
5A
  3
B9
350
5B
  3
C0
350
5C
  3
C1
350
5D
  3
C2
350
5E
  3
C3
350
5F
  3
C4
350
60
  3
C5
350
61
  3
C6
350
62
  3
C7
350
63
  3
C8
350
64
  3
C9
350
65
  3
D0
350
66
  3
D1
350
67
  3
D2
350
68
  0
DICTIONARY
  5
226
102
{ACAD_REACTORS
330
C
102
}
330
C
100
AcDbDictionary
281
     1
  0
DICTIONARY
  5
69
102
{ACAD_REACTORS
330
C
102
}
330
C
100
AcDbDictionary
281
     1
  3
Standard
350
6A
  0
DICTIONARY
  5
2A
102
{ACAD_REACTORS
330
C
102
}
330
C
100
AcDbDictionary
281
     1
  3
2dWireframe
350
2F
  3
Basic
350
32
  3
Brighten
350
36
  3
ColorChange
350
3A
  3
Conceptual
350
34
  3
Dim
350
35
  3
EdgeColorOff
350
3D
  3
Facepattern
350
39
  3
Flat
350
2B
  3
FlatWithEdges
350
2C
  3
Gouraud
350
2D
  3
GouraudWithEdges
350
2E
  3
Hidden
350
31
  3
JitterOff
350
3B
  3
Linepattern
350
38
  3
OverhangOff
350
3C
  3
Realistic
350
33
  3
Shaded
350
42
  3
Shaded with edges
350
41
  3
Shades of Gray
350
3E
  3
Sketchy
350
3F
  3
Thicken
350
37
  3
Wireframe
350
30
  3
X-Ray
350
40
  0
XRECORD
  5
222
102
{ACAD_REACTORS
330
C
102
}
330
C
100
AcDbXrecord
280
     1
 90
        1
330
6A
  0
DICTIONARY
  5
1E2
102
{ACAD_REACTORS
330
C
102
}
330
C
100
AcDbDictionary
281
     1
  3
CANNOSCALE
350
1E3
  3
CENTEREXE
350
227
  3
CENTERLTYPEFILE
350
228
  3
CMLEADERSTYLE
350
224
  3
CTABLESTYLE
350
223
  3
MSLTSCALE
350
1E4
  3
XCLIPFRAME
350
1E5
  0
XRECORD
  5
1E1
102
{ACAD_REACTORS
330
1E0
102
}
330
1E0
100
AcDbXrecord
280
     1
102
VTR_0.000_0.000_1.000_1.000_VISUALSTYLE
340
2F
102
VTR_0.000_0.000_1.000_1.000_GRIDDISPLAY
 70
     3
102
VTR_0.000_0.000_1.000_1.000_GRIDMAJOR
 70
     5
102
VTR_0.000_0.000_1.000_1.000_DEFAULTLIGHTING
280
     1
102
VTR_0.000_0.000_1.000_1.000_DEFAULTLIGHTINGTYPE
 70
     1
102
VTR_0.000_0.000_1.000_1.000_BRIGHTNESS
141
0.0
102
VTR_0.000_0.000_1.000_1.000_CONTRAST
142
0.0
  0
LAYOUT
  5
1E
102
{ACAD_REACTORS
330
1A
102
}
330
1A
100
AcDbPlotSettings
  1

  2
none_device
  4

  6

 40
0.0
 41
0.0
 42
0.0
 43
0.0
 44
0.0
 45
0.0
 46
0.0
 47
0.0
 48
0.0
 49
0.0
140
0.0
141
0.0
142
1.0
143
1.0
 70
   688
 72
     1
 73
     0
 74
     5
  7

 75
    16
 76
     0
 77
     5
 78
   300
147
1.0
148
0.0
149
0.0
100
AcDbLayout
  1
Layout1
 70
     1
 71
     1
 10
0.0
 20
0.0
 11
420.0
 21
297.0
 12
0.0
 22
0.0
 32
0.0
 14
1.000000000000000E+20
 24
1.000000000000000E+20
 34
1.000000000000000E+20
 15
-1.000000000000000E+20
 25
-1.000000000000000E+20
 35
-1.000000000000000E+20
146
0.0
 13
0.0
 23
0.0
 33
0.0
 16
1.0
 26
0.0
 36
0.0
 17
0.0
 27
1.0
 37
0.0
 76
     0
330
1B
  0
LAYOUT
  5
26
102
{ACAD_REACTORS
330
1A
102
}
330
1A
100
AcDbPlotSettings
  1

  2
none_device
  4

  6

 40
0.0
 41
0.0
 42
0.0
 43
0.0
 44
0.0
 45
0.0
 46
0.0
 47
0.0
 48
0.0
 49
0.0
140
0.0
141
0.0
142
1.0
143
1.0
 70
   688
 72
     1
 73
     0
 74
     5
  7

 75
    16
 76
     0
 77
     5
 78
   300
147
1.0
148
0.0
149
0.0
100
AcDbLayout
  1
Layout2
 70
     1
 71
     2
 10
0.0
 20
0.0
 11
0.0
 21
0.0
 12
0.0
 22
0.0
 32
0.0
 14
0.0
 24
0.0
 34
0.0
 15
0.0
 25
0.0
 35
0.0
146
0.0
 13
0.0
 23
0.0
 33
0.0
 16
1.0
 26
0.0
 36
0.0
 17
0.0
 27
1.0
 37
0.0
 76
     0
330
23
  0
LAYOUT
  5
22
102
{ACAD_REACTORS
330
1A
102
}
330
1A
100
AcDbPlotSettings
  1

  2
none_device
  4
Letter_(8.50_x_11.00_Inches)
  6

 40
6.35
 41
6.35
 42
6.35000508
 43
6.35000508
 44
215.9
 45
279.4
 46
0.0
 47
0.0
 48
0.0
 49
0.0
140
0.0
141
0.0
142
1.0
143
1.0
 70
  1712
 72
     1
 73
     0
 74
     0
  7

 75
     0
 76
     0
 77
     5
 78
   300
147
1.0
148
0.0
149
0.0
100
AcDbLayout
  1
Model
 70
     1
 71
     0
 10
-2100.0
 20
-1485.0
 11
2100.0
 21
1485.0
 12
0.0
 22
0.0
 32
0.0
 14
-2100.0
 24
-1485.0
 34
0.0
 15
2100.0
 25
1485.0
 35
0.0
146
0.0
 13
0.0
 23
0.0
 33
0.0
 16
1.0
 26
0.0
 36
0.0
 17
0.0
 27
1.0
 37
0.0
 76
     0
330
1F
331
29
  0
MATERIAL
  5
45
102
{ACAD_REACTORS
330
43
102
}
102
{ACAD_XDICTIONARY
360
218
102
}
330
43
100
AcDbMaterial
  1
ByBlock
  0
MATERIAL
  5
44
102
{ACAD_REACTORS
330
43
102
}
102
{ACAD_XDICTIONARY
360
216
102
}
330
43
100
AcDbMaterial
  1
ByLayer
  0
MATERIAL
  5
46
102
{ACAD_REACTORS
330
43
102
}
102
{ACAD_XDICTIONARY
360
21A
102
}
330
43
100
AcDbMaterial
  1
Global
  0
MLEADERSTYLE
  5
6C
102
{ACAD_REACTORS
330
6B
102
}
102
{ACAD_XDICTIONARY
360
220
102
}
330
6B
100
AcDbMLeaderStyle
170
     2
171
     1
172
     0
 90
        2
 40
0.0
 41
0.0
173
     1
 91
-1056964608
340
14
 92
       -2
290
     1
 42
2.0
291
     1
 43
8.0
  3
Standard
341
0
 44
4.0
300

342
11
174
     1
178
     6
175
     1
176
     0
 93
-1056964608
 45
4.0
292
     0
297
     0
 46
4.0
343
0
 94
-1056964608
 47
1.0
 49
1.0
140
1.0
293
     1
141
0.0
294
     1
177
     0
142
1.0
295
     0
296
     0
143
3.75
1001
ACAD_MLEADERVER
1070
     2
  0
MLINESTYLE
  5
18
102
{ACAD_REACTORS
330
17
102
}
330
17
100
AcDbMlineStyle
  2
Standard
 70
     0
  3

 62
   256
 51
90.0
 52
90.0
 71
     2
 49
0.5
 62
   256
  6
BYLAYER
 49
-0.5
 62
   256
  6
BYLAYER
  0
ACDBPLACEHOLDER
  5
F
102
{ACAD_REACTORS
330
E
102
}
330
E
  0
SCALE
  5
48
102
{ACAD_REACTORS
330
47
102
}
330
47
100
AcDbScale
 70
     0
300
1:1
140
1.0
141
1.0
290
     1
  0
SCALE
  5
49
102
{ACAD_REACTORS
330
47
102
}
330
47
100
AcDbScale
 70
     0
300
1:2
140
1.0
141
2.0
290
     0
  0
SCALE
  5
4A
102
{ACAD_REACTORS
330
47
102
}
330
47
100
AcDbScale
 70
     0
300
1:4
140
1.0
141
4.0
290
     0
  0
SCALE
  5
4B
102
{ACAD_REACTORS
330
47
102
}
330
47
100
AcDbScale
 70
     0
300
1:5
140
1.0
141
5.0
290
     0
  0
SCALE
  5
4C
102
{ACAD_REACTORS
330
47
102
}
330
47
100
AcDbScale
 70
     0
300
1:8
140
1.0
141
8.0
290
     0
  0
SCALE
  5
4D
102
{ACAD_REACTORS
330
47
102
}
330
47
100
AcDbScale
 70
     0
300
1:10
140
1.0
141
10.0
290
     0
  0
SCALE
  5
4E
102
{ACAD_REACTORS
330
47
102
}
330
47
100
AcDbScale
 70
     0
300
1:16
140
1.0
141
16.0
290
     0
  0
SCALE
  5
4F
102
{ACAD_REACTORS
330
47
102
}
330
47
100
AcDbScale
 70
     0
300
1:20
140
1.0
141
20.0
290
     0
  0
SCALE
  5
50
102
{ACAD_REACTORS
330
47
102
}
330
47
100
AcDbScale
 70
     0
300
1:30
140
1.0
141
30.0
290
     0
  0
SCALE
  5
51
102
{ACAD_REACTORS
330
47
102
}
330
47
100
AcDbScale
 70
     0
300
1:40
140
1.0
141
40.0
290
     0
  0
SCALE
  5
52
102
{ACAD_REACTORS
330
47
102
}
330
47
100
AcDbScale
 70
     0
300
1:50
140
1.0
141
50.0
290
     0
  0
SCALE
  5
53
102
{ACAD_REACTORS
330
47
102
}
330
47
100
AcDbScale
 70
     0
300
1:100
140
1.0
141
100.0
290
     0
  0
SCALE
  5
54
102
{ACAD_REACTORS
330
47
102
}
330
47
100
AcDbScale
 70
     0
300
2:1
140
2.0
141
1.0
290
     0
  0
SCALE
  5
55
102
{ACAD_REACTORS
330
47
102
}
330
47
100
AcDbScale
 70
     0
300
4:1
140
4.0
141
1.0
290
     0
  0
SCALE
  5
56
102
{ACAD_REACTORS
330
47
102
}
330
47
100
AcDbScale
 70
     0
300
8:1
140
8.0
141
1.0
290
     0
  0
SCALE
  5
57
102
{ACAD_REACTORS
330
47
102
}
330
47
100
AcDbScale
 70
     0
300
10:1
140
10.0
141
1.0
290
     0
  0
SCALE
  5
58
102
{ACAD_REACTORS
330
47
102
}
330
47
100
AcDbScale
 70
     0
300
100:1
140
100.0
141
1.0
290
     0
  0
SCALE
  5
59
102
{ACAD_REACTORS
330
47
102
}
330
47
100
AcDbScale
 70
     0
300
1/128" = 1'-0"
140
0.0078125
141
12.0
290
     0
  0
SCALE
  5
5A
102
{ACAD_REACTORS
330
47
102
}
330
47
100
AcDbScale
 70
     0
300
1/64" = 1'-0"
140
0.015625
141
12.0
290
     0
  0
SCALE
  5
5B
102
{ACAD_REACTORS
330
47
102
}
330
47
100
AcDbScale
 70
     0
300
1/32" = 1'-0"
140
0.03125
141
12.0
290
     0
  0
SCALE
  5
5C
102
{ACAD_REACTORS
330
47
102
}
330
47
100
AcDbScale
 70
     0
300
1/16" = 1'-0"
140
0.0625
141
12.0
290
     0
  0
SCALE
  5
5D
102
{ACAD_REACTORS
330
47
102
}
330
47
100
AcDbScale
 70
     0
300
3/32" = 1'-0"
140
0.09375
141
12.0
290
     0
  0
SCALE
  5
5E
102
{ACAD_REACTORS
330
47
102
}
330
47
100
AcDbScale
 70
     0
300
1/8" = 1'-0"
140
0.125
141
12.0
290
     0
  0
SCALE
  5
5F
102
{ACAD_REACTORS
330
47
102
}
330
47
100
AcDbScale
 70
     0
300
3/16" = 1'-0"
140
0.1875
141
12.0
290
     0
  0
SCALE
  5
60
102
{ACAD_REACTORS
330
47
102
}
330
47
100
AcDbScale
 70
     0
300
1/4" = 1'-0"
140
0.25
141
12.0
290
     0
  0
SCALE
  5
61
102
{ACAD_REACTORS
330
47
102
}
330
47
100
AcDbScale
 70
     0
300
3/8" = 1'-0"
140
0.375
141
12.0
290
     0
  0
SCALE
  5
62
102
{ACAD_REACTORS
330
47
102
}
330
47
100
AcDbScale
 70
     0
300
1/2" = 1'-0"
140
0.5
141
12.0
290
     0
  0
SCALE
  5
63
102
{ACAD_REACTORS
330
47
102
}
330
47
100
AcDbScale
 70
     0
300
3/4" = 1'-0"
140
0.75
141
12.0
290
     0
  0
SCALE
  5
64
102
{ACAD_REACTORS
330
47
102
}
330
47
100
AcDbScale
 70
     0
300
1" = 1'-0"
140
1.0
141
12.0
290
     0
  0
SCALE
  5
65
102
{ACAD_REACTORS
330
47
102
}
330
47
100
AcDbScale
 70
     0
300
1-1/2" = 1'-0"
140
1.5
141
12.0
290
     0
  0
SCALE
  5
66
102
{ACAD_REACTORS
330
47
102
}
330
47
100
AcDbScale
 70
     0
300
3" = 1'-0"
140
3.0
141
12.0
290
     0
  0
SCALE
  5
67
102
{ACAD_REACTORS
330
47
102
}
330
47
100
AcDbScale
 70
     0
300
6" = 1'-0"
140
6.0
141
12.0
290
     0
  0
SCALE
  5
68
102
{ACAD_REACTORS
330
47
102
}
330
47
100
AcDbScale
 70
     0
300
1'-0" = 1'-0"
140
12.0
141
12.0
290
     0
  0
TABLESTYLE
  5
6A
102
{ACAD_REACTORS
330
69
102
}
102
{ACAD_XDICTIONARY
360
21C
102
}
330
69
100
AcDbTableStyle
  3
Standard
 70
     0
 71
     0
 40
0.06
 41
0.06
280
     0
281
     0
  7
Standard
140
4.5
170
     2
 62
     0
 63
   257
283
     0
274
    -2
284
     1
 64
     0
275
    -2
285
     1
 65
     0
276
    -2
286
     1
 66
     0
277
    -2
287
     1
 67
     0
278
    -2
288
     1
 68
     0
279
    -2
289
     1
 69
     0
  7
Standard
140
6.0
170
     5
 62
     0
 63
   257
283
     0
274
    -2
284
     1
 64
     0
275
    -2
285
     1
 65
     0
276
    -2
286
     1
 66
     0
277
    -2
287
     1
 67
     0
278
    -2
288
     1
 68
     0
279
    -2
289
     1
 69
     0
  7
Standard
140
4.5
170
     5
 62
     0
 63
   257
283
     0
274
    -2
284
     1
 64
     0
275
    -2
285
     1
 65
     0
276
    -2
286
     1
 66
     0
277
    -2
287
     1
 67
     0
278
    -2
288
     1
 68
     0
279
    -2
289
     1
 69
     0
  0
VISUALSTYLE
  5
2F
102
{ACAD_REACTORS
330
2A
102
}
102
{ACAD_XDICTIONARY
360
1EE
102
}
330
2A
100
AcDbVisualStyle
  2
2dWireframe
 70
     4
 71
     0
 72
     2
 73
     0
 90
        0
 40
0.6
 41
30.0
 62
     5
 63
     7
421
 16777215
 74
     1
 91
        4
 64
     7
 65
   257
 75
     1
175
     1
 42
1.0
 92
        0
 66
   257
 43
1.0
 76
     1
 77
     6
 78
     2
 67
     7
 79
     5
170
     0
171
     0
290
     0
174
     0
 93
        1
 44
0.0
173
     0
291
     0
 45
0.0
1001
ACAD
1000
AcDbSavedByObjectVersion
1070
     0
  0
VISUALSTYLE
  5
32
102
{ACAD_REACTORS
330
2A
102
}
102
{ACAD_XDICTIONARY
360
1F4
102
}
330
2A
100
AcDbVisualStyle
  2
Basic
 70
     7
 71
     1
 72
     0
 73
     1
 90
        0
 40
0.6
 41
30.0
 62
     5
 63
     7
421
 16777215
 74
     0
 91
        4
 64
     7
 65
   257
 75
     1
175
     1
 42
1.0
 92
        8
 66
     7
 43
1.0
 76
     1
 77
     6
 78
     2
 67
     7
 79
     5
170
     0
171
     0
290
     0
174
     0
 93
        1
 44
0.0
173
     0
291
     1
 45
0.0
1001
ACAD
1000
AcDbSavedByObjectVersion
1070
     0
  0
VISUALSTYLE
  5
36
102
{ACAD_REACTORS
330
2A
102
}
102
{ACAD_XDICTIONARY
360
1FC
102
}
330
2A
100
AcDbVisualStyle
  2
Brighten
 70
    12
 71
     2
 72
     2
 73
     0
 90
        0
 40
0.6
 41
30.0
 62
     5
 63
     7
421
 16777215
 74
     1
 91
        4
 64
     7
 65
   257
 75
     1
175
     1
 42
1.0
 92
        8
 66
     7
 43
1.0
 76
     1
 77
     6
 78
     2
 67
     7
 79
     5
170
     0
171
     0
290
     0
174
     0
 93
        1
 44
50.0
173
     0
291
     1
 45
0.0
1001
ACAD
1000
AcDbSavedByObjectVersion
1070
     0
  0
VISUALSTYLE
  5
3A
102
{ACAD_REACTORS
330
2A
102
}
102
{ACAD_XDICTIONARY
360
204
102
}
330
2A
100
AcDbVisualStyle
  2
ColorChange
 70
    16
 71
     2
 72
     2
 73
     3
 90
        0
 40
0.6
 41
30.0
 62
     5
 63
     8
421
  8421504
 74
     1
 91
        4
 64
     7
 65
   257
 75
     1
175
     1
 42
1.0
 92
        8
 66
     8
424
  8421504
 43
1.0
 76
     1
 77
     6
 78
     2
 67
     7
 79
     5
170
     0
171
     0
290
     0
174
     0
 93
        1
 44
0.0
173
     0
291
     1
 45
0.0
1001
ACAD
1000
AcDbSavedByObjectVersion
1070
     0
  0
VISUALSTYLE
  5
34
102
{ACAD_REACTORS
330
2A
102
}
102
{ACAD_XDICTIONARY
360
1F8
102
}
330
2A
100
AcDbVisualStyle
  2
Conceptual
 70
     9
 71
     3
 72
     2
 73
     0
 90
        0
 40
0.6
 41
30.0
 62
     5
 63
     7
421
 16777215
 74
     2
 91
        2
 64
     7
 65
   257
 75
     1
175
     1
 42
179.0
 92
        8
 66
     7
 43
1.0
 76
     1
 77
     6
 78
     2
 67
     7
 79
     3
170
     0
171
     0
290
     0
174
     0
 93
        1
 44
0.0
173
     0
291
     0
 45
0.0
1001
ACAD
1000
AcDbSavedByObjectVersion
1070
     0
  0
VISUALSTYLE
  5
35
102
{ACAD_REACTORS
330
2A
102
}
102
{ACAD_XDICTIONARY
360
1FA
102
}
330
2A
100
AcDbVisualStyle
  2
Dim
 70
    11
 71
     2
 72
     2
 73
     0
 90
        0
 40
0.6
 41
30.0
 62
     5
 63
     7
421
 16777215
 74
     1
 91
        4
 64
     7
 65
   257
 75
     1
175
     1
 42
1.0
 92
        8
 66
     7
 43
1.0
 76
     1
 77
     6
 78
     2
 67
     7
 79
     5
170
     0
171
     0
290
     0
174
     0
 93
        1
 44
-50.0
173
     0
291
     1
 45
0.0
1001
ACAD
1000
AcDbSavedByObjectVersion
1070
     0
  0
VISUALSTYLE
  5
3D
102
{ACAD_REACTORS
330
2A
102
}
102
{ACAD_XDICTIONARY
360
20A
102
}
330
2A
100
AcDbVisualStyle
  2
EdgeColorOff
 70
    22
 71
     2
 72
     2
 73
     0
 90
        0
 40
0.6
 41
30.0
 62
     5
 63
     7
421
 16777215
 74
     1
 91
        4
 64
     7
 65
   257
 75
     1
175
     1
 42
1.0
 92
        8
 66
     7
 43
1.0
 76
     1
 77
     6
 78
     2
 67
     7
 79
     5
170
     0
171
     0
290
     0
174
     0
 93
        1
 44
0.0
173
     0
291
     1
 45
0.0
1001
ACAD
1000
AcDbSavedByObjectVersion
1070
     0
  0
VISUALSTYLE
  5
39
102
{ACAD_REACTORS
330
2A
102
}
102
{ACAD_XDICTIONARY
360
202
102
}
330
2A
100
AcDbVisualStyle
  2
Facepattern
 70
    15
 71
     2
 72
     2
 73
     0
 90
        0
 40
0.6
 41
30.0
 62
     5
 63
     7
421
 16777215
 74
     1
 91
        4
 64
     7
 65
   257
 75
     1
175
     1
 42
1.0
 92
        8
 66
     7
 43
1.0
 76
     1
 77
     6
 78
     2
 67
     7
 79
     5
170
     0
171
     0
290
     0
174
     0
 93
        1
 44
0.0
173
     0
291
     1
 45
0.0
1001
ACAD
1000
AcDbSavedByObjectVersion
1070
     0
  0
VISUALSTYLE
  5
2B
102
{ACAD_REACTORS
330
2A
102
}
102
{ACAD_XDICTIONARY
360
1E6
102
}
330
2A
100
AcDbVisualStyle
  2
Flat
 70
     0
 71
     2
 72
     1
 73
     1
 90
        2
 40
0.6
 41
30.0
 62
     5
 63
     7
421
 16777215
 74
     0
 91
        0
 64
     7
 65
   257
 75
     1
175
     1
 42
1.0
 92
        8
 66
     7
 43
1.0
 76
     1
 77
     6
 78
     2
 67
     7
 79
     5
170
     0
171
     0
290
     0
174
     0
 93
       13
 44
0.0
173
     0
291
     1
 45
0.0
1001
ACAD
1000
AcDbSavedByObjectVersion
1070
     0
  0
VISUALSTYLE
  5
2C
102
{ACAD_REACTORS
330
2A
102
}
102
{ACAD_XDICTIONARY
360
1E8
102
}
330
2A
100
AcDbVisualStyle
  2
FlatWithEdges
 70
     1
 71
     2
 72
     1
 73
     1
 90
        2
 40
0.6
 41
30.0
 62
     5
 63
     7
421
 16777215
 74
     1
 91
        0
 64
     7
 65
   257
 75
     1
175
     1
 42
1.0
 92
        0
 66
   257
 43
1.0
 76
     1
 77
     6
 78
     2
 67
     7
 79
     5
170
     0
171
     0
290
     0
174
     0
 93
       13
 44
0.0
173
     0
291
     1
 45
0.0
1001
ACAD
1000
AcDbSavedByObjectVersion
1070
     0
  0
VISUALSTYLE
  5
2D
102
{ACAD_REACTORS
330
2A
102
}
102
{ACAD_XDICTIONARY
360
1EA
102
}
330
2A
100
AcDbVisualStyle
  2
Gouraud
 70
     2
 71
     2
 72
     2
 73
     1
 90
        2
 40
0.6
 41
30.0
 62
     5
 63
     7
421
 16777215
 74
     0
 91
        0
 64
     7
 65
   257
 75
     1
175
     1
 42
1.0
 92
        0
 66
     7
 43
1.0
 76
     1
 77
     6
 78
     2
 67
     7
 79
     5
170
     0
171
     0
290
     0
174
     0
 93
       13
 44
0.0
173
     0
291
     1
 45
0.0
1001
ACAD
1000
AcDbSavedByObjectVersion
1070
     0
  0
VISUALSTYLE
  5
2E
102
{ACAD_REACTORS
330
2A
102
}
102
{ACAD_XDICTIONARY
360
1EC
102
}
330
2A
100
AcDbVisualStyle
  2
GouraudWithEdges
 70
     3
 71
     2
 72
     2
 73
     1
 90
        2
 40
0.6
 41
30.0
 62
     5
 63
     7
421
 16777215
 74
     1
 91
        0
 64
     7
 65
   257
 75
     1
175
     1
 42
1.0
 92
        0
 66
   257
 43
1.0
 76
     1
 77
     6
 78
     2
 67
     7
 79
     5
170
     0
171
     0
290
     0
174
     0
 93
       13
 44
0.0
173
     0
291
     1
 45
0.0
1001
ACAD
1000
AcDbSavedByObjectVersion
1070
     0
  0
VISUALSTYLE
  5
31
102
{ACAD_REACTORS
330
2A
102
}
102
{ACAD_XDICTIONARY
360
1F2
102
}
330
2A
100
AcDbVisualStyle
  2
Hidden
 70
     6
 71
     1
 72
     2
 73
     2
 90
        0
 40
0.6
 41
30.0
 62
     5
 63
     7
421
 16777215
 74
     2
 91
        2
 64
     7
 65
   257
 75
     2
175
     1
 42
40.0
 92
        0
 66
   257
 43
1.0
 76
     1
 77
     6
 78
     2
 67
     7
 79
     3
170
     0
171
     0
290
     0
174
     0
 93
        1
 44
0.0
173
     0
291
     0
 45
0.0
1001
ACAD
1000
AcDbSavedByObjectVersion
1070
     0
  0
VISUALSTYLE
  5
3B
102
{ACAD_REACTORS
330
2A
102
}
102
{ACAD_XDICTIONARY
360
206
102
}
330
2A
100
AcDbVisualStyle
  2
JitterOff
 70
    20
 71
     2
 72
     2
 73
     0
 90
        0
 40
0.6
 41
30.0
 62
     5
 63
     7
421
 16777215
 74
     1
 91
        4
 64
     7
 65
   257
 75
     1
175
     1
 42
1.0
 92
       10
 66
     7
 43
1.0
 76
     1
 77
     6
 78
     2
 67
     7
 79
     5
170
     0
171
     0
290
     0
174
     0
 93
        1
 44
0.0
173
     0
291
     1
 45
0.0
1001
ACAD
1000
AcDbSavedByObjectVersion
1070
     0
  0
VISUALSTYLE
  5
38
102
{ACAD_REACTORS
330
2A
102
}
102
{ACAD_XDICTIONARY
360
200
102
}
330
2A
100
AcDbVisualStyle
  2
Linepattern
 70
    14
 71
     2
 72
     2
 73
     0
 90
        0
 40
0.6
 41
30.0
 62
     5
 63
     7
421
 16777215
 74
     1
 91
        4
 64
     7
 65
   257
 75
     7
175
     7
 42
1.0
 92
        8
 66
     7
 43
1.0
 76
     1
 77
     6
 78
     2
 67
     7
 79
     5
170
     0
171
     0
290
     0
174
     0
 93
        1
 44
0.0
173
     0
291
     1
 45
0.0
1001
ACAD
1000
AcDbSavedByObjectVersion
1070
     0
  0
VISUALSTYLE
  5
3C
102
{ACAD_REACTORS
330
2A
102
}
102
{ACAD_XDICTIONARY
360
208
102
}
330
2A
100
AcDbVisualStyle
  2
OverhangOff
 70
    21
 71
     2
 72
     2
 73
     0
 90
        0
 40
0.6
 41
30.0
 62
     5
 63
     7
421
 16777215
 74
     1
 91
        4
 64
     7
 65
   257
 75
     1
175
     1
 42
1.0
 92
        9
 66
     7
 43
1.0
 76
     1
 77
     6
 78
     2
 67
     7
 79
     5
170
     0
171
     0
290
     0
174
     0
 93
        1
 44
0.0
173
     0
291
     1
 45
0.0
1001
ACAD
1000
AcDbSavedByObjectVersion
1070
     0
  0
VISUALSTYLE
  5
33
102
{ACAD_REACTORS
330
2A
102
}
102
{ACAD_XDICTIONARY
360
1F6
102
}
330
2A
100
AcDbVisualStyle
  2
Realistic
 70
     8
 71
     2
 72
     3
 73
     0
 90
        2
 40
0.6
 41
30.0
 62
     5
 63
     7
421
 16777215
 74
     0
 91
        0
 64
     7
 65
   257
 75
     1
175
     1
 42
1.0
 92
        8
 66
   257
 43
1.0
 76
     1
 77
     6
 78
     2
 67
     7
 79
     3
170
     0
171
     0
290
     0
174
     0
 93
       13
 44
0.0
173
     0
291
     0
 45
0.0
1001
ACAD
1000
AcDbSavedByObjectVersion
1070
     0
  0
VISUALSTYLE
  5
42
102
{ACAD_REACTORS
330
2A
102
}
102
{ACAD_XDICTIONARY
360
214
102
}
330
2A
100
AcDbVisualStyle
  2
Shaded
 70
    27
 71
     2
 72
     2
 73
     1
 90
        2
 40
0.6
 41
30.0
 62
     5
 63
     7
421
 16777215
 74
     0
 91
        4
 64
     7
 65
   257
 75
     1
175
     1
 42
1.0
 92
        8
 66
   257
 43
1.0
 76
     1
 77
     6
 78
     2
 67
     8
425
  7895160
 79
     3
170
     0
171
     0
290
     0
174
     0
 93
        5
 44
0.0
173
     0
291
     0
 45
0.0
1001
ACAD
1000
AcDbSavedByObjectVersion
1070
     0
  0
VISUALSTYLE
  5
41
102
{ACAD_REACTORS
330
2A
102
}
102
{ACAD_XDICTIONARY
360
212
102
}
330
2A
100
AcDbVisualStyle
  2
Shaded with edges
 70
    26
 71
     2
 72
     2
 73
     1
 90
        2
 40
0.6
 41
30.0
 62
     5
 63
     7
421
 16777215
 74
     1
 91
       10
 64
     7
 65
   257
 75
     2
175
     1
 42
1.0
 92
        8
 66
   257
 43
1.0
 76
     1
 77
     6
 78
     2
 67
     7
 79
     3
170
     0
171
     0
290
     0
174
     0
 93
        5
 44
0.0
173
     0
291
     0
 45
0.0
1001
ACAD
1000
AcDbSavedByObjectVersion
1070
     0
  0
VISUALSTYLE
  5
3E
102
{ACAD_REACTORS
330
2A
102
}
102
{ACAD_XDICTIONARY
360
20C
102
}
330
2A
100
AcDbVisualStyle
  2
Shades of Gray
 70
    23
 71
     2
 72
     2
 73
     3
 90
        0
 40
0.6
 41
30.0
 62
     5
 63
     7
421
 16777215
 74
     2
 91
        2
 64
     7
 65
     7
 75
     1
175
     1
 42
40.0
 92
        8
 66
     7
 43
1.0
 76
     1
 77
     6
 78
     2
 67
     7
 79
     3
170
     0
171
     0
290
     0
174
     0
 93
        1
 44
0.0
173
     0
291
     0
 45
0.0
1001
ACAD
1000
AcDbSavedByObjectVersion
1070
     0
  0
VISUALSTYLE
  5
3F
102
{ACAD_REACTORS
330
2A
102
}
102
{ACAD_XDICTIONARY
360
20E
102
}
330
2A
100
AcDbVisualStyle
  2
Sketchy
 70
    24
 71
     1
 72
     2
 73
     2
 90
        0
 40
0.6
 41
30.0
 62
     5
 63
     7
421
 16777215
 74
     2
 91
        2
 64
     7
 65
     7
 75
     1
175
     1
 42
40.0
 92
       11
 66
     7
 43
1.0
 76
     1
 77
     6
 78
     2
 67
     7
 79
     6
170
     0
171
     0
290
     0
174
     0
 93
        1
 44
0.0
173
     0
291
     0
 45
0.0
1001
ACAD
1000
AcDbSavedByObjectVersion
1070
     0
  0
VISUALSTYLE
  5
37
102
{ACAD_REACTORS
330
2A
102
}
102
{ACAD_XDICTIONARY
360
1FE
102
}
330
2A
100
AcDbVisualStyle
  2
Thicken
 70
    13
 71
     2
 72
     2
 73
     0
 90
        0
 40
0.6
 41
30.0
 62
     5
 63
     7
421
 16777215
 74
     1
 91
        4
 64
     7
 65
   257
 75
     1
175
     1
 42
1.0
 92
       12
 66
     7
 43
1.0
 76
     1
 77
     6
 78
     2
 67
     7
 79
     5
170
     0
171
     0
290
     0
174
     0
 93
        1
 44
0.0
173
     0
291
     1
 45
0.0
1001
ACAD
1000
AcDbSavedByObjectVersion
1070
     0
  0
VISUALSTYLE
  5
30
102
{ACAD_REACTORS
330
2A
102
}
102
{ACAD_XDICTIONARY
360
1F0
102
}
330
2A
100
AcDbVisualStyle
  2
Wireframe
 70
     5
 71
     0
 72
     2
 73
     0
 90
        0
 40
0.6
 41
30.0
 62
     5
 63
     7
421
 16777215
 74
     1
 91
        4
 64
     7
 65
   257
 75
     1
175
     1
 42
1.0
 92
        0
 66
   257
 43
1.0
 76
     1
 77
     6
 78
     2
 67
     7
 79
     3
170
     0
171
     0
290
     0
174
     0
 93
        1
 44
0.0
173
     0
291
     0
 45
0.0
1001
ACAD
1000
AcDbSavedByObjectVersion
1070
     0
  0
VISUALSTYLE
  5
40
102
{ACAD_REACTORS
330
2A
102
}
102
{ACAD_XDICTIONARY
360
210
102
}
330
2A
100
AcDbVisualStyle
  2
X-Ray
 70
    25
 71
     2
 72
     2
 73
     1
 90
        1
 40
0.5
 41
30.0
 62
     5
 63
     7
421
 16777215
 74
     1
 91
        0
 64
     7
 65
   257
 75
     1
175
     1
 42
1.0
 92
        8
 66
     7
 43
1.0
 76
     1
 77
     6
 78
     2
 67
     7
 79
     3
170
     0
171
     0
290
     0
174
     0
 93
       13
 44
0.0
173
     0
291
     0
 45
0.0
1001
ACAD
1000
AcDbSavedByObjectVersion
1070
     0
  0
DICTIONARYVAR
  5
1E3
102
{ACAD_REACTORS
330
1E2
102
}
330
1E2
100
DictionaryVariables
280
     0
  1
1:1
  0
DICTIONARYVAR
  5
227
102
{ACAD_REACTORS
330
1E2
102
}
330
1E2
100
DictionaryVariables
280
     0
  1
3.500000
  0
DICTIONARYVAR
  5
228
102
{ACAD_REACTORS
330
1E2
102
}
330
1E2
100
DictionaryVariables
280
     0
  1
acadiso.lin
  0
DICTIONARYVAR
  5
224
102
{ACAD_REACTORS
330
1E2
102
}
330
1E2
100
DictionaryVariables
280
     0
  1
Standard
  0
DICTIONARYVAR
  5
223
102
{ACAD_REACTORS
330
1E2
102
}
330
1E2
100
DictionaryVariables
280
     0
  1
Standard
  0
DICTIONARYVAR
  5
1E4
102
{ACAD_REACTORS
330
1E2
102
}
330
1E2
100
DictionaryVariables
280
     0
  1
1
  0
DICTIONARYVAR
  5
1E5
102
{ACAD_REACTORS
330
1E2
102
}
330
1E2
100
DictionaryVariables
280
     0
  1
2
  0
DICTIONARY
  5
218
330
45
100
AcDbDictionary
280
     1
281
     1
  3
ACAD_XREC_ROUNDTRIP
360
219
  0
DICTIONARY
  5
216
330
44
100
AcDbDictionary
280
     1
281
     1
  3
ACAD_XREC_ROUNDTRIP
360
217
  0
DICTIONARY
  5
21A
330
46
100
AcDbDictionary
280
     1
281
     1
  3
ACAD_XREC_ROUNDTRIP
360
21B
  0
DICTIONARY
  5
220
330
6C
100
AcDbDictionary
280
     1
281
     1
  3
ACAD_XREC_ROUNDTRIP
360
221
  0
DICTIONARY
  5
21C
330
6A
100
AcDbDictionary
280
     1
281
     1
  3
ACAD_ROUNDTRIP_2008_TABLESTYLE_CELLSTYLEMAP
360
21E
  3
ACAD_XREC_ROUNDTRIP
360
21D
  0
DICTIONARY
  5
1EE
330
2F
100
AcDbDictionary
280
     1
281
     1
  3
ACAD_XREC_ROUNDTRIP
360
1EF
  0
DICTIONARY
  5
1F4
330
32
100
AcDbDictionary
280
     1
281
     1
  3
ACAD_XREC_ROUNDTRIP
360
1F5
  0
DICTIONARY
  5
1FC
330
36
100
AcDbDictionary
280
     1
281
     1
  3
ACAD_XREC_ROUNDTRIP
360
1FD
  0
DICTIONARY
  5
204
330
3A
100
AcDbDictionary
280
     1
281
     1
  3
ACAD_XREC_ROUNDTRIP
360
205
  0
DICTIONARY
  5
1F8
330
34
100
AcDbDictionary
280
     1
281
     1
  3
ACAD_XREC_ROUNDTRIP
360
1F9
  0
DICTIONARY
  5
1FA
330
35
100
AcDbDictionary
280
     1
281
     1
  3
ACAD_XREC_ROUNDTRIP
360
1FB
  0
DICTIONARY
  5
20A
330
3D
100
AcDbDictionary
280
     1
281
     1
  3
ACAD_XREC_ROUNDTRIP
360
20B
  0
DICTIONARY
  5
202
330
39
100
AcDbDictionary
280
     1
281
     1
  3
ACAD_XREC_ROUNDTRIP
360
203
  0
DICTIONARY
  5
1E6
330
2B
100
AcDbDictionary
280
     1
281
     1
  3
ACAD_XREC_ROUNDTRIP
360
1E7
  0
DICTIONARY
  5
1E8
330
2C
100
AcDbDictionary
280
     1
281
     1
  3
ACAD_XREC_ROUNDTRIP
360
1E9
  0
DICTIONARY
  5
1EA
330
2D
100
AcDbDictionary
280
     1
281
     1
  3
ACAD_XREC_ROUNDTRIP
360
1EB
  0
DICTIONARY
  5
1EC
330
2E
100
AcDbDictionary
280
     1
281
     1
  3
ACAD_XREC_ROUNDTRIP
360
1ED
  0
DICTIONARY
  5
1F2
330
31
100
AcDbDictionary
280
     1
281
     1
  3
ACAD_XREC_ROUNDTRIP
360
1F3
  0
DICTIONARY
  5
206
330
3B
100
AcDbDictionary
280
     1
281
     1
  3
ACAD_XREC_ROUNDTRIP
360
207
  0
DICTIONARY
  5
200
330
38
100
AcDbDictionary
280
     1
281
     1
  3
ACAD_XREC_ROUNDTRIP
360
201
  0
DICTIONARY
  5
208
330
3C
100
AcDbDictionary
280
     1
281
     1
  3
ACAD_XREC_ROUNDTRIP
360
209
  0
DICTIONARY
  5
1F6
330
33
100
AcDbDictionary
280
     1
281
     1
  3
ACAD_XREC_ROUNDTRIP
360
1F7
  0
DICTIONARY
  5
214
330
42
100
AcDbDictionary
280
     1
281
     1
  3
ACAD_XREC_ROUNDTRIP
360
215
  0
DICTIONARY
  5
212
330
41
100
AcDbDictionary
280
     1
281
     1
  3
ACAD_XREC_ROUNDTRIP
360
213
  0
DICTIONARY
  5
20C
330
3E
100
AcDbDictionary
280
     1
281
     1
  3
ACAD_XREC_ROUNDTRIP
360
20D
  0
DICTIONARY
  5
20E
330
3F
100
AcDbDictionary
280
     1
281
     1
  3
ACAD_XREC_ROUNDTRIP
360
20F
  0
DICTIONARY
  5
1FE
330
37
100
AcDbDictionary
280
     1
281
     1
  3
ACAD_XREC_ROUNDTRIP
360
1FF
  0
DICTIONARY
  5
1F0
330
30
100
AcDbDictionary
280
     1
281
     1
  3
ACAD_XREC_ROUNDTRIP
360
1F1
  0
DICTIONARY
  5
210
330
40
100
AcDbDictionary
280
     1
281
     1
  3
ACAD_XREC_ROUNDTRIP
360
211
  0
XRECORD
  5
219
102
{ACAD_REACTORS
330
218
102
}
330
218
100
AcDbXrecord
280
     1
102
MATERIAL
148
0.0
149
0.0
149
0.0
 93
        0
 94
      127
282
     0
 72
     1
 77
     1
171
     1
175
     1
179
     1
273
     0
  0
XRECORD
  5
217
102
{ACAD_REACTORS
330
216
102
}
330
216
100
AcDbXrecord
280
     1
102
MATERIAL
148
0.0
149
0.0
149
0.0
 93
        0
 94
      127
282
     0
 72
     1
 77
     1
171
     1
175
     1
179
     1
273
     0
  0
XRECORD
  5
21B
102
{ACAD_REACTORS
330
21A
102
}
330
21A
100
AcDbXrecord
280
     1
102
MATERIAL
148
0.0
149
0.0
149
0.0
 93
        0
 94
      127
282
     0
 72
     1
 77
     1
171
     1
175
     1
179
     1
273
     0
  0
XRECORD
  5
221
102
{ACAD_REACTORS
330
220
102
}
330
220
100
AcDbXrecord
280
     1
102
ACAD_ROUNDTRIP_2010_MLEADER_STYLE
  0
CELLSTYLEMAP
  5
21E
102
{ACAD_REACTORS
330
21C
102
}
330
21C
100
AcDbCellStyleMap
 90
        3
300
CELLSTYLE
  1
TABLEFORMAT_BEGIN
 90
        5
170
     1
 91
        0
 92
    32768
 62
   257
 93
        1
300
CONTENTFORMAT
  1
CONTENTFORMAT_BEGIN
 90
        0
 91
        0
 92
        4
 93
        0
300

 40
0.0
140
1.0
 94
        5
 62
     0
340
11
144
6.0
309
CONTENTFORMAT_END
171
     1
301
MARGIN
  1
CELLMARGIN_BEGIN
 40
1.5
 40
1.5
 40
1.5
 40
1.5
 40
1.5
 40
1.5
309
CELLMARGIN_END
 94
        6
 95
        1
302
GRIDFORMAT
  1
GRIDFORMAT_BEGIN
 90
        0
 91
        1
 62
     0
 92
       -2
340
14
 93
        0
 40
0.045
309
GRIDFORMAT_END
 95
        2
302
GRIDFORMAT
  1
GRIDFORMAT_BEGIN
 90
        0
 91
        1
 62
     0
 92
       -2
340
14
 93
        0
 40
0.045
309
GRIDFORMAT_END
 95
        4
302
GRIDFORMAT
  1
GRIDFORMAT_BEGIN
 90
        0
 91
        1
 62
     0
 92
       -2
340
14
 93
        0
 40
0.045
309
GRIDFORMAT_END
 95
        8
302
GRIDFORMAT
  1
GRIDFORMAT_BEGIN
 90
        0
 91
        1
 62
     0
 92
       -2
340
14
 93
        0
 40
0.045
309
GRIDFORMAT_END
 95
       16
302
GRIDFORMAT
  1
GRIDFORMAT_BEGIN
 90
        0
 91
        1
 62
     0
 92
       -2
340
14
 93
        0
 40
0.045
309
GRIDFORMAT_END
 95
       32
302
GRIDFORMAT
  1
GRIDFORMAT_BEGIN
 90
        0
 91
        1
 62
     0
 92
       -2
340
14
 93
        0
 40
0.045
309
GRIDFORMAT_END
309
TABLEFORMAT_END
  1
CELLSTYLE_BEGIN
 90
        1
 91
        1
300
_TITLE
309
CELLSTYLE_END
300
CELLSTYLE
  1
TABLEFORMAT_BEGIN
 90
        5
170
     1
 91
        0
 92
        0
 62
   257
 93
        1
300
CONTENTFORMAT
  1
CONTENTFORMAT_BEGIN
 90
        0
 91
        0
 92
        4
 93
        0
300

 40
0.0
140
1.0
 94
        5
 62
     0
340
11
144
4.5
309
CONTENTFORMAT_END
171
     1
301
MARGIN
  1
CELLMARGIN_BEGIN
 40
1.5
 40
1.5
 40
1.5
 40
1.5
 40
1.5
 40
1.5
309
CELLMARGIN_END
 94
        6
 95
        1
302
GRIDFORMAT
  1
GRIDFORMAT_BEGIN
 90
        0
 91
        1
 62
     0
 92
       -2
340
14
 93
        0
 40
0.045
309
GRIDFORMAT_END
 95
        2
302
GRIDFORMAT
  1
GRIDFORMAT_BEGIN
 90
        0
 91
        1
 62
     0
 92
       -2
340
14
 93
        0
 40
0.045
309
GRIDFORMAT_END
 95
        4
302
GRIDFORMAT
  1
GRIDFORMAT_BEGIN
 90
        0
 91
        1
 62
     0
 92
       -2
340
14
 93
        0
 40
0.045
309
GRIDFORMAT_END
 95
        8
302
GRIDFORMAT
  1
GRIDFORMAT_BEGIN
 90
        0
 91
        1
 62
     0
 92
       -2
340
14
 93
        0
 40
0.045
309
GRIDFORMAT_END
 95
       16
302
GRIDFORMAT
  1
GRIDFORMAT_BEGIN
 90
        0
 91
        1
 62
     0
 92
       -2
340
14
 93
        0
 40
0.045
309
GRIDFORMAT_END
 95
       32
302
GRIDFORMAT
  1
GRIDFORMAT_BEGIN
 90
        0
 91
        1
 62
     0
 92
       -2
340
14
 93
        0
 40
0.045
309
GRIDFORMAT_END
309
TABLEFORMAT_END
  1
CELLSTYLE_BEGIN
 90
        2
 91
        1
300
_HEADER
309
CELLSTYLE_END
300
CELLSTYLE
  1
TABLEFORMAT_BEGIN
 90
        5
170
     1
 91
        0
 92
        0
 62
   257
 93
        1
300
CONTENTFORMAT
  1
CONTENTFORMAT_BEGIN
 90
        0
 91
        0
 92
        4
 93
        0
300

 40
0.0
140
1.0
 94
        2
 62
     0
340
11
144
4.5
309
CONTENTFORMAT_END
171
     1
301
MARGIN
  1
CELLMARGIN_BEGIN
 40
1.5
 40
1.5
 40
1.5
 40
1.5
 40
1.5
 40
1.5
309
CELLMARGIN_END
 94
        6
 95
        1
302
GRIDFORMAT
  1
GRIDFORMAT_BEGIN
 90
        0
 91
        1
 62
     0
 92
       -2
340
14
 93
        0
 40
0.045
309
GRIDFORMAT_END
 95
        2
302
GRIDFORMAT
  1
GRIDFORMAT_BEGIN
 90
        0
 91
        1
 62
     0
 92
       -2
340
14
 93
        0
 40
0.045
309
GRIDFORMAT_END
 95
        4
302
GRIDFORMAT
  1
GRIDFORMAT_BEGIN
 90
        0
 91
        1
 62
     0
 92
       -2
340
14
 93
        0
 40
0.045
309
GRIDFORMAT_END
 95
        8
302
GRIDFORMAT
  1
GRIDFORMAT_BEGIN
 90
        0
 91
        1
 62
     0
 92
       -2
340
14
 93
        0
 40
0.045
309
GRIDFORMAT_END
 95
       16
302
GRIDFORMAT
  1
GRIDFORMAT_BEGIN
 90
        0
 91
        1
 62
     0
 92
       -2
340
14
 93
        0
 40
0.045
309
GRIDFORMAT_END
 95
       32
302
GRIDFORMAT
  1
GRIDFORMAT_BEGIN
 90
        0
 91
        1
 62
     0
 92
       -2
340
14
 93
        0
 40
0.045
309
GRIDFORMAT_END
309
TABLEFORMAT_END
  1
CELLSTYLE_BEGIN
 90
        3
 91
        2
300
_DATA
309
CELLSTYLE_END
  0
XRECORD
  5
21D
102
{ACAD_REACTORS
330
21C
102
}
330
21C
100
AcDbXrecord
280
     1
102
ACAD_ROUNDTRIP_PRE2007_TABLESTYLE
 90
        4
 91
        0
  1

 92
        4
 93
        0
  2

 94
        4
 95
        0
  3

  0
XRECORD
  5
1EF
102
{ACAD_REACTORS
330
1EE
102
}
330
1EE
100
AcDbXrecord
280
     1
102
RTVSPropertyOp0
 70
     1
102
RTVSPropertyOp1
 70
     1
102
RTVSPropertyOp2
 70
     1
102
RTVSPropertyOp3
 70
     1
102
RTVSPropertyOp4
 70
     1
102
RTVSPropertyOp5
 70
     1
102
RTVSPropertyOp6
 70
     1
102
RTVSPropertyOp7
 70
     1
102
RTVSPropertyOp8
 70
     1
102
RTVSPropertyOp9
 70
     1
102
RTVSPropertyOp10
 70
     1
102
RTVSPropertyOp11
 70
     1
102
RTVSPropertyOp12
 70
     1
102
RTVSPropertyOp13
 70
     1
102
RTVSPropertyOp14
 70
     1
102
RTVSPropertyOp15
 70
     1
102
RTVSPropertyOp16
 70
     1
102
RTVSPropertyOp17
 70
     1
102
RTVSPropertyOp18
 70
     1
102
RTVSPropertyOp19
 70
     1
102
RTVSPropertyOp20
 70
     1
102
RTVSPropertyOp21
 70
     1
102
RTVSPropertyOp22
 70
     1
102
RTVSPropertyOp23
 70
     1
102
RTVSPropertyOp24
 70
     1
102
RTVSPropertyOp25
 70
     1
102
RTVSPropertyOp26
 70
     1
102
RTVSPropertyOp27
 70
     1
102
RTVSPropertyOp28
 70
     1
102
RTVSPropertyOp29
 70
     1
102
RTVSPropertyOp30
 70
     1
102
RTVSPropertyOp31
 70
     1
102
RTVSPropertyOp32
 70
     1
102
RTVSPropertyOp33
 70
     1
102
RTVSPropertyOp34
 70
     1
102
RTVSPropertyOp35
 70
     1
102
RTVSPropertyOp36
 70
     1
102
RTVSPropertyOp37
 70
     1
102
RTVSPropertyOp38
 70
     1
102
RTVSPropertyOp39
 70
     1
102
RTVSPropertyOp40
 70
     1
102
RTVSPropertyOp41
 70
     1
102
RTVSPropertyOp42
 70
     1
102
RTVSPropertyOp43
 70
     1
102
RTVSPropertyOp44
 70
     1
102
RTVSPropertyOp45
 70
     1
102
RTVSPropertyOp46
 70
     1
102
RTVSPropertyOp47
 70
     1
102
RTVSPropertyOp48
 70
     1
102
RTVSPropertyOp49
 70
     1
102
RTVSPropertyOp50
 70
     1
102
RTVSPropertyOp51
 70
     0
102
RTVSPropertyOp52
 70
     0
102
RTVSPropertyOp53
 70
     1
102
RTVSPropertyOp54
 70
     1
102
RTVSPropertyOp55
 70
     1
102
RTVSPropertyOp56
 70
     1
102
RTVSPropertyOp57
 70
     1
102
RTVSPost2010Prop28
280
     1
102
RTVSPost2010PropOp28
 70
     1
102
RTVSPost2010Prop29
280
     1
102
RTVSPost2010PropOp29
 70
     1
102
RTVSPost2010Prop30
280
     0
102
RTVSPost2010PropOp30
 70
     1
102
RTVSPost2010Prop31
280
     0
102
RTVSPost2010PropOp31
 70
     1
102
RTVSPost2010Prop32
280
     0
102
RTVSPost2010PropOp32
 70
     1
102
RTVSPost2010Prop33
280
     0
102
RTVSPost2010PropOp33
 70
     1
102
RTVSPost2010Prop34
280
     0
102
RTVSPost2010PropOp34
 70
     1
102
RTVSPost2010Prop35
280
     0
102
RTVSPost2010PropOp35
 70
     1
102
RTVSPost2010Prop36
280
     0
102
RTVSPost2010PropOp36
 70
     1
102
RTVSPost2010Prop37
 90
       50
102
RTVSPost2010PropOp37
 70
     1
102
RTVSPost2010Prop38
140
0.0
102
RTVSPost2010PropOp38
 70
     1
102
RTVSPost2010Prop39
140
1.0
102
RTVSPost2010PropOp39
 70
     1
102
RTVSPost2010Prop40
 90
        0
102
RTVSPost2010PropOp40
 70
     1
102
RTVSPost2010Prop41ColorIndex
 90
       18
102
RTVSPost2010Prop41ColorRGB
 90
        0
102
RTVSPost2010PropOp41
 70
     1
102
RTVSPost2010Prop42
 90
       50
102
RTVSPost2010PropOp42
 70
     1
102
RTVSPost2010Prop43
 90
        3
102
RTVSPost2010PropOp43
 70
     1
102
RTVSPost2010Prop44ColorIndex
 90
        5
102
RTVSPost2010Prop44ColorRGB
 90
      255
102
RTVSPost2010PropOp44
 70
     1
102
RTVSPost2010Prop45
280
     0
102
RTVSPost2010PropOp45
 70
     1
102
RTVSPost2010Prop46
 90
       50
102
RTVSPost2010PropOp46
 70
     1
102
RTVSPost2010Prop47
 90
       50
102
RTVSPost2010PropOp47
 70
     1
102
RTVSPost2010Prop48
 90
       50
102
RTVSPost2010PropOp48
 70
     1
102
RTVSPost2010Prop49
280
     0
102
RTVSPost2010PropOp49
 70
     1
102
RTVSPost2010Prop50
 90
       50
102
RTVSPost2010PropOp50
 70
     1
102
RTVSPost2010Prop51ColorIndex
 90
      256
102
RTVSPost2010Prop51ColorRGB
 90
-16777216
102
RTVSPost2010PropOp51
 70
     0
102
RTVSPost2010Prop52
140
1.0
102
RTVSPost2010PropOp52
 70
     0
102
RTVSPost2010Prop53
 90
        2
102
RTVSPost2010PropOp53
 70
     1
102
RTVSPost2010Prop54
  1
strokes_ogs.tif
102
RTVSPost2010PropOp54
 70
     1
102
RTVSPost2010Prop55
280
     0
102
RTVSPost2010PropOp55
 70
     1
102
RTVSPost2010Prop56
140
1.0
102
RTVSPost2010PropOp56
 70
     1
102
RTVSPost2010Prop57
140
1.0
102
RTVSPost2010PropOp57
 70
     1
  0
XRECORD
  5
1F5
102
{ACAD_REACTORS
330
1F4
102
}
330
1F4
100
AcDbXrecord
280
     1
102
RTVSPropertyOp0
 70
     1
102
RTVSPropertyOp1
 70
     1
102
RTVSPropertyOp2
 70
     1
102
RTVSPropertyOp3
 70
     1
102
RTVSPropertyOp4
 70
     1
102
RTVSPropertyOp5
 70
     1
102
RTVSPropertyOp6
 70
     1
102
RTVSPropertyOp7
 70
     1
102
RTVSPropertyOp8
 70
     1
102
RTVSPropertyOp9
 70
     1
102
RTVSPropertyOp10
 70
     1
102
RTVSPropertyOp11
 70
     1
102
RTVSPropertyOp12
 70
     1
102
RTVSPropertyOp13
 70
     1
102
RTVSPropertyOp14
 70
     1
102
RTVSPropertyOp15
 70
     1
102
RTVSPropertyOp16
 70
     1
102
RTVSPropertyOp17
 70
     1
102
RTVSPropertyOp18
 70
     1
102
RTVSPropertyOp19
 70
     1
102
RTVSPropertyOp20
 70
     1
102
RTVSPropertyOp21
 70
     1
102
RTVSPropertyOp22
 70
     1
102
RTVSPropertyOp23
 70
     1
102
RTVSPropertyOp24
 70
     1
102
RTVSPropertyOp25
 70
     1
102
RTVSPropertyOp26
 70
     1
102
RTVSPropertyOp27
 70
     1
102
RTVSPropertyOp28
 70
     1
102
RTVSPropertyOp29
 70
     1
102
RTVSPropertyOp30
 70
     1
102
RTVSPropertyOp31
 70
     1
102
RTVSPropertyOp32
 70
     1
102
RTVSPropertyOp33
 70
     1
102
RTVSPropertyOp34
 70
     1
102
RTVSPropertyOp35
 70
     1
102
RTVSPropertyOp36
 70
     1
102
RTVSPropertyOp37
 70
     1
102
RTVSPropertyOp38
 70
     1
102
RTVSPropertyOp39
 70
     1
102
RTVSPropertyOp40
 70
     1
102
RTVSPropertyOp41
 70
     1
102
RTVSPropertyOp42
 70
     1
102
RTVSPropertyOp43
 70
     1
102
RTVSPropertyOp44
 70
     1
102
RTVSPropertyOp45
 70
     1
102
RTVSPropertyOp46
 70
     1
102
RTVSPropertyOp47
 70
     1
102
RTVSPropertyOp48
 70
     1
102
RTVSPropertyOp49
 70
     1
102
RTVSPropertyOp50
 70
     1
102
RTVSPropertyOp51
 70
     0
102
RTVSPropertyOp52
 70
     0
102
RTVSPropertyOp53
 70
     1
102
RTVSPropertyOp54
 70
     1
102
RTVSPropertyOp55
 70
     1
102
RTVSPropertyOp56
 70
     1
102
RTVSPropertyOp57
 70
     1
102
RTVSPost2010Prop28
280
     0
102
RTVSPost2010PropOp28
 70
     1
102
RTVSPost2010Prop29
280
     1
102
RTVSPost2010PropOp29
 70
     1
102
RTVSPost2010Prop30
280
     1
102
RTVSPost2010PropOp30
 70
     1
102
RTVSPost2010Prop31
280
     0
102
RTVSPost2010PropOp31
 70
     1
102
RTVSPost2010Prop32
280
     0
102
RTVSPost2010PropOp32
 70
     1
102
RTVSPost2010Prop33
280
     0
102
RTVSPost2010PropOp33
 70
     1
102
RTVSPost2010Prop34
280
     0
102
RTVSPost2010PropOp34
 70
     1
102
RTVSPost2010Prop35
280
     0
102
RTVSPost2010PropOp35
 70
     1
102
RTVSPost2010Prop36
280
     0
102
RTVSPost2010PropOp36
 70
     1
102
RTVSPost2010Prop37
 90
       50
102
RTVSPost2010PropOp37
 70
     1
102
RTVSPost2010Prop38
140
0.0
102
RTVSPost2010PropOp38
 70
     1
102
RTVSPost2010Prop39
140
1.0
102
RTVSPost2010PropOp39
 70
     1
102
RTVSPost2010Prop40
 90
        0
102
RTVSPost2010PropOp40
 70
     1
102
RTVSPost2010Prop41ColorIndex
 90
       18
102
RTVSPost2010Prop41ColorRGB
 90
        0
102
RTVSPost2010PropOp41
 70
     1
102
RTVSPost2010Prop42
 90
       50
102
RTVSPost2010PropOp42
 70
     1
102
RTVSPost2010Prop43
 90
        3
102
RTVSPost2010PropOp43
 70
     1
102
RTVSPost2010Prop44ColorIndex
 90
        5
102
RTVSPost2010Prop44ColorRGB
 90
      255
102
RTVSPost2010PropOp44
 70
     1
102
RTVSPost2010Prop45
280
     0
102
RTVSPost2010PropOp45
 70
     1
102
RTVSPost2010Prop46
 90
       50
102
RTVSPost2010PropOp46
 70
     1
102
RTVSPost2010Prop47
 90
       50
102
RTVSPost2010PropOp47
 70
     1
102
RTVSPost2010Prop48
 90
       50
102
RTVSPost2010PropOp48
 70
     1
102
RTVSPost2010Prop49
280
     0
102
RTVSPost2010PropOp49
 70
     1
102
RTVSPost2010Prop50
 90
       50
102
RTVSPost2010PropOp50
 70
     1
102
RTVSPost2010Prop51ColorIndex
 90
      256
102
RTVSPost2010Prop51ColorRGB
 90
-16777216
102
RTVSPost2010PropOp51
 70
     0
102
RTVSPost2010Prop52
140
1.0
102
RTVSPost2010PropOp52
 70
     0
102
RTVSPost2010Prop53
 90
        2
102
RTVSPost2010PropOp53
 70
     1
102
RTVSPost2010Prop54
  1
strokes_ogs.tif
102
RTVSPost2010PropOp54
 70
     1
102
RTVSPost2010Prop55
280
     0
102
RTVSPost2010PropOp55
 70
     1
102
RTVSPost2010Prop56
140
1.0
102
RTVSPost2010PropOp56
 70
     1
102
RTVSPost2010Prop57
140
1.0
102
RTVSPost2010PropOp57
 70
     1
  0
XRECORD
  5
1FD
102
{ACAD_REACTORS
330
1FC
102
}
330
1FC
100
AcDbXrecord
280
     1
102
RTVSPropertyOp0
 70
     1
102
RTVSPropertyOp1
 70
     1
102
RTVSPropertyOp2
 70
     1
102
RTVSPropertyOp3
 70
     1
102
RTVSPropertyOp4
 70
     1
102
RTVSPropertyOp5
 70
     1
102
RTVSPropertyOp6
 70
     1
102
RTVSPropertyOp7
 70
     1
102
RTVSPropertyOp8
 70
     1
102
RTVSPropertyOp9
 70
     1
102
RTVSPropertyOp10
 70
     1
102
RTVSPropertyOp11
 70
     1
102
RTVSPropertyOp12
 70
     1
102
RTVSPropertyOp13
 70
     1
102
RTVSPropertyOp14
 70
     1
102
RTVSPropertyOp15
 70
     1
102
RTVSPropertyOp16
 70
     1
102
RTVSPropertyOp17
 70
     1
102
RTVSPropertyOp18
 70
     1
102
RTVSPropertyOp19
 70
     1
102
RTVSPropertyOp20
 70
     1
102
RTVSPropertyOp21
 70
     1
102
RTVSPropertyOp22
 70
     1
102
RTVSPropertyOp23
 70
     1
102
RTVSPropertyOp24
 70
     1
102
RTVSPropertyOp25
 70
     1
102
RTVSPropertyOp26
 70
     1
102
RTVSPropertyOp27
 70
     1
102
RTVSPropertyOp28
 70
     1
102
RTVSPropertyOp29
 70
     1
102
RTVSPropertyOp30
 70
     1
102
RTVSPropertyOp31
 70
     1
102
RTVSPropertyOp32
 70
     1
102
RTVSPropertyOp33
 70
     1
102
RTVSPropertyOp34
 70
     1
102
RTVSPropertyOp35
 70
     1
102
RTVSPropertyOp36
 70
     1
102
RTVSPropertyOp37
 70
     1
102
RTVSPropertyOp38
 70
     1
102
RTVSPropertyOp39
 70
     1
102
RTVSPropertyOp40
 70
     1
102
RTVSPropertyOp41
 70
     1
102
RTVSPropertyOp42
 70
     1
102
RTVSPropertyOp43
 70
     1
102
RTVSPropertyOp44
 70
     1
102
RTVSPropertyOp45
 70
     1
102
RTVSPropertyOp46
 70
     1
102
RTVSPropertyOp47
 70
     1
102
RTVSPropertyOp48
 70
     1
102
RTVSPropertyOp49
 70
     1
102
RTVSPropertyOp50
 70
     1
102
RTVSPropertyOp51
 70
     0
102
RTVSPropertyOp52
 70
     0
102
RTVSPropertyOp53
 70
     1
102
RTVSPropertyOp54
 70
     1
102
RTVSPropertyOp55
 70
     1
102
RTVSPropertyOp56
 70
     1
102
RTVSPropertyOp57
 70
     1
102
RTVSPost2010Prop28
280
     0
102
RTVSPost2010PropOp28
 70
     1
102
RTVSPost2010Prop29
280
     1
102
RTVSPost2010PropOp29
 70
     1
102
RTVSPost2010Prop30
280
     1
102
RTVSPost2010PropOp30
 70
     1
102
RTVSPost2010Prop31
280
     0
102
RTVSPost2010PropOp31
 70
     1
102
RTVSPost2010Prop32
280
     0
102
RTVSPost2010PropOp32
 70
     1
102
RTVSPost2010Prop33
280
     0
102
RTVSPost2010PropOp33
 70
     1
102
RTVSPost2010Prop34
280
     0
102
RTVSPost2010PropOp34
 70
     1
102
RTVSPost2010Prop35
280
     0
102
RTVSPost2010PropOp35
 70
     1
102
RTVSPost2010Prop36
280
     0
102
RTVSPost2010PropOp36
 70
     1
102
RTVSPost2010Prop37
 90
       50
102
RTVSPost2010PropOp37
 70
     1
102
RTVSPost2010Prop38
140
0.0
102
RTVSPost2010PropOp38
 70
     1
102
RTVSPost2010Prop39
140
1.0
102
RTVSPost2010PropOp39
 70
     1
102
RTVSPost2010Prop40
 90
        0
102
RTVSPost2010PropOp40
 70
     1
102
RTVSPost2010Prop41ColorIndex
 90
       18
102
RTVSPost2010Prop41ColorRGB
 90
        0
102
RTVSPost2010PropOp41
 70
     1
102
RTVSPost2010Prop42
 90
       50
102
RTVSPost2010PropOp42
 70
     1
102
RTVSPost2010Prop43
 90
        3
102
RTVSPost2010PropOp43
 70
     1
102
RTVSPost2010Prop44ColorIndex
 90
        5
102
RTVSPost2010Prop44ColorRGB
 90
      255
102
RTVSPost2010PropOp44
 70
     1
102
RTVSPost2010Prop45
280
     0
102
RTVSPost2010PropOp45
 70
     1
102
RTVSPost2010Prop46
 90
       50
102
RTVSPost2010PropOp46
 70
     1
102
RTVSPost2010Prop47
 90
       50
102
RTVSPost2010PropOp47
 70
     1
102
RTVSPost2010Prop48
 90
       50
102
RTVSPost2010PropOp48
 70
     1
102
RTVSPost2010Prop49
280
     0
102
RTVSPost2010PropOp49
 70
     1
102
RTVSPost2010Prop50
 90
       50
102
RTVSPost2010PropOp50
 70
     1
102
RTVSPost2010Prop51ColorIndex
 90
      256
102
RTVSPost2010Prop51ColorRGB
 90
-16777216
102
RTVSPost2010PropOp51
 70
     0
102
RTVSPost2010Prop52
140
1.0
102
RTVSPost2010PropOp52
 70
     0
102
RTVSPost2010Prop53
 90
        2
102
RTVSPost2010PropOp53
 70
     1
102
RTVSPost2010Prop54
  1
strokes_ogs.tif
102
RTVSPost2010PropOp54
 70
     1
102
RTVSPost2010Prop55
280
     0
102
RTVSPost2010PropOp55
 70
     1
102
RTVSPost2010Prop56
140
1.0
102
RTVSPost2010PropOp56
 70
     1
102
RTVSPost2010Prop57
140
1.0
102
RTVSPost2010PropOp57
 70
     1
  0
XRECORD
  5
205
102
{ACAD_REACTORS
330
204
102
}
330
204
100
AcDbXrecord
280
     1
102
RTVSPropertyOp0
 70
     1
102
RTVSPropertyOp1
 70
     1
102
RTVSPropertyOp2
 70
     1
102
RTVSPropertyOp3
 70
     1
102
RTVSPropertyOp4
 70
     1
102
RTVSPropertyOp5
 70
     1
102
RTVSPropertyOp6
 70
     1
102
RTVSPropertyOp7
 70
     1
102
RTVSPropertyOp8
 70
     1
102
RTVSPropertyOp9
 70
     1
102
RTVSPropertyOp10
 70
     1
102
RTVSPropertyOp11
 70
     1
102
RTVSPropertyOp12
 70
     1
102
RTVSPropertyOp13
 70
     1
102
RTVSPropertyOp14
 70
     1
102
RTVSPropertyOp15
 70
     1
102
RTVSPropertyOp16
 70
     1
102
RTVSPropertyOp17
 70
     1
102
RTVSPropertyOp18
 70
     1
102
RTVSPropertyOp19
 70
     1
102
RTVSPropertyOp20
 70
     1
102
RTVSPropertyOp21
 70
     1
102
RTVSPropertyOp22
 70
     1
102
RTVSPropertyOp23
 70
     1
102
RTVSPropertyOp24
 70
     1
102
RTVSPropertyOp25
 70
     1
102
RTVSPropertyOp26
 70
     1
102
RTVSPropertyOp27
 70
     1
102
RTVSPropertyOp28
 70
     1
102
RTVSPropertyOp29
 70
     1
102
RTVSPropertyOp30
 70
     1
102
RTVSPropertyOp31
 70
     1
102
RTVSPropertyOp32
 70
     1
102
RTVSPropertyOp33
 70
     1
102
RTVSPropertyOp34
 70
     1
102
RTVSPropertyOp35
 70
     1
102
RTVSPropertyOp36
 70
     1
102
RTVSPropertyOp37
 70
     1
102
RTVSPropertyOp38
 70
     1
102
RTVSPropertyOp39
 70
     1
102
RTVSPropertyOp40
 70
     1
102
RTVSPropertyOp41
 70
     1
102
RTVSPropertyOp42
 70
     1
102
RTVSPropertyOp43
 70
     1
102
RTVSPropertyOp44
 70
     1
102
RTVSPropertyOp45
 70
     1
102
RTVSPropertyOp46
 70
     1
102
RTVSPropertyOp47
 70
     1
102
RTVSPropertyOp48
 70
     1
102
RTVSPropertyOp49
 70
     1
102
RTVSPropertyOp50
 70
     1
102
RTVSPropertyOp51
 70
     0
102
RTVSPropertyOp52
 70
     0
102
RTVSPropertyOp53
 70
     1
102
RTVSPropertyOp54
 70
     1
102
RTVSPropertyOp55
 70
     1
102
RTVSPropertyOp56
 70
     1
102
RTVSPropertyOp57
 70
     1
102
RTVSPost2010Prop28
280
     0
102
RTVSPost2010PropOp28
 70
     1
102
RTVSPost2010Prop29
280
     1
102
RTVSPost2010PropOp29
 70
     1
102
RTVSPost2010Prop30
280
     1
102
RTVSPost2010PropOp30
 70
     1
102
RTVSPost2010Prop31
280
     0
102
RTVSPost2010PropOp31
 70
     1
102
RTVSPost2010Prop32
280
     0
102
RTVSPost2010PropOp32
 70
     1
102
RTVSPost2010Prop33
280
     0
102
RTVSPost2010PropOp33
 70
     1
102
RTVSPost2010Prop34
280
     0
102
RTVSPost2010PropOp34
 70
     1
102
RTVSPost2010Prop35
280
     0
102
RTVSPost2010PropOp35
 70
     1
102
RTVSPost2010Prop36
280
     0
102
RTVSPost2010PropOp36
 70
     1
102
RTVSPost2010Prop37
 90
       50
102
RTVSPost2010PropOp37
 70
     1
102
RTVSPost2010Prop38
140
0.0
102
RTVSPost2010PropOp38
 70
     1
102
RTVSPost2010Prop39
140
1.0
102
RTVSPost2010PropOp39
 70
     1
102
RTVSPost2010Prop40
 90
        0
102
RTVSPost2010PropOp40
 70
     1
102
RTVSPost2010Prop41ColorIndex
 90
       18
102
RTVSPost2010Prop41ColorRGB
 90
        0
102
RTVSPost2010PropOp41
 70
     1
102
RTVSPost2010Prop42
 90
       50
102
RTVSPost2010PropOp42
 70
     1
102
RTVSPost2010Prop43
 90
        3
102
RTVSPost2010PropOp43
 70
     1
102
RTVSPost2010Prop44ColorIndex
 90
        5
102
RTVSPost2010Prop44ColorRGB
 90
      255
102
RTVSPost2010PropOp44
 70
     1
102
RTVSPost2010Prop45
280
     0
102
RTVSPost2010PropOp45
 70
     1
102
RTVSPost2010Prop46
 90
       50
102
RTVSPost2010PropOp46
 70
     1
102
RTVSPost2010Prop47
 90
       50
102
RTVSPost2010PropOp47
 70
     1
102
RTVSPost2010Prop48
 90
       50
102
RTVSPost2010PropOp48
 70
     1
102
RTVSPost2010Prop49
280
     0
102
RTVSPost2010PropOp49
 70
     1
102
RTVSPost2010Prop50
 90
       50
102
RTVSPost2010PropOp50
 70
     1
102
RTVSPost2010Prop51ColorIndex
 90
      256
102
RTVSPost2010Prop51ColorRGB
 90
-16777216
102
RTVSPost2010PropOp51
 70
     0
102
RTVSPost2010Prop52
140
1.0
102
RTVSPost2010PropOp52
 70
     0
102
RTVSPost2010Prop53
 90
        2
102
RTVSPost2010PropOp53
 70
     1
102
RTVSPost2010Prop54
  1
strokes_ogs.tif
102
RTVSPost2010PropOp54
 70
     1
102
RTVSPost2010Prop55
280
     0
102
RTVSPost2010PropOp55
 70
     1
102
RTVSPost2010Prop56
140
1.0
102
RTVSPost2010PropOp56
 70
     1
102
RTVSPost2010Prop57
140
1.0
102
RTVSPost2010PropOp57
 70
     1
  0
XRECORD
  5
1F9
102
{ACAD_REACTORS
330
1F8
102
}
330
1F8
100
AcDbXrecord
280
     1
102
RTVSPropertyOp0
 70
     1
102
RTVSPropertyOp1
 70
     1
102
RTVSPropertyOp2
 70
     1
102
RTVSPropertyOp3
 70
     1
102
RTVSPropertyOp4
 70
     1
102
RTVSPropertyOp5
 70
     1
102
RTVSPropertyOp6
 70
     1
102
RTVSPropertyOp7
 70
     1
102
RTVSPropertyOp8
 70
     1
102
RTVSPropertyOp9
 70
     1
102
RTVSPropertyOp10
 70
     1
102
RTVSPropertyOp11
 70
     1
102
RTVSPropertyOp12
 70
     1
102
RTVSPropertyOp13
 70
     1
102
RTVSPropertyOp14
 70
     1
102
RTVSPropertyOp15
 70
     1
102
RTVSPropertyOp16
 70
     1
102
RTVSPropertyOp17
 70
     1
102
RTVSPropertyOp18
 70
     1
102
RTVSPropertyOp19
 70
     1
102
RTVSPropertyOp20
 70
     1
102
RTVSPropertyOp21
 70
     1
102
RTVSPropertyOp22
 70
     1
102
RTVSPropertyOp23
 70
     1
102
RTVSPropertyOp24
 70
     1
102
RTVSPropertyOp25
 70
     1
102
RTVSPropertyOp26
 70
     1
102
RTVSPropertyOp27
 70
     1
102
RTVSPropertyOp28
 70
     1
102
RTVSPropertyOp29
 70
     1
102
RTVSPropertyOp30
 70
     1
102
RTVSPropertyOp31
 70
     1
102
RTVSPropertyOp32
 70
     1
102
RTVSPropertyOp33
 70
     1
102
RTVSPropertyOp34
 70
     1
102
RTVSPropertyOp35
 70
     1
102
RTVSPropertyOp36
 70
     1
102
RTVSPropertyOp37
 70
     1
102
RTVSPropertyOp38
 70
     1
102
RTVSPropertyOp39
 70
     1
102
RTVSPropertyOp40
 70
     1
102
RTVSPropertyOp41
 70
     1
102
RTVSPropertyOp42
 70
     1
102
RTVSPropertyOp43
 70
     1
102
RTVSPropertyOp44
 70
     1
102
RTVSPropertyOp45
 70
     1
102
RTVSPropertyOp46
 70
     1
102
RTVSPropertyOp47
 70
     1
102
RTVSPropertyOp48
 70
     1
102
RTVSPropertyOp49
 70
     1
102
RTVSPropertyOp50
 70
     1
102
RTVSPropertyOp51
 70
     0
102
RTVSPropertyOp52
 70
     0
102
RTVSPropertyOp53
 70
     1
102
RTVSPropertyOp54
 70
     1
102
RTVSPropertyOp55
 70
     1
102
RTVSPropertyOp56
 70
     1
102
RTVSPropertyOp57
 70
     1
102
RTVSPost2010Prop28
280
     0
102
RTVSPost2010PropOp28
 70
     1
102
RTVSPost2010Prop29
280
     1
102
RTVSPost2010PropOp29
 70
     1
102
RTVSPost2010Prop30
280
     1
102
RTVSPost2010PropOp30
 70
     1
102
RTVSPost2010Prop31
280
     0
102
RTVSPost2010PropOp31
 70
     1
102
RTVSPost2010Prop32
280
     0
102
RTVSPost2010PropOp32
 70
     1
102
RTVSPost2010Prop33
280
     0
102
RTVSPost2010PropOp33
 70
     1
102
RTVSPost2010Prop34
280
     0
102
RTVSPost2010PropOp34
 70
     1
102
RTVSPost2010Prop35
280
     0
102
RTVSPost2010PropOp35
 70
     1
102
RTVSPost2010Prop36
280
     0
102
RTVSPost2010PropOp36
 70
     1
102
RTVSPost2010Prop37
 90
       50
102
RTVSPost2010PropOp37
 70
     1
102
RTVSPost2010Prop38
140
0.0
102
RTVSPost2010PropOp38
 70
     1
102
RTVSPost2010Prop39
140
1.0
102
RTVSPost2010PropOp39
 70
     1
102
RTVSPost2010Prop40
 90
        0
102
RTVSPost2010PropOp40
 70
     1
102
RTVSPost2010Prop41ColorIndex
 90
       18
102
RTVSPost2010Prop41ColorRGB
 90
        0
102
RTVSPost2010PropOp41
 70
     1
102
RTVSPost2010Prop42
 90
       50
102
RTVSPost2010PropOp42
 70
     1
102
RTVSPost2010Prop43
 90
        3
102
RTVSPost2010PropOp43
 70
     1
102
RTVSPost2010Prop44ColorIndex
 90
        5
102
RTVSPost2010Prop44ColorRGB
 90
      255
102
RTVSPost2010PropOp44
 70
     1
102
RTVSPost2010Prop45
280
     0
102
RTVSPost2010PropOp45
 70
     1
102
RTVSPost2010Prop46
 90
       50
102
RTVSPost2010PropOp46
 70
     1
102
RTVSPost2010Prop47
 90
       50
102
RTVSPost2010PropOp47
 70
     1
102
RTVSPost2010Prop48
 90
       50
102
RTVSPost2010PropOp48
 70
     1
102
RTVSPost2010Prop49
280
     0
102
RTVSPost2010PropOp49
 70
     1
102
RTVSPost2010Prop50
 90
       50
102
RTVSPost2010PropOp50
 70
     1
102
RTVSPost2010Prop51ColorIndex
 90
      256
102
RTVSPost2010Prop51ColorRGB
 90
-16777216
102
RTVSPost2010PropOp51
 70
     0
102
RTVSPost2010Prop52
140
1.0
102
RTVSPost2010PropOp52
 70
     0
102
RTVSPost2010Prop53
 90
        2
102
RTVSPost2010PropOp53
 70
     1
102
RTVSPost2010Prop54
  1
strokes_ogs.tif
102
RTVSPost2010PropOp54
 70
     1
102
RTVSPost2010Prop55
280
     0
102
RTVSPost2010PropOp55
 70
     1
102
RTVSPost2010Prop56
140
1.0
102
RTVSPost2010PropOp56
 70
     1
102
RTVSPost2010Prop57
140
1.0
102
RTVSPost2010PropOp57
 70
     1
  0
XRECORD
  5
1FB
102
{ACAD_REACTORS
330
1FA
102
}
330
1FA
100
AcDbXrecord
280
     1
102
RTVSPropertyOp0
 70
     1
102
RTVSPropertyOp1
 70
     1
102
RTVSPropertyOp2
 70
     1
102
RTVSPropertyOp3
 70
     1
102
RTVSPropertyOp4
 70
     1
102
RTVSPropertyOp5
 70
     1
102
RTVSPropertyOp6
 70
     1
102
RTVSPropertyOp7
 70
     1
102
RTVSPropertyOp8
 70
     1
102
RTVSPropertyOp9
 70
     1
102
RTVSPropertyOp10
 70
     1
102
RTVSPropertyOp11
 70
     1
102
RTVSPropertyOp12
 70
     1
102
RTVSPropertyOp13
 70
     1
102
RTVSPropertyOp14
 70
     1
102
RTVSPropertyOp15
 70
     1
102
RTVSPropertyOp16
 70
     1
102
RTVSPropertyOp17
 70
     1
102
RTVSPropertyOp18
 70
     1
102
RTVSPropertyOp19
 70
     1
102
RTVSPropertyOp20
 70
     1
102
RTVSPropertyOp21
 70
     1
102
RTVSPropertyOp22
 70
     1
102
RTVSPropertyOp23
 70
     1
102
RTVSPropertyOp24
 70
     1
102
RTVSPropertyOp25
 70
     1
102
RTVSPropertyOp26
 70
     1
102
RTVSPropertyOp27
 70
     1
102
RTVSPropertyOp28
 70
     1
102
RTVSPropertyOp29
 70
     1
102
RTVSPropertyOp30
 70
     1
102
RTVSPropertyOp31
 70
     1
102
RTVSPropertyOp32
 70
     1
102
RTVSPropertyOp33
 70
     1
102
RTVSPropertyOp34
 70
     1
102
RTVSPropertyOp35
 70
     1
102
RTVSPropertyOp36
 70
     1
102
RTVSPropertyOp37
 70
     1
102
RTVSPropertyOp38
 70
     1
102
RTVSPropertyOp39
 70
     1
102
RTVSPropertyOp40
 70
     1
102
RTVSPropertyOp41
 70
     1
102
RTVSPropertyOp42
 70
     1
102
RTVSPropertyOp43
 70
     1
102
RTVSPropertyOp44
 70
     1
102
RTVSPropertyOp45
 70
     1
102
RTVSPropertyOp46
 70
     1
102
RTVSPropertyOp47
 70
     1
102
RTVSPropertyOp48
 70
     1
102
RTVSPropertyOp49
 70
     1
102
RTVSPropertyOp50
 70
     1
102
RTVSPropertyOp51
 70
     0
102
RTVSPropertyOp52
 70
     0
102
RTVSPropertyOp53
 70
     1
102
RTVSPropertyOp54
 70
     1
102
RTVSPropertyOp55
 70
     1
102
RTVSPropertyOp56
 70
     1
102
RTVSPropertyOp57
 70
     1
102
RTVSPost2010Prop28
280
     0
102
RTVSPost2010PropOp28
 70
     1
102
RTVSPost2010Prop29
280
     1
102
RTVSPost2010PropOp29
 70
     1
102
RTVSPost2010Prop30
280
     1
102
RTVSPost2010PropOp30
 70
     1
102
RTVSPost2010Prop31
280
     0
102
RTVSPost2010PropOp31
 70
     1
102
RTVSPost2010Prop32
280
     0
102
RTVSPost2010PropOp32
 70
     1
102
RTVSPost2010Prop33
280
     0
102
RTVSPost2010PropOp33
 70
     1
102
RTVSPost2010Prop34
280
     0
102
RTVSPost2010PropOp34
 70
     1
102
RTVSPost2010Prop35
280
     0
102
RTVSPost2010PropOp35
 70
     1
102
RTVSPost2010Prop36
280
     0
102
RTVSPost2010PropOp36
 70
     1
102
RTVSPost2010Prop37
 90
       50
102
RTVSPost2010PropOp37
 70
     1
102
RTVSPost2010Prop38
140
0.0
102
RTVSPost2010PropOp38
 70
     1
102
RTVSPost2010Prop39
140
1.0
102
RTVSPost2010PropOp39
 70
     1
102
RTVSPost2010Prop40
 90
        0
102
RTVSPost2010PropOp40
 70
     1
102
RTVSPost2010Prop41ColorIndex
 90
       18
102
RTVSPost2010Prop41ColorRGB
 90
        0
102
RTVSPost2010PropOp41
 70
     1
102
RTVSPost2010Prop42
 90
       50
102
RTVSPost2010PropOp42
 70
     1
102
RTVSPost2010Prop43
 90
        3
102
RTVSPost2010PropOp43
 70
     1
102
RTVSPost2010Prop44ColorIndex
 90
        5
102
RTVSPost2010Prop44ColorRGB
 90
      255
102
RTVSPost2010PropOp44
 70
     1
102
RTVSPost2010Prop45
280
     0
102
RTVSPost2010PropOp45
 70
     1
102
RTVSPost2010Prop46
 90
       50
102
RTVSPost2010PropOp46
 70
     1
102
RTVSPost2010Prop47
 90
       50
102
RTVSPost2010PropOp47
 70
     1
102
RTVSPost2010Prop48
 90
       50
102
RTVSPost2010PropOp48
 70
     1
102
RTVSPost2010Prop49
280
     0
102
RTVSPost2010PropOp49
 70
     1
102
RTVSPost2010Prop50
 90
       50
102
RTVSPost2010PropOp50
 70
     1
102
RTVSPost2010Prop51ColorIndex
 90
      256
102
RTVSPost2010Prop51ColorRGB
 90
-16777216
102
RTVSPost2010PropOp51
 70
     0
102
RTVSPost2010Prop52
140
1.0
102
RTVSPost2010PropOp52
 70
     0
102
RTVSPost2010Prop53
 90
        2
102
RTVSPost2010PropOp53
 70
     1
102
RTVSPost2010Prop54
  1
strokes_ogs.tif
102
RTVSPost2010PropOp54
 70
     1
102
RTVSPost2010Prop55
280
     0
102
RTVSPost2010PropOp55
 70
     1
102
RTVSPost2010Prop56
140
1.0
102
RTVSPost2010PropOp56
 70
     1
102
RTVSPost2010Prop57
140
1.0
102
RTVSPost2010PropOp57
 70
     1
  0
XRECORD
  5
20B
102
{ACAD_REACTORS
330
20A
102
}
330
20A
100
AcDbXrecord
280
     1
102
RTVSPropertyOp0
 70
     0
102
RTVSPropertyOp1
 70
     0
102
RTVSPropertyOp2
 70
     0
102
RTVSPropertyOp3
 70
     0
102
RTVSPropertyOp4
 70
     0
102
RTVSPropertyOp5
 70
     0
102
RTVSPropertyOp6
 70
     0
102
RTVSPropertyOp7
 70
     0
102
RTVSPropertyOp8
 70
     0
102
RTVSPropertyOp9
 70
     0
102
RTVSPropertyOp10
 70
     0
102
RTVSPropertyOp11
 70
     0
102
RTVSPropertyOp12
 70
     0
102
RTVSPropertyOp13
 70
     0
102
RTVSPropertyOp14
 70
     2
102
RTVSPropertyOp15
 70
     0
102
RTVSPropertyOp16
 70
     0
102
RTVSPropertyOp17
 70
     0
102
RTVSPropertyOp18
 70
     0
102
RTVSPropertyOp19
 70
     0
102
RTVSPropertyOp20
 70
     0
102
RTVSPropertyOp21
 70
     0
102
RTVSPropertyOp22
 70
     0
102
RTVSPropertyOp23
 70
     0
102
RTVSPropertyOp24
 70
     0
102
RTVSPropertyOp25
 70
     0
102
RTVSPropertyOp26
 70
     0
102
RTVSPropertyOp27
 70
     0
102
RTVSPropertyOp28
 70
     0
102
RTVSPropertyOp29
 70
     0
102
RTVSPropertyOp30
 70
     0
102
RTVSPropertyOp31
 70
     0
102
RTVSPropertyOp32
 70
     0
102
RTVSPropertyOp33
 70
     0
102
RTVSPropertyOp34
 70
     0
102
RTVSPropertyOp35
 70
     0
102
RTVSPropertyOp36
 70
     0
102
RTVSPropertyOp37
 70
     0
102
RTVSPropertyOp38
 70
     0
102
RTVSPropertyOp39
 70
     0
102
RTVSPropertyOp40
 70
     0
102
RTVSPropertyOp41
 70
     0
102
RTVSPropertyOp42
 70
     0
102
RTVSPropertyOp43
 70
     0
102
RTVSPropertyOp44
 70
     0
102
RTVSPropertyOp45
 70
     0
102
RTVSPropertyOp46
 70
     0
102
RTVSPropertyOp47
 70
     0
102
RTVSPropertyOp48
 70
     0
102
RTVSPropertyOp49
 70
     0
102
RTVSPropertyOp50
 70
     0
102
RTVSPropertyOp51
 70
     0
102
RTVSPropertyOp52
 70
     0
102
RTVSPropertyOp53
 70
     0
102
RTVSPropertyOp54
 70
     0
102
RTVSPropertyOp55
 70
     0
102
RTVSPropertyOp56
 70
     0
102
RTVSPropertyOp57
 70
     0
102
RTVSPost2010Prop28
280
     0
102
RTVSPost2010PropOp28
 70
     0
102
RTVSPost2010Prop29
280
     1
102
RTVSPost2010PropOp29
 70
     0
102
RTVSPost2010Prop30
280
     1
102
RTVSPost2010PropOp30
 70
     0
102
RTVSPost2010Prop31
280
     0
102
RTVSPost2010PropOp31
 70
     0
102
RTVSPost2010Prop32
280
     0
102
RTVSPost2010PropOp32
 70
     0
102
RTVSPost2010Prop33
280
     0
102
RTVSPost2010PropOp33
 70
     0
102
RTVSPost2010Prop34
280
     0
102
RTVSPost2010PropOp34
 70
     0
102
RTVSPost2010Prop35
280
     0
102
RTVSPost2010PropOp35
 70
     0
102
RTVSPost2010Prop36
280
     0
102
RTVSPost2010PropOp36
 70
     0
102
RTVSPost2010Prop37
 90
       50
102
RTVSPost2010PropOp37
 70
     0
102
RTVSPost2010Prop38
140
0.0
102
RTVSPost2010PropOp38
 70
     0
102
RTVSPost2010Prop39
140
1.0
102
RTVSPost2010PropOp39
 70
     0
102
RTVSPost2010Prop40
 90
        0
102
RTVSPost2010PropOp40
 70
     0
102
RTVSPost2010Prop41ColorIndex
 90
       18
102
RTVSPost2010Prop41ColorRGB
 90
        0
102
RTVSPost2010PropOp41
 70
     0
102
RTVSPost2010Prop42
 90
       50
102
RTVSPost2010PropOp42
 70
     0
102
RTVSPost2010Prop43
 90
        3
102
RTVSPost2010PropOp43
 70
     0
102
RTVSPost2010Prop44ColorIndex
 90
        5
102
RTVSPost2010Prop44ColorRGB
 90
      255
102
RTVSPost2010PropOp44
 70
     0
102
RTVSPost2010Prop45
280
     0
102
RTVSPost2010PropOp45
 70
     0
102
RTVSPost2010Prop46
 90
       50
102
RTVSPost2010PropOp46
 70
     0
102
RTVSPost2010Prop47
 90
       50
102
RTVSPost2010PropOp47
 70
     0
102
RTVSPost2010Prop48
 90
       50
102
RTVSPost2010PropOp48
 70
     0
102
RTVSPost2010Prop49
280
     0
102
RTVSPost2010PropOp49
 70
     0
102
RTVSPost2010Prop50
 90
       50
102
RTVSPost2010PropOp50
 70
     0
102
RTVSPost2010Prop51ColorIndex
 90
      256
102
RTVSPost2010Prop51ColorRGB
 90
-16777216
102
RTVSPost2010PropOp51
 70
     0
102
RTVSPost2010Prop52
140
1.0
102
RTVSPost2010PropOp52
 70
     0
102
RTVSPost2010Prop53
 90
        2
102
RTVSPost2010PropOp53
 70
     0
102
RTVSPost2010Prop54
  1
strokes_ogs.tif
102
RTVSPost2010PropOp54
 70
     0
102
RTVSPost2010Prop55
280
     0
102
RTVSPost2010PropOp55
 70
     0
102
RTVSPost2010Prop56
140
1.0
102
RTVSPost2010PropOp56
 70
     0
102
RTVSPost2010Prop57
140
1.0
102
RTVSPost2010PropOp57
 70
     0
  0
XRECORD
  5
203
102
{ACAD_REACTORS
330
202
102
}
330
202
100
AcDbXrecord
280
     1
102
RTVSPropertyOp0
 70
     1
102
RTVSPropertyOp1
 70
     1
102
RTVSPropertyOp2
 70
     1
102
RTVSPropertyOp3
 70
     1
102
RTVSPropertyOp4
 70
     1
102
RTVSPropertyOp5
 70
     1
102
RTVSPropertyOp6
 70
     1
102
RTVSPropertyOp7
 70
     1
102
RTVSPropertyOp8
 70
     1
102
RTVSPropertyOp9
 70
     1
102
RTVSPropertyOp10
 70
     1
102
RTVSPropertyOp11
 70
     1
102
RTVSPropertyOp12
 70
     1
102
RTVSPropertyOp13
 70
     1
102
RTVSPropertyOp14
 70
     1
102
RTVSPropertyOp15
 70
     1
102
RTVSPropertyOp16
 70
     1
102
RTVSPropertyOp17
 70
     1
102
RTVSPropertyOp18
 70
     1
102
RTVSPropertyOp19
 70
     1
102
RTVSPropertyOp20
 70
     1
102
RTVSPropertyOp21
 70
     1
102
RTVSPropertyOp22
 70
     1
102
RTVSPropertyOp23
 70
     1
102
RTVSPropertyOp24
 70
     1
102
RTVSPropertyOp25
 70
     1
102
RTVSPropertyOp26
 70
     1
102
RTVSPropertyOp27
 70
     1
102
RTVSPropertyOp28
 70
     1
102
RTVSPropertyOp29
 70
     1
102
RTVSPropertyOp30
 70
     1
102
RTVSPropertyOp31
 70
     1
102
RTVSPropertyOp32
 70
     1
102
RTVSPropertyOp33
 70
     1
102
RTVSPropertyOp34
 70
     1
102
RTVSPropertyOp35
 70
     1
102
RTVSPropertyOp36
 70
     1
102
RTVSPropertyOp37
 70
     1
102
RTVSPropertyOp38
 70
     1
102
RTVSPropertyOp39
 70
     1
102
RTVSPropertyOp40
 70
     1
102
RTVSPropertyOp41
 70
     1
102
RTVSPropertyOp42
 70
     1
102
RTVSPropertyOp43
 70
     1
102
RTVSPropertyOp44
 70
     1
102
RTVSPropertyOp45
 70
     1
102
RTVSPropertyOp46
 70
     1
102
RTVSPropertyOp47
 70
     1
102
RTVSPropertyOp48
 70
     1
102
RTVSPropertyOp49
 70
     1
102
RTVSPropertyOp50
 70
     1
102
RTVSPropertyOp51
 70
     0
102
RTVSPropertyOp52
 70
     0
102
RTVSPropertyOp53
 70
     1
102
RTVSPropertyOp54
 70
     1
102
RTVSPropertyOp55
 70
     1
102
RTVSPropertyOp56
 70
     1
102
RTVSPropertyOp57
 70
     1
102
RTVSPost2010Prop28
280
     0
102
RTVSPost2010PropOp28
 70
     1
102
RTVSPost2010Prop29
280
     1
102
RTVSPost2010PropOp29
 70
     1
102
RTVSPost2010Prop30
280
     1
102
RTVSPost2010PropOp30
 70
     1
102
RTVSPost2010Prop31
280
     0
102
RTVSPost2010PropOp31
 70
     1
102
RTVSPost2010Prop32
280
     0
102
RTVSPost2010PropOp32
 70
     1
102
RTVSPost2010Prop33
280
     0
102
RTVSPost2010PropOp33
 70
     1
102
RTVSPost2010Prop34
280
     0
102
RTVSPost2010PropOp34
 70
     1
102
RTVSPost2010Prop35
280
     0
102
RTVSPost2010PropOp35
 70
     1
102
RTVSPost2010Prop36
280
     0
102
RTVSPost2010PropOp36
 70
     1
102
RTVSPost2010Prop37
 90
       50
102
RTVSPost2010PropOp37
 70
     1
102
RTVSPost2010Prop38
140
0.0
102
RTVSPost2010PropOp38
 70
     1
102
RTVSPost2010Prop39
140
1.0
102
RTVSPost2010PropOp39
 70
     1
102
RTVSPost2010Prop40
 90
        0
102
RTVSPost2010PropOp40
 70
     1
102
RTVSPost2010Prop41ColorIndex
 90
       18
102
RTVSPost2010Prop41ColorRGB
 90
        0
102
RTVSPost2010PropOp41
 70
     1
102
RTVSPost2010Prop42
 90
       50
102
RTVSPost2010PropOp42
 70
     1
102
RTVSPost2010Prop43
 90
        3
102
RTVSPost2010PropOp43
 70
     1
102
RTVSPost2010Prop44ColorIndex
 90
        5
102
RTVSPost2010Prop44ColorRGB
 90
      255
102
RTVSPost2010PropOp44
 70
     1
102
RTVSPost2010Prop45
280
     0
102
RTVSPost2010PropOp45
 70
     1
102
RTVSPost2010Prop46
 90
       50
102
RTVSPost2010PropOp46
 70
     1
102
RTVSPost2010Prop47
 90
       50
102
RTVSPost2010PropOp47
 70
     1
102
RTVSPost2010Prop48
 90
       50
102
RTVSPost2010PropOp48
 70
     1
102
RTVSPost2010Prop49
280
     0
102
RTVSPost2010PropOp49
 70
     1
102
RTVSPost2010Prop50
 90
       50
102
RTVSPost2010PropOp50
 70
     1
102
RTVSPost2010Prop51ColorIndex
 90
      256
102
RTVSPost2010Prop51ColorRGB
 90
-16777216
102
RTVSPost2010PropOp51
 70
     0
102
RTVSPost2010Prop52
140
1.0
102
RTVSPost2010PropOp52
 70
     0
102
RTVSPost2010Prop53
 90
        2
102
RTVSPost2010PropOp53
 70
     1
102
RTVSPost2010Prop54
  1
strokes_ogs.tif
102
RTVSPost2010PropOp54
 70
     1
102
RTVSPost2010Prop55
280
     0
102
RTVSPost2010PropOp55
 70
     1
102
RTVSPost2010Prop56
140
1.0
102
RTVSPost2010PropOp56
 70
     1
102
RTVSPost2010Prop57
140
1.0
102
RTVSPost2010PropOp57
 70
     1
  0
XRECORD
  5
1E7
102
{ACAD_REACTORS
330
1E6
102
}
330
1E6
100
AcDbXrecord
280
     1
102
RTVSPropertyOp0
 70
     1
102
RTVSPropertyOp1
 70
     1
102
RTVSPropertyOp2
 70
     1
102
RTVSPropertyOp3
 70
     1
102
RTVSPropertyOp4
 70
     1
102
RTVSPropertyOp5
 70
     1
102
RTVSPropertyOp6
 70
     1
102
RTVSPropertyOp7
 70
     1
102
RTVSPropertyOp8
 70
     1
102
RTVSPropertyOp9
 70
     1
102
RTVSPropertyOp10
 70
     1
102
RTVSPropertyOp11
 70
     1
102
RTVSPropertyOp12
 70
     1
102
RTVSPropertyOp13
 70
     1
102
RTVSPropertyOp14
 70
     1
102
RTVSPropertyOp15
 70
     1
102
RTVSPropertyOp16
 70
     1
102
RTVSPropertyOp17
 70
     1
102
RTVSPropertyOp18
 70
     1
102
RTVSPropertyOp19
 70
     1
102
RTVSPropertyOp20
 70
     1
102
RTVSPropertyOp21
 70
     1
102
RTVSPropertyOp22
 70
     1
102
RTVSPropertyOp23
 70
     1
102
RTVSPropertyOp24
 70
     1
102
RTVSPropertyOp25
 70
     1
102
RTVSPropertyOp26
 70
     1
102
RTVSPropertyOp27
 70
     1
102
RTVSPropertyOp28
 70
     1
102
RTVSPropertyOp29
 70
     1
102
RTVSPropertyOp30
 70
     1
102
RTVSPropertyOp31
 70
     1
102
RTVSPropertyOp32
 70
     1
102
RTVSPropertyOp33
 70
     1
102
RTVSPropertyOp34
 70
     1
102
RTVSPropertyOp35
 70
     1
102
RTVSPropertyOp36
 70
     1
102
RTVSPropertyOp37
 70
     1
102
RTVSPropertyOp38
 70
     1
102
RTVSPropertyOp39
 70
     1
102
RTVSPropertyOp40
 70
     1
102
RTVSPropertyOp41
 70
     1
102
RTVSPropertyOp42
 70
     1
102
RTVSPropertyOp43
 70
     1
102
RTVSPropertyOp44
 70
     1
102
RTVSPropertyOp45
 70
     1
102
RTVSPropertyOp46
 70
     1
102
RTVSPropertyOp47
 70
     1
102
RTVSPropertyOp48
 70
     1
102
RTVSPropertyOp49
 70
     1
102
RTVSPropertyOp50
 70
     1
102
RTVSPropertyOp51
 70
     0
102
RTVSPropertyOp52
 70
     0
102
RTVSPropertyOp53
 70
     1
102
RTVSPropertyOp54
 70
     1
102
RTVSPropertyOp55
 70
     1
102
RTVSPropertyOp56
 70
     1
102
RTVSPropertyOp57
 70
     1
102
RTVSPost2010Prop28
280
     0
102
RTVSPost2010PropOp28
 70
     1
102
RTVSPost2010Prop29
280
     1
102
RTVSPost2010PropOp29
 70
     1
102
RTVSPost2010Prop30
280
     1
102
RTVSPost2010PropOp30
 70
     1
102
RTVSPost2010Prop31
280
     0
102
RTVSPost2010PropOp31
 70
     1
102
RTVSPost2010Prop32
280
     0
102
RTVSPost2010PropOp32
 70
     1
102
RTVSPost2010Prop33
280
     0
102
RTVSPost2010PropOp33
 70
     1
102
RTVSPost2010Prop34
280
     0
102
RTVSPost2010PropOp34
 70
     1
102
RTVSPost2010Prop35
280
     0
102
RTVSPost2010PropOp35
 70
     1
102
RTVSPost2010Prop36
280
     0
102
RTVSPost2010PropOp36
 70
     1
102
RTVSPost2010Prop37
 90
       50
102
RTVSPost2010PropOp37
 70
     1
102
RTVSPost2010Prop38
140
0.0
102
RTVSPost2010PropOp38
 70
     1
102
RTVSPost2010Prop39
140
1.0
102
RTVSPost2010PropOp39
 70
     1
102
RTVSPost2010Prop40
 90
        0
102
RTVSPost2010PropOp40
 70
     1
102
RTVSPost2010Prop41ColorIndex
 90
       18
102
RTVSPost2010Prop41ColorRGB
 90
        0
102
RTVSPost2010PropOp41
 70
     1
102
RTVSPost2010Prop42
 90
       50
102
RTVSPost2010PropOp42
 70
     1
102
RTVSPost2010Prop43
 90
        3
102
RTVSPost2010PropOp43
 70
     1
102
RTVSPost2010Prop44ColorIndex
 90
        5
102
RTVSPost2010Prop44ColorRGB
 90
      255
102
RTVSPost2010PropOp44
 70
     1
102
RTVSPost2010Prop45
280
     0
102
RTVSPost2010PropOp45
 70
     1
102
RTVSPost2010Prop46
 90
       50
102
RTVSPost2010PropOp46
 70
     1
102
RTVSPost2010Prop47
 90
       50
102
RTVSPost2010PropOp47
 70
     1
102
RTVSPost2010Prop48
 90
       50
102
RTVSPost2010PropOp48
 70
     1
102
RTVSPost2010Prop49
280
     0
102
RTVSPost2010PropOp49
 70
     1
102
RTVSPost2010Prop50
 90
       50
102
RTVSPost2010PropOp50
 70
     1
102
RTVSPost2010Prop51ColorIndex
 90
      256
102
RTVSPost2010Prop51ColorRGB
 90
-16777216
102
RTVSPost2010PropOp51
 70
     0
102
RTVSPost2010Prop52
140
1.0
102
RTVSPost2010PropOp52
 70
     0
102
RTVSPost2010Prop53
 90
        2
102
RTVSPost2010PropOp53
 70
     1
102
RTVSPost2010Prop54
  1
strokes_ogs.tif
102
RTVSPost2010PropOp54
 70
     1
102
RTVSPost2010Prop55
280
     0
102
RTVSPost2010PropOp55
 70
     1
102
RTVSPost2010Prop56
140
1.0
102
RTVSPost2010PropOp56
 70
     1
102
RTVSPost2010Prop57
140
1.0
102
RTVSPost2010PropOp57
 70
     1
  0
XRECORD
  5
1E9
102
{ACAD_REACTORS
330
1E8
102
}
330
1E8
100
AcDbXrecord
280
     1
102
RTVSPropertyOp0
 70
     1
102
RTVSPropertyOp1
 70
     1
102
RTVSPropertyOp2
 70
     1
102
RTVSPropertyOp3
 70
     1
102
RTVSPropertyOp4
 70
     1
102
RTVSPropertyOp5
 70
     1
102
RTVSPropertyOp6
 70
     1
102
RTVSPropertyOp7
 70
     1
102
RTVSPropertyOp8
 70
     1
102
RTVSPropertyOp9
 70
     1
102
RTVSPropertyOp10
 70
     1
102
RTVSPropertyOp11
 70
     1
102
RTVSPropertyOp12
 70
     1
102
RTVSPropertyOp13
 70
     1
102
RTVSPropertyOp14
 70
     1
102
RTVSPropertyOp15
 70
     1
102
RTVSPropertyOp16
 70
     1
102
RTVSPropertyOp17
 70
     1
102
RTVSPropertyOp18
 70
     1
102
RTVSPropertyOp19
 70
     1
102
RTVSPropertyOp20
 70
     1
102
RTVSPropertyOp21
 70
     1
102
RTVSPropertyOp22
 70
     1
102
RTVSPropertyOp23
 70
     1
102
RTVSPropertyOp24
 70
     1
102
RTVSPropertyOp25
 70
     1
102
RTVSPropertyOp26
 70
     1
102
RTVSPropertyOp27
 70
     1
102
RTVSPropertyOp28
 70
     1
102
RTVSPropertyOp29
 70
     1
102
RTVSPropertyOp30
 70
     1
102
RTVSPropertyOp31
 70
     1
102
RTVSPropertyOp32
 70
     1
102
RTVSPropertyOp33
 70
     1
102
RTVSPropertyOp34
 70
     1
102
RTVSPropertyOp35
 70
     1
102
RTVSPropertyOp36
 70
     1
102
RTVSPropertyOp37
 70
     1
102
RTVSPropertyOp38
 70
     1
102
RTVSPropertyOp39
 70
     1
102
RTVSPropertyOp40
 70
     1
102
RTVSPropertyOp41
 70
     1
102
RTVSPropertyOp42
 70
     1
102
RTVSPropertyOp43
 70
     1
102
RTVSPropertyOp44
 70
     1
102
RTVSPropertyOp45
 70
     1
102
RTVSPropertyOp46
 70
     1
102
RTVSPropertyOp47
 70
     1
102
RTVSPropertyOp48
 70
     1
102
RTVSPropertyOp49
 70
     1
102
RTVSPropertyOp50
 70
     1
102
RTVSPropertyOp51
 70
     0
102
RTVSPropertyOp52
 70
     0
102
RTVSPropertyOp53
 70
     1
102
RTVSPropertyOp54
 70
     1
102
RTVSPropertyOp55
 70
     1
102
RTVSPropertyOp56
 70
     1
102
RTVSPropertyOp57
 70
     1
102
RTVSPost2010Prop28
280
     0
102
RTVSPost2010PropOp28
 70
     1
102
RTVSPost2010Prop29
280
     1
102
RTVSPost2010PropOp29
 70
     1
102
RTVSPost2010Prop30
280
     1
102
RTVSPost2010PropOp30
 70
     1
102
RTVSPost2010Prop31
280
     0
102
RTVSPost2010PropOp31
 70
     1
102
RTVSPost2010Prop32
280
     0
102
RTVSPost2010PropOp32
 70
     1
102
RTVSPost2010Prop33
280
     0
102
RTVSPost2010PropOp33
 70
     1
102
RTVSPost2010Prop34
280
     0
102
RTVSPost2010PropOp34
 70
     1
102
RTVSPost2010Prop35
280
     0
102
RTVSPost2010PropOp35
 70
     1
102
RTVSPost2010Prop36
280
     0
102
RTVSPost2010PropOp36
 70
     1
102
RTVSPost2010Prop37
 90
       50
102
RTVSPost2010PropOp37
 70
     1
102
RTVSPost2010Prop38
140
0.0
102
RTVSPost2010PropOp38
 70
     1
102
RTVSPost2010Prop39
140
1.0
102
RTVSPost2010PropOp39
 70
     1
102
RTVSPost2010Prop40
 90
        0
102
RTVSPost2010PropOp40
 70
     1
102
RTVSPost2010Prop41ColorIndex
 90
       18
102
RTVSPost2010Prop41ColorRGB
 90
        0
102
RTVSPost2010PropOp41
 70
     1
102
RTVSPost2010Prop42
 90
       50
102
RTVSPost2010PropOp42
 70
     1
102
RTVSPost2010Prop43
 90
        3
102
RTVSPost2010PropOp43
 70
     1
102
RTVSPost2010Prop44ColorIndex
 90
        5
102
RTVSPost2010Prop44ColorRGB
 90
      255
102
RTVSPost2010PropOp44
 70
     1
102
RTVSPost2010Prop45
280
     0
102
RTVSPost2010PropOp45
 70
     1
102
RTVSPost2010Prop46
 90
       50
102
RTVSPost2010PropOp46
 70
     1
102
RTVSPost2010Prop47
 90
       50
102
RTVSPost2010PropOp47
 70
     1
102
RTVSPost2010Prop48
 90
       50
102
RTVSPost2010PropOp48
 70
     1
102
RTVSPost2010Prop49
280
     0
102
RTVSPost2010PropOp49
 70
     1
102
RTVSPost2010Prop50
 90
       50
102
RTVSPost2010PropOp50
 70
     1
102
RTVSPost2010Prop51ColorIndex
 90
      256
102
RTVSPost2010Prop51ColorRGB
 90
-16777216
102
RTVSPost2010PropOp51
 70
     0
102
RTVSPost2010Prop52
140
1.0
102
RTVSPost2010PropOp52
 70
     0
102
RTVSPost2010Prop53
 90
        2
102
RTVSPost2010PropOp53
 70
     1
102
RTVSPost2010Prop54
  1
strokes_ogs.tif
102
RTVSPost2010PropOp54
 70
     1
102
RTVSPost2010Prop55
280
     0
102
RTVSPost2010PropOp55
 70
     1
102
RTVSPost2010Prop56
140
1.0
102
RTVSPost2010PropOp56
 70
     1
102
RTVSPost2010Prop57
140
1.0
102
RTVSPost2010PropOp57
 70
     1
  0
XRECORD
  5
1EB
102
{ACAD_REACTORS
330
1EA
102
}
330
1EA
100
AcDbXrecord
280
     1
102
RTVSPropertyOp0
 70
     1
102
RTVSPropertyOp1
 70
     1
102
RTVSPropertyOp2
 70
     1
102
RTVSPropertyOp3
 70
     1
102
RTVSPropertyOp4
 70
     1
102
RTVSPropertyOp5
 70
     1
102
RTVSPropertyOp6
 70
     1
102
RTVSPropertyOp7
 70
     1
102
RTVSPropertyOp8
 70
     1
102
RTVSPropertyOp9
 70
     1
102
RTVSPropertyOp10
 70
     1
102
RTVSPropertyOp11
 70
     1
102
RTVSPropertyOp12
 70
     1
102
RTVSPropertyOp13
 70
     1
102
RTVSPropertyOp14
 70
     1
102
RTVSPropertyOp15
 70
     1
102
RTVSPropertyOp16
 70
     1
102
RTVSPropertyOp17
 70
     1
102
RTVSPropertyOp18
 70
     1
102
RTVSPropertyOp19
 70
     1
102
RTVSPropertyOp20
 70
     1
102
RTVSPropertyOp21
 70
     1
102
RTVSPropertyOp22
 70
     1
102
RTVSPropertyOp23
 70
     1
102
RTVSPropertyOp24
 70
     1
102
RTVSPropertyOp25
 70
     1
102
RTVSPropertyOp26
 70
     1
102
RTVSPropertyOp27
 70
     1
102
RTVSPropertyOp28
 70
     1
102
RTVSPropertyOp29
 70
     1
102
RTVSPropertyOp30
 70
     1
102
RTVSPropertyOp31
 70
     1
102
RTVSPropertyOp32
 70
     1
102
RTVSPropertyOp33
 70
     1
102
RTVSPropertyOp34
 70
     1
102
RTVSPropertyOp35
 70
     1
102
RTVSPropertyOp36
 70
     1
102
RTVSPropertyOp37
 70
     1
102
RTVSPropertyOp38
 70
     1
102
RTVSPropertyOp39
 70
     1
102
RTVSPropertyOp40
 70
     1
102
RTVSPropertyOp41
 70
     1
102
RTVSPropertyOp42
 70
     1
102
RTVSPropertyOp43
 70
     1
102
RTVSPropertyOp44
 70
     1
102
RTVSPropertyOp45
 70
     1
102
RTVSPropertyOp46
 70
     1
102
RTVSPropertyOp47
 70
     1
102
RTVSPropertyOp48
 70
     1
102
RTVSPropertyOp49
 70
     1
102
RTVSPropertyOp50
 70
     1
102
RTVSPropertyOp51
 70
     0
102
RTVSPropertyOp52
 70
     0
102
RTVSPropertyOp53
 70
     1
102
RTVSPropertyOp54
 70
     1
102
RTVSPropertyOp55
 70
     1
102
RTVSPropertyOp56
 70
     1
102
RTVSPropertyOp57
 70
     1
102
RTVSPost2010Prop28
280
     0
102
RTVSPost2010PropOp28
 70
     1
102
RTVSPost2010Prop29
280
     1
102
RTVSPost2010PropOp29
 70
     1
102
RTVSPost2010Prop30
280
     1
102
RTVSPost2010PropOp30
 70
     1
102
RTVSPost2010Prop31
280
     0
102
RTVSPost2010PropOp31
 70
     1
102
RTVSPost2010Prop32
280
     0
102
RTVSPost2010PropOp32
 70
     1
102
RTVSPost2010Prop33
280
     0
102
RTVSPost2010PropOp33
 70
     1
102
RTVSPost2010Prop34
280
     0
102
RTVSPost2010PropOp34
 70
     1
102
RTVSPost2010Prop35
280
     0
102
RTVSPost2010PropOp35
 70
     1
102
RTVSPost2010Prop36
280
     0
102
RTVSPost2010PropOp36
 70
     1
102
RTVSPost2010Prop37
 90
       50
102
RTVSPost2010PropOp37
 70
     1
102
RTVSPost2010Prop38
140
0.0
102
RTVSPost2010PropOp38
 70
     1
102
RTVSPost2010Prop39
140
1.0
102
RTVSPost2010PropOp39
 70
     1
102
RTVSPost2010Prop40
 90
        0
102
RTVSPost2010PropOp40
 70
     1
102
RTVSPost2010Prop41ColorIndex
 90
       18
102
RTVSPost2010Prop41ColorRGB
 90
        0
102
RTVSPost2010PropOp41
 70
     1
102
RTVSPost2010Prop42
 90
       50
102
RTVSPost2010PropOp42
 70
     1
102
RTVSPost2010Prop43
 90
        3
102
RTVSPost2010PropOp43
 70
     1
102
RTVSPost2010Prop44ColorIndex
 90
        5
102
RTVSPost2010Prop44ColorRGB
 90
      255
102
RTVSPost2010PropOp44
 70
     1
102
RTVSPost2010Prop45
280
     0
102
RTVSPost2010PropOp45
 70
     1
102
RTVSPost2010Prop46
 90
       50
102
RTVSPost2010PropOp46
 70
     1
102
RTVSPost2010Prop47
 90
       50
102
RTVSPost2010PropOp47
 70
     1
102
RTVSPost2010Prop48
 90
       50
102
RTVSPost2010PropOp48
 70
     1
102
RTVSPost2010Prop49
280
     0
102
RTVSPost2010PropOp49
 70
     1
102
RTVSPost2010Prop50
 90
       50
102
RTVSPost2010PropOp50
 70
     1
102
RTVSPost2010Prop51ColorIndex
 90
      256
102
RTVSPost2010Prop51ColorRGB
 90
-16777216
102
RTVSPost2010PropOp51
 70
     0
102
RTVSPost2010Prop52
140
1.0
102
RTVSPost2010PropOp52
 70
     0
102
RTVSPost2010Prop53
 90
        2
102
RTVSPost2010PropOp53
 70
     1
102
RTVSPost2010Prop54
  1
strokes_ogs.tif
102
RTVSPost2010PropOp54
 70
     1
102
RTVSPost2010Prop55
280
     0
102
RTVSPost2010PropOp55
 70
     1
102
RTVSPost2010Prop56
140
1.0
102
RTVSPost2010PropOp56
 70
     1
102
RTVSPost2010Prop57
140
1.0
102
RTVSPost2010PropOp57
 70
     1
  0
XRECORD
  5
1ED
102
{ACAD_REACTORS
330
1EC
102
}
330
1EC
100
AcDbXrecord
280
     1
102
RTVSPropertyOp0
 70
     1
102
RTVSPropertyOp1
 70
     1
102
RTVSPropertyOp2
 70
     1
102
RTVSPropertyOp3
 70
     1
102
RTVSPropertyOp4
 70
     1
102
RTVSPropertyOp5
 70
     1
102
RTVSPropertyOp6
 70
     1
102
RTVSPropertyOp7
 70
     1
102
RTVSPropertyOp8
 70
     1
102
RTVSPropertyOp9
 70
     1
102
RTVSPropertyOp10
 70
     1
102
RTVSPropertyOp11
 70
     1
102
RTVSPropertyOp12
 70
     1
102
RTVSPropertyOp13
 70
     1
102
RTVSPropertyOp14
 70
     1
102
RTVSPropertyOp15
 70
     1
102
RTVSPropertyOp16
 70
     1
102
RTVSPropertyOp17
 70
     1
102
RTVSPropertyOp18
 70
     1
102
RTVSPropertyOp19
 70
     1
102
RTVSPropertyOp20
 70
     1
102
RTVSPropertyOp21
 70
     1
102
RTVSPropertyOp22
 70
     1
102
RTVSPropertyOp23
 70
     1
102
RTVSPropertyOp24
 70
     1
102
RTVSPropertyOp25
 70
     1
102
RTVSPropertyOp26
 70
     1
102
RTVSPropertyOp27
 70
     1
102
RTVSPropertyOp28
 70
     1
102
RTVSPropertyOp29
 70
     1
102
RTVSPropertyOp30
 70
     1
102
RTVSPropertyOp31
 70
     1
102
RTVSPropertyOp32
 70
     1
102
RTVSPropertyOp33
 70
     1
102
RTVSPropertyOp34
 70
     1
102
RTVSPropertyOp35
 70
     1
102
RTVSPropertyOp36
 70
     1
102
RTVSPropertyOp37
 70
     1
102
RTVSPropertyOp38
 70
     1
102
RTVSPropertyOp39
 70
     1
102
RTVSPropertyOp40
 70
     1
102
RTVSPropertyOp41
 70
     1
102
RTVSPropertyOp42
 70
     1
102
RTVSPropertyOp43
 70
     1
102
RTVSPropertyOp44
 70
     1
102
RTVSPropertyOp45
 70
     1
102
RTVSPropertyOp46
 70
     1
102
RTVSPropertyOp47
 70
     1
102
RTVSPropertyOp48
 70
     1
102
RTVSPropertyOp49
 70
     1
102
RTVSPropertyOp50
 70
     1
102
RTVSPropertyOp51
 70
     0
102
RTVSPropertyOp52
 70
     0
102
RTVSPropertyOp53
 70
     1
102
RTVSPropertyOp54
 70
     1
102
RTVSPropertyOp55
 70
     1
102
RTVSPropertyOp56
 70
     1
102
RTVSPropertyOp57
 70
     1
102
RTVSPost2010Prop28
280
     0
102
RTVSPost2010PropOp28
 70
     1
102
RTVSPost2010Prop29
280
     1
102
RTVSPost2010PropOp29
 70
     1
102
RTVSPost2010Prop30
280
     1
102
RTVSPost2010PropOp30
 70
     1
102
RTVSPost2010Prop31
280
     0
102
RTVSPost2010PropOp31
 70
     1
102
RTVSPost2010Prop32
280
     0
102
RTVSPost2010PropOp32
 70
     1
102
RTVSPost2010Prop33
280
     0
102
RTVSPost2010PropOp33
 70
     1
102
RTVSPost2010Prop34
280
     0
102
RTVSPost2010PropOp34
 70
     1
102
RTVSPost2010Prop35
280
     0
102
RTVSPost2010PropOp35
 70
     1
102
RTVSPost2010Prop36
280
     0
102
RTVSPost2010PropOp36
 70
     1
102
RTVSPost2010Prop37
 90
       50
102
RTVSPost2010PropOp37
 70
     1
102
RTVSPost2010Prop38
140
0.0
102
RTVSPost2010PropOp38
 70
     1
102
RTVSPost2010Prop39
140
1.0
102
RTVSPost2010PropOp39
 70
     1
102
RTVSPost2010Prop40
 90
        0
102
RTVSPost2010PropOp40
 70
     1
102
RTVSPost2010Prop41ColorIndex
 90
       18
102
RTVSPost2010Prop41ColorRGB
 90
        0
102
RTVSPost2010PropOp41
 70
     1
102
RTVSPost2010Prop42
 90
       50
102
RTVSPost2010PropOp42
 70
     1
102
RTVSPost2010Prop43
 90
        3
102
RTVSPost2010PropOp43
 70
     1
102
RTVSPost2010Prop44ColorIndex
 90
        5
102
RTVSPost2010Prop44ColorRGB
 90
      255
102
RTVSPost2010PropOp44
 70
     1
102
RTVSPost2010Prop45
280
     0
102
RTVSPost2010PropOp45
 70
     1
102
RTVSPost2010Prop46
 90
       50
102
RTVSPost2010PropOp46
 70
     1
102
RTVSPost2010Prop47
 90
       50
102
RTVSPost2010PropOp47
 70
     1
102
RTVSPost2010Prop48
 90
       50
102
RTVSPost2010PropOp48
 70
     1
102
RTVSPost2010Prop49
280
     0
102
RTVSPost2010PropOp49
 70
     1
102
RTVSPost2010Prop50
 90
       50
102
RTVSPost2010PropOp50
 70
     1
102
RTVSPost2010Prop51ColorIndex
 90
      256
102
RTVSPost2010Prop51ColorRGB
 90
-16777216
102
RTVSPost2010PropOp51
 70
     0
102
RTVSPost2010Prop52
140
1.0
102
RTVSPost2010PropOp52
 70
     0
102
RTVSPost2010Prop53
 90
        2
102
RTVSPost2010PropOp53
 70
     1
102
RTVSPost2010Prop54
  1
strokes_ogs.tif
102
RTVSPost2010PropOp54
 70
     1
102
RTVSPost2010Prop55
280
     0
102
RTVSPost2010PropOp55
 70
     1
102
RTVSPost2010Prop56
140
1.0
102
RTVSPost2010PropOp56
 70
     1
102
RTVSPost2010Prop57
140
1.0
102
RTVSPost2010PropOp57
 70
     1
  0
XRECORD
  5
1F3
102
{ACAD_REACTORS
330
1F2
102
}
330
1F2
100
AcDbXrecord
280
     1
102
RTVSPropertyOp0
 70
     1
102
RTVSPropertyOp1
 70
     1
102
RTVSPropertyOp2
 70
     1
102
RTVSPropertyOp3
 70
     1
102
RTVSPropertyOp4
 70
     1
102
RTVSPropertyOp5
 70
     1
102
RTVSPropertyOp6
 70
     1
102
RTVSPropertyOp7
 70
     1
102
RTVSPropertyOp8
 70
     1
102
RTVSPropertyOp9
 70
     1
102
RTVSPropertyOp10
 70
     1
102
RTVSPropertyOp11
 70
     1
102
RTVSPropertyOp12
 70
     1
102
RTVSPropertyOp13
 70
     1
102
RTVSPropertyOp14
 70
     1
102
RTVSPropertyOp15
 70
     1
102
RTVSPropertyOp16
 70
     1
102
RTVSPropertyOp17
 70
     1
102
RTVSPropertyOp18
 70
     1
102
RTVSPropertyOp19
 70
     1
102
RTVSPropertyOp20
 70
     1
102
RTVSPropertyOp21
 70
     1
102
RTVSPropertyOp22
 70
     1
102
RTVSPropertyOp23
 70
     1
102
RTVSPropertyOp24
 70
     1
102
RTVSPropertyOp25
 70
     1
102
RTVSPropertyOp26
 70
     1
102
RTVSPropertyOp27
 70
     1
102
RTVSPropertyOp28
 70
     1
102
RTVSPropertyOp29
 70
     1
102
RTVSPropertyOp30
 70
     1
102
RTVSPropertyOp31
 70
     1
102
RTVSPropertyOp32
 70
     1
102
RTVSPropertyOp33
 70
     1
102
RTVSPropertyOp34
 70
     1
102
RTVSPropertyOp35
 70
     1
102
RTVSPropertyOp36
 70
     1
102
RTVSPropertyOp37
 70
     1
102
RTVSPropertyOp38
 70
     1
102
RTVSPropertyOp39
 70
     1
102
RTVSPropertyOp40
 70
     1
102
RTVSPropertyOp41
 70
     1
102
RTVSPropertyOp42
 70
     1
102
RTVSPropertyOp43
 70
     1
102
RTVSPropertyOp44
 70
     1
102
RTVSPropertyOp45
 70
     1
102
RTVSPropertyOp46
 70
     1
102
RTVSPropertyOp47
 70
     1
102
RTVSPropertyOp48
 70
     1
102
RTVSPropertyOp49
 70
     1
102
RTVSPropertyOp50
 70
     1
102
RTVSPropertyOp51
 70
     0
102
RTVSPropertyOp52
 70
     0
102
RTVSPropertyOp53
 70
     1
102
RTVSPropertyOp54
 70
     1
102
RTVSPropertyOp55
 70
     1
102
RTVSPropertyOp56
 70
     1
102
RTVSPropertyOp57
 70
     1
102
RTVSPost2010Prop28
280
     0
102
RTVSPost2010PropOp28
 70
     1
102
RTVSPost2010Prop29
280
     1
102
RTVSPost2010PropOp29
 70
     1
102
RTVSPost2010Prop30
280
     1
102
RTVSPost2010PropOp30
 70
     1
102
RTVSPost2010Prop31
280
     0
102
RTVSPost2010PropOp31
 70
     1
102
RTVSPost2010Prop32
280
     0
102
RTVSPost2010PropOp32
 70
     1
102
RTVSPost2010Prop33
280
     0
102
RTVSPost2010PropOp33
 70
     1
102
RTVSPost2010Prop34
280
     0
102
RTVSPost2010PropOp34
 70
     1
102
RTVSPost2010Prop35
280
     0
102
RTVSPost2010PropOp35
 70
     1
102
RTVSPost2010Prop36
280
     0
102
RTVSPost2010PropOp36
 70
     1
102
RTVSPost2010Prop37
 90
       50
102
RTVSPost2010PropOp37
 70
     1
102
RTVSPost2010Prop38
140
0.0
102
RTVSPost2010PropOp38
 70
     1
102
RTVSPost2010Prop39
140
1.0
102
RTVSPost2010PropOp39
 70
     1
102
RTVSPost2010Prop40
 90
        0
102
RTVSPost2010PropOp40
 70
     1
102
RTVSPost2010Prop41ColorIndex
 90
       18
102
RTVSPost2010Prop41ColorRGB
 90
        0
102
RTVSPost2010PropOp41
 70
     1
102
RTVSPost2010Prop42
 90
       50
102
RTVSPost2010PropOp42
 70
     1
102
RTVSPost2010Prop43
 90
        3
102
RTVSPost2010PropOp43
 70
     1
102
RTVSPost2010Prop44ColorIndex
 90
        5
102
RTVSPost2010Prop44ColorRGB
 90
      255
102
RTVSPost2010PropOp44
 70
     1
102
RTVSPost2010Prop45
280
     0
102
RTVSPost2010PropOp45
 70
     1
102
RTVSPost2010Prop46
 90
       50
102
RTVSPost2010PropOp46
 70
     1
102
RTVSPost2010Prop47
 90
       50
102
RTVSPost2010PropOp47
 70
     1
102
RTVSPost2010Prop48
 90
       50
102
RTVSPost2010PropOp48
 70
     1
102
RTVSPost2010Prop49
280
     0
102
RTVSPost2010PropOp49
 70
     1
102
RTVSPost2010Prop50
 90
       50
102
RTVSPost2010PropOp50
 70
     1
102
RTVSPost2010Prop51ColorIndex
 90
      256
102
RTVSPost2010Prop51ColorRGB
 90
-16777216
102
RTVSPost2010PropOp51
 70
     0
102
RTVSPost2010Prop52
140
1.0
102
RTVSPost2010PropOp52
 70
     0
102
RTVSPost2010Prop53
 90
        2
102
RTVSPost2010PropOp53
 70
     1
102
RTVSPost2010Prop54
  1
strokes_ogs.tif
102
RTVSPost2010PropOp54
 70
     1
102
RTVSPost2010Prop55
280
     0
102
RTVSPost2010PropOp55
 70
     1
102
RTVSPost2010Prop56
140
1.0
102
RTVSPost2010PropOp56
 70
     1
102
RTVSPost2010Prop57
140
1.0
102
RTVSPost2010PropOp57
 70
     1
  0
XRECORD
  5
207
102
{ACAD_REACTORS
330
206
102
}
330
206
100
AcDbXrecord
280
     1
102
RTVSPropertyOp0
 70
     0
102
RTVSPropertyOp1
 70
     0
102
RTVSPropertyOp2
 70
     0
102
RTVSPropertyOp3
 70
     0
102
RTVSPropertyOp4
 70
     0
102
RTVSPropertyOp5
 70
     0
102
RTVSPropertyOp6
 70
     0
102
RTVSPropertyOp7
 70
     0
102
RTVSPropertyOp8
 70
     0
102
RTVSPropertyOp9
 70
     0
102
RTVSPropertyOp10
 70
     0
102
RTVSPropertyOp11
 70
     0
102
RTVSPropertyOp12
 70
     0
102
RTVSPropertyOp13
 70
     0
102
RTVSPropertyOp14
 70
     2
102
RTVSPropertyOp15
 70
     0
102
RTVSPropertyOp16
 70
     0
102
RTVSPropertyOp17
 70
     0
102
RTVSPropertyOp18
 70
     0
102
RTVSPropertyOp19
 70
     0
102
RTVSPropertyOp20
 70
     0
102
RTVSPropertyOp21
 70
     0
102
RTVSPropertyOp22
 70
     0
102
RTVSPropertyOp23
 70
     0
102
RTVSPropertyOp24
 70
     0
102
RTVSPropertyOp25
 70
     0
102
RTVSPropertyOp26
 70
     0
102
RTVSPropertyOp27
 70
     0
102
RTVSPropertyOp28
 70
     0
102
RTVSPropertyOp29
 70
     0
102
RTVSPropertyOp30
 70
     0
102
RTVSPropertyOp31
 70
     0
102
RTVSPropertyOp32
 70
     0
102
RTVSPropertyOp33
 70
     0
102
RTVSPropertyOp34
 70
     0
102
RTVSPropertyOp35
 70
     0
102
RTVSPropertyOp36
 70
     0
102
RTVSPropertyOp37
 70
     0
102
RTVSPropertyOp38
 70
     0
102
RTVSPropertyOp39
 70
     0
102
RTVSPropertyOp40
 70
     0
102
RTVSPropertyOp41
 70
     0
102
RTVSPropertyOp42
 70
     0
102
RTVSPropertyOp43
 70
     0
102
RTVSPropertyOp44
 70
     0
102
RTVSPropertyOp45
 70
     0
102
RTVSPropertyOp46
 70
     0
102
RTVSPropertyOp47
 70
     0
102
RTVSPropertyOp48
 70
     0
102
RTVSPropertyOp49
 70
     0
102
RTVSPropertyOp50
 70
     0
102
RTVSPropertyOp51
 70
     0
102
RTVSPropertyOp52
 70
     0
102
RTVSPropertyOp53
 70
     0
102
RTVSPropertyOp54
 70
     0
102
RTVSPropertyOp55
 70
     0
102
RTVSPropertyOp56
 70
     0
102
RTVSPropertyOp57
 70
     0
102
RTVSPost2010Prop28
280
     0
102
RTVSPost2010PropOp28
 70
     0
102
RTVSPost2010Prop29
280
     1
102
RTVSPost2010PropOp29
 70
     0
102
RTVSPost2010Prop30
280
     1
102
RTVSPost2010PropOp30
 70
     0
102
RTVSPost2010Prop31
280
     0
102
RTVSPost2010PropOp31
 70
     0
102
RTVSPost2010Prop32
280
     0
102
RTVSPost2010PropOp32
 70
     0
102
RTVSPost2010Prop33
280
     0
102
RTVSPost2010PropOp33
 70
     0
102
RTVSPost2010Prop34
280
     0
102
RTVSPost2010PropOp34
 70
     0
102
RTVSPost2010Prop35
280
     0
102
RTVSPost2010PropOp35
 70
     0
102
RTVSPost2010Prop36
280
     0
102
RTVSPost2010PropOp36
 70
     0
102
RTVSPost2010Prop37
 90
       50
102
RTVSPost2010PropOp37
 70
     0
102
RTVSPost2010Prop38
140
0.0
102
RTVSPost2010PropOp38
 70
     0
102
RTVSPost2010Prop39
140
1.0
102
RTVSPost2010PropOp39
 70
     0
102
RTVSPost2010Prop40
 90
        0
102
RTVSPost2010PropOp40
 70
     0
102
RTVSPost2010Prop41ColorIndex
 90
       18
102
RTVSPost2010Prop41ColorRGB
 90
        0
102
RTVSPost2010PropOp41
 70
     0
102
RTVSPost2010Prop42
 90
       50
102
RTVSPost2010PropOp42
 70
     0
102
RTVSPost2010Prop43
 90
        3
102
RTVSPost2010PropOp43
 70
     0
102
RTVSPost2010Prop44ColorIndex
 90
        5
102
RTVSPost2010Prop44ColorRGB
 90
      255
102
RTVSPost2010PropOp44
 70
     0
102
RTVSPost2010Prop45
280
     0
102
RTVSPost2010PropOp45
 70
     0
102
RTVSPost2010Prop46
 90
       50
102
RTVSPost2010PropOp46
 70
     0
102
RTVSPost2010Prop47
 90
       50
102
RTVSPost2010PropOp47
 70
     0
102
RTVSPost2010Prop48
 90
       50
102
RTVSPost2010PropOp48
 70
     0
102
RTVSPost2010Prop49
280
     0
102
RTVSPost2010PropOp49
 70
     0
102
RTVSPost2010Prop50
 90
       50
102
RTVSPost2010PropOp50
 70
     0
102
RTVSPost2010Prop51ColorIndex
 90
      256
102
RTVSPost2010Prop51ColorRGB
 90
-16777216
102
RTVSPost2010PropOp51
 70
     0
102
RTVSPost2010Prop52
140
1.0
102
RTVSPost2010PropOp52
 70
     0
102
RTVSPost2010Prop53
 90
        2
102
RTVSPost2010PropOp53
 70
     0
102
RTVSPost2010Prop54
  1
strokes_ogs.tif
102
RTVSPost2010PropOp54
 70
     0
102
RTVSPost2010Prop55
280
     0
102
RTVSPost2010PropOp55
 70
     0
102
RTVSPost2010Prop56
140
1.0
102
RTVSPost2010PropOp56
 70
     0
102
RTVSPost2010Prop57
140
1.0
102
RTVSPost2010PropOp57
 70
     0
  0
XRECORD
  5
201
102
{ACAD_REACTORS
330
200
102
}
330
200
100
AcDbXrecord
280
     1
102
RTVSPropertyOp0
 70
     1
102
RTVSPropertyOp1
 70
     1
102
RTVSPropertyOp2
 70
     1
102
RTVSPropertyOp3
 70
     1
102
RTVSPropertyOp4
 70
     1
102
RTVSPropertyOp5
 70
     1
102
RTVSPropertyOp6
 70
     1
102
RTVSPropertyOp7
 70
     1
102
RTVSPropertyOp8
 70
     1
102
RTVSPropertyOp9
 70
     1
102
RTVSPropertyOp10
 70
     1
102
RTVSPropertyOp11
 70
     1
102
RTVSPropertyOp12
 70
     1
102
RTVSPropertyOp13
 70
     1
102
RTVSPropertyOp14
 70
     1
102
RTVSPropertyOp15
 70
     1
102
RTVSPropertyOp16
 70
     1
102
RTVSPropertyOp17
 70
     1
102
RTVSPropertyOp18
 70
     1
102
RTVSPropertyOp19
 70
     1
102
RTVSPropertyOp20
 70
     1
102
RTVSPropertyOp21
 70
     1
102
RTVSPropertyOp22
 70
     1
102
RTVSPropertyOp23
 70
     1
102
RTVSPropertyOp24
 70
     1
102
RTVSPropertyOp25
 70
     1
102
RTVSPropertyOp26
 70
     1
102
RTVSPropertyOp27
 70
     1
102
RTVSPropertyOp28
 70
     1
102
RTVSPropertyOp29
 70
     1
102
RTVSPropertyOp30
 70
     1
102
RTVSPropertyOp31
 70
     1
102
RTVSPropertyOp32
 70
     1
102
RTVSPropertyOp33
 70
     1
102
RTVSPropertyOp34
 70
     1
102
RTVSPropertyOp35
 70
     1
102
RTVSPropertyOp36
 70
     1
102
RTVSPropertyOp37
 70
     1
102
RTVSPropertyOp38
 70
     1
102
RTVSPropertyOp39
 70
     1
102
RTVSPropertyOp40
 70
     1
102
RTVSPropertyOp41
 70
     1
102
RTVSPropertyOp42
 70
     1
102
RTVSPropertyOp43
 70
     1
102
RTVSPropertyOp44
 70
     1
102
RTVSPropertyOp45
 70
     1
102
RTVSPropertyOp46
 70
     1
102
RTVSPropertyOp47
 70
     1
102
RTVSPropertyOp48
 70
     1
102
RTVSPropertyOp49
 70
     1
102
RTVSPropertyOp50
 70
     1
102
RTVSPropertyOp51
 70
     0
102
RTVSPropertyOp52
 70
     0
102
RTVSPropertyOp53
 70
     1
102
RTVSPropertyOp54
 70
     1
102
RTVSPropertyOp55
 70
     1
102
RTVSPropertyOp56
 70
     1
102
RTVSPropertyOp57
 70
     1
102
RTVSPost2010Prop28
280
     0
102
RTVSPost2010PropOp28
 70
     1
102
RTVSPost2010Prop29
280
     1
102
RTVSPost2010PropOp29
 70
     1
102
RTVSPost2010Prop30
280
     1
102
RTVSPost2010PropOp30
 70
     1
102
RTVSPost2010Prop31
280
     0
102
RTVSPost2010PropOp31
 70
     1
102
RTVSPost2010Prop32
280
     0
102
RTVSPost2010PropOp32
 70
     1
102
RTVSPost2010Prop33
280
     0
102
RTVSPost2010PropOp33
 70
     1
102
RTVSPost2010Prop34
280
     0
102
RTVSPost2010PropOp34
 70
     1
102
RTVSPost2010Prop35
280
     0
102
RTVSPost2010PropOp35
 70
     1
102
RTVSPost2010Prop36
280
     0
102
RTVSPost2010PropOp36
 70
     1
102
RTVSPost2010Prop37
 90
       50
102
RTVSPost2010PropOp37
 70
     1
102
RTVSPost2010Prop38
140
0.0
102
RTVSPost2010PropOp38
 70
     1
102
RTVSPost2010Prop39
140
1.0
102
RTVSPost2010PropOp39
 70
     1
102
RTVSPost2010Prop40
 90
        0
102
RTVSPost2010PropOp40
 70
     1
102
RTVSPost2010Prop41ColorIndex
 90
       18
102
RTVSPost2010Prop41ColorRGB
 90
        0
102
RTVSPost2010PropOp41
 70
     1
102
RTVSPost2010Prop42
 90
       50
102
RTVSPost2010PropOp42
 70
     1
102
RTVSPost2010Prop43
 90
        3
102
RTVSPost2010PropOp43
 70
     1
102
RTVSPost2010Prop44ColorIndex
 90
        5
102
RTVSPost2010Prop44ColorRGB
 90
      255
102
RTVSPost2010PropOp44
 70
     1
102
RTVSPost2010Prop45
280
     0
102
RTVSPost2010PropOp45
 70
     1
102
RTVSPost2010Prop46
 90
       50
102
RTVSPost2010PropOp46
 70
     1
102
RTVSPost2010Prop47
 90
       50
102
RTVSPost2010PropOp47
 70
     1
102
RTVSPost2010Prop48
 90
       50
102
RTVSPost2010PropOp48
 70
     1
102
RTVSPost2010Prop49
280
     0
102
RTVSPost2010PropOp49
 70
     1
102
RTVSPost2010Prop50
 90
       50
102
RTVSPost2010PropOp50
 70
     1
102
RTVSPost2010Prop51ColorIndex
 90
      256
102
RTVSPost2010Prop51ColorRGB
 90
-16777216
102
RTVSPost2010PropOp51
 70
     0
102
RTVSPost2010Prop52
140
1.0
102
RTVSPost2010PropOp52
 70
     0
102
RTVSPost2010Prop53
 90
        2
102
RTVSPost2010PropOp53
 70
     1
102
RTVSPost2010Prop54
  1
strokes_ogs.tif
102
RTVSPost2010PropOp54
 70
     1
102
RTVSPost2010Prop55
280
     0
102
RTVSPost2010PropOp55
 70
     1
102
RTVSPost2010Prop56
140
1.0
102
RTVSPost2010PropOp56
 70
     1
102
RTVSPost2010Prop57
140
1.0
102
RTVSPost2010PropOp57
 70
     1
  0
XRECORD
  5
209
102
{ACAD_REACTORS
330
208
102
}
330
208
100
AcDbXrecord
280
     1
102
RTVSPropertyOp0
 70
     0
102
RTVSPropertyOp1
 70
     0
102
RTVSPropertyOp2
 70
     0
102
RTVSPropertyOp3
 70
     0
102
RTVSPropertyOp4
 70
     0
102
RTVSPropertyOp5
 70
     0
102
RTVSPropertyOp6
 70
     0
102
RTVSPropertyOp7
 70
     0
102
RTVSPropertyOp8
 70
     0
102
RTVSPropertyOp9
 70
     0
102
RTVSPropertyOp10
 70
     0
102
RTVSPropertyOp11
 70
     0
102
RTVSPropertyOp12
 70
     0
102
RTVSPropertyOp13
 70
     0
102
RTVSPropertyOp14
 70
     2
102
RTVSPropertyOp15
 70
     0
102
RTVSPropertyOp16
 70
     0
102
RTVSPropertyOp17
 70
     0
102
RTVSPropertyOp18
 70
     0
102
RTVSPropertyOp19
 70
     0
102
RTVSPropertyOp20
 70
     0
102
RTVSPropertyOp21
 70
     0
102
RTVSPropertyOp22
 70
     0
102
RTVSPropertyOp23
 70
     0
102
RTVSPropertyOp24
 70
     0
102
RTVSPropertyOp25
 70
     0
102
RTVSPropertyOp26
 70
     0
102
RTVSPropertyOp27
 70
     0
102
RTVSPropertyOp28
 70
     0
102
RTVSPropertyOp29
 70
     0
102
RTVSPropertyOp30
 70
     0
102
RTVSPropertyOp31
 70
     0
102
RTVSPropertyOp32
 70
     0
102
RTVSPropertyOp33
 70
     0
102
RTVSPropertyOp34
 70
     0
102
RTVSPropertyOp35
 70
     0
102
RTVSPropertyOp36
 70
     0
102
RTVSPropertyOp37
 70
     0
102
RTVSPropertyOp38
 70
     0
102
RTVSPropertyOp39
 70
     0
102
RTVSPropertyOp40
 70
     0
102
RTVSPropertyOp41
 70
     0
102
RTVSPropertyOp42
 70
     0
102
RTVSPropertyOp43
 70
     0
102
RTVSPropertyOp44
 70
     0
102
RTVSPropertyOp45
 70
     0
102
RTVSPropertyOp46
 70
     0
102
RTVSPropertyOp47
 70
     0
102
RTVSPropertyOp48
 70
     0
102
RTVSPropertyOp49
 70
     0
102
RTVSPropertyOp50
 70
     0
102
RTVSPropertyOp51
 70
     0
102
RTVSPropertyOp52
 70
     0
102
RTVSPropertyOp53
 70
     0
102
RTVSPropertyOp54
 70
     0
102
RTVSPropertyOp55
 70
     0
102
RTVSPropertyOp56
 70
     0
102
RTVSPropertyOp57
 70
     0
102
RTVSPost2010Prop28
280
     0
102
RTVSPost2010PropOp28
 70
     0
102
RTVSPost2010Prop29
280
     1
102
RTVSPost2010PropOp29
 70
     0
102
RTVSPost2010Prop30
280
     1
102
RTVSPost2010PropOp30
 70
     0
102
RTVSPost2010Prop31
280
     0
102
RTVSPost2010PropOp31
 70
     0
102
RTVSPost2010Prop32
280
     0
102
RTVSPost2010PropOp32
 70
     0
102
RTVSPost2010Prop33
280
     0
102
RTVSPost2010PropOp33
 70
     0
102
RTVSPost2010Prop34
280
     0
102
RTVSPost2010PropOp34
 70
     0
102
RTVSPost2010Prop35
280
     0
102
RTVSPost2010PropOp35
 70
     0
102
RTVSPost2010Prop36
280
     0
102
RTVSPost2010PropOp36
 70
     0
102
RTVSPost2010Prop37
 90
       50
102
RTVSPost2010PropOp37
 70
     0
102
RTVSPost2010Prop38
140
0.0
102
RTVSPost2010PropOp38
 70
     0
102
RTVSPost2010Prop39
140
1.0
102
RTVSPost2010PropOp39
 70
     0
102
RTVSPost2010Prop40
 90
        0
102
RTVSPost2010PropOp40
 70
     0
102
RTVSPost2010Prop41ColorIndex
 90
       18
102
RTVSPost2010Prop41ColorRGB
 90
        0
102
RTVSPost2010PropOp41
 70
     0
102
RTVSPost2010Prop42
 90
       50
102
RTVSPost2010PropOp42
 70
     0
102
RTVSPost2010Prop43
 90
        3
102
RTVSPost2010PropOp43
 70
     0
102
RTVSPost2010Prop44ColorIndex
 90
        5
102
RTVSPost2010Prop44ColorRGB
 90
      255
102
RTVSPost2010PropOp44
 70
     0
102
RTVSPost2010Prop45
280
     0
102
RTVSPost2010PropOp45
 70
     0
102
RTVSPost2010Prop46
 90
       50
102
RTVSPost2010PropOp46
 70
     0
102
RTVSPost2010Prop47
 90
       50
102
RTVSPost2010PropOp47
 70
     0
102
RTVSPost2010Prop48
 90
       50
102
RTVSPost2010PropOp48
 70
     0
102
RTVSPost2010Prop49
280
     0
102
RTVSPost2010PropOp49
 70
     0
102
RTVSPost2010Prop50
 90
       50
102
RTVSPost2010PropOp50
 70
     0
102
RTVSPost2010Prop51ColorIndex
 90
      256
102
RTVSPost2010Prop51ColorRGB
 90
-16777216
102
RTVSPost2010PropOp51
 70
     0
102
RTVSPost2010Prop52
140
1.0
102
RTVSPost2010PropOp52
 70
     0
102
RTVSPost2010Prop53
 90
        2
102
RTVSPost2010PropOp53
 70
     0
102
RTVSPost2010Prop54
  1
strokes_ogs.tif
102
RTVSPost2010PropOp54
 70
     0
102
RTVSPost2010Prop55
280
     0
102
RTVSPost2010PropOp55
 70
     0
102
RTVSPost2010Prop56
140
1.0
102
RTVSPost2010PropOp56
 70
     0
102
RTVSPost2010Prop57
140
1.0
102
RTVSPost2010PropOp57
 70
     0
  0
XRECORD
  5
1F7
102
{ACAD_REACTORS
330
1F6
102
}
330
1F6
100
AcDbXrecord
280
     1
102
RTVSPropertyOp0
 70
     1
102
RTVSPropertyOp1
 70
     1
102
RTVSPropertyOp2
 70
     1
102
RTVSPropertyOp3
 70
     1
102
RTVSPropertyOp4
 70
     1
102
RTVSPropertyOp5
 70
     1
102
RTVSPropertyOp6
 70
     1
102
RTVSPropertyOp7
 70
     1
102
RTVSPropertyOp8
 70
     1
102
RTVSPropertyOp9
 70
     1
102
RTVSPropertyOp10
 70
     1
102
RTVSPropertyOp11
 70
     1
102
RTVSPropertyOp12
 70
     1
102
RTVSPropertyOp13
 70
     1
102
RTVSPropertyOp14
 70
     1
102
RTVSPropertyOp15
 70
     1
102
RTVSPropertyOp16
 70
     1
102
RTVSPropertyOp17
 70
     1
102
RTVSPropertyOp18
 70
     1
102
RTVSPropertyOp19
 70
     1
102
RTVSPropertyOp20
 70
     1
102
RTVSPropertyOp21
 70
     1
102
RTVSPropertyOp22
 70
     1
102
RTVSPropertyOp23
 70
     1
102
RTVSPropertyOp24
 70
     1
102
RTVSPropertyOp25
 70
     1
102
RTVSPropertyOp26
 70
     1
102
RTVSPropertyOp27
 70
     1
102
RTVSPropertyOp28
 70
     1
102
RTVSPropertyOp29
 70
     1
102
RTVSPropertyOp30
 70
     1
102
RTVSPropertyOp31
 70
     1
102
RTVSPropertyOp32
 70
     1
102
RTVSPropertyOp33
 70
     1
102
RTVSPropertyOp34
 70
     1
102
RTVSPropertyOp35
 70
     1
102
RTVSPropertyOp36
 70
     1
102
RTVSPropertyOp37
 70
     1
102
RTVSPropertyOp38
 70
     1
102
RTVSPropertyOp39
 70
     1
102
RTVSPropertyOp40
 70
     1
102
RTVSPropertyOp41
 70
     1
102
RTVSPropertyOp42
 70
     1
102
RTVSPropertyOp43
 70
     1
102
RTVSPropertyOp44
 70
     1
102
RTVSPropertyOp45
 70
     1
102
RTVSPropertyOp46
 70
     1
102
RTVSPropertyOp47
 70
     1
102
RTVSPropertyOp48
 70
     1
102
RTVSPropertyOp49
 70
     1
102
RTVSPropertyOp50
 70
     1
102
RTVSPropertyOp51
 70
     0
102
RTVSPropertyOp52
 70
     0
102
RTVSPropertyOp53
 70
     1
102
RTVSPropertyOp54
 70
     1
102
RTVSPropertyOp55
 70
     1
102
RTVSPropertyOp56
 70
     1
102
RTVSPropertyOp57
 70
     1
102
RTVSPost2010Prop28
280
     0
102
RTVSPost2010PropOp28
 70
     1
102
RTVSPost2010Prop29
280
     1
102
RTVSPost2010PropOp29
 70
     1
102
RTVSPost2010Prop30
280
     1
102
RTVSPost2010PropOp30
 70
     1
102
RTVSPost2010Prop31
280
     0
102
RTVSPost2010PropOp31
 70
     1
102
RTVSPost2010Prop32
280
     0
102
RTVSPost2010PropOp32
 70
     1
102
RTVSPost2010Prop33
280
     0
102
RTVSPost2010PropOp33
 70
     1
102
RTVSPost2010Prop34
280
     0
102
RTVSPost2010PropOp34
 70
     1
102
RTVSPost2010Prop35
280
     0
102
RTVSPost2010PropOp35
 70
     1
102
RTVSPost2010Prop36
280
     0
102
RTVSPost2010PropOp36
 70
     1
102
RTVSPost2010Prop37
 90
       50
102
RTVSPost2010PropOp37
 70
     1
102
RTVSPost2010Prop38
140
0.0
102
RTVSPost2010PropOp38
 70
     1
102
RTVSPost2010Prop39
140
1.0
102
RTVSPost2010PropOp39
 70
     1
102
RTVSPost2010Prop40
 90
        0
102
RTVSPost2010PropOp40
 70
     1
102
RTVSPost2010Prop41ColorIndex
 90
       18
102
RTVSPost2010Prop41ColorRGB
 90
        0
102
RTVSPost2010PropOp41
 70
     1
102
RTVSPost2010Prop42
 90
       50
102
RTVSPost2010PropOp42
 70
     1
102
RTVSPost2010Prop43
 90
        3
102
RTVSPost2010PropOp43
 70
     1
102
RTVSPost2010Prop44ColorIndex
 90
        5
102
RTVSPost2010Prop44ColorRGB
 90
      255
102
RTVSPost2010PropOp44
 70
     1
102
RTVSPost2010Prop45
280
     0
102
RTVSPost2010PropOp45
 70
     1
102
RTVSPost2010Prop46
 90
       50
102
RTVSPost2010PropOp46
 70
     1
102
RTVSPost2010Prop47
 90
       50
102
RTVSPost2010PropOp47
 70
     1
102
RTVSPost2010Prop48
 90
       50
102
RTVSPost2010PropOp48
 70
     1
102
RTVSPost2010Prop49
280
     0
102
RTVSPost2010PropOp49
 70
     1
102
RTVSPost2010Prop50
 90
       50
102
RTVSPost2010PropOp50
 70
     1
102
RTVSPost2010Prop51ColorIndex
 90
      256
102
RTVSPost2010Prop51ColorRGB
 90
-16777216
102
RTVSPost2010PropOp51
 70
     0
102
RTVSPost2010Prop52
140
1.0
102
RTVSPost2010PropOp52
 70
     0
102
RTVSPost2010Prop53
 90
        2
102
RTVSPost2010PropOp53
 70
     1
102
RTVSPost2010Prop54
  1
strokes_ogs.tif
102
RTVSPost2010PropOp54
 70
     1
102
RTVSPost2010Prop55
280
     0
102
RTVSPost2010PropOp55
 70
     1
102
RTVSPost2010Prop56
140
1.0
102
RTVSPost2010PropOp56
 70
     1
102
RTVSPost2010Prop57
140
1.0
102
RTVSPost2010PropOp57
 70
     1
  0
XRECORD
  5
215
102
{ACAD_REACTORS
330
214
102
}
330
214
100
AcDbXrecord
280
     1
102
RTVSPropertyOp0
 70
     1
102
RTVSPropertyOp1
 70
     1
102
RTVSPropertyOp2
 70
     1
102
RTVSPropertyOp3
 70
     1
102
RTVSPropertyOp4
 70
     1
102
RTVSPropertyOp5
 70
     1
102
RTVSPropertyOp6
 70
     1
102
RTVSPropertyOp7
 70
     1
102
RTVSPropertyOp8
 70
     1
102
RTVSPropertyOp9
 70
     1
102
RTVSPropertyOp10
 70
     1
102
RTVSPropertyOp11
 70
     1
102
RTVSPropertyOp12
 70
     1
102
RTVSPropertyOp13
 70
     1
102
RTVSPropertyOp14
 70
     1
102
RTVSPropertyOp15
 70
     1
102
RTVSPropertyOp16
 70
     1
102
RTVSPropertyOp17
 70
     1
102
RTVSPropertyOp18
 70
     1
102
RTVSPropertyOp19
 70
     1
102
RTVSPropertyOp20
 70
     1
102
RTVSPropertyOp21
 70
     1
102
RTVSPropertyOp22
 70
     1
102
RTVSPropertyOp23
 70
     1
102
RTVSPropertyOp24
 70
     1
102
RTVSPropertyOp25
 70
     1
102
RTVSPropertyOp26
 70
     1
102
RTVSPropertyOp27
 70
     1
102
RTVSPropertyOp28
 70
     1
102
RTVSPropertyOp29
 70
     1
102
RTVSPropertyOp30
 70
     1
102
RTVSPropertyOp31
 70
     1
102
RTVSPropertyOp32
 70
     1
102
RTVSPropertyOp33
 70
     1
102
RTVSPropertyOp34
 70
     1
102
RTVSPropertyOp35
 70
     1
102
RTVSPropertyOp36
 70
     1
102
RTVSPropertyOp37
 70
     1
102
RTVSPropertyOp38
 70
     1
102
RTVSPropertyOp39
 70
     1
102
RTVSPropertyOp40
 70
     1
102
RTVSPropertyOp41
 70
     1
102
RTVSPropertyOp42
 70
     1
102
RTVSPropertyOp43
 70
     1
102
RTVSPropertyOp44
 70
     1
102
RTVSPropertyOp45
 70
     1
102
RTVSPropertyOp46
 70
     1
102
RTVSPropertyOp47
 70
     1
102
RTVSPropertyOp48
 70
     1
102
RTVSPropertyOp49
 70
     1
102
RTVSPropertyOp50
 70
     1
102
RTVSPropertyOp51
 70
     0
102
RTVSPropertyOp52
 70
     0
102
RTVSPropertyOp53
 70
     1
102
RTVSPropertyOp54
 70
     1
102
RTVSPropertyOp55
 70
     1
102
RTVSPropertyOp56
 70
     1
102
RTVSPropertyOp57
 70
     1
102
RTVSPost2010Prop28
280
     0
102
RTVSPost2010PropOp28
 70
     1
102
RTVSPost2010Prop29
280
     1
102
RTVSPost2010PropOp29
 70
     1
102
RTVSPost2010Prop30
280
     1
102
RTVSPost2010PropOp30
 70
     1
102
RTVSPost2010Prop31
280
     0
102
RTVSPost2010PropOp31
 70
     1
102
RTVSPost2010Prop32
280
     0
102
RTVSPost2010PropOp32
 70
     1
102
RTVSPost2010Prop33
280
     0
102
RTVSPost2010PropOp33
 70
     1
102
RTVSPost2010Prop34
280
     0
102
RTVSPost2010PropOp34
 70
     1
102
RTVSPost2010Prop35
280
     0
102
RTVSPost2010PropOp35
 70
     1
102
RTVSPost2010Prop36
280
     0
102
RTVSPost2010PropOp36
 70
     1
102
RTVSPost2010Prop37
 90
       50
102
RTVSPost2010PropOp37
 70
     1
102
RTVSPost2010Prop38
140
0.0
102
RTVSPost2010PropOp38
 70
     1
102
RTVSPost2010Prop39
140
1.0
102
RTVSPost2010PropOp39
 70
     1
102
RTVSPost2010Prop40
 90
        0
102
RTVSPost2010PropOp40
 70
     1
102
RTVSPost2010Prop41ColorIndex
 90
       18
102
RTVSPost2010Prop41ColorRGB
 90
        0
102
RTVSPost2010PropOp41
 70
     1
102
RTVSPost2010Prop42
 90
       50
102
RTVSPost2010PropOp42
 70
     1
102
RTVSPost2010Prop43
 90
        3
102
RTVSPost2010PropOp43
 70
     1
102
RTVSPost2010Prop44ColorIndex
 90
        5
102
RTVSPost2010Prop44ColorRGB
 90
      255
102
RTVSPost2010PropOp44
 70
     1
102
RTVSPost2010Prop45
280
     0
102
RTVSPost2010PropOp45
 70
     1
102
RTVSPost2010Prop46
 90
       50
102
RTVSPost2010PropOp46
 70
     1
102
RTVSPost2010Prop47
 90
       50
102
RTVSPost2010PropOp47
 70
     1
102
RTVSPost2010Prop48
 90
       50
102
RTVSPost2010PropOp48
 70
     1
102
RTVSPost2010Prop49
280
     0
102
RTVSPost2010PropOp49
 70
     1
102
RTVSPost2010Prop50
 90
       50
102
RTVSPost2010PropOp50
 70
     1
102
RTVSPost2010Prop51ColorIndex
 90
      256
102
RTVSPost2010Prop51ColorRGB
 90
-16777216
102
RTVSPost2010PropOp51
 70
     0
102
RTVSPost2010Prop52
140
1.0
102
RTVSPost2010PropOp52
 70
     0
102
RTVSPost2010Prop53
 90
        2
102
RTVSPost2010PropOp53
 70
     1
102
RTVSPost2010Prop54
  1
strokes_ogs.tif
102
RTVSPost2010PropOp54
 70
     1
102
RTVSPost2010Prop55
280
     0
102
RTVSPost2010PropOp55
 70
     1
102
RTVSPost2010Prop56
140
1.0
102
RTVSPost2010PropOp56
 70
     1
102
RTVSPost2010Prop57
140
1.0
102
RTVSPost2010PropOp57
 70
     1
  0
XRECORD
  5
213
102
{ACAD_REACTORS
330
212
102
}
330
212
100
AcDbXrecord
280
     1
102
RTVSPropertyOp0
 70
     1
102
RTVSPropertyOp1
 70
     1
102
RTVSPropertyOp2
 70
     1
102
RTVSPropertyOp3
 70
     1
102
RTVSPropertyOp4
 70
     1
102
RTVSPropertyOp5
 70
     1
102
RTVSPropertyOp6
 70
     1
102
RTVSPropertyOp7
 70
     1
102
RTVSPropertyOp8
 70
     1
102
RTVSPropertyOp9
 70
     1
102
RTVSPropertyOp10
 70
     1
102
RTVSPropertyOp11
 70
     1
102
RTVSPropertyOp12
 70
     1
102
RTVSPropertyOp13
 70
     1
102
RTVSPropertyOp14
 70
     1
102
RTVSPropertyOp15
 70
     1
102
RTVSPropertyOp16
 70
     1
102
RTVSPropertyOp17
 70
     1
102
RTVSPropertyOp18
 70
     1
102
RTVSPropertyOp19
 70
     1
102
RTVSPropertyOp20
 70
     1
102
RTVSPropertyOp21
 70
     1
102
RTVSPropertyOp22
 70
     1
102
RTVSPropertyOp23
 70
     1
102
RTVSPropertyOp24
 70
     1
102
RTVSPropertyOp25
 70
     1
102
RTVSPropertyOp26
 70
     1
102
RTVSPropertyOp27
 70
     1
102
RTVSPropertyOp28
 70
     1
102
RTVSPropertyOp29
 70
     1
102
RTVSPropertyOp30
 70
     1
102
RTVSPropertyOp31
 70
     1
102
RTVSPropertyOp32
 70
     1
102
RTVSPropertyOp33
 70
     1
102
RTVSPropertyOp34
 70
     1
102
RTVSPropertyOp35
 70
     1
102
RTVSPropertyOp36
 70
     1
102
RTVSPropertyOp37
 70
     1
102
RTVSPropertyOp38
 70
     1
102
RTVSPropertyOp39
 70
     1
102
RTVSPropertyOp40
 70
     1
102
RTVSPropertyOp41
 70
     1
102
RTVSPropertyOp42
 70
     1
102
RTVSPropertyOp43
 70
     1
102
RTVSPropertyOp44
 70
     1
102
RTVSPropertyOp45
 70
     1
102
RTVSPropertyOp46
 70
     1
102
RTVSPropertyOp47
 70
     1
102
RTVSPropertyOp48
 70
     1
102
RTVSPropertyOp49
 70
     1
102
RTVSPropertyOp50
 70
     1
102
RTVSPropertyOp51
 70
     0
102
RTVSPropertyOp52
 70
     0
102
RTVSPropertyOp53
 70
     1
102
RTVSPropertyOp54
 70
     1
102
RTVSPropertyOp55
 70
     1
102
RTVSPropertyOp56
 70
     1
102
RTVSPropertyOp57
 70
     1
102
RTVSPost2010Prop28
280
     0
102
RTVSPost2010PropOp28
 70
     1
102
RTVSPost2010Prop29
280
     1
102
RTVSPost2010PropOp29
 70
     1
102
RTVSPost2010Prop30
280
     1
102
RTVSPost2010PropOp30
 70
     1
102
RTVSPost2010Prop31
280
     0
102
RTVSPost2010PropOp31
 70
     1
102
RTVSPost2010Prop32
280
     0
102
RTVSPost2010PropOp32
 70
     1
102
RTVSPost2010Prop33
280
     0
102
RTVSPost2010PropOp33
 70
     1
102
RTVSPost2010Prop34
280
     0
102
RTVSPost2010PropOp34
 70
     1
102
RTVSPost2010Prop35
280
     0
102
RTVSPost2010PropOp35
 70
     1
102
RTVSPost2010Prop36
280
     0
102
RTVSPost2010PropOp36
 70
     1
102
RTVSPost2010Prop37
 90
       50
102
RTVSPost2010PropOp37
 70
     1
102
RTVSPost2010Prop38
140
0.0
102
RTVSPost2010PropOp38
 70
     1
102
RTVSPost2010Prop39
140
1.0
102
RTVSPost2010PropOp39
 70
     1
102
RTVSPost2010Prop40
 90
        0
102
RTVSPost2010PropOp40
 70
     1
102
RTVSPost2010Prop41ColorIndex
 90
       18
102
RTVSPost2010Prop41ColorRGB
 90
        0
102
RTVSPost2010PropOp41
 70
     1
102
RTVSPost2010Prop42
 90
       50
102
RTVSPost2010PropOp42
 70
     1
102
RTVSPost2010Prop43
 90
        3
102
RTVSPost2010PropOp43
 70
     1
102
RTVSPost2010Prop44ColorIndex
 90
        5
102
RTVSPost2010Prop44ColorRGB
 90
      255
102
RTVSPost2010PropOp44
 70
     1
102
RTVSPost2010Prop45
280
     0
102
RTVSPost2010PropOp45
 70
     1
102
RTVSPost2010Prop46
 90
       50
102
RTVSPost2010PropOp46
 70
     1
102
RTVSPost2010Prop47
 90
       50
102
RTVSPost2010PropOp47
 70
     1
102
RTVSPost2010Prop48
 90
       50
102
RTVSPost2010PropOp48
 70
     1
102
RTVSPost2010Prop49
280
     0
102
RTVSPost2010PropOp49
 70
     1
102
RTVSPost2010Prop50
 90
       50
102
RTVSPost2010PropOp50
 70
     1
102
RTVSPost2010Prop51ColorIndex
 90
      256
102
RTVSPost2010Prop51ColorRGB
 90
-16777216
102
RTVSPost2010PropOp51
 70
     0
102
RTVSPost2010Prop52
140
1.0
102
RTVSPost2010PropOp52
 70
     0
102
RTVSPost2010Prop53
 90
        2
102
RTVSPost2010PropOp53
 70
     1
102
RTVSPost2010Prop54
  1
strokes_ogs.tif
102
RTVSPost2010PropOp54
 70
     1
102
RTVSPost2010Prop55
280
     0
102
RTVSPost2010PropOp55
 70
     1
102
RTVSPost2010Prop56
140
1.0
102
RTVSPost2010PropOp56
 70
     1
102
RTVSPost2010Prop57
140
1.0
102
RTVSPost2010PropOp57
 70
     1
  0
XRECORD
  5
20D
102
{ACAD_REACTORS
330
20C
102
}
330
20C
100
AcDbXrecord
280
     1
102
RTVSPropertyOp0
 70
     1
102
RTVSPropertyOp1
 70
     1
102
RTVSPropertyOp2
 70
     1
102
RTVSPropertyOp3
 70
     1
102
RTVSPropertyOp4
 70
     1
102
RTVSPropertyOp5
 70
     1
102
RTVSPropertyOp6
 70
     1
102
RTVSPropertyOp7
 70
     1
102
RTVSPropertyOp8
 70
     1
102
RTVSPropertyOp9
 70
     1
102
RTVSPropertyOp10
 70
     1
102
RTVSPropertyOp11
 70
     1
102
RTVSPropertyOp12
 70
     1
102
RTVSPropertyOp13
 70
     1
102
RTVSPropertyOp14
 70
     1
102
RTVSPropertyOp15
 70
     1
102
RTVSPropertyOp16
 70
     1
102
RTVSPropertyOp17
 70
     1
102
RTVSPropertyOp18
 70
     1
102
RTVSPropertyOp19
 70
     1
102
RTVSPropertyOp20
 70
     1
102
RTVSPropertyOp21
 70
     1
102
RTVSPropertyOp22
 70
     1
102
RTVSPropertyOp23
 70
     1
102
RTVSPropertyOp24
 70
     1
102
RTVSPropertyOp25
 70
     1
102
RTVSPropertyOp26
 70
     1
102
RTVSPropertyOp27
 70
     1
102
RTVSPropertyOp28
 70
     1
102
RTVSPropertyOp29
 70
     1
102
RTVSPropertyOp30
 70
     1
102
RTVSPropertyOp31
 70
     1
102
RTVSPropertyOp32
 70
     1
102
RTVSPropertyOp33
 70
     1
102
RTVSPropertyOp34
 70
     1
102
RTVSPropertyOp35
 70
     1
102
RTVSPropertyOp36
 70
     1
102
RTVSPropertyOp37
 70
     1
102
RTVSPropertyOp38
 70
     1
102
RTVSPropertyOp39
 70
     1
102
RTVSPropertyOp40
 70
     1
102
RTVSPropertyOp41
 70
     1
102
RTVSPropertyOp42
 70
     1
102
RTVSPropertyOp43
 70
     1
102
RTVSPropertyOp44
 70
     1
102
RTVSPropertyOp45
 70
     1
102
RTVSPropertyOp46
 70
     1
102
RTVSPropertyOp47
 70
     1
102
RTVSPropertyOp48
 70
     1
102
RTVSPropertyOp49
 70
     1
102
RTVSPropertyOp50
 70
     1
102
RTVSPropertyOp51
 70
     0
102
RTVSPropertyOp52
 70
     0
102
RTVSPropertyOp53
 70
     1
102
RTVSPropertyOp54
 70
     1
102
RTVSPropertyOp55
 70
     1
102
RTVSPropertyOp56
 70
     1
102
RTVSPropertyOp57
 70
     1
102
RTVSPost2010Prop28
280
     0
102
RTVSPost2010PropOp28
 70
     1
102
RTVSPost2010Prop29
280
     1
102
RTVSPost2010PropOp29
 70
     1
102
RTVSPost2010Prop30
280
     1
102
RTVSPost2010PropOp30
 70
     1
102
RTVSPost2010Prop31
280
     0
102
RTVSPost2010PropOp31
 70
     1
102
RTVSPost2010Prop32
280
     0
102
RTVSPost2010PropOp32
 70
     1
102
RTVSPost2010Prop33
280
     0
102
RTVSPost2010PropOp33
 70
     1
102
RTVSPost2010Prop34
280
     0
102
RTVSPost2010PropOp34
 70
     1
102
RTVSPost2010Prop35
280
     0
102
RTVSPost2010PropOp35
 70
     1
102
RTVSPost2010Prop36
280
     0
102
RTVSPost2010PropOp36
 70
     1
102
RTVSPost2010Prop37
 90
       50
102
RTVSPost2010PropOp37
 70
     1
102
RTVSPost2010Prop38
140
0.0
102
RTVSPost2010PropOp38
 70
     1
102
RTVSPost2010Prop39
140
1.0
102
RTVSPost2010PropOp39
 70
     1
102
RTVSPost2010Prop40
 90
        0
102
RTVSPost2010PropOp40
 70
     1
102
RTVSPost2010Prop41ColorIndex
 90
       18
102
RTVSPost2010Prop41ColorRGB
 90
        0
102
RTVSPost2010PropOp41
 70
     1
102
RTVSPost2010Prop42
 90
       50
102
RTVSPost2010PropOp42
 70
     1
102
RTVSPost2010Prop43
 90
        3
102
RTVSPost2010PropOp43
 70
     1
102
RTVSPost2010Prop44ColorIndex
 90
        5
102
RTVSPost2010Prop44ColorRGB
 90
      255
102
RTVSPost2010PropOp44
 70
     1
102
RTVSPost2010Prop45
280
     0
102
RTVSPost2010PropOp45
 70
     1
102
RTVSPost2010Prop46
 90
       50
102
RTVSPost2010PropOp46
 70
     1
102
RTVSPost2010Prop47
 90
       50
102
RTVSPost2010PropOp47
 70
     1
102
RTVSPost2010Prop48
 90
       50
102
RTVSPost2010PropOp48
 70
     1
102
RTVSPost2010Prop49
280
     0
102
RTVSPost2010PropOp49
 70
     1
102
RTVSPost2010Prop50
 90
       50
102
RTVSPost2010PropOp50
 70
     1
102
RTVSPost2010Prop51ColorIndex
 90
      256
102
RTVSPost2010Prop51ColorRGB
 90
-16777216
102
RTVSPost2010PropOp51
 70
     0
102
RTVSPost2010Prop52
140
1.0
102
RTVSPost2010PropOp52
 70
     0
102
RTVSPost2010Prop53
 90
        2
102
RTVSPost2010PropOp53
 70
     1
102
RTVSPost2010Prop54
  1
strokes_ogs.tif
102
RTVSPost2010PropOp54
 70
     1
102
RTVSPost2010Prop55
280
     0
102
RTVSPost2010PropOp55
 70
     1
102
RTVSPost2010Prop56
140
1.0
102
RTVSPost2010PropOp56
 70
     1
102
RTVSPost2010Prop57
140
1.0
102
RTVSPost2010PropOp57
 70
     1
  0
XRECORD
  5
20F
102
{ACAD_REACTORS
330
20E
102
}
330
20E
100
AcDbXrecord
280
     1
102
RTVSPropertyOp0
 70
     1
102
RTVSPropertyOp1
 70
     1
102
RTVSPropertyOp2
 70
     1
102
RTVSPropertyOp3
 70
     1
102
RTVSPropertyOp4
 70
     1
102
RTVSPropertyOp5
 70
     1
102
RTVSPropertyOp6
 70
     1
102
RTVSPropertyOp7
 70
     1
102
RTVSPropertyOp8
 70
     1
102
RTVSPropertyOp9
 70
     1
102
RTVSPropertyOp10
 70
     1
102
RTVSPropertyOp11
 70
     1
102
RTVSPropertyOp12
 70
     1
102
RTVSPropertyOp13
 70
     1
102
RTVSPropertyOp14
 70
     1
102
RTVSPropertyOp15
 70
     1
102
RTVSPropertyOp16
 70
     1
102
RTVSPropertyOp17
 70
     1
102
RTVSPropertyOp18
 70
     1
102
RTVSPropertyOp19
 70
     1
102
RTVSPropertyOp20
 70
     1
102
RTVSPropertyOp21
 70
     1
102
RTVSPropertyOp22
 70
     1
102
RTVSPropertyOp23
 70
     1
102
RTVSPropertyOp24
 70
     1
102
RTVSPropertyOp25
 70
     1
102
RTVSPropertyOp26
 70
     1
102
RTVSPropertyOp27
 70
     1
102
RTVSPropertyOp28
 70
     1
102
RTVSPropertyOp29
 70
     1
102
RTVSPropertyOp30
 70
     1
102
RTVSPropertyOp31
 70
     1
102
RTVSPropertyOp32
 70
     1
102
RTVSPropertyOp33
 70
     1
102
RTVSPropertyOp34
 70
     1
102
RTVSPropertyOp35
 70
     1
102
RTVSPropertyOp36
 70
     1
102
RTVSPropertyOp37
 70
     1
102
RTVSPropertyOp38
 70
     1
102
RTVSPropertyOp39
 70
     1
102
RTVSPropertyOp40
 70
     1
102
RTVSPropertyOp41
 70
     1
102
RTVSPropertyOp42
 70
     1
102
RTVSPropertyOp43
 70
     1
102
RTVSPropertyOp44
 70
     1
102
RTVSPropertyOp45
 70
     1
102
RTVSPropertyOp46
 70
     1
102
RTVSPropertyOp47
 70
     1
102
RTVSPropertyOp48
 70
     1
102
RTVSPropertyOp49
 70
     1
102
RTVSPropertyOp50
 70
     1
102
RTVSPropertyOp51
 70
     0
102
RTVSPropertyOp52
 70
     0
102
RTVSPropertyOp53
 70
     1
102
RTVSPropertyOp54
 70
     1
102
RTVSPropertyOp55
 70
     1
102
RTVSPropertyOp56
 70
     1
102
RTVSPropertyOp57
 70
     1
102
RTVSPost2010Prop28
280
     0
102
RTVSPost2010PropOp28
 70
     1
102
RTVSPost2010Prop29
280
     1
102
RTVSPost2010PropOp29
 70
     1
102
RTVSPost2010Prop30
280
     1
102
RTVSPost2010PropOp30
 70
     1
102
RTVSPost2010Prop31
280
     0
102
RTVSPost2010PropOp31
 70
     1
102
RTVSPost2010Prop32
280
     0
102
RTVSPost2010PropOp32
 70
     1
102
RTVSPost2010Prop33
280
     0
102
RTVSPost2010PropOp33
 70
     1
102
RTVSPost2010Prop34
280
     0
102
RTVSPost2010PropOp34
 70
     1
102
RTVSPost2010Prop35
280
     0
102
RTVSPost2010PropOp35
 70
     1
102
RTVSPost2010Prop36
280
     0
102
RTVSPost2010PropOp36
 70
     1
102
RTVSPost2010Prop37
 90
       50
102
RTVSPost2010PropOp37
 70
     1
102
RTVSPost2010Prop38
140
0.0
102
RTVSPost2010PropOp38
 70
     1
102
RTVSPost2010Prop39
140
1.0
102
RTVSPost2010PropOp39
 70
     1
102
RTVSPost2010Prop40
 90
        0
102
RTVSPost2010PropOp40
 70
     1
102
RTVSPost2010Prop41ColorIndex
 90
       18
102
RTVSPost2010Prop41ColorRGB
 90
        0
102
RTVSPost2010PropOp41
 70
     1
102
RTVSPost2010Prop42
 90
       50
102
RTVSPost2010PropOp42
 70
     1
102
RTVSPost2010Prop43
 90
        3
102
RTVSPost2010PropOp43
 70
     1
102
RTVSPost2010Prop44ColorIndex
 90
        5
102
RTVSPost2010Prop44ColorRGB
 90
      255
102
RTVSPost2010PropOp44
 70
     1
102
RTVSPost2010Prop45
280
     0
102
RTVSPost2010PropOp45
 70
     1
102
RTVSPost2010Prop46
 90
       50
102
RTVSPost2010PropOp46
 70
     1
102
RTVSPost2010Prop47
 90
       50
102
RTVSPost2010PropOp47
 70
     1
102
RTVSPost2010Prop48
 90
       50
102
RTVSPost2010PropOp48
 70
     1
102
RTVSPost2010Prop49
280
     0
102
RTVSPost2010PropOp49
 70
     1
102
RTVSPost2010Prop50
 90
       50
102
RTVSPost2010PropOp50
 70
     1
102
RTVSPost2010Prop51ColorIndex
 90
      256
102
RTVSPost2010Prop51ColorRGB
 90
-16777216
102
RTVSPost2010PropOp51
 70
     0
102
RTVSPost2010Prop52
140
1.0
102
RTVSPost2010PropOp52
 70
     0
102
RTVSPost2010Prop53
 90
        2
102
RTVSPost2010PropOp53
 70
     1
102
RTVSPost2010Prop54
  1
strokes_ogs.tif
102
RTVSPost2010PropOp54
 70
     1
102
RTVSPost2010Prop55
280
     0
102
RTVSPost2010PropOp55
 70
     1
102
RTVSPost2010Prop56
140
1.0
102
RTVSPost2010PropOp56
 70
     1
102
RTVSPost2010Prop57
140
1.0
102
RTVSPost2010PropOp57
 70
     1
  0
XRECORD
  5
1FF
102
{ACAD_REACTORS
330
1FE
102
}
330
1FE
100
AcDbXrecord
280
     1
102
RTVSPropertyOp0
 70
     1
102
RTVSPropertyOp1
 70
     1
102
RTVSPropertyOp2
 70
     1
102
RTVSPropertyOp3
 70
     1
102
RTVSPropertyOp4
 70
     1
102
RTVSPropertyOp5
 70
     1
102
RTVSPropertyOp6
 70
     1
102
RTVSPropertyOp7
 70
     1
102
RTVSPropertyOp8
 70
     1
102
RTVSPropertyOp9
 70
     1
102
RTVSPropertyOp10
 70
     1
102
RTVSPropertyOp11
 70
     1
102
RTVSPropertyOp12
 70
     1
102
RTVSPropertyOp13
 70
     1
102
RTVSPropertyOp14
 70
     1
102
RTVSPropertyOp15
 70
     1
102
RTVSPropertyOp16
 70
     1
102
RTVSPropertyOp17
 70
     1
102
RTVSPropertyOp18
 70
     1
102
RTVSPropertyOp19
 70
     1
102
RTVSPropertyOp20
 70
     1
102
RTVSPropertyOp21
 70
     1
102
RTVSPropertyOp22
 70
     1
102
RTVSPropertyOp23
 70
     1
102
RTVSPropertyOp24
 70
     1
102
RTVSPropertyOp25
 70
     1
102
RTVSPropertyOp26
 70
     1
102
RTVSPropertyOp27
 70
     1
102
RTVSPropertyOp28
 70
     1
102
RTVSPropertyOp29
 70
     1
102
RTVSPropertyOp30
 70
     1
102
RTVSPropertyOp31
 70
     1
102
RTVSPropertyOp32
 70
     1
102
RTVSPropertyOp33
 70
     1
102
RTVSPropertyOp34
 70
     1
102
RTVSPropertyOp35
 70
     1
102
RTVSPropertyOp36
 70
     1
102
RTVSPropertyOp37
 70
     1
102
RTVSPropertyOp38
 70
     1
102
RTVSPropertyOp39
 70
     1
102
RTVSPropertyOp40
 70
     1
102
RTVSPropertyOp41
 70
     1
102
RTVSPropertyOp42
 70
     1
102
RTVSPropertyOp43
 70
     1
102
RTVSPropertyOp44
 70
     1
102
RTVSPropertyOp45
 70
     1
102
RTVSPropertyOp46
 70
     1
102
RTVSPropertyOp47
 70
     1
102
RTVSPropertyOp48
 70
     1
102
RTVSPropertyOp49
 70
     1
102
RTVSPropertyOp50
 70
     1
102
RTVSPropertyOp51
 70
     0
102
RTVSPropertyOp52
 70
     0
102
RTVSPropertyOp53
 70
     1
102
RTVSPropertyOp54
 70
     1
102
RTVSPropertyOp55
 70
     1
102
RTVSPropertyOp56
 70
     1
102
RTVSPropertyOp57
 70
     1
102
RTVSPost2010Prop28
280
     0
102
RTVSPost2010PropOp28
 70
     1
102
RTVSPost2010Prop29
280
     1
102
RTVSPost2010PropOp29
 70
     1
102
RTVSPost2010Prop30
280
     1
102
RTVSPost2010PropOp30
 70
     1
102
RTVSPost2010Prop31
280
     0
102
RTVSPost2010PropOp31
 70
     1
102
RTVSPost2010Prop32
280
     0
102
RTVSPost2010PropOp32
 70
     1
102
RTVSPost2010Prop33
280
     0
102
RTVSPost2010PropOp33
 70
     1
102
RTVSPost2010Prop34
280
     0
102
RTVSPost2010PropOp34
 70
     1
102
RTVSPost2010Prop35
280
     0
102
RTVSPost2010PropOp35
 70
     1
102
RTVSPost2010Prop36
280
     0
102
RTVSPost2010PropOp36
 70
     1
102
RTVSPost2010Prop37
 90
       50
102
RTVSPost2010PropOp37
 70
     1
102
RTVSPost2010Prop38
140
0.0
102
RTVSPost2010PropOp38
 70
     1
102
RTVSPost2010Prop39
140
1.0
102
RTVSPost2010PropOp39
 70
     1
102
RTVSPost2010Prop40
 90
        0
102
RTVSPost2010PropOp40
 70
     1
102
RTVSPost2010Prop41ColorIndex
 90
       18
102
RTVSPost2010Prop41ColorRGB
 90
        0
102
RTVSPost2010PropOp41
 70
     1
102
RTVSPost2010Prop42
 90
       50
102
RTVSPost2010PropOp42
 70
     1
102
RTVSPost2010Prop43
 90
        3
102
RTVSPost2010PropOp43
 70
     1
102
RTVSPost2010Prop44ColorIndex
 90
        5
102
RTVSPost2010Prop44ColorRGB
 90
      255
102
RTVSPost2010PropOp44
 70
     1
102
RTVSPost2010Prop45
280
     0
102
RTVSPost2010PropOp45
 70
     1
102
RTVSPost2010Prop46
 90
       50
102
RTVSPost2010PropOp46
 70
     1
102
RTVSPost2010Prop47
 90
       50
102
RTVSPost2010PropOp47
 70
     1
102
RTVSPost2010Prop48
 90
       50
102
RTVSPost2010PropOp48
 70
     1
102
RTVSPost2010Prop49
280
     0
102
RTVSPost2010PropOp49
 70
     1
102
RTVSPost2010Prop50
 90
       50
102
RTVSPost2010PropOp50
 70
     1
102
RTVSPost2010Prop51ColorIndex
 90
      256
102
RTVSPost2010Prop51ColorRGB
 90
-16777216
102
RTVSPost2010PropOp51
 70
     0
102
RTVSPost2010Prop52
140
1.0
102
RTVSPost2010PropOp52
 70
     0
102
RTVSPost2010Prop53
 90
        2
102
RTVSPost2010PropOp53
 70
     1
102
RTVSPost2010Prop54
  1
strokes_ogs.tif
102
RTVSPost2010PropOp54
 70
     1
102
RTVSPost2010Prop55
280
     0
102
RTVSPost2010PropOp55
 70
     1
102
RTVSPost2010Prop56
140
1.0
102
RTVSPost2010PropOp56
 70
     1
102
RTVSPost2010Prop57
140
1.0
102
RTVSPost2010PropOp57
 70
     1
  0
XRECORD
  5
1F1
102
{ACAD_REACTORS
330
1F0
102
}
330
1F0
100
AcDbXrecord
280
     1
102
RTVSPropertyOp0
 70
     1
102
RTVSPropertyOp1
 70
     1
102
RTVSPropertyOp2
 70
     1
102
RTVSPropertyOp3
 70
     1
102
RTVSPropertyOp4
 70
     1
102
RTVSPropertyOp5
 70
     1
102
RTVSPropertyOp6
 70
     1
102
RTVSPropertyOp7
 70
     1
102
RTVSPropertyOp8
 70
     1
102
RTVSPropertyOp9
 70
     1
102
RTVSPropertyOp10
 70
     1
102
RTVSPropertyOp11
 70
     1
102
RTVSPropertyOp12
 70
     1
102
RTVSPropertyOp13
 70
     1
102
RTVSPropertyOp14
 70
     1
102
RTVSPropertyOp15
 70
     1
102
RTVSPropertyOp16
 70
     1
102
RTVSPropertyOp17
 70
     1
102
RTVSPropertyOp18
 70
     1
102
RTVSPropertyOp19
 70
     1
102
RTVSPropertyOp20
 70
     1
102
RTVSPropertyOp21
 70
     1
102
RTVSPropertyOp22
 70
     1
102
RTVSPropertyOp23
 70
     1
102
RTVSPropertyOp24
 70
     1
102
RTVSPropertyOp25
 70
     1
102
RTVSPropertyOp26
 70
     1
102
RTVSPropertyOp27
 70
     1
102
RTVSPropertyOp28
 70
     1
102
RTVSPropertyOp29
 70
     1
102
RTVSPropertyOp30
 70
     1
102
RTVSPropertyOp31
 70
     1
102
RTVSPropertyOp32
 70
     1
102
RTVSPropertyOp33
 70
     1
102
RTVSPropertyOp34
 70
     1
102
RTVSPropertyOp35
 70
     1
102
RTVSPropertyOp36
 70
     1
102
RTVSPropertyOp37
 70
     1
102
RTVSPropertyOp38
 70
     1
102
RTVSPropertyOp39
 70
     1
102
RTVSPropertyOp40
 70
     1
102
RTVSPropertyOp41
 70
     1
102
RTVSPropertyOp42
 70
     1
102
RTVSPropertyOp43
 70
     1
102
RTVSPropertyOp44
 70
     1
102
RTVSPropertyOp45
 70
     1
102
RTVSPropertyOp46
 70
     1
102
RTVSPropertyOp47
 70
     1
102
RTVSPropertyOp48
 70
     1
102
RTVSPropertyOp49
 70
     1
102
RTVSPropertyOp50
 70
     1
102
RTVSPropertyOp51
 70
     0
102
RTVSPropertyOp52
 70
     0
102
RTVSPropertyOp53
 70
     1
102
RTVSPropertyOp54
 70
     1
102
RTVSPropertyOp55
 70
     1
102
RTVSPropertyOp56
 70
     1
102
RTVSPropertyOp57
 70
     1
102
RTVSPost2010Prop28
280
     0
102
RTVSPost2010PropOp28
 70
     1
102
RTVSPost2010Prop29
280
     1
102
RTVSPost2010PropOp29
 70
     1
102
RTVSPost2010Prop30
280
     1
102
RTVSPost2010PropOp30
 70
     1
102
RTVSPost2010Prop31
280
     0
102
RTVSPost2010PropOp31
 70
     1
102
RTVSPost2010Prop32
280
     0
102
RTVSPost2010PropOp32
 70
     1
102
RTVSPost2010Prop33
280
     0
102
RTVSPost2010PropOp33
 70
     1
102
RTVSPost2010Prop34
280
     0
102
RTVSPost2010PropOp34
 70
     1
102
RTVSPost2010Prop35
280
     0
102
RTVSPost2010PropOp35
 70
     1
102
RTVSPost2010Prop36
280
     0
102
RTVSPost2010PropOp36
 70
     1
102
RTVSPost2010Prop37
 90
       50
102
RTVSPost2010PropOp37
 70
     1
102
RTVSPost2010Prop38
140
0.0
102
RTVSPost2010PropOp38
 70
     1
102
RTVSPost2010Prop39
140
1.0
102
RTVSPost2010PropOp39
 70
     1
102
RTVSPost2010Prop40
 90
        0
102
RTVSPost2010PropOp40
 70
     1
102
RTVSPost2010Prop41ColorIndex
 90
       18
102
RTVSPost2010Prop41ColorRGB
 90
        0
102
RTVSPost2010PropOp41
 70
     1
102
RTVSPost2010Prop42
 90
       50
102
RTVSPost2010PropOp42
 70
     1
102
RTVSPost2010Prop43
 90
        3
102
RTVSPost2010PropOp43
 70
     1
102
RTVSPost2010Prop44ColorIndex
 90
        5
102
RTVSPost2010Prop44ColorRGB
 90
      255
102
RTVSPost2010PropOp44
 70
     1
102
RTVSPost2010Prop45
280
     0
102
RTVSPost2010PropOp45
 70
     1
102
RTVSPost2010Prop46
 90
       50
102
RTVSPost2010PropOp46
 70
     1
102
RTVSPost2010Prop47
 90
       50
102
RTVSPost2010PropOp47
 70
     1
102
RTVSPost2010Prop48
 90
       50
102
RTVSPost2010PropOp48
 70
     1
102
RTVSPost2010Prop49
280
     0
102
RTVSPost2010PropOp49
 70
     1
102
RTVSPost2010Prop50
 90
       50
102
RTVSPost2010PropOp50
 70
     1
102
RTVSPost2010Prop51ColorIndex
 90
      256
102
RTVSPost2010Prop51ColorRGB
 90
-16777216
102
RTVSPost2010PropOp51
 70
     0
102
RTVSPost2010Prop52
140
1.0
102
RTVSPost2010PropOp52
 70
     0
102
RTVSPost2010Prop53
 90
        2
102
RTVSPost2010PropOp53
 70
     1
102
RTVSPost2010Prop54
  1
strokes_ogs.tif
102
RTVSPost2010PropOp54
 70
     1
102
RTVSPost2010Prop55
280
     0
102
RTVSPost2010PropOp55
 70
     1
102
RTVSPost2010Prop56
140
1.0
102
RTVSPost2010PropOp56
 70
     1
102
RTVSPost2010Prop57
140
1.0
102
RTVSPost2010PropOp57
 70
     1
  0
XRECORD
  5
211
102
{ACAD_REACTORS
330
210
102
}
330
210
100
AcDbXrecord
280
     1
102
RTVSPropertyOp0
 70
     1
102
RTVSPropertyOp1
 70
     1
102
RTVSPropertyOp2
 70
     1
102
RTVSPropertyOp3
 70
     1
102
RTVSPropertyOp4
 70
     1
102
RTVSPropertyOp5
 70
     1
102
RTVSPropertyOp6
 70
     1
102
RTVSPropertyOp7
 70
     1
102
RTVSPropertyOp8
 70
     1
102
RTVSPropertyOp9
 70
     1
102
RTVSPropertyOp10
 70
     1
102
RTVSPropertyOp11
 70
     1
102
RTVSPropertyOp12
 70
     1
102
RTVSPropertyOp13
 70
     1
102
RTVSPropertyOp14
 70
     1
102
RTVSPropertyOp15
 70
     1
102
RTVSPropertyOp16
 70
     1
102
RTVSPropertyOp17
 70
     1
102
RTVSPropertyOp18
 70
     1
102
RTVSPropertyOp19
 70
     1
102
RTVSPropertyOp20
 70
     1
102
RTVSPropertyOp21
 70
     1
102
RTVSPropertyOp22
 70
     1
102
RTVSPropertyOp23
 70
     1
102
RTVSPropertyOp24
 70
     1
102
RTVSPropertyOp25
 70
     1
102
RTVSPropertyOp26
 70
     1
102
RTVSPropertyOp27
 70
     1
102
RTVSPropertyOp28
 70
     1
102
RTVSPropertyOp29
 70
     1
102
RTVSPropertyOp30
 70
     1
102
RTVSPropertyOp31
 70
     1
102
RTVSPropertyOp32
 70
     1
102
RTVSPropertyOp33
 70
     1
102
RTVSPropertyOp34
 70
     1
102
RTVSPropertyOp35
 70
     1
102
RTVSPropertyOp36
 70
     1
102
RTVSPropertyOp37
 70
     1
102
RTVSPropertyOp38
 70
     1
102
RTVSPropertyOp39
 70
     1
102
RTVSPropertyOp40
 70
     1
102
RTVSPropertyOp41
 70
     1
102
RTVSPropertyOp42
 70
     1
102
RTVSPropertyOp43
 70
     1
102
RTVSPropertyOp44
 70
     1
102
RTVSPropertyOp45
 70
     1
102
RTVSPropertyOp46
 70
     1
102
RTVSPropertyOp47
 70
     1
102
RTVSPropertyOp48
 70
     1
102
RTVSPropertyOp49
 70
     1
102
RTVSPropertyOp50
 70
     1
102
RTVSPropertyOp51
 70
     0
102
RTVSPropertyOp52
 70
     0
102
RTVSPropertyOp53
 70
     1
102
RTVSPropertyOp54
 70
     1
102
RTVSPropertyOp55
 70
     1
102
RTVSPropertyOp56
 70
     1
102
RTVSPropertyOp57
 70
     1
102
RTVSPost2010Prop28
280
     0
102
RTVSPost2010PropOp28
 70
     1
102
RTVSPost2010Prop29
280
     1
102
RTVSPost2010PropOp29
 70
     1
102
RTVSPost2010Prop30
280
     1
102
RTVSPost2010PropOp30
 70
     1
102
RTVSPost2010Prop31
280
     0
102
RTVSPost2010PropOp31
 70
     1
102
RTVSPost2010Prop32
280
     0
102
RTVSPost2010PropOp32
 70
     1
102
RTVSPost2010Prop33
280
     0
102
RTVSPost2010PropOp33
 70
     1
102
RTVSPost2010Prop34
280
     0
102
RTVSPost2010PropOp34
 70
     1
102
RTVSPost2010Prop35
280
     0
102
RTVSPost2010PropOp35
 70
     1
102
RTVSPost2010Prop36
280
     0
102
RTVSPost2010PropOp36
 70
     1
102
RTVSPost2010Prop37
 90
       50
102
RTVSPost2010PropOp37
 70
     1
102
RTVSPost2010Prop38
140
0.0
102
RTVSPost2010PropOp38
 70
     1
102
RTVSPost2010Prop39
140
1.0
102
RTVSPost2010PropOp39
 70
     1
102
RTVSPost2010Prop40
 90
        0
102
RTVSPost2010PropOp40
 70
     1
102
RTVSPost2010Prop41ColorIndex
 90
       18
102
RTVSPost2010Prop41ColorRGB
 90
        0
102
RTVSPost2010PropOp41
 70
     1
102
RTVSPost2010Prop42
 90
       50
102
RTVSPost2010PropOp42
 70
     1
102
RTVSPost2010Prop43
 90
        3
102
RTVSPost2010PropOp43
 70
     1
102
RTVSPost2010Prop44ColorIndex
 90
        5
102
RTVSPost2010Prop44ColorRGB
 90
      255
102
RTVSPost2010PropOp44
 70
     1
102
RTVSPost2010Prop45
280
     0
102
RTVSPost2010PropOp45
 70
     1
102
RTVSPost2010Prop46
 90
       50
102
RTVSPost2010PropOp46
 70
     1
102
RTVSPost2010Prop47
 90
       50
102
RTVSPost2010PropOp47
 70
     1
102
RTVSPost2010Prop48
 90
       50
102
RTVSPost2010PropOp48
 70
     1
102
RTVSPost2010Prop49
280
     0
102
RTVSPost2010PropOp49
 70
     1
102
RTVSPost2010Prop50
 90
       50
102
RTVSPost2010PropOp50
 70
     1
102
RTVSPost2010Prop51ColorIndex
 90
      256
102
RTVSPost2010Prop51ColorRGB
 90
-16777216
102
RTVSPost2010PropOp51
 70
     0
102
RTVSPost2010Prop52
140
1.0
102
RTVSPost2010PropOp52
 70
     0
102
RTVSPost2010Prop53
 90
        2
102
RTVSPost2010PropOp53
 70
     1
102
RTVSPost2010Prop54
  1
strokes_ogs.tif
102
RTVSPost2010PropOp54
 70
     1
102
RTVSPost2010Prop55
280
     0
102
RTVSPost2010PropOp55
 70
     1
102
RTVSPost2010Prop56
140
1.0
102
RTVSPost2010PropOp56
 70
     1
102
RTVSPost2010Prop57
140
1.0
102
RTVSPost2010PropOp57
 70
     1
  0
ENDSEC
  0
EOF
