  0
SECTION
  2
HEADER
  9
$ACADVER
  1
AC1018
  9
$ACADMAINTVER
 70
     0
  9
$DWGCODEPAGE
  3
ANSI_932
  9
$INSBASE
 10
0.0
 20
0.0
 30
0.0
  9
$EXTMIN
 10
-2100.0
 20
-1485.0
 30
0.0
  9
$EXTMAX
 10
2100.0
 20
1485.0
 30
0.0
  9
$LIMMIN
 10
-2100.0
 20
-1485.0
  9
$LIMMAX
 10
2100.0
 20
1485.0
  9
$ORTHOMODE
 70
     0
  9
$REGENMODE
 70
     1
  9
$FILLMODE
 70
     1
  9
$QTEXTMODE
 70
     0
  9
$MIRRTEXT
 70
     1
  9
$LTSCALE
 40
10.0
  9
$ATTMODE
 70
     1
  9
$TEXTSIZE
 40
2.5
  9
$TRACEWID
 40
1.0
  9
$TEXTSTYLE
  7
Standard
  9
$CLAYER
  8
0
  9
$CELTYPE
  6
ByLayer
  9
$CECOLOR
 62
   256
  9
$CELTSCALE
 40
1.0
  9
$DISPSILH
 70
     0
  9
$DIMSCALE
 40
1.0
  9
$DIMASZ
 40
2.5
  9
$DIMEXO
 40
0.625
  9
$DIMDLI
 40
3.75
  9
$DIMRND
 40
0.0
  9
$DIMDLE
 40
0.0
  9
$DIMEXE
 40
1.25
  9
$DIMTP
 40
0.0
  9
$DIMTM
 40
0.0
  9
$DIMTXT
 40
2.5
  9
$DIMCEN
 40
2.5
  9
$DIMTSZ
 40
0.0
  9
$DIMTOL
 70
     0
  9
$DIMLIM
 70
     0
  9
$DIMTIH
 70
     0
  9
$DIMTOH
 70
     0
  9
$DIMSE1
 70
     0
  9
$DIMSE2
 70
     0
  9
$DIMTAD
 70
     1
  9
$DIMZIN
 70
     8
  9
$DIMBLK
  1

  9
$DIMASO
 70
     1
  9
$DIMSHO
 70
     1
  9
$DIMPOST
  1

  9
$DIMAPOST
  1

  9
$DIMALT
 70
     0
  9
$DIMALTD
 70
     3
  9
$DIMALTF
 40
0.03937007874016
  9
$DIMLFAC
 40
1.0
  9
$DIMTOFL
 70
     1
  9
$DIMTVP
 40
0.0
  9
$DIMTIX
 70
     0
  9
$DIMSOXD
 70
     0
  9
$DIMSAH
 70
     0
  9
$DIMBLK1
  1

  9
$DIMBLK2
  1

  9
$DIMSTYLE
  2
ISO-25
  9
$DIMCLRD
 70
     0
  9
$DIMCLRE
 70
     0
  9
$DIMCLRT
 70
     0
  9
$DIMTFAC
 40
1.0
  9
$DIMGAP
 40
0.625
  9
$DIMJUST
 70
     0
  9
$DIMSD1
 70
     0
  9
$DIMSD2
 70
     0
  9
$DIMTOLJ
 70
     0
  9
$DIMTZIN
 70
     8
  9
$DIMALTZ
 70
     0
  9
$DIMALTTZ
 70
     0
  9
$DIMUPT
 70
     0
  9
$DIMDEC
 70
     2
  9
$DIMTDEC
 70
     2
  9
$DIMALTU
 70
     2
  9
$DIMALTTD
 70
     3
  9
$DIMTXSTY
  7
Standard
  9
$DIMAUNIT
 70
     0
  9
$DIMADEC
 70
     0
  9
$DIMALTRND
 40
0.0
  9
$DIMAZIN
 70
     0
  9
$DIMDSEP
 70
    44
  9
$DIMATFIT
 70
     3
  9
$DIMFRAC
 70
     0
  9
$DIMLDRBLK
  1

  9
$DIMLUNIT
 70
     2
  9
$DIMLWD
 70
    -2
  9
$DIMLWE
 70
    -2
  9
$DIMTMOVE
 70
     0
  9
$LUNITS
 70
     2
  9
$LUPREC
 70
     4
  9
$SKETCHINC
 40
1.0
  9
$FILLETRAD
 40
10.0
  9
$AUNITS
 70
     0
  9
$AUPREC
 70
     0
  9
$MENU
  1
.
  9
$ELEVATION
 40
0.0
  9
$PELEVATION
 40
0.0
  9
$THICKNESS
 40
0.0
  9
$LIMCHECK
 70
     0
  9
$CHAMFERA
 40
0.0
  9
$CHAMFERB
 40
0.0
  9
$CHAMFERC
 40
0.0
  9
$CHAMFERD
 40
0.0
  9
$SKPOLY
 70
     0
  9
$TDCREATE
 40
2460542.55745103
  9
$TDUCREATE
 40
2460542.18245103
  9
$TDUPDATE
 40
2460542.5574511
  9
$TDUUPDATE
 40
2460542.1824511
  9
$TDINDWG
 40
0.0000000116
  9
$TDUSRTIMER
 40
0.0000000116
  9
$USRTIMER
 70
     1
  9
$ANGBASE
 50
0.0
  9
$ANGDIR
 70
     0
  9
$PDMODE
 70
     0
  9
$PDSIZE
 40
0.0
  9
$PLINEWID
 40
0.0
  9
$SPLFRAME
 70
     0
  9
$SPLINETYPE
 70
     6
  9
$SPLINESEGS
 70
     8
  9
$HANDSEED
  5
252
  9
$SURFTAB1
 70
     6
  9
$SURFTAB2
 70
     6
  9
$SURFTYPE
 70
     6
  9
$SURFU
 70
     6
  9
$SURFV
 70
     6
  9
$UCSBASE
  2

  9
$UCSNAME
  2

  9
$UCSORG
 10
0.0
 20
0.0
 30
0.0
  9
$UCSXDIR
 10
1.0
 20
0.0
 30
0.0
  9
$UCSYDIR
 10
0.0
 20
1.0
 30
0.0
  9
$UCSORTHOREF
  2

  9
$UCSORTHOVIEW
 70
     0
  9
$UCSORGTOP
 10
0.0
 20
0.0
 30
0.0
  9
$UCSORGBOTTOM
 10
0.0
 20
0.0
 30
0.0
  9
$UCSORGLEFT
 10
0.0
 20
0.0
 30
0.0
  9
$UCSORGRIGHT
 10
0.0
 20
0.0
 30
0.0
  9
$UCSORGFRONT
 10
0.0
 20
0.0
 30
0.0
  9
$UCSORGBACK
 10
0.0
 20
0.0
 30
0.0
  9
$PUCSBASE
  2

  9
$PUCSNAME
  2

  9
$PUCSORG
 10
0.0
 20
0.0
 30
0.0
  9
$PUCSXDIR
 10
1.0
 20
0.0
 30
0.0
  9
$PUCSYDIR
 10
0.0
 20
1.0
 30
0.0
  9
$PUCSORTHOREF
  2

  9
$PUCSORTHOVIEW
 70
     0
  9
$PUCSORGTOP
 10
0.0
 20
0.0
 30
0.0
  9
$PUCSORGBOTTOM
 10
0.0
 20
0.0
 30
0.0
  9
$PUCSORGLEFT
 10
0.0
 20
0.0
 30
0.0
  9
$PUCSORGRIGHT
 10
0.0
 20
0.0
 30
0.0
  9
$PUCSORGFRONT
 10
0.0
 20
0.0
 30
0.0
  9
$PUCSORGBACK
 10
0.0
 20
0.0
 30
0.0
  9
$USERI1
 70
     0
  9
$USERI2
 70
     0
  9
$USERI3
 70
     0
  9
$USERI4
 70
     0
  9
$USERI5
 70
     0
  9
$USERR1
 40
0.0
  9
$USERR2
 40
0.0
  9
$USERR3
 40
0.0
  9
$USERR4
 40
0.0
  9
$USERR5
 40
0.0
  9
$WORLDVIEW
 70
     1
  9
$SHADEDGE
 70
     3
  9
$SHADEDIF
 70
    70
  9
$TILEMODE
 70
     1
  9
$MAXACTVP
 70
    64
  9
$PINSBASE
 10
0.0
 20
0.0
 30
0.0
  9
$PLIMCHECK
 70
     0
  9
$PEXTMIN
 10
1.000000000000000E+20
 20
1.000000000000000E+20
 30
1.000000000000000E+20
  9
$PEXTMAX
 10
-1.000000000000000E+20
 20
-1.000000000000000E+20
 30
-1.000000000000000E+20
  9
$PLIMMIN
 10
0.0
 20
0.0
  9
$PLIMMAX
 10
420.0
 20
297.0
  9
$UNITMODE
 70
     0
  9
$VISRETAIN
 70
     1
  9
$PLINEGEN
 70
     0
  9
$PSLTSCALE
 70
     1
  9
$TREEDEPTH
 70
  3020
  9
$CMLSTYLE
  2
Standard
  9
$CMLJUST
 70
     0
  9
$CMLSCALE
 40
20.0
  9
$PROXYGRAPHICS
 70
     1
  9
$MEASUREMENT
 70
     1
  9
$CELWEIGHT
370
    -1
  9
$ENDCAPS
280
     0
  9
$JOINSTYLE
280
     0
  9
$LWDISPLAY
290
     0
  9
$INSUNITS
 70
     4
  9
$HYPERLINKBASE
  1

  9
$STYLESHEET
  1

  9
$XEDIT
290
     1
  9
$CEPSNTYPE
380
     0
  9
$PSTYLEMODE
290
     1
  9
$FINGERPRINTGUID
  2
{E27A037C-AB57-4E5B-8743-DE92B51FC3FA}
  9
$VERSIONGUID
  2
{FAEB1C32-E019-11D5-929B-00C0DF256EC4}
  9
$EXTNAMES
290
     1
  9
$PSVPSCALE
 40
0.0
  9
$OLESTARTUP
290
     0
  9
$SORTENTS
280
   127
  9
$INDEXCTL
280
     0
  9
$HIDETEXT
280
     1
  9
$XCLIPFRAME
290
     0
  9
$HALOGAP
280
     0
  9
$OBSCOLOR
 70
   257
  9
$OBSLTYPE
280
     0
  9
$INTERSECTIONDISPLAY
280
     0
  9
$INTERSECTIONCOLOR
 70
   257
  9
$DIMASSOC
280
     2
  9
$PROJECTNAME
  1

  0
ENDSEC
  0
SECTION
  2
CLASSES
  0
CLASS
  1
ACDBDICTIONARYWDFLT
  2
AcDbDictionaryWithDefault
  3
ObjectDBX Classes
 90
        0
 91
        4
280
     0
281
     0
  0
CLASS
  1
VISUALSTYLE
  2
AcDbVisualStyle
  3
ObjectDBX Classes
 90
     4095
 91
        4
280
     0
281
     0
  0
CLASS
  1
MATERIAL
  2
AcDbMaterial
  3
ObjectDBX Classes
 90
     1153
 91
        4
280
     0
281
     0
  0
CLASS
  1
SCALE
  2
AcDbScale
  3
ObjectDBX Classes
 90
     1153
 91
        4
280
     0
281
     0
  0
CLASS
  1
TABLESTYLE
  2
AcDbTableStyle
  3
ObjectDBX Classes
 90
     4095
 91
        4
280
     0
281
     0
  0
CLASS
  1
MLEADERSTYLE
  2
AcDbMLeaderStyle
  3
ACDB_MLEADERSTYLE_CLASS
 90
     4095
 91
        4
280
     0
281
     0
  0
CLASS
  1
SUN
  2
AcDbSun
  3
SCENEOE
 90
     1153
 91
        4
280
     0
281
     0
  0
CLASS
  1
DICTIONARYVAR
  2
AcDbDictionaryVar
  3
ObjectDBX Classes
 90
        0
 91
        4
280
     0
281
     0
  0
CLASS
  1
CELLSTYLEMAP
  2
AcDbCellStyleMap
  3
ObjectDBX Classes
 90
     1152
 91
        4
280
     0
281
     0
  0
ENDSEC
  0
SECTION
  2
TABLES
  0
TABLE
  2
VPORT
  5
8
102
{ACAD_XDICTIONARY
360
209
102
}
330
0
100
AcDbSymbolTable
 70
     1
  0
VPORT
  5
29
330
8
100
AcDbSymbolTableRecord
100
AcDbViewportTableRecord
  2
*Active
 70
     0
 10
0.0
 20
0.0
 11
1.0
 21
1.0
 12
0.0
 22
0.0
 13
0.0
 23
0.0
 14
10.0
 24
10.0
 15
10.0
 25
10.0
 16
0.0
 26
0.0
 36
1.0
 17
0.0
 27
0.0
 37
0.0
 40
3267.0
 41
1.414141414141414
 42
50.0
 43
0.0
 44
0.0
 50
0.0
 51
0.0
 71
     0
 72
 10000
 73
     1
 74
     3
 75
     0
 76
     0
 77
     0
 78
     0
281
     0
 65
     1
110
0.0
120
0.0
130
0.0
111
1.0
121
0.0
131
0.0
112
0.0
122
1.0
132
0.0
 79
     0
146
0.0
  0
ENDTAB
  0
TABLE
  2
LTYPE
  5
5
330
0
100
AcDbSymbolTable
 70
     5
  0
LTYPE
  5
14
330
5
100
AcDbSymbolTableRecord
100
AcDbLinetypeTableRecord
  2
ByBlock
 70
     0
  3

 72
    65
 73
     0
 40
0.0
  0
LTYPE
  5
15
330
5
100
AcDbSymbolTableRecord
100
AcDbLinetypeTableRecord
  2
ByLayer
 70
     0
  3

 72
    65
 73
     0
 40
0.0
  0
LTYPE
  5
16
330
5
100
AcDbSymbolTableRecord
100
AcDbLinetypeTableRecord
  2
Continuous
 70
     0
  3
Solid line
 72
    65
 73
     0
 40
0.0
  0
LTYPE
  5
6F
330
5
100
AcDbSymbolTableRecord
100
AcDbLinetypeTableRecord
  2
JWW_CENTER1
 70
     0
  3
-----  --  ----------  --  -----
 72
    65
 73
     4
 40
6.773333333333333
 49
4.233333333333333
 74
     0
 49
-0.8466666666666667
 74
     0
 49
0.8466666666666667
 74
     0
 49
-0.8466666666666667
 74
     0
  0
LTYPE
  5
70
330
5
100
AcDbSymbolTableRecord
100
AcDbLinetypeTableRecord
  2
JWW_CENTER2
 70
     0
  3
-------------  --  -------------
 72
    65
 73
     4
 40
13.54666666666667
 49
11.00666666666667
 74
     0
 49
-0.8466666666666667
 74
     0
 49
0.8466666666666667
 74
     0
 49
-0.8466666666666667
 74
     0
  0
LTYPE
  5
71
330
5
100
AcDbSymbolTableRecord
100
AcDbLinetypeTableRecord
  2
JWW_DASHED2
 70
     0
  3
--    ----    ----    ----    --
 72
    65
 73
     2
 40
3.386666666666667
 49
1.693333333333333
 74
     0
 49
-1.693333333333333
 74
     0
  0
LTYPE
  5
72
330
5
100
AcDbSymbolTableRecord
100
AcDbLinetypeTableRecord
  2
JWW_DASHED1
 70
     0
  3
-  --  --  --  --  --  --  --  -
 72
    65
 73
     2
 40
1.693333333333333
 49
0.8466666666666667
 74
     0
 49
-0.8466666666666667
 74
     0
  0
ENDTAB
  0
TABLE
  2
LAYER
  5
2
330
0
100
AcDbSymbolTable
 70
    11
  0
LAYER
  5
10
330
2
100
AcDbSymbolTableRecord
100
AcDbLayerTableRecord
  2
0
 70
     0
 62
     7
  6
Continuous
370
    -3
390
F
  0
LAYER
  5
73
330
2
100
AcDbSymbolTableRecord
100
AcDbLayerTableRecord
  2
C-5
 70
     0
 62
     7
  6
Continuous
370
    -3
390
F
  0
LAYER
  5
74
330
2
100
AcDbSymbolTableRecord
100
AcDbLayerTableRecord
  2
C-4
 70
     0
 62
     7
  6
Continuous
370
    -3
390
F
  0
LAYER
  5
75
330
2
100
AcDbSymbolTableRecord
100
AcDbLayerTableRecord
  2
C-1
 70
     0
 62
     7
  6
Continuous
370
    -3
390
F
  0
LAYER
  5
76
330
2
100
AcDbSymbolTableRecord
100
AcDbLayerTableRecord
  2
C-E
 70
     0
 62
     7
  6
Continuous
370
    -3
390
F
  0
LAYER
  5
77
330
2
100
AcDbSymbolTableRecord
100
AcDbLayerTableRecord
  2
C-0
 70
     0
 62
     7
  6
Continuous
370
    -3
390
F
  0
LAYER
  5
78
330
2
100
AcDbSymbolTableRecord
100
AcDbLayerTableRecord
  2
C-D
 70
     0
 62
     7
  6
Continuous
370
    -3
390
F
  0
LAYER
  5
79
330
2
100
AcDbSymbolTableRecord
100
AcDbLayerTableRecord
  2
C-2
 70
     0
 62
     7
  6
Continuous
370
    -3
390
F
  0
LAYER
  5
7A
330
2
100
AcDbSymbolTableRecord
100
AcDbLayerTableRecord
  2
F-5ﾚｲﾔ
 70
     0
 62
     7
  6
Continuous
370
    -3
390
F
  0
LAYER
  5
7B
330
2
100
AcDbSymbolTableRecord
100
AcDbLayerTableRecord
  2
F-Fﾚｲﾔ
 70
     0
 62
     7
  6
Continuous
370
    -3
390
F
  0
LAYER
  5
7C
330
2
100
AcDbSymbolTableRecord
100
AcDbLayerTableRecord
  2
F-4ﾚｲﾔ
 70
     0
 62
     7
  6
Continuous
370
    -3
390
F
  0
ENDTAB
  0
TABLE
  2
STYLE
  5
3
330
0
100
AcDbSymbolTable
 70
     2
  0
STYLE
  5
11
330
3
100
AcDbSymbolTableRecord
100
AcDbTextStyleTableRecord
  2
Standard
 70
     0
 40
0.0
 41
1.0
 50
0.0
 71
     0
 42
2.5
  3
txt
  4

  0
STYLE
  5
6E
330
3
100
AcDbSymbolTableRecord
100
AcDbTextStyleTableRecord
  2
ＭＳ ゴシック
 70
     0
 40
1.0
 41
1.0
 50
0.0
 71
     0
 42
2.5
  3

  4

1001
ACAD
1000
MS Gothic
1071
    32817
  0
ENDTAB
  0
TABLE
  2
VIEW
  5
6
330
0
100
AcDbSymbolTable
 70
     0
  0
ENDTAB
  0
TABLE
  2
UCS
  5
7
330
0
100
AcDbSymbolTable
 70
     0
  0
ENDTAB
  0
TABLE
  2
APPID
  5
9
330
0
100
AcDbSymbolTable
 70
     2
  0
APPID
  5
12
330
9
100
AcDbSymbolTableRecord
100
AcDbRegAppTableRecord
  2
ACAD
 70
     0
  0
APPID
  5
248
330
9
100
AcDbSymbolTableRecord
100
AcDbRegAppTableRecord
  2
ACAD_MLEADERVER
 70
     0
  0
ENDTAB
  0
TABLE
  2
DIMSTYLE
  5
A
330
0
100
AcDbSymbolTable
 70
     1
100
AcDbDimStyleTable
  0
DIMSTYLE
105
27
330
A
100
AcDbSymbolTableRecord
100
AcDbDimStyleTableRecord
  2
ISO-25
 70
     0
 41
2.5
 42
0.625
 43
3.75
 44
1.25
 73
     0
 74
     0
 77
     1
 78
     8
140
2.5
141
2.5
143
0.03937007874016
147
0.625
171
     3
172
     1
178
     0
271
     2
272
     2
274
     3
278
    44
283
     0
284
     8
340
11
  0
ENDTAB
  0
TABLE
  2
BLOCK_RECORD
  5
1
330
0
100
AcDbSymbolTable
 70
     1
  0
BLOCK_RECORD
  5
1F
330
1
100
AcDbSymbolTableRecord
100
AcDbBlockTableRecord
  2
*Model_Space
340
22
  0
BLOCK_RECORD
  5
1B
330
1
100
AcDbSymbolTableRecord
100
AcDbBlockTableRecord
  2
*Paper_Space
340
1E
  0
BLOCK_RECORD
  5
23
330
1
100
AcDbSymbolTableRecord
100
AcDbBlockTableRecord
  2
*Paper_Space0
340
26
  0
ENDTAB
  0
ENDSEC
  0
SECTION
  2
BLOCKS
  0
BLOCK
  5
20
330
1F
100
AcDbEntity
  8
0
100
AcDbBlockBegin
  2
*Model_Space
 70
     0
 10
0.0
 20
0.0
 30
0.0
  3
*Model_Space
  1

  0
ENDBLK
  5
21
330
1F
100
AcDbEntity
  8
0
100
AcDbBlockEnd
  0
BLOCK
  5
1C
330
1B
100
AcDbEntity
 67
     1
  8
0
100
AcDbBlockBegin
  2
*Paper_Space
 70
     0
 10
0.0
 20
0.0
 30
0.0
  3
*Paper_Space
  1

  0
ENDBLK
  5
1D
330
1B
100
AcDbEntity
 67
     1
  8
0
100
AcDbBlockEnd
  0
BLOCK
  5
24
330
23
100
AcDbEntity
  8
0
100
AcDbBlockBegin
  2
*Paper_Space0
 70
     0
 10
0.0
 20
0.0
 30
0.0
  3
*Paper_Space0
  1

  0
ENDBLK
  5
25
330
23
100
AcDbEntity
  8
0
100
AcDbBlockEnd
  0
ENDSEC
  0
SECTION
  2
ENTITIES
  0
TEXT
  5
7D
330
1F
100
AcDbEntity
  8
C-5
  6
Continuous
 62
     7
370
     9
100
AcDbText
 10
1082.754802838651
 20
-29.96332744280674
 30
0.0
 40
22.86
  1
溶融亜鉛めっき
 41
1.142857142857141
  7
ＭＳ ゴシック
100
AcDbText
  0
LINE
  5
7E
330
1F
100
AcDbEntity
  8
C-5
  6
Continuous
 62
     7
370
     9
100
AcDbLine
 10
937.7442658485736
 20
-226.5277885570224
 30
0.0
 11
1074.383180189587
 21
10.14519135241663
 31
0.0
  0
LINE
  5
7F
330
1F
100
AcDbEntity
  8
C-5
  6
Continuous
 62
     7
370
     9
100
AcDbLine
 10
1074.383180189587
 20
10.14519135241663
 30
0.0
 11
1412.755055549453
 21
10.15074423555767
 31
0.0
  0
TEXT
  5
80
330
1F
100
AcDbEntity
  8
C-5
  6
Continuous
 62
     7
370
     9
100
AcDbText
 10
1082.754802838651
 20
29.77999283361716
 30
0.0
 40
22.86
  1
六角ボルト：M12×90
 41
1.157894736842104
  7
ＭＳ ゴシック
100
AcDbText
  0
TEXT
  5
81
330
1F
100
AcDbEntity
  8
C-5
  6
Continuous
 62
     7
370
     9
100
AcDbText
 10
1082.754802838651
 20
69.77999283361716
 30
0.0
 40
22.86
  1
六角ナット：M12
 41
1.155555555555555
  7
ＭＳ ゴシック
100
AcDbText
  0
LINE
  5
82
330
1F
100
AcDbEntity
  8
C-5
  6
Continuous
 62
     7
370
     9
100
AcDbLine
 10
1052.994529321304
 20
-345.5277040557696
 30
0.0
 11
1068.213295136325
 21
-325.6936634420283
 31
0.0
  0
LINE
  5
83
330
1F
100
AcDbEntity
  8
C-5
  6
Continuous
 62
     7
370
     9
100
AcDbLine
 10
1052.994529321304
 20
-345.5277040557696
 30
0.0
 11
1062.561300814105
 21
-322.430585551408
 31
0.0
  0
LINE
  5
84
330
1F
100
AcDbEntity
  8
C-5
  6
Continuous
 62
     7
370
     9
100
AcDbLine
 10
975.6194534397583
 20
-341.0276892093802
 30
0.0
 11
990.8382192547797
 21
-321.1936485956389
 31
0.0
  0
LINE
  5
85
330
1F
100
AcDbEntity
  8
C-5
  6
Continuous
 62
     7
370
     9
100
AcDbLine
 10
975.6194534397583
 20
-341.0276892093802
 30
0.0
 11
985.1862249325595
 21
-317.9305707050185
 31
0.0
  0
LINE
  5
86
330
1F
100
AcDbEntity
  8
C-5
  6
Continuous
 62
     7
370
     9
100
AcDbLine
 10
937.7442658485736
 20
-226.5277885570224
 30
0.0
 11
952.963031663595
 21
-206.6937479432811
 31
0.0
  0
LINE
  5
87
330
1F
100
AcDbEntity
  8
C-5
  6
Continuous
 62
     7
370
     9
100
AcDbLine
 10
937.7442658485736
 20
-226.5277885570224
 30
0.0
 11
947.3110373413748
 21
-203.4306700526607
 31
0.0
  0
LINE
  5
88
330
1F
100
AcDbEntity
  8
C-5
  6
Continuous
 62
     7
370
     9
100
AcDbLine
 10
1052.994529321304
 20
-345.5277040557696
 30
0.0
 11
1098.726255797123
 21
-266.3155408617398
 31
0.0
  0
LINE
  5
89
330
1F
100
AcDbEntity
  8
C-5
  6
Continuous
 62
     7
370
     9
100
AcDbLine
 10
1098.726255797123
 20
-266.3155408617398
 30
0.0
 11
1384.598131171127
 21
-266.3108495347328
 31
0.0
  0
TEXT
  5
8A
330
1F
100
AcDbEntity
  8
C-5
  6
Continuous
 62
     7
370
     9
100
AcDbText
 10
1107.097878446186
 20
-246.6807393805393
 30
0.0
 40
22.86
  1
アンカー穴：φ14
 41
1.15625
  7
ＭＳ ゴシック
100
AcDbText
  0
TEXT
  5
8B
330
1F
100
AcDbEntity
  8
C-4
  6
Continuous
 62
     2
370
   211
100
AcDbText
 10
860.4945458172921
 20
-492.7904300223231
 30
0.0
 40
30.48
  1
320
 41
1.083333333333333
  7
ＭＳ ゴシック
100
AcDbText
  0
LINE
  5
8C
330
1F
100
AcDbEntity
  8
C-4
  6
Continuous
 62
     7
370
     9
100
AcDbLine
 10
1052.994529321304
 20
-511.430430022323
 30
0.0
 11
1052.994529321304
 21
-424.7830586535315
 31
0.0
  0
LINE
  5
8D
330
1F
100
AcDbEntity
  8
C-4
  6
Continuous
 62
     7
370
     9
100
AcDbLine
 10
732.9945623132801
 20
-511.430430022323
 30
0.0
 11
732.9945623132801
 21
-424.7830586535315
 31
0.0
  0
LINE
  5
8E
330
1F
100
AcDbEntity
  8
C-4
  6
Continuous
 62
     7
370
     9
100
AcDbLine
 10
1052.994529321304
 20
-508.4304300223231
 30
0.0
 11
1028.208407786959
 21
-511.6935848278243
 31
0.0
  0
LINE
  5
8F
330
1F
100
AcDbEntity
  8
C-4
  6
Continuous
 62
     7
370
     9
100
AcDbLine
 10
1052.994529321304
 20
-508.4304300223231
 30
0.0
 11
1028.208407786959
 21
-505.1672752168218
 31
0.0
  0
LINE
  5
90
330
1F
100
AcDbEntity
  8
C-4
  6
Continuous
 62
     7
370
     9
100
AcDbLine
 10
732.9945623132801
 20
-508.4304300223231
 30
0.0
 11
757.7806838476254
 21
-511.6935848278243
 31
0.0
  0
LINE
  5
91
330
1F
100
AcDbEntity
  8
C-4
  6
Continuous
 62
     7
370
     9
100
AcDbLine
 10
732.9945623132801
 20
-508.4304300223231
 30
0.0
 11
757.7806838476254
 21
-505.1672752168218
 31
0.0
  0
LINE
  5
92
330
1F
100
AcDbEntity
  8
C-4
  6
Continuous
 62
     7
370
     9
100
AcDbLine
 10
732.9945623132801
 20
-508.4304300223231
 30
0.0
 11
1052.994529321304
 21
-508.4304300223231
 31
0.0
  0
TEXT
  5
93
330
1F
100
AcDbEntity
  8
C-4
  6
Continuous
 62
     2
370
   211
100
AcDbText
 10
860.4943974194667
 20
-572.7904300223231
 30
0.0
 40
30.48
  1
400
 41
1.083333333333333
  7
ＭＳ ゴシック
100
AcDbText
  0
LINE
  5
94
330
1F
100
AcDbEntity
  8
C-4
  6
Continuous
 62
     7
370
     9
100
AcDbLine
 10
1092.923596572149
 20
-591.430430022323
 30
0.0
 11
1092.923596572149
 21
-406.1024407797983
 31
0.0
  0
LINE
  5
95
330
1F
100
AcDbEntity
  8
C-4
  6
Continuous
 62
     7
370
     9
100
AcDbLine
 10
693.0651982667846
 20
-591.430430022323
 30
0.0
 11
693.0651982667846
 21
-406.1024406998559
 31
0.0
  0
LINE
  5
96
330
1F
100
AcDbEntity
  8
C-4
  6
Continuous
 62
     7
370
     9
100
AcDbLine
 10
1092.923596572149
 20
-588.4304300223231
 30
0.0
 11
1068.137475037804
 21
-591.6935848278243
 31
0.0
  0
LINE
  5
97
330
1F
100
AcDbEntity
  8
C-4
  6
Continuous
 62
     7
370
     9
100
AcDbLine
 10
1092.923596572149
 20
-588.4304300223231
 30
0.0
 11
1068.137475037804
 21
-585.1672752168217
 31
0.0
  0
LINE
  5
98
330
1F
100
AcDbEntity
  8
C-4
  6
Continuous
 62
     7
370
     9
100
AcDbLine
 10
693.0651982667846
 20
-588.4304300223231
 30
0.0
 11
717.8513198011298
 21
-591.6935848278243
 31
0.0
  0
LINE
  5
99
330
1F
100
AcDbEntity
  8
C-4
  6
Continuous
 62
     7
370
     9
100
AcDbLine
 10
693.0651982667846
 20
-588.4304300223231
 30
0.0
 11
717.8513198011298
 21
-585.1672752168217
 31
0.0
  0
LINE
  5
9A
330
1F
100
AcDbEntity
  8
C-4
  6
Continuous
 62
     7
370
     9
100
AcDbLine
 10
693.0651982667846
 20
-588.4304300223231
 30
0.0
 11
1092.923596572149
 21
-588.4304300223231
 31
0.0
  0
LINE
  5
9B
330
1F
100
AcDbEntity
  8
C-1
  6
Continuous
 62
     3
370
     9
100
AcDbLine
 10
862.7446810843952
 20
-21.54775776067268
 30
0.0
 11
862.7446810843952
 21
-176.5277650909259
 31
0.0
  0
TEXT
  5
9C
330
1F
100
AcDbEntity
  8
C-5
  6
Continuous
 62
     2
370
     9
100
AcDbText
 10
1135.494694281186
 20
-385.8895646161708
 30
0.0
 40
30.47999999999989
  1
▽G.L.
 41
1.104166666666671
  7
ＭＳ ゴシック
100
AcDbText
  0
LINE
  5
9D
330
1F
100
AcDbEntity
  8
C-E
  6
Continuous
 62
     6
370
     5
100
AcDbLine
 10
567.9946942811858
 20
-396.5295646161708
 30
0.0
 11
1267.994694281186
 21
-396.5295646161708
 31
0.0
  0
ARC
  5
9E
330
1F
100
AcDbEntity
  8
C-0
  6
Continuous
 62
     2
370
     9
100
AcDbCircle
 10
694.5447892980778
 20
-386.3490393070364
 30
0.0
 40
1.500000164315507
100
AcDbArc
 50
170.5376739501953
 51
202.6200866699219
  0
ARC
  5
9F
330
1F
100
AcDbEntity
  8
C-0
  6
Continuous
 62
     2
370
     9
100
AcDbCircle
 10
753.9606333648005
 20
-389.02777333892
 30
0.0
 40
1.500000164315507
100
AcDbArc
 50
90.0
 51
155.5559997558594
  0
ARC
  5
A0
330
1F
100
AcDbEntity
  8
C-0
  6
Continuous
 62
     2
370
     9
100
AcDbCircle
 10
714.3388863736689
 20
-347.0277832365127
 30
0.0
 40
1.500000164315507
100
AcDbArc
 50
90.0
 51
173.7348937988281
  0
ARC
  5
A1
330
1F
100
AcDbEntity
  8
C-0
  6
Continuous
 62
     2
370
     9
100
AcDbCircle
 10
843.0977612153074
 20
-338.0277535437341
 30
0.0
 40
1.500000164315507
100
AcDbArc
 50
90.0
 51
97.85314941406249
  0
ARC
  5
A2
330
1F
100
AcDbEntity
  8
C-0
  6
Continuous
 62
     2
370
     9
100
AcDbCircle
 10
857.2445887068615
 20
-178.0276958077754
 30
0.0
 40
1.500000164315507
100
AcDbArc
 50
90.0
 51
180.0
  0
ARC
  5
A3
330
1F
100
AcDbEntity
  8
C-0
  6
Continuous
 62
     2
370
     9
100
AcDbCircle
 10
777.6418121021318
 20
-344.0276248750263
 30
0.0
 40
1.500000164315507
100
AcDbArc
 50
270.0
 51
277.8540954589844
  0
ARC
  5
A4
330
1F
100
AcDbEntity
  8
C-0
  6
Continuous
 62
     2
370
     9
100
AcDbCircle
 10
850.7448394458818
 20
-331.5277073549672
 30
0.0
 40
5.00000064437454
100
AcDbArc
 50
270.0
 51
0.0
  0
ARC
  5
A5
330
1F
100
AcDbEntity
  8
C-0
  6
Continuous
 62
     2
370
     9
100
AcDbCircle
 10
702.321921899429
 20
-360.9783414607527
 30
0.0
 40
5.00000064437454
100
AcDbArc
 50
97.85334777832031
 51
170.5376434326172
  0
ARC
  5
A6
330
1F
100
AcDbEntity
  8
C-0
  6
Continuous
 62
     2
370
     9
100
AcDbCircle
 10
710.1810065700372
 20
-352.827822167045
 30
0.0
 40
2.000000025774982
100
AcDbArc
 50
277.8533477783204
 51
353.7342681884766
  0
ARC
  5
A7
330
1F
100
AcDbEntity
  8
C-0
  6
Continuous
 62
     2
370
     9
100
AcDbCircle
 10
1091.44400540872
 20
-386.3490393070364
 30
0.0
 40
1.500000164315507
100
AcDbArc
 50
337.3799133300781
 51
9.462326049804753
  0
ARC
  5
A8
330
1F
100
AcDbEntity
  8
C-0
  6
Continuous
 62
     2
370
     9
100
AcDbCircle
 10
1032.028755197571
 20
-389.02777333892
 30
0.0
 40
1.500000164315507
100
AcDbArc
 50
24.44400024414062
 51
90.0
  0
ARC
  5
A9
330
1F
100
AcDbEntity
  8
C-0
  6
Continuous
 62
     2
370
     9
100
AcDbCircle
 10
1071.650205260916
 20
-347.0277832365127
 30
0.0
 40
1.500000164315507
100
AcDbArc
 50
6.265106201171875
 51
90.00000000000001
  0
ARC
  5
AA
330
1F
100
AcDbEntity
  8
C-0
  6
Continuous
 62
     2
370
     9
100
AcDbCircle
 10
942.891627347064
 20
-338.0277535437341
 30
0.0
 40
1.500000164315507
100
AcDbArc
 50
82.1468505859375
 51
90.0
  0
ARC
  5
AB
330
1F
100
AcDbEntity
  8
C-0
  6
Continuous
 62
     2
370
     9
100
AcDbCircle
 10
928.7447998555099
 20
-178.0276958077754
 30
0.0
 40
1.500000164315507
100
AcDbArc
 50
0.0
 51
90.0
  0
ARC
  5
AC
330
1F
100
AcDbEntity
  8
C-0
  6
Continuous
 62
     2
370
     9
100
AcDbCircle
 10
1008.347279532453
 20
-344.0276248750263
 30
0.0
 40
1.500000164315507
100
AcDbArc
 50
262.1459045410156
 51
270.0
  0
ARC
  5
AD
330
1F
100
AcDbEntity
  8
C-0
  6
Continuous
 62
     2
370
     9
100
AcDbCircle
 10
935.2445491164899
 20
-331.5277073549672
 30
0.0
 40
5.00000064437454
100
AcDbArc
 50
180.0
 51
270.0
  0
ARC
  5
AE
330
1F
100
AcDbEntity
  8
C-0
  6
Continuous
 62
     2
370
     9
100
AcDbCircle
 10
1083.667466662942
 20
-360.9783414607527
 30
0.0
 40
5.00000064437454
100
AcDbArc
 50
9.462356567382812
 51
82.14665222167967
  0
ARC
  5
AF
330
1F
100
AcDbEntity
  8
C-0
  6
Continuous
 62
     2
370
     9
100
AcDbCircle
 10
1075.808085064547
 20
-352.827822167045
 30
0.0
 40
2.000000025774982
100
AcDbArc
 50
186.2657318115235
 51
262.1466522216797
  0
ARC
  5
B0
330
1F
100
AcDbEntity
  8
C-D
  6
Continuous
 62
     2
370
     9
100
AcDbCircle
 10
849.6476912723174
 20
-218.3200542062129
 30
0.0
 40
3.903060668223613
100
AcDbArc
 50
135.3612976074219
 51
224.63818359375
  0
ARC
  5
B1
330
1F
100
AcDbEntity
  8
C-D
  6
Continuous
 62
     2
370
     9
100
AcDbCircle
 10
859.5725025582126
 20
-226.527583635056
 30
0.0
 40
13.82790037103602
100
AcDbArc
 50
156.7198028564453
 51
203.2803039550782
  0
ARC
  5
B2
330
1F
100
AcDbEntity
  8
C-D
  6
Continuous
 62
     2
370
     9
100
AcDbCircle
 10
849.6476912723174
 20
-234.7352615277924
 30
0.0
 40
3.903030221526688
100
AcDbArc
 50
135.3612976074219
 51
224.6389617919922
  0
ARC
  5
B3
330
1F
100
AcDbEntity
  8
C-D
  6
Continuous
 62
     2
370
     9
100
AcDbCircle
 10
913.5907933099021
 20
-226.527583635056
 30
0.0
 40
24.15347253954089
100
AcDbArc
 50
345.6165313720703
 51
14.38359069824219
  0
ARC
  5
B4
330
1F
100
AcDbEntity
  8
C-D
  6
Continuous
 62
     2
370
     9
100
AcDbCircle
 10
934.7044374716418
 20
-218.5201835347603
 30
0.0
 40
3.040000039177972
100
AcDbArc
 50
318.6724548339844
 51
41.32754516601565
  0
ARC
  5
B5
330
1F
100
AcDbEntity
  8
C-D
  6
Continuous
 62
     2
370
     9
100
AcDbCircle
 10
934.7044374716418
 20
-234.535132199245
 30
0.0
 40
3.040000039177972
100
AcDbArc
 50
318.6724548339844
 51
41.32754516601565
  0
LINE
  5
B6
330
1F
100
AcDbEntity
  8
C-D
  6
JWW_CENTER1
 62
     2
370
     9
100
AcDbLine
 10
1052.994529321304
 20
-335.4345347145534
 30
0.0
 11
1052.994529321304
 21
-404.7830586535315
 31
0.0
  0
LINE
  5
B7
330
1F
100
AcDbEntity
  8
C-D
  6
JWW_CENTER1
 62
     2
370
     9
100
AcDbLine
 10
732.9945623132802
 20
-334.4344819273913
 30
0.0
 11
732.9945623132802
 21
-404.7830586535315
 31
0.0
  0
LINE
  5
B8
330
1F
100
AcDbEntity
  8
C-0
  6
Continuous
 62
     2
370
     9
100
AcDbLine
 10
753.9606333648005
 20
-387.5277683901236
 30
0.0
 11
1032.028755197571
 21
-387.5278426220701
 31
0.0
  0
LINE
  5
B9
330
1F
100
AcDbEntity
  8
C-0
  6
Continuous
 62
     2
370
     9
100
AcDbLine
 10
748.9036562216418
 20
-396.5277238509552
 30
0.0
 11
752.5947655438546
 21
-388.4071200318041
 31
0.0
  0
LINE
  5
BA
330
1F
100
AcDbEntity
  8
C-0
  6
Continuous
 62
     2
370
     9
100
AcDbLine
 10
693.1605119543278
 20
-386.9259699974924
 30
0.0
 11
697.1613169585505
 21
-396.5277238509552
 31
0.0
  0
LINE
  5
BB
330
1F
100
AcDbEntity
  8
C-0
  6
Continuous
 62
     2
370
     9
100
AcDbLine
 10
855.744509526118
 20
-232.5276034302416
 30
0.0
 11
855.744509526118
 21
-331.5277073549672
 31
0.0
  0
LINE
  5
BC
330
1F
100
AcDbEntity
  8
C-0
  6
Continuous
 62
     2
370
     9
100
AcDbLine
 10
855.744509526118
 20
-178.0276958077754
 30
0.0
 11
855.744509526118
 21
-220.52756383987
 31
0.0
  0
LINE
  5
BD
330
1F
100
AcDbEntity
  8
C-0
  6
Continuous
 62
     2
370
     9
100
AcDbLine
 10
693.0654950624358
 20
-386.1024407797983
 30
0.0
 11
697.3896544268782
 21
-360.1564453458877
 31
0.0
  0
LINE
  5
BE
330
1F
100
AcDbEntity
  8
C-0
  6
Continuous
 62
     2
370
     9
100
AcDbLine
 10
712.8477150265405
 20
-346.8640275618928
 30
0.0
 11
712.1689381050876
 21
-353.0462125545027
 31
0.0
  0
LINE
  5
BF
330
1F
100
AcDbEntity
  8
C-0
  6
Continuous
 62
     2
370
     9
100
AcDbLine
 10
714.3388863736689
 20
-345.5277040557696
 30
0.0
 11
777.6418121021318
 21
-345.5277040557696
 31
0.0
  0
LINE
  5
C0
330
1F
100
AcDbEntity
  8
C-0
  6
Continuous
 62
     2
370
     9
100
AcDbLine
 10
842.8925841143782
 20
-336.541778432881
 30
0.0
 11
777.8466922752737
 21
-345.5135999858794
 31
0.0
  0
LINE
  5
C1
330
1F
100
AcDbEntity
  8
C-0
  6
Continuous
 62
     2
370
     9
100
AcDbLine
 10
843.0977612153074
 20
-336.5276743629909
 30
0.0
 11
850.7448394458818
 21
-336.5276743629909
 31
0.0
  0
LINE
  5
C2
330
1F
100
AcDbEntity
  8
C-0
  6
Continuous
 62
     2
370
     9
100
AcDbLine
 10
701.6383941333818
 20
-356.0251405792073
 30
0.0
 11
710.4544770620133
 21
-354.8092212907781
 31
0.0
  0
LINE
  5
C3
330
1F
100
AcDbEntity
  8
C-0
  6
Continuous
 62
     2
370
     9
100
AcDbLine
 10
1037.085435412942
 20
-396.5276496190086
 30
0.0
 11
1033.394326090729
 21
-388.4071200318041
 31
0.0
  0
LINE
  5
C4
330
1F
100
AcDbEntity
  8
C-0
  6
Continuous
 62
     2
370
     9
100
AcDbLine
 10
1092.828876608044
 20
-386.9259699974924
 30
0.0
 11
1088.828071603821
 21
-396.5276496190086
 31
0.0
  0
LINE
  5
C5
330
1F
100
AcDbEntity
  8
C-0
  6
Continuous
 62
     2
370
     9
100
AcDbLine
 10
930.244285180679
 20
-232.5276034302416
 30
0.0
 11
930.244285180679
 21
-331.5277073549672
 31
0.0
  0
LINE
  5
C6
330
1F
100
AcDbEntity
  8
C-0
  6
Continuous
 62
     2
370
     9
100
AcDbLine
 10
930.244285180679
 20
-178.0276958077754
 30
0.0
 11
930.244285180679
 21
-220.52756383987
 31
0.0
  0
LINE
  5
C7
330
1F
100
AcDbEntity
  8
C-0
  6
Continuous
 62
     2
370
     9
100
AcDbLine
 10
1092.923596572149
 20
-386.1024407797983
 30
0.0
 11
1088.599437207706
 21
-360.1564453458877
 31
0.0
  0
LINE
  5
C8
330
1F
100
AcDbEntity
  8
C-0
  6
Continuous
 62
     2
370
     9
100
AcDbLine
 10
1073.141376608044
 20
-346.8640275618928
 30
0.0
 11
1073.820153529497
 21
-353.0462125545027
 31
0.0
  0
LINE
  5
C9
330
1F
100
AcDbEntity
  8
C-0
  6
Continuous
 62
     2
370
     9
100
AcDbLine
 10
1071.650205260916
 20
-345.5277040557696
 30
0.0
 11
1008.347279532453
 21
-345.5277040557696
 31
0.0
  0
LINE
  5
CA
330
1F
100
AcDbEntity
  8
C-0
  6
Continuous
 62
     2
370
     9
100
AcDbLine
 10
943.0965075202059
 20
-336.541778432881
 30
0.0
 11
1008.142399359311
 21
-345.5135999858794
 31
0.0
  0
LINE
  5
CB
330
1F
100
AcDbEntity
  8
C-0
  6
Continuous
 62
     2
370
     9
100
AcDbLine
 10
942.891627347064
 20
-336.5276743629909
 30
0.0
 11
935.2445491164899
 21
-336.5276743629909
 31
0.0
  0
LINE
  5
CC
330
1F
100
AcDbEntity
  8
C-0
  6
Continuous
 62
     2
370
     9
100
AcDbLine
 10
1084.350400573416
 20
-356.0251405792073
 30
0.0
 11
1075.534614572571
 21
-354.8092212907781
 31
0.0
  0
LINE
  5
CD
330
1F
100
AcDbEntity
  8
C-D
  6
JWW_CENTER1
 62
     2
370
     9
100
AcDbLine
 10
943.7179773787365
 20
-226.527583635056
 30
0.0
 11
837.9347808521318
 21
-226.527583635056
 31
0.0
  0
LINE
  5
CE
330
1F
100
AcDbEntity
  8
C-D
  6
Continuous
 62
     2
370
     9
100
AcDbLine
 10
845.7445755100708
 20
-221.4746150170237
 30
0.0
 11
840.244285180679
 21
-221.4746150170237
 31
0.0
  0
LINE
  5
CF
330
1F
100
AcDbEntity
  8
C-D
  6
Continuous
 62
     2
370
     9
100
AcDbLine
 10
845.7445755100708
 20
-232.5276034302416
 30
0.0
 11
841.1914848217261
 21
-232.5276034302416
 31
0.0
  0
LINE
  5
D0
330
1F
100
AcDbEntity
  8
C-D
  6
Continuous
 62
     2
370
     9
100
AcDbLine
 10
845.7445755100708
 20
-231.5807007169815
 30
0.0
 11
840.244285180679
 21
-231.5807007169815
 31
0.0
  0
LINE
  5
D1
330
1F
100
AcDbEntity
  8
C-D
  6
Continuous
 62
     2
370
     9
100
AcDbLine
 10
845.7445755100708
 20
-220.52756383987
 30
0.0
 11
841.1914848217261
 21
-220.52756383987
 31
0.0
  0
LINE
  5
D2
330
1F
100
AcDbEntity
  8
C-D
  6
Continuous
 62
     2
370
     9
100
AcDbLine
 10
841.1914848217261
 20
-220.52756383987
 30
0.0
 11
841.1914848217261
 21
-232.5276034302416
 31
0.0
  0
LINE
  5
D3
330
1F
100
AcDbEntity
  8
C-D
  6
Continuous
 62
     2
370
     9
100
AcDbLine
 10
840.244285180679
 20
-221.4746150170237
 30
0.0
 11
841.1914848217261
 21
-220.52756383987
 31
0.0
  0
LINE
  5
D4
330
1F
100
AcDbEntity
  8
C-D
  6
Continuous
 62
     2
370
     9
100
AcDbLine
 10
840.244285180679
 20
-231.5807007169815
 30
0.0
 11
840.244285180679
 21
-221.4746150170237
 31
0.0
  0
LINE
  5
D5
330
1F
100
AcDbEntity
  8
C-D
  6
Continuous
 62
     2
370
     9
100
AcDbLine
 10
840.244285180679
 20
-231.5807007169815
 30
0.0
 11
841.1914848217261
 21
-232.5276034302416
 31
0.0
  0
LINE
  5
D6
330
1F
100
AcDbEntity
  8
C-D
  6
Continuous
 62
     2
370
     9
100
AcDbLine
 10
845.7445755100708
 20
-234.7352615277924
 30
0.0
 11
845.7445755100708
 21
-218.3200542062129
 31
0.0
  0
LINE
  5
D7
330
1F
100
AcDbEntity
  8
C-D
  6
Continuous
 62
     2
370
     9
100
AcDbLine
 10
846.8705256789899
 20
-221.0624792484428
 30
0.0
 11
855.744509526118
 21
-221.0624792484428
 31
0.0
  0
LINE
  5
D8
330
1F
100
AcDbEntity
  8
C-D
  6
Continuous
 62
     2
370
     9
100
AcDbLine
 10
846.8705256789899
 20
-231.9928364855627
 30
0.0
 11
855.744509526118
 21
-231.9928364855627
 31
0.0
  0
LINE
  5
D9
330
1F
100
AcDbEntity
  8
C-D
  6
Continuous
 62
     2
370
     9
100
AcDbLine
 10
846.8705256789899
 20
-215.5776291639833
 30
0.0
 11
855.744509526118
 21
-215.5776291639833
 31
0.0
  0
LINE
  5
DA
330
1F
100
AcDbEntity
  8
C-D
  6
Continuous
 62
     2
370
     9
100
AcDbLine
 10
855.744509526118
 20
-237.4776865700221
 30
0.0
 11
855.744509526118
 21
-215.5776291639833
 31
0.0
  0
LINE
  5
DB
330
1F
100
AcDbEntity
  8
C-D
  6
Continuous
 62
     2
370
     9
100
AcDbLine
 10
846.8705256789899
 20
-237.4776865700221
 30
0.0
 11
855.744509526118
 21
-237.4776865700221
 31
0.0
  0
LINE
  5
DC
330
1F
100
AcDbEntity
  8
C-D
  6
Continuous
 62
     2
370
     9
100
AcDbLine
 10
937.744384156608
 20
-218.5201835347603
 30
0.0
 11
937.744384156608
 21
-234.535132199245
 31
0.0
  0
LINE
  5
DD
330
1F
100
AcDbEntity
  8
C-D
  6
Continuous
 62
     2
370
     9
100
AcDbLine
 10
936.9875152271318
 20
-216.5128032296504
 30
0.0
 11
930.244285180679
 21
-216.5128032296504
 31
0.0
  0
LINE
  5
DE
330
1F
100
AcDbEntity
  8
C-D
  6
Continuous
 62
     2
370
     9
100
AcDbLine
 10
936.9875152271318
 20
-236.5426609682484
 30
0.0
 11
930.244285180679
 21
-236.5426609682484
 31
0.0
  0
LINE
  5
DF
330
1F
100
AcDbEntity
  8
C-D
  6
Continuous
 62
     2
370
     9
100
AcDbLine
 10
930.244285180679
 20
-216.5128032296504
 30
0.0
 11
930.244285180679
 21
-236.5426609682484
 31
0.0
  0
LINE
  5
E0
330
1F
100
AcDbEntity
  8
C-D
  6
Continuous
 62
     2
370
     9
100
AcDbLine
 10
1042.979451988112
 20
-345.5277040557696
 30
0.0
 11
1063.009606654497
 21
-345.5277040557696
 31
0.0
  0
LINE
  5
E1
330
1F
100
AcDbEntity
  8
C-2
  6
Continuous
 62
     3
370
     9
100
AcDbLine
 10
862.7444336445723
 20
643.2222134696184
 30
0.0
 11
862.7444336445723
 21
-55.91304956033298
 31
0.0
  0
LINE
  5
E2
330
1F
100
AcDbEntity
  8
C-2
  6
Continuous
 62
     3
370
     9
100
AcDbLine
 10
923.2444600381535
 20
643.2222134696184
 30
0.0
 11
923.2444600381535
 21
-55.84641167781399
 31
0.0
  0
LINE
  5
E3
330
1F
100
AcDbEntity
  8
C-0
  6
JWW_CENTER2
 62
     7
370
     9
100
AcDbLine
 10
892.9946942811858
 20
699.7396959178872
 30
0.0
 11
892.9946942811858
 21
-417.5420612134179
 31
0.0
  0
LINE
  5
E4
330
1F
100
AcDbEntity
  8
C-5
  6
Continuous
 62
     7
370
     9
100
AcDbLine
 10
975.6194534397583
 20
-341.0276892093802
 30
0.0
 11
1097.234786620263
 21
-130.3771329946656
 31
0.0
  0
TEXT
  5
E5
330
1F
100
AcDbEntity
  8
C-5
  6
Continuous
 62
     7
370
     9
100
AcDbText
 10
1105.606409269326
 20
-110.742331513465
 30
0.0
 40
22.86
  1
支持脚：FCD500
 41
1.154761904761905
  7
ＭＳ ゴシック
100
AcDbText
  0
TEXT
  5
E6
330
1F
100
AcDbEntity
  8
C-5
  6
Continuous
 62
     7
370
     9
100
AcDbText
 10
1105.606409269326
 20
-170.4856517898889
 30
0.0
 40
22.86
  1
溶融亜鉛めっき＋樹脂系塗装
 41
1.153846153846154
  7
ＭＳ ゴシック
100
AcDbText
  0
LINE
  5
E7
330
1F
100
AcDbEntity
  8
C-5
  6
Continuous
 62
     7
370
     9
100
AcDbLine
 10
1097.234786620263
 20
-130.3771329946655
 30
0.0
 11
1555.605681524496
 21
-130.3696108564502
 31
0.0
  0
TEXT
  5
E8
330
1F
100
AcDbEntity
  8
C-5
  6
Continuous
 62
     7
370
     9
100
AcDbText
 10
-260.7415036918624
 20
107.3372170663217
 30
0.0
 40
22.86
  1
横柵：φ34.0×2.3
 41
1.156862745098039
  7
ＭＳ ゴシック
100
AcDbText
  0
TEXT
  5
E9
330
1F
100
AcDbEntity
  8
C-5
  6
Continuous
 62
     7
370
     9
100
AcDbText
 10
-260.7415036918621
 20
47.59389678989719
 30
0.0
 40
22.86
  1
STK400　溶融亜鉛めっき＋焼付塗装
 41
1.15625
  7
ＭＳ ゴシック
100
AcDbText
  0
LINE
  5
EA
330
1F
100
AcDbEntity
  8
C-5
  6
Continuous
 62
     7
370
     9
100
AcDbLine
 10
294.2584963081378
 20
89.96010513226594
 30
0.0
 11
-404.9638788599812
 21
89.96010513226594
 31
0.0
  0
LINE
  5
EB
330
1F
100
AcDbEntity
  8
C-5
  6
Continuous
 62
     7
370
     9
100
AcDbLine
 10
-513.3255583911714
 20
276.4719346442413
 30
0.0
 11
-404.9638788599812
 21
89.96010513226594
 31
0.0
  0
LINE
  5
EC
330
1F
100
AcDbEntity
  8
C-5
  6
Continuous
 62
     7
370
     9
100
AcDbLine
 10
-513.3255583911714
 20
276.4719346442413
 30
0.0
 11
-503.7584725820452
 21
253.3749463314595
 31
0.0
  0
LINE
  5
ED
330
1F
100
AcDbEntity
  8
C-5
  6
Continuous
 62
     7
370
     9
100
AcDbLine
 10
-513.3255583911714
 20
276.4719346442413
 30
0.0
 11
-498.1065226659538
 21
256.6381011369609
 31
0.0
  0
TEXT
  5
EE
330
1F
100
AcDbEntity
  8
C-4
  6
Continuous
 62
     2
370
     9
100
AcDbText
 10
-708.7545720944413
 20
341.2616002796432
 30
0.0
 40
30.48000000000043
  1
φ34
 50
90.0
 41
1.093749999999984
  7
ＭＳ ゴシック
100
AcDbText
  0
LINE
  5
EF
330
1F
100
AcDbEntity
  8
C-4
  6
Continuous
 62
     7
370
     9
100
AcDbLine
 10
-698.1145555984524
 20
443.0536213351223
 30
0.0
 11
-698.1145555984524
 21
228.4235768619382
 31
0.0
  0
ARC
  5
F0
330
1F
100
AcDbEntity
  8
C-2
  6
Continuous
 62
     3
370
     9
100
AcDbCircle
 10
-989.2068683320241
 20
293.4732494176757
 30
0.0
 40
17.00000659839527
100
AcDbArc
 50
90.0
 51
270.0
  0
LINE
  5
F1
330
1F
100
AcDbEntity
  8
C-4
  6
Continuous
 62
     7
370
     9
100
AcDbLine
 10
-698.1145555984524
 20
310.4716527698776
 30
0.0
 11
-695.1145951888243
 21
310.4716527698776
 31
0.0
  0
LINE
  5
F2
330
1F
100
AcDbEntity
  8
C-4
  6
Continuous
 62
     7
370
     9
100
AcDbLine
 10
-698.1145555984524
 20
276.4716890610515
 30
0.0
 11
-695.1145951888243
 21
276.4716890610515
 31
0.0
  0
LINE
  5
F3
330
1F
100
AcDbEntity
  8
C-4
  6
Continuous
 62
     7
370
     9
100
AcDbLine
 10
-698.1145555984524
 20
310.4716527698776
 30
0.0
 11
-702.030167071742
 21
340.2150329298223
 31
0.0
  0
LINE
  5
F4
330
1F
100
AcDbEntity
  8
C-4
  6
Continuous
 62
     7
370
     9
100
AcDbLine
 10
-698.1145555984524
 20
310.4716527698776
 30
0.0
 11
-694.1989441251628
 21
340.2150329298223
 31
0.0
  0
LINE
  5
F5
330
1F
100
AcDbEntity
  8
C-4
  6
Continuous
 62
     7
370
     9
100
AcDbLine
 10
-698.1145555984524
 20
276.4716890610515
 30
0.0
 11
-702.030167071742
 21
246.7283089011065
 31
0.0
  0
LINE
  5
F6
330
1F
100
AcDbEntity
  8
C-4
  6
Continuous
 62
     7
370
     9
100
AcDbLine
 10
-698.1145555984524
 20
276.4716890610515
 30
0.0
 11
-694.1989441251628
 21
246.7283089011065
 31
0.0
  0
ARC
  5
F7
330
1F
100
AcDbEntity
  8
C-2
  6
Continuous
 62
     3
370
     9
100
AcDbCircle
 10
-360.2068881272096
 20
293.4732494176757
 30
0.0
 40
17.00000659839527
100
AcDbArc
 50
270.0
 51
90.0
  0
LINE
  5
F8
330
1F
100
AcDbEntity
  8
C-4
  6
Continuous
 62
     7
370
     9
100
AcDbLine
 10
-170.1524283969746
 20
293.4735463454632
 30
0.0
 11
-173.4155832024759
 21
318.259667879808
 31
0.0
  0
LINE
  5
F9
330
1F
100
AcDbEntity
  8
C-4
  6
Continuous
 62
     7
370
     9
100
AcDbLine
 10
-170.1524283969746
 20
293.4735463454632
 30
0.0
 11
-166.8892735914733
 21
318.259667879808
 31
0.0
  0
LINE
  5
FA
330
1F
100
AcDbEntity
  8
C-4
  6
Continuous
 62
     7
370
     9
100
AcDbLine
 10
-167.1524283969745
 20
293.4735463454632
 30
0.0
 11
-288.3439177586766
 21
293.4735463454632
 31
0.0
  0
LINE
  5
FB
330
1F
100
AcDbEntity
  8
C-2
  6
Continuous
 62
     3
370
     9
100
AcDbLine
 10
-360.2068881272096
 20
468.2216361100319
 30
0.0
 11
-360.2068881272096
 21
310.4732560160707
 31
0.0
  0
LINE
  5
FC
330
1F
100
AcDbEntity
  8
C-2
  6
Continuous
 62
     3
370
     9
100
AcDbLine
 10
-989.2068683320241
 20
468.2216361100319
 30
0.0
 11
-989.2068683320241
 21
310.4732560160707
 31
0.0
  0
LINE
  5
FD
330
1F
100
AcDbEntity
  8
C-2
  6
Continuous
 62
     3
370
     9
100
AcDbLine
 10
-360.2068881272096
 20
276.4709416289298
 30
0.0
 11
-989.2068683320241
 21
276.4732428192806
 31
0.0
  0
LINE
  5
FE
330
1F
100
AcDbEntity
  8
C-2
  6
Continuous
 62
     3
370
     9
100
AcDbLine
 10
-360.2068881272096
 20
310.4708805937736
 30
0.0
 11
-989.2068683320241
 21
310.4732560160707
 31
0.0
  0
LINE
  5
FF
330
1F
100
AcDbEntity
  8
C-0
  6
JWW_CENTER2
 62
     7
370
     9
100
AcDbLine
 10
-314.0306418027151
 20
293.4706882736063
 30
0.0
 11
-1024.636774403867
 21
293.4735463454632
 31
0.0
  0
LINE
  5
100
330
1F
100
AcDbEntity
  8
C-5
  6
Continuous
 62
     7
370
     9
100
AcDbLine
 10
-359.5178063915789
 20
925.3896255192294
 30
0.0
 11
203.8530884843768
 21
925.398870769713
 31
0.0
  0
LINE
  5
101
330
1F
100
AcDbEntity
  8
C-4
  6
Continuous
 62
     7
370
     9
100
AcDbLine
 10
-968.1614239278204
 20
592.0049602510712
 30
0.0
 11
-952.9423882026028
 21
572.17112674379
 31
0.0
  0
LINE
  5
102
330
1F
100
AcDbEntity
  8
C-4
  6
Continuous
 62
     7
370
     9
100
AcDbLine
 10
-968.1614239278204
 20
592.0049602510712
 30
0.0
 11
-948.32759042054
 21
576.7859245258529
 31
0.0
  0
LINE
  5
103
330
1F
100
AcDbEntity
  8
C-4
  6
Continuous
 62
     7
370
     9
100
AcDbLine
 10
-821.7147344316668
 20
445.4581585652886
 30
0.0
 11
-968.161423927821
 21
592.0049602510716
 31
0.0
  0
LINE
  5
104
330
1F
100
AcDbEntity
  8
C-2
  6
Continuous
 62
     3
370
     9
100
AcDbLine
 10
-504.9578992243208
 20
673.4708904913668
 30
0.0
 11
-844.4561309613525
 21
673.4720782025153
 31
0.0
  0
LINE
  5
105
330
1F
100
AcDbEntity
  8
C-2
  6
Continuous
 62
     3
370
     9
100
AcDbLine
 10
-504.9578992243208
 20
612.9706661459272
 30
0.0
 11
-844.456353657193
 21
612.9718538570764
 31
0.0
  0
LINE
  5
106
330
1F
100
AcDbEntity
  8
C-0
  6
JWW_CENTER2
 62
     7
370
     9
100
AcDbLine
 10
-504.9578992243208
 20
643.2207783186473
 30
0.0
 11
-844.4562051932994
 21
643.2219660297955
 31
0.0
  0
TEXT
  5
107
330
1F
100
AcDbEntity
  8
C-4
  6
Continuous
 62
     2
370
   211
100
AcDbText
 10
-707.2069153455902
 20
800.3653704021582
 30
0.0
 40
30.48
  1
750
 41
1.083333333333333
  7
ＭＳ ゴシック
100
AcDbText
  0
LINE
  5
108
330
1F
100
AcDbEntity
  8
C-4
  6
Continuous
 62
     7
370
     9
100
AcDbLine
 10
-1049.706944213569
 20
789.7253704021582
 30
0.0
 11
-299.7068864776108
 21
789.7253704021582
 31
0.0
  0
LINE
  5
109
330
1F
100
AcDbEntity
  8
C-4
  6
Continuous
 62
     7
370
     9
100
AcDbLine
 10
-1049.707078824532
 20
335.8292175457353
 30
0.0
 11
-1049.707078824532
 21
334.0292165559771
 31
0.0
  0
LINE
  5
10A
330
1F
100
AcDbEntity
  8
C-4
  6
Continuous
 62
     7
370
     9
100
AcDbLine
 10
-989.2070524309514
 20
335.8292175457353
 30
0.0
 11
-989.2070524309514
 21
334.0292165559771
 31
0.0
  0
TEXT
  5
10B
330
1F
100
AcDbEntity
  8
C-5
  6
Continuous
 62
     7
370
     9
100
AcDbText
 10
-351.1461837425153
 20
885.281106724006
 30
0.0
 40
22.86
  1
STK400　溶融亜鉛めっき＋焼付塗装
 41
1.15625
  7
ＭＳ ゴシック
100
AcDbText
  0
TEXT
  5
10C
330
1F
100
AcDbEntity
  8
C-5
  6
Continuous
 62
     7
370
     9
100
AcDbText
 10
-351.1461837425153
 20
945.0244270004299
 30
0.0
 40
22.86
  1
本体：φ60.5×2.8
 41
1.156862745098039
  7
ＭＳ ゴシック
100
AcDbText
  0
LINE
  5
10D
330
1F
100
AcDbEntity
  8
C-5
  6
Continuous
 62
     7
370
     9
100
AcDbLine
 10
-504.9578992243208
 20
673.4720782008782
 30
0.0
 11
-359.5178063915789
 21
925.3896255192294
 31
0.0
  0
LINE
  5
10E
330
1F
100
AcDbEntity
  8
C-5
  6
Continuous
 62
     7
370
     9
100
AcDbLine
 10
-504.9578992243208
 20
673.4720782008782
 30
0.0
 11
-495.3911277315197
 21
696.5691967052394
 31
0.0
  0
LINE
  5
10F
330
1F
100
AcDbEntity
  8
C-5
  6
Continuous
 62
     7
370
     9
100
AcDbLine
 10
-504.9578992243208
 20
673.4720782008782
 30
0.0
 11
-489.7391334093001
 21
693.3061188146198
 31
0.0
  0
LINE
  5
110
330
1F
100
AcDbEntity
  8
C-4
  6
Continuous
 62
     7
370
     9
100
AcDbLine
 10
-167.1524283969745
 20
673.4719297369844
 30
0.0
 11
-415.8971092480384
 21
673.4719297369844
 31
0.0
  0
LINE
  5
111
330
1F
100
AcDbEntity
  8
C-4
  6
Continuous
 62
     7
370
     9
100
AcDbLine
 10
-170.1524283969746
 20
673.4719297369844
 30
0.0
 11
-166.8892735914733
 21
648.6858082026392
 31
0.0
  0
LINE
  5
112
330
1F
100
AcDbEntity
  8
C-4
  6
Continuous
 62
     7
370
     9
100
AcDbLine
 10
-170.1524283969746
 20
673.4719297369844
 30
0.0
 11
-173.4155832024759
 21
648.6858082026392
 31
0.0
  0
LINE
  5
113
330
1F
100
AcDbEntity
  8
C-4
  6
Continuous
 62
     7
370
     9
100
AcDbLine
 10
-299.7068864776108
 20
792.7253704021581
 30
0.0
 11
-299.7068864776108
 21
558.1402640191794
 31
0.0
  0
LINE
  5
114
330
1F
100
AcDbEntity
  8
C-4
  6
Continuous
 62
     7
370
     9
100
AcDbLine
 10
-299.7068864776108
 20
789.7253704021582
 30
0.0
 11
-324.493008011956
 21
786.4622155966566
 31
0.0
  0
LINE
  5
115
330
1F
100
AcDbEntity
  8
C-4
  6
Continuous
 62
     7
370
     9
100
AcDbLine
 10
-299.7068864776108
 20
789.7253704021582
 30
0.0
 11
-324.493008011956
 21
792.9885252076593
 31
0.0
  0
ARC
  5
116
330
1F
100
AcDbEntity
  8
C-2
  6
Continuous
 62
     3
370
     9
100
AcDbCircle
 10
-504.9568831784131
 20
468.2216361100319
 30
0.0
 40
144.7500043301969
100
AcDbArc
 50
0.0
 51
90.0001983642578
  0
ARC
  5
117
330
1F
100
AcDbEntity
  8
C-2
  6
Continuous
 62
     3
370
     9
100
AcDbCircle
 10
-504.9568089464665
 20
468.2219330378194
 30
0.0
 40
205.2499967008024
100
AcDbArc
 50
0.0
 51
90.00022888183592
  0
ARC
  5
118
330
1F
100
AcDbEntity
  8
C-0
  6
JWW_CENTER2
 62
     7
370
     9
100
AcDbCircle
 10
-504.9568089464665
 20
468.2220815017126
 30
0.0
 40
174.999995876003
100
AcDbArc
 50
0.0000000000000127
 51
90.000244140625
  0
LINE
  5
119
330
1F
100
AcDbEntity
  8
C-4
  6
Continuous
 62
     7
370
     9
100
AcDbLine
 10
-1049.706944213569
 20
792.7253704021581
 30
0.0
 11
-1049.706944213569
 21
558.1402640191794
 31
0.0
  0
LINE
  5
11A
330
1F
100
AcDbEntity
  8
C-4
  6
Continuous
 62
     7
370
     9
100
AcDbLine
 10
-1049.706944213569
 20
789.7253704021582
 30
0.0
 11
-1024.920822679224
 21
786.4622155966566
 31
0.0
  0
LINE
  5
11B
330
1F
100
AcDbEntity
  8
C-4
  6
Continuous
 62
     7
370
     9
100
AcDbLine
 10
-1049.706944213569
 20
789.7253704021582
 30
0.0
 11
-1024.920822679224
 21
792.9885252076593
 31
0.0
  0
TEXT
  5
11C
330
1F
100
AcDbEntity
  8
C-4
  6
Continuous
 62
     2
370
   211
100
AcDbText
 10
-882.4030092107724
 20
516.2334071164375
 30
0.0
 40
30.4800000000007
  1
R175
 50
314.9999999999933
 41
1.093749999999917
  7
ＭＳ ゴシック
100
AcDbText
  0
LINE
  5
11D
330
1F
100
AcDbEntity
  8
C-4
  6
Continuous
 62
     7
370
     9
100
AcDbLine
 10
-1049.707078824532
 20
355.8292175457353
 30
0.0
 11
-1074.493200358879
 21
359.0923723512373
 31
0.0
  0
LINE
  5
11E
330
1F
100
AcDbEntity
  8
C-4
  6
Continuous
 62
     7
370
     9
100
AcDbLine
 10
-1049.707078824532
 20
355.8292175457353
 30
0.0
 11
-1074.493200358879
 21
352.5660627402345
 31
0.0
  0
LINE
  5
11F
330
1F
100
AcDbEntity
  8
C-4
  6
Continuous
 62
     7
370
     9
100
AcDbLine
 10
-989.2070524309514
 20
355.8292175457353
 30
0.0
 11
-964.4209308966049
 21
352.5660627402345
 31
0.0
  0
LINE
  5
120
330
1F
100
AcDbEntity
  8
C-4
  6
Continuous
 62
     7
370
     9
100
AcDbLine
 10
-989.2070524309514
 20
355.8292175457353
 30
0.0
 11
-964.4209308966049
 21
359.0923723512373
 31
0.0
  0
LINE
  5
121
330
1F
100
AcDbEntity
  8
C-4
  6
Continuous
 62
     7
370
     9
100
AcDbLine
 10
-812.1042263382571
 20
355.8292175457353
 30
0.0
 11
-1080.169395389144
 21
355.8292175457353
 31
0.0
  0
TEXT
  5
122
330
1F
100
AcDbEntity
  8
C-4
  6
Continuous
 62
     2
370
     9
100
AcDbText
 10
-958.7486928415037
 20
364.4693016752759
 30
0.0
 40
30.47999999999935
  1
φ60.5
 41
1.104166666666689
  7
ＭＳ ゴシック
100
AcDbText
  0
ARC
  5
123
330
1F
100
AcDbEntity
  8
C-2
  6
Continuous
 62
     3
370
     9
100
AcDbCircle
 10
-844.4568732808204
 20
468.2216361100319
 30
0.0
 40
144.7500043301969
100
AcDbArc
 50
89.9998016357422
 51
180.0
  0
ARC
  5
124
330
1F
100
AcDbEntity
  8
C-2
  6
Continuous
 62
     3
370
     9
100
AcDbCircle
 10
-844.4569475127671
 20
468.2219330378194
 30
0.0
 40
205.2499967008024
100
AcDbArc
 50
89.99977111816406
 51
180.0
  0
ARC
  5
125
330
1F
100
AcDbEntity
  8
C-0
  6
JWW_CENTER2
 62
     7
370
     9
100
AcDbCircle
 10
-844.4569475127671
 20
468.2220815017126
 30
0.0
 40
174.999995876003
100
AcDbArc
 50
89.999755859375
 51
180.0
  0
TEXT
  5
126
330
1F
100
AcDbEntity
  8
F-5ﾚｲﾔ
  6
Continuous
 62
     2
370
     9
100
AcDbText
 10
-951.650411244985
 20
-1360.759278382997
 30
0.0
 40
30.48
  1
アーチ型横バー付　据置式スチール製車止め　ＹＢＷ６Ｈ７Ａ－Ｓ
 41
1.120833333333333
  7
ＭＳ ゴシック
100
AcDbText
  0
LINE
  5
127
330
1F
100
AcDbEntity
  8
C-4
  6
Continuous
 62
     7
370
     9
100
AcDbLine
 10
-1459.327692446883
 20
673.4719297369841
 30
0.0
 11
-1462.590847252384
 21
648.6858082026389
 31
0.0
  0
LINE
  5
128
330
1F
100
AcDbEntity
  8
C-4
  6
Continuous
 62
     7
370
     9
100
AcDbLine
 10
-1459.327692446883
 20
673.4719297369841
 30
0.0
 11
-1456.064537641381
 21
648.6858082026389
 31
0.0
  0
LINE
  5
129
330
1F
100
AcDbEntity
  8
C-4
  6
Continuous
 62
     7
370
     9
100
AcDbLine
 10
-1462.327692446883
 20
673.4719297369841
 30
0.0
 11
-864.4561275920594
 21
673.4719297369841
 31
0.0
  0
LINE
  5
12A
330
1F
100
AcDbEntity
  8
C-4
  6
Continuous
 62
     7
370
     9
100
AcDbLine
 10
-1335.68506180874
 20
673.4719297369841
 30
0.0
 11
-1338.948216614242
 21
648.6858082026389
 31
0.0
  0
LINE
  5
12B
330
1F
100
AcDbEntity
  8
C-4
  6
Continuous
 62
     7
370
     9
100
AcDbLine
 10
-1335.68506180874
 20
673.4719297369841
 30
0.0
 11
-1332.421907003239
 21
648.6858082026389
 31
0.0
  0
LINE
  5
12C
330
1F
100
AcDbEntity
  8
C-4
  6
Continuous
 62
     7
370
     9
100
AcDbLine
 10
-170.1524283969746
 20
293.4735463454632
 30
0.0
 11
-170.1524283969746
 21
673.4719297369844
 31
0.0
  0
TEXT
  5
12D
330
1F
100
AcDbEntity
  8
C-4
  6
Continuous
 62
     2
370
   211
100
AcDbText
 10
-180.7924283969746
 20
450.9727380412238
 30
0.0
 40
30.48
  1
380
 50
90.0
 41
1.083333333333333
  7
ＭＳ ゴシック
100
AcDbText
  0
ARC
  5
12E
330
1F
100
AcDbEntity
  8
C-2
  6
JWW_DASHED2
 62
     3
370
     9
100
AcDbCircle
 10
892.9944468413629
 20
643.2222134696184
 30
0.0
 40
30.24996486870018
100
AcDbArc
 50
180.0004730224609
 51
0.0004730224609375
  0
ARC
  5
12F
330
1F
100
AcDbEntity
  8
C-2
  6
Continuous
 62
     3
370
     9
100
AcDbCircle
 10
892.9944468413629
 20
643.2222134696184
 30
0.0
 40
30.24996486870018
100
AcDbArc
 50
0.0
 51
180.0
  0
LINE
  5
130
330
1F
100
AcDbEntity
  8
C-0
  6
JWW_CENTER2
 62
     7
370
     9
100
AcDbLine
 10
841.1058211551295
 20
643.2219660297955
 30
0.0
 11
948.1329471580858
 21
643.2224609094413
 31
0.0
  0
CIRCLE
  5
131
330
1F
100
AcDbEntity
  8
C-2
  6
JWW_DASHED2
 62
     3
370
     9
100
AcDbCircle
 10
892.9946942811858
 20
293.4735463454632
 30
0.0
 40
16.99999925252554
  0
LINE
  5
132
330
1F
100
AcDbEntity
  8
C-0
  6
JWW_CENTER2
 62
     7
370
     9
100
AcDbLine
 10
854.2091686842735
 20
293.4735463454632
 30
0.0
 11
931.3334981629151
 21
293.4735463454632
 31
0.0
  0
TEXT
  5
133
330
1F
100
AcDbEntity
  8
F-Fﾚｲﾔ
  6
Continuous
 62
     2
370
     9
100
AcDbText
 10
-1860.000185579868
 20
-928.4374433032885
 30
0.0
 40
30.48
  1
注記
 41
1.0625
  7
ＭＳ ゴシック
100
AcDbText
  0
TEXT
  5
134
330
1F
100
AcDbEntity
  8
F-Fﾚｲﾔ
  6
Continuous
 62
     2
370
     9
100
AcDbText
 10
-1860.000219602843
 20
-1054.917917002085
 30
0.0
 40
30.48
  1
２）一定の場所に固定したい場合には、
 41
1.118055555555555
  7
ＭＳ ゴシック
100
AcDbText
  0
TEXT
  5
135
330
1F
100
AcDbEntity
  8
F-Fﾚｲﾔ
  6
Continuous
 62
     2
370
     9
100
AcDbText
 10
-1860.000182486869
 20
-1112.468306059966
 30
0.0
 40
30.48
  1
　　Ｍ１２のアンカーボルトで固定できます。
 41
1.119047619047619
  7
ＭＳ ゴシック
100
AcDbText
  0
TEXT
  5
136
330
1F
100
AcDbEntity
  8
F-4ﾚｲﾔ
  6
Continuous
 62
     2
370
     9
100
AcDbText
 10
1275.000065983953
 20
-1112.468306059966
 30
0.0
 40
30.48
  1
本体質量：４２．３ｋｇ
 41
1.113636363636364
  7
ＭＳ ゴシック
100
AcDbText
  0
TEXT
  5
137
330
1F
100
AcDbEntity
  8
F-Fﾚｲﾔ
  6
Continuous
 62
     2
370
     9
100
AcDbText
 10
-1860.000170114879
 20
-997.367527944204
 30
0.0
 40
30.48
  1
１）ご注文の際は、本体色をご指示下さい。
 41
1.11875
  7
ＭＳ ゴシック
100
AcDbText
  0
LINE
  5
138
330
1F
100
AcDbEntity
  8
C-E
  6
Continuous
 62
     6
370
     5
100
AcDbLine
 10
-1169.457623651061
 20
-396.5295646161708
 30
0.0
 11
-24.68941421346756
 21
-396.5295646161708
 31
0.0
  0
TEXT
  5
139
330
1F
100
AcDbEntity
  8
C-4
  6
Continuous
 62
     2
370
   211
100
AcDbText
 10
-362.4569149081152
 20
-572.7923933482233
 30
0.0
 40
30.48
  1
120
 41
1.083333333333333
  7
ＭＳ ゴシック
100
AcDbText
  0
LINE
  5
13A
330
1F
100
AcDbEntity
  8
C-4
  6
Continuous
 62
     7
370
     9
100
AcDbLine
 10
-269.9569435485677
 20
-591.4323933482233
 30
0.0
 11
-269.9569435485677
 21
-406.5300620043474
 31
0.0
  0
LINE
  5
13B
330
1F
100
AcDbEntity
  8
C-4
  6
Continuous
 62
     7
370
     9
100
AcDbLine
 10
-389.9568862676628
 20
-591.4323933482233
 30
0.0
 11
-389.9568862676628
 21
-406.5297987642863
 31
0.0
  0
LINE
  5
13C
330
1F
100
AcDbEntity
  8
C-4
  6
Continuous
 62
     7
370
     9
100
AcDbLine
 10
-269.9569435485677
 20
-588.4323933482233
 30
0.0
 11
-294.7430650829129
 21
-591.6955481537245
 31
0.0
  0
LINE
  5
13D
330
1F
100
AcDbEntity
  8
C-4
  6
Continuous
 62
     7
370
     9
100
AcDbLine
 10
-269.9569435485677
 20
-588.4323933482233
 30
0.0
 11
-294.7430650829129
 21
-585.169238542722
 31
0.0
  0
LINE
  5
13E
330
1F
100
AcDbEntity
  8
C-4
  6
Continuous
 62
     7
370
     9
100
AcDbLine
 10
-389.9568862676628
 20
-588.4323933482233
 30
0.0
 11
-365.1707647333176
 21
-591.6955481537245
 31
0.0
  0
LINE
  5
13F
330
1F
100
AcDbEntity
  8
C-4
  6
Continuous
 62
     7
370
     9
100
AcDbLine
 10
-389.9568862676628
 20
-588.4323933482233
 30
0.0
 11
-365.1707647333176
 21
-585.169238542722
 31
0.0
  0
LINE
  5
140
330
1F
100
AcDbEntity
  8
C-4
  6
Continuous
 62
     7
370
     9
100
AcDbLine
 10
-389.9568862676628
 20
-588.4323933482233
 30
0.0
 11
-269.9569435485677
 21
-588.4323933482233
 31
0.0
  0
TEXT
  5
141
330
1F
100
AcDbEntity
  8
C-4
  6
Continuous
 62
     2
370
   211
100
AcDbText
 10
-729.7068782296168
 20
-492.7923933482233
 30
0.0
 40
30.48
  1
689.5
 41
1.1
  7
ＭＳ ゴシック
100
AcDbText
  0
LINE
  5
142
330
1F
100
AcDbEntity
  8
C-4
  6
Continuous
 62
     7
370
     9
100
AcDbLine
 10
-329.9568873024103
 20
-511.4323933482233
 30
0.0
 11
-329.9568873024103
 21
-438.4323933482233
 31
0.0
  0
LINE
  5
143
330
1F
100
AcDbEntity
  8
C-4
  6
Continuous
 62
     7
370
     9
100
AcDbLine
 10
-1019.456869156823
 20
-511.4323933482233
 30
0.0
 11
-1019.456869156823
 21
-438.4323933482233
 31
0.0
  0
LINE
  5
144
330
1F
100
AcDbEntity
  8
C-4
  6
Continuous
 62
     7
370
     9
100
AcDbLine
 10
-329.9568873024103
 20
-508.4323933482233
 30
0.0
 11
-354.7430088367555
 21
-511.6955481537246
 31
0.0
  0
LINE
  5
145
330
1F
100
AcDbEntity
  8
C-4
  6
Continuous
 62
     7
370
     9
100
AcDbLine
 10
-329.9568873024103
 20
-508.4323933482233
 30
0.0
 11
-354.7430088367555
 21
-505.169238542722
 31
0.0
  0
LINE
  5
146
330
1F
100
AcDbEntity
  8
C-4
  6
Continuous
 62
     7
370
     9
100
AcDbLine
 10
-1019.456869156823
 20
-508.4323933482233
 30
0.0
 11
-994.6707476224781
 21
-511.6955481537246
 31
0.0
  0
LINE
  5
147
330
1F
100
AcDbEntity
  8
C-4
  6
Continuous
 62
     7
370
     9
100
AcDbLine
 10
-1019.456869156823
 20
-508.4323933482233
 30
0.0
 11
-994.6707476224781
 21
-505.169238542722
 31
0.0
  0
LINE
  5
148
330
1F
100
AcDbEntity
  8
C-4
  6
Continuous
 62
     7
370
     9
100
AcDbLine
 10
-1019.456869156823
 20
-508.4323933482233
 30
0.0
 11
-329.9568873024103
 21
-508.4323933482233
 31
0.0
  0
LINE
  5
149
330
1F
100
AcDbEntity
  8
C-0
  6
Continuous
 62
     2
370
     9
100
AcDbLine
 10
-274.5021019277181
 20
-396.5295646161708
 30
0.0
 11
-269.9569435485677
 21
-386.5300620043474
 31
0.0
  0
LINE
  5
14A
330
1F
100
AcDbEntity
  8
C-0
  6
Continuous
 62
     2
370
     9
100
AcDbLine
 10
-269.9569435485677
 20
-386.5300620043474
 30
0.0
 11
-274.5068527723128
 21
-342.8505138613143
 31
0.0
  0
LINE
  5
14B
330
1F
100
AcDbEntity
  8
C-0
  6
Continuous
 62
     2
370
     9
100
AcDbLine
 10
-389.9568862676628
 20
-386.5297987642863
 30
0.0
 11
-385.4071543189765
 21
-342.8505138613143
 31
0.0
  0
LINE
  5
14C
330
1F
100
AcDbEntity
  8
C-0
  6
Continuous
 62
     2
370
     9
100
AcDbLine
 10
-385.4116082357841
 20
-396.5295646161708
 30
0.0
 11
-389.9568862676628
 21
-386.5297987642863
 31
0.0
  0
LINE
  5
14D
330
1F
100
AcDbEntity
  8
C-4
  6
Continuous
 62
     7
370
     9
100
AcDbLine
 10
-1335.685061808741
 20
-176.5297543200347
 30
0.0
 11
-1332.421907003239
 21
-151.7436327856895
 31
0.0
  0
LINE
  5
14E
330
1F
100
AcDbEntity
  8
C-4
  6
Continuous
 62
     7
370
     9
100
AcDbLine
 10
-1335.685061808741
 20
-176.5297543200347
 30
0.0
 11
-1338.948216614242
 21
-151.7436327856895
 31
0.0
  0
TEXT
  5
14F
330
1F
100
AcDbEntity
  8
C-4
  6
Continuous
 62
     2
370
   211
100
AcDbText
 10
-1351.325061808741
 20
-319.0289122915253
 30
0.0
 40
30.48
  1
220
 50
90.0
 41
1.083333333333333
  7
ＭＳ ゴシック
100
AcDbText
  0
LINE
  5
150
330
1F
100
AcDbEntity
  8
C-4
  6
Continuous
 62
     7
370
     9
100
AcDbLine
 10
-1338.685061808741
 20
-176.5297543200347
 30
0.0
 11
-1039.456952408082
 21
-176.5297543200348
 31
0.0
  0
LINE
  5
151
330
1F
100
AcDbEntity
  8
C-4
  6
Continuous
 62
     7
370
     9
100
AcDbLine
 10
-1335.685061808741
 20
-176.5297543200347
 30
0.0
 11
-1332.421907003239
 21
-201.31587585438
 31
0.0
  0
LINE
  5
152
330
1F
100
AcDbEntity
  8
C-4
  6
Continuous
 62
     7
370
     9
100
AcDbLine
 10
-1335.685061808741
 20
-176.5297543200347
 30
0.0
 11
-1338.948216614242
 21
-201.31587585438
 31
0.0
  0
LINE
  5
153
330
1F
100
AcDbEntity
  8
C-4
  6
Continuous
 62
     7
370
     9
100
AcDbLine
 10
-1335.685061808741
 20
-396.5280702630159
 30
0.0
 11
-1332.421907003239
 21
-371.7419487286706
 31
0.0
  0
LINE
  5
154
330
1F
100
AcDbEntity
  8
C-4
  6
Continuous
 62
     7
370
     9
100
AcDbLine
 10
-1335.685061808741
 20
-396.5280702630159
 30
0.0
 11
-1338.948216614242
 21
-371.7419487286706
 31
0.0
  0
LINE
  5
155
330
1F
100
AcDbEntity
  8
C-4
  6
Continuous
 62
     7
370
     9
100
AcDbLine
 10
-1335.685061808741
 20
-396.5280702630159
 30
0.0
 11
-1335.685061808741
 21
-176.5297543200347
 31
0.0
  0
LINE
  5
156
330
1F
100
AcDbEntity
  8
C-4
  6
Continuous
 62
     7
370
     9
100
AcDbLine
 10
-1462.327692446883
 20
-396.5280702630159
 30
0.0
 11
-1189.457623651061
 21
-396.5280702630159
 31
0.0
  0
LINE
  5
157
330
1F
100
AcDbEntity
  8
C-4
  6
Continuous
 62
     7
370
     9
100
AcDbLine
 10
-1459.327692446883
 20
-396.5280702630159
 30
0.0
 11
-1456.064537641382
 21
-371.7419487286706
 31
0.0
  0
LINE
  5
158
330
1F
100
AcDbEntity
  8
C-4
  6
Continuous
 62
     7
370
     9
100
AcDbLine
 10
-1459.327692446883
 20
-396.5280702630159
 30
0.0
 11
-1462.590847252384
 21
-371.7419487286706
 31
0.0
  0
LINE
  5
159
330
1F
100
AcDbEntity
  8
C-2
  6
Continuous
 62
     3
370
     9
100
AcDbLine
 10
-299.7068864776108
 20
468.2219330378194
 30
0.0
 11
-299.7068864776108
 21
-178.1511677165872
 31
0.0
  0
LINE
  5
15A
330
1F
100
AcDbEntity
  8
C-2
  6
Continuous
 62
     3
370
     9
100
AcDbLine
 10
-1049.706869981623
 20
468.2219330378194
 30
0.0
 11
-1049.706869981623
 21
-178.1511878718889
 31
0.0
  0
LINE
  5
15B
330
1F
100
AcDbEntity
  8
C-0
  6
JWW_DASHED1
 62
     3
370
     9
100
AcDbLine
 10
-360.2070414864175
 20
-178.1511878718889
 30
0.0
 11
-360.2070414864175
 21
-376.5296965840761
 31
0.0
  0
LINE
  5
15C
330
1F
100
AcDbEntity
  8
C-0
  6
JWW_DASHED1
 62
     3
370
     9
100
AcDbLine
 10
-299.7071140687652
 20
-178.1511677165872
 30
0.0
 11
-299.7071140687652
 21
-376.5296965840761
 31
0.0
  0
LINE
  5
15D
330
1F
100
AcDbEntity
  8
C-0
  6
JWW_DASHED1
 62
     3
370
     9
100
AcDbLine
 10
-1049.706916116907
 20
-178.1511878718889
 30
0.0
 11
-1049.706916116907
 21
-376.5297708160228
 31
0.0
  0
LINE
  5
15E
330
1F
100
AcDbEntity
  8
C-0
  6
JWW_DASHED1
 62
     3
370
     9
100
AcDbLine
 10
-989.2069886992554
 20
-178.1511677165872
 30
0.0
 11
-989.2069886992554
 21
-376.5297708160228
 31
0.0
  0
LINE
  5
15F
330
1F
100
AcDbEntity
  8
C-1
  6
JWW_DASHED1
 62
     4
370
     9
100
AcDbLine
 10
-1049.706916116907
 20
-178.1511878718889
 30
0.0
 11
-1049.706916116907
 21
-376.5296965840761
 31
0.0
  0
ARC
  5
160
330
1F
100
AcDbEntity
  8
C-0
  6
JWW_DASHED1
 62
     2
370
     9
100
AcDbCircle
 10
-352.9569557072791
 20
-377.5018381592452
 30
0.0
 40
0.5000000064437454
100
AcDbArc
 50
0.0
 51
86.72996520996094
  0
ARC
  5
161
330
1F
100
AcDbEntity
  8
C-0
  6
JWW_DASHED1
 62
     2
370
     9
100
AcDbCircle
 10
-360.7070678799984
 20
-376.0574329385947
 30
0.0
 40
0.5000000064437454
100
AcDbArc
 50
180.0
 51
266.7299652099609
  0
ARC
  5
162
330
1F
100
AcDbEntity
  8
C-0
  6
JWW_DASHED1
 62
     2
370
     9
100
AcDbCircle
 10
-306.9571998479041
 20
-377.5018381592452
 30
0.0
 40
0.5000000064437454
100
AcDbArc
 50
93.27003479003906
 51
180.0
  0
ARC
  5
163
330
1F
100
AcDbEntity
  8
C-0
  6
JWW_DASHED1
 62
     2
370
     9
100
AcDbCircle
 10
-299.2070876751843
 20
-376.0574329385947
 30
0.0
 40
0.5000000064437454
100
AcDbArc
 50
273.2700347900391
 51
0.0000000000000127
  0
ARC
  5
164
330
1F
100
AcDbEntity
  8
C-0
  6
Continuous
 62
     2
370
     9
100
AcDbCircle
 10
-271.4909572381065
 20
-386.2799143311202
 30
0.0
 40
1.500000164315507
100
AcDbArc
 50
335.5550079345703
 51
5.946975708007842
  0
ARC
  5
165
330
1F
100
AcDbEntity
  8
C-0
  6
Continuous
 62
     2
370
     9
100
AcDbCircle
 10
-388.4228271573421
 20
-386.2799143311202
 30
0.0
 40
1.500000164315507
100
AcDbArc
 50
174.0530242919922
 51
204.4447784423828
  0
ARC
  5
166
330
1F
100
AcDbEntity
  8
C-0
  6
Continuous
 62
     2
370
     9
100
AcDbCircle
 10
-294.2071206671609
 20
-179.9481354697392
 30
0.0
 40
1.500000164315507
100
AcDbArc
 50
0.0
 51
86.93260192871094
  0
ARC
  5
167
330
1F
100
AcDbEntity
  8
C-0
  6
Continuous
 62
     2
370
     9
100
AcDbCircle
 10
-365.7067379602353
 20
-179.9481354697392
 30
0.0
 40
1.500000164315507
100
AcDbArc
 50
93.06739807128908
 51
180.0
  0
ARC
  5
168
330
1F
100
AcDbEntity
  8
C-0
  6
Continuous
 62
     2
370
     9
100
AcDbCircle
 10
-311.2106903990022
 20
-347.9688065925221
 30
0.0
 40
1.500000164315507
100
AcDbArc
 50
10.74382019042969
 51
87.13726806640625
  0
ARC
  5
169
330
1F
100
AcDbEntity
  8
C-0
  6
Continuous
 62
     2
370
     9
100
AcDbCircle
 10
-348.7030197645003
 20
-347.9688065925221
 30
0.0
 40
1.500000164315507
100
AcDbArc
 50
92.86273193359376
 51
169.2561798095703
  0
ARC
  5
16A
330
1F
100
AcDbEntity
  8
C-0
  6
Continuous
 62
     2
370
     9
100
AcDbCircle
 10
-279.4797993517046
 20
-343.3685043860187
 30
0.0
 40
5.00000064437454
100
AcDbArc
 50
5.946899414062499
 51
87.91748046875
  0
ARC
  5
16B
330
1F
100
AcDbEntity
  8
C-0
  6
Continuous
 62
     2
370
     9
100
AcDbCircle
 10
-277.3959601414006
 20
-363.3743109738563
 30
0.0
 40
5.00000064437454
100
AcDbArc
 50
5.946807861328125
 51
87.992919921875
  0
ARC
  5
16C
330
1F
100
AcDbEntity
  8
C-0
  6
Continuous
 62
     2
370
     9
100
AcDbCircle
 10
-380.4339108117978
 20
-343.3685043860187
 30
0.0
 40
5.00000064437454
100
AcDbArc
 50
92.08251953125001
 51
174.0531005859375
  0
ARC
  5
16D
330
1F
100
AcDbEntity
  8
C-0
  6
Continuous
 62
     2
370
     9
100
AcDbCircle
 10
-382.5178242540484
 20
-363.3743109738563
 30
0.0
 40
5.00000064437454
100
AcDbArc
 50
92.00708007812499
 51
174.0531921386719
  0
ARC
  5
16E
330
1F
100
AcDbEntity
  8
C-0
  6
Continuous
 62
     2
370
     9
100
AcDbCircle
 10
-307.3007452976506
 20
-349.7999602559511
 30
0.0
 40
2.000000025774982
100
AcDbArc
 50
190.7440643310547
 51
270.0
  0
CIRCLE
  5
16F
330
1F
100
AcDbEntity
  8
C-0
  6
Continuous
 62
     2
370
     9
100
AcDbCircle
 10
-329.9570777775916
 20
-226.5297213280584
 30
0.0
 40
6.999993130967424
  0
ARC
  5
170
330
1F
100
AcDbEntity
  8
C-0
  6
Continuous
 62
     2
370
     9
100
AcDbCircle
 10
-352.6130390977984
 20
-349.7999602559511
 30
0.0
 40
2.000000025774982
100
AcDbArc
 50
270.0
 51
349.2559356689453
  0
ELLIPSE
  5
171
330
1F
100
AcDbEntity
  8
C-0
  6
Continuous
 62
     2
370
     9
100
AcDbEllipse
 10
-329.9567808498043
 20
-351.7999173663819
 30
0.0
 11
20.99997881296519
 21
0.0
 31
0.0
210
0.0
220
0.0
230
1.0
 40
0.1351
 41
3.141592653589792
 42
6.283185307179586
  0
CIRCLE
  5
172
330
1F
100
AcDbEntity
  8
C-1
  6
Continuous
 62
     2
370
     9
100
AcDbCircle
 10
-329.9570777775916
 20
-226.5295728641649
 30
0.0
 40
8.673235725712132
  0
ARC
  5
173
330
1F
100
AcDbEntity
  8
C-0
  6
JWW_DASHED1
 62
     2
370
     9
100
AcDbCircle
 10
-1042.456830337769
 20
-377.5018381592452
 30
0.0
 40
0.5000000064437454
100
AcDbArc
 50
0.0
 51
86.72996520996094
  0
ARC
  5
174
330
1F
100
AcDbEntity
  8
C-0
  6
JWW_DASHED1
 62
     2
370
     9
100
AcDbCircle
 10
-1050.206942510488
 20
-376.0574329385947
 30
0.0
 40
0.5000000064437454
100
AcDbArc
 50
180.0
 51
266.7299652099609
  0
ARC
  5
175
330
1F
100
AcDbEntity
  8
C-0
  6
JWW_DASHED1
 62
     2
370
     9
100
AcDbCircle
 10
-996.4569260145004
 20
-377.5018381592452
 30
0.0
 40
0.5000000064437454
100
AcDbArc
 50
93.27003479003906
 51
180.0
  0
ARC
  5
176
330
1F
100
AcDbEntity
  8
C-0
  6
JWW_DASHED1
 62
     2
370
     9
100
AcDbCircle
 10
-988.706813841781
 20
-376.0574329385947
 30
0.0
 40
0.5000000064437454
100
AcDbArc
 50
273.2700347900391
 51
0.0000000000000127
  0
ARC
  5
177
330
1F
100
AcDbEntity
  8
C-0
  6
Continuous
 62
     2
370
     9
100
AcDbCircle
 10
-960.9908318685966
 20
-386.2799143311202
 30
0.0
 40
1.500000164315507
100
AcDbArc
 50
335.5550079345703
 51
5.946975708007842
  0
ARC
  5
178
330
1F
100
AcDbEntity
  8
C-0
  6
Continuous
 62
     2
370
     9
100
AcDbCircle
 10
-1077.922627555885
 20
-386.2799143311202
 30
0.0
 40
1.500000164315507
100
AcDbArc
 50
174.0530242919922
 51
204.4447784423828
  0
ARC
  5
179
330
1F
100
AcDbEntity
  8
C-0
  6
Continuous
 62
     2
370
     9
100
AcDbCircle
 10
-983.7068468337571
 20
-179.9481354697392
 30
0.0
 40
1.500000164315507
100
AcDbArc
 50
0.0
 51
86.93260192871094
  0
ARC
  5
17A
330
1F
100
AcDbEntity
  8
C-0
  6
Continuous
 62
     2
370
     9
100
AcDbCircle
 10
-1055.206612590725
 20
-179.9481354697392
 30
0.0
 40
1.500000164315507
100
AcDbArc
 50
93.06739807128908
 51
180.0
  0
ARC
  5
17B
330
1F
100
AcDbEntity
  8
C-0
  6
Continuous
 62
     2
370
     9
100
AcDbCircle
 10
-1000.710565029492
 20
-347.9688065925221
 30
0.0
 40
1.500000164315507
100
AcDbArc
 50
10.74382019042969
 51
87.13726806640625
  0
ARC
  5
17C
330
1F
100
AcDbEntity
  8
C-0
  6
Continuous
 62
     2
370
     9
100
AcDbCircle
 10
-1038.20289439499
 20
-347.9688065925221
 30
0.0
 40
1.500000164315507
100
AcDbArc
 50
92.86273193359376
 51
169.2561798095703
  0
ARC
  5
17D
330
1F
100
AcDbEntity
  8
C-0
  6
Continuous
 62
     2
370
     9
100
AcDbCircle
 10
-968.9798224460884
 20
-343.3685043860187
 30
0.0
 40
5.00000064437454
100
AcDbArc
 50
5.946899414062499
 51
87.91748046875
  0
ARC
  5
17E
330
1F
100
AcDbEntity
  8
C-0
  6
Continuous
 62
     2
370
     9
100
AcDbCircle
 10
-966.8958347718903
 20
-363.3743109738563
 30
0.0
 40
5.00000064437454
100
AcDbArc
 50
5.946807861328125
 51
87.992919921875
  0
ARC
  5
17F
330
1F
100
AcDbEntity
  8
C-0
  6
Continuous
 62
     2
370
     9
100
AcDbCircle
 10
-1069.933785442287
 20
-343.3685043860187
 30
0.0
 40
5.00000064437454
100
AcDbArc
 50
92.08251953125001
 51
174.0531005859375
  0
ARC
  5
180
330
1F
100
AcDbEntity
  8
C-0
  6
Continuous
 62
     2
370
     9
100
AcDbCircle
 10
-1072.017624652592
 20
-363.3743109738563
 30
0.0
 40
5.00000064437454
100
AcDbArc
 50
92.00708007812499
 51
174.0531921386719
  0
ARC
  5
181
330
1F
100
AcDbEntity
  8
C-0
  6
Continuous
 62
     2
370
     9
100
AcDbCircle
 10
-996.8006199281403
 20
-349.7999602559511
 30
0.0
 40
2.000000025774982
100
AcDbArc
 50
190.7440643310547
 51
270.0
  0
CIRCLE
  5
182
330
1F
100
AcDbEntity
  8
C-0
  6
Continuous
 62
     2
370
     9
100
AcDbCircle
 10
-1019.456952408082
 20
-226.5297213280584
 30
0.0
 40
6.999993130967424
  0
ARC
  5
183
330
1F
100
AcDbEntity
  8
C-0
  6
Continuous
 62
     2
370
     9
100
AcDbCircle
 10
-1042.112839496342
 20
-349.7999602559511
 30
0.0
 40
2.000000025774982
100
AcDbArc
 50
270.0
 51
349.2559356689453
  0
ELLIPSE
  5
184
330
1F
100
AcDbEntity
  8
C-0
  6
Continuous
 62
     2
370
     9
100
AcDbEllipse
 10
-1019.456655480294
 20
-351.7999173663819
 30
0.0
 11
20.99997881296519
 21
0.0
 31
0.0
210
0.0
220
0.0
230
1.0
 40
0.1351
 41
3.141592653589792
 42
6.283185307179586
  0
CIRCLE
  5
185
330
1F
100
AcDbEntity
  8
C-1
  6
Continuous
 62
     2
370
     9
100
AcDbCircle
 10
-1019.456952408082
 20
-226.5295728641649
 30
0.0
 40
8.673235725712132
  0
LINE
  5
186
330
1F
100
AcDbEntity
  8
C-0
  6
Continuous
 62
     2
370
     9
100
AcDbLine
 10
-1019.456952408082
 20
-336.5295151282062
 30
0.0
 11
-1019.456952408082
 21
-345.5296190529319
 31
0.0
  0
LINE
  5
187
330
1F
100
AcDbEntity
  8
C-0
  6
Continuous
 62
     2
370
     9
100
AcDbLine
 10
-329.9570777775916
 20
-398.5296701904952
 30
0.0
 11
-329.9570777775916
 21
-345.5296932848785
 31
0.0
  0
LINE
  5
188
330
1F
100
AcDbEntity
  8
C-0
  6
JWW_DASHED1
 62
     2
370
     9
100
AcDbLine
 10
-307.4572262414853
 20
-377.5018381592452
 30
0.0
 11
-307.4572262414853
 21
-387.1546635920997
 31
0.0
  0
LINE
  5
189
330
1F
100
AcDbEntity
  8
C-0
  6
JWW_DASHED1
 62
     2
370
     9
100
AcDbLine
 10
-270.012256858039
 20
-386.5306698473785
 30
0.0
 11
-329.9570777775916
 21
-387.5296833872855
 31
0.0
  0
LINE
  5
18A
330
1F
100
AcDbEntity
  8
C-0
  6
JWW_DASHED1
 62
     2
370
     9
100
AcDbLine
 10
-389.9016760013034
 20
-386.5306698473785
 30
0.0
 11
-329.9570777775916
 21
-387.5296833872855
 31
0.0
  0
LINE
  5
18B
330
1F
100
AcDbEntity
  8
C-0
  6
JWW_DASHED1
 62
     2
370
     9
100
AcDbLine
 10
-352.4569293136978
 20
-377.5018381592452
 30
0.0
 11
-352.4569293136978
 21
-387.1546635920997
 31
0.0
  0
LINE
  5
18C
330
1F
100
AcDbEntity
  8
C-0
  6
Continuous
 62
     2
370
     9
100
AcDbLine
 10
-329.9570777775916
 20
-345.5296932848785
 30
0.0
 11
-329.9570777775916
 21
-336.5295151282062
 31
0.0
  0
LINE
  5
18D
330
1F
100
AcDbEntity
  8
C-0
  6
JWW_DASHED1
 62
     2
370
     9
100
AcDbLine
 10
-361.2069458096859
 20
-178.2047239674165
 30
0.0
 11
-361.2069458096859
 21
-376.0574329385947
 31
0.0
  0
LINE
  5
18E
330
1F
100
AcDbEntity
  8
C-0
  6
JWW_DASHED1
 62
     2
370
     9
100
AcDbLine
 10
-298.7070612816034
 20
-178.2047239674165
 30
0.0
 11
-298.7070612816034
 21
-376.0574329385947
 31
0.0
  0
LINE
  5
18F
330
1F
100
AcDbEntity
  8
C-0
  6
JWW_DASHED1
 62
     2
370
     9
100
AcDbLine
 10
-352.4569293136978
 20
-377.0297229776572
 30
0.0
 11
-307.4572262414853
 21
-377.0297229776572
 31
0.0
  0
LINE
  5
190
330
1F
100
AcDbEntity
  8
C-0
  6
JWW_DASHED1
 62
     2
370
     9
100
AcDbLine
 10
-352.9284506397116
 20
-377.0027025490256
 30
0.0
 11
-360.7355729475659
 21
-376.5566427807612
 31
0.0
  0
LINE
  5
191
330
1F
100
AcDbEntity
  8
C-0
  6
JWW_DASHED1
 62
     2
370
     9
100
AcDbLine
 10
-306.9857049154715
 20
-377.0027025490256
 30
0.0
 11
-299.1785826076168
 21
-376.5566427807612
 31
0.0
  0
LINE
  5
192
330
1F
100
AcDbEntity
  8
C-1
  6
JWW_DASHED1
 62
     4
370
     9
100
AcDbLine
 10
-299.7068171409784
 20
-178.1511285018337
 30
0.0
 11
-299.7068171409784
 21
-376.5296965840761
 31
0.0
  0
LINE
  5
193
330
1F
100
AcDbEntity
  8
C-1
  6
JWW_DASHED1
 62
     4
370
     9
100
AcDbLine
 10
-360.2070414864175
 20
-178.1511285018337
 30
0.0
 11
-360.2070414864175
 21
-376.5296965840761
 31
0.0
  0
LINE
  5
194
330
1F
100
AcDbEntity
  8
C-0
  6
Continuous
 62
     2
370
     9
100
AcDbLine
 10
-292.7070414864175
 20
-179.9481354697392
 30
0.0
 11
-292.7070414864175
 21
-337.8842481571337
 31
0.0
  0
LINE
  5
195
330
1F
100
AcDbEntity
  8
C-0
  6
Continuous
 62
     2
370
     9
100
AcDbLine
 10
-294.1266532368397
 20
-178.4502832473996
 30
0.0
 11
-329.9570777775916
 21
-176.5297543200347
 31
0.0
  0
LINE
  5
196
330
1F
100
AcDbEntity
  8
C-0
  6
Continuous
 62
     2
370
     9
100
AcDbLine
 10
-365.7870569266624
 20
-178.4502832473996
 30
0.0
 11
-329.9570777775916
 21
-176.5297543200347
 31
0.0
  0
LINE
  5
197
330
1F
100
AcDbEntity
  8
C-0
  6
Continuous
 62
     2
370
     9
100
AcDbLine
 10
-367.2068171409784
 20
-179.9481354697392
 30
0.0
 11
-367.2068171409784
 21
-337.8842481571337
 31
0.0
  0
LINE
  5
198
330
1F
100
AcDbEntity
  8
C-0
  6
Continuous
 62
     2
370
     9
100
AcDbLine
 10
-309.7370377913159
 20
-347.689249080909
 30
0.0
 11
-309.2658133930897
 21
-350.1727530927333
 31
0.0
  0
LINE
  5
199
330
1F
100
AcDbEntity
  8
C-0
  6
Continuous
 62
     2
370
     9
100
AcDbLine
 10
-311.1355676688499
 20
-346.4706574423954
 30
0.0
 11
-329.9570777775916
 21
-345.5296932848785
 31
0.0
  0
LINE
  5
19A
330
1F
100
AcDbEntity
  8
C-0
  6
Continuous
 62
     2
370
     9
100
AcDbLine
 10
-348.7781424946522
 20
-346.4706574423954
 30
0.0
 11
-329.9570777775916
 21
-345.5296932848785
 31
0.0
  0
LINE
  5
19B
330
1F
100
AcDbEntity
  8
C-0
  6
Continuous
 62
     2
370
     9
100
AcDbLine
 10
-350.1768208360796
 20
-347.689249080909
 30
0.0
 11
-350.6482679301465
 21
-350.1727530927333
 31
0.0
  0
LINE
  5
19C
330
1F
100
AcDbEntity
  8
C-0
  6
Continuous
 62
     2
370
     9
100
AcDbLine
 10
-270.6337267165696
 20
-386.5296306001235
 30
0.0
 11
-389.3790830958982
 21
-386.5296306001235
 31
0.0
  0
LINE
  5
19D
330
1F
100
AcDbEntity
  8
C-0
  6
Continuous
 62
     2
370
     9
100
AcDbLine
 10
-279.2983764737484
 20
-338.3716551197602
 30
0.0
 11
-329.9570777775916
 21
-336.5295151282062
 31
0.0
  0
LINE
  5
19E
330
1F
100
AcDbEntity
  8
C-0
  6
Continuous
 62
     2
370
     9
100
AcDbLine
 10
-277.2210696747621
 20
-358.3773874756514
 30
0.0
 11
-329.9570777775916
 21
-356.5296800880881
 31
0.0
  0
LINE
  5
19F
330
1F
100
AcDbEntity
  8
C-0
  6
Continuous
 62
     2
370
     9
100
AcDbLine
 10
-380.6157048494878
 20
-338.3716551197602
 30
0.0
 11
-329.9570777775916
 21
-336.5295151282062
 31
0.0
  0
LINE
  5
1A0
330
1F
100
AcDbEntity
  8
C-0
  6
Continuous
 62
     2
370
     9
100
AcDbLine
 10
-382.6929374165272
 20
-358.3773874756514
 30
0.0
 11
-329.9570777775916
 21
-356.5296800880881
 31
0.0
  0
LINE
  5
1A1
330
1F
100
AcDbEntity
  8
C-1
  6
Continuous
 62
     2
370
     9
100
AcDbLine
 10
-324.9495391109953
 20
-235.2028335271714
 30
0.0
 11
-334.964467980294
 21
-235.2028335271714
 31
0.0
  0
LINE
  5
1A2
330
1F
100
AcDbEntity
  8
C-D
  6
JWW_CENTER1
 62
     2
370
     9
100
AcDbLine
 10
-341.3602925157671
 20
-226.5297213280584
 30
0.0
 11
-317.7888285957925
 21
-226.5297213280584
 31
0.0
  0
LINE
  5
1A3
330
1F
100
AcDbEntity
  8
C-1
  6
Continuous
 62
     2
370
     9
100
AcDbLine
 10
-334.964467980294
 20
-235.2028335271714
 30
0.0
 11
-339.9718581829968
 21
-226.5297213280584
 31
0.0
  0
LINE
  5
1A4
330
1F
100
AcDbEntity
  8
C-1
  6
Continuous
 62
     2
370
     9
100
AcDbLine
 10
-319.9421489082925
 20
-226.5297213280584
 30
0.0
 11
-324.9495391109953
 21
-235.2028335271714
 31
0.0
  0
LINE
  5
1A5
330
1F
100
AcDbEntity
  8
C-1
  6
Continuous
 62
     2
370
     9
100
AcDbLine
 10
-324.9495391109953
 20
-217.8564606650517
 30
0.0
 11
-319.9421489082925
 21
-226.5297213280584
 31
0.0
  0
LINE
  5
1A6
330
1F
100
AcDbEntity
  8
C-1
  6
Continuous
 62
     2
370
     9
100
AcDbLine
 10
-334.964467980294
 20
-217.8564606650517
 30
0.0
 11
-324.9495391109953
 21
-217.8564606650517
 31
0.0
  0
LINE
  5
1A7
330
1F
100
AcDbEntity
  8
C-1
  6
Continuous
 62
     2
370
     9
100
AcDbLine
 10
-339.9718581829968
 20
-226.5297213280584
 30
0.0
 11
-334.964467980294
 21
-217.8564606650517
 31
0.0
  0
LINE
  5
1A8
330
1F
100
AcDbEntity
  8
C-0
  6
Continuous
 62
     2
370
     9
100
AcDbLine
 10
-1019.456952408082
 20
-398.5296701904952
 30
0.0
 11
-1019.456952408082
 21
-345.5296932848785
 31
0.0
  0
LINE
  5
1A9
330
1F
100
AcDbEntity
  8
C-0
  6
JWW_DASHED1
 62
     2
370
     9
100
AcDbLine
 10
-996.9569524080816
 20
-377.5018381592452
 30
0.0
 11
-996.9569524080816
 21
-387.1546635920997
 31
0.0
  0
LINE
  5
1AA
330
1F
100
AcDbEntity
  8
C-0
  6
JWW_DASHED1
 62
     2
370
     9
100
AcDbLine
 10
-959.5122799524228
 20
-386.5306698473785
 30
0.0
 11
-1019.456952408082
 21
-387.5296833872855
 31
0.0
  0
LINE
  5
1AB
330
1F
100
AcDbEntity
  8
C-0
  6
JWW_DASHED1
 62
     2
370
     9
100
AcDbLine
 10
-1079.40162486374
 20
-386.5306698473785
 30
0.0
 11
-1019.456952408082
 21
-387.5296833872855
 31
0.0
  0
LINE
  5
1AC
330
1F
100
AcDbEntity
  8
C-0
  6
JWW_DASHED1
 62
     2
370
     9
100
AcDbLine
 10
-1041.956803944188
 20
-377.5018381592452
 30
0.0
 11
-1041.956803944188
 21
-387.1546635920997
 31
0.0
  0
LINE
  5
1AD
330
1F
100
AcDbEntity
  8
C-0
  6
JWW_DASHED1
 62
     2
370
     9
100
AcDbLine
 10
-1050.706820440176
 20
-178.2047239674165
 30
0.0
 11
-1050.706820440176
 21
-376.0574329385947
 31
0.0
  0
LINE
  5
1AE
330
1F
100
AcDbEntity
  8
C-0
  6
JWW_DASHED1
 62
     2
370
     9
100
AcDbLine
 10
-988.2069359120935
 20
-178.2047239674165
 30
0.0
 11
-988.2069359120935
 21
-376.0574329385947
 31
0.0
  0
LINE
  5
1AF
330
1F
100
AcDbEntity
  8
C-0
  6
JWW_DASHED1
 62
     2
370
     9
100
AcDbLine
 10
-1041.956803944188
 20
-377.0297229776572
 30
0.0
 11
-996.9569524080816
 21
-377.0297229776572
 31
0.0
  0
LINE
  5
1B0
330
1F
100
AcDbEntity
  8
C-0
  6
JWW_DASHED1
 62
     2
370
     9
100
AcDbLine
 10
-1049.462989939753
 20
-376.5296965840761
 30
0.0
 11
-989.4507664125153
 21
-376.5296965840761
 31
0.0
  0
LINE
  5
1B1
330
1F
100
AcDbEntity
  8
C-0
  6
JWW_DASHED1
 62
     2
370
     9
100
AcDbLine
 10
-1042.428325270202
 20
-377.0027025490256
 30
0.0
 11
-1050.235447578056
 21
-376.5566427807612
 31
0.0
  0
LINE
  5
1B2
330
1F
100
AcDbEntity
  8
C-0
  6
JWW_DASHED1
 62
     2
370
     9
100
AcDbLine
 10
-996.4854310820679
 20
-377.0027025490256
 30
0.0
 11
-988.6783087742134
 21
-376.5566427807612
 31
0.0
  0
LINE
  5
1B3
330
1F
100
AcDbEntity
  8
C-0
  6
Continuous
 62
     2
370
     9
100
AcDbLine
 10
-964.0019765582077
 20
-396.5295646161708
 30
0.0
 11
-959.6254094393316
 21
-386.9006418701827
 31
0.0
  0
LINE
  5
1B4
330
1F
100
AcDbEntity
  8
C-0
  6
Continuous
 62
     2
370
     9
100
AcDbLine
 10
-1074.911482866274
 20
-396.5295646161708
 30
0.0
 11
-1079.288198449044
 21
-386.9006418701827
 31
0.0
  0
LINE
  5
1B5
330
1F
100
AcDbEntity
  8
C-1
  6
JWW_DASHED1
 62
     4
370
     9
100
AcDbLine
 10
-989.2068402353616
 20
-178.1511285018337
 30
0.0
 11
-989.2068402353616
 21
-376.5296965840761
 31
0.0
  0
LINE
  5
1B6
330
1F
100
AcDbEntity
  8
C-0
  6
Continuous
 62
     2
370
     9
100
AcDbLine
 10
-959.4989182020004
 20
-386.1244726345406
 30
0.0
 11
-964.0067274028029
 21
-342.8505138613143
 31
0.0
  0
LINE
  5
1B7
330
1F
100
AcDbEntity
  8
C-0
  6
Continuous
 62
     2
370
     9
100
AcDbLine
 10
-1079.414541222482
 20
-386.1244726345406
 30
0.0
 11
-1074.907028949467
 21
-342.8505138613143
 31
0.0
  0
LINE
  5
1B8
330
1F
100
AcDbEntity
  8
C-0
  6
Continuous
 62
     2
370
     9
100
AcDbLine
 10
-982.206767653014
 20
-179.9481354697392
 30
0.0
 11
-982.206767653014
 21
-337.8842481571337
 31
0.0
  0
LINE
  5
1B9
330
1F
100
AcDbEntity
  8
C-0
  6
Continuous
 62
     2
370
     9
100
AcDbLine
 10
-983.6265278673296
 20
-178.4502832473996
 30
0.0
 11
-1019.456952408082
 21
-176.5297543200347
 31
0.0
  0
LINE
  5
1BA
330
1F
100
AcDbEntity
  8
C-0
  6
Continuous
 62
     2
370
     9
100
AcDbLine
 10
-1055.286931557152
 20
-178.4502832473996
 30
0.0
 11
-1019.456952408082
 21
-176.5297543200347
 31
0.0
  0
LINE
  5
1BB
330
1F
100
AcDbEntity
  8
C-0
  6
Continuous
 62
     2
370
     9
100
AcDbLine
 10
-1056.706691771469
 20
-179.9481354697392
 30
0.0
 11
-1056.706691771469
 21
-337.8842481571337
 31
0.0
  0
LINE
  5
1BC
330
1F
100
AcDbEntity
  8
C-0
  6
Continuous
 62
     2
370
     9
100
AcDbLine
 10
-999.2367639579122
 20
-347.689249080909
 30
0.0
 11
-998.765539559686
 21
-350.1727530927333
 31
0.0
  0
LINE
  5
1BD
330
1F
100
AcDbEntity
  8
C-0
  6
Continuous
 62
     2
370
     9
100
AcDbLine
 10
-1000.63544229934
 20
-346.4706574423954
 30
0.0
 11
-1019.456952408082
 21
-345.5296932848785
 31
0.0
  0
LINE
  5
1BE
330
1F
100
AcDbEntity
  8
C-0
  6
Continuous
 62
     2
370
     9
100
AcDbLine
 10
-1038.278017125142
 20
-346.4706574423954
 30
0.0
 11
-1019.456952408082
 21
-345.5296932848785
 31
0.0
  0
LINE
  5
1BF
330
1F
100
AcDbEntity
  8
C-0
  6
Continuous
 62
     2
370
     9
100
AcDbLine
 10
-1039.67669546657
 20
-347.689249080909
 30
0.0
 11
-1040.14806832869
 21
-350.1727530927333
 31
0.0
  0
LINE
  5
1C0
330
1F
100
AcDbEntity
  8
C-0
  6
Continuous
 62
     2
370
     9
100
AcDbLine
 10
-960.133452883166
 20
-386.5296306001235
 30
0.0
 11
-1078.879031958335
 21
-386.5296306001235
 31
0.0
  0
LINE
  5
1C1
330
1F
100
AcDbEntity
  8
C-0
  6
Continuous
 62
     2
370
     9
100
AcDbLine
 10
-968.7981026403446
 20
-338.3716551197602
 30
0.0
 11
-1019.456952408082
 21
-336.5295151282062
 31
0.0
  0
LINE
  5
1C2
330
1F
100
AcDbEntity
  8
C-0
  6
Continuous
 62
     2
370
     9
100
AcDbLine
 10
-966.7209443052523
 20
-358.3773874756514
 30
0.0
 11
-1019.456952408082
 21
-356.5296800880881
 31
0.0
  0
LINE
  5
1C3
330
1F
100
AcDbEntity
  8
C-0
  6
Continuous
 62
     2
370
     9
100
AcDbLine
 10
-1070.115505248031
 20
-338.3716551197602
 30
0.0
 11
-1019.456952408082
 21
-336.5295151282062
 31
0.0
  0
LINE
  5
1C4
330
1F
100
AcDbEntity
  8
C-0
  6
Continuous
 62
     2
370
     9
100
AcDbLine
 10
-1072.192812047017
 20
-358.3773874756514
 30
0.0
 11
-1019.456952408082
 21
-356.5296800880881
 31
0.0
  0
LINE
  5
1C5
330
1F
100
AcDbEntity
  8
C-1
  6
Continuous
 62
     2
370
     9
100
AcDbLine
 10
-1014.449413741485
 20
-235.2028335271714
 30
0.0
 11
-1024.464342610784
 21
-235.2028335271714
 31
0.0
  0
LINE
  5
1C6
330
1F
100
AcDbEntity
  8
C-D
  6
JWW_CENTER1
 62
     2
370
     9
100
AcDbLine
 10
-1030.860167146257
 20
-226.5297213280584
 30
0.0
 11
-1007.288554762389
 21
-226.5297213280584
 31
0.0
  0
LINE
  5
1C7
330
1F
100
AcDbEntity
  8
C-1
  6
Continuous
 62
     2
370
     9
100
AcDbLine
 10
-1024.464342610784
 20
-235.2028335271714
 30
0.0
 11
-1029.471732813487
 21
-226.5297213280584
 31
0.0
  0
LINE
  5
1C8
330
1F
100
AcDbEntity
  8
C-1
  6
Continuous
 62
     2
370
     9
100
AcDbLine
 10
-1009.441875074889
 20
-226.5297213280584
 30
0.0
 11
-1014.449413741485
 21
-235.2028335271714
 31
0.0
  0
LINE
  5
1C9
330
1F
100
AcDbEntity
  8
C-1
  6
Continuous
 62
     2
370
     9
100
AcDbLine
 10
-1014.449413741485
 20
-217.8564606650517
 30
0.0
 11
-1009.441875074889
 21
-226.5297213280584
 31
0.0
  0
LINE
  5
1CA
330
1F
100
AcDbEntity
  8
C-1
  6
Continuous
 62
     2
370
     9
100
AcDbLine
 10
-1024.464342610784
 20
-217.8564606650517
 30
0.0
 11
-1014.449413741485
 21
-217.8564606650517
 31
0.0
  0
LINE
  5
1CB
330
1F
100
AcDbEntity
  8
C-1
  6
Continuous
 62
     2
370
     9
100
AcDbLine
 10
-1029.471732813487
 20
-226.5297213280584
 30
0.0
 11
-1024.464342610784
 21
-217.8564606650517
 31
0.0
  0
LINE
  5
1CC
330
1F
100
AcDbEntity
  8
C-0
  6
JWW_CENTER2
 62
     7
370
     9
100
AcDbLine
 10
-1019.456869156823
 20
468.2220815017126
 30
0.0
 11
-1019.456869156823
 21
-418.4323933482233
 31
0.0
  0
LINE
  5
1CD
330
1F
100
AcDbEntity
  8
C-0
  6
JWW_CENTER2
 62
     7
370
     9
100
AcDbLine
 10
-329.9568873024103
 20
468.2220815017126
 30
0.0
 11
-329.9568873024103
 21
-418.4323933482233
 31
0.0
  0
TEXT
  5
1CE
330
1F
100
AcDbEntity
  8
C-5
  6
Continuous
 62
     2
370
     9
100
AcDbText
 10
-157.1885829093858
 20
-385.891527942071
 30
0.0
 40
30.47999999999989
  1
▽G.L.
 41
1.104166666666671
  7
ＭＳ ゴシック
100
AcDbText
  0
LINE
  5
1CF
330
1F
100
AcDbEntity
  8
C-2
  6
Continuous
 62
     3
370
     9
100
AcDbLine
 10
-989.2068683320241
 20
-178.1511285018337
 30
0.0
 11
-989.2068683320241
 21
276.4732428192806
 31
0.0
  0
LINE
  5
1D0
330
1F
100
AcDbEntity
  8
C-2
  6
Continuous
 62
     3
370
     9
100
AcDbLine
 10
-360.2068881272096
 20
-178.1511285018337
 30
0.0
 11
-360.2068881272096
 21
276.4732428192806
 31
0.0
  0
LINE
  5
1D1
330
1F
100
AcDbEntity
  8
C-4
  6
Continuous
 62
     7
370
     9
100
AcDbLine
 10
-1459.327692446883
 20
-396.5280702630159
 30
0.0
 11
-1459.327692446883
 21
673.4719297369841
 31
0.0
  0
TEXT
  5
1D2
330
1F
100
AcDbEntity
  8
C-4
  6
Continuous
 62
     2
370
   211
100
AcDbText
 10
-1474.967692446883
 20
94.72192973698412
 30
0.0
 40
30.48
  1
1070
 50
90.0
 41
1.09375
  7
ＭＳ ゴシック
100
AcDbText
  0
LINE
  5
1D3
330
1F
100
AcDbEntity
  8
C-4
  6
Continuous
 62
     7
370
     9
100
AcDbLine
 10
-1335.685061808741
 20
-176.5297543200347
 30
0.0
 11
-1335.68506180874
 21
673.4719297369841
 31
0.0
  0
TEXT
  5
1D4
330
1F
100
AcDbEntity
  8
C-4
  6
Continuous
 62
     2
370
   211
100
AcDbText
 10
-1351.325061808741
 20
215.9710877084747
 30
0.0
 40
30.48
  1
850
 50
90.0
 41
1.083333333333333
  7
ＭＳ ゴシック
100
AcDbText
  0
LINE
  5
1D5
330
1F
100
AcDbEntity
  8
C-2
  6
JWW_DASHED1
 62
     3
370
     9
100
AcDbLine
 10
-1049.706814307663
 20
-376.5298450479697
 30
0.0
 11
-1049.706814307663
 21
-178.1511285018337
 31
0.0
  0
LINE
  5
1D6
330
1F
100
AcDbEntity
  8
C-2
  6
JWW_DASHED1
 62
     3
370
     9
100
AcDbLine
 10
-360.2068324532499
 20
-376.5298450479697
 30
0.0
 11
-360.2068324532499
 21
-178.1511285018337
 31
0.0
  0
LINE
  5
1D7
330
1F
100
AcDbEntity
  8
C-0
  6
JWW_DASHED1
 62
     2
370
     9
100
AcDbLine
 10
-359.9629805080427
 20
-376.5296965840761
 30
0.0
 11
-299.9507569808046
 21
-376.5296965840761
 31
0.0
  0
LINE
  5
1D8
330
1F
100
AcDbEntity
  8
C-2
  6
JWW_DASHED1
 62
     3
370
     9
100
AcDbLine
 10
-1049.828703164294
 20
-376.5298450479697
 30
0.0
 11
-989.3288499785876
 21
-376.5296223521293
 31
0.0
  0
LINE
  5
1D9
330
1F
100
AcDbEntity
  8
C-2
  6
JWW_DASHED1
 62
     3
370
     9
100
AcDbLine
 10
-360.3287213098801
 20
-376.5298450479697
 30
0.0
 11
-299.8288681241743
 21
-376.5296223521293
 31
0.0
  0
LINE
  5
1DA
330
1F
100
AcDbEntity
  8
C-0
  6
Continuous
 62
     2
370
     9
100
AcDbLine
 10
857.2445887068615
 20
-176.5277650909259
 30
0.0
 11
928.7447998555099
 21
-176.5277650909259
 31
0.0
  0
LINE
  5
1DB
330
1F
100
AcDbEntity
  8
C-1
  6
Continuous
 62
     3
370
     9
100
AcDbLine
 10
923.2447074779765
 20
-37.04357929799642
 30
0.0
 11
923.2447074779765
 21
-176.5277650909259
 31
0.0
  0
LINE
  5
1DC
330
1F
100
AcDbEntity
  8
C-1
  6
JWW_DASHED1
 62
     3
370
     9
100
AcDbLine
 10
923.244509526118
 20
-232.5276034302416
 30
0.0
 11
923.244509526118
 21
-376.5278558188608
 31
0.0
  0
LINE
  5
1DD
330
1F
100
AcDbEntity
  8
C-1
  6
JWW_DASHED1
 62
     3
370
     9
100
AcDbLine
 10
920.444480493179
 20
-376.5277073549673
 30
0.0
 11
920.444480493179
 21
-232.5276034302416
 31
0.0
  0
LINE
  5
1DE
330
1F
100
AcDbEntity
  8
C-1
  6
JWW_DASHED1
 62
     3
370
     9
100
AcDbLine
 10
862.7445821084661
 20
-232.5276034302416
 30
0.0
 11
862.7445821084661
 21
-376.5281527466479
 31
0.0
  0
LINE
  5
1DF
330
1F
100
AcDbEntity
  8
C-1
  6
JWW_DASHED1
 62
     3
370
     9
100
AcDbLine
 10
865.5446111414052
 20
-376.5279300508075
 30
0.0
 11
865.5446111414052
 21
-232.5276034302416
 31
0.0
  0
LINE
  5
1E0
330
1F
100
AcDbEntity
  8
C-1
  6
JWW_DASHED1
 62
     3
370
     9
100
AcDbLine
 10
923.2447074779765
 20
-220.52756383987
 30
0.0
 11
923.2447074779765
 21
-176.5277650909259
 31
0.0
  0
LINE
  5
1E1
330
1F
100
AcDbEntity
  8
C-1
  6
JWW_DASHED1
 62
     3
370
     9
100
AcDbLine
 10
920.444480493179
 20
-220.52756383987
 30
0.0
 11
920.444480493179
 21
-176.5277650909259
 31
0.0
  0
LINE
  5
1E2
330
1F
100
AcDbEntity
  8
C-1
  6
JWW_DASHED1
 62
     3
370
     9
100
AcDbLine
 10
865.5446111414052
 20
-220.52756383987
 30
0.0
 11
865.5446111414052
 21
-176.5277650909259
 31
0.0
  0
LINE
  5
1E3
330
1F
100
AcDbEntity
  8
C-1
  6
JWW_DASHED1
 62
     3
370
     9
100
AcDbLine
 10
862.7446810843952
 20
-220.52756383987
 30
0.0
 11
862.7446810843952
 21
-176.5277650909259
 31
0.0
  0
LINE
  5
1E4
330
1F
100
AcDbEntity
  8
C-1
  6
JWW_DASHED1
 62
     4
370
     9
100
AcDbLine
 10
865.5446606293697
 20
-219.5276595166015
 30
0.0
 11
862.7446315964306
 21
-219.5276595166015
 31
0.0
  0
ARC
  5
1E5
330
1F
100
AcDbEntity
  8
C-0
  6
JWW_DASHED1
 62
     2
370
     9
100
AcDbCircle
 10
861.2447998555099
 20
-234.027682610985
 30
0.0
 40
0.5000000064437454
100
AcDbArc
 50
0.0
 51
90.0
  0
ARC
  5
1E6
330
1F
100
AcDbEntity
  8
C-0
  6
JWW_DASHED1
 62
     2
370
     9
100
AcDbCircle
 10
861.2447998555099
 20
-219.0276331230204
 30
0.0
 40
0.5000000064437454
100
AcDbArc
 50
270.0
 51
0.0
  0
ARC
  5
1E7
330
1F
100
AcDbEntity
  8
C-0
  6
JWW_DASHED1
 62
     2
370
     9
100
AcDbCircle
 10
869.9946678876046
 20
-377.4999973940298
 30
0.0
 40
0.5000000064437454
100
AcDbArc
 50
0.0
 51
86.72996520996094
  0
ARC
  5
1E8
330
1F
100
AcDbEntity
  8
C-0
  6
JWW_DASHED1
 62
     2
370
     9
100
AcDbCircle
 10
862.2445557148849
 20
-376.0555921733794
 30
0.0
 40
0.5000000064437454
100
AcDbArc
 50
180.0
 51
266.7299652099609
  0
ARC
  5
1E9
330
1F
100
AcDbEntity
  8
C-0
  6
JWW_DASHED1
 62
     2
370
     9
100
AcDbCircle
 10
924.7445887068615
 20
-234.027682610985
 30
0.0
 40
0.5000000064437454
100
AcDbArc
 50
90.0
 51
180.0
  0
ARC
  5
1EA
330
1F
100
AcDbEntity
  8
C-0
  6
JWW_DASHED1
 62
     2
370
     9
100
AcDbCircle
 10
924.7445887068615
 20
-219.0276331230204
 30
0.0
 40
0.5000000064437454
100
AcDbArc
 50
180.0
 51
270.0
  0
ARC
  5
1EB
330
1F
100
AcDbEntity
  8
C-0
  6
JWW_DASHED1
 62
     2
370
     9
100
AcDbCircle
 10
915.9944237469796
 20
-377.4999973940298
 30
0.0
 40
0.5000000064437454
100
AcDbArc
 50
93.27003479003906
 51
180.0
  0
ARC
  5
1EC
330
1F
100
AcDbEntity
  8
C-0
  6
JWW_DASHED1
 62
     2
370
     9
100
AcDbCircle
 10
923.7445359196993
 20
-376.0555921733794
 30
0.0
 40
0.5000000064437454
100
AcDbArc
 50
273.2700347900391
 51
0.0000000000000127
  0
LINE
  5
1ED
330
1F
100
AcDbEntity
  8
C-1
  6
JWW_DASHED1
 62
     4
370
     9
100
AcDbLine
 10
862.744285180679
 20
-233.5276562174039
 30
0.0
 11
865.5446111414052
 21
-233.5276562174039
 31
0.0
  0
LINE
  5
1EE
330
1F
100
AcDbEntity
  8
C-0
  6
JWW_DASHED1
 62
     2
370
     9
100
AcDbLine
 10
870.4946942811858
 20
-377.0278822124419
 30
0.0
 11
915.4946942811858
 21
-377.0278822124419
 31
0.0
  0
LINE
  5
1EF
330
1F
100
AcDbEntity
  8
C-0
  6
JWW_DASHED1
 62
     2
370
     9
100
AcDbLine
 10
862.9883598217261
 20
-376.5278558188608
 30
0.0
 11
923.0004348850708
 21
-376.5278558188608
 31
0.0
  0
LINE
  5
1F0
330
1F
100
AcDbEntity
  8
C-0
  6
JWW_DASHED1
 62
     2
370
     9
100
AcDbLine
 10
861.744529321304
 20
-232.5276034302416
 30
0.0
 11
861.744529321304
 21
-376.0555921733794
 31
0.0
  0
LINE
  5
1F1
330
1F
100
AcDbEntity
  8
C-0
  6
JWW_DASHED1
 62
     2
370
     9
100
AcDbLine
 10
861.744529321304
 20
-176.5277650909259
 30
0.0
 11
861.744529321304
 21
-220.52756383987
 31
0.0
  0
LINE
  5
1F2
330
1F
100
AcDbEntity
  8
C-0
  6
JWW_DASHED1
 62
     2
370
     9
100
AcDbLine
 10
861.2447998555099
 20
-233.5276562174039
 30
0.0
 11
855.744509526118
 21
-233.5276562174039
 31
0.0
  0
LINE
  5
1F3
330
1F
100
AcDbEntity
  8
C-0
  6
JWW_DASHED1
 62
     2
370
     9
100
AcDbLine
 10
861.2447998555099
 20
-219.527807980495
 30
0.0
 11
855.744509526118
 21
-219.527807980495
 31
0.0
  0
LINE
  5
1F4
330
1F
100
AcDbEntity
  8
C-0
  6
JWW_DASHED1
 62
     2
370
     9
100
AcDbLine
 10
870.4946942811858
 20
-377.4999973940298
 30
0.0
 11
870.4946942811858
 21
-387.5277683901236
 31
0.0
  0
LINE
  5
1F5
330
1F
100
AcDbEntity
  8
C-0
  6
JWW_DASHED1
 62
     2
370
     9
100
AcDbLine
 10
870.023172955172
 20
-377.0008617838101
 30
0.0
 11
862.2160506473174
 21
-376.5547277835989
 31
0.0
  0
LINE
  5
1F6
330
1F
100
AcDbEntity
  8
C-0
  6
JWW_DASHED1
 62
     2
370
     9
100
AcDbLine
 10
924.2445623132802
 20
-232.5276034302416
 30
0.0
 11
924.2445623132802
 21
-376.0555921733794
 31
0.0
  0
LINE
  5
1F7
330
1F
100
AcDbEntity
  8
C-0
  6
JWW_DASHED1
 62
     2
370
     9
100
AcDbLine
 10
924.2445623132802
 20
-176.5277650909259
 30
0.0
 11
924.2445623132802
 21
-220.52756383987
 31
0.0
  0
LINE
  5
1F8
330
1F
100
AcDbEntity
  8
C-0
  6
JWW_DASHED1
 62
     2
370
     9
100
AcDbLine
 10
924.7445887068615
 20
-233.5276562174039
 30
0.0
 11
930.244285180679
 21
-233.5276562174039
 31
0.0
  0
LINE
  5
1F9
330
1F
100
AcDbEntity
  8
C-0
  6
JWW_DASHED1
 62
     2
370
     9
100
AcDbLine
 10
924.7445887068615
 20
-219.527807980495
 30
0.0
 11
930.244285180679
 21
-219.527807980495
 31
0.0
  0
LINE
  5
1FA
330
1F
100
AcDbEntity
  8
C-0
  6
JWW_DASHED1
 62
     2
370
     9
100
AcDbLine
 10
915.4946942811858
 20
-377.4999973940298
 30
0.0
 11
915.4946942811858
 21
-387.5277683901236
 31
0.0
  0
LINE
  5
1FB
330
1F
100
AcDbEntity
  8
C-0
  6
JWW_DASHED1
 62
     2
370
     9
100
AcDbLine
 10
915.9659186794122
 20
-377.0008617838101
 30
0.0
 11
923.7730409872668
 21
-376.5547277835989
 31
0.0
  0
LINE
  5
1FC
330
1F
100
AcDbEntity
  8
C-D
  6
JWW_DASHED1
 62
     2
370
     9
100
AcDbLine
 10
930.244285180679
 20
-231.5807007169815
 30
0.0
 11
855.744509526118
 21
-231.5807007169815
 31
0.0
  0
LINE
  5
1FD
330
1F
100
AcDbEntity
  8
C-0
  6
JWW_DASHED1
 62
     3
370
     9
100
AcDbLine
 10
862.7445821084661
 20
-376.5279300508075
 30
0.0
 11
923.244509526118
 21
-376.5277073549673
 31
0.0
  0
LINE
  5
1FE
330
1F
100
AcDbEntity
  8
C-1
  6
JWW_DASHED1
 62
     4
370
     9
100
AcDbLine
 10
923.244509526118
 20
-219.5276595166015
 30
0.0
 11
920.444480493179
 21
-219.5276595166015
 31
0.0
  0
LINE
  5
1FF
330
1F
100
AcDbEntity
  8
C-1
  6
JWW_DASHED1
 62
     4
370
     9
100
AcDbLine
 10
923.244509526118
 20
-233.5276562174039
 30
0.0
 11
920.444480493179
 21
-233.5276562174039
 31
0.0
  0
LINE
  5
200
330
1F
100
AcDbEntity
  8
C-D
  6
JWW_DASHED1
 62
     2
370
     9
100
AcDbLine
 10
930.244285180679
 20
-221.4746150170237
 30
0.0
 11
855.744509526118
 21
-221.4746150170237
 31
0.0
  0
LINE
  5
201
330
1F
100
AcDbEntity
  8
C-0
  6
JWW_DASHED1
 62
     2
370
     9
100
AcDbLine
 10
739.9943379678411
 20
-345.5277040557696
 30
0.0
 11
739.9943379678411
 21
-396.5277238509552
 31
0.0
  0
LINE
  5
202
330
1F
100
AcDbEntity
  8
C-0
  6
JWW_DASHED1
 62
     2
370
     9
100
AcDbLine
 10
725.9944897309324
 20
-345.5277040557696
 30
0.0
 11
725.9944897309324
 21
-396.5277238509552
 31
0.0
  0
LINE
  5
203
330
1F
100
AcDbEntity
  8
C-0
  6
JWW_DASHED1
 62
     2
370
     9
100
AcDbLine
 10
1045.994456738956
 20
-345.5277040557696
 30
0.0
 11
1045.994456738956
 21
-396.5276496190086
 31
0.0
  0
LINE
  5
204
330
1F
100
AcDbEntity
  8
C-0
  6
JWW_DASHED1
 62
     2
370
     9
100
AcDbLine
 10
1059.994601903652
 20
-345.5277040557696
 30
0.0
 11
1059.994601903652
 21
-396.5276496190086
 31
0.0
  0
LINE
  5
205
330
1F
100
AcDbEntity
  8
C-D
  6
Continuous
 62
     2
370
     9
100
AcDbLine
 10
936.9875152271318
 20
-220.52756383987
 30
0.0
 11
930.244285180679
 21
-220.52756383987
 31
0.0
  0
LINE
  5
206
330
1F
100
AcDbEntity
  8
C-D
  6
JWW_DASHED1
 62
     2
370
     9
100
AcDbLine
 10
930.244285180679
 20
-232.5276034302416
 30
0.0
 11
855.744509526118
 21
-232.5276034302416
 31
0.0
  0
LINE
  5
207
330
1F
100
AcDbEntity
  8
C-D
  6
Continuous
 62
     2
370
     9
100
AcDbLine
 10
936.9875152271318
 20
-232.5276034302416
 30
0.0
 11
930.244285180679
 21
-232.5276034302416
 31
0.0
  0
LINE
  5
208
330
1F
100
AcDbEntity
  8
C-D
  6
JWW_DASHED1
 62
     2
370
     9
100
AcDbLine
 10
930.244285180679
 20
-220.52756383987
 30
0.0
 11
855.744509526118
 21
-220.52756383987
 31
0.0
  0
ENDSEC
  0
SECTION
  2
OBJECTS
  0
DICTIONARY
  5
C
330
0
100
AcDbDictionary
281
     1
  3
ACAD_DETAILVIEWSTYLE
350
24E
  3
ACAD_GROUP
350
D
  3
ACAD_LAYOUT
350
1A
  3
ACAD_MATERIAL
350
43
  3
ACAD_MLEADERSTYLE
350
6B
  3
ACAD_MLINESTYLE
350
17
  3
ACAD_PLOTSETTINGS
350
19
  3
ACAD_PLOTSTYLENAME
350
E
  3
ACAD_SCALELIST
350
47
  3
ACAD_SECTIONVIEWSTYLE
350
24F
  3
ACAD_TABLESTYLE
350
69
  3
ACAD_VISUALSTYLE
350
2A
  3
ACDB_RECOMPOSE_DATA
350
24B
  3
AcDbVariableDictionary
350
20B
  0
DICTIONARY
  5
209
330
8
100
AcDbDictionary
280
     1
281
     1
  3
ACAD_XREC_ROUNDTRIP
360
20A
  0
DICTIONARY
  5
24E
102
{ACAD_REACTORS
330
C
102
}
330
C
100
AcDbDictionary
281
     1
  0
DICTIONARY
  5
D
102
{ACAD_REACTORS
330
C
102
}
330
C
100
AcDbDictionary
281
     1
  0
DICTIONARY
  5
1A
102
{ACAD_REACTORS
330
C
102
}
330
C
100
AcDbDictionary
281
     1
  3
Layout1
350
1E
  3
Layout2
350
26
  3
Model
350
22
  0
DICTIONARY
  5
43
102
{ACAD_REACTORS
330
C
102
}
330
C
100
AcDbDictionary
281
     1
  3
ByBlock
350
45
  3
ByLayer
350
44
  3
Global
350
46
  0
DICTIONARY
  5
6B
102
{ACAD_REACTORS
330
C
102
}
330
C
100
AcDbDictionary
281
     1
  3
Standard
350
6C
  0
DICTIONARY
  5
17
102
{ACAD_REACTORS
330
C
102
}
330
C
100
AcDbDictionary
281
     1
  3
Standard
350
18
  0
DICTIONARY
  5
19
102
{ACAD_REACTORS
330
C
102
}
330
C
100
AcDbDictionary
281
     1
  0
ACDBDICTIONARYWDFLT
  5
E
102
{ACAD_REACTORS
330
C
102
}
330
C
100
AcDbDictionary
281
     1
  3
Normal
350
F
100
AcDbDictionaryWithDefault
340
F
  0
DICTIONARY
  5
47
102
{ACAD_REACTORS
330
C
102
}
330
C
100
AcDbDictionary
281
     1
  3
A0
350
48
  3
A1
350
49
  3
A2
350
4A
  3
A3
350
4B
  3
A4
350
4C
  3
A5
350
4D
  3
A6
350
4E
  3
A7
350
4F
  3
A8
350
50
  3
A9
350
51
  3
B0
350
52
  3
B1
350
53
  3
B2
350
54
  3
B3
350
55
  3
B4
350
56
  3
B5
350
57
  3
B6
350
58
  3
B7
350
59
  3
B8
350
5A
  3
B9
350
5B
  3
C0
350
5C
  3
C1
350
5D
  3
C2
350
5E
  3
C3
350
5F
  3
C4
350
60
  3
C5
350
61
  3
C6
350
62
  3
C7
350
63
  3
C8
350
64
  3
C9
350
65
  3
D0
350
66
  3
D1
350
67
  3
D2
350
68
  0
DICTIONARY
  5
24F
102
{ACAD_REACTORS
330
C
102
}
330
C
100
AcDbDictionary
281
     1
  0
DICTIONARY
  5
69
102
{ACAD_REACTORS
330
C
102
}
330
C
100
AcDbDictionary
281
     1
  3
Standard
350
6A
  0
DICTIONARY
  5
2A
102
{ACAD_REACTORS
330
C
102
}
330
C
100
AcDbDictionary
281
     1
  3
2dWireframe
350
2F
  3
Basic
350
32
  3
Brighten
350
36
  3
ColorChange
350
3A
  3
Conceptual
350
34
  3
Dim
350
35
  3
EdgeColorOff
350
3D
  3
Facepattern
350
39
  3
Flat
350
2B
  3
FlatWithEdges
350
2C
  3
Gouraud
350
2D
  3
GouraudWithEdges
350
2E
  3
Hidden
350
31
  3
JitterOff
350
3B
  3
Linepattern
350
38
  3
OverhangOff
350
3C
  3
Realistic
350
33
  3
Shaded
350
42
  3
Shaded with edges
350
41
  3
Shades of Gray
350
3E
  3
Sketchy
350
3F
  3
Thicken
350
37
  3
Wireframe
350
30
  3
X-Ray
350
40
  0
XRECORD
  5
24B
102
{ACAD_REACTORS
330
C
102
}
330
C
100
AcDbXrecord
280
     1
 90
        1
330
6A
  0
DICTIONARY
  5
20B
102
{ACAD_REACTORS
330
C
102
}
330
C
100
AcDbDictionary
281
     1
  3
CANNOSCALE
350
20C
  3
CENTEREXE
350
250
  3
CENTERLTYPEFILE
350
251
  3
CMLEADERSTYLE
350
24D
  3
CTABLESTYLE
350
24C
  3
MSLTSCALE
350
20D
  3
XCLIPFRAME
350
20E
  0
XRECORD
  5
20A
102
{ACAD_REACTORS
330
209
102
}
330
209
100
AcDbXrecord
280
     1
102
VTR_0.000_0.000_1.000_1.000_VISUALSTYLE
340
2F
102
VTR_0.000_0.000_1.000_1.000_GRIDDISPLAY
 70
     3
102
VTR_0.000_0.000_1.000_1.000_GRIDMAJOR
 70
     5
102
VTR_0.000_0.000_1.000_1.000_DEFAULTLIGHTING
280
     1
102
VTR_0.000_0.000_1.000_1.000_DEFAULTLIGHTINGTYPE
 70
     1
102
VTR_0.000_0.000_1.000_1.000_BRIGHTNESS
141
0.0
102
VTR_0.000_0.000_1.000_1.000_CONTRAST
142
0.0
  0
LAYOUT
  5
1E
102
{ACAD_REACTORS
330
1A
102
}
330
1A
100
AcDbPlotSettings
  1

  2
none_device
  4

  6

 40
0.0
 41
0.0
 42
0.0
 43
0.0
 44
0.0
 45
0.0
 46
0.0
 47
0.0
 48
0.0
 49
0.0
140
0.0
141
0.0
142
1.0
143
1.0
 70
   688
 72
     1
 73
     0
 74
     5
  7

 75
    16
 76
     0
 77
     5
 78
   300
147
1.0
148
0.0
149
0.0
100
AcDbLayout
  1
Layout1
 70
     1
 71
     1
 10
0.0
 20
0.0
 11
420.0
 21
297.0
 12
0.0
 22
0.0
 32
0.0
 14
1.000000000000000E+20
 24
1.000000000000000E+20
 34
1.000000000000000E+20
 15
-1.000000000000000E+20
 25
-1.000000000000000E+20
 35
-1.000000000000000E+20
146
0.0
 13
0.0
 23
0.0
 33
0.0
 16
1.0
 26
0.0
 36
0.0
 17
0.0
 27
1.0
 37
0.0
 76
     0
330
1B
  0
LAYOUT
  5
26
102
{ACAD_REACTORS
330
1A
102
}
330
1A
100
AcDbPlotSettings
  1

  2
none_device
  4

  6

 40
0.0
 41
0.0
 42
0.0
 43
0.0
 44
0.0
 45
0.0
 46
0.0
 47
0.0
 48
0.0
 49
0.0
140
0.0
141
0.0
142
1.0
143
1.0
 70
   688
 72
     1
 73
     0
 74
     5
  7

 75
    16
 76
     0
 77
     5
 78
   300
147
1.0
148
0.0
149
0.0
100
AcDbLayout
  1
Layout2
 70
     1
 71
     2
 10
0.0
 20
0.0
 11
0.0
 21
0.0
 12
0.0
 22
0.0
 32
0.0
 14
0.0
 24
0.0
 34
0.0
 15
0.0
 25
0.0
 35
0.0
146
0.0
 13
0.0
 23
0.0
 33
0.0
 16
1.0
 26
0.0
 36
0.0
 17
0.0
 27
1.0
 37
0.0
 76
     0
330
23
  0
LAYOUT
  5
22
102
{ACAD_REACTORS
330
1A
102
}
330
1A
100
AcDbPlotSettings
  1

  2
none_device
  4
Letter_(8.50_x_11.00_Inches)
  6

 40
6.35
 41
6.35
 42
6.35000508
 43
6.35000508
 44
215.9
 45
279.4
 46
0.0
 47
0.0
 48
0.0
 49
0.0
140
0.0
141
0.0
142
1.0
143
1.0
 70
  1712
 72
     1
 73
     0
 74
     0
  7

 75
     0
 76
     0
 77
     5
 78
   300
147
1.0
148
0.0
149
0.0
100
AcDbLayout
  1
Model
 70
     1
 71
     0
 10
-2100.0
 20
-1485.0
 11
2100.0
 21
1485.0
 12
0.0
 22
0.0
 32
0.0
 14
-2100.0
 24
-1485.0
 34
0.0
 15
2100.0
 25
1485.0
 35
0.0
146
0.0
 13
0.0
 23
0.0
 33
0.0
 16
1.0
 26
0.0
 36
0.0
 17
0.0
 27
1.0
 37
0.0
 76
     0
330
1F
331
29
  0
MATERIAL
  5
45
102
{ACAD_REACTORS
330
43
102
}
102
{ACAD_XDICTIONARY
360
241
102
}
330
43
100
AcDbMaterial
  1
ByBlock
  0
MATERIAL
  5
44
102
{ACAD_REACTORS
330
43
102
}
102
{ACAD_XDICTIONARY
360
23F
102
}
330
43
100
AcDbMaterial
  1
ByLayer
  0
MATERIAL
  5
46
102
{ACAD_REACTORS
330
43
102
}
102
{ACAD_XDICTIONARY
360
243
102
}
330
43
100
AcDbMaterial
  1
Global
  0
MLEADERSTYLE
  5
6C
102
{ACAD_REACTORS
330
6B
102
}
102
{ACAD_XDICTIONARY
360
249
102
}
330
6B
100
AcDbMLeaderStyle
170
     2
171
     1
172
     0
 90
        2
 40
0.0
 41
0.0
173
     1
 91
-1056964608
340
14
 92
       -2
290
     1
 42
2.0
291
     1
 43
8.0
  3
Standard
341
0
 44
4.0
300

342
11
174
     1
178
     6
175
     1
176
     0
 93
-1056964608
 45
4.0
292
     0
297
     0
 46
4.0
343
0
 94
-1056964608
 47
1.0
 49
1.0
140
1.0
293
     1
141
0.0
294
     1
177
     0
142
1.0
295
     0
296
     0
143
3.75
1001
ACAD_MLEADERVER
1070
     2
  0
MLINESTYLE
  5
18
102
{ACAD_REACTORS
330
17
102
}
330
17
100
AcDbMlineStyle
  2
Standard
 70
     0
  3

 62
   256
 51
90.0
 52
90.0
 71
     2
 49
0.5
 62
   256
  6
BYLAYER
 49
-0.5
 62
   256
  6
BYLAYER
  0
ACDBPLACEHOLDER
  5
F
102
{ACAD_REACTORS
330
E
102
}
330
E
  0
SCALE
  5
48
102
{ACAD_REACTORS
330
47
102
}
330
47
100
AcDbScale
 70
     0
300
1:1
140
1.0
141
1.0
290
     1
  0
SCALE
  5
49
102
{ACAD_REACTORS
330
47
102
}
330
47
100
AcDbScale
 70
     0
300
1:2
140
1.0
141
2.0
290
     0
  0
SCALE
  5
4A
102
{ACAD_REACTORS
330
47
102
}
330
47
100
AcDbScale
 70
     0
300
1:4
140
1.0
141
4.0
290
     0
  0
SCALE
  5
4B
102
{ACAD_REACTORS
330
47
102
}
330
47
100
AcDbScale
 70
     0
300
1:5
140
1.0
141
5.0
290
     0
  0
SCALE
  5
4C
102
{ACAD_REACTORS
330
47
102
}
330
47
100
AcDbScale
 70
     0
300
1:8
140
1.0
141
8.0
290
     0
  0
SCALE
  5
4D
102
{ACAD_REACTORS
330
47
102
}
330
47
100
AcDbScale
 70
     0
300
1:10
140
1.0
141
10.0
290
     0
  0
SCALE
  5
4E
102
{ACAD_REACTORS
330
47
102
}
330
47
100
AcDbScale
 70
     0
300
1:16
140
1.0
141
16.0
290
     0
  0
SCALE
  5
4F
102
{ACAD_REACTORS
330
47
102
}
330
47
100
AcDbScale
 70
     0
300
1:20
140
1.0
141
20.0
290
     0
  0
SCALE
  5
50
102
{ACAD_REACTORS
330
47
102
}
330
47
100
AcDbScale
 70
     0
300
1:30
140
1.0
141
30.0
290
     0
  0
SCALE
  5
51
102
{ACAD_REACTORS
330
47
102
}
330
47
100
AcDbScale
 70
     0
300
1:40
140
1.0
141
40.0
290
     0
  0
SCALE
  5
52
102
{ACAD_REACTORS
330
47
102
}
330
47
100
AcDbScale
 70
     0
300
1:50
140
1.0
141
50.0
290
     0
  0
SCALE
  5
53
102
{ACAD_REACTORS
330
47
102
}
330
47
100
AcDbScale
 70
     0
300
1:100
140
1.0
141
100.0
290
     0
  0
SCALE
  5
54
102
{ACAD_REACTORS
330
47
102
}
330
47
100
AcDbScale
 70
     0
300
2:1
140
2.0
141
1.0
290
     0
  0
SCALE
  5
55
102
{ACAD_REACTORS
330
47
102
}
330
47
100
AcDbScale
 70
     0
300
4:1
140
4.0
141
1.0
290
     0
  0
SCALE
  5
56
102
{ACAD_REACTORS
330
47
102
}
330
47
100
AcDbScale
 70
     0
300
8:1
140
8.0
141
1.0
290
     0
  0
SCALE
  5
57
102
{ACAD_REACTORS
330
47
102
}
330
47
100
AcDbScale
 70
     0
300
10:1
140
10.0
141
1.0
290
     0
  0
SCALE
  5
58
102
{ACAD_REACTORS
330
47
102
}
330
47
100
AcDbScale
 70
     0
300
100:1
140
100.0
141
1.0
290
     0
  0
SCALE
  5
59
102
{ACAD_REACTORS
330
47
102
}
330
47
100
AcDbScale
 70
     0
300
1/128" = 1'-0"
140
0.0078125
141
12.0
290
     0
  0
SCALE
  5
5A
102
{ACAD_REACTORS
330
47
102
}
330
47
100
AcDbScale
 70
     0
300
1/64" = 1'-0"
140
0.015625
141
12.0
290
     0
  0
SCALE
  5
5B
102
{ACAD_REACTORS
330
47
102
}
330
47
100
AcDbScale
 70
     0
300
1/32" = 1'-0"
140
0.03125
141
12.0
290
     0
  0
SCALE
  5
5C
102
{ACAD_REACTORS
330
47
102
}
330
47
100
AcDbScale
 70
     0
300
1/16" = 1'-0"
140
0.0625
141
12.0
290
     0
  0
SCALE
  5
5D
102
{ACAD_REACTORS
330
47
102
}
330
47
100
AcDbScale
 70
     0
300
3/32" = 1'-0"
140
0.09375
141
12.0
290
     0
  0
SCALE
  5
5E
102
{ACAD_REACTORS
330
47
102
}
330
47
100
AcDbScale
 70
     0
300
1/8" = 1'-0"
140
0.125
141
12.0
290
     0
  0
SCALE
  5
5F
102
{ACAD_REACTORS
330
47
102
}
330
47
100
AcDbScale
 70
     0
300
3/16" = 1'-0"
140
0.1875
141
12.0
290
     0
  0
SCALE
  5
60
102
{ACAD_REACTORS
330
47
102
}
330
47
100
AcDbScale
 70
     0
300
1/4" = 1'-0"
140
0.25
141
12.0
290
     0
  0
SCALE
  5
61
102
{ACAD_REACTORS
330
47
102
}
330
47
100
AcDbScale
 70
     0
300
3/8" = 1'-0"
140
0.375
141
12.0
290
     0
  0
SCALE
  5
62
102
{ACAD_REACTORS
330
47
102
}
330
47
100
AcDbScale
 70
     0
300
1/2" = 1'-0"
140
0.5
141
12.0
290
     0
  0
SCALE
  5
63
102
{ACAD_REACTORS
330
47
102
}
330
47
100
AcDbScale
 70
     0
300
3/4" = 1'-0"
140
0.75
141
12.0
290
     0
  0
SCALE
  5
64
102
{ACAD_REACTORS
330
47
102
}
330
47
100
AcDbScale
 70
     0
300
1" = 1'-0"
140
1.0
141
12.0
290
     0
  0
SCALE
  5
65
102
{ACAD_REACTORS
330
47
102
}
330
47
100
AcDbScale
 70
     0
300
1-1/2" = 1'-0"
140
1.5
141
12.0
290
     0
  0
SCALE
  5
66
102
{ACAD_REACTORS
330
47
102
}
330
47
100
AcDbScale
 70
     0
300
3" = 1'-0"
140
3.0
141
12.0
290
     0
  0
SCALE
  5
67
102
{ACAD_REACTORS
330
47
102
}
330
47
100
AcDbScale
 70
     0
300
6" = 1'-0"
140
6.0
141
12.0
290
     0
  0
SCALE
  5
68
102
{ACAD_REACTORS
330
47
102
}
330
47
100
AcDbScale
 70
     0
300
1'-0" = 1'-0"
140
12.0
141
12.0
290
     0
  0
TABLESTYLE
  5
6A
102
{ACAD_REACTORS
330
69
102
}
102
{ACAD_XDICTIONARY
360
245
102
}
330
69
100
AcDbTableStyle
  3
Standard
 70
     0
 71
     0
 40
0.06
 41
0.06
280
     0
281
     0
  7
Standard
140
4.5
170
     2
 62
     0
 63
   257
283
     0
274
    -2
284
     1
 64
     0
275
    -2
285
     1
 65
     0
276
    -2
286
     1
 66
     0
277
    -2
287
     1
 67
     0
278
    -2
288
     1
 68
     0
279
    -2
289
     1
 69
     0
  7
Standard
140
6.0
170
     5
 62
     0
 63
   257
283
     0
274
    -2
284
     1
 64
     0
275
    -2
285
     1
 65
     0
276
    -2
286
     1
 66
     0
277
    -2
287
     1
 67
     0
278
    -2
288
     1
 68
     0
279
    -2
289
     1
 69
     0
  7
Standard
140
4.5
170
     5
 62
     0
 63
   257
283
     0
274
    -2
284
     1
 64
     0
275
    -2
285
     1
 65
     0
276
    -2
286
     1
 66
     0
277
    -2
287
     1
 67
     0
278
    -2
288
     1
 68
     0
279
    -2
289
     1
 69
     0
  0
VISUALSTYLE
  5
2F
102
{ACAD_REACTORS
330
2A
102
}
102
{ACAD_XDICTIONARY
360
217
102
}
330
2A
100
AcDbVisualStyle
  2
2dWireframe
 70
     4
 71
     0
 72
     2
 73
     0
 90
        0
 40
0.6
 41
30.0
 62
     5
 63
     7
421
 16777215
 74
     1
 91
        4
 64
     7
 65
   257
 75
     1
175
     1
 42
1.0
 92
        0
 66
   257
 43
1.0
 76
     1
 77
     6
 78
     2
 67
     7
 79
     5
170
     0
171
     0
290
     0
174
     0
 93
        1
 44
0.0
173
     0
291
     0
 45
0.0
1001
ACAD
1000
AcDbSavedByObjectVersion
1070
     0
  0
VISUALSTYLE
  5
32
102
{ACAD_REACTORS
330
2A
102
}
102
{ACAD_XDICTIONARY
360
21D
102
}
330
2A
100
AcDbVisualStyle
  2
Basic
 70
     7
 71
     1
 72
     0
 73
     1
 90
        0
 40
0.6
 41
30.0
 62
     5
 63
     7
421
 16777215
 74
     0
 91
        4
 64
     7
 65
   257
 75
     1
175
     1
 42
1.0
 92
        8
 66
     7
 43
1.0
 76
     1
 77
     6
 78
     2
 67
     7
 79
     5
170
     0
171
     0
290
     0
174
     0
 93
        1
 44
0.0
173
     0
291
     1
 45
0.0
1001
ACAD
1000
AcDbSavedByObjectVersion
1070
     0
  0
VISUALSTYLE
  5
36
102
{ACAD_REACTORS
330
2A
102
}
102
{ACAD_XDICTIONARY
360
225
102
}
330
2A
100
AcDbVisualStyle
  2
Brighten
 70
    12
 71
     2
 72
     2
 73
     0
 90
        0
 40
0.6
 41
30.0
 62
     5
 63
     7
421
 16777215
 74
     1
 91
        4
 64
     7
 65
   257
 75
     1
175
     1
 42
1.0
 92
        8
 66
     7
 43
1.0
 76
     1
 77
     6
 78
     2
 67
     7
 79
     5
170
     0
171
     0
290
     0
174
     0
 93
        1
 44
50.0
173
     0
291
     1
 45
0.0
1001
ACAD
1000
AcDbSavedByObjectVersion
1070
     0
  0
VISUALSTYLE
  5
3A
102
{ACAD_REACTORS
330
2A
102
}
102
{ACAD_XDICTIONARY
360
22D
102
}
330
2A
100
AcDbVisualStyle
  2
ColorChange
 70
    16
 71
     2
 72
     2
 73
     3
 90
        0
 40
0.6
 41
30.0
 62
     5
 63
     8
421
  8421504
 74
     1
 91
        4
 64
     7
 65
   257
 75
     1
175
     1
 42
1.0
 92
        8
 66
     8
424
  8421504
 43
1.0
 76
     1
 77
     6
 78
     2
 67
     7
 79
     5
170
     0
171
     0
290
     0
174
     0
 93
        1
 44
0.0
173
     0
291
     1
 45
0.0
1001
ACAD
1000
AcDbSavedByObjectVersion
1070
     0
  0
VISUALSTYLE
  5
34
102
{ACAD_REACTORS
330
2A
102
}
102
{ACAD_XDICTIONARY
360
221
102
}
330
2A
100
AcDbVisualStyle
  2
Conceptual
 70
     9
 71
     3
 72
     2
 73
     0
 90
        0
 40
0.6
 41
30.0
 62
     5
 63
     7
421
 16777215
 74
     2
 91
        2
 64
     7
 65
   257
 75
     1
175
     1
 42
179.0
 92
        8
 66
     7
 43
1.0
 76
     1
 77
     6
 78
     2
 67
     7
 79
     3
170
     0
171
     0
290
     0
174
     0
 93
        1
 44
0.0
173
     0
291
     0
 45
0.0
1001
ACAD
1000
AcDbSavedByObjectVersion
1070
     0
  0
VISUALSTYLE
  5
35
102
{ACAD_REACTORS
330
2A
102
}
102
{ACAD_XDICTIONARY
360
223
102
}
330
2A
100
AcDbVisualStyle
  2
Dim
 70
    11
 71
     2
 72
     2
 73
     0
 90
        0
 40
0.6
 41
30.0
 62
     5
 63
     7
421
 16777215
 74
     1
 91
        4
 64
     7
 65
   257
 75
     1
175
     1
 42
1.0
 92
        8
 66
     7
 43
1.0
 76
     1
 77
     6
 78
     2
 67
     7
 79
     5
170
     0
171
     0
290
     0
174
     0
 93
        1
 44
-50.0
173
     0
291
     1
 45
0.0
1001
ACAD
1000
AcDbSavedByObjectVersion
1070
     0
  0
VISUALSTYLE
  5
3D
102
{ACAD_REACTORS
330
2A
102
}
102
{ACAD_XDICTIONARY
360
233
102
}
330
2A
100
AcDbVisualStyle
  2
EdgeColorOff
 70
    22
 71
     2
 72
     2
 73
     0
 90
        0
 40
0.6
 41
30.0
 62
     5
 63
     7
421
 16777215
 74
     1
 91
        4
 64
     7
 65
   257
 75
     1
175
     1
 42
1.0
 92
        8
 66
     7
 43
1.0
 76
     1
 77
     6
 78
     2
 67
     7
 79
     5
170
     0
171
     0
290
     0
174
     0
 93
        1
 44
0.0
173
     0
291
     1
 45
0.0
1001
ACAD
1000
AcDbSavedByObjectVersion
1070
     0
  0
VISUALSTYLE
  5
39
102
{ACAD_REACTORS
330
2A
102
}
102
{ACAD_XDICTIONARY
360
22B
102
}
330
2A
100
AcDbVisualStyle
  2
Facepattern
 70
    15
 71
     2
 72
     2
 73
     0
 90
        0
 40
0.6
 41
30.0
 62
     5
 63
     7
421
 16777215
 74
     1
 91
        4
 64
     7
 65
   257
 75
     1
175
     1
 42
1.0
 92
        8
 66
     7
 43
1.0
 76
     1
 77
     6
 78
     2
 67
     7
 79
     5
170
     0
171
     0
290
     0
174
     0
 93
        1
 44
0.0
173
     0
291
     1
 45
0.0
1001
ACAD
1000
AcDbSavedByObjectVersion
1070
     0
  0
VISUALSTYLE
  5
2B
102
{ACAD_REACTORS
330
2A
102
}
102
{ACAD_XDICTIONARY
360
20F
102
}
330
2A
100
AcDbVisualStyle
  2
Flat
 70
     0
 71
     2
 72
     1
 73
     1
 90
        2
 40
0.6
 41
30.0
 62
     5
 63
     7
421
 16777215
 74
     0
 91
        0
 64
     7
 65
   257
 75
     1
175
     1
 42
1.0
 92
        8
 66
     7
 43
1.0
 76
     1
 77
     6
 78
     2
 67
     7
 79
     5
170
     0
171
     0
290
     0
174
     0
 93
       13
 44
0.0
173
     0
291
     1
 45
0.0
1001
ACAD
1000
AcDbSavedByObjectVersion
1070
     0
  0
VISUALSTYLE
  5
2C
102
{ACAD_REACTORS
330
2A
102
}
102
{ACAD_XDICTIONARY
360
211
102
}
330
2A
100
AcDbVisualStyle
  2
FlatWithEdges
 70
     1
 71
     2
 72
     1
 73
     1
 90
        2
 40
0.6
 41
30.0
 62
     5
 63
     7
421
 16777215
 74
     1
 91
        0
 64
     7
 65
   257
 75
     1
175
     1
 42
1.0
 92
        0
 66
   257
 43
1.0
 76
     1
 77
     6
 78
     2
 67
     7
 79
     5
170
     0
171
     0
290
     0
174
     0
 93
       13
 44
0.0
173
     0
291
     1
 45
0.0
1001
ACAD
1000
AcDbSavedByObjectVersion
1070
     0
  0
VISUALSTYLE
  5
2D
102
{ACAD_REACTORS
330
2A
102
}
102
{ACAD_XDICTIONARY
360
213
102
}
330
2A
100
AcDbVisualStyle
  2
Gouraud
 70
     2
 71
     2
 72
     2
 73
     1
 90
        2
 40
0.6
 41
30.0
 62
     5
 63
     7
421
 16777215
 74
     0
 91
        0
 64
     7
 65
   257
 75
     1
175
     1
 42
1.0
 92
        0
 66
     7
 43
1.0
 76
     1
 77
     6
 78
     2
 67
     7
 79
     5
170
     0
171
     0
290
     0
174
     0
 93
       13
 44
0.0
173
     0
291
     1
 45
0.0
1001
ACAD
1000
AcDbSavedByObjectVersion
1070
     0
  0
VISUALSTYLE
  5
2E
102
{ACAD_REACTORS
330
2A
102
}
102
{ACAD_XDICTIONARY
360
215
102
}
330
2A
100
AcDbVisualStyle
  2
GouraudWithEdges
 70
     3
 71
     2
 72
     2
 73
     1
 90
        2
 40
0.6
 41
30.0
 62
     5
 63
     7
421
 16777215
 74
     1
 91
        0
 64
     7
 65
   257
 75
     1
175
     1
 42
1.0
 92
        0
 66
   257
 43
1.0
 76
     1
 77
     6
 78
     2
 67
     7
 79
     5
170
     0
171
     0
290
     0
174
     0
 93
       13
 44
0.0
173
     0
291
     1
 45
0.0
1001
ACAD
1000
AcDbSavedByObjectVersion
1070
     0
  0
VISUALSTYLE
  5
31
102
{ACAD_REACTORS
330
2A
102
}
102
{ACAD_XDICTIONARY
360
21B
102
}
330
2A
100
AcDbVisualStyle
  2
Hidden
 70
     6
 71
     1
 72
     2
 73
     2
 90
        0
 40
0.6
 41
30.0
 62
     5
 63
     7
421
 16777215
 74
     2
 91
        2
 64
     7
 65
   257
 75
     2
175
     1
 42
40.0
 92
        0
 66
   257
 43
1.0
 76
     1
 77
     6
 78
     2
 67
     7
 79
     3
170
     0
171
     0
290
     0
174
     0
 93
        1
 44
0.0
173
     0
291
     0
 45
0.0
1001
ACAD
1000
AcDbSavedByObjectVersion
1070
     0
  0
VISUALSTYLE
  5
3B
102
{ACAD_REACTORS
330
2A
102
}
102
{ACAD_XDICTIONARY
360
22F
102
}
330
2A
100
AcDbVisualStyle
  2
JitterOff
 70
    20
 71
     2
 72
     2
 73
     0
 90
        0
 40
0.6
 41
30.0
 62
     5
 63
     7
421
 16777215
 74
     1
 91
        4
 64
     7
 65
   257
 75
     1
175
     1
 42
1.0
 92
       10
 66
     7
 43
1.0
 76
     1
 77
     6
 78
     2
 67
     7
 79
     5
170
     0
171
     0
290
     0
174
     0
 93
        1
 44
0.0
173
     0
291
     1
 45
0.0
1001
ACAD
1000
AcDbSavedByObjectVersion
1070
     0
  0
VISUALSTYLE
  5
38
102
{ACAD_REACTORS
330
2A
102
}
102
{ACAD_XDICTIONARY
360
229
102
}
330
2A
100
AcDbVisualStyle
  2
Linepattern
 70
    14
 71
     2
 72
     2
 73
     0
 90
        0
 40
0.6
 41
30.0
 62
     5
 63
     7
421
 16777215
 74
     1
 91
        4
 64
     7
 65
   257
 75
     7
175
     7
 42
1.0
 92
        8
 66
     7
 43
1.0
 76
     1
 77
     6
 78
     2
 67
     7
 79
     5
170
     0
171
     0
290
     0
174
     0
 93
        1
 44
0.0
173
     0
291
     1
 45
0.0
1001
ACAD
1000
AcDbSavedByObjectVersion
1070
     0
  0
VISUALSTYLE
  5
3C
102
{ACAD_REACTORS
330
2A
102
}
102
{ACAD_XDICTIONARY
360
231
102
}
330
2A
100
AcDbVisualStyle
  2
OverhangOff
 70
    21
 71
     2
 72
     2
 73
     0
 90
        0
 40
0.6
 41
30.0
 62
     5
 63
     7
421
 16777215
 74
     1
 91
        4
 64
     7
 65
   257
 75
     1
175
     1
 42
1.0
 92
        9
 66
     7
 43
1.0
 76
     1
 77
     6
 78
     2
 67
     7
 79
     5
170
     0
171
     0
290
     0
174
     0
 93
        1
 44
0.0
173
     0
291
     1
 45
0.0
1001
ACAD
1000
AcDbSavedByObjectVersion
1070
     0
  0
VISUALSTYLE
  5
33
102
{ACAD_REACTORS
330
2A
102
}
102
{ACAD_XDICTIONARY
360
21F
102
}
330
2A
100
AcDbVisualStyle
  2
Realistic
 70
     8
 71
     2
 72
     3
 73
     0
 90
        2
 40
0.6
 41
30.0
 62
     5
 63
     7
421
 16777215
 74
     0
 91
        0
 64
     7
 65
   257
 75
     1
175
     1
 42
1.0
 92
        8
 66
   257
 43
1.0
 76
     1
 77
     6
 78
     2
 67
     7
 79
     3
170
     0
171
     0
290
     0
174
     0
 93
       13
 44
0.0
173
     0
291
     0
 45
0.0
1001
ACAD
1000
AcDbSavedByObjectVersion
1070
     0
  0
VISUALSTYLE
  5
42
102
{ACAD_REACTORS
330
2A
102
}
102
{ACAD_XDICTIONARY
360
23D
102
}
330
2A
100
AcDbVisualStyle
  2
Shaded
 70
    27
 71
     2
 72
     2
 73
     1
 90
        2
 40
0.6
 41
30.0
 62
     5
 63
     7
421
 16777215
 74
     0
 91
        4
 64
     7
 65
   257
 75
     1
175
     1
 42
1.0
 92
        8
 66
   257
 43
1.0
 76
     1
 77
     6
 78
     2
 67
     8
425
  7895160
 79
     3
170
     0
171
     0
290
     0
174
     0
 93
        5
 44
0.0
173
     0
291
     0
 45
0.0
1001
ACAD
1000
AcDbSavedByObjectVersion
1070
     0
  0
VISUALSTYLE
  5
41
102
{ACAD_REACTORS
330
2A
102
}
102
{ACAD_XDICTIONARY
360
23B
102
}
330
2A
100
AcDbVisualStyle
  2
Shaded with edges
 70
    26
 71
     2
 72
     2
 73
     1
 90
        2
 40
0.6
 41
30.0
 62
     5
 63
     7
421
 16777215
 74
     1
 91
       10
 64
     7
 65
   257
 75
     2
175
     1
 42
1.0
 92
        8
 66
   257
 43
1.0
 76
     1
 77
     6
 78
     2
 67
     7
 79
     3
170
     0
171
     0
290
     0
174
     0
 93
        5
 44
0.0
173
     0
291
     0
 45
0.0
1001
ACAD
1000
AcDbSavedByObjectVersion
1070
     0
  0
VISUALSTYLE
  5
3E
102
{ACAD_REACTORS
330
2A
102
}
102
{ACAD_XDICTIONARY
360
235
102
}
330
2A
100
AcDbVisualStyle
  2
Shades of Gray
 70
    23
 71
     2
 72
     2
 73
     3
 90
        0
 40
0.6
 41
30.0
 62
     5
 63
     7
421
 16777215
 74
     2
 91
        2
 64
     7
 65
     7
 75
     1
175
     1
 42
40.0
 92
        8
 66
     7
 43
1.0
 76
     1
 77
     6
 78
     2
 67
     7
 79
     3
170
     0
171
     0
290
     0
174
     0
 93
        1
 44
0.0
173
     0
291
     0
 45
0.0
1001
ACAD
1000
AcDbSavedByObjectVersion
1070
     0
  0
VISUALSTYLE
  5
3F
102
{ACAD_REACTORS
330
2A
102
}
102
{ACAD_XDICTIONARY
360
237
102
}
330
2A
100
AcDbVisualStyle
  2
Sketchy
 70
    24
 71
     1
 72
     2
 73
     2
 90
        0
 40
0.6
 41
30.0
 62
     5
 63
     7
421
 16777215
 74
     2
 91
        2
 64
     7
 65
     7
 75
     1
175
     1
 42
40.0
 92
       11
 66
     7
 43
1.0
 76
     1
 77
     6
 78
     2
 67
     7
 79
     6
170
     0
171
     0
290
     0
174
     0
 93
        1
 44
0.0
173
     0
291
     0
 45
0.0
1001
ACAD
1000
AcDbSavedByObjectVersion
1070
     0
  0
VISUALSTYLE
  5
37
102
{ACAD_REACTORS
330
2A
102
}
102
{ACAD_XDICTIONARY
360
227
102
}
330
2A
100
AcDbVisualStyle
  2
Thicken
 70
    13
 71
     2
 72
     2
 73
     0
 90
        0
 40
0.6
 41
30.0
 62
     5
 63
     7
421
 16777215
 74
     1
 91
        4
 64
     7
 65
   257
 75
     1
175
     1
 42
1.0
 92
       12
 66
     7
 43
1.0
 76
     1
 77
     6
 78
     2
 67
     7
 79
     5
170
     0
171
     0
290
     0
174
     0
 93
        1
 44
0.0
173
     0
291
     1
 45
0.0
1001
ACAD
1000
AcDbSavedByObjectVersion
1070
     0
  0
VISUALSTYLE
  5
30
102
{ACAD_REACTORS
330
2A
102
}
102
{ACAD_XDICTIONARY
360
219
102
}
330
2A
100
AcDbVisualStyle
  2
Wireframe
 70
     5
 71
     0
 72
     2
 73
     0
 90
        0
 40
0.6
 41
30.0
 62
     5
 63
     7
421
 16777215
 74
     1
 91
        4
 64
     7
 65
   257
 75
     1
175
     1
 42
1.0
 92
        0
 66
   257
 43
1.0
 76
     1
 77
     6
 78
     2
 67
     7
 79
     3
170
     0
171
     0
290
     0
174
     0
 93
        1
 44
0.0
173
     0
291
     0
 45
0.0
1001
ACAD
1000
AcDbSavedByObjectVersion
1070
     0
  0
VISUALSTYLE
  5
40
102
{ACAD_REACTORS
330
2A
102
}
102
{ACAD_XDICTIONARY
360
239
102
}
330
2A
100
AcDbVisualStyle
  2
X-Ray
 70
    25
 71
     2
 72
     2
 73
     1
 90
        1
 40
0.5
 41
30.0
 62
     5
 63
     7
421
 16777215
 74
     1
 91
        0
 64
     7
 65
   257
 75
     1
175
     1
 42
1.0
 92
        8
 66
     7
 43
1.0
 76
     1
 77
     6
 78
     2
 67
     7
 79
     3
170
     0
171
     0
290
     0
174
     0
 93
       13
 44
0.0
173
     0
291
     0
 45
0.0
1001
ACAD
1000
AcDbSavedByObjectVersion
1070
     0
  0
DICTIONARYVAR
  5
20C
102
{ACAD_REACTORS
330
20B
102
}
330
20B
100
DictionaryVariables
280
     0
  1
1:1
  0
DICTIONARYVAR
  5
250
102
{ACAD_REACTORS
330
20B
102
}
330
20B
100
DictionaryVariables
280
     0
  1
3.500000
  0
DICTIONARYVAR
  5
251
102
{ACAD_REACTORS
330
20B
102
}
330
20B
100
DictionaryVariables
280
     0
  1
acadiso.lin
  0
DICTIONARYVAR
  5
24D
102
{ACAD_REACTORS
330
20B
102
}
330
20B
100
DictionaryVariables
280
     0
  1
Standard
  0
DICTIONARYVAR
  5
24C
102
{ACAD_REACTORS
330
20B
102
}
330
20B
100
DictionaryVariables
280
     0
  1
Standard
  0
DICTIONARYVAR
  5
20D
102
{ACAD_REACTORS
330
20B
102
}
330
20B
100
DictionaryVariables
280
     0
  1
1
  0
DICTIONARYVAR
  5
20E
102
{ACAD_REACTORS
330
20B
102
}
330
20B
100
DictionaryVariables
280
     0
  1
2
  0
DICTIONARY
  5
241
330
45
100
AcDbDictionary
280
     1
281
     1
  3
ACAD_XREC_ROUNDTRIP
360
242
  0
DICTIONARY
  5
23F
330
44
100
AcDbDictionary
280
     1
281
     1
  3
ACAD_XREC_ROUNDTRIP
360
240
  0
DICTIONARY
  5
243
330
46
100
AcDbDictionary
280
     1
281
     1
  3
ACAD_XREC_ROUNDTRIP
360
244
  0
DICTIONARY
  5
249
330
6C
100
AcDbDictionary
280
     1
281
     1
  3
ACAD_XREC_ROUNDTRIP
360
24A
  0
DICTIONARY
  5
245
330
6A
100
AcDbDictionary
280
     1
281
     1
  3
ACAD_ROUNDTRIP_2008_TABLESTYLE_CELLSTYLEMAP
360
247
  3
ACAD_XREC_ROUNDTRIP
360
246
  0
DICTIONARY
  5
217
330
2F
100
AcDbDictionary
280
     1
281
     1
  3
ACAD_XREC_ROUNDTRIP
360
218
  0
DICTIONARY
  5
21D
330
32
100
AcDbDictionary
280
     1
281
     1
  3
ACAD_XREC_ROUNDTRIP
360
21E
  0
DICTIONARY
  5
225
330
36
100
AcDbDictionary
280
     1
281
     1
  3
ACAD_XREC_ROUNDTRIP
360
226
  0
DICTIONARY
  5
22D
330
3A
100
AcDbDictionary
280
     1
281
     1
  3
ACAD_XREC_ROUNDTRIP
360
22E
  0
DICTIONARY
  5
221
330
34
100
AcDbDictionary
280
     1
281
     1
  3
ACAD_XREC_ROUNDTRIP
360
222
  0
DICTIONARY
  5
223
330
35
100
AcDbDictionary
280
     1
281
     1
  3
ACAD_XREC_ROUNDTRIP
360
224
  0
DICTIONARY
  5
233
330
3D
100
AcDbDictionary
280
     1
281
     1
  3
ACAD_XREC_ROUNDTRIP
360
234
  0
DICTIONARY
  5
22B
330
39
100
AcDbDictionary
280
     1
281
     1
  3
ACAD_XREC_ROUNDTRIP
360
22C
  0
DICTIONARY
  5
20F
330
2B
100
AcDbDictionary
280
     1
281
     1
  3
ACAD_XREC_ROUNDTRIP
360
210
  0
DICTIONARY
  5
211
330
2C
100
AcDbDictionary
280
     1
281
     1
  3
ACAD_XREC_ROUNDTRIP
360
212
  0
DICTIONARY
  5
213
330
2D
100
AcDbDictionary
280
     1
281
     1
  3
ACAD_XREC_ROUNDTRIP
360
214
  0
DICTIONARY
  5
215
330
2E
100
AcDbDictionary
280
     1
281
     1
  3
ACAD_XREC_ROUNDTRIP
360
216
  0
DICTIONARY
  5
21B
330
31
100
AcDbDictionary
280
     1
281
     1
  3
ACAD_XREC_ROUNDTRIP
360
21C
  0
DICTIONARY
  5
22F
330
3B
100
AcDbDictionary
280
     1
281
     1
  3
ACAD_XREC_ROUNDTRIP
360
230
  0
DICTIONARY
  5
229
330
38
100
AcDbDictionary
280
     1
281
     1
  3
ACAD_XREC_ROUNDTRIP
360
22A
  0
DICTIONARY
  5
231
330
3C
100
AcDbDictionary
280
     1
281
     1
  3
ACAD_XREC_ROUNDTRIP
360
232
  0
DICTIONARY
  5
21F
330
33
100
AcDbDictionary
280
     1
281
     1
  3
ACAD_XREC_ROUNDTRIP
360
220
  0
DICTIONARY
  5
23D
330
42
100
AcDbDictionary
280
     1
281
     1
  3
ACAD_XREC_ROUNDTRIP
360
23E
  0
DICTIONARY
  5
23B
330
41
100
AcDbDictionary
280
     1
281
     1
  3
ACAD_XREC_ROUNDTRIP
360
23C
  0
DICTIONARY
  5
235
330
3E
100
AcDbDictionary
280
     1
281
     1
  3
ACAD_XREC_ROUNDTRIP
360
236
  0
DICTIONARY
  5
237
330
3F
100
AcDbDictionary
280
     1
281
     1
  3
ACAD_XREC_ROUNDTRIP
360
238
  0
DICTIONARY
  5
227
330
37
100
AcDbDictionary
280
     1
281
     1
  3
ACAD_XREC_ROUNDTRIP
360
228
  0
DICTIONARY
  5
219
330
30
100
AcDbDictionary
280
     1
281
     1
  3
ACAD_XREC_ROUNDTRIP
360
21A
  0
DICTIONARY
  5
239
330
40
100
AcDbDictionary
280
     1
281
     1
  3
ACAD_XREC_ROUNDTRIP
360
23A
  0
XRECORD
  5
242
102
{ACAD_REACTORS
330
241
102
}
330
241
100
AcDbXrecord
280
     1
102
MATERIAL
148
0.0
149
0.0
149
0.0
 93
        0
 94
      127
282
     0
 72
     1
 77
     1
171
     1
175
     1
179
     1
273
     0
  0
XRECORD
  5
240
102
{ACAD_REACTORS
330
23F
102
}
330
23F
100
AcDbXrecord
280
     1
102
MATERIAL
148
0.0
149
0.0
149
0.0
 93
        0
 94
      127
282
     0
 72
     1
 77
     1
171
     1
175
     1
179
     1
273
     0
  0
XRECORD
  5
244
102
{ACAD_REACTORS
330
243
102
}
330
243
100
AcDbXrecord
280
     1
102
MATERIAL
148
0.0
149
0.0
149
0.0
 93
        0
 94
      127
282
     0
 72
     1
 77
     1
171
     1
175
     1
179
     1
273
     0
  0
XRECORD
  5
24A
102
{ACAD_REACTORS
330
249
102
}
330
249
100
AcDbXrecord
280
     1
102
ACAD_ROUNDTRIP_2010_MLEADER_STYLE
  0
CELLSTYLEMAP
  5
247
102
{ACAD_REACTORS
330
245
102
}
330
245
100
AcDbCellStyleMap
 90
        3
300
CELLSTYLE
  1
TABLEFORMAT_BEGIN
 90
        5
170
     1
 91
        0
 92
    32768
 62
   257
 93
        1
300
CONTENTFORMAT
  1
CONTENTFORMAT_BEGIN
 90
        0
 91
        0
 92
        4
 93
        0
300

 40
0.0
140
1.0
 94
        5
 62
     0
340
11
144
6.0
309
CONTENTFORMAT_END
171
     1
301
MARGIN
  1
CELLMARGIN_BEGIN
 40
1.5
 40
1.5
 40
1.5
 40
1.5
 40
1.5
 40
1.5
309
CELLMARGIN_END
 94
        6
 95
        1
302
GRIDFORMAT
  1
GRIDFORMAT_BEGIN
 90
        0
 91
        1
 62
     0
 92
       -2
340
14
 93
        0
 40
0.045
309
GRIDFORMAT_END
 95
        2
302
GRIDFORMAT
  1
GRIDFORMAT_BEGIN
 90
        0
 91
        1
 62
     0
 92
       -2
340
14
 93
        0
 40
0.045
309
GRIDFORMAT_END
 95
        4
302
GRIDFORMAT
  1
GRIDFORMAT_BEGIN
 90
        0
 91
        1
 62
     0
 92
       -2
340
14
 93
        0
 40
0.045
309
GRIDFORMAT_END
 95
        8
302
GRIDFORMAT
  1
GRIDFORMAT_BEGIN
 90
        0
 91
        1
 62
     0
 92
       -2
340
14
 93
        0
 40
0.045
309
GRIDFORMAT_END
 95
       16
302
GRIDFORMAT
  1
GRIDFORMAT_BEGIN
 90
        0
 91
        1
 62
     0
 92
       -2
340
14
 93
        0
 40
0.045
309
GRIDFORMAT_END
 95
       32
302
GRIDFORMAT
  1
GRIDFORMAT_BEGIN
 90
        0
 91
        1
 62
     0
 92
       -2
340
14
 93
        0
 40
0.045
309
GRIDFORMAT_END
309
TABLEFORMAT_END
  1
CELLSTYLE_BEGIN
 90
        1
 91
        1
300
_TITLE
309
CELLSTYLE_END
300
CELLSTYLE
  1
TABLEFORMAT_BEGIN
 90
        5
170
     1
 91
        0
 92
        0
 62
   257
 93
        1
300
CONTENTFORMAT
  1
CONTENTFORMAT_BEGIN
 90
        0
 91
        0
 92
        4
 93
        0
300

 40
0.0
140
1.0
 94
        5
 62
     0
340
11
144
4.5
309
CONTENTFORMAT_END
171
     1
301
MARGIN
  1
CELLMARGIN_BEGIN
 40
1.5
 40
1.5
 40
1.5
 40
1.5
 40
1.5
 40
1.5
309
CELLMARGIN_END
 94
        6
 95
        1
302
GRIDFORMAT
  1
GRIDFORMAT_BEGIN
 90
        0
 91
        1
 62
     0
 92
       -2
340
14
 93
        0
 40
0.045
309
GRIDFORMAT_END
 95
        2
302
GRIDFORMAT
  1
GRIDFORMAT_BEGIN
 90
        0
 91
        1
 62
     0
 92
       -2
340
14
 93
        0
 40
0.045
309
GRIDFORMAT_END
 95
        4
302
GRIDFORMAT
  1
GRIDFORMAT_BEGIN
 90
        0
 91
        1
 62
     0
 92
       -2
340
14
 93
        0
 40
0.045
309
GRIDFORMAT_END
 95
        8
302
GRIDFORMAT
  1
GRIDFORMAT_BEGIN
 90
        0
 91
        1
 62
     0
 92
       -2
340
14
 93
        0
 40
0.045
309
GRIDFORMAT_END
 95
       16
302
GRIDFORMAT
  1
GRIDFORMAT_BEGIN
 90
        0
 91
        1
 62
     0
 92
       -2
340
14
 93
        0
 40
0.045
309
GRIDFORMAT_END
 95
       32
302
GRIDFORMAT
  1
GRIDFORMAT_BEGIN
 90
        0
 91
        1
 62
     0
 92
       -2
340
14
 93
        0
 40
0.045
309
GRIDFORMAT_END
309
TABLEFORMAT_END
  1
CELLSTYLE_BEGIN
 90
        2
 91
        1
300
_HEADER
309
CELLSTYLE_END
300
CELLSTYLE
  1
TABLEFORMAT_BEGIN
 90
        5
170
     1
 91
        0
 92
        0
 62
   257
 93
        1
300
CONTENTFORMAT
  1
CONTENTFORMAT_BEGIN
 90
        0
 91
        0
 92
        4
 93
        0
300

 40
0.0
140
1.0
 94
        2
 62
     0
340
11
144
4.5
309
CONTENTFORMAT_END
171
     1
301
MARGIN
  1
CELLMARGIN_BEGIN
 40
1.5
 40
1.5
 40
1.5
 40
1.5
 40
1.5
 40
1.5
309
CELLMARGIN_END
 94
        6
 95
        1
302
GRIDFORMAT
  1
GRIDFORMAT_BEGIN
 90
        0
 91
        1
 62
     0
 92
       -2
340
14
 93
        0
 40
0.045
309
GRIDFORMAT_END
 95
        2
302
GRIDFORMAT
  1
GRIDFORMAT_BEGIN
 90
        0
 91
        1
 62
     0
 92
       -2
340
14
 93
        0
 40
0.045
309
GRIDFORMAT_END
 95
        4
302
GRIDFORMAT
  1
GRIDFORMAT_BEGIN
 90
        0
 91
        1
 62
     0
 92
       -2
340
14
 93
        0
 40
0.045
309
GRIDFORMAT_END
 95
        8
302
GRIDFORMAT
  1
GRIDFORMAT_BEGIN
 90
        0
 91
        1
 62
     0
 92
       -2
340
14
 93
        0
 40
0.045
309
GRIDFORMAT_END
 95
       16
302
GRIDFORMAT
  1
GRIDFORMAT_BEGIN
 90
        0
 91
        1
 62
     0
 92
       -2
340
14
 93
        0
 40
0.045
309
GRIDFORMAT_END
 95
       32
302
GRIDFORMAT
  1
GRIDFORMAT_BEGIN
 90
        0
 91
        1
 62
     0
 92
       -2
340
14
 93
        0
 40
0.045
309
GRIDFORMAT_END
309
TABLEFORMAT_END
  1
CELLSTYLE_BEGIN
 90
        3
 91
        2
300
_DATA
309
CELLSTYLE_END
  0
XRECORD
  5
246
102
{ACAD_REACTORS
330
245
102
}
330
245
100
AcDbXrecord
280
     1
102
ACAD_ROUNDTRIP_PRE2007_TABLESTYLE
 90
        4
 91
        0
  1

 92
        4
 93
        0
  2

 94
        4
 95
        0
  3

  0
XRECORD
  5
218
102
{ACAD_REACTORS
330
217
102
}
330
217
100
AcDbXrecord
280
     1
102
RTVSPropertyOp0
 70
     1
102
RTVSPropertyOp1
 70
     1
102
RTVSPropertyOp2
 70
     1
102
RTVSPropertyOp3
 70
     1
102
RTVSPropertyOp4
 70
     1
102
RTVSPropertyOp5
 70
     1
102
RTVSPropertyOp6
 70
     1
102
RTVSPropertyOp7
 70
     1
102
RTVSPropertyOp8
 70
     1
102
RTVSPropertyOp9
 70
     1
102
RTVSPropertyOp10
 70
     1
102
RTVSPropertyOp11
 70
     1
102
RTVSPropertyOp12
 70
     1
102
RTVSPropertyOp13
 70
     1
102
RTVSPropertyOp14
 70
     1
102
RTVSPropertyOp15
 70
     1
102
RTVSPropertyOp16
 70
     1
102
RTVSPropertyOp17
 70
     1
102
RTVSPropertyOp18
 70
     1
102
RTVSPropertyOp19
 70
     1
102
RTVSPropertyOp20
 70
     1
102
RTVSPropertyOp21
 70
     1
102
RTVSPropertyOp22
 70
     1
102
RTVSPropertyOp23
 70
     1
102
RTVSPropertyOp24
 70
     1
102
RTVSPropertyOp25
 70
     1
102
RTVSPropertyOp26
 70
     1
102
RTVSPropertyOp27
 70
     1
102
RTVSPropertyOp28
 70
     1
102
RTVSPropertyOp29
 70
     1
102
RTVSPropertyOp30
 70
     1
102
RTVSPropertyOp31
 70
     1
102
RTVSPropertyOp32
 70
     1
102
RTVSPropertyOp33
 70
     1
102
RTVSPropertyOp34
 70
     1
102
RTVSPropertyOp35
 70
     1
102
RTVSPropertyOp36
 70
     1
102
RTVSPropertyOp37
 70
     1
102
RTVSPropertyOp38
 70
     1
102
RTVSPropertyOp39
 70
     1
102
RTVSPropertyOp40
 70
     1
102
RTVSPropertyOp41
 70
     1
102
RTVSPropertyOp42
 70
     1
102
RTVSPropertyOp43
 70
     1
102
RTVSPropertyOp44
 70
     1
102
RTVSPropertyOp45
 70
     1
102
RTVSPropertyOp46
 70
     1
102
RTVSPropertyOp47
 70
     1
102
RTVSPropertyOp48
 70
     1
102
RTVSPropertyOp49
 70
     1
102
RTVSPropertyOp50
 70
     1
102
RTVSPropertyOp51
 70
     0
102
RTVSPropertyOp52
 70
     0
102
RTVSPropertyOp53
 70
     1
102
RTVSPropertyOp54
 70
     1
102
RTVSPropertyOp55
 70
     1
102
RTVSPropertyOp56
 70
     1
102
RTVSPropertyOp57
 70
     1
102
RTVSPost2010Prop28
280
     1
102
RTVSPost2010PropOp28
 70
     1
102
RTVSPost2010Prop29
280
     1
102
RTVSPost2010PropOp29
 70
     1
102
RTVSPost2010Prop30
280
     0
102
RTVSPost2010PropOp30
 70
     1
102
RTVSPost2010Prop31
280
     0
102
RTVSPost2010PropOp31
 70
     1
102
RTVSPost2010Prop32
280
     0
102
RTVSPost2010PropOp32
 70
     1
102
RTVSPost2010Prop33
280
     0
102
RTVSPost2010PropOp33
 70
     1
102
RTVSPost2010Prop34
280
     0
102
RTVSPost2010PropOp34
 70
     1
102
RTVSPost2010Prop35
280
     0
102
RTVSPost2010PropOp35
 70
     1
102
RTVSPost2010Prop36
280
     0
102
RTVSPost2010PropOp36
 70
     1
102
RTVSPost2010Prop37
 90
       50
102
RTVSPost2010PropOp37
 70
     1
102
RTVSPost2010Prop38
140
0.0
102
RTVSPost2010PropOp38
 70
     1
102
RTVSPost2010Prop39
140
1.0
102
RTVSPost2010PropOp39
 70
     1
102
RTVSPost2010Prop40
 90
        0
102
RTVSPost2010PropOp40
 70
     1
102
RTVSPost2010Prop41ColorIndex
 90
       18
102
RTVSPost2010Prop41ColorRGB
 90
        0
102
RTVSPost2010PropOp41
 70
     1
102
RTVSPost2010Prop42
 90
       50
102
RTVSPost2010PropOp42
 70
     1
102
RTVSPost2010Prop43
 90
        3
102
RTVSPost2010PropOp43
 70
     1
102
RTVSPost2010Prop44ColorIndex
 90
        5
102
RTVSPost2010Prop44ColorRGB
 90
      255
102
RTVSPost2010PropOp44
 70
     1
102
RTVSPost2010Prop45
280
     0
102
RTVSPost2010PropOp45
 70
     1
102
RTVSPost2010Prop46
 90
       50
102
RTVSPost2010PropOp46
 70
     1
102
RTVSPost2010Prop47
 90
       50
102
RTVSPost2010PropOp47
 70
     1
102
RTVSPost2010Prop48
 90
       50
102
RTVSPost2010PropOp48
 70
     1
102
RTVSPost2010Prop49
280
     0
102
RTVSPost2010PropOp49
 70
     1
102
RTVSPost2010Prop50
 90
       50
102
RTVSPost2010PropOp50
 70
     1
102
RTVSPost2010Prop51ColorIndex
 90
      256
102
RTVSPost2010Prop51ColorRGB
 90
-16777216
102
RTVSPost2010PropOp51
 70
     0
102
RTVSPost2010Prop52
140
1.0
102
RTVSPost2010PropOp52
 70
     0
102
RTVSPost2010Prop53
 90
        2
102
RTVSPost2010PropOp53
 70
     1
102
RTVSPost2010Prop54
  1
strokes_ogs.tif
102
RTVSPost2010PropOp54
 70
     1
102
RTVSPost2010Prop55
280
     0
102
RTVSPost2010PropOp55
 70
     1
102
RTVSPost2010Prop56
140
1.0
102
RTVSPost2010PropOp56
 70
     1
102
RTVSPost2010Prop57
140
1.0
102
RTVSPost2010PropOp57
 70
     1
  0
XRECORD
  5
21E
102
{ACAD_REACTORS
330
21D
102
}
330
21D
100
AcDbXrecord
280
     1
102
RTVSPropertyOp0
 70
     1
102
RTVSPropertyOp1
 70
     1
102
RTVSPropertyOp2
 70
     1
102
RTVSPropertyOp3
 70
     1
102
RTVSPropertyOp4
 70
     1
102
RTVSPropertyOp5
 70
     1
102
RTVSPropertyOp6
 70
     1
102
RTVSPropertyOp7
 70
     1
102
RTVSPropertyOp8
 70
     1
102
RTVSPropertyOp9
 70
     1
102
RTVSPropertyOp10
 70
     1
102
RTVSPropertyOp11
 70
     1
102
RTVSPropertyOp12
 70
     1
102
RTVSPropertyOp13
 70
     1
102
RTVSPropertyOp14
 70
     1
102
RTVSPropertyOp15
 70
     1
102
RTVSPropertyOp16
 70
     1
102
RTVSPropertyOp17
 70
     1
102
RTVSPropertyOp18
 70
     1
102
RTVSPropertyOp19
 70
     1
102
RTVSPropertyOp20
 70
     1
102
RTVSPropertyOp21
 70
     1
102
RTVSPropertyOp22
 70
     1
102
RTVSPropertyOp23
 70
     1
102
RTVSPropertyOp24
 70
     1
102
RTVSPropertyOp25
 70
     1
102
RTVSPropertyOp26
 70
     1
102
RTVSPropertyOp27
 70
     1
102
RTVSPropertyOp28
 70
     1
102
RTVSPropertyOp29
 70
     1
102
RTVSPropertyOp30
 70
     1
102
RTVSPropertyOp31
 70
     1
102
RTVSPropertyOp32
 70
     1
102
RTVSPropertyOp33
 70
     1
102
RTVSPropertyOp34
 70
     1
102
RTVSPropertyOp35
 70
     1
102
RTVSPropertyOp36
 70
     1
102
RTVSPropertyOp37
 70
     1
102
RTVSPropertyOp38
 70
     1
102
RTVSPropertyOp39
 70
     1
102
RTVSPropertyOp40
 70
     1
102
RTVSPropertyOp41
 70
     1
102
RTVSPropertyOp42
 70
     1
102
RTVSPropertyOp43
 70
     1
102
RTVSPropertyOp44
 70
     1
102
RTVSPropertyOp45
 70
     1
102
RTVSPropertyOp46
 70
     1
102
RTVSPropertyOp47
 70
     1
102
RTVSPropertyOp48
 70
     1
102
RTVSPropertyOp49
 70
     1
102
RTVSPropertyOp50
 70
     1
102
RTVSPropertyOp51
 70
     0
102
RTVSPropertyOp52
 70
     0
102
RTVSPropertyOp53
 70
     1
102
RTVSPropertyOp54
 70
     1
102
RTVSPropertyOp55
 70
     1
102
RTVSPropertyOp56
 70
     1
102
RTVSPropertyOp57
 70
     1
102
RTVSPost2010Prop28
280
     0
102
RTVSPost2010PropOp28
 70
     1
102
RTVSPost2010Prop29
280
     1
102
RTVSPost2010PropOp29
 70
     1
102
RTVSPost2010Prop30
280
     1
102
RTVSPost2010PropOp30
 70
     1
102
RTVSPost2010Prop31
280
     0
102
RTVSPost2010PropOp31
 70
     1
102
RTVSPost2010Prop32
280
     0
102
RTVSPost2010PropOp32
 70
     1
102
RTVSPost2010Prop33
280
     0
102
RTVSPost2010PropOp33
 70
     1
102
RTVSPost2010Prop34
280
     0
102
RTVSPost2010PropOp34
 70
     1
102
RTVSPost2010Prop35
280
     0
102
RTVSPost2010PropOp35
 70
     1
102
RTVSPost2010Prop36
280
     0
102
RTVSPost2010PropOp36
 70
     1
102
RTVSPost2010Prop37
 90
       50
102
RTVSPost2010PropOp37
 70
     1
102
RTVSPost2010Prop38
140
0.0
102
RTVSPost2010PropOp38
 70
     1
102
RTVSPost2010Prop39
140
1.0
102
RTVSPost2010PropOp39
 70
     1
102
RTVSPost2010Prop40
 90
        0
102
RTVSPost2010PropOp40
 70
     1
102
RTVSPost2010Prop41ColorIndex
 90
       18
102
RTVSPost2010Prop41ColorRGB
 90
        0
102
RTVSPost2010PropOp41
 70
     1
102
RTVSPost2010Prop42
 90
       50
102
RTVSPost2010PropOp42
 70
     1
102
RTVSPost2010Prop43
 90
        3
102
RTVSPost2010PropOp43
 70
     1
102
RTVSPost2010Prop44ColorIndex
 90
        5
102
RTVSPost2010Prop44ColorRGB
 90
      255
102
RTVSPost2010PropOp44
 70
     1
102
RTVSPost2010Prop45
280
     0
102
RTVSPost2010PropOp45
 70
     1
102
RTVSPost2010Prop46
 90
       50
102
RTVSPost2010PropOp46
 70
     1
102
RTVSPost2010Prop47
 90
       50
102
RTVSPost2010PropOp47
 70
     1
102
RTVSPost2010Prop48
 90
       50
102
RTVSPost2010PropOp48
 70
     1
102
RTVSPost2010Prop49
280
     0
102
RTVSPost2010PropOp49
 70
     1
102
RTVSPost2010Prop50
 90
       50
102
RTVSPost2010PropOp50
 70
     1
102
RTVSPost2010Prop51ColorIndex
 90
      256
102
RTVSPost2010Prop51ColorRGB
 90
-16777216
102
RTVSPost2010PropOp51
 70
     0
102
RTVSPost2010Prop52
140
1.0
102
RTVSPost2010PropOp52
 70
     0
102
RTVSPost2010Prop53
 90
        2
102
RTVSPost2010PropOp53
 70
     1
102
RTVSPost2010Prop54
  1
strokes_ogs.tif
102
RTVSPost2010PropOp54
 70
     1
102
RTVSPost2010Prop55
280
     0
102
RTVSPost2010PropOp55
 70
     1
102
RTVSPost2010Prop56
140
1.0
102
RTVSPost2010PropOp56
 70
     1
102
RTVSPost2010Prop57
140
1.0
102
RTVSPost2010PropOp57
 70
     1
  0
XRECORD
  5
226
102
{ACAD_REACTORS
330
225
102
}
330
225
100
AcDbXrecord
280
     1
102
RTVSPropertyOp0
 70
     1
102
RTVSPropertyOp1
 70
     1
102
RTVSPropertyOp2
 70
     1
102
RTVSPropertyOp3
 70
     1
102
RTVSPropertyOp4
 70
     1
102
RTVSPropertyOp5
 70
     1
102
RTVSPropertyOp6
 70
     1
102
RTVSPropertyOp7
 70
     1
102
RTVSPropertyOp8
 70
     1
102
RTVSPropertyOp9
 70
     1
102
RTVSPropertyOp10
 70
     1
102
RTVSPropertyOp11
 70
     1
102
RTVSPropertyOp12
 70
     1
102
RTVSPropertyOp13
 70
     1
102
RTVSPropertyOp14
 70
     1
102
RTVSPropertyOp15
 70
     1
102
RTVSPropertyOp16
 70
     1
102
RTVSPropertyOp17
 70
     1
102
RTVSPropertyOp18
 70
     1
102
RTVSPropertyOp19
 70
     1
102
RTVSPropertyOp20
 70
     1
102
RTVSPropertyOp21
 70
     1
102
RTVSPropertyOp22
 70
     1
102
RTVSPropertyOp23
 70
     1
102
RTVSPropertyOp24
 70
     1
102
RTVSPropertyOp25
 70
     1
102
RTVSPropertyOp26
 70
     1
102
RTVSPropertyOp27
 70
     1
102
RTVSPropertyOp28
 70
     1
102
RTVSPropertyOp29
 70
     1
102
RTVSPropertyOp30
 70
     1
102
RTVSPropertyOp31
 70
     1
102
RTVSPropertyOp32
 70
     1
102
RTVSPropertyOp33
 70
     1
102
RTVSPropertyOp34
 70
     1
102
RTVSPropertyOp35
 70
     1
102
RTVSPropertyOp36
 70
     1
102
RTVSPropertyOp37
 70
     1
102
RTVSPropertyOp38
 70
     1
102
RTVSPropertyOp39
 70
     1
102
RTVSPropertyOp40
 70
     1
102
RTVSPropertyOp41
 70
     1
102
RTVSPropertyOp42
 70
     1
102
RTVSPropertyOp43
 70
     1
102
RTVSPropertyOp44
 70
     1
102
RTVSPropertyOp45
 70
     1
102
RTVSPropertyOp46
 70
     1
102
RTVSPropertyOp47
 70
     1
102
RTVSPropertyOp48
 70
     1
102
RTVSPropertyOp49
 70
     1
102
RTVSPropertyOp50
 70
     1
102
RTVSPropertyOp51
 70
     0
102
RTVSPropertyOp52
 70
     0
102
RTVSPropertyOp53
 70
     1
102
RTVSPropertyOp54
 70
     1
102
RTVSPropertyOp55
 70
     1
102
RTVSPropertyOp56
 70
     1
102
RTVSPropertyOp57
 70
     1
102
RTVSPost2010Prop28
280
     0
102
RTVSPost2010PropOp28
 70
     1
102
RTVSPost2010Prop29
280
     1
102
RTVSPost2010PropOp29
 70
     1
102
RTVSPost2010Prop30
280
     1
102
RTVSPost2010PropOp30
 70
     1
102
RTVSPost2010Prop31
280
     0
102
RTVSPost2010PropOp31
 70
     1
102
RTVSPost2010Prop32
280
     0
102
RTVSPost2010PropOp32
 70
     1
102
RTVSPost2010Prop33
280
     0
102
RTVSPost2010PropOp33
 70
     1
102
RTVSPost2010Prop34
280
     0
102
RTVSPost2010PropOp34
 70
     1
102
RTVSPost2010Prop35
280
     0
102
RTVSPost2010PropOp35
 70
     1
102
RTVSPost2010Prop36
280
     0
102
RTVSPost2010PropOp36
 70
     1
102
RTVSPost2010Prop37
 90
       50
102
RTVSPost2010PropOp37
 70
     1
102
RTVSPost2010Prop38
140
0.0
102
RTVSPost2010PropOp38
 70
     1
102
RTVSPost2010Prop39
140
1.0
102
RTVSPost2010PropOp39
 70
     1
102
RTVSPost2010Prop40
 90
        0
102
RTVSPost2010PropOp40
 70
     1
102
RTVSPost2010Prop41ColorIndex
 90
       18
102
RTVSPost2010Prop41ColorRGB
 90
        0
102
RTVSPost2010PropOp41
 70
     1
102
RTVSPost2010Prop42
 90
       50
102
RTVSPost2010PropOp42
 70
     1
102
RTVSPost2010Prop43
 90
        3
102
RTVSPost2010PropOp43
 70
     1
102
RTVSPost2010Prop44ColorIndex
 90
        5
102
RTVSPost2010Prop44ColorRGB
 90
      255
102
RTVSPost2010PropOp44
 70
     1
102
RTVSPost2010Prop45
280
     0
102
RTVSPost2010PropOp45
 70
     1
102
RTVSPost2010Prop46
 90
       50
102
RTVSPost2010PropOp46
 70
     1
102
RTVSPost2010Prop47
 90
       50
102
RTVSPost2010PropOp47
 70
     1
102
RTVSPost2010Prop48
 90
       50
102
RTVSPost2010PropOp48
 70
     1
102
RTVSPost2010Prop49
280
     0
102
RTVSPost2010PropOp49
 70
     1
102
RTVSPost2010Prop50
 90
       50
102
RTVSPost2010PropOp50
 70
     1
102
RTVSPost2010Prop51ColorIndex
 90
      256
102
RTVSPost2010Prop51ColorRGB
 90
-16777216
102
RTVSPost2010PropOp51
 70
     0
102
RTVSPost2010Prop52
140
1.0
102
RTVSPost2010PropOp52
 70
     0
102
RTVSPost2010Prop53
 90
        2
102
RTVSPost2010PropOp53
 70
     1
102
RTVSPost2010Prop54
  1
strokes_ogs.tif
102
RTVSPost2010PropOp54
 70
     1
102
RTVSPost2010Prop55
280
     0
102
RTVSPost2010PropOp55
 70
     1
102
RTVSPost2010Prop56
140
1.0
102
RTVSPost2010PropOp56
 70
     1
102
RTVSPost2010Prop57
140
1.0
102
RTVSPost2010PropOp57
 70
     1
  0
XRECORD
  5
22E
102
{ACAD_REACTORS
330
22D
102
}
330
22D
100
AcDbXrecord
280
     1
102
RTVSPropertyOp0
 70
     1
102
RTVSPropertyOp1
 70
     1
102
RTVSPropertyOp2
 70
     1
102
RTVSPropertyOp3
 70
     1
102
RTVSPropertyOp4
 70
     1
102
RTVSPropertyOp5
 70
     1
102
RTVSPropertyOp6
 70
     1
102
RTVSPropertyOp7
 70
     1
102
RTVSPropertyOp8
 70
     1
102
RTVSPropertyOp9
 70
     1
102
RTVSPropertyOp10
 70
     1
102
RTVSPropertyOp11
 70
     1
102
RTVSPropertyOp12
 70
     1
102
RTVSPropertyOp13
 70
     1
102
RTVSPropertyOp14
 70
     1
102
RTVSPropertyOp15
 70
     1
102
RTVSPropertyOp16
 70
     1
102
RTVSPropertyOp17
 70
     1
102
RTVSPropertyOp18
 70
     1
102
RTVSPropertyOp19
 70
     1
102
RTVSPropertyOp20
 70
     1
102
RTVSPropertyOp21
 70
     1
102
RTVSPropertyOp22
 70
     1
102
RTVSPropertyOp23
 70
     1
102
RTVSPropertyOp24
 70
     1
102
RTVSPropertyOp25
 70
     1
102
RTVSPropertyOp26
 70
     1
102
RTVSPropertyOp27
 70
     1
102
RTVSPropertyOp28
 70
     1
102
RTVSPropertyOp29
 70
     1
102
RTVSPropertyOp30
 70
     1
102
RTVSPropertyOp31
 70
     1
102
RTVSPropertyOp32
 70
     1
102
RTVSPropertyOp33
 70
     1
102
RTVSPropertyOp34
 70
     1
102
RTVSPropertyOp35
 70
     1
102
RTVSPropertyOp36
 70
     1
102
RTVSPropertyOp37
 70
     1
102
RTVSPropertyOp38
 70
     1
102
RTVSPropertyOp39
 70
     1
102
RTVSPropertyOp40
 70
     1
102
RTVSPropertyOp41
 70
     1
102
RTVSPropertyOp42
 70
     1
102
RTVSPropertyOp43
 70
     1
102
RTVSPropertyOp44
 70
     1
102
RTVSPropertyOp45
 70
     1
102
RTVSPropertyOp46
 70
     1
102
RTVSPropertyOp47
 70
     1
102
RTVSPropertyOp48
 70
     1
102
RTVSPropertyOp49
 70
     1
102
RTVSPropertyOp50
 70
     1
102
RTVSPropertyOp51
 70
     0
102
RTVSPropertyOp52
 70
     0
102
RTVSPropertyOp53
 70
     1
102
RTVSPropertyOp54
 70
     1
102
RTVSPropertyOp55
 70
     1
102
RTVSPropertyOp56
 70
     1
102
RTVSPropertyOp57
 70
     1
102
RTVSPost2010Prop28
280
     0
102
RTVSPost2010PropOp28
 70
     1
102
RTVSPost2010Prop29
280
     1
102
RTVSPost2010PropOp29
 70
     1
102
RTVSPost2010Prop30
280
     1
102
RTVSPost2010PropOp30
 70
     1
102
RTVSPost2010Prop31
280
     0
102
RTVSPost2010PropOp31
 70
     1
102
RTVSPost2010Prop32
280
     0
102
RTVSPost2010PropOp32
 70
     1
102
RTVSPost2010Prop33
280
     0
102
RTVSPost2010PropOp33
 70
     1
102
RTVSPost2010Prop34
280
     0
102
RTVSPost2010PropOp34
 70
     1
102
RTVSPost2010Prop35
280
     0
102
RTVSPost2010PropOp35
 70
     1
102
RTVSPost2010Prop36
280
     0
102
RTVSPost2010PropOp36
 70
     1
102
RTVSPost2010Prop37
 90
       50
102
RTVSPost2010PropOp37
 70
     1
102
RTVSPost2010Prop38
140
0.0
102
RTVSPost2010PropOp38
 70
     1
102
RTVSPost2010Prop39
140
1.0
102
RTVSPost2010PropOp39
 70
     1
102
RTVSPost2010Prop40
 90
        0
102
RTVSPost2010PropOp40
 70
     1
102
RTVSPost2010Prop41ColorIndex
 90
       18
102
RTVSPost2010Prop41ColorRGB
 90
        0
102
RTVSPost2010PropOp41
 70
     1
102
RTVSPost2010Prop42
 90
       50
102
RTVSPost2010PropOp42
 70
     1
102
RTVSPost2010Prop43
 90
        3
102
RTVSPost2010PropOp43
 70
     1
102
RTVSPost2010Prop44ColorIndex
 90
        5
102
RTVSPost2010Prop44ColorRGB
 90
      255
102
RTVSPost2010PropOp44
 70
     1
102
RTVSPost2010Prop45
280
     0
102
RTVSPost2010PropOp45
 70
     1
102
RTVSPost2010Prop46
 90
       50
102
RTVSPost2010PropOp46
 70
     1
102
RTVSPost2010Prop47
 90
       50
102
RTVSPost2010PropOp47
 70
     1
102
RTVSPost2010Prop48
 90
       50
102
RTVSPost2010PropOp48
 70
     1
102
RTVSPost2010Prop49
280
     0
102
RTVSPost2010PropOp49
 70
     1
102
RTVSPost2010Prop50
 90
       50
102
RTVSPost2010PropOp50
 70
     1
102
RTVSPost2010Prop51ColorIndex
 90
      256
102
RTVSPost2010Prop51ColorRGB
 90
-16777216
102
RTVSPost2010PropOp51
 70
     0
102
RTVSPost2010Prop52
140
1.0
102
RTVSPost2010PropOp52
 70
     0
102
RTVSPost2010Prop53
 90
        2
102
RTVSPost2010PropOp53
 70
     1
102
RTVSPost2010Prop54
  1
strokes_ogs.tif
102
RTVSPost2010PropOp54
 70
     1
102
RTVSPost2010Prop55
280
     0
102
RTVSPost2010PropOp55
 70
     1
102
RTVSPost2010Prop56
140
1.0
102
RTVSPost2010PropOp56
 70
     1
102
RTVSPost2010Prop57
140
1.0
102
RTVSPost2010PropOp57
 70
     1
  0
XRECORD
  5
222
102
{ACAD_REACTORS
330
221
102
}
330
221
100
AcDbXrecord
280
     1
102
RTVSPropertyOp0
 70
     1
102
RTVSPropertyOp1
 70
     1
102
RTVSPropertyOp2
 70
     1
102
RTVSPropertyOp3
 70
     1
102
RTVSPropertyOp4
 70
     1
102
RTVSPropertyOp5
 70
     1
102
RTVSPropertyOp6
 70
     1
102
RTVSPropertyOp7
 70
     1
102
RTVSPropertyOp8
 70
     1
102
RTVSPropertyOp9
 70
     1
102
RTVSPropertyOp10
 70
     1
102
RTVSPropertyOp11
 70
     1
102
RTVSPropertyOp12
 70
     1
102
RTVSPropertyOp13
 70
     1
102
RTVSPropertyOp14
 70
     1
102
RTVSPropertyOp15
 70
     1
102
RTVSPropertyOp16
 70
     1
102
RTVSPropertyOp17
 70
     1
102
RTVSPropertyOp18
 70
     1
102
RTVSPropertyOp19
 70
     1
102
RTVSPropertyOp20
 70
     1
102
RTVSPropertyOp21
 70
     1
102
RTVSPropertyOp22
 70
     1
102
RTVSPropertyOp23
 70
     1
102
RTVSPropertyOp24
 70
     1
102
RTVSPropertyOp25
 70
     1
102
RTVSPropertyOp26
 70
     1
102
RTVSPropertyOp27
 70
     1
102
RTVSPropertyOp28
 70
     1
102
RTVSPropertyOp29
 70
     1
102
RTVSPropertyOp30
 70
     1
102
RTVSPropertyOp31
 70
     1
102
RTVSPropertyOp32
 70
     1
102
RTVSPropertyOp33
 70
     1
102
RTVSPropertyOp34
 70
     1
102
RTVSPropertyOp35
 70
     1
102
RTVSPropertyOp36
 70
     1
102
RTVSPropertyOp37
 70
     1
102
RTVSPropertyOp38
 70
     1
102
RTVSPropertyOp39
 70
     1
102
RTVSPropertyOp40
 70
     1
102
RTVSPropertyOp41
 70
     1
102
RTVSPropertyOp42
 70
     1
102
RTVSPropertyOp43
 70
     1
102
RTVSPropertyOp44
 70
     1
102
RTVSPropertyOp45
 70
     1
102
RTVSPropertyOp46
 70
     1
102
RTVSPropertyOp47
 70
     1
102
RTVSPropertyOp48
 70
     1
102
RTVSPropertyOp49
 70
     1
102
RTVSPropertyOp50
 70
     1
102
RTVSPropertyOp51
 70
     0
102
RTVSPropertyOp52
 70
     0
102
RTVSPropertyOp53
 70
     1
102
RTVSPropertyOp54
 70
     1
102
RTVSPropertyOp55
 70
     1
102
RTVSPropertyOp56
 70
     1
102
RTVSPropertyOp57
 70
     1
102
RTVSPost2010Prop28
280
     0
102
RTVSPost2010PropOp28
 70
     1
102
RTVSPost2010Prop29
280
     1
102
RTVSPost2010PropOp29
 70
     1
102
RTVSPost2010Prop30
280
     1
102
RTVSPost2010PropOp30
 70
     1
102
RTVSPost2010Prop31
280
     0
102
RTVSPost2010PropOp31
 70
     1
102
RTVSPost2010Prop32
280
     0
102
RTVSPost2010PropOp32
 70
     1
102
RTVSPost2010Prop33
280
     0
102
RTVSPost2010PropOp33
 70
     1
102
RTVSPost2010Prop34
280
     0
102
RTVSPost2010PropOp34
 70
     1
102
RTVSPost2010Prop35
280
     0
102
RTVSPost2010PropOp35
 70
     1
102
RTVSPost2010Prop36
280
     0
102
RTVSPost2010PropOp36
 70
     1
102
RTVSPost2010Prop37
 90
       50
102
RTVSPost2010PropOp37
 70
     1
102
RTVSPost2010Prop38
140
0.0
102
RTVSPost2010PropOp38
 70
     1
102
RTVSPost2010Prop39
140
1.0
102
RTVSPost2010PropOp39
 70
     1
102
RTVSPost2010Prop40
 90
        0
102
RTVSPost2010PropOp40
 70
     1
102
RTVSPost2010Prop41ColorIndex
 90
       18
102
RTVSPost2010Prop41ColorRGB
 90
        0
102
RTVSPost2010PropOp41
 70
     1
102
RTVSPost2010Prop42
 90
       50
102
RTVSPost2010PropOp42
 70
     1
102
RTVSPost2010Prop43
 90
        3
102
RTVSPost2010PropOp43
 70
     1
102
RTVSPost2010Prop44ColorIndex
 90
        5
102
RTVSPost2010Prop44ColorRGB
 90
      255
102
RTVSPost2010PropOp44
 70
     1
102
RTVSPost2010Prop45
280
     0
102
RTVSPost2010PropOp45
 70
     1
102
RTVSPost2010Prop46
 90
       50
102
RTVSPost2010PropOp46
 70
     1
102
RTVSPost2010Prop47
 90
       50
102
RTVSPost2010PropOp47
 70
     1
102
RTVSPost2010Prop48
 90
       50
102
RTVSPost2010PropOp48
 70
     1
102
RTVSPost2010Prop49
280
     0
102
RTVSPost2010PropOp49
 70
     1
102
RTVSPost2010Prop50
 90
       50
102
RTVSPost2010PropOp50
 70
     1
102
RTVSPost2010Prop51ColorIndex
 90
      256
102
RTVSPost2010Prop51ColorRGB
 90
-16777216
102
RTVSPost2010PropOp51
 70
     0
102
RTVSPost2010Prop52
140
1.0
102
RTVSPost2010PropOp52
 70
     0
102
RTVSPost2010Prop53
 90
        2
102
RTVSPost2010PropOp53
 70
     1
102
RTVSPost2010Prop54
  1
strokes_ogs.tif
102
RTVSPost2010PropOp54
 70
     1
102
RTVSPost2010Prop55
280
     0
102
RTVSPost2010PropOp55
 70
     1
102
RTVSPost2010Prop56
140
1.0
102
RTVSPost2010PropOp56
 70
     1
102
RTVSPost2010Prop57
140
1.0
102
RTVSPost2010PropOp57
 70
     1
  0
XRECORD
  5
224
102
{ACAD_REACTORS
330
223
102
}
330
223
100
AcDbXrecord
280
     1
102
RTVSPropertyOp0
 70
     1
102
RTVSPropertyOp1
 70
     1
102
RTVSPropertyOp2
 70
     1
102
RTVSPropertyOp3
 70
     1
102
RTVSPropertyOp4
 70
     1
102
RTVSPropertyOp5
 70
     1
102
RTVSPropertyOp6
 70
     1
102
RTVSPropertyOp7
 70
     1
102
RTVSPropertyOp8
 70
     1
102
RTVSPropertyOp9
 70
     1
102
RTVSPropertyOp10
 70
     1
102
RTVSPropertyOp11
 70
     1
102
RTVSPropertyOp12
 70
     1
102
RTVSPropertyOp13
 70
     1
102
RTVSPropertyOp14
 70
     1
102
RTVSPropertyOp15
 70
     1
102
RTVSPropertyOp16
 70
     1
102
RTVSPropertyOp17
 70
     1
102
RTVSPropertyOp18
 70
     1
102
RTVSPropertyOp19
 70
     1
102
RTVSPropertyOp20
 70
     1
102
RTVSPropertyOp21
 70
     1
102
RTVSPropertyOp22
 70
     1
102
RTVSPropertyOp23
 70
     1
102
RTVSPropertyOp24
 70
     1
102
RTVSPropertyOp25
 70
     1
102
RTVSPropertyOp26
 70
     1
102
RTVSPropertyOp27
 70
     1
102
RTVSPropertyOp28
 70
     1
102
RTVSPropertyOp29
 70
     1
102
RTVSPropertyOp30
 70
     1
102
RTVSPropertyOp31
 70
     1
102
RTVSPropertyOp32
 70
     1
102
RTVSPropertyOp33
 70
     1
102
RTVSPropertyOp34
 70
     1
102
RTVSPropertyOp35
 70
     1
102
RTVSPropertyOp36
 70
     1
102
RTVSPropertyOp37
 70
     1
102
RTVSPropertyOp38
 70
     1
102
RTVSPropertyOp39
 70
     1
102
RTVSPropertyOp40
 70
     1
102
RTVSPropertyOp41
 70
     1
102
RTVSPropertyOp42
 70
     1
102
RTVSPropertyOp43
 70
     1
102
RTVSPropertyOp44
 70
     1
102
RTVSPropertyOp45
 70
     1
102
RTVSPropertyOp46
 70
     1
102
RTVSPropertyOp47
 70
     1
102
RTVSPropertyOp48
 70
     1
102
RTVSPropertyOp49
 70
     1
102
RTVSPropertyOp50
 70
     1
102
RTVSPropertyOp51
 70
     0
102
RTVSPropertyOp52
 70
     0
102
RTVSPropertyOp53
 70
     1
102
RTVSPropertyOp54
 70
     1
102
RTVSPropertyOp55
 70
     1
102
RTVSPropertyOp56
 70
     1
102
RTVSPropertyOp57
 70
     1
102
RTVSPost2010Prop28
280
     0
102
RTVSPost2010PropOp28
 70
     1
102
RTVSPost2010Prop29
280
     1
102
RTVSPost2010PropOp29
 70
     1
102
RTVSPost2010Prop30
280
     1
102
RTVSPost2010PropOp30
 70
     1
102
RTVSPost2010Prop31
280
     0
102
RTVSPost2010PropOp31
 70
     1
102
RTVSPost2010Prop32
280
     0
102
RTVSPost2010PropOp32
 70
     1
102
RTVSPost2010Prop33
280
     0
102
RTVSPost2010PropOp33
 70
     1
102
RTVSPost2010Prop34
280
     0
102
RTVSPost2010PropOp34
 70
     1
102
RTVSPost2010Prop35
280
     0
102
RTVSPost2010PropOp35
 70
     1
102
RTVSPost2010Prop36
280
     0
102
RTVSPost2010PropOp36
 70
     1
102
RTVSPost2010Prop37
 90
       50
102
RTVSPost2010PropOp37
 70
     1
102
RTVSPost2010Prop38
140
0.0
102
RTVSPost2010PropOp38
 70
     1
102
RTVSPost2010Prop39
140
1.0
102
RTVSPost2010PropOp39
 70
     1
102
RTVSPost2010Prop40
 90
        0
102
RTVSPost2010PropOp40
 70
     1
102
RTVSPost2010Prop41ColorIndex
 90
       18
102
RTVSPost2010Prop41ColorRGB
 90
        0
102
RTVSPost2010PropOp41
 70
     1
102
RTVSPost2010Prop42
 90
       50
102
RTVSPost2010PropOp42
 70
     1
102
RTVSPost2010Prop43
 90
        3
102
RTVSPost2010PropOp43
 70
     1
102
RTVSPost2010Prop44ColorIndex
 90
        5
102
RTVSPost2010Prop44ColorRGB
 90
      255
102
RTVSPost2010PropOp44
 70
     1
102
RTVSPost2010Prop45
280
     0
102
RTVSPost2010PropOp45
 70
     1
102
RTVSPost2010Prop46
 90
       50
102
RTVSPost2010PropOp46
 70
     1
102
RTVSPost2010Prop47
 90
       50
102
RTVSPost2010PropOp47
 70
     1
102
RTVSPost2010Prop48
 90
       50
102
RTVSPost2010PropOp48
 70
     1
102
RTVSPost2010Prop49
280
     0
102
RTVSPost2010PropOp49
 70
     1
102
RTVSPost2010Prop50
 90
       50
102
RTVSPost2010PropOp50
 70
     1
102
RTVSPost2010Prop51ColorIndex
 90
      256
102
RTVSPost2010Prop51ColorRGB
 90
-16777216
102
RTVSPost2010PropOp51
 70
     0
102
RTVSPost2010Prop52
140
1.0
102
RTVSPost2010PropOp52
 70
     0
102
RTVSPost2010Prop53
 90
        2
102
RTVSPost2010PropOp53
 70
     1
102
RTVSPost2010Prop54
  1
strokes_ogs.tif
102
RTVSPost2010PropOp54
 70
     1
102
RTVSPost2010Prop55
280
     0
102
RTVSPost2010PropOp55
 70
     1
102
RTVSPost2010Prop56
140
1.0
102
RTVSPost2010PropOp56
 70
     1
102
RTVSPost2010Prop57
140
1.0
102
RTVSPost2010PropOp57
 70
     1
  0
XRECORD
  5
234
102
{ACAD_REACTORS
330
233
102
}
330
233
100
AcDbXrecord
280
     1
102
RTVSPropertyOp0
 70
     0
102
RTVSPropertyOp1
 70
     0
102
RTVSPropertyOp2
 70
     0
102
RTVSPropertyOp3
 70
     0
102
RTVSPropertyOp4
 70
     0
102
RTVSPropertyOp5
 70
     0
102
RTVSPropertyOp6
 70
     0
102
RTVSPropertyOp7
 70
     0
102
RTVSPropertyOp8
 70
     0
102
RTVSPropertyOp9
 70
     0
102
RTVSPropertyOp10
 70
     0
102
RTVSPropertyOp11
 70
     0
102
RTVSPropertyOp12
 70
     0
102
RTVSPropertyOp13
 70
     0
102
RTVSPropertyOp14
 70
     2
102
RTVSPropertyOp15
 70
     0
102
RTVSPropertyOp16
 70
     0
102
RTVSPropertyOp17
 70
     0
102
RTVSPropertyOp18
 70
     0
102
RTVSPropertyOp19
 70
     0
102
RTVSPropertyOp20
 70
     0
102
RTVSPropertyOp21
 70
     0
102
RTVSPropertyOp22
 70
     0
102
RTVSPropertyOp23
 70
     0
102
RTVSPropertyOp24
 70
     0
102
RTVSPropertyOp25
 70
     0
102
RTVSPropertyOp26
 70
     0
102
RTVSPropertyOp27
 70
     0
102
RTVSPropertyOp28
 70
     0
102
RTVSPropertyOp29
 70
     0
102
RTVSPropertyOp30
 70
     0
102
RTVSPropertyOp31
 70
     0
102
RTVSPropertyOp32
 70
     0
102
RTVSPropertyOp33
 70
     0
102
RTVSPropertyOp34
 70
     0
102
RTVSPropertyOp35
 70
     0
102
RTVSPropertyOp36
 70
     0
102
RTVSPropertyOp37
 70
     0
102
RTVSPropertyOp38
 70
     0
102
RTVSPropertyOp39
 70
     0
102
RTVSPropertyOp40
 70
     0
102
RTVSPropertyOp41
 70
     0
102
RTVSPropertyOp42
 70
     0
102
RTVSPropertyOp43
 70
     0
102
RTVSPropertyOp44
 70
     0
102
RTVSPropertyOp45
 70
     0
102
RTVSPropertyOp46
 70
     0
102
RTVSPropertyOp47
 70
     0
102
RTVSPropertyOp48
 70
     0
102
RTVSPropertyOp49
 70
     0
102
RTVSPropertyOp50
 70
     0
102
RTVSPropertyOp51
 70
     0
102
RTVSPropertyOp52
 70
     0
102
RTVSPropertyOp53
 70
     0
102
RTVSPropertyOp54
 70
     0
102
RTVSPropertyOp55
 70
     0
102
RTVSPropertyOp56
 70
     0
102
RTVSPropertyOp57
 70
     0
102
RTVSPost2010Prop28
280
     0
102
RTVSPost2010PropOp28
 70
     0
102
RTVSPost2010Prop29
280
     1
102
RTVSPost2010PropOp29
 70
     0
102
RTVSPost2010Prop30
280
     1
102
RTVSPost2010PropOp30
 70
     0
102
RTVSPost2010Prop31
280
     0
102
RTVSPost2010PropOp31
 70
     0
102
RTVSPost2010Prop32
280
     0
102
RTVSPost2010PropOp32
 70
     0
102
RTVSPost2010Prop33
280
     0
102
RTVSPost2010PropOp33
 70
     0
102
RTVSPost2010Prop34
280
     0
102
RTVSPost2010PropOp34
 70
     0
102
RTVSPost2010Prop35
280
     0
102
RTVSPost2010PropOp35
 70
     0
102
RTVSPost2010Prop36
280
     0
102
RTVSPost2010PropOp36
 70
     0
102
RTVSPost2010Prop37
 90
       50
102
RTVSPost2010PropOp37
 70
     0
102
RTVSPost2010Prop38
140
0.0
102
RTVSPost2010PropOp38
 70
     0
102
RTVSPost2010Prop39
140
1.0
102
RTVSPost2010PropOp39
 70
     0
102
RTVSPost2010Prop40
 90
        0
102
RTVSPost2010PropOp40
 70
     0
102
RTVSPost2010Prop41ColorIndex
 90
       18
102
RTVSPost2010Prop41ColorRGB
 90
        0
102
RTVSPost2010PropOp41
 70
     0
102
RTVSPost2010Prop42
 90
       50
102
RTVSPost2010PropOp42
 70
     0
102
RTVSPost2010Prop43
 90
        3
102
RTVSPost2010PropOp43
 70
     0
102
RTVSPost2010Prop44ColorIndex
 90
        5
102
RTVSPost2010Prop44ColorRGB
 90
      255
102
RTVSPost2010PropOp44
 70
     0
102
RTVSPost2010Prop45
280
     0
102
RTVSPost2010PropOp45
 70
     0
102
RTVSPost2010Prop46
 90
       50
102
RTVSPost2010PropOp46
 70
     0
102
RTVSPost2010Prop47
 90
       50
102
RTVSPost2010PropOp47
 70
     0
102
RTVSPost2010Prop48
 90
       50
102
RTVSPost2010PropOp48
 70
     0
102
RTVSPost2010Prop49
280
     0
102
RTVSPost2010PropOp49
 70
     0
102
RTVSPost2010Prop50
 90
       50
102
RTVSPost2010PropOp50
 70
     0
102
RTVSPost2010Prop51ColorIndex
 90
      256
102
RTVSPost2010Prop51ColorRGB
 90
-16777216
102
RTVSPost2010PropOp51
 70
     0
102
RTVSPost2010Prop52
140
1.0
102
RTVSPost2010PropOp52
 70
     0
102
RTVSPost2010Prop53
 90
        2
102
RTVSPost2010PropOp53
 70
     0
102
RTVSPost2010Prop54
  1
strokes_ogs.tif
102
RTVSPost2010PropOp54
 70
     0
102
RTVSPost2010Prop55
280
     0
102
RTVSPost2010PropOp55
 70
     0
102
RTVSPost2010Prop56
140
1.0
102
RTVSPost2010PropOp56
 70
     0
102
RTVSPost2010Prop57
140
1.0
102
RTVSPost2010PropOp57
 70
     0
  0
XRECORD
  5
22C
102
{ACAD_REACTORS
330
22B
102
}
330
22B
100
AcDbXrecord
280
     1
102
RTVSPropertyOp0
 70
     1
102
RTVSPropertyOp1
 70
     1
102
RTVSPropertyOp2
 70
     1
102
RTVSPropertyOp3
 70
     1
102
RTVSPropertyOp4
 70
     1
102
RTVSPropertyOp5
 70
     1
102
RTVSPropertyOp6
 70
     1
102
RTVSPropertyOp7
 70
     1
102
RTVSPropertyOp8
 70
     1
102
RTVSPropertyOp9
 70
     1
102
RTVSPropertyOp10
 70
     1
102
RTVSPropertyOp11
 70
     1
102
RTVSPropertyOp12
 70
     1
102
RTVSPropertyOp13
 70
     1
102
RTVSPropertyOp14
 70
     1
102
RTVSPropertyOp15
 70
     1
102
RTVSPropertyOp16
 70
     1
102
RTVSPropertyOp17
 70
     1
102
RTVSPropertyOp18
 70
     1
102
RTVSPropertyOp19
 70
     1
102
RTVSPropertyOp20
 70
     1
102
RTVSPropertyOp21
 70
     1
102
RTVSPropertyOp22
 70
     1
102
RTVSPropertyOp23
 70
     1
102
RTVSPropertyOp24
 70
     1
102
RTVSPropertyOp25
 70
     1
102
RTVSPropertyOp26
 70
     1
102
RTVSPropertyOp27
 70
     1
102
RTVSPropertyOp28
 70
     1
102
RTVSPropertyOp29
 70
     1
102
RTVSPropertyOp30
 70
     1
102
RTVSPropertyOp31
 70
     1
102
RTVSPropertyOp32
 70
     1
102
RTVSPropertyOp33
 70
     1
102
RTVSPropertyOp34
 70
     1
102
RTVSPropertyOp35
 70
     1
102
RTVSPropertyOp36
 70
     1
102
RTVSPropertyOp37
 70
     1
102
RTVSPropertyOp38
 70
     1
102
RTVSPropertyOp39
 70
     1
102
RTVSPropertyOp40
 70
     1
102
RTVSPropertyOp41
 70
     1
102
RTVSPropertyOp42
 70
     1
102
RTVSPropertyOp43
 70
     1
102
RTVSPropertyOp44
 70
     1
102
RTVSPropertyOp45
 70
     1
102
RTVSPropertyOp46
 70
     1
102
RTVSPropertyOp47
 70
     1
102
RTVSPropertyOp48
 70
     1
102
RTVSPropertyOp49
 70
     1
102
RTVSPropertyOp50
 70
     1
102
RTVSPropertyOp51
 70
     0
102
RTVSPropertyOp52
 70
     0
102
RTVSPropertyOp53
 70
     1
102
RTVSPropertyOp54
 70
     1
102
RTVSPropertyOp55
 70
     1
102
RTVSPropertyOp56
 70
     1
102
RTVSPropertyOp57
 70
     1
102
RTVSPost2010Prop28
280
     0
102
RTVSPost2010PropOp28
 70
     1
102
RTVSPost2010Prop29
280
     1
102
RTVSPost2010PropOp29
 70
     1
102
RTVSPost2010Prop30
280
     1
102
RTVSPost2010PropOp30
 70
     1
102
RTVSPost2010Prop31
280
     0
102
RTVSPost2010PropOp31
 70
     1
102
RTVSPost2010Prop32
280
     0
102
RTVSPost2010PropOp32
 70
     1
102
RTVSPost2010Prop33
280
     0
102
RTVSPost2010PropOp33
 70
     1
102
RTVSPost2010Prop34
280
     0
102
RTVSPost2010PropOp34
 70
     1
102
RTVSPost2010Prop35
280
     0
102
RTVSPost2010PropOp35
 70
     1
102
RTVSPost2010Prop36
280
     0
102
RTVSPost2010PropOp36
 70
     1
102
RTVSPost2010Prop37
 90
       50
102
RTVSPost2010PropOp37
 70
     1
102
RTVSPost2010Prop38
140
0.0
102
RTVSPost2010PropOp38
 70
     1
102
RTVSPost2010Prop39
140
1.0
102
RTVSPost2010PropOp39
 70
     1
102
RTVSPost2010Prop40
 90
        0
102
RTVSPost2010PropOp40
 70
     1
102
RTVSPost2010Prop41ColorIndex
 90
       18
102
RTVSPost2010Prop41ColorRGB
 90
        0
102
RTVSPost2010PropOp41
 70
     1
102
RTVSPost2010Prop42
 90
       50
102
RTVSPost2010PropOp42
 70
     1
102
RTVSPost2010Prop43
 90
        3
102
RTVSPost2010PropOp43
 70
     1
102
RTVSPost2010Prop44ColorIndex
 90
        5
102
RTVSPost2010Prop44ColorRGB
 90
      255
102
RTVSPost2010PropOp44
 70
     1
102
RTVSPost2010Prop45
280
     0
102
RTVSPost2010PropOp45
 70
     1
102
RTVSPost2010Prop46
 90
       50
102
RTVSPost2010PropOp46
 70
     1
102
RTVSPost2010Prop47
 90
       50
102
RTVSPost2010PropOp47
 70
     1
102
RTVSPost2010Prop48
 90
       50
102
RTVSPost2010PropOp48
 70
     1
102
RTVSPost2010Prop49
280
     0
102
RTVSPost2010PropOp49
 70
     1
102
RTVSPost2010Prop50
 90
       50
102
RTVSPost2010PropOp50
 70
     1
102
RTVSPost2010Prop51ColorIndex
 90
      256
102
RTVSPost2010Prop51ColorRGB
 90
-16777216
102
RTVSPost2010PropOp51
 70
     0
102
RTVSPost2010Prop52
140
1.0
102
RTVSPost2010PropOp52
 70
     0
102
RTVSPost2010Prop53
 90
        2
102
RTVSPost2010PropOp53
 70
     1
102
RTVSPost2010Prop54
  1
strokes_ogs.tif
102
RTVSPost2010PropOp54
 70
     1
102
RTVSPost2010Prop55
280
     0
102
RTVSPost2010PropOp55
 70
     1
102
RTVSPost2010Prop56
140
1.0
102
RTVSPost2010PropOp56
 70
     1
102
RTVSPost2010Prop57
140
1.0
102
RTVSPost2010PropOp57
 70
     1
  0
XRECORD
  5
210
102
{ACAD_REACTORS
330
20F
102
}
330
20F
100
AcDbXrecord
280
     1
102
RTVSPropertyOp0
 70
     1
102
RTVSPropertyOp1
 70
     1
102
RTVSPropertyOp2
 70
     1
102
RTVSPropertyOp3
 70
     1
102
RTVSPropertyOp4
 70
     1
102
RTVSPropertyOp5
 70
     1
102
RTVSPropertyOp6
 70
     1
102
RTVSPropertyOp7
 70
     1
102
RTVSPropertyOp8
 70
     1
102
RTVSPropertyOp9
 70
     1
102
RTVSPropertyOp10
 70
     1
102
RTVSPropertyOp11
 70
     1
102
RTVSPropertyOp12
 70
     1
102
RTVSPropertyOp13
 70
     1
102
RTVSPropertyOp14
 70
     1
102
RTVSPropertyOp15
 70
     1
102
RTVSPropertyOp16
 70
     1
102
RTVSPropertyOp17
 70
     1
102
RTVSPropertyOp18
 70
     1
102
RTVSPropertyOp19
 70
     1
102
RTVSPropertyOp20
 70
     1
102
RTVSPropertyOp21
 70
     1
102
RTVSPropertyOp22
 70
     1
102
RTVSPropertyOp23
 70
     1
102
RTVSPropertyOp24
 70
     1
102
RTVSPropertyOp25
 70
     1
102
RTVSPropertyOp26
 70
     1
102
RTVSPropertyOp27
 70
     1
102
RTVSPropertyOp28
 70
     1
102
RTVSPropertyOp29
 70
     1
102
RTVSPropertyOp30
 70
     1
102
RTVSPropertyOp31
 70
     1
102
RTVSPropertyOp32
 70
     1
102
RTVSPropertyOp33
 70
     1
102
RTVSPropertyOp34
 70
     1
102
RTVSPropertyOp35
 70
     1
102
RTVSPropertyOp36
 70
     1
102
RTVSPropertyOp37
 70
     1
102
RTVSPropertyOp38
 70
     1
102
RTVSPropertyOp39
 70
     1
102
RTVSPropertyOp40
 70
     1
102
RTVSPropertyOp41
 70
     1
102
RTVSPropertyOp42
 70
     1
102
RTVSPropertyOp43
 70
     1
102
RTVSPropertyOp44
 70
     1
102
RTVSPropertyOp45
 70
     1
102
RTVSPropertyOp46
 70
     1
102
RTVSPropertyOp47
 70
     1
102
RTVSPropertyOp48
 70
     1
102
RTVSPropertyOp49
 70
     1
102
RTVSPropertyOp50
 70
     1
102
RTVSPropertyOp51
 70
     0
102
RTVSPropertyOp52
 70
     0
102
RTVSPropertyOp53
 70
     1
102
RTVSPropertyOp54
 70
     1
102
RTVSPropertyOp55
 70
     1
102
RTVSPropertyOp56
 70
     1
102
RTVSPropertyOp57
 70
     1
102
RTVSPost2010Prop28
280
     0
102
RTVSPost2010PropOp28
 70
     1
102
RTVSPost2010Prop29
280
     1
102
RTVSPost2010PropOp29
 70
     1
102
RTVSPost2010Prop30
280
     1
102
RTVSPost2010PropOp30
 70
     1
102
RTVSPost2010Prop31
280
     0
102
RTVSPost2010PropOp31
 70
     1
102
RTVSPost2010Prop32
280
     0
102
RTVSPost2010PropOp32
 70
     1
102
RTVSPost2010Prop33
280
     0
102
RTVSPost2010PropOp33
 70
     1
102
RTVSPost2010Prop34
280
     0
102
RTVSPost2010PropOp34
 70
     1
102
RTVSPost2010Prop35
280
     0
102
RTVSPost2010PropOp35
 70
     1
102
RTVSPost2010Prop36
280
     0
102
RTVSPost2010PropOp36
 70
     1
102
RTVSPost2010Prop37
 90
       50
102
RTVSPost2010PropOp37
 70
     1
102
RTVSPost2010Prop38
140
0.0
102
RTVSPost2010PropOp38
 70
     1
102
RTVSPost2010Prop39
140
1.0
102
RTVSPost2010PropOp39
 70
     1
102
RTVSPost2010Prop40
 90
        0
102
RTVSPost2010PropOp40
 70
     1
102
RTVSPost2010Prop41ColorIndex
 90
       18
102
RTVSPost2010Prop41ColorRGB
 90
        0
102
RTVSPost2010PropOp41
 70
     1
102
RTVSPost2010Prop42
 90
       50
102
RTVSPost2010PropOp42
 70
     1
102
RTVSPost2010Prop43
 90
        3
102
RTVSPost2010PropOp43
 70
     1
102
RTVSPost2010Prop44ColorIndex
 90
        5
102
RTVSPost2010Prop44ColorRGB
 90
      255
102
RTVSPost2010PropOp44
 70
     1
102
RTVSPost2010Prop45
280
     0
102
RTVSPost2010PropOp45
 70
     1
102
RTVSPost2010Prop46
 90
       50
102
RTVSPost2010PropOp46
 70
     1
102
RTVSPost2010Prop47
 90
       50
102
RTVSPost2010PropOp47
 70
     1
102
RTVSPost2010Prop48
 90
       50
102
RTVSPost2010PropOp48
 70
     1
102
RTVSPost2010Prop49
280
     0
102
RTVSPost2010PropOp49
 70
     1
102
RTVSPost2010Prop50
 90
       50
102
RTVSPost2010PropOp50
 70
     1
102
RTVSPost2010Prop51ColorIndex
 90
      256
102
RTVSPost2010Prop51ColorRGB
 90
-16777216
102
RTVSPost2010PropOp51
 70
     0
102
RTVSPost2010Prop52
140
1.0
102
RTVSPost2010PropOp52
 70
     0
102
RTVSPost2010Prop53
 90
        2
102
RTVSPost2010PropOp53
 70
     1
102
RTVSPost2010Prop54
  1
strokes_ogs.tif
102
RTVSPost2010PropOp54
 70
     1
102
RTVSPost2010Prop55
280
     0
102
RTVSPost2010PropOp55
 70
     1
102
RTVSPost2010Prop56
140
1.0
102
RTVSPost2010PropOp56
 70
     1
102
RTVSPost2010Prop57
140
1.0
102
RTVSPost2010PropOp57
 70
     1
  0
XRECORD
  5
212
102
{ACAD_REACTORS
330
211
102
}
330
211
100
AcDbXrecord
280
     1
102
RTVSPropertyOp0
 70
     1
102
RTVSPropertyOp1
 70
     1
102
RTVSPropertyOp2
 70
     1
102
RTVSPropertyOp3
 70
     1
102
RTVSPropertyOp4
 70
     1
102
RTVSPropertyOp5
 70
     1
102
RTVSPropertyOp6
 70
     1
102
RTVSPropertyOp7
 70
     1
102
RTVSPropertyOp8
 70
     1
102
RTVSPropertyOp9
 70
     1
102
RTVSPropertyOp10
 70
     1
102
RTVSPropertyOp11
 70
     1
102
RTVSPropertyOp12
 70
     1
102
RTVSPropertyOp13
 70
     1
102
RTVSPropertyOp14
 70
     1
102
RTVSPropertyOp15
 70
     1
102
RTVSPropertyOp16
 70
     1
102
RTVSPropertyOp17
 70
     1
102
RTVSPropertyOp18
 70
     1
102
RTVSPropertyOp19
 70
     1
102
RTVSPropertyOp20
 70
     1
102
RTVSPropertyOp21
 70
     1
102
RTVSPropertyOp22
 70
     1
102
RTVSPropertyOp23
 70
     1
102
RTVSPropertyOp24
 70
     1
102
RTVSPropertyOp25
 70
     1
102
RTVSPropertyOp26
 70
     1
102
RTVSPropertyOp27
 70
     1
102
RTVSPropertyOp28
 70
     1
102
RTVSPropertyOp29
 70
     1
102
RTVSPropertyOp30
 70
     1
102
RTVSPropertyOp31
 70
     1
102
RTVSPropertyOp32
 70
     1
102
RTVSPropertyOp33
 70
     1
102
RTVSPropertyOp34
 70
     1
102
RTVSPropertyOp35
 70
     1
102
RTVSPropertyOp36
 70
     1
102
RTVSPropertyOp37
 70
     1
102
RTVSPropertyOp38
 70
     1
102
RTVSPropertyOp39
 70
     1
102
RTVSPropertyOp40
 70
     1
102
RTVSPropertyOp41
 70
     1
102
RTVSPropertyOp42
 70
     1
102
RTVSPropertyOp43
 70
     1
102
RTVSPropertyOp44
 70
     1
102
RTVSPropertyOp45
 70
     1
102
RTVSPropertyOp46
 70
     1
102
RTVSPropertyOp47
 70
     1
102
RTVSPropertyOp48
 70
     1
102
RTVSPropertyOp49
 70
     1
102
RTVSPropertyOp50
 70
     1
102
RTVSPropertyOp51
 70
     0
102
RTVSPropertyOp52
 70
     0
102
RTVSPropertyOp53
 70
     1
102
RTVSPropertyOp54
 70
     1
102
RTVSPropertyOp55
 70
     1
102
RTVSPropertyOp56
 70
     1
102
RTVSPropertyOp57
 70
     1
102
RTVSPost2010Prop28
280
     0
102
RTVSPost2010PropOp28
 70
     1
102
RTVSPost2010Prop29
280
     1
102
RTVSPost2010PropOp29
 70
     1
102
RTVSPost2010Prop30
280
     1
102
RTVSPost2010PropOp30
 70
     1
102
RTVSPost2010Prop31
280
     0
102
RTVSPost2010PropOp31
 70
     1
102
RTVSPost2010Prop32
280
     0
102
RTVSPost2010PropOp32
 70
     1
102
RTVSPost2010Prop33
280
     0
102
RTVSPost2010PropOp33
 70
     1
102
RTVSPost2010Prop34
280
     0
102
RTVSPost2010PropOp34
 70
     1
102
RTVSPost2010Prop35
280
     0
102
RTVSPost2010PropOp35
 70
     1
102
RTVSPost2010Prop36
280
     0
102
RTVSPost2010PropOp36
 70
     1
102
RTVSPost2010Prop37
 90
       50
102
RTVSPost2010PropOp37
 70
     1
102
RTVSPost2010Prop38
140
0.0
102
RTVSPost2010PropOp38
 70
     1
102
RTVSPost2010Prop39
140
1.0
102
RTVSPost2010PropOp39
 70
     1
102
RTVSPost2010Prop40
 90
        0
102
RTVSPost2010PropOp40
 70
     1
102
RTVSPost2010Prop41ColorIndex
 90
       18
102
RTVSPost2010Prop41ColorRGB
 90
        0
102
RTVSPost2010PropOp41
 70
     1
102
RTVSPost2010Prop42
 90
       50
102
RTVSPost2010PropOp42
 70
     1
102
RTVSPost2010Prop43
 90
        3
102
RTVSPost2010PropOp43
 70
     1
102
RTVSPost2010Prop44ColorIndex
 90
        5
102
RTVSPost2010Prop44ColorRGB
 90
      255
102
RTVSPost2010PropOp44
 70
     1
102
RTVSPost2010Prop45
280
     0
102
RTVSPost2010PropOp45
 70
     1
102
RTVSPost2010Prop46
 90
       50
102
RTVSPost2010PropOp46
 70
     1
102
RTVSPost2010Prop47
 90
       50
102
RTVSPost2010PropOp47
 70
     1
102
RTVSPost2010Prop48
 90
       50
102
RTVSPost2010PropOp48
 70
     1
102
RTVSPost2010Prop49
280
     0
102
RTVSPost2010PropOp49
 70
     1
102
RTVSPost2010Prop50
 90
       50
102
RTVSPost2010PropOp50
 70
     1
102
RTVSPost2010Prop51ColorIndex
 90
      256
102
RTVSPost2010Prop51ColorRGB
 90
-16777216
102
RTVSPost2010PropOp51
 70
     0
102
RTVSPost2010Prop52
140
1.0
102
RTVSPost2010PropOp52
 70
     0
102
RTVSPost2010Prop53
 90
        2
102
RTVSPost2010PropOp53
 70
     1
102
RTVSPost2010Prop54
  1
strokes_ogs.tif
102
RTVSPost2010PropOp54
 70
     1
102
RTVSPost2010Prop55
280
     0
102
RTVSPost2010PropOp55
 70
     1
102
RTVSPost2010Prop56
140
1.0
102
RTVSPost2010PropOp56
 70
     1
102
RTVSPost2010Prop57
140
1.0
102
RTVSPost2010PropOp57
 70
     1
  0
XRECORD
  5
214
102
{ACAD_REACTORS
330
213
102
}
330
213
100
AcDbXrecord
280
     1
102
RTVSPropertyOp0
 70
     1
102
RTVSPropertyOp1
 70
     1
102
RTVSPropertyOp2
 70
     1
102
RTVSPropertyOp3
 70
     1
102
RTVSPropertyOp4
 70
     1
102
RTVSPropertyOp5
 70
     1
102
RTVSPropertyOp6
 70
     1
102
RTVSPropertyOp7
 70
     1
102
RTVSPropertyOp8
 70
     1
102
RTVSPropertyOp9
 70
     1
102
RTVSPropertyOp10
 70
     1
102
RTVSPropertyOp11
 70
     1
102
RTVSPropertyOp12
 70
     1
102
RTVSPropertyOp13
 70
     1
102
RTVSPropertyOp14
 70
     1
102
RTVSPropertyOp15
 70
     1
102
RTVSPropertyOp16
 70
     1
102
RTVSPropertyOp17
 70
     1
102
RTVSPropertyOp18
 70
     1
102
RTVSPropertyOp19
 70
     1
102
RTVSPropertyOp20
 70
     1
102
RTVSPropertyOp21
 70
     1
102
RTVSPropertyOp22
 70
     1
102
RTVSPropertyOp23
 70
     1
102
RTVSPropertyOp24
 70
     1
102
RTVSPropertyOp25
 70
     1
102
RTVSPropertyOp26
 70
     1
102
RTVSPropertyOp27
 70
     1
102
RTVSPropertyOp28
 70
     1
102
RTVSPropertyOp29
 70
     1
102
RTVSPropertyOp30
 70
     1
102
RTVSPropertyOp31
 70
     1
102
RTVSPropertyOp32
 70
     1
102
RTVSPropertyOp33
 70
     1
102
RTVSPropertyOp34
 70
     1
102
RTVSPropertyOp35
 70
     1
102
RTVSPropertyOp36
 70
     1
102
RTVSPropertyOp37
 70
     1
102
RTVSPropertyOp38
 70
     1
102
RTVSPropertyOp39
 70
     1
102
RTVSPropertyOp40
 70
     1
102
RTVSPropertyOp41
 70
     1
102
RTVSPropertyOp42
 70
     1
102
RTVSPropertyOp43
 70
     1
102
RTVSPropertyOp44
 70
     1
102
RTVSPropertyOp45
 70
     1
102
RTVSPropertyOp46
 70
     1
102
RTVSPropertyOp47
 70
     1
102
RTVSPropertyOp48
 70
     1
102
RTVSPropertyOp49
 70
     1
102
RTVSPropertyOp50
 70
     1
102
RTVSPropertyOp51
 70
     0
102
RTVSPropertyOp52
 70
     0
102
RTVSPropertyOp53
 70
     1
102
RTVSPropertyOp54
 70
     1
102
RTVSPropertyOp55
 70
     1
102
RTVSPropertyOp56
 70
     1
102
RTVSPropertyOp57
 70
     1
102
RTVSPost2010Prop28
280
     0
102
RTVSPost2010PropOp28
 70
     1
102
RTVSPost2010Prop29
280
     1
102
RTVSPost2010PropOp29
 70
     1
102
RTVSPost2010Prop30
280
     1
102
RTVSPost2010PropOp30
 70
     1
102
RTVSPost2010Prop31
280
     0
102
RTVSPost2010PropOp31
 70
     1
102
RTVSPost2010Prop32
280
     0
102
RTVSPost2010PropOp32
 70
     1
102
RTVSPost2010Prop33
280
     0
102
RTVSPost2010PropOp33
 70
     1
102
RTVSPost2010Prop34
280
     0
102
RTVSPost2010PropOp34
 70
     1
102
RTVSPost2010Prop35
280
     0
102
RTVSPost2010PropOp35
 70
     1
102
RTVSPost2010Prop36
280
     0
102
RTVSPost2010PropOp36
 70
     1
102
RTVSPost2010Prop37
 90
       50
102
RTVSPost2010PropOp37
 70
     1
102
RTVSPost2010Prop38
140
0.0
102
RTVSPost2010PropOp38
 70
     1
102
RTVSPost2010Prop39
140
1.0
102
RTVSPost2010PropOp39
 70
     1
102
RTVSPost2010Prop40
 90
        0
102
RTVSPost2010PropOp40
 70
     1
102
RTVSPost2010Prop41ColorIndex
 90
       18
102
RTVSPost2010Prop41ColorRGB
 90
        0
102
RTVSPost2010PropOp41
 70
     1
102
RTVSPost2010Prop42
 90
       50
102
RTVSPost2010PropOp42
 70
     1
102
RTVSPost2010Prop43
 90
        3
102
RTVSPost2010PropOp43
 70
     1
102
RTVSPost2010Prop44ColorIndex
 90
        5
102
RTVSPost2010Prop44ColorRGB
 90
      255
102
RTVSPost2010PropOp44
 70
     1
102
RTVSPost2010Prop45
280
     0
102
RTVSPost2010PropOp45
 70
     1
102
RTVSPost2010Prop46
 90
       50
102
RTVSPost2010PropOp46
 70
     1
102
RTVSPost2010Prop47
 90
       50
102
RTVSPost2010PropOp47
 70
     1
102
RTVSPost2010Prop48
 90
       50
102
RTVSPost2010PropOp48
 70
     1
102
RTVSPost2010Prop49
280
     0
102
RTVSPost2010PropOp49
 70
     1
102
RTVSPost2010Prop50
 90
       50
102
RTVSPost2010PropOp50
 70
     1
102
RTVSPost2010Prop51ColorIndex
 90
      256
102
RTVSPost2010Prop51ColorRGB
 90
-16777216
102
RTVSPost2010PropOp51
 70
     0
102
RTVSPost2010Prop52
140
1.0
102
RTVSPost2010PropOp52
 70
     0
102
RTVSPost2010Prop53
 90
        2
102
RTVSPost2010PropOp53
 70
     1
102
RTVSPost2010Prop54
  1
strokes_ogs.tif
102
RTVSPost2010PropOp54
 70
     1
102
RTVSPost2010Prop55
280
     0
102
RTVSPost2010PropOp55
 70
     1
102
RTVSPost2010Prop56
140
1.0
102
RTVSPost2010PropOp56
 70
     1
102
RTVSPost2010Prop57
140
1.0
102
RTVSPost2010PropOp57
 70
     1
  0
XRECORD
  5
216
102
{ACAD_REACTORS
330
215
102
}
330
215
100
AcDbXrecord
280
     1
102
RTVSPropertyOp0
 70
     1
102
RTVSPropertyOp1
 70
     1
102
RTVSPropertyOp2
 70
     1
102
RTVSPropertyOp3
 70
     1
102
RTVSPropertyOp4
 70
     1
102
RTVSPropertyOp5
 70
     1
102
RTVSPropertyOp6
 70
     1
102
RTVSPropertyOp7
 70
     1
102
RTVSPropertyOp8
 70
     1
102
RTVSPropertyOp9
 70
     1
102
RTVSPropertyOp10
 70
     1
102
RTVSPropertyOp11
 70
     1
102
RTVSPropertyOp12
 70
     1
102
RTVSPropertyOp13
 70
     1
102
RTVSPropertyOp14
 70
     1
102
RTVSPropertyOp15
 70
     1
102
RTVSPropertyOp16
 70
     1
102
RTVSPropertyOp17
 70
     1
102
RTVSPropertyOp18
 70
     1
102
RTVSPropertyOp19
 70
     1
102
RTVSPropertyOp20
 70
     1
102
RTVSPropertyOp21
 70
     1
102
RTVSPropertyOp22
 70
     1
102
RTVSPropertyOp23
 70
     1
102
RTVSPropertyOp24
 70
     1
102
RTVSPropertyOp25
 70
     1
102
RTVSPropertyOp26
 70
     1
102
RTVSPropertyOp27
 70
     1
102
RTVSPropertyOp28
 70
     1
102
RTVSPropertyOp29
 70
     1
102
RTVSPropertyOp30
 70
     1
102
RTVSPropertyOp31
 70
     1
102
RTVSPropertyOp32
 70
     1
102
RTVSPropertyOp33
 70
     1
102
RTVSPropertyOp34
 70
     1
102
RTVSPropertyOp35
 70
     1
102
RTVSPropertyOp36
 70
     1
102
RTVSPropertyOp37
 70
     1
102
RTVSPropertyOp38
 70
     1
102
RTVSPropertyOp39
 70
     1
102
RTVSPropertyOp40
 70
     1
102
RTVSPropertyOp41
 70
     1
102
RTVSPropertyOp42
 70
     1
102
RTVSPropertyOp43
 70
     1
102
RTVSPropertyOp44
 70
     1
102
RTVSPropertyOp45
 70
     1
102
RTVSPropertyOp46
 70
     1
102
RTVSPropertyOp47
 70
     1
102
RTVSPropertyOp48
 70
     1
102
RTVSPropertyOp49
 70
     1
102
RTVSPropertyOp50
 70
     1
102
RTVSPropertyOp51
 70
     0
102
RTVSPropertyOp52
 70
     0
102
RTVSPropertyOp53
 70
     1
102
RTVSPropertyOp54
 70
     1
102
RTVSPropertyOp55
 70
     1
102
RTVSPropertyOp56
 70
     1
102
RTVSPropertyOp57
 70
     1
102
RTVSPost2010Prop28
280
     0
102
RTVSPost2010PropOp28
 70
     1
102
RTVSPost2010Prop29
280
     1
102
RTVSPost2010PropOp29
 70
     1
102
RTVSPost2010Prop30
280
     1
102
RTVSPost2010PropOp30
 70
     1
102
RTVSPost2010Prop31
280
     0
102
RTVSPost2010PropOp31
 70
     1
102
RTVSPost2010Prop32
280
     0
102
RTVSPost2010PropOp32
 70
     1
102
RTVSPost2010Prop33
280
     0
102
RTVSPost2010PropOp33
 70
     1
102
RTVSPost2010Prop34
280
     0
102
RTVSPost2010PropOp34
 70
     1
102
RTVSPost2010Prop35
280
     0
102
RTVSPost2010PropOp35
 70
     1
102
RTVSPost2010Prop36
280
     0
102
RTVSPost2010PropOp36
 70
     1
102
RTVSPost2010Prop37
 90
       50
102
RTVSPost2010PropOp37
 70
     1
102
RTVSPost2010Prop38
140
0.0
102
RTVSPost2010PropOp38
 70
     1
102
RTVSPost2010Prop39
140
1.0
102
RTVSPost2010PropOp39
 70
     1
102
RTVSPost2010Prop40
 90
        0
102
RTVSPost2010PropOp40
 70
     1
102
RTVSPost2010Prop41ColorIndex
 90
       18
102
RTVSPost2010Prop41ColorRGB
 90
        0
102
RTVSPost2010PropOp41
 70
     1
102
RTVSPost2010Prop42
 90
       50
102
RTVSPost2010PropOp42
 70
     1
102
RTVSPost2010Prop43
 90
        3
102
RTVSPost2010PropOp43
 70
     1
102
RTVSPost2010Prop44ColorIndex
 90
        5
102
RTVSPost2010Prop44ColorRGB
 90
      255
102
RTVSPost2010PropOp44
 70
     1
102
RTVSPost2010Prop45
280
     0
102
RTVSPost2010PropOp45
 70
     1
102
RTVSPost2010Prop46
 90
       50
102
RTVSPost2010PropOp46
 70
     1
102
RTVSPost2010Prop47
 90
       50
102
RTVSPost2010PropOp47
 70
     1
102
RTVSPost2010Prop48
 90
       50
102
RTVSPost2010PropOp48
 70
     1
102
RTVSPost2010Prop49
280
     0
102
RTVSPost2010PropOp49
 70
     1
102
RTVSPost2010Prop50
 90
       50
102
RTVSPost2010PropOp50
 70
     1
102
RTVSPost2010Prop51ColorIndex
 90
      256
102
RTVSPost2010Prop51ColorRGB
 90
-16777216
102
RTVSPost2010PropOp51
 70
     0
102
RTVSPost2010Prop52
140
1.0
102
RTVSPost2010PropOp52
 70
     0
102
RTVSPost2010Prop53
 90
        2
102
RTVSPost2010PropOp53
 70
     1
102
RTVSPost2010Prop54
  1
strokes_ogs.tif
102
RTVSPost2010PropOp54
 70
     1
102
RTVSPost2010Prop55
280
     0
102
RTVSPost2010PropOp55
 70
     1
102
RTVSPost2010Prop56
140
1.0
102
RTVSPost2010PropOp56
 70
     1
102
RTVSPost2010Prop57
140
1.0
102
RTVSPost2010PropOp57
 70
     1
  0
XRECORD
  5
21C
102
{ACAD_REACTORS
330
21B
102
}
330
21B
100
AcDbXrecord
280
     1
102
RTVSPropertyOp0
 70
     1
102
RTVSPropertyOp1
 70
     1
102
RTVSPropertyOp2
 70
     1
102
RTVSPropertyOp3
 70
     1
102
RTVSPropertyOp4
 70
     1
102
RTVSPropertyOp5
 70
     1
102
RTVSPropertyOp6
 70
     1
102
RTVSPropertyOp7
 70
     1
102
RTVSPropertyOp8
 70
     1
102
RTVSPropertyOp9
 70
     1
102
RTVSPropertyOp10
 70
     1
102
RTVSPropertyOp11
 70
     1
102
RTVSPropertyOp12
 70
     1
102
RTVSPropertyOp13
 70
     1
102
RTVSPropertyOp14
 70
     1
102
RTVSPropertyOp15
 70
     1
102
RTVSPropertyOp16
 70
     1
102
RTVSPropertyOp17
 70
     1
102
RTVSPropertyOp18
 70
     1
102
RTVSPropertyOp19
 70
     1
102
RTVSPropertyOp20
 70
     1
102
RTVSPropertyOp21
 70
     1
102
RTVSPropertyOp22
 70
     1
102
RTVSPropertyOp23
 70
     1
102
RTVSPropertyOp24
 70
     1
102
RTVSPropertyOp25
 70
     1
102
RTVSPropertyOp26
 70
     1
102
RTVSPropertyOp27
 70
     1
102
RTVSPropertyOp28
 70
     1
102
RTVSPropertyOp29
 70
     1
102
RTVSPropertyOp30
 70
     1
102
RTVSPropertyOp31
 70
     1
102
RTVSPropertyOp32
 70
     1
102
RTVSPropertyOp33
 70
     1
102
RTVSPropertyOp34
 70
     1
102
RTVSPropertyOp35
 70
     1
102
RTVSPropertyOp36
 70
     1
102
RTVSPropertyOp37
 70
     1
102
RTVSPropertyOp38
 70
     1
102
RTVSPropertyOp39
 70
     1
102
RTVSPropertyOp40
 70
     1
102
RTVSPropertyOp41
 70
     1
102
RTVSPropertyOp42
 70
     1
102
RTVSPropertyOp43
 70
     1
102
RTVSPropertyOp44
 70
     1
102
RTVSPropertyOp45
 70
     1
102
RTVSPropertyOp46
 70
     1
102
RTVSPropertyOp47
 70
     1
102
RTVSPropertyOp48
 70
     1
102
RTVSPropertyOp49
 70
     1
102
RTVSPropertyOp50
 70
     1
102
RTVSPropertyOp51
 70
     0
102
RTVSPropertyOp52
 70
     0
102
RTVSPropertyOp53
 70
     1
102
RTVSPropertyOp54
 70
     1
102
RTVSPropertyOp55
 70
     1
102
RTVSPropertyOp56
 70
     1
102
RTVSPropertyOp57
 70
     1
102
RTVSPost2010Prop28
280
     0
102
RTVSPost2010PropOp28
 70
     1
102
RTVSPost2010Prop29
280
     1
102
RTVSPost2010PropOp29
 70
     1
102
RTVSPost2010Prop30
280
     1
102
RTVSPost2010PropOp30
 70
     1
102
RTVSPost2010Prop31
280
     0
102
RTVSPost2010PropOp31
 70
     1
102
RTVSPost2010Prop32
280
     0
102
RTVSPost2010PropOp32
 70
     1
102
RTVSPost2010Prop33
280
     0
102
RTVSPost2010PropOp33
 70
     1
102
RTVSPost2010Prop34
280
     0
102
RTVSPost2010PropOp34
 70
     1
102
RTVSPost2010Prop35
280
     0
102
RTVSPost2010PropOp35
 70
     1
102
RTVSPost2010Prop36
280
     0
102
RTVSPost2010PropOp36
 70
     1
102
RTVSPost2010Prop37
 90
       50
102
RTVSPost2010PropOp37
 70
     1
102
RTVSPost2010Prop38
140
0.0
102
RTVSPost2010PropOp38
 70
     1
102
RTVSPost2010Prop39
140
1.0
102
RTVSPost2010PropOp39
 70
     1
102
RTVSPost2010Prop40
 90
        0
102
RTVSPost2010PropOp40
 70
     1
102
RTVSPost2010Prop41ColorIndex
 90
       18
102
RTVSPost2010Prop41ColorRGB
 90
        0
102
RTVSPost2010PropOp41
 70
     1
102
RTVSPost2010Prop42
 90
       50
102
RTVSPost2010PropOp42
 70
     1
102
RTVSPost2010Prop43
 90
        3
102
RTVSPost2010PropOp43
 70
     1
102
RTVSPost2010Prop44ColorIndex
 90
        5
102
RTVSPost2010Prop44ColorRGB
 90
      255
102
RTVSPost2010PropOp44
 70
     1
102
RTVSPost2010Prop45
280
     0
102
RTVSPost2010PropOp45
 70
     1
102
RTVSPost2010Prop46
 90
       50
102
RTVSPost2010PropOp46
 70
     1
102
RTVSPost2010Prop47
 90
       50
102
RTVSPost2010PropOp47
 70
     1
102
RTVSPost2010Prop48
 90
       50
102
RTVSPost2010PropOp48
 70
     1
102
RTVSPost2010Prop49
280
     0
102
RTVSPost2010PropOp49
 70
     1
102
RTVSPost2010Prop50
 90
       50
102
RTVSPost2010PropOp50
 70
     1
102
RTVSPost2010Prop51ColorIndex
 90
      256
102
RTVSPost2010Prop51ColorRGB
 90
-16777216
102
RTVSPost2010PropOp51
 70
     0
102
RTVSPost2010Prop52
140
1.0
102
RTVSPost2010PropOp52
 70
     0
102
RTVSPost2010Prop53
 90
        2
102
RTVSPost2010PropOp53
 70
     1
102
RTVSPost2010Prop54
  1
strokes_ogs.tif
102
RTVSPost2010PropOp54
 70
     1
102
RTVSPost2010Prop55
280
     0
102
RTVSPost2010PropOp55
 70
     1
102
RTVSPost2010Prop56
140
1.0
102
RTVSPost2010PropOp56
 70
     1
102
RTVSPost2010Prop57
140
1.0
102
RTVSPost2010PropOp57
 70
     1
  0
XRECORD
  5
230
102
{ACAD_REACTORS
330
22F
102
}
330
22F
100
AcDbXrecord
280
     1
102
RTVSPropertyOp0
 70
     0
102
RTVSPropertyOp1
 70
     0
102
RTVSPropertyOp2
 70
     0
102
RTVSPropertyOp3
 70
     0
102
RTVSPropertyOp4
 70
     0
102
RTVSPropertyOp5
 70
     0
102
RTVSPropertyOp6
 70
     0
102
RTVSPropertyOp7
 70
     0
102
RTVSPropertyOp8
 70
     0
102
RTVSPropertyOp9
 70
     0
102
RTVSPropertyOp10
 70
     0
102
RTVSPropertyOp11
 70
     0
102
RTVSPropertyOp12
 70
     0
102
RTVSPropertyOp13
 70
     0
102
RTVSPropertyOp14
 70
     2
102
RTVSPropertyOp15
 70
     0
102
RTVSPropertyOp16
 70
     0
102
RTVSPropertyOp17
 70
     0
102
RTVSPropertyOp18
 70
     0
102
RTVSPropertyOp19
 70
     0
102
RTVSPropertyOp20
 70
     0
102
RTVSPropertyOp21
 70
     0
102
RTVSPropertyOp22
 70
     0
102
RTVSPropertyOp23
 70
     0
102
RTVSPropertyOp24
 70
     0
102
RTVSPropertyOp25
 70
     0
102
RTVSPropertyOp26
 70
     0
102
RTVSPropertyOp27
 70
     0
102
RTVSPropertyOp28
 70
     0
102
RTVSPropertyOp29
 70
     0
102
RTVSPropertyOp30
 70
     0
102
RTVSPropertyOp31
 70
     0
102
RTVSPropertyOp32
 70
     0
102
RTVSPropertyOp33
 70
     0
102
RTVSPropertyOp34
 70
     0
102
RTVSPropertyOp35
 70
     0
102
RTVSPropertyOp36
 70
     0
102
RTVSPropertyOp37
 70
     0
102
RTVSPropertyOp38
 70
     0
102
RTVSPropertyOp39
 70
     0
102
RTVSPropertyOp40
 70
     0
102
RTVSPropertyOp41
 70
     0
102
RTVSPropertyOp42
 70
     0
102
RTVSPropertyOp43
 70
     0
102
RTVSPropertyOp44
 70
     0
102
RTVSPropertyOp45
 70
     0
102
RTVSPropertyOp46
 70
     0
102
RTVSPropertyOp47
 70
     0
102
RTVSPropertyOp48
 70
     0
102
RTVSPropertyOp49
 70
     0
102
RTVSPropertyOp50
 70
     0
102
RTVSPropertyOp51
 70
     0
102
RTVSPropertyOp52
 70
     0
102
RTVSPropertyOp53
 70
     0
102
RTVSPropertyOp54
 70
     0
102
RTVSPropertyOp55
 70
     0
102
RTVSPropertyOp56
 70
     0
102
RTVSPropertyOp57
 70
     0
102
RTVSPost2010Prop28
280
     0
102
RTVSPost2010PropOp28
 70
     0
102
RTVSPost2010Prop29
280
     1
102
RTVSPost2010PropOp29
 70
     0
102
RTVSPost2010Prop30
280
     1
102
RTVSPost2010PropOp30
 70
     0
102
RTVSPost2010Prop31
280
     0
102
RTVSPost2010PropOp31
 70
     0
102
RTVSPost2010Prop32
280
     0
102
RTVSPost2010PropOp32
 70
     0
102
RTVSPost2010Prop33
280
     0
102
RTVSPost2010PropOp33
 70
     0
102
RTVSPost2010Prop34
280
     0
102
RTVSPost2010PropOp34
 70
     0
102
RTVSPost2010Prop35
280
     0
102
RTVSPost2010PropOp35
 70
     0
102
RTVSPost2010Prop36
280
     0
102
RTVSPost2010PropOp36
 70
     0
102
RTVSPost2010Prop37
 90
       50
102
RTVSPost2010PropOp37
 70
     0
102
RTVSPost2010Prop38
140
0.0
102
RTVSPost2010PropOp38
 70
     0
102
RTVSPost2010Prop39
140
1.0
102
RTVSPost2010PropOp39
 70
     0
102
RTVSPost2010Prop40
 90
        0
102
RTVSPost2010PropOp40
 70
     0
102
RTVSPost2010Prop41ColorIndex
 90
       18
102
RTVSPost2010Prop41ColorRGB
 90
        0
102
RTVSPost2010PropOp41
 70
     0
102
RTVSPost2010Prop42
 90
       50
102
RTVSPost2010PropOp42
 70
     0
102
RTVSPost2010Prop43
 90
        3
102
RTVSPost2010PropOp43
 70
     0
102
RTVSPost2010Prop44ColorIndex
 90
        5
102
RTVSPost2010Prop44ColorRGB
 90
      255
102
RTVSPost2010PropOp44
 70
     0
102
RTVSPost2010Prop45
280
     0
102
RTVSPost2010PropOp45
 70
     0
102
RTVSPost2010Prop46
 90
       50
102
RTVSPost2010PropOp46
 70
     0
102
RTVSPost2010Prop47
 90
       50
102
RTVSPost2010PropOp47
 70
     0
102
RTVSPost2010Prop48
 90
       50
102
RTVSPost2010PropOp48
 70
     0
102
RTVSPost2010Prop49
280
     0
102
RTVSPost2010PropOp49
 70
     0
102
RTVSPost2010Prop50
 90
       50
102
RTVSPost2010PropOp50
 70
     0
102
RTVSPost2010Prop51ColorIndex
 90
      256
102
RTVSPost2010Prop51ColorRGB
 90
-16777216
102
RTVSPost2010PropOp51
 70
     0
102
RTVSPost2010Prop52
140
1.0
102
RTVSPost2010PropOp52
 70
     0
102
RTVSPost2010Prop53
 90
        2
102
RTVSPost2010PropOp53
 70
     0
102
RTVSPost2010Prop54
  1
strokes_ogs.tif
102
RTVSPost2010PropOp54
 70
     0
102
RTVSPost2010Prop55
280
     0
102
RTVSPost2010PropOp55
 70
     0
102
RTVSPost2010Prop56
140
1.0
102
RTVSPost2010PropOp56
 70
     0
102
RTVSPost2010Prop57
140
1.0
102
RTVSPost2010PropOp57
 70
     0
  0
XRECORD
  5
22A
102
{ACAD_REACTORS
330
229
102
}
330
229
100
AcDbXrecord
280
     1
102
RTVSPropertyOp0
 70
     1
102
RTVSPropertyOp1
 70
     1
102
RTVSPropertyOp2
 70
     1
102
RTVSPropertyOp3
 70
     1
102
RTVSPropertyOp4
 70
     1
102
RTVSPropertyOp5
 70
     1
102
RTVSPropertyOp6
 70
     1
102
RTVSPropertyOp7
 70
     1
102
RTVSPropertyOp8
 70
     1
102
RTVSPropertyOp9
 70
     1
102
RTVSPropertyOp10
 70
     1
102
RTVSPropertyOp11
 70
     1
102
RTVSPropertyOp12
 70
     1
102
RTVSPropertyOp13
 70
     1
102
RTVSPropertyOp14
 70
     1
102
RTVSPropertyOp15
 70
     1
102
RTVSPropertyOp16
 70
     1
102
RTVSPropertyOp17
 70
     1
102
RTVSPropertyOp18
 70
     1
102
RTVSPropertyOp19
 70
     1
102
RTVSPropertyOp20
 70
     1
102
RTVSPropertyOp21
 70
     1
102
RTVSPropertyOp22
 70
     1
102
RTVSPropertyOp23
 70
     1
102
RTVSPropertyOp24
 70
     1
102
RTVSPropertyOp25
 70
     1
102
RTVSPropertyOp26
 70
     1
102
RTVSPropertyOp27
 70
     1
102
RTVSPropertyOp28
 70
     1
102
RTVSPropertyOp29
 70
     1
102
RTVSPropertyOp30
 70
     1
102
RTVSPropertyOp31
 70
     1
102
RTVSPropertyOp32
 70
     1
102
RTVSPropertyOp33
 70
     1
102
RTVSPropertyOp34
 70
     1
102
RTVSPropertyOp35
 70
     1
102
RTVSPropertyOp36
 70
     1
102
RTVSPropertyOp37
 70
     1
102
RTVSPropertyOp38
 70
     1
102
RTVSPropertyOp39
 70
     1
102
RTVSPropertyOp40
 70
     1
102
RTVSPropertyOp41
 70
     1
102
RTVSPropertyOp42
 70
     1
102
RTVSPropertyOp43
 70
     1
102
RTVSPropertyOp44
 70
     1
102
RTVSPropertyOp45
 70
     1
102
RTVSPropertyOp46
 70
     1
102
RTVSPropertyOp47
 70
     1
102
RTVSPropertyOp48
 70
     1
102
RTVSPropertyOp49
 70
     1
102
RTVSPropertyOp50
 70
     1
102
RTVSPropertyOp51
 70
     0
102
RTVSPropertyOp52
 70
     0
102
RTVSPropertyOp53
 70
     1
102
RTVSPropertyOp54
 70
     1
102
RTVSPropertyOp55
 70
     1
102
RTVSPropertyOp56
 70
     1
102
RTVSPropertyOp57
 70
     1
102
RTVSPost2010Prop28
280
     0
102
RTVSPost2010PropOp28
 70
     1
102
RTVSPost2010Prop29
280
     1
102
RTVSPost2010PropOp29
 70
     1
102
RTVSPost2010Prop30
280
     1
102
RTVSPost2010PropOp30
 70
     1
102
RTVSPost2010Prop31
280
     0
102
RTVSPost2010PropOp31
 70
     1
102
RTVSPost2010Prop32
280
     0
102
RTVSPost2010PropOp32
 70
     1
102
RTVSPost2010Prop33
280
     0
102
RTVSPost2010PropOp33
 70
     1
102
RTVSPost2010Prop34
280
     0
102
RTVSPost2010PropOp34
 70
     1
102
RTVSPost2010Prop35
280
     0
102
RTVSPost2010PropOp35
 70
     1
102
RTVSPost2010Prop36
280
     0
102
RTVSPost2010PropOp36
 70
     1
102
RTVSPost2010Prop37
 90
       50
102
RTVSPost2010PropOp37
 70
     1
102
RTVSPost2010Prop38
140
0.0
102
RTVSPost2010PropOp38
 70
     1
102
RTVSPost2010Prop39
140
1.0
102
RTVSPost2010PropOp39
 70
     1
102
RTVSPost2010Prop40
 90
        0
102
RTVSPost2010PropOp40
 70
     1
102
RTVSPost2010Prop41ColorIndex
 90
       18
102
RTVSPost2010Prop41ColorRGB
 90
        0
102
RTVSPost2010PropOp41
 70
     1
102
RTVSPost2010Prop42
 90
       50
102
RTVSPost2010PropOp42
 70
     1
102
RTVSPost2010Prop43
 90
        3
102
RTVSPost2010PropOp43
 70
     1
102
RTVSPost2010Prop44ColorIndex
 90
        5
102
RTVSPost2010Prop44ColorRGB
 90
      255
102
RTVSPost2010PropOp44
 70
     1
102
RTVSPost2010Prop45
280
     0
102
RTVSPost2010PropOp45
 70
     1
102
RTVSPost2010Prop46
 90
       50
102
RTVSPost2010PropOp46
 70
     1
102
RTVSPost2010Prop47
 90
       50
102
RTVSPost2010PropOp47
 70
     1
102
RTVSPost2010Prop48
 90
       50
102
RTVSPost2010PropOp48
 70
     1
102
RTVSPost2010Prop49
280
     0
102
RTVSPost2010PropOp49
 70
     1
102
RTVSPost2010Prop50
 90
       50
102
RTVSPost2010PropOp50
 70
     1
102
RTVSPost2010Prop51ColorIndex
 90
      256
102
RTVSPost2010Prop51ColorRGB
 90
-16777216
102
RTVSPost2010PropOp51
 70
     0
102
RTVSPost2010Prop52
140
1.0
102
RTVSPost2010PropOp52
 70
     0
102
RTVSPost2010Prop53
 90
        2
102
RTVSPost2010PropOp53
 70
     1
102
RTVSPost2010Prop54
  1
strokes_ogs.tif
102
RTVSPost2010PropOp54
 70
     1
102
RTVSPost2010Prop55
280
     0
102
RTVSPost2010PropOp55
 70
     1
102
RTVSPost2010Prop56
140
1.0
102
RTVSPost2010PropOp56
 70
     1
102
RTVSPost2010Prop57
140
1.0
102
RTVSPost2010PropOp57
 70
     1
  0
XRECORD
  5
232
102
{ACAD_REACTORS
330
231
102
}
330
231
100
AcDbXrecord
280
     1
102
RTVSPropertyOp0
 70
     0
102
RTVSPropertyOp1
 70
     0
102
RTVSPropertyOp2
 70
     0
102
RTVSPropertyOp3
 70
     0
102
RTVSPropertyOp4
 70
     0
102
RTVSPropertyOp5
 70
     0
102
RTVSPropertyOp6
 70
     0
102
RTVSPropertyOp7
 70
     0
102
RTVSPropertyOp8
 70
     0
102
RTVSPropertyOp9
 70
     0
102
RTVSPropertyOp10
 70
     0
102
RTVSPropertyOp11
 70
     0
102
RTVSPropertyOp12
 70
     0
102
RTVSPropertyOp13
 70
     0
102
RTVSPropertyOp14
 70
     2
102
RTVSPropertyOp15
 70
     0
102
RTVSPropertyOp16
 70
     0
102
RTVSPropertyOp17
 70
     0
102
RTVSPropertyOp18
 70
     0
102
RTVSPropertyOp19
 70
     0
102
RTVSPropertyOp20
 70
     0
102
RTVSPropertyOp21
 70
     0
102
RTVSPropertyOp22
 70
     0
102
RTVSPropertyOp23
 70
     0
102
RTVSPropertyOp24
 70
     0
102
RTVSPropertyOp25
 70
     0
102
RTVSPropertyOp26
 70
     0
102
RTVSPropertyOp27
 70
     0
102
RTVSPropertyOp28
 70
     0
102
RTVSPropertyOp29
 70
     0
102
RTVSPropertyOp30
 70
     0
102
RTVSPropertyOp31
 70
     0
102
RTVSPropertyOp32
 70
     0
102
RTVSPropertyOp33
 70
     0
102
RTVSPropertyOp34
 70
     0
102
RTVSPropertyOp35
 70
     0
102
RTVSPropertyOp36
 70
     0
102
RTVSPropertyOp37
 70
     0
102
RTVSPropertyOp38
 70
     0
102
RTVSPropertyOp39
 70
     0
102
RTVSPropertyOp40
 70
     0
102
RTVSPropertyOp41
 70
     0
102
RTVSPropertyOp42
 70
     0
102
RTVSPropertyOp43
 70
     0
102
RTVSPropertyOp44
 70
     0
102
RTVSPropertyOp45
 70
     0
102
RTVSPropertyOp46
 70
     0
102
RTVSPropertyOp47
 70
     0
102
RTVSPropertyOp48
 70
     0
102
RTVSPropertyOp49
 70
     0
102
RTVSPropertyOp50
 70
     0
102
RTVSPropertyOp51
 70
     0
102
RTVSPropertyOp52
 70
     0
102
RTVSPropertyOp53
 70
     0
102
RTVSPropertyOp54
 70
     0
102
RTVSPropertyOp55
 70
     0
102
RTVSPropertyOp56
 70
     0
102
RTVSPropertyOp57
 70
     0
102
RTVSPost2010Prop28
280
     0
102
RTVSPost2010PropOp28
 70
     0
102
RTVSPost2010Prop29
280
     1
102
RTVSPost2010PropOp29
 70
     0
102
RTVSPost2010Prop30
280
     1
102
RTVSPost2010PropOp30
 70
     0
102
RTVSPost2010Prop31
280
     0
102
RTVSPost2010PropOp31
 70
     0
102
RTVSPost2010Prop32
280
     0
102
RTVSPost2010PropOp32
 70
     0
102
RTVSPost2010Prop33
280
     0
102
RTVSPost2010PropOp33
 70
     0
102
RTVSPost2010Prop34
280
     0
102
RTVSPost2010PropOp34
 70
     0
102
RTVSPost2010Prop35
280
     0
102
RTVSPost2010PropOp35
 70
     0
102
RTVSPost2010Prop36
280
     0
102
RTVSPost2010PropOp36
 70
     0
102
RTVSPost2010Prop37
 90
       50
102
RTVSPost2010PropOp37
 70
     0
102
RTVSPost2010Prop38
140
0.0
102
RTVSPost2010PropOp38
 70
     0
102
RTVSPost2010Prop39
140
1.0
102
RTVSPost2010PropOp39
 70
     0
102
RTVSPost2010Prop40
 90
        0
102
RTVSPost2010PropOp40
 70
     0
102
RTVSPost2010Prop41ColorIndex
 90
       18
102
RTVSPost2010Prop41ColorRGB
 90
        0
102
RTVSPost2010PropOp41
 70
     0
102
RTVSPost2010Prop42
 90
       50
102
RTVSPost2010PropOp42
 70
     0
102
RTVSPost2010Prop43
 90
        3
102
RTVSPost2010PropOp43
 70
     0
102
RTVSPost2010Prop44ColorIndex
 90
        5
102
RTVSPost2010Prop44ColorRGB
 90
      255
102
RTVSPost2010PropOp44
 70
     0
102
RTVSPost2010Prop45
280
     0
102
RTVSPost2010PropOp45
 70
     0
102
RTVSPost2010Prop46
 90
       50
102
RTVSPost2010PropOp46
 70
     0
102
RTVSPost2010Prop47
 90
       50
102
RTVSPost2010PropOp47
 70
     0
102
RTVSPost2010Prop48
 90
       50
102
RTVSPost2010PropOp48
 70
     0
102
RTVSPost2010Prop49
280
     0
102
RTVSPost2010PropOp49
 70
     0
102
RTVSPost2010Prop50
 90
       50
102
RTVSPost2010PropOp50
 70
     0
102
RTVSPost2010Prop51ColorIndex
 90
      256
102
RTVSPost2010Prop51ColorRGB
 90
-16777216
102
RTVSPost2010PropOp51
 70
     0
102
RTVSPost2010Prop52
140
1.0
102
RTVSPost2010PropOp52
 70
     0
102
RTVSPost2010Prop53
 90
        2
102
RTVSPost2010PropOp53
 70
     0
102
RTVSPost2010Prop54
  1
strokes_ogs.tif
102
RTVSPost2010PropOp54
 70
     0
102
RTVSPost2010Prop55
280
     0
102
RTVSPost2010PropOp55
 70
     0
102
RTVSPost2010Prop56
140
1.0
102
RTVSPost2010PropOp56
 70
     0
102
RTVSPost2010Prop57
140
1.0
102
RTVSPost2010PropOp57
 70
     0
  0
XRECORD
  5
220
102
{ACAD_REACTORS
330
21F
102
}
330
21F
100
AcDbXrecord
280
     1
102
RTVSPropertyOp0
 70
     1
102
RTVSPropertyOp1
 70
     1
102
RTVSPropertyOp2
 70
     1
102
RTVSPropertyOp3
 70
     1
102
RTVSPropertyOp4
 70
     1
102
RTVSPropertyOp5
 70
     1
102
RTVSPropertyOp6
 70
     1
102
RTVSPropertyOp7
 70
     1
102
RTVSPropertyOp8
 70
     1
102
RTVSPropertyOp9
 70
     1
102
RTVSPropertyOp10
 70
     1
102
RTVSPropertyOp11
 70
     1
102
RTVSPropertyOp12
 70
     1
102
RTVSPropertyOp13
 70
     1
102
RTVSPropertyOp14
 70
     1
102
RTVSPropertyOp15
 70
     1
102
RTVSPropertyOp16
 70
     1
102
RTVSPropertyOp17
 70
     1
102
RTVSPropertyOp18
 70
     1
102
RTVSPropertyOp19
 70
     1
102
RTVSPropertyOp20
 70
     1
102
RTVSPropertyOp21
 70
     1
102
RTVSPropertyOp22
 70
     1
102
RTVSPropertyOp23
 70
     1
102
RTVSPropertyOp24
 70
     1
102
RTVSPropertyOp25
 70
     1
102
RTVSPropertyOp26
 70
     1
102
RTVSPropertyOp27
 70
     1
102
RTVSPropertyOp28
 70
     1
102
RTVSPropertyOp29
 70
     1
102
RTVSPropertyOp30
 70
     1
102
RTVSPropertyOp31
 70
     1
102
RTVSPropertyOp32
 70
     1
102
RTVSPropertyOp33
 70
     1
102
RTVSPropertyOp34
 70
     1
102
RTVSPropertyOp35
 70
     1
102
RTVSPropertyOp36
 70
     1
102
RTVSPropertyOp37
 70
     1
102
RTVSPropertyOp38
 70
     1
102
RTVSPropertyOp39
 70
     1
102
RTVSPropertyOp40
 70
     1
102
RTVSPropertyOp41
 70
     1
102
RTVSPropertyOp42
 70
     1
102
RTVSPropertyOp43
 70
     1
102
RTVSPropertyOp44
 70
     1
102
RTVSPropertyOp45
 70
     1
102
RTVSPropertyOp46
 70
     1
102
RTVSPropertyOp47
 70
     1
102
RTVSPropertyOp48
 70
     1
102
RTVSPropertyOp49
 70
     1
102
RTVSPropertyOp50
 70
     1
102
RTVSPropertyOp51
 70
     0
102
RTVSPropertyOp52
 70
     0
102
RTVSPropertyOp53
 70
     1
102
RTVSPropertyOp54
 70
     1
102
RTVSPropertyOp55
 70
     1
102
RTVSPropertyOp56
 70
     1
102
RTVSPropertyOp57
 70
     1
102
RTVSPost2010Prop28
280
     0
102
RTVSPost2010PropOp28
 70
     1
102
RTVSPost2010Prop29
280
     1
102
RTVSPost2010PropOp29
 70
     1
102
RTVSPost2010Prop30
280
     1
102
RTVSPost2010PropOp30
 70
     1
102
RTVSPost2010Prop31
280
     0
102
RTVSPost2010PropOp31
 70
     1
102
RTVSPost2010Prop32
280
     0
102
RTVSPost2010PropOp32
 70
     1
102
RTVSPost2010Prop33
280
     0
102
RTVSPost2010PropOp33
 70
     1
102
RTVSPost2010Prop34
280
     0
102
RTVSPost2010PropOp34
 70
     1
102
RTVSPost2010Prop35
280
     0
102
RTVSPost2010PropOp35
 70
     1
102
RTVSPost2010Prop36
280
     0
102
RTVSPost2010PropOp36
 70
     1
102
RTVSPost2010Prop37
 90
       50
102
RTVSPost2010PropOp37
 70
     1
102
RTVSPost2010Prop38
140
0.0
102
RTVSPost2010PropOp38
 70
     1
102
RTVSPost2010Prop39
140
1.0
102
RTVSPost2010PropOp39
 70
     1
102
RTVSPost2010Prop40
 90
        0
102
RTVSPost2010PropOp40
 70
     1
102
RTVSPost2010Prop41ColorIndex
 90
       18
102
RTVSPost2010Prop41ColorRGB
 90
        0
102
RTVSPost2010PropOp41
 70
     1
102
RTVSPost2010Prop42
 90
       50
102
RTVSPost2010PropOp42
 70
     1
102
RTVSPost2010Prop43
 90
        3
102
RTVSPost2010PropOp43
 70
     1
102
RTVSPost2010Prop44ColorIndex
 90
        5
102
RTVSPost2010Prop44ColorRGB
 90
      255
102
RTVSPost2010PropOp44
 70
     1
102
RTVSPost2010Prop45
280
     0
102
RTVSPost2010PropOp45
 70
     1
102
RTVSPost2010Prop46
 90
       50
102
RTVSPost2010PropOp46
 70
     1
102
RTVSPost2010Prop47
 90
       50
102
RTVSPost2010PropOp47
 70
     1
102
RTVSPost2010Prop48
 90
       50
102
RTVSPost2010PropOp48
 70
     1
102
RTVSPost2010Prop49
280
     0
102
RTVSPost2010PropOp49
 70
     1
102
RTVSPost2010Prop50
 90
       50
102
RTVSPost2010PropOp50
 70
     1
102
RTVSPost2010Prop51ColorIndex
 90
      256
102
RTVSPost2010Prop51ColorRGB
 90
-16777216
102
RTVSPost2010PropOp51
 70
     0
102
RTVSPost2010Prop52
140
1.0
102
RTVSPost2010PropOp52
 70
     0
102
RTVSPost2010Prop53
 90
        2
102
RTVSPost2010PropOp53
 70
     1
102
RTVSPost2010Prop54
  1
strokes_ogs.tif
102
RTVSPost2010PropOp54
 70
     1
102
RTVSPost2010Prop55
280
     0
102
RTVSPost2010PropOp55
 70
     1
102
RTVSPost2010Prop56
140
1.0
102
RTVSPost2010PropOp56
 70
     1
102
RTVSPost2010Prop57
140
1.0
102
RTVSPost2010PropOp57
 70
     1
  0
XRECORD
  5
23E
102
{ACAD_REACTORS
330
23D
102
}
330
23D
100
AcDbXrecord
280
     1
102
RTVSPropertyOp0
 70
     1
102
RTVSPropertyOp1
 70
     1
102
RTVSPropertyOp2
 70
     1
102
RTVSPropertyOp3
 70
     1
102
RTVSPropertyOp4
 70
     1
102
RTVSPropertyOp5
 70
     1
102
RTVSPropertyOp6
 70
     1
102
RTVSPropertyOp7
 70
     1
102
RTVSPropertyOp8
 70
     1
102
RTVSPropertyOp9
 70
     1
102
RTVSPropertyOp10
 70
     1
102
RTVSPropertyOp11
 70
     1
102
RTVSPropertyOp12
 70
     1
102
RTVSPropertyOp13
 70
     1
102
RTVSPropertyOp14
 70
     1
102
RTVSPropertyOp15
 70
     1
102
RTVSPropertyOp16
 70
     1
102
RTVSPropertyOp17
 70
     1
102
RTVSPropertyOp18
 70
     1
102
RTVSPropertyOp19
 70
     1
102
RTVSPropertyOp20
 70
     1
102
RTVSPropertyOp21
 70
     1
102
RTVSPropertyOp22
 70
     1
102
RTVSPropertyOp23
 70
     1
102
RTVSPropertyOp24
 70
     1
102
RTVSPropertyOp25
 70
     1
102
RTVSPropertyOp26
 70
     1
102
RTVSPropertyOp27
 70
     1
102
RTVSPropertyOp28
 70
     1
102
RTVSPropertyOp29
 70
     1
102
RTVSPropertyOp30
 70
     1
102
RTVSPropertyOp31
 70
     1
102
RTVSPropertyOp32
 70
     1
102
RTVSPropertyOp33
 70
     1
102
RTVSPropertyOp34
 70
     1
102
RTVSPropertyOp35
 70
     1
102
RTVSPropertyOp36
 70
     1
102
RTVSPropertyOp37
 70
     1
102
RTVSPropertyOp38
 70
     1
102
RTVSPropertyOp39
 70
     1
102
RTVSPropertyOp40
 70
     1
102
RTVSPropertyOp41
 70
     1
102
RTVSPropertyOp42
 70
     1
102
RTVSPropertyOp43
 70
     1
102
RTVSPropertyOp44
 70
     1
102
RTVSPropertyOp45
 70
     1
102
RTVSPropertyOp46
 70
     1
102
RTVSPropertyOp47
 70
     1
102
RTVSPropertyOp48
 70
     1
102
RTVSPropertyOp49
 70
     1
102
RTVSPropertyOp50
 70
     1
102
RTVSPropertyOp51
 70
     0
102
RTVSPropertyOp52
 70
     0
102
RTVSPropertyOp53
 70
     1
102
RTVSPropertyOp54
 70
     1
102
RTVSPropertyOp55
 70
     1
102
RTVSPropertyOp56
 70
     1
102
RTVSPropertyOp57
 70
     1
102
RTVSPost2010Prop28
280
     0
102
RTVSPost2010PropOp28
 70
     1
102
RTVSPost2010Prop29
280
     1
102
RTVSPost2010PropOp29
 70
     1
102
RTVSPost2010Prop30
280
     1
102
RTVSPost2010PropOp30
 70
     1
102
RTVSPost2010Prop31
280
     0
102
RTVSPost2010PropOp31
 70
     1
102
RTVSPost2010Prop32
280
     0
102
RTVSPost2010PropOp32
 70
     1
102
RTVSPost2010Prop33
280
     0
102
RTVSPost2010PropOp33
 70
     1
102
RTVSPost2010Prop34
280
     0
102
RTVSPost2010PropOp34
 70
     1
102
RTVSPost2010Prop35
280
     0
102
RTVSPost2010PropOp35
 70
     1
102
RTVSPost2010Prop36
280
     0
102
RTVSPost2010PropOp36
 70
     1
102
RTVSPost2010Prop37
 90
       50
102
RTVSPost2010PropOp37
 70
     1
102
RTVSPost2010Prop38
140
0.0
102
RTVSPost2010PropOp38
 70
     1
102
RTVSPost2010Prop39
140
1.0
102
RTVSPost2010PropOp39
 70
     1
102
RTVSPost2010Prop40
 90
        0
102
RTVSPost2010PropOp40
 70
     1
102
RTVSPost2010Prop41ColorIndex
 90
       18
102
RTVSPost2010Prop41ColorRGB
 90
        0
102
RTVSPost2010PropOp41
 70
     1
102
RTVSPost2010Prop42
 90
       50
102
RTVSPost2010PropOp42
 70
     1
102
RTVSPost2010Prop43
 90
        3
102
RTVSPost2010PropOp43
 70
     1
102
RTVSPost2010Prop44ColorIndex
 90
        5
102
RTVSPost2010Prop44ColorRGB
 90
      255
102
RTVSPost2010PropOp44
 70
     1
102
RTVSPost2010Prop45
280
     0
102
RTVSPost2010PropOp45
 70
     1
102
RTVSPost2010Prop46
 90
       50
102
RTVSPost2010PropOp46
 70
     1
102
RTVSPost2010Prop47
 90
       50
102
RTVSPost2010PropOp47
 70
     1
102
RTVSPost2010Prop48
 90
       50
102
RTVSPost2010PropOp48
 70
     1
102
RTVSPost2010Prop49
280
     0
102
RTVSPost2010PropOp49
 70
     1
102
RTVSPost2010Prop50
 90
       50
102
RTVSPost2010PropOp50
 70
     1
102
RTVSPost2010Prop51ColorIndex
 90
      256
102
RTVSPost2010Prop51ColorRGB
 90
-16777216
102
RTVSPost2010PropOp51
 70
     0
102
RTVSPost2010Prop52
140
1.0
102
RTVSPost2010PropOp52
 70
     0
102
RTVSPost2010Prop53
 90
        2
102
RTVSPost2010PropOp53
 70
     1
102
RTVSPost2010Prop54
  1
strokes_ogs.tif
102
RTVSPost2010PropOp54
 70
     1
102
RTVSPost2010Prop55
280
     0
102
RTVSPost2010PropOp55
 70
     1
102
RTVSPost2010Prop56
140
1.0
102
RTVSPost2010PropOp56
 70
     1
102
RTVSPost2010Prop57
140
1.0
102
RTVSPost2010PropOp57
 70
     1
  0
XRECORD
  5
23C
102
{ACAD_REACTORS
330
23B
102
}
330
23B
100
AcDbXrecord
280
     1
102
RTVSPropertyOp0
 70
     1
102
RTVSPropertyOp1
 70
     1
102
RTVSPropertyOp2
 70
     1
102
RTVSPropertyOp3
 70
     1
102
RTVSPropertyOp4
 70
     1
102
RTVSPropertyOp5
 70
     1
102
RTVSPropertyOp6
 70
     1
102
RTVSPropertyOp7
 70
     1
102
RTVSPropertyOp8
 70
     1
102
RTVSPropertyOp9
 70
     1
102
RTVSPropertyOp10
 70
     1
102
RTVSPropertyOp11
 70
     1
102
RTVSPropertyOp12
 70
     1
102
RTVSPropertyOp13
 70
     1
102
RTVSPropertyOp14
 70
     1
102
RTVSPropertyOp15
 70
     1
102
RTVSPropertyOp16
 70
     1
102
RTVSPropertyOp17
 70
     1
102
RTVSPropertyOp18
 70
     1
102
RTVSPropertyOp19
 70
     1
102
RTVSPropertyOp20
 70
     1
102
RTVSPropertyOp21
 70
     1
102
RTVSPropertyOp22
 70
     1
102
RTVSPropertyOp23
 70
     1
102
RTVSPropertyOp24
 70
     1
102
RTVSPropertyOp25
 70
     1
102
RTVSPropertyOp26
 70
     1
102
RTVSPropertyOp27
 70
     1
102
RTVSPropertyOp28
 70
     1
102
RTVSPropertyOp29
 70
     1
102
RTVSPropertyOp30
 70
     1
102
RTVSPropertyOp31
 70
     1
102
RTVSPropertyOp32
 70
     1
102
RTVSPropertyOp33
 70
     1
102
RTVSPropertyOp34
 70
     1
102
RTVSPropertyOp35
 70
     1
102
RTVSPropertyOp36
 70
     1
102
RTVSPropertyOp37
 70
     1
102
RTVSPropertyOp38
 70
     1
102
RTVSPropertyOp39
 70
     1
102
RTVSPropertyOp40
 70
     1
102
RTVSPropertyOp41
 70
     1
102
RTVSPropertyOp42
 70
     1
102
RTVSPropertyOp43
 70
     1
102
RTVSPropertyOp44
 70
     1
102
RTVSPropertyOp45
 70
     1
102
RTVSPropertyOp46
 70
     1
102
RTVSPropertyOp47
 70
     1
102
RTVSPropertyOp48
 70
     1
102
RTVSPropertyOp49
 70
     1
102
RTVSPropertyOp50
 70
     1
102
RTVSPropertyOp51
 70
     0
102
RTVSPropertyOp52
 70
     0
102
RTVSPropertyOp53
 70
     1
102
RTVSPropertyOp54
 70
     1
102
RTVSPropertyOp55
 70
     1
102
RTVSPropertyOp56
 70
     1
102
RTVSPropertyOp57
 70
     1
102
RTVSPost2010Prop28
280
     0
102
RTVSPost2010PropOp28
 70
     1
102
RTVSPost2010Prop29
280
     1
102
RTVSPost2010PropOp29
 70
     1
102
RTVSPost2010Prop30
280
     1
102
RTVSPost2010PropOp30
 70
     1
102
RTVSPost2010Prop31
280
     0
102
RTVSPost2010PropOp31
 70
     1
102
RTVSPost2010Prop32
280
     0
102
RTVSPost2010PropOp32
 70
     1
102
RTVSPost2010Prop33
280
     0
102
RTVSPost2010PropOp33
 70
     1
102
RTVSPost2010Prop34
280
     0
102
RTVSPost2010PropOp34
 70
     1
102
RTVSPost2010Prop35
280
     0
102
RTVSPost2010PropOp35
 70
     1
102
RTVSPost2010Prop36
280
     0
102
RTVSPost2010PropOp36
 70
     1
102
RTVSPost2010Prop37
 90
       50
102
RTVSPost2010PropOp37
 70
     1
102
RTVSPost2010Prop38
140
0.0
102
RTVSPost2010PropOp38
 70
     1
102
RTVSPost2010Prop39
140
1.0
102
RTVSPost2010PropOp39
 70
     1
102
RTVSPost2010Prop40
 90
        0
102
RTVSPost2010PropOp40
 70
     1
102
RTVSPost2010Prop41ColorIndex
 90
       18
102
RTVSPost2010Prop41ColorRGB
 90
        0
102
RTVSPost2010PropOp41
 70
     1
102
RTVSPost2010Prop42
 90
       50
102
RTVSPost2010PropOp42
 70
     1
102
RTVSPost2010Prop43
 90
        3
102
RTVSPost2010PropOp43
 70
     1
102
RTVSPost2010Prop44ColorIndex
 90
        5
102
RTVSPost2010Prop44ColorRGB
 90
      255
102
RTVSPost2010PropOp44
 70
     1
102
RTVSPost2010Prop45
280
     0
102
RTVSPost2010PropOp45
 70
     1
102
RTVSPost2010Prop46
 90
       50
102
RTVSPost2010PropOp46
 70
     1
102
RTVSPost2010Prop47
 90
       50
102
RTVSPost2010PropOp47
 70
     1
102
RTVSPost2010Prop48
 90
       50
102
RTVSPost2010PropOp48
 70
     1
102
RTVSPost2010Prop49
280
     0
102
RTVSPost2010PropOp49
 70
     1
102
RTVSPost2010Prop50
 90
       50
102
RTVSPost2010PropOp50
 70
     1
102
RTVSPost2010Prop51ColorIndex
 90
      256
102
RTVSPost2010Prop51ColorRGB
 90
-16777216
102
RTVSPost2010PropOp51
 70
     0
102
RTVSPost2010Prop52
140
1.0
102
RTVSPost2010PropOp52
 70
     0
102
RTVSPost2010Prop53
 90
        2
102
RTVSPost2010PropOp53
 70
     1
102
RTVSPost2010Prop54
  1
strokes_ogs.tif
102
RTVSPost2010PropOp54
 70
     1
102
RTVSPost2010Prop55
280
     0
102
RTVSPost2010PropOp55
 70
     1
102
RTVSPost2010Prop56
140
1.0
102
RTVSPost2010PropOp56
 70
     1
102
RTVSPost2010Prop57
140
1.0
102
RTVSPost2010PropOp57
 70
     1
  0
XRECORD
  5
236
102
{ACAD_REACTORS
330
235
102
}
330
235
100
AcDbXrecord
280
     1
102
RTVSPropertyOp0
 70
     1
102
RTVSPropertyOp1
 70
     1
102
RTVSPropertyOp2
 70
     1
102
RTVSPropertyOp3
 70
     1
102
RTVSPropertyOp4
 70
     1
102
RTVSPropertyOp5
 70
     1
102
RTVSPropertyOp6
 70
     1
102
RTVSPropertyOp7
 70
     1
102
RTVSPropertyOp8
 70
     1
102
RTVSPropertyOp9
 70
     1
102
RTVSPropertyOp10
 70
     1
102
RTVSPropertyOp11
 70
     1
102
RTVSPropertyOp12
 70
     1
102
RTVSPropertyOp13
 70
     1
102
RTVSPropertyOp14
 70
     1
102
RTVSPropertyOp15
 70
     1
102
RTVSPropertyOp16
 70
     1
102
RTVSPropertyOp17
 70
     1
102
RTVSPropertyOp18
 70
     1
102
RTVSPropertyOp19
 70
     1
102
RTVSPropertyOp20
 70
     1
102
RTVSPropertyOp21
 70
     1
102
RTVSPropertyOp22
 70
     1
102
RTVSPropertyOp23
 70
     1
102
RTVSPropertyOp24
 70
     1
102
RTVSPropertyOp25
 70
     1
102
RTVSPropertyOp26
 70
     1
102
RTVSPropertyOp27
 70
     1
102
RTVSPropertyOp28
 70
     1
102
RTVSPropertyOp29
 70
     1
102
RTVSPropertyOp30
 70
     1
102
RTVSPropertyOp31
 70
     1
102
RTVSPropertyOp32
 70
     1
102
RTVSPropertyOp33
 70
     1
102
RTVSPropertyOp34
 70
     1
102
RTVSPropertyOp35
 70
     1
102
RTVSPropertyOp36
 70
     1
102
RTVSPropertyOp37
 70
     1
102
RTVSPropertyOp38
 70
     1
102
RTVSPropertyOp39
 70
     1
102
RTVSPropertyOp40
 70
     1
102
RTVSPropertyOp41
 70
     1
102
RTVSPropertyOp42
 70
     1
102
RTVSPropertyOp43
 70
     1
102
RTVSPropertyOp44
 70
     1
102
RTVSPropertyOp45
 70
     1
102
RTVSPropertyOp46
 70
     1
102
RTVSPropertyOp47
 70
     1
102
RTVSPropertyOp48
 70
     1
102
RTVSPropertyOp49
 70
     1
102
RTVSPropertyOp50
 70
     1
102
RTVSPropertyOp51
 70
     0
102
RTVSPropertyOp52
 70
     0
102
RTVSPropertyOp53
 70
     1
102
RTVSPropertyOp54
 70
     1
102
RTVSPropertyOp55
 70
     1
102
RTVSPropertyOp56
 70
     1
102
RTVSPropertyOp57
 70
     1
102
RTVSPost2010Prop28
280
     0
102
RTVSPost2010PropOp28
 70
     1
102
RTVSPost2010Prop29
280
     1
102
RTVSPost2010PropOp29
 70
     1
102
RTVSPost2010Prop30
280
     1
102
RTVSPost2010PropOp30
 70
     1
102
RTVSPost2010Prop31
280
     0
102
RTVSPost2010PropOp31
 70
     1
102
RTVSPost2010Prop32
280
     0
102
RTVSPost2010PropOp32
 70
     1
102
RTVSPost2010Prop33
280
     0
102
RTVSPost2010PropOp33
 70
     1
102
RTVSPost2010Prop34
280
     0
102
RTVSPost2010PropOp34
 70
     1
102
RTVSPost2010Prop35
280
     0
102
RTVSPost2010PropOp35
 70
     1
102
RTVSPost2010Prop36
280
     0
102
RTVSPost2010PropOp36
 70
     1
102
RTVSPost2010Prop37
 90
       50
102
RTVSPost2010PropOp37
 70
     1
102
RTVSPost2010Prop38
140
0.0
102
RTVSPost2010PropOp38
 70
     1
102
RTVSPost2010Prop39
140
1.0
102
RTVSPost2010PropOp39
 70
     1
102
RTVSPost2010Prop40
 90
        0
102
RTVSPost2010PropOp40
 70
     1
102
RTVSPost2010Prop41ColorIndex
 90
       18
102
RTVSPost2010Prop41ColorRGB
 90
        0
102
RTVSPost2010PropOp41
 70
     1
102
RTVSPost2010Prop42
 90
       50
102
RTVSPost2010PropOp42
 70
     1
102
RTVSPost2010Prop43
 90
        3
102
RTVSPost2010PropOp43
 70
     1
102
RTVSPost2010Prop44ColorIndex
 90
        5
102
RTVSPost2010Prop44ColorRGB
 90
      255
102
RTVSPost2010PropOp44
 70
     1
102
RTVSPost2010Prop45
280
     0
102
RTVSPost2010PropOp45
 70
     1
102
RTVSPost2010Prop46
 90
       50
102
RTVSPost2010PropOp46
 70
     1
102
RTVSPost2010Prop47
 90
       50
102
RTVSPost2010PropOp47
 70
     1
102
RTVSPost2010Prop48
 90
       50
102
RTVSPost2010PropOp48
 70
     1
102
RTVSPost2010Prop49
280
     0
102
RTVSPost2010PropOp49
 70
     1
102
RTVSPost2010Prop50
 90
       50
102
RTVSPost2010PropOp50
 70
     1
102
RTVSPost2010Prop51ColorIndex
 90
      256
102
RTVSPost2010Prop51ColorRGB
 90
-16777216
102
RTVSPost2010PropOp51
 70
     0
102
RTVSPost2010Prop52
140
1.0
102
RTVSPost2010PropOp52
 70
     0
102
RTVSPost2010Prop53
 90
        2
102
RTVSPost2010PropOp53
 70
     1
102
RTVSPost2010Prop54
  1
strokes_ogs.tif
102
RTVSPost2010PropOp54
 70
     1
102
RTVSPost2010Prop55
280
     0
102
RTVSPost2010PropOp55
 70
     1
102
RTVSPost2010Prop56
140
1.0
102
RTVSPost2010PropOp56
 70
     1
102
RTVSPost2010Prop57
140
1.0
102
RTVSPost2010PropOp57
 70
     1
  0
XRECORD
  5
238
102
{ACAD_REACTORS
330
237
102
}
330
237
100
AcDbXrecord
280
     1
102
RTVSPropertyOp0
 70
     1
102
RTVSPropertyOp1
 70
     1
102
RTVSPropertyOp2
 70
     1
102
RTVSPropertyOp3
 70
     1
102
RTVSPropertyOp4
 70
     1
102
RTVSPropertyOp5
 70
     1
102
RTVSPropertyOp6
 70
     1
102
RTVSPropertyOp7
 70
     1
102
RTVSPropertyOp8
 70
     1
102
RTVSPropertyOp9
 70
     1
102
RTVSPropertyOp10
 70
     1
102
RTVSPropertyOp11
 70
     1
102
RTVSPropertyOp12
 70
     1
102
RTVSPropertyOp13
 70
     1
102
RTVSPropertyOp14
 70
     1
102
RTVSPropertyOp15
 70
     1
102
RTVSPropertyOp16
 70
     1
102
RTVSPropertyOp17
 70
     1
102
RTVSPropertyOp18
 70
     1
102
RTVSPropertyOp19
 70
     1
102
RTVSPropertyOp20
 70
     1
102
RTVSPropertyOp21
 70
     1
102
RTVSPropertyOp22
 70
     1
102
RTVSPropertyOp23
 70
     1
102
RTVSPropertyOp24
 70
     1
102
RTVSPropertyOp25
 70
     1
102
RTVSPropertyOp26
 70
     1
102
RTVSPropertyOp27
 70
     1
102
RTVSPropertyOp28
 70
     1
102
RTVSPropertyOp29
 70
     1
102
RTVSPropertyOp30
 70
     1
102
RTVSPropertyOp31
 70
     1
102
RTVSPropertyOp32
 70
     1
102
RTVSPropertyOp33
 70
     1
102
RTVSPropertyOp34
 70
     1
102
RTVSPropertyOp35
 70
     1
102
RTVSPropertyOp36
 70
     1
102
RTVSPropertyOp37
 70
     1
102
RTVSPropertyOp38
 70
     1
102
RTVSPropertyOp39
 70
     1
102
RTVSPropertyOp40
 70
     1
102
RTVSPropertyOp41
 70
     1
102
RTVSPropertyOp42
 70
     1
102
RTVSPropertyOp43
 70
     1
102
RTVSPropertyOp44
 70
     1
102
RTVSPropertyOp45
 70
     1
102
RTVSPropertyOp46
 70
     1
102
RTVSPropertyOp47
 70
     1
102
RTVSPropertyOp48
 70
     1
102
RTVSPropertyOp49
 70
     1
102
RTVSPropertyOp50
 70
     1
102
RTVSPropertyOp51
 70
     0
102
RTVSPropertyOp52
 70
     0
102
RTVSPropertyOp53
 70
     1
102
RTVSPropertyOp54
 70
     1
102
RTVSPropertyOp55
 70
     1
102
RTVSPropertyOp56
 70
     1
102
RTVSPropertyOp57
 70
     1
102
RTVSPost2010Prop28
280
     0
102
RTVSPost2010PropOp28
 70
     1
102
RTVSPost2010Prop29
280
     1
102
RTVSPost2010PropOp29
 70
     1
102
RTVSPost2010Prop30
280
     1
102
RTVSPost2010PropOp30
 70
     1
102
RTVSPost2010Prop31
280
     0
102
RTVSPost2010PropOp31
 70
     1
102
RTVSPost2010Prop32
280
     0
102
RTVSPost2010PropOp32
 70
     1
102
RTVSPost2010Prop33
280
     0
102
RTVSPost2010PropOp33
 70
     1
102
RTVSPost2010Prop34
280
     0
102
RTVSPost2010PropOp34
 70
     1
102
RTVSPost2010Prop35
280
     0
102
RTVSPost2010PropOp35
 70
     1
102
RTVSPost2010Prop36
280
     0
102
RTVSPost2010PropOp36
 70
     1
102
RTVSPost2010Prop37
 90
       50
102
RTVSPost2010PropOp37
 70
     1
102
RTVSPost2010Prop38
140
0.0
102
RTVSPost2010PropOp38
 70
     1
102
RTVSPost2010Prop39
140
1.0
102
RTVSPost2010PropOp39
 70
     1
102
RTVSPost2010Prop40
 90
        0
102
RTVSPost2010PropOp40
 70
     1
102
RTVSPost2010Prop41ColorIndex
 90
       18
102
RTVSPost2010Prop41ColorRGB
 90
        0
102
RTVSPost2010PropOp41
 70
     1
102
RTVSPost2010Prop42
 90
       50
102
RTVSPost2010PropOp42
 70
     1
102
RTVSPost2010Prop43
 90
        3
102
RTVSPost2010PropOp43
 70
     1
102
RTVSPost2010Prop44ColorIndex
 90
        5
102
RTVSPost2010Prop44ColorRGB
 90
      255
102
RTVSPost2010PropOp44
 70
     1
102
RTVSPost2010Prop45
280
     0
102
RTVSPost2010PropOp45
 70
     1
102
RTVSPost2010Prop46
 90
       50
102
RTVSPost2010PropOp46
 70
     1
102
RTVSPost2010Prop47
 90
       50
102
RTVSPost2010PropOp47
 70
     1
102
RTVSPost2010Prop48
 90
       50
102
RTVSPost2010PropOp48
 70
     1
102
RTVSPost2010Prop49
280
     0
102
RTVSPost2010PropOp49
 70
     1
102
RTVSPost2010Prop50
 90
       50
102
RTVSPost2010PropOp50
 70
     1
102
RTVSPost2010Prop51ColorIndex
 90
      256
102
RTVSPost2010Prop51ColorRGB
 90
-16777216
102
RTVSPost2010PropOp51
 70
     0
102
RTVSPost2010Prop52
140
1.0
102
RTVSPost2010PropOp52
 70
     0
102
RTVSPost2010Prop53
 90
        2
102
RTVSPost2010PropOp53
 70
     1
102
RTVSPost2010Prop54
  1
strokes_ogs.tif
102
RTVSPost2010PropOp54
 70
     1
102
RTVSPost2010Prop55
280
     0
102
RTVSPost2010PropOp55
 70
     1
102
RTVSPost2010Prop56
140
1.0
102
RTVSPost2010PropOp56
 70
     1
102
RTVSPost2010Prop57
140
1.0
102
RTVSPost2010PropOp57
 70
     1
  0
XRECORD
  5
228
102
{ACAD_REACTORS
330
227
102
}
330
227
100
AcDbXrecord
280
     1
102
RTVSPropertyOp0
 70
     1
102
RTVSPropertyOp1
 70
     1
102
RTVSPropertyOp2
 70
     1
102
RTVSPropertyOp3
 70
     1
102
RTVSPropertyOp4
 70
     1
102
RTVSPropertyOp5
 70
     1
102
RTVSPropertyOp6
 70
     1
102
RTVSPropertyOp7
 70
     1
102
RTVSPropertyOp8
 70
     1
102
RTVSPropertyOp9
 70
     1
102
RTVSPropertyOp10
 70
     1
102
RTVSPropertyOp11
 70
     1
102
RTVSPropertyOp12
 70
     1
102
RTVSPropertyOp13
 70
     1
102
RTVSPropertyOp14
 70
     1
102
RTVSPropertyOp15
 70
     1
102
RTVSPropertyOp16
 70
     1
102
RTVSPropertyOp17
 70
     1
102
RTVSPropertyOp18
 70
     1
102
RTVSPropertyOp19
 70
     1
102
RTVSPropertyOp20
 70
     1
102
RTVSPropertyOp21
 70
     1
102
RTVSPropertyOp22
 70
     1
102
RTVSPropertyOp23
 70
     1
102
RTVSPropertyOp24
 70
     1
102
RTVSPropertyOp25
 70
     1
102
RTVSPropertyOp26
 70
     1
102
RTVSPropertyOp27
 70
     1
102
RTVSPropertyOp28
 70
     1
102
RTVSPropertyOp29
 70
     1
102
RTVSPropertyOp30
 70
     1
102
RTVSPropertyOp31
 70
     1
102
RTVSPropertyOp32
 70
     1
102
RTVSPropertyOp33
 70
     1
102
RTVSPropertyOp34
 70
     1
102
RTVSPropertyOp35
 70
     1
102
RTVSPropertyOp36
 70
     1
102
RTVSPropertyOp37
 70
     1
102
RTVSPropertyOp38
 70
     1
102
RTVSPropertyOp39
 70
     1
102
RTVSPropertyOp40
 70
     1
102
RTVSPropertyOp41
 70
     1
102
RTVSPropertyOp42
 70
     1
102
RTVSPropertyOp43
 70
     1
102
RTVSPropertyOp44
 70
     1
102
RTVSPropertyOp45
 70
     1
102
RTVSPropertyOp46
 70
     1
102
RTVSPropertyOp47
 70
     1
102
RTVSPropertyOp48
 70
     1
102
RTVSPropertyOp49
 70
     1
102
RTVSPropertyOp50
 70
     1
102
RTVSPropertyOp51
 70
     0
102
RTVSPropertyOp52
 70
     0
102
RTVSPropertyOp53
 70
     1
102
RTVSPropertyOp54
 70
     1
102
RTVSPropertyOp55
 70
     1
102
RTVSPropertyOp56
 70
     1
102
RTVSPropertyOp57
 70
     1
102
RTVSPost2010Prop28
280
     0
102
RTVSPost2010PropOp28
 70
     1
102
RTVSPost2010Prop29
280
     1
102
RTVSPost2010PropOp29
 70
     1
102
RTVSPost2010Prop30
280
     1
102
RTVSPost2010PropOp30
 70
     1
102
RTVSPost2010Prop31
280
     0
102
RTVSPost2010PropOp31
 70
     1
102
RTVSPost2010Prop32
280
     0
102
RTVSPost2010PropOp32
 70
     1
102
RTVSPost2010Prop33
280
     0
102
RTVSPost2010PropOp33
 70
     1
102
RTVSPost2010Prop34
280
     0
102
RTVSPost2010PropOp34
 70
     1
102
RTVSPost2010Prop35
280
     0
102
RTVSPost2010PropOp35
 70
     1
102
RTVSPost2010Prop36
280
     0
102
RTVSPost2010PropOp36
 70
     1
102
RTVSPost2010Prop37
 90
       50
102
RTVSPost2010PropOp37
 70
     1
102
RTVSPost2010Prop38
140
0.0
102
RTVSPost2010PropOp38
 70
     1
102
RTVSPost2010Prop39
140
1.0
102
RTVSPost2010PropOp39
 70
     1
102
RTVSPost2010Prop40
 90
        0
102
RTVSPost2010PropOp40
 70
     1
102
RTVSPost2010Prop41ColorIndex
 90
       18
102
RTVSPost2010Prop41ColorRGB
 90
        0
102
RTVSPost2010PropOp41
 70
     1
102
RTVSPost2010Prop42
 90
       50
102
RTVSPost2010PropOp42
 70
     1
102
RTVSPost2010Prop43
 90
        3
102
RTVSPost2010PropOp43
 70
     1
102
RTVSPost2010Prop44ColorIndex
 90
        5
102
RTVSPost2010Prop44ColorRGB
 90
      255
102
RTVSPost2010PropOp44
 70
     1
102
RTVSPost2010Prop45
280
     0
102
RTVSPost2010PropOp45
 70
     1
102
RTVSPost2010Prop46
 90
       50
102
RTVSPost2010PropOp46
 70
     1
102
RTVSPost2010Prop47
 90
       50
102
RTVSPost2010PropOp47
 70
     1
102
RTVSPost2010Prop48
 90
       50
102
RTVSPost2010PropOp48
 70
     1
102
RTVSPost2010Prop49
280
     0
102
RTVSPost2010PropOp49
 70
     1
102
RTVSPost2010Prop50
 90
       50
102
RTVSPost2010PropOp50
 70
     1
102
RTVSPost2010Prop51ColorIndex
 90
      256
102
RTVSPost2010Prop51ColorRGB
 90
-16777216
102
RTVSPost2010PropOp51
 70
     0
102
RTVSPost2010Prop52
140
1.0
102
RTVSPost2010PropOp52
 70
     0
102
RTVSPost2010Prop53
 90
        2
102
RTVSPost2010PropOp53
 70
     1
102
RTVSPost2010Prop54
  1
strokes_ogs.tif
102
RTVSPost2010PropOp54
 70
     1
102
RTVSPost2010Prop55
280
     0
102
RTVSPost2010PropOp55
 70
     1
102
RTVSPost2010Prop56
140
1.0
102
RTVSPost2010PropOp56
 70
     1
102
RTVSPost2010Prop57
140
1.0
102
RTVSPost2010PropOp57
 70
     1
  0
XRECORD
  5
21A
102
{ACAD_REACTORS
330
219
102
}
330
219
100
AcDbXrecord
280
     1
102
RTVSPropertyOp0
 70
     1
102
RTVSPropertyOp1
 70
     1
102
RTVSPropertyOp2
 70
     1
102
RTVSPropertyOp3
 70
     1
102
RTVSPropertyOp4
 70
     1
102
RTVSPropertyOp5
 70
     1
102
RTVSPropertyOp6
 70
     1
102
RTVSPropertyOp7
 70
     1
102
RTVSPropertyOp8
 70
     1
102
RTVSPropertyOp9
 70
     1
102
RTVSPropertyOp10
 70
     1
102
RTVSPropertyOp11
 70
     1
102
RTVSPropertyOp12
 70
     1
102
RTVSPropertyOp13
 70
     1
102
RTVSPropertyOp14
 70
     1
102
RTVSPropertyOp15
 70
     1
102
RTVSPropertyOp16
 70
     1
102
RTVSPropertyOp17
 70
     1
102
RTVSPropertyOp18
 70
     1
102
RTVSPropertyOp19
 70
     1
102
RTVSPropertyOp20
 70
     1
102
RTVSPropertyOp21
 70
     1
102
RTVSPropertyOp22
 70
     1
102
RTVSPropertyOp23
 70
     1
102
RTVSPropertyOp24
 70
     1
102
RTVSPropertyOp25
 70
     1
102
RTVSPropertyOp26
 70
     1
102
RTVSPropertyOp27
 70
     1
102
RTVSPropertyOp28
 70
     1
102
RTVSPropertyOp29
 70
     1
102
RTVSPropertyOp30
 70
     1
102
RTVSPropertyOp31
 70
     1
102
RTVSPropertyOp32
 70
     1
102
RTVSPropertyOp33
 70
     1
102
RTVSPropertyOp34
 70
     1
102
RTVSPropertyOp35
 70
     1
102
RTVSPropertyOp36
 70
     1
102
RTVSPropertyOp37
 70
     1
102
RTVSPropertyOp38
 70
     1
102
RTVSPropertyOp39
 70
     1
102
RTVSPropertyOp40
 70
     1
102
RTVSPropertyOp41
 70
     1
102
RTVSPropertyOp42
 70
     1
102
RTVSPropertyOp43
 70
     1
102
RTVSPropertyOp44
 70
     1
102
RTVSPropertyOp45
 70
     1
102
RTVSPropertyOp46
 70
     1
102
RTVSPropertyOp47
 70
     1
102
RTVSPropertyOp48
 70
     1
102
RTVSPropertyOp49
 70
     1
102
RTVSPropertyOp50
 70
     1
102
RTVSPropertyOp51
 70
     0
102
RTVSPropertyOp52
 70
     0
102
RTVSPropertyOp53
 70
     1
102
RTVSPropertyOp54
 70
     1
102
RTVSPropertyOp55
 70
     1
102
RTVSPropertyOp56
 70
     1
102
RTVSPropertyOp57
 70
     1
102
RTVSPost2010Prop28
280
     0
102
RTVSPost2010PropOp28
 70
     1
102
RTVSPost2010Prop29
280
     1
102
RTVSPost2010PropOp29
 70
     1
102
RTVSPost2010Prop30
280
     1
102
RTVSPost2010PropOp30
 70
     1
102
RTVSPost2010Prop31
280
     0
102
RTVSPost2010PropOp31
 70
     1
102
RTVSPost2010Prop32
280
     0
102
RTVSPost2010PropOp32
 70
     1
102
RTVSPost2010Prop33
280
     0
102
RTVSPost2010PropOp33
 70
     1
102
RTVSPost2010Prop34
280
     0
102
RTVSPost2010PropOp34
 70
     1
102
RTVSPost2010Prop35
280
     0
102
RTVSPost2010PropOp35
 70
     1
102
RTVSPost2010Prop36
280
     0
102
RTVSPost2010PropOp36
 70
     1
102
RTVSPost2010Prop37
 90
       50
102
RTVSPost2010PropOp37
 70
     1
102
RTVSPost2010Prop38
140
0.0
102
RTVSPost2010PropOp38
 70
     1
102
RTVSPost2010Prop39
140
1.0
102
RTVSPost2010PropOp39
 70
     1
102
RTVSPost2010Prop40
 90
        0
102
RTVSPost2010PropOp40
 70
     1
102
RTVSPost2010Prop41ColorIndex
 90
       18
102
RTVSPost2010Prop41ColorRGB
 90
        0
102
RTVSPost2010PropOp41
 70
     1
102
RTVSPost2010Prop42
 90
       50
102
RTVSPost2010PropOp42
 70
     1
102
RTVSPost2010Prop43
 90
        3
102
RTVSPost2010PropOp43
 70
     1
102
RTVSPost2010Prop44ColorIndex
 90
        5
102
RTVSPost2010Prop44ColorRGB
 90
      255
102
RTVSPost2010PropOp44
 70
     1
102
RTVSPost2010Prop45
280
     0
102
RTVSPost2010PropOp45
 70
     1
102
RTVSPost2010Prop46
 90
       50
102
RTVSPost2010PropOp46
 70
     1
102
RTVSPost2010Prop47
 90
       50
102
RTVSPost2010PropOp47
 70
     1
102
RTVSPost2010Prop48
 90
       50
102
RTVSPost2010PropOp48
 70
     1
102
RTVSPost2010Prop49
280
     0
102
RTVSPost2010PropOp49
 70
     1
102
RTVSPost2010Prop50
 90
       50
102
RTVSPost2010PropOp50
 70
     1
102
RTVSPost2010Prop51ColorIndex
 90
      256
102
RTVSPost2010Prop51ColorRGB
 90
-16777216
102
RTVSPost2010PropOp51
 70
     0
102
RTVSPost2010Prop52
140
1.0
102
RTVSPost2010PropOp52
 70
     0
102
RTVSPost2010Prop53
 90
        2
102
RTVSPost2010PropOp53
 70
     1
102
RTVSPost2010Prop54
  1
strokes_ogs.tif
102
RTVSPost2010PropOp54
 70
     1
102
RTVSPost2010Prop55
280
     0
102
RTVSPost2010PropOp55
 70
     1
102
RTVSPost2010Prop56
140
1.0
102
RTVSPost2010PropOp56
 70
     1
102
RTVSPost2010Prop57
140
1.0
102
RTVSPost2010PropOp57
 70
     1
  0
XRECORD
  5
23A
102
{ACAD_REACTORS
330
239
102
}
330
239
100
AcDbXrecord
280
     1
102
RTVSPropertyOp0
 70
     1
102
RTVSPropertyOp1
 70
     1
102
RTVSPropertyOp2
 70
     1
102
RTVSPropertyOp3
 70
     1
102
RTVSPropertyOp4
 70
     1
102
RTVSPropertyOp5
 70
     1
102
RTVSPropertyOp6
 70
     1
102
RTVSPropertyOp7
 70
     1
102
RTVSPropertyOp8
 70
     1
102
RTVSPropertyOp9
 70
     1
102
RTVSPropertyOp10
 70
     1
102
RTVSPropertyOp11
 70
     1
102
RTVSPropertyOp12
 70
     1
102
RTVSPropertyOp13
 70
     1
102
RTVSPropertyOp14
 70
     1
102
RTVSPropertyOp15
 70
     1
102
RTVSPropertyOp16
 70
     1
102
RTVSPropertyOp17
 70
     1
102
RTVSPropertyOp18
 70
     1
102
RTVSPropertyOp19
 70
     1
102
RTVSPropertyOp20
 70
     1
102
RTVSPropertyOp21
 70
     1
102
RTVSPropertyOp22
 70
     1
102
RTVSPropertyOp23
 70
     1
102
RTVSPropertyOp24
 70
     1
102
RTVSPropertyOp25
 70
     1
102
RTVSPropertyOp26
 70
     1
102
RTVSPropertyOp27
 70
     1
102
RTVSPropertyOp28
 70
     1
102
RTVSPropertyOp29
 70
     1
102
RTVSPropertyOp30
 70
     1
102
RTVSPropertyOp31
 70
     1
102
RTVSPropertyOp32
 70
     1
102
RTVSPropertyOp33
 70
     1
102
RTVSPropertyOp34
 70
     1
102
RTVSPropertyOp35
 70
     1
102
RTVSPropertyOp36
 70
     1
102
RTVSPropertyOp37
 70
     1
102
RTVSPropertyOp38
 70
     1
102
RTVSPropertyOp39
 70
     1
102
RTVSPropertyOp40
 70
     1
102
RTVSPropertyOp41
 70
     1
102
RTVSPropertyOp42
 70
     1
102
RTVSPropertyOp43
 70
     1
102
RTVSPropertyOp44
 70
     1
102
RTVSPropertyOp45
 70
     1
102
RTVSPropertyOp46
 70
     1
102
RTVSPropertyOp47
 70
     1
102
RTVSPropertyOp48
 70
     1
102
RTVSPropertyOp49
 70
     1
102
RTVSPropertyOp50
 70
     1
102
RTVSPropertyOp51
 70
     0
102
RTVSPropertyOp52
 70
     0
102
RTVSPropertyOp53
 70
     1
102
RTVSPropertyOp54
 70
     1
102
RTVSPropertyOp55
 70
     1
102
RTVSPropertyOp56
 70
     1
102
RTVSPropertyOp57
 70
     1
102
RTVSPost2010Prop28
280
     0
102
RTVSPost2010PropOp28
 70
     1
102
RTVSPost2010Prop29
280
     1
102
RTVSPost2010PropOp29
 70
     1
102
RTVSPost2010Prop30
280
     1
102
RTVSPost2010PropOp30
 70
     1
102
RTVSPost2010Prop31
280
     0
102
RTVSPost2010PropOp31
 70
     1
102
RTVSPost2010Prop32
280
     0
102
RTVSPost2010PropOp32
 70
     1
102
RTVSPost2010Prop33
280
     0
102
RTVSPost2010PropOp33
 70
     1
102
RTVSPost2010Prop34
280
     0
102
RTVSPost2010PropOp34
 70
     1
102
RTVSPost2010Prop35
280
     0
102
RTVSPost2010PropOp35
 70
     1
102
RTVSPost2010Prop36
280
     0
102
RTVSPost2010PropOp36
 70
     1
102
RTVSPost2010Prop37
 90
       50
102
RTVSPost2010PropOp37
 70
     1
102
RTVSPost2010Prop38
140
0.0
102
RTVSPost2010PropOp38
 70
     1
102
RTVSPost2010Prop39
140
1.0
102
RTVSPost2010PropOp39
 70
     1
102
RTVSPost2010Prop40
 90
        0
102
RTVSPost2010PropOp40
 70
     1
102
RTVSPost2010Prop41ColorIndex
 90
       18
102
RTVSPost2010Prop41ColorRGB
 90
        0
102
RTVSPost2010PropOp41
 70
     1
102
RTVSPost2010Prop42
 90
       50
102
RTVSPost2010PropOp42
 70
     1
102
RTVSPost2010Prop43
 90
        3
102
RTVSPost2010PropOp43
 70
     1
102
RTVSPost2010Prop44ColorIndex
 90
        5
102
RTVSPost2010Prop44ColorRGB
 90
      255
102
RTVSPost2010PropOp44
 70
     1
102
RTVSPost2010Prop45
280
     0
102
RTVSPost2010PropOp45
 70
     1
102
RTVSPost2010Prop46
 90
       50
102
RTVSPost2010PropOp46
 70
     1
102
RTVSPost2010Prop47
 90
       50
102
RTVSPost2010PropOp47
 70
     1
102
RTVSPost2010Prop48
 90
       50
102
RTVSPost2010PropOp48
 70
     1
102
RTVSPost2010Prop49
280
     0
102
RTVSPost2010PropOp49
 70
     1
102
RTVSPost2010Prop50
 90
       50
102
RTVSPost2010PropOp50
 70
     1
102
RTVSPost2010Prop51ColorIndex
 90
      256
102
RTVSPost2010Prop51ColorRGB
 90
-16777216
102
RTVSPost2010PropOp51
 70
     0
102
RTVSPost2010Prop52
140
1.0
102
RTVSPost2010PropOp52
 70
     0
102
RTVSPost2010Prop53
 90
        2
102
RTVSPost2010PropOp53
 70
     1
102
RTVSPost2010Prop54
  1
strokes_ogs.tif
102
RTVSPost2010PropOp54
 70
     1
102
RTVSPost2010Prop55
280
     0
102
RTVSPost2010PropOp55
 70
     1
102
RTVSPost2010Prop56
140
1.0
102
RTVSPost2010PropOp56
 70
     1
102
RTVSPost2010Prop57
140
1.0
102
RTVSPost2010PropOp57
 70
     1
  0
ENDSEC
  0
EOF
