  0
SECTION
  2
HEADER
  9
$ACADVER
  1
AC1021
  9
$ACADMAINTVER
 70
    25
  9
$DWGCODEPAGE
  3
ANSI_932
  9
$INSBASE
 10
0.0
 20
0.0
 30
0.0
  9
$EXTMIN
 10
-2100.0
 20
-1485.0
 30
0.0
  9
$EXTMAX
 10
2100.0
 20
1485.0
 30
0.0
  9
$LIMMIN
 10
-2100.0
 20
-1485.0
  9
$LIMMAX
 10
2100.0
 20
1485.0
  9
$ORTHOMODE
 70
     0
  9
$REGENMODE
 70
     1
  9
$FILLMODE
 70
     1
  9
$QTEXTMODE
 70
     0
  9
$MIRRTEXT
 70
     1
  9
$LTSCALE
 40
10.0
  9
$ATTMODE
 70
     1
  9
$TEXTSIZE
 40
2.5
  9
$TRACEWID
 40
1.0
  9
$TEXTSTYLE
  7
Standard
  9
$CLAYER
  8
0
  9
$CELTYPE
  6
ByLayer
  9
$CECOLOR
 62
   256
  9
$CELTSCALE
 40
1.0
  9
$DISPSILH
 70
     0
  9
$DIMSCALE
 40
1.0
  9
$DIMASZ
 40
2.5
  9
$DIMEXO
 40
0.625
  9
$DIMDLI
 40
3.75
  9
$DIMRND
 40
0.0
  9
$DIMDLE
 40
0.0
  9
$DIMEXE
 40
1.25
  9
$DIMTP
 40
0.0
  9
$DIMTM
 40
0.0
  9
$DIMTXT
 40
2.5
  9
$DIMCEN
 40
2.5
  9
$DIMTSZ
 40
0.0
  9
$DIMTOL
 70
     0
  9
$DIMLIM
 70
     0
  9
$DIMTIH
 70
     0
  9
$DIMTOH
 70
     0
  9
$DIMSE1
 70
     0
  9
$DIMSE2
 70
     0
  9
$DIMTAD
 70
     1
  9
$DIMZIN
 70
     8
  9
$DIMBLK
  1

  9
$DIMASO
 70
     1
  9
$DIMSHO
 70
     1
  9
$DIMPOST
  1

  9
$DIMAPOST
  1

  9
$DIMALT
 70
     0
  9
$DIMALTD
 70
     3
  9
$DIMALTF
 40
0.03937007874016
  9
$DIMLFAC
 40
1.0
  9
$DIMTOFL
 70
     1
  9
$DIMTVP
 40
0.0
  9
$DIMTIX
 70
     0
  9
$DIMSOXD
 70
     0
  9
$DIMSAH
 70
     0
  9
$DIMBLK1
  1

  9
$DIMBLK2
  1

  9
$DIMSTYLE
  2
ISO-25
  9
$DIMCLRD
 70
     0
  9
$DIMCLRE
 70
     0
  9
$DIMCLRT
 70
     0
  9
$DIMTFAC
 40
1.0
  9
$DIMGAP
 40
0.625
  9
$DIMJUST
 70
     0
  9
$DIMSD1
 70
     0
  9
$DIMSD2
 70
     0
  9
$DIMTOLJ
 70
     0
  9
$DIMTZIN
 70
     8
  9
$DIMALTZ
 70
     0
  9
$DIMALTTZ
 70
     0
  9
$DIMUPT
 70
     0
  9
$DIMDEC
 70
     2
  9
$DIMTDEC
 70
     2
  9
$DIMALTU
 70
     2
  9
$DIMALTTD
 70
     3
  9
$DIMTXSTY
  7
Standard
  9
$DIMAUNIT
 70
     0
  9
$DIMADEC
 70
     0
  9
$DIMALTRND
 40
0.0
  9
$DIMAZIN
 70
     0
  9
$DIMDSEP
 70
    44
  9
$DIMATFIT
 70
     3
  9
$DIMFRAC
 70
     0
  9
$DIMLDRBLK
  1

  9
$DIMLUNIT
 70
     2
  9
$DIMLWD
 70
    -2
  9
$DIMLWE
 70
    -2
  9
$DIMTMOVE
 70
     0
  9
$DIMFXL
 40
1.0
  9
$DIMFXLON
 70
     0
  9
$DIMJOGANG
 40
0.7853981633974483
  9
$DIMTFILL
 70
     0
  9
$DIMTFILLCLR
 70
     0
  9
$DIMARCSYM
 70
     0
  9
$DIMLTYPE
  6

  9
$DIMLTEX1
  6

  9
$DIMLTEX2
  6

  9
$LUNITS
 70
     2
  9
$LUPREC
 70
     4
  9
$SKETCHINC
 40
1.0
  9
$FILLETRAD
 40
10.0
  9
$AUNITS
 70
     0
  9
$AUPREC
 70
     0
  9
$MENU
  1
.
  9
$ELEVATION
 40
0.0
  9
$PELEVATION
 40
0.0
  9
$THICKNESS
 40
0.0
  9
$LIMCHECK
 70
     0
  9
$CHAMFERA
 40
10.0
  9
$CHAMFERB
 40
10.0
  9
$CHAMFERC
 40
20.0
  9
$CHAMFERD
 40
0.0
  9
$SKPOLY
 70
     0
  9
$TDCREATE
 40
2457641.386450081
  9
$TDUCREATE
 40
2457641.011450081
  9
$TDUPDATE
 40
2457641.386450093
  9
$TDUUPDATE
 40
2457641.011450093
  9
$TDINDWG
 40
0.0000000116
  9
$TDUSRTIMER
 40
0.0000000116
  9
$USRTIMER
 70
     1
  9
$ANGBASE
 50
0.0
  9
$ANGDIR
 70
     0
  9
$PDMODE
 70
     0
  9
$PDSIZE
 40
0.0
  9
$PLINEWID
 40
0.0
  9
$SPLFRAME
 70
     0
  9
$SPLINETYPE
 70
     6
  9
$SPLINESEGS
 70
     8
  9
$HANDSEED
  5
5F2
  9
$SURFTAB1
 70
     6
  9
$SURFTAB2
 70
     6
  9
$SURFTYPE
 70
     6
  9
$SURFU
 70
     6
  9
$SURFV
 70
     6
  9
$UCSBASE
  2

  9
$UCSNAME
  2

  9
$UCSORG
 10
0.0
 20
0.0
 30
0.0
  9
$UCSXDIR
 10
1.0
 20
0.0
 30
0.0
  9
$UCSYDIR
 10
0.0
 20
1.0
 30
0.0
  9
$UCSORTHOREF
  2

  9
$UCSORTHOVIEW
 70
     0
  9
$UCSORGTOP
 10
0.0
 20
0.0
 30
0.0
  9
$UCSORGBOTTOM
 10
0.0
 20
0.0
 30
0.0
  9
$UCSORGLEFT
 10
0.0
 20
0.0
 30
0.0
  9
$UCSORGRIGHT
 10
0.0
 20
0.0
 30
0.0
  9
$UCSORGFRONT
 10
0.0
 20
0.0
 30
0.0
  9
$UCSORGBACK
 10
0.0
 20
0.0
 30
0.0
  9
$PUCSBASE
  2

  9
$PUCSNAME
  2

  9
$PUCSORG
 10
0.0
 20
0.0
 30
0.0
  9
$PUCSXDIR
 10
1.0
 20
0.0
 30
0.0
  9
$PUCSYDIR
 10
0.0
 20
1.0
 30
0.0
  9
$PUCSORTHOREF
  2

  9
$PUCSORTHOVIEW
 70
     0
  9
$PUCSORGTOP
 10
0.0
 20
0.0
 30
0.0
  9
$PUCSORGBOTTOM
 10
0.0
 20
0.0
 30
0.0
  9
$PUCSORGLEFT
 10
0.0
 20
0.0
 30
0.0
  9
$PUCSORGRIGHT
 10
0.0
 20
0.0
 30
0.0
  9
$PUCSORGFRONT
 10
0.0
 20
0.0
 30
0.0
  9
$PUCSORGBACK
 10
0.0
 20
0.0
 30
0.0
  9
$USERI1
 70
     0
  9
$USERI2
 70
     0
  9
$USERI3
 70
     0
  9
$USERI4
 70
     0
  9
$USERI5
 70
     0
  9
$USERR1
 40
0.0
  9
$USERR2
 40
0.0
  9
$USERR3
 40
0.0
  9
$USERR4
 40
0.0
  9
$USERR5
 40
0.0
  9
$WORLDVIEW
 70
     1
  9
$SHADEDGE
 70
     3
  9
$SHADEDIF
 70
    70
  9
$TILEMODE
 70
     1
  9
$MAXACTVP
 70
    64
  9
$PINSBASE
 10
0.0
 20
0.0
 30
0.0
  9
$PLIMCHECK
 70
     0
  9
$PEXTMIN
 10
1.000000000000000E+20
 20
1.000000000000000E+20
 30
1.000000000000000E+20
  9
$PEXTMAX
 10
-1.000000000000000E+20
 20
-1.000000000000000E+20
 30
-1.000000000000000E+20
  9
$PLIMMIN
 10
0.0
 20
0.0
  9
$PLIMMAX
 10
420.0
 20
297.0
  9
$UNITMODE
 70
     0
  9
$VISRETAIN
 70
     1
  9
$PLINEGEN
 70
     0
  9
$PSLTSCALE
 70
     1
  9
$TREEDEPTH
 70
  3020
  9
$CMLSTYLE
  2
Standard
  9
$CMLJUST
 70
     0
  9
$CMLSCALE
 40
20.0
  9
$PROXYGRAPHICS
 70
     1
  9
$MEASUREMENT
 70
     1
  9
$CELWEIGHT
370
    -1
  9
$ENDCAPS
280
     0
  9
$JOINSTYLE
280
     0
  9
$LWDISPLAY
290
     0
  9
$INSUNITS
 70
     4
  9
$HYPERLINKBASE
  1

  9
$STYLESHEET
  1

  9
$XEDIT
290
     1
  9
$CEPSNTYPE
380
     0
  9
$PSTYLEMODE
290
     1
  9
$FINGERPRINTGUID
  2
{586EFD6E-D8FA-4621-A8EC-6A4CD12E2769}
  9
$VERSIONGUID
  2
{FAEB1C32-E019-11D5-929B-00C0DF256EC4}
  9
$EXTNAMES
290
     1
  9
$PSVPSCALE
 40
0.0
  9
$OLESTARTUP
290
     0
  9
$SORTENTS
280
   127
  9
$INDEXCTL
280
     0
  9
$HIDETEXT
280
     1
  9
$XCLIPFRAME
290
     0
  9
$HALOGAP
280
     0
  9
$OBSCOLOR
 70
   257
  9
$OBSLTYPE
280
     0
  9
$INTERSECTIONDISPLAY
280
     0
  9
$INTERSECTIONCOLOR
 70
   257
  9
$DIMASSOC
280
     2
  9
$PROJECTNAME
  1

  9
$CAMERADISPLAY
290
     0
  9
$LENSLENGTH
 40
50.0
  9
$CAMERAHEIGHT
 40
0.0
  9
$STEPSPERSEC
 40
2.0
  9
$STEPSIZE
 40
6.0
  9
$3DDWFPREC
 40
2.0
  9
$PSOLWIDTH
 40
5.0
  9
$PSOLHEIGHT
 40
80.0
  9
$LOFTANG1
 40
1.570796326794897
  9
$LOFTANG2
 40
1.570796326794897
  9
$LOFTMAG1
 40
0.0
  9
$LOFTMAG2
 40
0.0
  9
$LOFTPARAM
 70
     7
  9
$LOFTNORMALS
280
     1
  9
$LATITUDE
 40
37.795
  9
$LONGITUDE
 40
-122.394
  9
$NORTHDIRECTION
 40
0.0
  9
$TIMEZONE
 70
 -8000
  9
$LIGHTGLYPHDISPLAY
280
     1
  9
$TILEMODELIGHTSYNCH
280
     1
  9
$SOLIDHIST
280
     1
  9
$SHOWHIST
280
     1
  9
$DWFFRAME
280
     2
  9
$DGNFRAME
280
     2
  9
$REALWORLDSCALE
290
     1
  9
$INTERFERECOLOR
 62
   256
  9
$CSHADOW
280
     0
  9
$SHADOWPLANELOCATION
 40
0.0
  0
ENDSEC
  0
SECTION
  2
CLASSES
  0
CLASS
  1
ACDBDICTIONARYWDFLT
  2
AcDbDictionaryWithDefault
  3
ObjectDBX Classes
 90
        0
 91
        4
280
     0
281
     0
  0
CLASS
  1
VISUALSTYLE
  2
AcDbVisualStyle
  3
ObjectDBX Classes
 90
     4095
 91
        4
280
     0
281
     0
  0
ENDSEC
  0
SECTION
  2
TABLES
  0
TABLE
  2
VPORT
  5
8
330
0
100
AcDbSymbolTable
 70
     1
  0
VPORT
  5
29
330
8
100
AcDbSymbolTableRecord
100
AcDbViewportTableRecord
  2
*Active
 70
     0
 10
0.0
 20
0.0
 11
1.0
 21
1.0
 12
0.0
 22
0.0
 13
0.0
 23
0.0
 14
10.0
 24
10.0
 15
10.0
 25
10.0
 16
0.0
 26
0.0
 36
1.0
 17
0.0
 27
0.0
 37
0.0
 40
3267.0
 41
1.414141414141414
 42
50.0
 43
0.0
 44
0.0
 50
0.0
 51
0.0
 71
     0
 72
 10000
 73
     1
 74
     3
 75
     0
 76
     0
 77
     0
 78
     0
281
     0
 65
     1
110
0.0
120
0.0
130
0.0
111
1.0
121
0.0
131
0.0
112
0.0
122
1.0
132
0.0
 79
     0
146
0.0
 60
     3
 61
     5
292
     1
282
     1
141
0.0
142
0.0
 63
   256
  0
ENDTAB
  0
TABLE
  2
LTYPE
  5
5
330
0
100
AcDbSymbolTable
 70
     4
  0
LTYPE
  5
14
330
5
100
AcDbSymbolTableRecord
100
AcDbLinetypeTableRecord
  2
ByBlock
 70
     0
  3

 72
    65
 73
     0
 40
0.0
  0
LTYPE
  5
15
330
5
100
AcDbSymbolTableRecord
100
AcDbLinetypeTableRecord
  2
ByLayer
 70
     0
  3

 72
    65
 73
     0
 40
0.0
  0
LTYPE
  5
16
330
5
100
AcDbSymbolTableRecord
100
AcDbLinetypeTableRecord
  2
Continuous
 70
     0
  3
Solid line
 72
    65
 73
     0
 40
0.0
  0
LTYPE
  5
3C
330
5
100
AcDbSymbolTableRecord
100
AcDbLinetypeTableRecord
  2
JWW_DASHED3
 70
     0
  3
---  ------  ------  ------  ---
 72
    65
 73
     2
 40
3.386666666666667
 49
2.54
 74
     0
 49
-0.8466666666666667
 74
     0
  0
LTYPE
  5
3D
330
5
100
AcDbSymbolTableRecord
100
AcDbLinetypeTableRecord
  2
JWW_CENTER2
 70
     0
  3
-------------  --  -------------
 72
    65
 73
     4
 40
13.54666666666667
 49
11.00666666666667
 74
     0
 49
-0.8466666666666667
 74
     0
 49
0.8466666666666667
 74
     0
 49
-0.8466666666666667
 74
     0
  0
LTYPE
  5
3E
330
5
100
AcDbSymbolTableRecord
100
AcDbLinetypeTableRecord
  2
JWW_CENTER1
 70
     0
  3
-----  --  ----------  --  -----
 72
    65
 73
     4
 40
6.773333333333333
 49
4.233333333333333
 74
     0
 49
-0.8466666666666667
 74
     0
 49
0.8466666666666667
 74
     0
 49
-0.8466666666666667
 74
     0
  0
ENDTAB
  0
TABLE
  2
LAYER
  5
2
330
0
100
AcDbSymbolTable
 70
    14
  0
LAYER
  5
10
330
2
100
AcDbSymbolTableRecord
100
AcDbLayerTableRecord
  2
0
 70
     0
 62
     7
  6
Continuous
370
    -3
390
F
347
0
  0
LAYER
  5
3F
330
2
100
AcDbSymbolTableRecord
100
AcDbLayerTableRecord
  2
D-5
 70
     0
 62
     7
  6
Continuous
370
    -3
390
F
347
0
  0
LAYER
  5
40
330
2
100
AcDbSymbolTableRecord
100
AcDbLayerTableRecord
  2
D-A
 70
     0
 62
     7
  6
Continuous
370
    -3
390
F
347
0
  0
LAYER
  5
41
330
2
100
AcDbSymbolTableRecord
100
AcDbLayerTableRecord
  2
D-9
 70
     0
 62
     7
  6
Continuous
370
    -3
390
F
347
0
  0
LAYER
  5
42
330
2
100
AcDbSymbolTableRecord
100
AcDbLayerTableRecord
  2
D-4
 70
     0
 62
     7
  6
Continuous
370
    -3
390
F
347
0
  0
LAYER
  5
43
330
2
100
AcDbSymbolTableRecord
100
AcDbLayerTableRecord
  2
D-6
 70
     0
 62
     7
  6
Continuous
370
    -3
390
F
347
0
  0
LAYER
  5
44
330
2
100
AcDbSymbolTableRecord
100
AcDbLayerTableRecord
  2
D-1
 70
     0
 62
     7
  6
Continuous
370
    -3
390
F
347
0
  0
LAYER
  5
45
330
2
100
AcDbSymbolTableRecord
100
AcDbLayerTableRecord
  2
D-0
 70
     0
 62
     7
  6
Continuous
370
    -3
390
F
347
0
  0
LAYER
  5
46
330
2
100
AcDbSymbolTableRecord
100
AcDbLayerTableRecord
  2
D-2
 70
     0
 62
     7
  6
Continuous
370
    -3
390
F
347
0
  0
LAYER
  5
47
330
2
100
AcDbSymbolTableRecord
100
AcDbLayerTableRecord
  2
C-A
 70
     0
 62
     7
  6
Continuous
370
    -3
390
F
347
0
  0
LAYER
  5
48
330
2
100
AcDbSymbolTableRecord
100
AcDbLayerTableRecord
  2
C-1
 70
     0
 62
     7
  6
Continuous
370
    -3
390
F
347
0
  0
LAYER
  5
49
330
2
100
AcDbSymbolTableRecord
100
AcDbLayerTableRecord
  2
C-5
 70
     0
 62
     7
  6
Continuous
370
    -3
390
F
347
0
  0
LAYER
  5
4A
330
2
100
AcDbSymbolTableRecord
100
AcDbLayerTableRecord
  2
C-4
 70
     0
 62
     7
  6
Continuous
370
    -3
390
F
347
0
  0
LAYER
  5
4B
330
2
100
AcDbSymbolTableRecord
100
AcDbLayerTableRecord
  2
F-5ﾚｲﾔ
 70
     0
 62
     7
  6
Continuous
370
    -3
390
F
347
0
  0
ENDTAB
  0
TABLE
  2
STYLE
  5
3
330
0
100
AcDbSymbolTable
 70
     2
  0
STYLE
  5
11
330
3
100
AcDbSymbolTableRecord
100
AcDbTextStyleTableRecord
  2
Standard
 70
     0
 40
0.0
 41
1.0
 50
0.0
 71
     0
 42
2.5
  3
txt
  4

1001
ACAD
1000

1071
        0
  0
STYLE
  5
3B
330
3
100
AcDbSymbolTableRecord
100
AcDbTextStyleTableRecord
  2
ＭＳ ゴシック
 70
     0
 40
1.0
 41
1.0
 50
0.0
 71
     0
 42
10.0
  3

  4

1001
ACAD
1000
MS Gothic
1071
    32817
  0
ENDTAB
  0
TABLE
  2
VIEW
  5
6
330
0
100
AcDbSymbolTable
 70
     0
  0
ENDTAB
  0
TABLE
  2
UCS
  5
7
330
0
100
AcDbSymbolTable
 70
     0
  0
ENDTAB
  0
TABLE
  2
APPID
  5
9
330
0
100
AcDbSymbolTable
 70
     1
  0
APPID
  5
12
330
9
100
AcDbSymbolTableRecord
100
AcDbRegAppTableRecord
  2
ACAD
 70
     0
  0
ENDTAB
  0
TABLE
  2
DIMSTYLE
  5
A
330
0
100
AcDbSymbolTable
 70
     1
100
AcDbDimStyleTable
  0
DIMSTYLE
105
27
330
A
100
AcDbSymbolTableRecord
100
AcDbDimStyleTableRecord
  2
ISO-25
 70
     0
 41
2.5
 42
0.625
 43
3.75
 44
1.25
 73
     0
 74
     0
 77
     1
 78
     8
140
2.5
141
2.5
143
0.03937007874016
147
0.625
171
     3
172
     1
271
     2
272
     2
274
     3
278
    44
283
     0
284
     8
340
11
  0
ENDTAB
  0
TABLE
  2
BLOCK_RECORD
  5
1
330
0
100
AcDbSymbolTable
 70
     1
  0
BLOCK_RECORD
  5
1F
330
1
100
AcDbSymbolTableRecord
100
AcDbBlockTableRecord
  2
*Model_Space
340
22
 70
     0
280
     1
281
     0
  0
BLOCK_RECORD
  5
1B
330
1
100
AcDbSymbolTableRecord
100
AcDbBlockTableRecord
  2
*Paper_Space
340
1E
 70
     0
280
     1
281
     0
  0
BLOCK_RECORD
  5
23
330
1
100
AcDbSymbolTableRecord
100
AcDbBlockTableRecord
  2
*Paper_Space0
340
26
 70
     0
280
     1
281
     0
  0
ENDTAB
  0
ENDSEC
  0
SECTION
  2
BLOCKS
  0
BLOCK
  5
20
330
1F
100
AcDbEntity
  8
0
100
AcDbBlockBegin
  2
*Model_Space
 70
     0
 10
0.0
 20
0.0
 30
0.0
  3
*Model_Space
  1

  0
ENDBLK
  5
21
330
1F
100
AcDbEntity
  8
0
100
AcDbBlockEnd
  0
BLOCK
  5
1C
330
1B
100
AcDbEntity
 67
     1
  8
0
100
AcDbBlockBegin
  2
*Paper_Space
 70
     0
 10
0.0
 20
0.0
 30
0.0
  3
*Paper_Space
  1

  0
ENDBLK
  5
1D
330
1B
100
AcDbEntity
 67
     1
  8
0
100
AcDbBlockEnd
  0
BLOCK
  5
24
330
23
100
AcDbEntity
  8
0
100
AcDbBlockBegin
  2
*Paper_Space0
 70
     0
 10
0.0
 20
0.0
 30
0.0
  3
*Paper_Space0
  1

  0
ENDBLK
  5
25
330
23
100
AcDbEntity
  8
0
100
AcDbBlockEnd
  0
ENDSEC
  0
SECTION
  2
ENTITIES
  0
LINE
  5
4C
330
1F
100
AcDbEntity
  8
D-5
  6
Continuous
 62
     2
370
     5
100
AcDbLine
 10
462.9630043637441
 20
-453.1040845293791
 30
0.0
 11
237.96323324558
 21
-453.1040845293791
 31
0.0
  0
LINE
  5
4D
330
1F
100
AcDbEntity
  8
D-5
  6
Continuous
 62
     2
370
     5
100
AcDbLine
 10
462.9630043637441
 20
-403.1039212126524
 30
0.0
 11
462.9630043637441
 21
-453.1040845293791
 31
0.0
  0
LINE
  5
4E
330
1F
100
AcDbEntity
  8
D-5
  6
Continuous
 62
     2
370
     5
100
AcDbLine
 10
237.96323324558
 20
-403.1039212126524
 30
0.0
 11
462.9630043637441
 21
-403.1039212126524
 31
0.0
  0
LINE
  5
4F
330
1F
100
AcDbEntity
  8
D-5
  6
Continuous
 62
     2
370
     5
100
AcDbLine
 10
237.96323324558
 20
-453.1040845293791
 30
0.0
 11
237.96323324558
 21
-403.1039212126524
 31
0.0
  0
TEXT
  5
50
330
1F
100
AcDbEntity
  8
D-5
  6
Continuous
 62
     2
370
     5
100
AcDbText
 10
399.7649910580799
 20
-765.3841721052916
 30
0.0
 40
30.48
  1
　　　サイドバー　ＳＵＳ３０４
 41
1.116666666666667
  7
ＭＳ ゴシック
100
AcDbText
  0
TEXT
  5
51
330
1F
100
AcDbEntity
  8
D-5
  6
Continuous
 62
     2
370
     5
100
AcDbText
 10
285.4627754819081
 20
-442.4638198847563
 30
0.0
 40
30.48
  1
仕　様
 41
1.083333333333333
  7
ＭＳ ゴシック
100
AcDbText
  0
TEXT
  5
52
330
1F
100
AcDbEntity
  8
D-5
  6
Continuous
 62
     2
370
     5
100
AcDbText
 10
399.7649910580799
 20
-635.3842293257505
 30
0.0
 40
30.48
  1
材質：メインバー　ＳＵＳ３０４　＠１７
 41
1.118421052631579
  7
ＭＳ ゴシック
100
AcDbText
  0
TEXT
  5
53
330
1F
100
AcDbEntity
  8
D-5
  6
Continuous
 62
     2
370
     5
100
AcDbText
 10
399.7649910580799
 20
-700.383962296942
 30
0.0
 40
30.48
  1
　　　クロスバー　ＳＵＳ３０４　＠８０
 41
1.118421052631579
  7
ＭＳ ゴシック
100
AcDbText
  0
TEXT
  5
54
330
1F
100
AcDbEntity
  8
D-5
  6
Continuous
 62
     2
370
     5
100
AcDbText
 10
340.0525429379627
 20
-847.7351924957903
 30
0.0
 40
30.48
  1
ステンレス製受枠　ＳＦ２０Ｂ（四方枠）
 41
1.118421052631579
  7
ＭＳ ゴシック
100
AcDbText
  0
TEXT
  5
55
330
1F
100
AcDbEntity
  8
D-5
  6
Continuous
 62
     2
370
     5
100
AcDbText
 10
399.7644570004627
 20
-912.7347728790911
 30
0.0
 40
30.48
  1
材質：冷間圧延ステンレス鋼板（ＳＵＳ３０４－２Ｂ）
 41
1.12
  7
ＭＳ ゴシック
100
AcDbText
  0
ARC
  5
56
330
1F
100
AcDbEntity
  8
D-A
  6
Continuous
 62
     3
370
     5
100
AcDbCircle
 10
-628.9611334526252
 20
-333.1038413424284
 30
0.0
 40
30.0
100
AcDbArc
 50
224.9996643066406
 51
270.0
  0
LINE
  5
57
330
1F
100
AcDbEntity
  8
D-A
  6
Continuous
 62
     3
370
     5
100
AcDbLine
 10
-666.3868565284918
 20
-338.103617228964
 30
0.0
 11
-666.3868565284918
 21
-322.6038680453092
 31
0.0
  0
LINE
  5
58
330
1F
100
AcDbEntity
  8
D-A
  6
Continuous
 62
     3
370
     5
100
AcDbLine
 10
-650.175117942066
 20
-354.3163476366789
 30
0.0
 11
-691.3872213089178
 21
-313.103252448538
 31
0.0
  0
LINE
  5
59
330
1F
100
AcDbEntity
  8
D-9
  6
Continuous
 62
     4
370
     5
100
AcDbLine
 10
-711.3873142921638
 20
-389.4787774462492
 30
0.0
 11
-715.012163909645
 21
-393.1036267657072
 31
0.0
  0
LINE
  5
5A
330
1F
100
AcDbEntity
  8
D-9
  6
Continuous
 62
     4
370
     5
100
AcDbLine
 10
-826.3875956260871
 20
-380.6034455675871
 30
0.0
 11
-711.3873142921638
 21
-380.6034455675871
 31
0.0
  0
LINE
  5
5B
330
1F
100
AcDbEntity
  8
D-9
  6
Continuous
 62
     4
370
     5
100
AcDbLine
 10
-711.3873142921638
 20
-382.4079404253752
 30
0.0
 11
-722.0834941589545
 21
-393.1036267657072
 31
0.0
  0
LINE
  5
5C
330
1F
100
AcDbEntity
  8
D-9
  6
Continuous
 62
     4
370
     5
100
AcDbLine
 10
-716.6541474112581
 20
-380.6034455675871
 30
0.0
 11
-729.1548247062873
 21
-393.1036267657072
 31
0.0
  0
LINE
  5
5D
330
1F
100
AcDbEntity
  8
D-9
  6
Continuous
 62
     4
370
     5
100
AcDbLine
 10
-723.725477548809
 20
-380.6034455675871
 30
0.0
 11
-736.22615525362
 21
-393.1036267657072
 31
0.0
  0
LINE
  5
5E
330
1F
100
AcDbEntity
  8
D-9
  6
Continuous
 62
     4
370
     5
100
AcDbLine
 10
-730.7968086921882
 20
-380.6034455675871
 30
0.0
 11
-743.2964939796638
 21
-393.1036267657072
 31
0.0
  0
LINE
  5
5F
330
1F
100
AcDbEntity
  8
D-9
  6
Continuous
 62
     4
370
     5
100
AcDbLine
 10
-737.8671474182319
 20
-380.6034455675871
 30
0.0
 11
-750.3678245269965
 21
-393.1036267657072
 31
0.0
  0
LINE
  5
60
330
1F
100
AcDbEntity
  8
D-9
  6
Continuous
 62
     4
370
     5
100
AcDbLine
 10
-744.9384779655646
 20
-380.6034455675871
 30
0.0
 11
-757.4391550743293
 21
-393.1036267657072
 31
0.0
  0
LINE
  5
61
330
1F
100
AcDbEntity
  8
D-9
  6
Continuous
 62
     4
370
     5
100
AcDbLine
 10
-752.0098085128974
 20
-380.6034455675871
 30
0.0
 11
-763.4947724067878
 21
-392.0879159350187
 31
0.0
  0
LINE
  5
62
330
1F
100
AcDbEntity
  8
D-9
  6
Continuous
 62
     4
370
     5
100
AcDbLine
 10
-759.0811390602302
 20
-380.6034455675871
 30
0.0
 11
-768.9082665168952
 21
-390.4305730242521
 31
0.0
  0
LINE
  5
63
330
1F
100
AcDbEntity
  8
D-9
  6
Continuous
 62
     4
370
     5
100
AcDbLine
 10
-766.1514801704596
 20
-380.6034455675871
 30
0.0
 11
-774.1245598518561
 21
-388.5765252489836
 31
0.0
  0
LINE
  5
64
330
1F
100
AcDbEntity
  8
D-9
  6
Continuous
 62
     4
370
     5
100
AcDbLine
 10
-773.2228083336066
 20
-380.6034455675871
 30
0.0
 11
-779.3408579551887
 21
-386.7219815630705
 31
0.0
  0
LINE
  5
65
330
1F
100
AcDbEntity
  8
D-9
  6
Continuous
 62
     4
370
     5
100
AcDbLine
 10
-780.2941364967536
 20
-380.6034455675871
 30
0.0
 11
-785.2944082939338
 21
-385.6037125963957
 31
0.0
  0
LINE
  5
66
330
1F
100
AcDbEntity
  8
D-9
  6
Continuous
 62
     4
370
     5
100
AcDbLine
 10
-787.3654694282721
 20
-380.6034455675871
 30
0.0
 11
-792.3647494041633
 21
-385.6037125963957
 31
0.0
  0
LINE
  5
67
330
1F
100
AcDbEntity
  8
D-9
  6
Continuous
 62
     4
370
     5
100
AcDbLine
 10
-822.7211279594611
 20
-380.6034455675871
 30
0.0
 11
-827.7204127037238
 21
-385.6037125963957
 31
0.0
  0
LINE
  5
68
330
1F
100
AcDbEntity
  8
D-A
  6
JWW_DASHED3
 62
     3
370
     5
100
AcDbLine
 10
-691.3872213089178
 20
-363.1034837145597
 30
0.0
 11
-691.3872213089178
 21
-313.103252448538
 31
0.0
  0
LINE
  5
69
330
1F
100
AcDbEntity
  8
D-A
  6
Continuous
 62
     3
370
     5
100
AcDbLine
 10
-691.3872213089178
 20
-313.103252448538
 30
0.0
 11
-691.3872213089178
 21
-283.1036094803602
 31
0.0
  0
LINE
  5
6A
330
1F
100
AcDbEntity
  8
D-A
  6
Continuous
 62
     3
370
     5
100
AcDbLine
 10
-541.3870138847541
 20
-401.6033921618254
 30
0.0
 11
-666.3868565284918
 21
-401.6033921618254
 31
0.0
  0
LINE
  5
6B
330
1F
100
AcDbEntity
  8
D-A
  6
Continuous
 62
     3
370
     5
100
AcDbLine
 10
-669.3170590126226
 20
-385.1741395373136
 30
0.0
 11
-691.3872213089178
 21
-363.1034837145597
 31
0.0
  0
LINE
  5
6C
330
1F
100
AcDbEntity
  8
D-A
  6
Continuous
 62
     3
370
     5
100
AcDbLine
 10
-666.3868565284918
 20
-413.1032166857511
 30
0.0
 11
-666.3868565284918
 21
-392.2454724688322
 31
0.0
  0
LINE
  5
6D
330
1F
100
AcDbEntity
  8
D-A
  6
Continuous
 62
     3
370
     5
100
AcDbLine
 10
-541.3870138847541
 20
-413.1032166857511
 30
0.0
 11
-666.3868565284918
 21
-413.1032166857511
 31
0.0
  0
LINE
  5
6E
330
1F
100
AcDbEntity
  8
D-A
  6
Continuous
 62
     3
370
     5
100
AcDbLine
 10
-691.3872213089178
 20
-395.603264369467
 30
0.0
 11
-691.3872213089178
 21
-363.1034837145597
 31
0.0
  0
LINE
  5
6F
330
1F
100
AcDbEntity
  8
D-A
  6
Continuous
 62
     3
370
     5
100
AcDbLine
 10
-691.3872213089178
 20
-395.603264369467
 30
0.0
 11
-702.8870517933082
 21
-395.603264369467
 31
0.0
  0
LINE
  5
70
330
1F
100
AcDbEntity
  8
D-A
  6
Continuous
 62
     3
370
     5
100
AcDbLine
 10
-702.8870517933082
 20
-283.1036094803602
 30
0.0
 11
-702.8870517933082
 21
-395.603264369467
 31
0.0
  0
LINE
  5
71
330
1F
100
AcDbEntity
  8
D-A
  6
JWW_CENTER2
 62
     3
370
     5
100
AcDbLine
 10
-648.3924240791509
 20
-340.6037507433683
 30
0.0
 11
-708.8098854744147
 21
-340.6037507433683
 31
0.0
  0
LINE
  5
72
330
1F
100
AcDbEntity
  8
D-A
  6
JWW_DASHED3
 62
     3
370
     5
100
AcDbLine
 10
-666.3868565284918
 20
-350.6037984270841
 30
0.0
 11
-702.8870517933082
 21
-350.6037984270841
 31
0.0
  0
LINE
  5
73
330
1F
100
AcDbEntity
  8
D-A
  6
JWW_DASHED3
 62
     3
370
     5
100
AcDbLine
 10
-666.3868565284918
 20
-358.603638209799
 30
0.0
 11
-666.3868565284918
 21
-338.103617228964
 31
0.0
  0
LINE
  5
74
330
1F
100
AcDbEntity
  8
D-A
  6
JWW_DASHED3
 62
     3
370
     5
100
AcDbLine
 10
-666.3868565284918
 20
-349.3542275805265
 30
0.0
 11
-702.8870517933082
 21
-349.3542275805265
 31
0.0
  0
LINE
  5
75
330
1F
100
AcDbEntity
  8
D-A
  6
Continuous
 62
     3
370
     5
100
AcDbLine
 10
-705.137471648426
 20
-330.6037078280241
 30
0.0
 11
-706.3870436870765
 21
-331.8537745852262
 31
0.0
  0
LINE
  5
76
330
1F
100
AcDbEntity
  8
D-A
  6
Continuous
 62
     3
370
     5
100
AcDbLine
 10
-705.137471648426
 20
-350.6037984270841
 30
0.0
 11
-706.3870436870765
 21
-349.3542275805265
 31
0.0
  0
LINE
  5
77
330
1F
100
AcDbEntity
  8
D-A
  6
Continuous
 62
     3
370
     5
100
AcDbLine
 10
-705.137471648426
 20
-330.6037078280241
 30
0.0
 11
-705.137471648426
 21
-350.6037984270841
 31
0.0
  0
LINE
  5
78
330
1F
100
AcDbEntity
  8
D-A
  6
Continuous
 62
     3
370
     5
100
AcDbLine
 10
-702.8870517933082
 20
-331.8537745852262
 30
0.0
 11
-706.3870436870765
 21
-331.8537745852262
 31
0.0
  0
LINE
  5
79
330
1F
100
AcDbEntity
  8
D-A
  6
Continuous
 62
     3
370
     5
100
AcDbLine
 10
-702.8870517933082
 20
-330.6037078280241
 30
0.0
 11
-705.137471648426
 21
-330.6037078280241
 31
0.0
  0
LINE
  5
7A
330
1F
100
AcDbEntity
  8
D-A
  6
Continuous
 62
     3
370
     5
100
AcDbLine
 10
-702.8870517933082
 20
-349.3542275805265
 30
0.0
 11
-706.3870436870765
 21
-349.3542275805265
 31
0.0
  0
LINE
  5
7B
330
1F
100
AcDbEntity
  8
D-A
  6
Continuous
 62
     3
370
     5
100
AcDbLine
 10
-702.8870517933082
 20
-350.6037984270841
 30
0.0
 11
-705.137471648426
 21
-350.6037984270841
 31
0.0
  0
LINE
  5
7C
330
1F
100
AcDbEntity
  8
D-A
  6
Continuous
 62
     3
370
     5
100
AcDbLine
 10
-659.8872990333746
 20
-322.6038680453092
 30
0.0
 11
-666.3868565284918
 21
-322.6038680453092
 31
0.0
  0
LINE
  5
7D
330
1F
100
AcDbEntity
  8
D-A
  6
JWW_DASHED3
 62
     3
370
     5
100
AcDbLine
 10
-659.8872990333746
 20
-358.603638209799
 30
0.0
 11
-666.3868565284918
 21
-358.603638209799
 31
0.0
  0
LINE
  5
7E
330
1F
100
AcDbEntity
  8
D-A
  6
JWW_DASHED3
 62
     3
370
     5
100
AcDbLine
 10
-653.3877415382574
 20
-352.1035800356657
 30
0.0
 11
-653.3877415382574
 21
-351.104219951132
 31
0.0
  0
LINE
  5
7F
330
1F
100
AcDbEntity
  8
D-A
  6
Continuous
 62
     3
370
     5
100
AcDbLine
 10
-653.3877415382574
 20
-329.1029296297819
 30
0.0
 11
-653.3877415382574
 21
-351.104219951132
 31
0.0
  0
LINE
  5
80
330
1F
100
AcDbEntity
  8
D-A
  6
Continuous
 62
     3
370
     5
100
AcDbLine
 10
-666.3868565284918
 20
-330.6037078280241
 30
0.0
 11
-673.8872666084478
 21
-330.6037078280241
 31
0.0
  0
LINE
  5
81
330
1F
100
AcDbEntity
  8
D-A
  6
Continuous
 62
     3
370
     5
100
AcDbLine
 10
-666.3868565284918
 20
-331.8537745852262
 30
0.0
 11
-672.6376909935186
 21
-331.8537745852262
 31
0.0
  0
LINE
  5
82
330
1F
100
AcDbEntity
  8
D-A
  6
JWW_DASHED3
 62
     3
370
     5
100
AcDbLine
 10
-673.8872666084478
 20
-330.6037078280241
 30
0.0
 11
-702.8870517933082
 21
-330.6037078280241
 31
0.0
  0
LINE
  5
83
330
1F
100
AcDbEntity
  8
D-A
  6
JWW_DASHED3
 62
     3
370
     5
100
AcDbLine
 10
-702.8870517933082
 20
-331.8537745852262
 30
0.0
 11
-672.6376909935186
 21
-331.8537745852262
 31
0.0
  0
LINE
  5
84
330
1F
100
AcDbEntity
  8
D-4
  6
Continuous
 62
     7
370
     5
100
AcDbLine
 10
-1414.055203887195
 20
-157.1846757311613
 30
0.0
 11
-841.3874239647101
 21
-157.1846757311613
 31
0.0
  0
LINE
  5
85
330
1F
100
AcDbEntity
  8
D-4
  6
Continuous
 62
     7
370
     5
100
AcDbLine
 10
-841.3874239647101
 20
-262.6476858038694
 30
0.0
 11
-841.3874239647101
 21
-154.1836247820646
 31
0.0
  0
LINE
  5
86
330
1F
100
AcDbEntity
  8
D-4
  6
Continuous
 62
     7
370
     5
100
AcDbLine
 10
-841.3874239647101
 20
-157.1846757311613
 30
0.0
 11
-716.3865942680549
 21
-157.1846757311613
 31
0.0
  0
LINE
  5
87
330
1F
100
AcDbEntity
  8
D-4
  6
Continuous
 62
     7
370
     5
100
AcDbLine
 10
-716.3865942680549
 20
-262.6476858038694
 30
0.0
 11
-716.3865942680549
 21
-45.43269018123453
 31
0.0
  0
LINE
  5
88
330
1F
100
AcDbEntity
  8
D-4
  6
Continuous
 62
     7
370
     5
100
AcDbLine
 10
-711.3863236629676
 20
-262.6476858038694
 30
0.0
 11
-711.3863236629676
 21
-45.43269018123453
 31
0.0
  0
LINE
  5
89
330
1F
100
AcDbEntity
  8
D-4
  6
Continuous
 62
     7
370
     5
100
AcDbLine
 10
-686.3879413330267
 20
-262.6476858038694
 30
0.0
 11
-686.3879413330267
 21
65.2639498334139
 31
0.0
  0
LINE
  5
8A
330
1F
100
AcDbEntity
  8
D-4
  6
Continuous
 62
     7
370
     5
100
AcDbLine
 10
-841.3864321434211
 20
-683.7223325152189
 30
0.0
 11
-691.3872213089178
 21
-683.7223325152189
 31
0.0
  0
LINE
  5
8B
330
1F
100
AcDbEntity
  8
D-6
  6
Continuous
 62
     6
370
     5
100
AcDbLine
 10
-691.3872213089178
 20
-528.1040082354338
 30
0.0
 11
-691.3872213089178
 21
-778.1036649126798
 31
0.0
  0
LINE
  5
8C
330
1F
100
AcDbEntity
  8
D-6
  6
JWW_DASHED3
 62
     6
370
     5
100
AcDbLine
 10
-597.8853316032599
 20
-655.6034741778166
 30
0.0
 11
-597.8853316032599
 21
-528.1040082354338
 31
0.0
  0
LINE
  5
8D
330
1F
100
AcDbEntity
  8
D-6
  6
JWW_DASHED3
 62
     6
370
     5
100
AcDbLine
 10
-552.8858656608771
 20
-528.1040082354338
 30
0.0
 11
-552.8858656608771
 21
-655.6034741778166
 31
0.0
  0
LINE
  5
8E
330
1F
100
AcDbEntity
  8
D-6
  6
Continuous
 62
     6
370
     5
100
AcDbLine
 10
-441.3875479423712
 20
-428.1040368456632
 30
0.0
 11
-276.3870520317267
 21
-428.1040368456632
 31
0.0
  0
LINE
  5
8F
330
1F
100
AcDbEntity
  8
D-6
  6
Continuous
 62
     6
370
     5
100
AcDbLine
 10
-441.3875479423712
 20
-428.1040368456632
 30
0.0
 11
-441.3875479423712
 21
-528.1040082354338
 31
0.0
  0
LINE
  5
90
330
1F
100
AcDbEntity
  8
D-6
  6
Continuous
 62
     6
370
     5
100
AcDbLine
 10
-691.3872213089178
 20
-528.1040082354338
 30
0.0
 11
-441.3875479423712
 21
-528.1040082354338
 31
0.0
  0
LINE
  5
91
330
1F
100
AcDbEntity
  8
D-6
  6
Continuous
 62
     6
370
     5
100
AcDbLine
 10
-597.8853316032599
 20
-330.604198970297
 30
0.0
 11
-552.8858656608771
 21
-330.604198970297
 31
0.0
  0
LINE
  5
92
330
1F
100
AcDbEntity
  8
D-6
  6
JWW_CENTER2
 62
     6
370
     5
100
AcDbLine
 10
-575.3860945427131
 20
-326.5240178484709
 30
0.0
 11
-575.3860945427131
 21
-655.6034741778166
 31
0.0
  0
LINE
  5
93
330
1F
100
AcDbEntity
  8
D-4
  6
Continuous
 62
     7
370
     5
100
AcDbLine
 10
-686.3869518959234
 20
-416.0715756792814
 30
0.0
 11
-686.3869518959234
 21
-471.6344342608244
 31
0.0
  0
LINE
  5
94
330
1F
100
AcDbEntity
  8
D-4
  6
Continuous
 62
     7
370
     5
100
AcDbLine
 10
-529.5601744377326
 20
-413.1037125963957
 30
0.0
 11
-450.3367132866095
 21
-413.1037125963957
 31
0.0
  0
LINE
  5
95
330
1F
100
AcDbEntity
  8
D-4
  6
Continuous
 62
     7
370
     5
100
AcDbLine
 10
-529.5601744377326
 20
-363.1039796252043
 30
0.0
 11
-450.3367132866095
 21
-363.1039796252043
 31
0.0
  0
LINE
  5
96
330
1F
100
AcDbEntity
  8
D-4
  6
Continuous
 62
     7
370
     5
100
AcDbLine
 10
-453.3362669670294
 20
-363.1039796252043
 30
0.0
 11
-453.3362669670294
 21
-278.103834189871
 31
0.0
  0
LINE
  5
97
330
1F
100
AcDbEntity
  8
D-6
  6
Continuous
 62
     6
370
     5
100
AcDbLine
 10
-597.8853316032599
 20
-363.1034837145597
 30
0.0
 11
-597.8853316032599
 21
-330.604198970297
 31
0.0
  0
LINE
  5
98
330
1F
100
AcDbEntity
  8
D-6
  6
Continuous
 62
     6
370
     5
100
AcDbLine
 10
-552.8858656608771
 20
-363.1034837145597
 30
0.0
 11
-552.8858656608771
 21
-330.604198970297
 31
0.0
  0
LINE
  5
99
330
1F
100
AcDbEntity
  8
D-6
  6
Continuous
 62
     6
370
     5
100
AcDbLine
 10
-597.8853316032599
 20
-528.1040082354338
 30
0.0
 11
-597.8853316032599
 21
-413.1032166857511
 31
0.0
  0
LINE
  5
9A
330
1F
100
AcDbEntity
  8
D-6
  6
Continuous
 62
     6
370
     5
100
AcDbLine
 10
-552.8858656608771
 20
-528.1040082354338
 30
0.0
 11
-552.8858656608771
 21
-413.1032166857511
 31
0.0
  0
LINE
  5
9B
330
1F
100
AcDbEntity
  8
D-4
  6
Continuous
 62
     7
370
     5
100
AcDbLine
 10
-1414.055203887195
 20
62.26338525821859
 30
0.0
 11
-686.3879413330267
 21
62.26338525821859
 31
0.0
  0
LINE
  5
9C
330
1F
100
AcDbEntity
  8
D-4
  6
Continuous
 62
     7
370
     5
100
AcDbLine
 10
-686.3869518959234
 20
-468.6343655962736
 30
0.0
 11
-541.3870138847541
 21
-468.6343655962736
 31
0.0
  0
LINE
  5
9D
330
1F
100
AcDbEntity
  8
D-4
  6
Continuous
 62
     7
370
     5
100
AcDbLine
 10
-453.3362669670294
 20
-413.1037125963957
 30
0.0
 11
-453.3362669670294
 21
-363.1039796252043
 31
0.0
  0
LINE
  5
9E
330
1F
100
AcDbEntity
  8
D-A
  6
Continuous
 62
     3
370
     5
100
AcDbLine
 10
-702.8870517933082
 20
-283.1036094803602
 30
0.0
 11
-691.3872213089178
 21
-283.1036094803602
 31
0.0
  0
LINE
  5
9F
330
1F
100
AcDbEntity
  8
D-6
  6
Continuous
 62
     6
370
     5
100
AcDbLine
 10
-689.3875093185613
 20
-278.103834189871
 30
0.0
 11
-276.3870520317267
 21
-278.103834189871
 31
0.0
  0
LINE
  5
A0
330
1F
100
AcDbEntity
  8
D-6
  6
Continuous
 62
     6
370
     5
100
AcDbLine
 10
-841.3864321434211
 20
-398.1033978838713
 30
0.0
 11
-841.3864321434211
 21
-778.1036649126798
 31
0.0
  0
LINE
  5
A1
330
1F
100
AcDbEntity
  8
D-A
  6
Continuous
 62
     3
370
     5
100
AcDbLine
 10
-541.3870138847541
 20
-373.1035313982755
 30
0.0
 11
-541.3870138847541
 21
-413.1032166857511
 31
0.0
  0
LINE
  5
A2
330
1F
100
AcDbEntity
  8
D-1
  6
Continuous
 62
     2
370
     5
100
AcDbLine
 10
-691.3882131302069
 20
-283.1036094803602
 30
0.0
 11
-706.3880343162726
 21
-283.1036094803602
 31
0.0
  0
LINE
  5
A3
330
1F
100
AcDbEntity
  8
D-1
  6
Continuous
 62
     2
370
     5
100
AcDbLine
 10
-686.3879413330267
 20
-375.6036649126798
 30
0.0
 11
-691.3882131302069
 21
-375.6036649126798
 31
0.0
  0
LINE
  5
A4
330
1F
100
AcDbEntity
  8
D-1
  6
Continuous
 62
     2
370
     5
100
AcDbLine
 10
-691.3882131302069
 20
-398.1033978838713
 30
0.0
 11
-691.3882131302069
 21
-375.6036649126798
 31
0.0
  0
LINE
  5
A5
330
1F
100
AcDbEntity
  8
D-1
  6
Continuous
 62
     2
370
     5
100
AcDbLine
 10
-686.3879413330267
 20
-305.6033430475981
 30
0.0
 11
-691.3882131302069
 21
-305.6033430475981
 31
0.0
  0
LINE
  5
A6
330
1F
100
AcDbEntity
  8
D-1
  6
Continuous
 62
     2
370
     5
100
AcDbLine
 10
-691.3882131302069
 20
-305.6033430475981
 30
0.0
 11
-691.3882131302069
 21
-283.1036094803602
 31
0.0
  0
LINE
  5
A7
330
1F
100
AcDbEntity
  8
D-1
  6
Continuous
 62
     2
370
     5
100
AcDbLine
 10
-686.3879413330267
 20
-281.1034021754057
 30
0.0
 11
-686.3879413330267
 21
-305.6033430475981
 31
0.0
  0
LINE
  5
A8
330
1F
100
AcDbEntity
  8
D-1
  6
Continuous
 62
     2
370
     5
100
AcDbLine
 10
-686.3879413330267
 20
-400.1036057848722
 30
0.0
 11
-686.3879413330267
 21
-375.6036649126798
 31
0.0
  0
LINE
  5
A9
330
1F
100
AcDbEntity
  8
D-1
  6
Continuous
 62
     2
370
     5
100
AcDbLine
 10
-711.3883052193831
 20
-393.1036267657072
 30
0.0
 11
-761.3880390846442
 21
-393.1036267657072
 31
0.0
  0
LINE
  5
AA
330
1F
100
AcDbEntity
  8
D-1
  6
Continuous
 62
     2
370
     5
100
AcDbLine
 10
-706.3880343162726
 20
-393.1036267657072
 30
0.0
 11
-706.3880343162726
 21
-283.1036094803602
 31
0.0
  0
LINE
  5
AB
330
1F
100
AcDbEntity
  8
D-1
  6
Continuous
 62
     2
370
     5
100
AcDbLine
 10
-711.3883052193831
 20
-393.1036267657072
 30
0.0
 11
-711.3883052193831
 21
-281.1034021754057
 31
0.0
  0
LINE
  5
AC
330
1F
100
AcDbEntity
  8
D-1
  6
Continuous
 62
     2
370
     5
100
AcDbLine
 10
-781.6755051338386
 20
-385.892571010092
 30
0.0
 11
-761.3880390846442
 21
-393.1036267657072
 31
0.0
  0
LINE
  5
AD
330
1F
100
AcDbEntity
  8
D-1
  6
Continuous
 62
     2
370
     5
100
AcDbLine
 10
-762.7585072242927
 20
-397.8150353808195
 30
0.0
 11
-783.0543942177009
 21
-390.6034837145597
 31
0.0
  0
LINE
  5
AE
330
1F
100
AcDbEntity
  8
D-1
  6
Continuous
 62
     2
370
     5
100
AcDbLine
 10
-708.3877463066291
 20
-278.103834189871
 30
0.0
 11
-689.3880052292059
 21
-278.103834189871
 31
0.0
  0
LINE
  5
AF
330
1F
100
AcDbEntity
  8
D-1
  6
Continuous
 62
     2
370
     5
100
AcDbLine
 10
-836.3881392204474
 20
-398.1033978838713
 30
0.0
 11
-691.3882131302069
 21
-398.1033978838713
 31
0.0
  0
LINE
  5
B0
330
1F
100
AcDbEntity
  8
D-1
  6
Continuous
 62
     2
370
     5
100
AcDbLine
 10
-836.3881392204474
 20
-398.1033978838713
 30
0.0
 11
-836.3881392204474
 21
-390.6034837145597
 31
0.0
  0
LINE
  5
B1
330
1F
100
AcDbEntity
  8
D-1
  6
Continuous
 62
     2
370
     5
100
AcDbLine
 10
-836.3881392204474
 20
-403.103674449423
 30
0.0
 11
-689.3880052292059
 21
-403.103674449423
 31
0.0
  0
LINE
  5
B2
330
1F
100
AcDbEntity
  8
D-1
  6
Continuous
 62
     2
370
     5
100
AcDbLine
 10
-841.3879198753547
 20
-398.1033978838713
 30
0.0
 11
-841.3879198753547
 21
-390.6034837145597
 31
0.0
  0
LINE
  5
B3
330
1F
100
AcDbEntity
  8
D-1
  6
Continuous
 62
     2
370
     5
100
AcDbLine
 10
-799.5579619133185
 20
-386.2735829729826
 30
0.0
 11
-811.3882727348517
 21
-393.1036267657072
 31
0.0
  0
LINE
  5
B4
330
1F
100
AcDbEntity
  8
D-1
  6
Continuous
 62
     2
370
     5
100
AcDbLine
 10
-808.8881392204474
 20
-397.4335275072843
 30
0.0
 11
-797.0578283989142
 21
-390.6034837145597
 31
0.0
  0
LINE
  5
B5
330
1F
100
AcDbEntity
  8
D-1
  6
Continuous
 62
     2
370
     5
100
AcDbLine
 10
-813.8879103386115
 20
-397.4335275072843
 30
0.0
 11
-825.7182211601447
 21
-390.6034837145597
 31
0.0
  0
LINE
  5
B6
330
1F
100
AcDbEntity
  8
D-1
  6
Continuous
 62
     2
370
     5
100
AcDbLine
 10
-823.2180876457404
 20
-386.2735829729826
 30
0.0
 11
-811.3882727348517
 21
-393.1036267657072
 31
0.0
  0
LINE
  5
B7
330
1F
100
AcDbEntity
  8
D-1
  6
Continuous
 62
     2
370
     5
100
AcDbLine
 10
-783.0543942177009
 20
-390.6034837145597
 30
0.0
 11
-797.0578283989142
 21
-390.6034837145597
 31
0.0
  0
LINE
  5
B8
330
1F
100
AcDbEntity
  8
D-1
  6
Continuous
 62
     2
370
     5
100
AcDbLine
 10
-825.7182211601447
 20
-390.6034837145597
 30
0.0
 11
-836.3881392204474
 21
-390.6034837145597
 31
0.0
  0
LINE
  5
B9
330
1F
100
AcDbEntity
  8
D-1
  6
Continuous
 62
     2
370
     5
100
AcDbLine
 10
-783.350190612049
 20
-385.6037125963957
 30
0.0
 11
-797.0578283989142
 21
-385.6037125963957
 31
0.0
  0
LINE
  5
BA
330
1F
100
AcDbEntity
  8
D-1
  6
Continuous
 62
     2
370
     5
100
AcDbLine
 10
-825.7182211601447
 20
-385.6037125963957
 30
0.0
 11
-836.3881392204474
 21
-385.6037125963957
 31
0.0
  0
LINE
  5
BB
330
1F
100
AcDbEntity
  8
D-9
  6
Continuous
 62
     4
370
     5
100
AcDbLine
 10
-794.4358105385016
 20
-380.6034455675871
 30
0.0
 11
-800.8541102134894
 21
-387.0217404742033
 31
0.0
  0
LINE
  5
BC
330
1F
100
AcDbEntity
  8
D-9
  6
Continuous
 62
     4
370
     5
100
AcDbLine
 10
-801.5071387016486
 20
-380.6034455675871
 30
0.0
 11
-813.0485911094855
 21
-392.1448884386808
 31
0.0
  0
LINE
  5
BD
330
1F
100
AcDbEntity
  8
D-9
  6
Continuous
 62
     4
370
     5
100
AcDbLine
 10
-808.5784716331672
 20
-380.6034455675871
 30
0.0
 11
-817.5315947258185
 21
-389.5565591234953
 31
0.0
  0
LINE
  5
BE
330
1F
100
AcDbEntity
  8
D-9
  6
Continuous
 62
     4
370
     5
100
AcDbLine
 10
-815.6497950279426
 20
-380.6034455675871
 30
0.0
 11
-822.0135969841193
 21
-386.9687257189543
 31
0.0
  0
LINE
  5
BF
330
1F
100
AcDbEntity
  8
D-4
  6
Continuous
 62
     7
370
     5
100
AcDbLine
 10
-541.3870138847541
 20
-422.9798970598966
 30
0.0
 11
-541.3870138847541
 21
-471.6344342608244
 31
0.0
  0
LINE
  5
C0
330
1F
100
AcDbEntity
  8
D-6
  6
Continuous
 62
     6
370
     5
100
AcDbLine
 10
-441.3875479423712
 20
-475.4440961260588
 30
0.0
 11
-394.0474981987189
 21
-428.1040368456632
 31
0.0
  0
LINE
  5
C1
330
1F
100
AcDbEntity
  8
D-6
  6
Continuous
 62
     6
370
     5
100
AcDbLine
 10
-691.3872213089178
 20
-725.4417691607267
 30
0.0
 11
-494.0479559623907
 21
-528.1040082354338
 31
0.0
  0
LINE
  5
C2
330
1F
100
AcDbEntity
  8
D-6
  6
Continuous
 62
     6
370
     5
100
AcDbLine
 10
-691.3872213089178
 20
-739.582470454672
 30
0.0
 11
-479.9072737419318
 21
-528.1040082354338
 31
0.0
  0
LINE
  5
C3
330
1F
100
AcDbEntity
  8
D-6
  6
Continuous
 62
     6
370
     5
100
AcDbLine
 10
-441.3875479423712
 20
-489.5847783465177
 30
0.0
 11
-379.9067969047736
 21
-428.1040368456632
 31
0.0
  0
LINE
  5
C4
330
1F
100
AcDbEntity
  8
D-6
  6
Continuous
 62
     6
370
     5
100
AcDbLine
 10
-691.3872213089178
 20
-753.7231336016447
 30
0.0
 11
-465.7665915214728
 21
-528.1040082354338
 31
0.0
  0
LINE
  5
C5
330
1F
100
AcDbEntity
  8
D-6
  6
Continuous
 62
     6
370
     5
100
AcDbLine
 10
-441.3875479423712
 20
-503.7254414934904
 30
0.0
 11
-365.7661337578009
 21
-428.1040368456632
 31
0.0
  0
LINE
  5
C6
330
1F
100
AcDbEntity
  8
D-6
  6
Continuous
 62
     6
370
     5
100
AcDbLine
 10
-352.2150702202032
 20
-778.1036649126798
 30
0.0
 11
-276.3860602104376
 21
-702.2756467242033
 31
0.0
  0
LINE
  5
C7
330
1F
100
AcDbEntity
  8
D-6
  6
Continuous
 62
     6
370
     5
100
AcDbLine
 10
-366.3557333671759
 20
-778.1036649126798
 30
0.0
 11
-276.3860602104376
 21
-688.1349835772306
 31
0.0
  0
LINE
  5
C8
330
1F
100
AcDbEntity
  8
D-6
  6
Continuous
 62
     6
370
     5
100
AcDbLine
 10
-338.0743689262579
 20
-778.1036649126798
 30
0.0
 11
-276.3860602104376
 21
-716.4163098711759
 31
0.0
  0
LINE
  5
C9
330
1F
100
AcDbEntity
  8
D-0
  6
Continuous
 62
     7
370
     5
100
AcDbLine
 10
-414.5420546257208
 20
-299.0537403006346
 30
0.0
 11
-414.5420546257208
 21
-297.5534603972227
 31
0.0
  0
LINE
  5
CA
330
1F
100
AcDbEntity
  8
D-0
  6
Continuous
 62
     7
370
     5
100
AcDbLine
 10
-414.5420546257208
 20
-297.5534603972227
 30
0.0
 11
-413.0422682487677
 21
-297.5534603972227
 31
0.0
  0
LINE
  5
CB
330
1F
100
AcDbEntity
  8
D-0
  6
Continuous
 62
     7
370
     5
100
AcDbLine
 10
-413.0422682487677
 20
-297.5534603972227
 30
0.0
 11
-413.0422682487677
 21
-299.0537403006346
 31
0.0
  0
LINE
  5
CC
330
1F
100
AcDbEntity
  8
D-0
  6
Continuous
 62
     7
370
     5
100
AcDbLine
 10
-413.0422682487677
 20
-299.0537403006346
 30
0.0
 11
-414.5420546257208
 21
-299.0537403006346
 31
0.0
  0
LINE
  5
CD
330
1F
100
AcDbEntity
  8
D-0
  6
Continuous
 62
     7
370
     5
100
AcDbLine
 10
-363.7862295829962
 20
-301.7609820742399
 30
0.0
 11
-363.7862295829962
 21
-300.260702170828
 31
0.0
  0
LINE
  5
CE
330
1F
100
AcDbEntity
  8
D-0
  6
Continuous
 62
     7
370
     5
100
AcDbLine
 10
-363.7862295829962
 20
-300.260702170828
 30
0.0
 11
-362.2859472953986
 21
-300.260702170828
 31
0.0
  0
LINE
  5
CF
330
1F
100
AcDbEntity
  8
D-0
  6
Continuous
 62
     7
370
     5
100
AcDbLine
 10
-362.2859472953986
 20
-300.260702170828
 30
0.0
 11
-362.2859472953986
 21
-301.7609820742399
 31
0.0
  0
LINE
  5
D0
330
1F
100
AcDbEntity
  8
D-0
  6
Continuous
 62
     7
370
     5
100
AcDbLine
 10
-362.2859472953986
 20
-301.7609820742399
 30
0.0
 11
-363.7862295829962
 21
-301.7609820742399
 31
0.0
  0
LINE
  5
D1
330
1F
100
AcDbEntity
  8
D-0
  6
Continuous
 62
     7
370
     5
100
AcDbLine
 10
-298.81888339159
 20
-299.7305510420591
 30
0.0
 11
-298.81888339159
 21
-298.2302711386473
 31
0.0
  0
LINE
  5
D2
330
1F
100
AcDbEntity
  8
D-0
  6
Continuous
 62
     7
370
     5
100
AcDbLine
 10
-298.81888339159
 20
-298.2302711386473
 30
0.0
 11
-297.3186011039923
 21
-298.2302711386473
 31
0.0
  0
LINE
  5
D3
330
1F
100
AcDbEntity
  8
D-0
  6
Continuous
 62
     7
370
     5
100
AcDbLine
 10
-297.3186011039923
 20
-298.2302711386473
 30
0.0
 11
-297.3186011039923
 21
-299.7305510420591
 31
0.0
  0
LINE
  5
D4
330
1F
100
AcDbEntity
  8
D-0
  6
Continuous
 62
     7
370
     5
100
AcDbLine
 10
-297.3186011039923
 20
-299.7305510420591
 30
0.0
 11
-298.81888339159
 21
-299.7305510420591
 31
0.0
  0
LINE
  5
D5
330
1F
100
AcDbEntity
  8
D-0
  6
Continuous
 62
     7
370
     5
100
AcDbLine
 10
-323.1816000663947
 20
-332.2144732851774
 30
0.0
 11
-323.1816000663947
 21
-330.7141957659513
 31
0.0
  0
LINE
  5
D6
330
1F
100
AcDbEntity
  8
D-0
  6
Continuous
 62
     7
370
     5
100
AcDbLine
 10
-323.1816000663947
 20
-330.7141957659513
 30
0.0
 11
-321.681317778797
 21
-330.7141957659513
 31
0.0
  0
LINE
  5
D7
330
1F
100
AcDbEntity
  8
D-0
  6
Continuous
 62
     7
370
     5
100
AcDbLine
 10
-321.681317778797
 20
-330.7141957659513
 30
0.0
 11
-321.681317778797
 21
-332.2144732851774
 31
0.0
  0
LINE
  5
D8
330
1F
100
AcDbEntity
  8
D-0
  6
Continuous
 62
     7
370
     5
100
AcDbLine
 10
-321.681317778797
 20
-332.2144732851774
 30
0.0
 11
-323.1816000663947
 21
-332.2144732851774
 31
0.0
  0
LINE
  5
D9
330
1F
100
AcDbEntity
  8
D-0
  6
Continuous
 62
     7
370
     5
100
AcDbLine
 10
-373.746633025379
 20
-336.1455235857755
 30
0.0
 11
-373.746633025379
 21
-334.6452460665495
 31
0.0
  0
LINE
  5
DA
330
1F
100
AcDbEntity
  8
D-0
  6
Continuous
 62
     7
370
     5
100
AcDbLine
 10
-373.746633025379
 20
-334.6452460665495
 30
0.0
 11
-372.2468466484259
 21
-334.6452460665495
 31
0.0
  0
LINE
  5
DB
330
1F
100
AcDbEntity
  8
D-0
  6
Continuous
 62
     7
370
     5
100
AcDbLine
 10
-372.2468466484259
 20
-334.6452460665495
 30
0.0
 11
-372.2468466484259
 21
-336.1455235857755
 31
0.0
  0
LINE
  5
DC
330
1F
100
AcDbEntity
  8
D-0
  6
Continuous
 62
     7
370
     5
100
AcDbLine
 10
-372.2468466484259
 20
-336.1455235857755
 30
0.0
 11
-373.746633025379
 21
-336.1455235857755
 31
0.0
  0
LINE
  5
DD
330
1F
100
AcDbEntity
  8
D-0
  6
Continuous
 62
     7
370
     5
100
AcDbLine
 10
-390.8561606132697
 20
-370.1123891253263
 30
0.0
 11
-390.8561606132697
 21
-368.6121068377287
 31
0.0
  0
LINE
  5
DE
330
1F
100
AcDbEntity
  8
D-0
  6
Continuous
 62
     7
370
     5
100
AcDbLine
 10
-390.8561606132697
 20
-368.6121068377287
 30
0.0
 11
-389.355878325672
 21
-368.6121068377287
 31
0.0
  0
LINE
  5
DF
330
1F
100
AcDbEntity
  8
D-0
  6
Continuous
 62
     7
370
     5
100
AcDbLine
 10
-389.355878325672
 20
-368.6121068377287
 30
0.0
 11
-389.355878325672
 21
-370.1123891253263
 31
0.0
  0
LINE
  5
E0
330
1F
100
AcDbEntity
  8
D-0
  6
Continuous
 62
     7
370
     5
100
AcDbLine
 10
-389.355878325672
 20
-370.1123891253263
 30
0.0
 11
-390.8561606132697
 21
-370.1123891253263
 31
0.0
  0
LINE
  5
E1
330
1F
100
AcDbEntity
  8
D-0
  6
Continuous
 62
     7
370
     5
100
AcDbLine
 10
-422.2124190056036
 20
-355.5406508822233
 30
0.0
 11
-422.2124190056036
 21
-354.0403685946256
 31
0.0
  0
LINE
  5
E2
330
1F
100
AcDbEntity
  8
D-0
  6
Continuous
 62
     7
370
     5
100
AcDbLine
 10
-422.2124190056036
 20
-354.0403685946256
 30
0.0
 11
-420.7126326286505
 21
-354.0403685946256
 31
0.0
  0
LINE
  5
E3
330
1F
100
AcDbEntity
  8
D-0
  6
Continuous
 62
     7
370
     5
100
AcDbLine
 10
-420.7126326286505
 20
-354.0403685946256
 30
0.0
 11
-420.7126326286505
 21
-355.5406508822233
 31
0.0
  0
LINE
  5
E4
330
1F
100
AcDbEntity
  8
D-0
  6
Continuous
 62
     7
370
     5
100
AcDbLine
 10
-420.7126326286505
 20
-355.5406508822233
 30
0.0
 11
-422.2124190056036
 21
-355.5406508822233
 31
0.0
  0
LINE
  5
E5
330
1F
100
AcDbEntity
  8
D-0
  6
Continuous
 62
     7
370
     5
100
AcDbLine
 10
-432.9368300163458
 20
-396.7606816668302
 30
0.0
 11
-432.9368300163458
 21
-395.2603993792326
 31
0.0
  0
LINE
  5
E6
330
1F
100
AcDbEntity
  8
D-0
  6
Continuous
 62
     7
370
     5
100
AcDbLine
 10
-432.9368300163458
 20
-395.2603993792326
 30
0.0
 11
-431.4365477287482
 21
-395.2603993792326
 31
0.0
  0
LINE
  5
E7
330
1F
100
AcDbEntity
  8
D-0
  6
Continuous
 62
     7
370
     5
100
AcDbLine
 10
-431.4365477287482
 20
-395.2603993792326
 30
0.0
 11
-431.4365477287482
 21
-396.7606816668302
 31
0.0
  0
LINE
  5
E8
330
1F
100
AcDbEntity
  8
D-0
  6
Continuous
 62
     7
370
     5
100
AcDbLine
 10
-431.4365477287482
 20
-396.7606816668302
 30
0.0
 11
-432.9368300163458
 21
-396.7606816668302
 31
0.0
  0
LINE
  5
E9
330
1F
100
AcDbEntity
  8
D-0
  6
Continuous
 62
     7
370
     5
100
AcDbLine
 10
-395.5933661186407
 20
-405.3030572314054
 30
0.0
 11
-395.5933661186407
 21
-403.8027749438078
 31
0.0
  0
LINE
  5
EA
330
1F
100
AcDbEntity
  8
D-0
  6
Continuous
 62
     7
370
     5
100
AcDbLine
 10
-395.5933661186407
 20
-403.8027749438078
 30
0.0
 11
-394.0930838310431
 21
-403.8027749438078
 31
0.0
  0
LINE
  5
EB
330
1F
100
AcDbEntity
  8
D-0
  6
Continuous
 62
     7
370
     5
100
AcDbLine
 10
-394.0930838310431
 20
-403.8027749438078
 30
0.0
 11
-394.0930838310431
 21
-405.3030572314054
 31
0.0
  0
LINE
  5
EC
330
1F
100
AcDbEntity
  8
D-0
  6
Continuous
 62
     7
370
     5
100
AcDbLine
 10
-394.0930838310431
 20
-405.3030572314054
 30
0.0
 11
-395.5933661186407
 21
-405.3030572314054
 31
0.0
  0
LINE
  5
ED
330
1F
100
AcDbEntity
  8
D-0
  6
Continuous
 62
     7
370
     5
100
AcDbLine
 10
-343.3882803642462
 20
-410.0278458971769
 30
0.0
 11
-343.3882803642462
 21
-408.5275636095793
 31
0.0
  0
LINE
  5
EE
330
1F
100
AcDbEntity
  8
D-0
  6
Continuous
 62
     7
370
     5
100
AcDbLine
 10
-343.3882803642462
 20
-408.5275636095793
 30
0.0
 11
-341.8884939872931
 21
-408.5275636095793
 31
0.0
  0
LINE
  5
EF
330
1F
100
AcDbEntity
  8
D-0
  6
Continuous
 62
     7
370
     5
100
AcDbLine
 10
-341.8884939872931
 20
-408.5275636095793
 30
0.0
 11
-341.8884939872931
 21
-410.0278458971769
 31
0.0
  0
LINE
  5
F0
330
1F
100
AcDbEntity
  8
D-0
  6
Continuous
 62
     7
370
     5
100
AcDbLine
 10
-341.8884939872931
 20
-410.0278458971769
 30
0.0
 11
-343.3882803642462
 21
-410.0278458971769
 31
0.0
  0
LINE
  5
F1
330
1F
100
AcDbEntity
  8
D-0
  6
Continuous
 62
     7
370
     5
100
AcDbLine
 10
-288.6677069389532
 20
-403.2726273913175
 30
0.0
 11
-288.6677069389532
 21
-401.7723451037199
 31
0.0
  0
LINE
  5
F2
330
1F
100
AcDbEntity
  8
D-0
  6
Continuous
 62
     7
370
     5
100
AcDbLine
 10
-288.6677069389532
 20
-401.7723451037199
 30
0.0
 11
-287.1674627983282
 21
-401.7723451037199
 31
0.0
  0
LINE
  5
F3
330
1F
100
AcDbEntity
  8
D-0
  6
Continuous
 62
     7
370
     5
100
AcDbLine
 10
-287.1674627983282
 20
-401.7723451037199
 30
0.0
 11
-287.1674627983282
 21
-403.2726273913175
 31
0.0
  0
LINE
  5
F4
330
1F
100
AcDbEntity
  8
D-0
  6
Continuous
 62
     7
370
     5
100
AcDbLine
 10
-287.1674627983282
 20
-403.2726273913175
 30
0.0
 11
-288.6677069389532
 21
-403.2726273913175
 31
0.0
  0
LINE
  5
F5
330
1F
100
AcDbEntity
  8
D-0
  6
Continuous
 62
     7
370
     5
100
AcDbLine
 10
-300.8483404838751
 20
-363.3447823900968
 30
0.0
 11
-300.8483404838751
 21
-361.8445001024992
 31
0.0
  0
LINE
  5
F6
330
1F
100
AcDbEntity
  8
D-0
  6
Continuous
 62
     7
370
     5
100
AcDbLine
 10
-300.8483404838751
 20
-361.8445001024992
 30
0.0
 11
-299.3480581962775
 21
-361.8445001024992
 31
0.0
  0
LINE
  5
F7
330
1F
100
AcDbEntity
  8
D-0
  6
Continuous
 62
     7
370
     5
100
AcDbLine
 10
-299.3480581962775
 20
-361.8445001024992
 30
0.0
 11
-299.3480581962775
 21
-363.3447823900968
 31
0.0
  0
LINE
  5
F8
330
1F
100
AcDbEntity
  8
D-0
  6
Continuous
 62
     7
370
     5
100
AcDbLine
 10
-299.3480581962775
 20
-363.3447823900968
 30
0.0
 11
-300.8483404838751
 21
-363.3447823900968
 31
0.0
  0
LINE
  5
F9
330
1F
100
AcDbEntity
  8
D-0
  6
Continuous
 62
     7
370
     5
100
AcDbLine
 10
-341.8775839531134
 20
-372.462395228842
 30
0.0
 11
-341.8775839531134
 21
-370.9621129412443
 31
0.0
  0
LINE
  5
FA
330
1F
100
AcDbEntity
  8
D-0
  6
Continuous
 62
     7
370
     5
100
AcDbLine
 10
-341.8775839531134
 20
-370.9621129412443
 30
0.0
 11
-340.3778357231329
 21
-370.9621129412443
 31
0.0
  0
LINE
  5
FB
330
1F
100
AcDbEntity
  8
D-0
  6
Continuous
 62
     7
370
     5
100
AcDbLine
 10
-340.3778357231329
 20
-370.9621129412443
 30
0.0
 11
-340.3778357231329
 21
-372.462395228842
 31
0.0
  0
LINE
  5
FC
330
1F
100
AcDbEntity
  8
D-0
  6
Continuous
 62
     7
370
     5
100
AcDbLine
 10
-340.3778357231329
 20
-372.462395228842
 30
0.0
 11
-341.8775839531134
 21
-372.462395228842
 31
0.0
  0
LINE
  5
FD
330
1F
100
AcDbEntity
  8
D-0
  6
Continuous
 62
     7
370
     5
100
AcDbLine
 10
-281.3922781669806
 20
-332.9740271944792
 30
0.0
 11
-281.3922781669806
 21
-331.4737496752531
 31
0.0
  0
LINE
  5
FE
330
1F
100
AcDbEntity
  8
D-0
  6
Continuous
 62
     7
370
     5
100
AcDbLine
 10
-281.3922781669806
 20
-331.4737496752531
 30
0.0
 11
-279.8919958793829
 21
-331.4737496752531
 31
0.0
  0
LINE
  5
FF
330
1F
100
AcDbEntity
  8
D-0
  6
Continuous
 62
     7
370
     5
100
AcDbLine
 10
-279.8919958793829
 20
-331.4737496752531
 30
0.0
 11
-279.8919958793829
 21
-332.9740271944792
 31
0.0
  0
LINE
  5
100
330
1F
100
AcDbEntity
  8
D-0
  6
Continuous
 62
     7
370
     5
100
AcDbLine
 10
-279.8919958793829
 20
-332.9740271944792
 30
0.0
 11
-281.3922781669806
 21
-332.9740271944792
 31
0.0
  0
LINE
  5
101
330
1F
100
AcDbEntity
  8
D-0
  6
Continuous
 62
     7
370
     5
100
AcDbLine
 10
-435.393361541004
 20
-322.0811496157438
 30
0.0
 11
-435.393361541004
 21
-320.5808673281462
 31
0.0
  0
LINE
  5
102
330
1F
100
AcDbEntity
  8
D-0
  6
Continuous
 62
     7
370
     5
100
AcDbLine
 10
-435.393361541004
 20
-320.5808673281462
 30
0.0
 11
-433.8930983268927
 21
-320.5808673281462
 31
0.0
  0
LINE
  5
103
330
1F
100
AcDbEntity
  8
D-0
  6
Continuous
 62
     7
370
     5
100
AcDbLine
 10
-433.8930983268927
 20
-320.5808673281462
 30
0.0
 11
-433.8930983268927
 21
-322.0811496157438
 31
0.0
  0
LINE
  5
104
330
1F
100
AcDbEntity
  8
D-0
  6
Continuous
 62
     7
370
     5
100
AcDbLine
 10
-433.8930983268927
 20
-322.0811496157438
 30
0.0
 11
-435.393361541004
 21
-322.0811496157438
 31
0.0
  0
LINE
  5
105
330
1F
100
AcDbEntity
  8
D-0
  6
Continuous
 62
     7
370
     5
100
AcDbLine
 10
-518.7431044304084
 20
-445.3314862627775
 30
0.0
 11
-518.7431044304084
 21
-443.8312039751798
 31
0.0
  0
LINE
  5
106
330
1F
100
AcDbEntity
  8
D-0
  6
Continuous
 62
     7
370
     5
100
AcDbLine
 10
-518.7431044304084
 20
-443.8312039751798
 30
0.0
 11
-517.2428221428107
 21
-443.8312039751798
 31
0.0
  0
LINE
  5
107
330
1F
100
AcDbEntity
  8
D-0
  6
Continuous
 62
     7
370
     5
100
AcDbLine
 10
-517.2428221428107
 20
-443.8312039751798
 30
0.0
 11
-517.2428221428107
 21
-445.3314862627775
 31
0.0
  0
LINE
  5
108
330
1F
100
AcDbEntity
  8
D-0
  6
Continuous
 62
     7
370
     5
100
AcDbLine
 10
-517.2428221428107
 20
-445.3314862627775
 30
0.0
 11
-518.7431044304084
 21
-445.3314862627775
 31
0.0
  0
LINE
  5
109
330
1F
100
AcDbEntity
  8
D-0
  6
Continuous
 62
     7
370
     5
100
AcDbLine
 10
-469.3785567009161
 20
-453.2297597307951
 30
0.0
 11
-469.3785567009161
 21
-451.7294774431974
 31
0.0
  0
LINE
  5
10A
330
1F
100
AcDbEntity
  8
D-0
  6
Continuous
 62
     7
370
     5
100
AcDbLine
 10
-469.3785567009161
 20
-451.7294774431974
 30
0.0
 11
-467.8782934868048
 21
-451.7294774431974
 31
0.0
  0
LINE
  5
10B
330
1F
100
AcDbEntity
  8
D-0
  6
Continuous
 62
     7
370
     5
100
AcDbLine
 10
-467.8782934868048
 20
-451.7294774431974
 30
0.0
 11
-467.8782934868048
 21
-453.2297597307951
 31
0.0
  0
LINE
  5
10C
330
1F
100
AcDbEntity
  8
D-0
  6
Continuous
 62
     7
370
     5
100
AcDbLine
 10
-467.8782934868048
 20
-453.2297597307951
 30
0.0
 11
-469.3785567009161
 21
-453.2297597307951
 31
0.0
  0
LINE
  5
10D
330
1F
100
AcDbEntity
  8
D-0
  6
Continuous
 62
     7
370
     5
100
AcDbLine
 10
-486.2596792900275
 20
-473.8105283160002
 30
0.0
 11
-486.2596792900275
 21
-472.3102460284025
 31
0.0
  0
LINE
  5
10E
330
1F
100
AcDbEntity
  8
D-0
  6
Continuous
 62
     7
370
     5
100
AcDbLine
 10
-486.2596792900275
 20
-472.3102460284025
 30
0.0
 11
-484.7598929130743
 21
-472.3102460284025
 31
0.0
  0
LINE
  5
10F
330
1F
100
AcDbEntity
  8
D-0
  6
Continuous
 62
     7
370
     5
100
AcDbLine
 10
-484.7598929130743
 20
-472.3102460284025
 30
0.0
 11
-484.7598929130743
 21
-473.8105283160002
 31
0.0
  0
LINE
  5
110
330
1F
100
AcDbEntity
  8
D-0
  6
Continuous
 62
     7
370
     5
100
AcDbLine
 10
-484.7598929130743
 20
-473.8105283160002
 30
0.0
 11
-486.2596792900275
 21
-473.8105283160002
 31
0.0
  0
LINE
  5
111
330
1F
100
AcDbEntity
  8
D-0
  6
Continuous
 62
     7
370
     5
100
AcDbLine
 10
-534.5396513664435
 20
-508.5186086077482
 30
0.0
 11
-534.5396513664435
 21
-507.0183453936369
 31
0.0
  0
LINE
  5
112
330
1F
100
AcDbEntity
  8
D-0
  6
Continuous
 62
     7
370
     5
100
AcDbLine
 10
-534.5396513664435
 20
-507.0183453936369
 30
0.0
 11
-533.0398649894904
 21
-507.0183453936369
 31
0.0
  0
LINE
  5
113
330
1F
100
AcDbEntity
  8
D-0
  6
Continuous
 62
     7
370
     5
100
AcDbLine
 10
-533.0398649894904
 20
-507.0183453936369
 30
0.0
 11
-533.0398649894904
 21
-508.5186086077482
 31
0.0
  0
LINE
  5
114
330
1F
100
AcDbEntity
  8
D-0
  6
Continuous
 62
     7
370
     5
100
AcDbLine
 10
-533.0398649894904
 20
-508.5186086077482
 30
0.0
 11
-534.5396513664435
 21
-508.5186086077482
 31
0.0
  0
LINE
  5
115
330
1F
100
AcDbEntity
  8
D-0
  6
Continuous
 62
     7
370
     5
100
AcDbLine
 10
-463.4547323906134
 20
-506.5436826128752
 30
0.0
 11
-463.4547323906134
 21
-505.0434003252775
 31
0.0
  0
LINE
  5
116
330
1F
100
AcDbEntity
  8
D-0
  6
Continuous
 62
     7
370
     5
100
AcDbLine
 10
-463.4547323906134
 20
-505.0434003252775
 30
0.0
 11
-461.9544501030157
 21
-505.0434003252775
 31
0.0
  0
LINE
  5
117
330
1F
100
AcDbEntity
  8
D-0
  6
Continuous
 62
     7
370
     5
100
AcDbLine
 10
-461.9544501030157
 20
-505.0434003252775
 30
0.0
 11
-461.9544501030157
 21
-506.5436826128752
 31
0.0
  0
LINE
  5
118
330
1F
100
AcDbEntity
  8
D-0
  6
Continuous
 62
     7
370
     5
100
AcDbLine
 10
-461.9544501030157
 20
-506.5436826128752
 30
0.0
 11
-463.4547323906134
 21
-506.5436826128752
 31
0.0
  0
LINE
  5
119
330
1F
100
AcDbEntity
  8
D-0
  6
Continuous
 62
     7
370
     5
100
AcDbLine
 10
-488.8504881584357
 20
-431.0718903918058
 30
0.0
 11
-488.8504881584357
 21
-429.5716081042082
 31
0.0
  0
LINE
  5
11A
330
1F
100
AcDbEntity
  8
D-0
  6
Continuous
 62
     7
370
     5
100
AcDbLine
 10
-488.8504881584357
 20
-429.5716081042082
 30
0.0
 11
-487.350205870838
 21
-429.5716081042082
 31
0.0
  0
LINE
  5
11B
330
1F
100
AcDbEntity
  8
D-0
  6
Continuous
 62
     7
370
     5
100
AcDbLine
 10
-487.350205870838
 20
-429.5716081042082
 30
0.0
 11
-487.350205870838
 21
-431.0718903918058
 31
0.0
  0
LINE
  5
11C
330
1F
100
AcDbEntity
  8
D-0
  6
Continuous
 62
     7
370
     5
100
AcDbLine
 10
-487.350205870838
 20
-431.0718903918058
 30
0.0
 11
-488.8504881584357
 21
-431.0718903918058
 31
0.0
  0
LINE
  5
11D
330
1F
100
AcDbEntity
  8
D-0
  6
Continuous
 62
     7
370
     5
100
AcDbLine
 10
-673.7648815834234
 20
-290.5510006327421
 30
0.0
 11
-673.7648815834234
 21
-289.0507213253767
 31
0.0
  0
LINE
  5
11E
330
1F
100
AcDbEntity
  8
D-0
  6
Continuous
 62
     7
370
     5
100
AcDbLine
 10
-673.7648815834234
 20
-289.0507213253767
 30
0.0
 11
-672.2646040641973
 21
-289.0507213253767
 31
0.0
  0
LINE
  5
11F
330
1F
100
AcDbEntity
  8
D-0
  6
Continuous
 62
     7
370
     5
100
AcDbLine
 10
-672.2646040641973
 20
-289.0507213253767
 30
0.0
 11
-672.2646040641973
 21
-290.5510006327421
 31
0.0
  0
LINE
  5
120
330
1F
100
AcDbEntity
  8
D-0
  6
Continuous
 62
     7
370
     5
100
AcDbLine
 10
-672.2646040641973
 20
-290.5510006327421
 30
0.0
 11
-673.7648815834234
 21
-290.5510006327421
 31
0.0
  0
LINE
  5
121
330
1F
100
AcDbEntity
  8
D-0
  6
Continuous
 62
     7
370
     5
100
AcDbLine
 10
-645.5727095329473
 20
-299.4025502581388
 30
0.0
 11
-645.5727095329473
 21
-297.9022715468199
 31
0.0
  0
LINE
  5
122
330
1F
100
AcDbEntity
  8
D-0
  6
Continuous
 62
     7
370
     5
100
AcDbLine
 10
-645.5727095329473
 20
-297.9022715468199
 30
0.0
 11
-644.0724320137213
 21
-297.9022715468199
 31
0.0
  0
LINE
  5
123
330
1F
100
AcDbEntity
  8
D-0
  6
Continuous
 62
     7
370
     5
100
AcDbLine
 10
-644.0724320137213
 20
-297.9022715468199
 30
0.0
 11
-644.0724320137213
 21
-299.4025502581388
 31
0.0
  0
LINE
  5
124
330
1F
100
AcDbEntity
  8
D-0
  6
Continuous
 62
     7
370
     5
100
AcDbLine
 10
-644.0724320137213
 20
-299.4025502581388
 30
0.0
 11
-645.5727095329473
 21
-299.4025502581388
 31
0.0
  0
LINE
  5
125
330
1F
100
AcDbEntity
  8
D-0
  6
Continuous
 62
     7
370
     5
100
AcDbLine
 10
-557.7573103630256
 20
-296.5585599322111
 30
0.0
 11
-557.7573103630256
 21
-295.0582800287992
 31
0.0
  0
LINE
  5
126
330
1F
100
AcDbEntity
  8
D-0
  6
Continuous
 62
     7
370
     5
100
AcDbLine
 10
-557.7573103630256
 20
-295.0582800287992
 30
0.0
 11
-556.2575239860724
 21
-295.0582800287992
 31
0.0
  0
LINE
  5
127
330
1F
100
AcDbEntity
  8
D-0
  6
Continuous
 62
     7
370
     5
100
AcDbLine
 10
-556.2575239860724
 20
-295.0582800287992
 30
0.0
 11
-556.2575239860724
 21
-296.5585599322111
 31
0.0
  0
LINE
  5
128
330
1F
100
AcDbEntity
  8
D-0
  6
Continuous
 62
     7
370
     5
100
AcDbLine
 10
-556.2575239860724
 20
-296.5585599322111
 30
0.0
 11
-557.7573103630256
 21
-296.5585599322111
 31
0.0
  0
LINE
  5
129
330
1F
100
AcDbEntity
  8
D-0
  6
Continuous
 62
     7
370
     5
100
AcDbLine
 10
-522.8262610161017
 20
-291.1599324126036
 30
0.0
 11
-522.8262610161017
 21
-289.6596525091917
 31
0.0
  0
LINE
  5
12A
330
1F
100
AcDbEntity
  8
D-0
  6
Continuous
 62
     7
370
     5
100
AcDbLine
 10
-522.8262610161017
 20
-289.6596525091917
 30
0.0
 11
-521.3264746391486
 21
-289.6596525091917
 31
0.0
  0
LINE
  5
12B
330
1F
100
AcDbEntity
  8
D-0
  6
Continuous
 62
     7
370
     5
100
AcDbLine
 10
-521.3264746391486
 20
-289.6596525091917
 30
0.0
 11
-521.3264746391486
 21
-291.1599324126036
 31
0.0
  0
LINE
  5
12C
330
1F
100
AcDbEntity
  8
D-0
  6
Continuous
 62
     7
370
     5
100
AcDbLine
 10
-521.3264746391486
 20
-291.1599324126036
 30
0.0
 11
-522.8262610161017
 21
-291.1599324126036
 31
0.0
  0
LINE
  5
12D
330
1F
100
AcDbEntity
  8
D-0
  6
Continuous
 62
     7
370
     5
100
AcDbLine
 10
-526.655740233631
 20
-315.8917508501798
 30
0.0
 11
-526.655740233631
 21
-314.391470946768
 31
0.0
  0
LINE
  5
12E
330
1F
100
AcDbEntity
  8
D-0
  6
Continuous
 62
     7
370
     5
100
AcDbLine
 10
-526.655740233631
 20
-314.391470946768
 30
0.0
 11
-525.1554579460334
 21
-314.391470946768
 31
0.0
  0
LINE
  5
12F
330
1F
100
AcDbEntity
  8
D-0
  6
Continuous
 62
     7
370
     5
100
AcDbLine
 10
-525.1554579460334
 20
-314.391470946768
 30
0.0
 11
-525.1554579460334
 21
-315.8917508501798
 31
0.0
  0
LINE
  5
130
330
1F
100
AcDbEntity
  8
D-0
  6
Continuous
 62
     7
370
     5
100
AcDbLine
 10
-525.1554579460334
 20
-315.8917508501798
 30
0.0
 11
-526.655740233631
 21
-315.8917508501798
 31
0.0
  0
LINE
  5
131
330
1F
100
AcDbEntity
  8
D-0
  6
Continuous
 62
     7
370
     5
100
AcDbLine
 10
-518.0821509086799
 20
-348.8607392687589
 30
0.0
 11
-518.0821509086799
 21
-347.3604617495329
 31
0.0
  0
LINE
  5
132
330
1F
100
AcDbEntity
  8
D-0
  6
Continuous
 62
     7
370
     5
100
AcDbLine
 10
-518.0821509086799
 20
-347.3604617495329
 30
0.0
 11
-516.5818686210822
 21
-347.3604617495329
 31
0.0
  0
LINE
  5
133
330
1F
100
AcDbEntity
  8
D-0
  6
Continuous
 62
     7
370
     5
100
AcDbLine
 10
-516.5818686210822
 20
-347.3604617495329
 30
0.0
 11
-516.5818686210822
 21
-348.8607392687589
 31
0.0
  0
LINE
  5
134
330
1F
100
AcDbEntity
  8
D-0
  6
Continuous
 62
     7
370
     5
100
AcDbLine
 10
-516.5818686210822
 20
-348.8607392687589
 30
0.0
 11
-518.0821509086799
 21
-348.8607392687589
 31
0.0
  0
LINE
  5
135
330
1F
100
AcDbEntity
  8
D-0
  6
Continuous
 62
     7
370
     5
100
AcDbLine
 10
-514.1590399467658
 20
-387.4334798235685
 30
0.0
 11
-514.1590399467658
 21
-385.9331975359709
 31
0.0
  0
LINE
  5
136
330
1F
100
AcDbEntity
  8
D-0
  6
Continuous
 62
     7
370
     5
100
AcDbLine
 10
-514.1590399467658
 20
-385.9331975359709
 30
0.0
 11
-512.6592535698127
 21
-385.9331975359709
 31
0.0
  0
LINE
  5
137
330
1F
100
AcDbEntity
  8
D-0
  6
Continuous
 62
     7
370
     5
100
AcDbLine
 10
-512.6592535698127
 20
-385.9331975359709
 30
0.0
 11
-512.6592535698127
 21
-387.4334798235685
 31
0.0
  0
LINE
  5
138
330
1F
100
AcDbEntity
  8
D-0
  6
Continuous
 62
     7
370
     5
100
AcDbLine
 10
-512.6592535698127
 20
-387.4334798235685
 30
0.0
 11
-514.1590399467658
 21
-387.4334798235685
 31
0.0
  0
LINE
  5
139
330
1F
100
AcDbEntity
  8
D-0
  6
Continuous
 62
     7
370
     5
100
AcDbLine
 10
-818.8812441551398
 20
-427.5600037951261
 30
0.0
 11
-818.8812441551398
 21
-426.0597310442716
 31
0.0
  0
LINE
  5
13A
330
1F
100
AcDbEntity
  8
D-0
  6
Continuous
 62
     7
370
     5
100
AcDbLine
 10
-818.8812441551398
 20
-426.0597310442716
 30
0.0
 11
-817.3809714042853
 21
-426.0597310442716
 31
0.0
  0
LINE
  5
13B
330
1F
100
AcDbEntity
  8
D-0
  6
Continuous
 62
     7
370
     5
100
AcDbLine
 10
-817.3809714042853
 20
-426.0597310442716
 30
0.0
 11
-817.3809714042853
 21
-427.5600037951261
 31
0.0
  0
LINE
  5
13C
330
1F
100
AcDbEntity
  8
D-0
  6
Continuous
 62
     7
370
     5
100
AcDbLine
 10
-817.3809714042853
 20
-427.5600037951261
 30
0.0
 11
-818.8812441551398
 21
-427.5600037951261
 31
0.0
  0
LINE
  5
13D
330
1F
100
AcDbEntity
  8
D-0
  6
Continuous
 62
     7
370
     5
100
AcDbLine
 10
-759.6430010521125
 20
-532.2134099383146
 30
0.0
 11
-759.6430010521125
 21
-530.7131467242033
 31
0.0
  0
LINE
  5
13E
330
1F
100
AcDbEntity
  8
D-0
  6
Continuous
 62
     7
370
     5
100
AcDbLine
 10
-759.6430010521125
 20
-530.7131467242033
 30
0.0
 11
-758.1432146751594
 21
-530.7131467242033
 31
0.0
  0
LINE
  5
13F
330
1F
100
AcDbEntity
  8
D-0
  6
Continuous
 62
     7
370
     5
100
AcDbLine
 10
-758.1432146751594
 20
-530.7131467242033
 30
0.0
 11
-758.1432146751594
 21
-532.2134099383146
 31
0.0
  0
LINE
  5
140
330
1F
100
AcDbEntity
  8
D-0
  6
Continuous
 62
     7
370
     5
100
AcDbLine
 10
-758.1432146751594
 20
-532.2134099383146
 30
0.0
 11
-759.6430010521125
 21
-532.2134099383146
 31
0.0
  0
LINE
  5
141
330
1F
100
AcDbEntity
  8
D-0
  6
Continuous
 62
     7
370
     5
100
AcDbLine
 10
-773.4655899727057
 20
-591.4511762041838
 30
0.0
 11
-773.4655899727057
 21
-589.9508939165861
 31
0.0
  0
LINE
  5
142
330
1F
100
AcDbEntity
  8
D-0
  6
Continuous
 62
     7
370
     5
100
AcDbLine
 10
-773.4655899727057
 20
-589.9508939165861
 30
0.0
 11
-771.9653076851081
 21
-589.9508939165861
 31
0.0
  0
LINE
  5
143
330
1F
100
AcDbEntity
  8
D-0
  6
Continuous
 62
     7
370
     5
100
AcDbLine
 10
-771.9653076851081
 20
-589.9508939165861
 30
0.0
 11
-771.9653076851081
 21
-591.4511762041838
 31
0.0
  0
LINE
  5
144
330
1F
100
AcDbEntity
  8
D-0
  6
Continuous
 62
     7
370
     5
100
AcDbLine
 10
-771.9653076851081
 20
-591.4511762041838
 30
0.0
 11
-773.4655899727057
 21
-591.4511762041838
 31
0.0
  0
LINE
  5
145
330
1F
100
AcDbEntity
  8
D-0
  6
Continuous
 62
     7
370
     5
100
AcDbLine
 10
-804.071683379383
 20
-602.3113522906095
 30
0.0
 11
-804.071683379383
 21
-600.8110700030119
 31
0.0
  0
LINE
  5
146
330
1F
100
AcDbEntity
  8
D-0
  6
Continuous
 62
     7
370
     5
100
AcDbLine
 10
-804.071683379383
 20
-600.8110700030119
 30
0.0
 11
-802.5714106285285
 21
-600.8110700030119
 31
0.0
  0
LINE
  5
147
330
1F
100
AcDbEntity
  8
D-0
  6
Continuous
 62
     7
370
     5
100
AcDbLine
 10
-802.5714106285285
 20
-600.8110700030119
 30
0.0
 11
-802.5714106285285
 21
-602.3113522906095
 31
0.0
  0
LINE
  5
148
330
1F
100
AcDbEntity
  8
D-0
  6
Continuous
 62
     7
370
     5
100
AcDbLine
 10
-802.5714106285285
 20
-602.3113522906095
 30
0.0
 11
-804.071683379383
 21
-602.3113522906095
 31
0.0
  0
LINE
  5
149
330
1F
100
AcDbEntity
  8
D-0
  6
Continuous
 62
     7
370
     5
100
AcDbLine
 10
-826.9251818382453
 20
-536.1628041643888
 30
0.0
 11
-826.9251818382453
 21
-534.6625218767912
 31
0.0
  0
LINE
  5
14A
330
1F
100
AcDbEntity
  8
D-0
  6
Continuous
 62
     7
370
     5
100
AcDbLine
 10
-826.9251818382453
 20
-534.6625218767912
 30
0.0
 11
-825.4253954612922
 21
-534.6625218767912
 31
0.0
  0
LINE
  5
14B
330
1F
100
AcDbEntity
  8
D-0
  6
Continuous
 62
     7
370
     5
100
AcDbLine
 10
-825.4253954612922
 20
-534.6625218767912
 30
0.0
 11
-825.4253954612922
 21
-536.1628041643888
 31
0.0
  0
LINE
  5
14C
330
1F
100
AcDbEntity
  8
D-0
  6
Continuous
 62
     7
370
     5
100
AcDbLine
 10
-825.4253954612922
 20
-536.1628041643888
 30
0.0
 11
-826.9251818382453
 21
-536.1628041643888
 31
0.0
  0
LINE
  5
14D
330
1F
100
AcDbEntity
  8
D-0
  6
Continuous
 62
     7
370
     5
100
AcDbLine
 10
-801.1097712242316
 20
-514.4424329180509
 30
0.0
 11
-801.1097712242316
 21
-512.9421697039396
 31
0.0
  0
LINE
  5
14E
330
1F
100
AcDbEntity
  8
D-0
  6
Continuous
 62
     7
370
     5
100
AcDbLine
 10
-801.1097712242316
 20
-512.9421697039396
 30
0.0
 11
-799.609488936634
 21
-512.9421697039396
 31
0.0
  0
LINE
  5
14F
330
1F
100
AcDbEntity
  8
D-0
  6
Continuous
 62
     7
370
     5
100
AcDbLine
 10
-799.609488936634
 20
-512.9421697039396
 30
0.0
 11
-799.609488936634
 21
-514.4424329180509
 31
0.0
  0
LINE
  5
150
330
1F
100
AcDbEntity
  8
D-0
  6
Continuous
 62
     7
370
     5
100
AcDbLine
 10
-799.609488936634
 20
-514.4424329180509
 30
0.0
 11
-801.1097712242316
 21
-514.4424329180509
 31
0.0
  0
LINE
  5
151
330
1F
100
AcDbEntity
  8
D-0
  6
Continuous
 62
     7
370
     5
100
AcDbLine
 10
-737.9226393425178
 20
-566.9353757281095
 30
0.0
 11
-737.9226393425178
 21
-565.4350934405119
 31
0.0
  0
LINE
  5
152
330
1F
100
AcDbEntity
  8
D-0
  6
Continuous
 62
     7
370
     5
100
AcDbLine
 10
-737.9226393425178
 20
-565.4350934405119
 30
0.0
 11
-736.4228553497504
 21
-565.4350934405119
 31
0.0
  0
LINE
  5
153
330
1F
100
AcDbEntity
  8
D-0
  6
Continuous
 62
     7
370
     5
100
AcDbLine
 10
-736.4228553497504
 20
-565.4350934405119
 30
0.0
 11
-736.4228553497504
 21
-566.9353757281095
 31
0.0
  0
LINE
  5
154
330
1F
100
AcDbEntity
  8
D-0
  6
Continuous
 62
     7
370
     5
100
AcDbLine
 10
-736.4228553497504
 20
-566.9353757281095
 30
0.0
 11
-737.9226393425178
 21
-566.9353757281095
 31
0.0
  0
LINE
  5
155
330
1F
100
AcDbEntity
  8
D-0
  6
Continuous
 62
     7
370
     5
100
AcDbLine
 10
-814.9318690025519
 20
-704.8144421953947
 30
0.0
 11
-814.9318690025519
 21
-703.314159907797
 31
0.0
  0
LINE
  5
156
330
1F
100
AcDbEntity
  8
D-0
  6
Continuous
 62
     7
370
     5
100
AcDbLine
 10
-814.9318690025519
 20
-703.314159907797
 30
0.0
 11
-813.4320826255988
 21
-703.314159907797
 31
0.0
  0
LINE
  5
157
330
1F
100
AcDbEntity
  8
D-0
  6
Continuous
 62
     7
370
     5
100
AcDbLine
 10
-813.4320826255988
 20
-703.314159907797
 30
0.0
 11
-813.4320826255988
 21
-704.8144421953947
 31
0.0
  0
LINE
  5
158
330
1F
100
AcDbEntity
  8
D-0
  6
Continuous
 62
     7
370
     5
100
AcDbLine
 10
-813.4320826255988
 20
-704.8144421953947
 30
0.0
 11
-814.9318690025519
 21
-704.8144421953947
 31
0.0
  0
LINE
  5
159
330
1F
100
AcDbEntity
  8
D-0
  6
Continuous
 62
     7
370
     5
100
AcDbLine
 10
-744.5416063987922
 20
-708.5264859576017
 30
0.0
 11
-744.5416063987922
 21
-707.0262036700041
 31
0.0
  0
LINE
  5
15A
330
1F
100
AcDbEntity
  8
D-0
  6
Continuous
 62
     7
370
     5
100
AcDbLine
 10
-744.5416063987922
 20
-707.0262036700041
 30
0.0
 11
-743.0418224060248
 21
-707.0262036700041
 31
0.0
  0
LINE
  5
15B
330
1F
100
AcDbEntity
  8
D-0
  6
Continuous
 62
     7
370
     5
100
AcDbLine
 10
-743.0418224060248
 20
-707.0262036700041
 30
0.0
 11
-743.0418224060248
 21
-708.5264859576017
 31
0.0
  0
LINE
  5
15C
330
1F
100
AcDbEntity
  8
D-0
  6
Continuous
 62
     7
370
     5
100
AcDbLine
 10
-743.0418224060248
 20
-708.5264859576017
 30
0.0
 11
-744.5416063987922
 21
-708.5264859576017
 31
0.0
  0
LINE
  5
15D
330
1F
100
AcDbEntity
  8
D-0
  6
Continuous
 62
     7
370
     5
100
AcDbLine
 10
-720.1511661135863
 20
-734.4330487627775
 30
0.0
 11
-720.1511661135863
 21
-732.9327664751798
 31
0.0
  0
LINE
  5
15E
330
1F
100
AcDbEntity
  8
D-0
  6
Continuous
 62
     7
370
     5
100
AcDbLine
 10
-720.1511661135863
 20
-732.9327664751798
 30
0.0
 11
-718.6513819718074
 21
-732.9327664751798
 31
0.0
  0
LINE
  5
15F
330
1F
100
AcDbEntity
  8
D-0
  6
Continuous
 62
     7
370
     5
100
AcDbLine
 10
-718.6513819718074
 20
-732.9327664751798
 30
0.0
 11
-718.6513819718074
 21
-734.4330487627775
 31
0.0
  0
LINE
  5
160
330
1F
100
AcDbEntity
  8
D-0
  6
Continuous
 62
     7
370
     5
100
AcDbLine
 10
-718.6513819718074
 20
-734.4330487627775
 30
0.0
 11
-720.1511661135863
 21
-734.4330487627775
 31
0.0
  0
LINE
  5
161
330
1F
100
AcDbEntity
  8
D-0
  6
Continuous
 62
     7
370
     5
100
AcDbLine
 10
-713.8725856864165
 20
-772.6451001543791
 30
0.0
 11
-713.8725856864165
 21
-771.1448178667814
 31
0.0
  0
LINE
  5
162
330
1F
100
AcDbEntity
  8
D-0
  6
Continuous
 62
     7
370
     5
100
AcDbLine
 10
-713.8725856864165
 20
-771.1448178667814
 30
0.0
 11
-712.3723063790511
 21
-771.1448178667814
 31
0.0
  0
LINE
  5
163
330
1F
100
AcDbEntity
  8
D-0
  6
Continuous
 62
     7
370
     5
100
AcDbLine
 10
-712.3723063790511
 20
-771.1448178667814
 30
0.0
 11
-712.3723063790511
 21
-772.6451001543791
 31
0.0
  0
LINE
  5
164
330
1F
100
AcDbEntity
  8
D-0
  6
Continuous
 62
     7
370
     5
100
AcDbLine
 10
-712.3723063790511
 20
-772.6451001543791
 30
0.0
 11
-713.8725856864165
 21
-772.6451001543791
 31
0.0
  0
LINE
  5
165
330
1F
100
AcDbEntity
  8
D-0
  6
Continuous
 62
     7
370
     5
100
AcDbLine
 10
-788.1012387001227
 20
-778.1036649126798
 30
0.0
 11
-788.1012387001227
 21
-776.6033826250822
 31
0.0
  0
LINE
  5
166
330
1F
100
AcDbEntity
  8
D-0
  6
Continuous
 62
     7
370
     5
100
AcDbLine
 10
-788.1012387001227
 20
-776.6033826250822
 30
0.0
 11
-786.6009611808967
 21
-776.6033826250822
 31
0.0
  0
LINE
  5
167
330
1F
100
AcDbEntity
  8
D-0
  6
Continuous
 62
     7
370
     5
100
AcDbLine
 10
-786.6009611808967
 20
-776.6033826250822
 30
0.0
 11
-786.6009611808967
 21
-778.1036649126798
 31
0.0
  0
LINE
  5
168
330
1F
100
AcDbEntity
  8
D-0
  6
Continuous
 62
     7
370
     5
100
AcDbLine
 10
-786.6009611808967
 20
-778.1036649126798
 30
0.0
 11
-788.1012387001227
 21
-778.1036649126798
 31
0.0
  0
LINE
  5
169
330
1F
100
AcDbEntity
  8
D-0
  6
Continuous
 62
     7
370
     5
100
AcDbLine
 10
-822.8301329338263
 20
-768.8072095293791
 30
0.0
 11
-822.8301329338263
 21
-767.3069272417814
 31
0.0
  0
LINE
  5
16A
330
1F
100
AcDbEntity
  8
D-0
  6
Continuous
 62
     7
370
     5
100
AcDbLine
 10
-822.8301329338263
 20
-767.3069272417814
 30
0.0
 11
-821.3298506462287
 21
-767.3069272417814
 31
0.0
  0
LINE
  5
16B
330
1F
100
AcDbEntity
  8
D-0
  6
Continuous
 62
     7
370
     5
100
AcDbLine
 10
-821.3298506462287
 20
-767.3069272417814
 30
0.0
 11
-821.3298506462287
 21
-768.8072095293791
 31
0.0
  0
LINE
  5
16C
330
1F
100
AcDbEntity
  8
D-0
  6
Continuous
 62
     7
370
     5
100
AcDbLine
 10
-821.3298506462287
 20
-768.8072095293791
 30
0.0
 11
-822.8301329338263
 21
-768.8072095293791
 31
0.0
  0
LINE
  5
16D
330
1F
100
AcDbEntity
  8
D-0
  6
Continuous
 62
     7
370
     5
100
AcDbLine
 10
-825.0414080345344
 20
-728.5092435259611
 30
0.0
 11
-825.0414080345344
 21
-727.0089612383634
 31
0.0
  0
LINE
  5
16E
330
1F
100
AcDbEntity
  8
D-0
  6
Continuous
 62
     7
370
     5
100
AcDbLine
 10
-825.0414080345344
 20
-727.0089612383634
 30
0.0
 11
-823.5416216575812
 21
-727.0089612383634
 31
0.0
  0
LINE
  5
16F
330
1F
100
AcDbEntity
  8
D-0
  6
Continuous
 62
     7
370
     5
100
AcDbLine
 10
-823.5416216575812
 20
-727.0089612383634
 30
0.0
 11
-823.5416216575812
 21
-728.5092435259611
 31
0.0
  0
LINE
  5
170
330
1F
100
AcDbEntity
  8
D-0
  6
Continuous
 62
     7
370
     5
100
AcDbLine
 10
-823.5416216575812
 20
-728.5092435259611
 30
0.0
 11
-825.0414080345344
 21
-728.5092435259611
 31
0.0
  0
LINE
  5
171
330
1F
100
AcDbEntity
  8
D-0
  6
Continuous
 62
     7
370
     5
100
AcDbLine
 10
-767.541765662403
 20
-748.2551465410978
 30
0.0
 11
-767.541765662403
 21
-746.7548642535002
 31
0.0
  0
LINE
  5
172
330
1F
100
AcDbEntity
  8
D-0
  6
Continuous
 62
     7
370
     5
100
AcDbLine
 10
-767.541765662403
 20
-746.7548642535002
 30
0.0
 11
-766.0414833748054
 21
-746.7548642535002
 31
0.0
  0
LINE
  5
173
330
1F
100
AcDbEntity
  8
D-0
  6
Continuous
 62
     7
370
     5
100
AcDbLine
 10
-766.0414833748054
 20
-746.7548642535002
 30
0.0
 11
-766.0414833748054
 21
-748.2551465410978
 31
0.0
  0
LINE
  5
174
330
1F
100
AcDbEntity
  8
D-0
  6
Continuous
 62
     7
370
     5
100
AcDbLine
 10
-766.0414833748054
 20
-748.2551465410978
 30
0.0
 11
-767.541765662403
 21
-748.2551465410978
 31
0.0
  0
LINE
  5
175
330
1F
100
AcDbEntity
  8
D-0
  6
Continuous
 62
     7
370
     5
100
AcDbLine
 10
-779.3894142830085
 20
-714.6871457476408
 30
0.0
 11
-779.3894142830085
 21
-713.1868634600431
 31
0.0
  0
LINE
  5
176
330
1F
100
AcDbEntity
  8
D-0
  6
Continuous
 62
     7
370
     5
100
AcDbLine
 10
-779.3894142830085
 20
-713.1868634600431
 30
0.0
 11
-777.8891319954108
 21
-713.1868634600431
 31
0.0
  0
LINE
  5
177
330
1F
100
AcDbEntity
  8
D-0
  6
Continuous
 62
     7
370
     5
100
AcDbLine
 10
-777.8891319954108
 20
-713.1868634600431
 30
0.0
 11
-777.8891319954108
 21
-714.6871457476408
 31
0.0
  0
LINE
  5
178
330
1F
100
AcDbEntity
  8
D-0
  6
Continuous
 62
     7
370
     5
100
AcDbLine
 10
-777.8891319954108
 20
-714.6871457476408
 30
0.0
 11
-779.3894142830085
 21
-714.6871457476408
 31
0.0
  0
LINE
  5
179
330
1F
100
AcDbEntity
  8
D-0
  6
Continuous
 62
     7
370
     5
100
AcDbLine
 10
-724.1005475246619
 20
-600.5033765215666
 30
0.0
 11
-724.1005475246619
 21
-599.0031133074552
 31
0.0
  0
LINE
  5
17A
330
1F
100
AcDbEntity
  8
D-0
  6
Continuous
 62
     7
370
     5
100
AcDbLine
 10
-724.1005475246619
 20
-599.0031133074552
 30
0.0
 11
-722.6007635318946
 21
-599.0031133074552
 31
0.0
  0
LINE
  5
17B
330
1F
100
AcDbEntity
  8
D-0
  6
Continuous
 62
     7
370
     5
100
AcDbLine
 10
-722.6007635318946
 20
-599.0031133074552
 30
0.0
 11
-722.6007635318946
 21
-600.5033765215666
 31
0.0
  0
LINE
  5
17C
330
1F
100
AcDbEntity
  8
D-0
  6
Continuous
 62
     7
370
     5
100
AcDbLine
 10
-722.6007635318946
 20
-600.5033765215666
 30
0.0
 11
-724.1005475246619
 21
-600.5033765215666
 31
0.0
  0
LINE
  5
17D
330
1F
100
AcDbEntity
  8
D-0
  6
Continuous
 62
     7
370
     5
100
AcDbLine
 10
-712.2533936226081
 20
-500.6198583025724
 30
0.0
 11
-712.2533936226081
 21
-499.1195760149748
 31
0.0
  0
LINE
  5
17E
330
1F
100
AcDbEntity
  8
D-0
  6
Continuous
 62
     7
370
     5
100
AcDbLine
 10
-712.2533936226081
 20
-499.1195760149748
 30
0.0
 11
-710.7531143152427
 21
-499.1195760149748
 31
0.0
  0
LINE
  5
17F
330
1F
100
AcDbEntity
  8
D-0
  6
Continuous
 62
     7
370
     5
100
AcDbLine
 10
-710.7531143152427
 20
-499.1195760149748
 30
0.0
 11
-710.7531143152427
 21
-500.6198583025724
 31
0.0
  0
LINE
  5
180
330
1F
100
AcDbEntity
  8
D-0
  6
Continuous
 62
     7
370
     5
100
AcDbLine
 10
-710.7531143152427
 20
-500.6198583025724
 30
0.0
 11
-712.2533936226081
 21
-500.6198583025724
 31
0.0
  0
LINE
  5
181
330
1F
100
AcDbEntity
  8
D-0
  6
Continuous
 62
     7
370
     5
100
AcDbLine
 10
-616.1423582756232
 20
-511.8442044634611
 30
0.0
 11
-616.1423582756232
 21
-510.3439221758634
 31
0.0
  0
LINE
  5
182
330
1F
100
AcDbEntity
  8
D-0
  6
Continuous
 62
     7
370
     5
100
AcDbLine
 10
-616.1423582756232
 20
-510.3439221758634
 30
0.0
 11
-614.6425718986701
 21
-510.3439221758634
 31
0.0
  0
LINE
  5
183
330
1F
100
AcDbEntity
  8
D-0
  6
Continuous
 62
     7
370
     5
100
AcDbLine
 10
-614.6425718986701
 20
-510.3439221758634
 30
0.0
 11
-614.6425718986701
 21
-511.8442044634611
 31
0.0
  0
LINE
  5
184
330
1F
100
AcDbEntity
  8
D-0
  6
Continuous
 62
     7
370
     5
100
AcDbLine
 10
-614.6425718986701
 20
-511.8442044634611
 30
0.0
 11
-616.1423582756232
 21
-511.8442044634611
 31
0.0
  0
LINE
  5
185
330
1F
100
AcDbEntity
  8
D-0
  6
Continuous
 62
     7
370
     5
100
AcDbLine
 10
-677.8589434349249
 20
-497.0975575823576
 30
0.0
 11
-677.8589434349249
 21
-495.5972943682463
 31
0.0
  0
LINE
  5
186
330
1F
100
AcDbEntity
  8
D-0
  6
Continuous
 62
     7
370
     5
100
AcDbLine
 10
-677.8589434349249
 20
-495.5972943682463
 30
0.0
 11
-676.3591570579717
 21
-495.5972943682463
 31
0.0
  0
LINE
  5
187
330
1F
100
AcDbEntity
  8
D-0
  6
Continuous
 62
     7
370
     5
100
AcDbLine
 10
-676.3591570579717
 20
-495.5972943682463
 30
0.0
 11
-676.3591570579717
 21
-497.0975575823576
 31
0.0
  0
LINE
  5
188
330
1F
100
AcDbEntity
  8
D-0
  6
Continuous
 62
     7
370
     5
100
AcDbLine
 10
-676.3591570579717
 20
-497.0975575823576
 30
0.0
 11
-677.8589434349249
 21
-497.0975575823576
 31
0.0
  0
LINE
  5
189
330
1F
100
AcDbEntity
  8
D-0
  6
Continuous
 62
     7
370
     5
100
AcDbLine
 10
-805.0586600029181
 20
-563.8069806475431
 30
0.0
 11
-805.0586600029181
 21
-562.3066983599455
 31
0.0
  0
LINE
  5
18A
330
1F
100
AcDbEntity
  8
D-0
  6
Continuous
 62
     7
370
     5
100
AcDbLine
 10
-805.0586600029181
 20
-562.3066983599455
 30
0.0
 11
-803.558873625965
 21
-562.3066983599455
 31
0.0
  0
LINE
  5
18B
330
1F
100
AcDbEntity
  8
D-0
  6
Continuous
 62
     7
370
     5
100
AcDbLine
 10
-803.558873625965
 20
-562.3066983599455
 30
0.0
 11
-803.558873625965
 21
-563.8069806475431
 31
0.0
  0
LINE
  5
18C
330
1F
100
AcDbEntity
  8
D-0
  6
Continuous
 62
     7
370
     5
100
AcDbLine
 10
-803.558873625965
 20
-563.8069806475431
 30
0.0
 11
-805.0586600029181
 21
-563.8069806475431
 31
0.0
  0
LINE
  5
18D
330
1F
100
AcDbEntity
  8
D-0
  6
Continuous
 62
     7
370
     5
100
AcDbLine
 10
-761.6179365837287
 20
-488.7727055926115
 30
0.0
 11
-761.6179365837287
 21
-487.2724233050138
 31
0.0
  0
LINE
  5
18E
330
1F
100
AcDbEntity
  8
D-0
  6
Continuous
 62
     7
370
     5
100
AcDbLine
 10
-761.6179365837287
 20
-487.2724233050138
 30
0.0
 11
-760.1176590645026
 21
-487.2724233050138
 31
0.0
  0
LINE
  5
18F
330
1F
100
AcDbEntity
  8
D-0
  6
Continuous
 62
     7
370
     5
100
AcDbLine
 10
-760.1176590645026
 20
-487.2724233050138
 30
0.0
 11
-760.1176590645026
 21
-488.7727055926115
 31
0.0
  0
LINE
  5
190
330
1F
100
AcDbEntity
  8
D-0
  6
Continuous
 62
     7
370
     5
100
AcDbLine
 10
-760.1176590645026
 20
-488.7727055926115
 30
0.0
 11
-761.6179365837287
 21
-488.7727055926115
 31
0.0
  0
LINE
  5
191
330
1F
100
AcDbEntity
  8
D-0
  6
Continuous
 62
     7
370
     5
100
AcDbLine
 10
-826.7795176231574
 20
-484.8233113665373
 30
0.0
 11
-826.7795176231574
 21
-483.3230290789396
 31
0.0
  0
LINE
  5
192
330
1F
100
AcDbEntity
  8
D-0
  6
Continuous
 62
     7
370
     5
100
AcDbLine
 10
-826.7795176231574
 20
-483.3230290789396
 30
0.0
 11
-825.2792353355597
 21
-483.3230290789396
 31
0.0
  0
LINE
  5
193
330
1F
100
AcDbEntity
  8
D-0
  6
Continuous
 62
     7
370
     5
100
AcDbLine
 10
-825.2792353355597
 20
-483.3230290789396
 30
0.0
 11
-825.2792353355597
 21
-484.8233113665373
 31
0.0
  0
LINE
  5
194
330
1F
100
AcDbEntity
  8
D-0
  6
Continuous
 62
     7
370
     5
100
AcDbLine
 10
-825.2792353355597
 20
-484.8233113665373
 30
0.0
 11
-826.7795176231574
 21
-484.8233113665373
 31
0.0
  0
LINE
  5
195
330
1F
100
AcDbEntity
  8
D-0
  6
Continuous
 62
     7
370
     5
100
AcDbLine
 10
-718.1772183799457
 20
-533.3673749346525
 30
0.0
 11
-718.1772183799457
 21
-531.8670926470548
 31
0.0
  0
LINE
  5
196
330
1F
100
AcDbEntity
  8
D-0
  6
Continuous
 62
     7
370
     5
100
AcDbLine
 10
-718.1772183799457
 20
-531.8670926470548
 30
0.0
 11
-716.676938979448
 21
-531.8670926470548
 31
0.0
  0
LINE
  5
197
330
1F
100
AcDbEntity
  8
D-0
  6
Continuous
 62
     7
370
     5
100
AcDbLine
 10
-716.676938979448
 20
-531.8670926470548
 30
0.0
 11
-716.676938979448
 21
-533.3673749346525
 31
0.0
  0
LINE
  5
198
330
1F
100
AcDbEntity
  8
D-0
  6
Continuous
 62
     7
370
     5
100
AcDbLine
 10
-716.676938979448
 20
-533.3673749346525
 30
0.0
 11
-718.1772183799457
 21
-533.3673749346525
 31
0.0
  0
LINE
  5
199
330
1F
100
AcDbEntity
  8
D-0
  6
Continuous
 62
     7
370
     5
100
AcDbLine
 10
-777.4144739830207
 20
-555.9087262530119
 30
0.0
 11
-777.4144739830207
 21
-554.4084439654142
 31
0.0
  0
LINE
  5
19A
330
1F
100
AcDbEntity
  8
D-0
  6
Continuous
 62
     7
370
     5
100
AcDbLine
 10
-777.4144739830207
 20
-554.4084439654142
 30
0.0
 11
-775.9146923744391
 21
-554.4084439654142
 31
0.0
  0
LINE
  5
19B
330
1F
100
AcDbEntity
  8
D-0
  6
Continuous
 62
     7
370
     5
100
AcDbLine
 10
-775.9146923744391
 20
-554.4084439654142
 30
0.0
 11
-775.9146923744391
 21
-555.9087262530119
 31
0.0
  0
LINE
  5
19C
330
1F
100
AcDbEntity
  8
D-0
  6
Continuous
 62
     7
370
     5
100
AcDbLine
 10
-775.9146923744391
 20
-555.9087262530119
 30
0.0
 11
-777.4144739830207
 21
-555.9087262530119
 31
0.0
  0
LINE
  5
19D
330
1F
100
AcDbEntity
  8
D-0
  6
Continuous
 62
     7
370
     5
100
AcDbLine
 10
-765.5668253624152
 20
-628.968571223715
 30
0.0
 11
-765.5668253624152
 21
-627.4682889361173
 31
0.0
  0
LINE
  5
19E
330
1F
100
AcDbEntity
  8
D-0
  6
Continuous
 62
     7
370
     5
100
AcDbLine
 10
-765.5668253624152
 20
-627.4682889361173
 30
0.0
 11
-764.0670389854621
 21
-627.4682889361173
 31
0.0
  0
LINE
  5
19F
330
1F
100
AcDbEntity
  8
D-0
  6
Continuous
 62
     7
370
     5
100
AcDbLine
 10
-764.0670389854621
 20
-627.4682889361173
 30
0.0
 11
-764.0670389854621
 21
-628.968571223715
 31
0.0
  0
LINE
  5
1A0
330
1F
100
AcDbEntity
  8
D-0
  6
Continuous
 62
     7
370
     5
100
AcDbLine
 10
-764.0670389854621
 20
-628.968571223715
 30
0.0
 11
-765.5668253624152
 21
-628.968571223715
 31
0.0
  0
LINE
  5
1A1
330
1F
100
AcDbEntity
  8
D-0
  6
Continuous
 62
     7
370
     5
100
AcDbLine
 10
-813.9443964683722
 20
-627.9810986895353
 30
0.0
 11
-813.9443964683722
 21
-626.4808164019377
 31
0.0
  0
LINE
  5
1A2
330
1F
100
AcDbEntity
  8
D-0
  6
Continuous
 62
     7
370
     5
100
AcDbLine
 10
-813.9443964683722
 20
-626.4808164019377
 30
0.0
 11
-812.4441141807746
 21
-626.4808164019377
 31
0.0
  0
LINE
  5
1A3
330
1F
100
AcDbEntity
  8
D-0
  6
Continuous
 62
     7
370
     5
100
AcDbLine
 10
-812.4441141807746
 20
-626.4808164019377
 30
0.0
 11
-812.4441141807746
 21
-627.9810986895353
 31
0.0
  0
LINE
  5
1A4
330
1F
100
AcDbEntity
  8
D-0
  6
Continuous
 62
     7
370
     5
100
AcDbLine
 10
-812.4441141807746
 20
-627.9810986895353
 30
0.0
 11
-813.9443964683722
 21
-627.9810986895353
 31
0.0
  0
LINE
  5
1A5
330
1F
100
AcDbEntity
  8
D-0
  6
Continuous
 62
     7
370
     5
100
AcDbLine
 10
-800.9913534843635
 20
-747.0868192095548
 30
0.0
 11
-800.9913534843635
 21
-745.5865369219572
 31
0.0
  0
LINE
  5
1A6
330
1F
100
AcDbEntity
  8
D-0
  6
Continuous
 62
     7
370
     5
100
AcDbLine
 10
-800.9913534843635
 20
-745.5865369219572
 30
0.0
 11
-799.4915766441535
 21
-745.5865369219572
 31
0.0
  0
LINE
  5
1A7
330
1F
100
AcDbEntity
  8
D-0
  6
Continuous
 62
     7
370
     5
100
AcDbLine
 10
-799.4915766441535
 20
-745.5865369219572
 30
0.0
 11
-799.4915766441535
 21
-747.0868192095548
 31
0.0
  0
LINE
  5
1A8
330
1F
100
AcDbEntity
  8
D-0
  6
Continuous
 62
     7
370
     5
100
AcDbLine
 10
-799.4915766441535
 20
-747.0868192095548
 30
0.0
 11
-800.9913534843635
 21
-747.0868192095548
 31
0.0
  0
LINE
  5
1A9
330
1F
100
AcDbEntity
  8
D-0
  6
Continuous
 62
     7
370
     5
100
AcDbLine
 10
-750.4654330932807
 20
-776.5944562334806
 30
0.0
 11
-750.4654330932807
 21
-775.0942120928556
 31
0.0
  0
LINE
  5
1AA
330
1F
100
AcDbEntity
  8
D-0
  6
Continuous
 62
     7
370
     5
100
AcDbLine
 10
-750.4654330932807
 20
-775.0942120928556
 30
0.0
 11
-748.9656491005134
 21
-775.0942120928556
 31
0.0
  0
LINE
  5
1AB
330
1F
100
AcDbEntity
  8
D-0
  6
Continuous
 62
     7
370
     5
100
AcDbLine
 10
-748.9656491005134
 20
-775.0942120928556
 30
0.0
 11
-748.9656491005134
 21
-776.5944562334806
 31
0.0
  0
LINE
  5
1AC
330
1F
100
AcDbEntity
  8
D-0
  6
Continuous
 62
     7
370
     5
100
AcDbLine
 10
-748.9656491005134
 20
-776.5944562334806
 30
0.0
 11
-750.4654330932807
 21
-776.5944562334806
 31
0.0
  0
LINE
  5
1AD
330
1F
100
AcDbEntity
  8
D-0
  6
Continuous
 62
     7
370
     5
100
AcDbLine
 10
-714.2278368198585
 20
-700.8650479693205
 30
0.0
 11
-714.2278368198585
 21
-699.3647656817228
 31
0.0
  0
LINE
  5
1AE
330
1F
100
AcDbEntity
  8
D-0
  6
Continuous
 62
     7
370
     5
100
AcDbLine
 10
-714.2278368198585
 20
-699.3647656817228
 30
0.0
 11
-712.7275572144698
 21
-699.3647656817228
 31
0.0
  0
LINE
  5
1AF
330
1F
100
AcDbEntity
  8
D-0
  6
Continuous
 62
     7
370
     5
100
AcDbLine
 10
-712.7275572144698
 20
-699.3647656817228
 30
0.0
 11
-712.7275572144698
 21
-700.8650479693205
 31
0.0
  0
LINE
  5
1B0
330
1F
100
AcDbEntity
  8
D-0
  6
Continuous
 62
     7
370
     5
100
AcDbLine
 10
-712.7275572144698
 20
-700.8650479693205
 30
0.0
 11
-714.2278368198585
 21
-700.8650479693205
 31
0.0
  0
LINE
  5
1B1
330
1F
100
AcDbEntity
  8
D-0
  6
Continuous
 62
     7
370
     5
100
AcDbLine
 10
-831.2605375969123
 20
-582.8017697710783
 30
0.0
 11
-831.2605375969123
 21
-581.3014874834806
 31
0.0
  0
LINE
  5
1B2
330
1F
100
AcDbEntity
  8
D-0
  6
Continuous
 62
     7
370
     5
100
AcDbLine
 10
-831.2605375969123
 20
-581.3014874834806
 30
0.0
 11
-829.7602553093146
 21
-581.3014874834806
 31
0.0
  0
LINE
  5
1B3
330
1F
100
AcDbEntity
  8
D-0
  6
Continuous
 62
     7
370
     5
100
AcDbLine
 10
-829.7602553093146
 20
-581.3014874834806
 30
0.0
 11
-829.7602553093146
 21
-582.8017697710783
 31
0.0
  0
LINE
  5
1B4
330
1F
100
AcDbEntity
  8
D-0
  6
Continuous
 62
     7
370
     5
100
AcDbLine
 10
-829.7602553093146
 20
-582.8017697710783
 30
0.0
 11
-831.2605375969123
 21
-582.8017697710783
 31
0.0
  0
LINE
  5
1B5
330
1F
100
AcDbEntity
  8
D-0
  6
Continuous
 62
     7
370
     5
100
AcDbLine
 10
-714.3388218605231
 20
-626.535824336508
 30
0.0
 11
-714.3388218605231
 21
-625.0355420489103
 31
0.0
  0
LINE
  5
1B6
330
1F
100
AcDbEntity
  8
D-0
  6
Continuous
 62
     7
370
     5
100
AcDbLine
 10
-714.3388218605231
 20
-625.0355420489103
 30
0.0
 11
-712.8385422551345
 21
-625.0355420489103
 31
0.0
  0
LINE
  5
1B7
330
1F
100
AcDbEntity
  8
D-0
  6
Continuous
 62
     7
370
     5
100
AcDbLine
 10
-712.8385422551345
 20
-625.0355420489103
 30
0.0
 11
-712.8385422551345
 21
-626.535824336508
 31
0.0
  0
LINE
  5
1B8
330
1F
100
AcDbEntity
  8
D-0
  6
Continuous
 62
     7
370
     5
100
AcDbLine
 10
-712.8385422551345
 20
-626.535824336508
 30
0.0
 11
-714.3388218605231
 21
-626.535824336508
 31
0.0
  0
LINE
  5
1B9
330
1F
100
AcDbEntity
  8
D-0
  6
Continuous
 62
     7
370
     5
100
AcDbLine
 10
-739.0691537582587
 20
-749.881771602133
 30
0.0
 11
-739.0691537582587
 21
-748.3814893145353
 31
0.0
  0
LINE
  5
1BA
330
1F
100
AcDbEntity
  8
D-0
  6
Continuous
 62
     7
370
     5
100
AcDbLine
 10
-739.0691537582587
 20
-748.3814893145353
 30
0.0
 11
-737.5688762390326
 21
-748.3814893145353
 31
0.0
  0
LINE
  5
1BB
330
1F
100
AcDbEntity
  8
D-0
  6
Continuous
 62
     7
370
     5
100
AcDbLine
 10
-737.5688762390326
 20
-748.3814893145353
 30
0.0
 11
-737.5688762390326
 21
-749.881771602133
 31
0.0
  0
LINE
  5
1BC
330
1F
100
AcDbEntity
  8
D-0
  6
Continuous
 62
     7
370
     5
100
AcDbLine
 10
-737.5688762390326
 20
-749.881771602133
 30
0.0
 11
-739.0691537582587
 21
-749.881771602133
 31
0.0
  0
LINE
  5
1BD
330
1F
100
AcDbEntity
  8
D-0
  6
Continuous
 62
     7
370
     5
100
AcDbLine
 10
-613.6149782859992
 20
-291.0657928366453
 30
0.0
 11
-613.6149782859992
 21
-289.5655135292799
 31
0.0
  0
LINE
  5
1BE
330
1F
100
AcDbEntity
  8
D-0
  6
Continuous
 62
     7
370
     5
100
AcDbLine
 10
-613.6149782859992
 20
-289.5655135292799
 30
0.0
 11
-612.1146959984015
 21
-289.5655135292799
 31
0.0
  0
LINE
  5
1BF
330
1F
100
AcDbEntity
  8
D-0
  6
Continuous
 62
     7
370
     5
100
AcDbLine
 10
-612.1146959984015
 20
-289.5655135292799
 30
0.0
 11
-612.1146959984015
 21
-291.0657928366453
 31
0.0
  0
LINE
  5
1C0
330
1F
100
AcDbEntity
  8
D-0
  6
Continuous
 62
     7
370
     5
100
AcDbLine
 10
-612.1146959984015
 20
-291.0657928366453
 30
0.0
 11
-613.6149782859992
 21
-291.0657928366453
 31
0.0
  0
LINE
  5
1C1
330
1F
100
AcDbEntity
  8
D-0
  6
Continuous
 62
     7
370
     5
100
AcDbLine
 10
-635.1515192711066
 20
-322.3288808245451
 30
0.0
 11
-635.1515192711066
 21
-320.828603305319
 31
0.0
  0
LINE
  5
1C2
330
1F
100
AcDbEntity
  8
D-0
  6
Continuous
 62
     7
370
     5
100
AcDbLine
 10
-635.1515192711066
 20
-320.828603305319
 30
0.0
 11
-633.651236983509
 21
-320.828603305319
 31
0.0
  0
LINE
  5
1C3
330
1F
100
AcDbEntity
  8
D-0
  6
Continuous
 62
     7
370
     5
100
AcDbLine
 10
-633.651236983509
 20
-320.828603305319
 30
0.0
 11
-633.651236983509
 21
-322.3288808245451
 31
0.0
  0
LINE
  5
1C4
330
1F
100
AcDbEntity
  8
D-0
  6
Continuous
 62
     7
370
     5
100
AcDbLine
 10
-633.651236983509
 20
-322.3288808245451
 30
0.0
 11
-635.1515192711066
 21
-322.3288808245451
 31
0.0
  0
LINE
  5
1C5
330
1F
100
AcDbEntity
  8
D-0
  6
Continuous
 62
     7
370
     5
100
AcDbLine
 10
-643.5799355232427
 20
-491.5884480852873
 30
0.0
 11
-643.5799355232427
 21
-490.0881657976896
 31
0.0
  0
LINE
  5
1C6
330
1F
100
AcDbEntity
  8
D-0
  6
Continuous
 62
     7
370
     5
100
AcDbLine
 10
-643.5799355232427
 20
-490.0881657976896
 30
0.0
 11
-642.0801491462896
 21
-490.0881657976896
 31
0.0
  0
LINE
  5
1C7
330
1F
100
AcDbEntity
  8
D-0
  6
Continuous
 62
     7
370
     5
100
AcDbLine
 10
-642.0801491462896
 20
-490.0881657976896
 30
0.0
 11
-642.0801491462896
 21
-491.5884480852873
 31
0.0
  0
LINE
  5
1C8
330
1F
100
AcDbEntity
  8
D-0
  6
Continuous
 62
     7
370
     5
100
AcDbLine
 10
-642.0801491462896
 20
-491.5884480852873
 30
0.0
 11
-643.5799355232427
 21
-491.5884480852873
 31
0.0
  0
ARC
  5
1C9
330
1F
100
AcDbEntity
  8
D-9
  6
Continuous
 62
     4
370
     5
100
AcDbCircle
 10
-826.3875956260871
 20
-385.6037125963957
 30
0.0
 40
5.0
100
AcDbArc
 50
90.0
 51
180.0
  0
ARC
  5
1CA
330
1F
100
AcDbEntity
  8
D-A
  6
Continuous
 62
     3
370
     5
100
AcDbCircle
 10
-659.8872990333746
 20
-329.1029296297819
 30
0.0
 40
6.499999761581421
100
AcDbArc
 50
0.0
 51
90.0
  0
ARC
  5
1CB
330
1F
100
AcDbEntity
  8
D-A
  6
JWW_DASHED3
 62
     3
370
     5
100
AcDbCircle
 10
-659.8872990333746
 20
-352.1035800356657
 30
0.0
 40
6.499999761581421
100
AcDbArc
 50
270.0
 51
0.0
  0
ARC
  5
1CC
330
1F
100
AcDbEntity
  8
D-A
  6
Continuous
 62
     3
370
     5
100
AcDbCircle
 10
-676.3874001228521
 20
-392.2454724688322
 30
0.0
 40
10.0
100
AcDbArc
 50
0.0
 51
45.0
  0
ARC
  5
1CD
330
1F
100
AcDbEntity
  8
D-A
  6
Continuous
 62
     3
370
     5
100
AcDbCircle
 10
-551.3875670158576
 20
-373.1035313982755
 30
0.0
 40
10.0
100
AcDbArc
 50
0.0
 51
90.0
  0
ARC
  5
1CE
330
1F
100
AcDbEntity
  8
D-1
  6
Continuous
 62
     2
370
     5
100
AcDbCircle
 10
-836.3881392204474
 20
-390.6034837145597
 30
0.0
 40
5.0
100
AcDbArc
 50
90.0
 51
180.0
  0
ARC
  5
1CF
330
1F
100
AcDbEntity
  8
D-1
  6
Continuous
 62
     2
370
     5
100
AcDbCircle
 10
-689.3880052292059
 20
-281.1034021754057
 30
0.0
 40
3.00000011920929
100
AcDbArc
 50
0.0
 51
90.0
  0
ARC
  5
1D0
330
1F
100
AcDbEntity
  8
D-1
  6
Continuous
 62
     2
370
     5
100
AcDbCircle
 10
-708.3877463066291
 20
-281.1034021754057
 30
0.0
 40
3.00000011920929
100
AcDbArc
 50
90.0
 51
180.0
  0
ARC
  5
1D1
330
1F
100
AcDbEntity
  8
D-1
  6
Continuous
 62
     2
370
     5
100
AcDbCircle
 10
-689.3880052292059
 20
-400.1036057848722
 30
0.0
 40
3.00000011920929
100
AcDbArc
 50
270.0
 51
0.0
  0
ARC
  5
1D2
330
1F
100
AcDbEntity
  8
D-1
  6
Continuous
 62
     2
370
     5
100
AcDbCircle
 10
-711.3883052193831
 20
-393.1036267657072
 30
0.0
 40
5.0
100
AcDbArc
 50
270.0
 51
0.0
  0
ARC
  5
1D3
330
1F
100
AcDbEntity
  8
D-1
  6
Continuous
 62
     2
370
     5
100
AcDbCircle
 10
-783.350190612049
 20
-390.6034837145597
 30
0.0
 40
5.0
100
AcDbArc
 50
70.43162536621094
 51
90.0
  0
ARC
  5
1D4
330
1F
100
AcDbEntity
  8
D-1
  6
Continuous
 62
     2
370
     5
100
AcDbCircle
 10
-761.0843176567267
 20
-393.1036267657072
 30
0.0
 40
5.0
100
AcDbArc
 50
250.4390106201172
 51
270.0
  0
ARC
  5
1D5
330
1F
100
AcDbEntity
  8
D-1
  6
Continuous
 62
     2
370
     5
100
AcDbCircle
 10
-836.3881392204474
 20
-398.1033978838713
 30
0.0
 40
5.0
100
AcDbArc
 50
180.0
 51
270.0
  0
ARC
  5
1D6
330
1F
100
AcDbEntity
  8
D-1
  6
Continuous
 62
     2
370
     5
100
AcDbCircle
 10
-825.7182211601447
 20
-390.6034837145597
 30
0.0
 40
5.0
100
AcDbArc
 50
59.99996948242189
 51
90.00000000000001
  0
ARC
  5
1D7
330
1F
100
AcDbEntity
  8
D-1
  6
Continuous
 62
     2
370
     5
100
AcDbCircle
 10
-797.0578283989142
 20
-390.6034837145597
 30
0.0
 40
5.0
100
AcDbArc
 50
90.0
 51
120.0000305175781
  0
ARC
  5
1D8
330
1F
100
AcDbEntity
  8
D-1
  6
Continuous
 62
     2
370
     5
100
AcDbCircle
 10
-811.3882727348517
 20
-393.1036267657072
 30
0.0
 40
5.0
100
AcDbArc
 50
239.9999694824219
 51
300.0000305175781
  0
LWPOLYLINE
  5
1D9
330
1F
100
AcDbEntity
  8
D-4
  6
Continuous
 62
     7
370
     5
100
AcDbPolyline
 90
        4
 70
     1
 43
1.0
 10
-685.8879413330267
 20
62.26338525821859
 42
0.4142135623731
 10
-686.3879413330267
 20
62.76338525821859
 42
0.4142135623731
 10
-686.8879413330267
 20
62.26338525821859
 42
0.4142135623731
 10
-686.3879413330267
 20
61.76338525821859
 42
0.4142135623731
  0
LWPOLYLINE
  5
1DA
330
1F
100
AcDbEntity
  8
D-4
  6
Continuous
 62
     7
370
     5
100
AcDbPolyline
 90
        4
 70
     1
 43
1.0
 10
-840.8874239647103
 20
-157.1846757311613
 42
0.4142135623731
 10
-841.3874239647101
 20
-156.6846757311613
 42
0.4142135623731
 10
-841.8874239647101
 20
-157.1846757311613
 42
0.4142135623731
 10
-841.3874239647101
 20
-157.6846757311613
 42
0.4142135623731
  0
LWPOLYLINE
  5
1DB
330
1F
100
AcDbEntity
  8
D-4
  6
Continuous
 62
     7
370
     5
100
AcDbPolyline
 90
        4
 70
     1
 43
1.0
 10
-715.886594268055
 20
-157.1846757311613
 42
0.4142135623731
 10
-716.3865942680549
 20
-156.6846757311613
 42
0.4142135623731
 10
-716.8865942680549
 20
-157.1846757311613
 42
0.4142135623731
 10
-716.3865942680549
 20
-157.6846757311613
 42
0.4142135623731
  0
LWPOLYLINE
  5
1DC
330
1F
100
AcDbEntity
  8
D-4
  6
Continuous
 62
     7
370
     5
100
AcDbPolyline
 90
        4
 70
     1
 43
1.0
 10
-715.886594268055
 20
-48.43226293514078
 42
0.4142135623731
 10
-716.3865942680549
 20
-47.93226293514078
 42
0.4142135623731
 10
-716.8865942680549
 20
-48.43226293514078
 42
0.4142135623731
 10
-716.3865942680549
 20
-48.93226293514078
 42
0.4142135623731
  0
LWPOLYLINE
  5
1DD
330
1F
100
AcDbEntity
  8
D-4
  6
Continuous
 62
     7
370
     5
100
AcDbPolyline
 90
        4
 70
     1
 43
1.0
 10
-710.8863236629677
 20
-48.43226293514078
 42
0.4142135623731
 10
-711.3863236629676
 20
-47.93226293514078
 42
0.4142135623731
 10
-711.8863236629676
 20
-48.43226293514078
 42
0.4142135623731
 10
-711.3863236629676
 20
-48.93226293514078
 42
0.4142135623731
  0
LWPOLYLINE
  5
1DE
330
1F
100
AcDbEntity
  8
D-4
  6
Continuous
 62
     7
370
     5
100
AcDbPolyline
 90
        4
 70
     1
 43
1.0
 10
-685.8879413330267
 20
-48.43226293514078
 42
0.4142135623731
 10
-686.3879413330267
 20
-47.93226293514078
 42
0.4142135623731
 10
-686.8879413330267
 20
-48.43226293514078
 42
0.4142135623731
 10
-686.3879413330267
 20
-48.93226293514078
 42
0.4142135623731
  0
LWPOLYLINE
  5
1DF
330
1F
100
AcDbEntity
  8
D-4
  6
Continuous
 62
     7
370
     5
100
AcDbPolyline
 90
        4
 70
     1
 43
1.0
 10
-685.8869518959234
 20
-468.6343655962736
 42
0.4142135623731
 10
-686.3869518959234
 20
-468.1343655962736
 42
0.4142135623731
 10
-686.8869518959234
 20
-468.6343655962736
 42
0.4142135623731
 10
-686.3869518959234
 20
-469.1343655962736
 42
0.4142135623731
  0
LWPOLYLINE
  5
1E0
330
1F
100
AcDbEntity
  8
D-4
  6
Continuous
 62
     7
370
     5
100
AcDbPolyline
 90
        4
 70
     1
 43
1.0
 10
-540.8870138847541
 20
-468.6343655962736
 42
0.4142135623731
 10
-541.3870138847541
 20
-468.1343655962736
 42
0.4142135623731
 10
-541.887013884754
 20
-468.6343655962736
 42
0.4142135623731
 10
-541.3870138847541
 20
-469.1343655962736
 42
0.4142135623731
  0
LWPOLYLINE
  5
1E1
330
1F
100
AcDbEntity
  8
D-4
  6
Continuous
 62
     7
370
     5
100
AcDbPolyline
 90
        4
 70
     1
 43
1.0
 10
-452.8362669670295
 20
-278.103834189871
 42
0.4142135623731
 10
-453.3362669670294
 20
-277.603834189871
 42
0.4142135623731
 10
-453.8362669670294
 20
-278.103834189871
 42
0.4142135623731
 10
-453.3362669670294
 20
-278.603834189871
 42
0.4142135623731
  0
LWPOLYLINE
  5
1E2
330
1F
100
AcDbEntity
  8
D-4
  6
Continuous
 62
     7
370
     5
100
AcDbPolyline
 90
        4
 70
     1
 43
1.0
 10
-452.8362669670295
 20
-363.1039796252043
 42
0.4142135623731
 10
-453.3362669670294
 20
-362.6039796252043
 42
0.4142135623731
 10
-453.8362669670294
 20
-363.1039796252043
 42
0.4142135623731
 10
-453.3362669670294
 20
-363.6039796252043
 42
0.4142135623731
  0
LWPOLYLINE
  5
1E3
330
1F
100
AcDbEntity
  8
D-4
  6
Continuous
 62
     7
370
     5
100
AcDbPolyline
 90
        4
 70
     1
 43
1.0
 10
-452.8362669670295
 20
-413.1037125963957
 42
0.4142135623731
 10
-453.3362669670294
 20
-412.6037125963957
 42
0.4142135623731
 10
-453.8362669670294
 20
-413.1037125963957
 42
0.4142135623731
 10
-453.3362669670294
 20
-413.6037125963957
 42
0.4142135623731
  0
LWPOLYLINE
  5
1E4
330
1F
100
AcDbEntity
  8
D-4
  6
Continuous
 62
     7
370
     5
100
AcDbPolyline
 90
        4
 70
     1
 43
1.0
 10
-840.8864321434212
 20
-683.7223325152189
 42
0.4142135623731
 10
-841.3864321434211
 20
-683.2223325152189
 42
0.4142135623731
 10
-841.8864321434211
 20
-683.7223325152189
 42
0.4142135623731
 10
-841.3864321434211
 20
-684.2223325152189
 42
0.4142135623731
  0
LWPOLYLINE
  5
1E5
330
1F
100
AcDbEntity
  8
D-4
  6
Continuous
 62
     7
370
     5
100
AcDbPolyline
 90
        4
 70
     1
 43
1.0
 10
-690.8872213089178
 20
-683.7223325152189
 42
0.4142135623731
 10
-691.3872213089178
 20
-683.2223325152189
 42
0.4142135623731
 10
-691.8872213089178
 20
-683.7223325152189
 42
0.4142135623731
 10
-691.3872213089178
 20
-684.2223325152189
 42
0.4142135623731
  0
TEXT
  5
1E6
330
1F
100
AcDbEntity
  8
D-4
  6
Continuous
 62
     2
370
     5
100
AcDbText
 10
-800.1366705620002
 20
-146.5444087023527
 30
0.0
 40
30.48
  1
25
 41
1.0625
  7
ＭＳ ゴシック
100
AcDbText
  0
TEXT
  5
1E7
330
1F
100
AcDbEntity
  8
D-4
  6
Continuous
 62
     2
370
     5
100
AcDbText
 10
-832.6364512169074
 20
-673.0825613970549
 30
0.0
 40
30.48
  1
25～30
 41
1.104166666666667
  7
ＭＳ ゴシック
100
AcDbText
  0
TEXT
  5
1E8
330
1F
100
AcDbEntity
  8
D-4
  6
Continuous
 62
     2
370
     5
100
AcDbText
 10
-662.3973459922979
 20
-457.9945944781095
 30
0.0
 40
30.48
  1
29
 41
1.062499999999998
  7
ＭＳ ゴシック
100
AcDbText
  0
TEXT
  5
1E9
330
1F
100
AcDbEntity
  8
D-4
  6
Continuous
 62
     2
370
     5
100
AcDbText
 10
-463.9765530693243
 20
-409.3535125713215
 30
0.0
 40
30.48
  1
10
 50
90.00000250447819
 41
1.062500000000001
  7
ＭＳ ゴシック
100
AcDbText
  0
TEXT
  5
1EA
330
1F
100
AcDbEntity
  8
D-4
  6
Continuous
 62
     2
370
     5
100
AcDbText
 10
-463.9765530693243
 20
-341.8538177471027
 30
0.0
 40
30.48
  1
17
 50
90.00000250447819
 41
1.062500000000001
  7
ＭＳ ゴシック
100
AcDbText
  0
LINE
  5
1EB
330
1F
100
AcDbEntity
  8
D-A
  6
Continuous
 62
     3
370
     5
100
AcDbLine
 10
-629.1076173910672
 20
-363.1034837145597
 30
0.0
 11
-551.3875670158576
 21
-363.1034837145597
 31
0.0
  0
LINE
  5
1EC
330
1F
100
AcDbEntity
  8
D-4
  6
Continuous
 62
     7
370
     5
100
AcDbLine
 10
-686.3879413330267
 20
-468.6343655962736
 30
0.0
 11
-841.3881392204474
 21
-468.6343655962736
 31
0.0
  0
LWPOLYLINE
  5
1ED
330
1F
100
AcDbEntity
  8
D-4
  6
Continuous
 62
     7
370
     5
100
AcDbPolyline
 90
        4
 70
     1
 43
1.0
 10
-685.8879413330267
 20
-468.6343655962736
 42
0.4142135623731
 10
-686.3879413330267
 20
-468.1343655962736
 42
0.4142135623731
 10
-686.8879413330267
 20
-468.6343655962736
 42
0.4142135623731
 10
-686.3879413330267
 20
-469.1343655962736
 42
0.4142135623731
  0
LWPOLYLINE
  5
1EE
330
1F
100
AcDbEntity
  8
D-4
  6
Continuous
 62
     7
370
     5
100
AcDbPolyline
 90
        4
 70
     1
 43
1.0
 10
-840.8881392204476
 20
-468.6343655962736
 42
0.4142135623731
 10
-841.3881392204474
 20
-468.1343655962736
 42
0.4142135623731
 10
-841.8881392204474
 20
-468.6343655962736
 42
0.4142135623731
 10
-841.3881392204474
 20
-469.1343655962736
 42
0.4142135623731
  0
LINE
  5
1EF
330
1F
100
AcDbEntity
  8
D-4
  6
Continuous
 62
     7
370
     5
100
AcDbLine
 10
-686.3879413330267
 20
-471.6343655962736
 30
0.0
 11
-686.3879413330267
 21
-420.1036057848722
 31
0.0
  0
LINE
  5
1F0
330
1F
100
AcDbEntity
  8
D-4
  6
Continuous
 62
     7
370
     5
100
AcDbLine
 10
-841.3881392204474
 20
-471.6343655962736
 30
0.0
 11
-841.3881392204474
 21
-418.1033978838713
 31
0.0
  0
TEXT
  5
1F1
330
1F
100
AcDbEntity
  8
D-4
  6
Continuous
 62
     2
370
   211
100
AcDbText
 10
-785.1380402767371
 20
-456.9943655962736
 30
0.0
 40
30.48
  1
31
 41
1.0625
  7
ＭＳ ゴシック
100
AcDbText
  0
LINE
  5
1F2
330
1F
100
AcDbEntity
  8
D-0
  6
Continuous
 62
     7
370
     5
100
AcDbLine
 10
-794.4490033909603
 20
-418.8195455130289
 30
0.0
 11
-794.4490033909603
 21
-417.3192727621744
 31
0.0
  0
LINE
  5
1F3
330
1F
100
AcDbEntity
  8
D-0
  6
Continuous
 62
     7
370
     5
100
AcDbLine
 10
-794.4490033909603
 20
-417.3192727621744
 30
0.0
 11
-792.9487306401059
 21
-417.3192727621744
 31
0.0
  0
LINE
  5
1F4
330
1F
100
AcDbEntity
  8
D-0
  6
Continuous
 62
     7
370
     5
100
AcDbLine
 10
-792.9487306401059
 20
-417.3192727621744
 30
0.0
 11
-792.9487306401059
 21
-418.8195455130289
 31
0.0
  0
LINE
  5
1F5
330
1F
100
AcDbEntity
  8
D-0
  6
Continuous
 62
     7
370
     5
100
AcDbLine
 10
-792.9487306401059
 20
-418.8195455130289
 30
0.0
 11
-794.4490033909603
 21
-418.8195455130289
 31
0.0
  0
LINE
  5
1F6
330
1F
100
AcDbEntity
  8
D-0
  6
Continuous
 62
     7
370
     5
100
AcDbLine
 10
-721.4191252518178
 20
-419.5855931858171
 30
0.0
 11
-721.4191252518178
 21
-418.0853204349626
 31
0.0
  0
LINE
  5
1F7
330
1F
100
AcDbEntity
  8
D-0
  6
Continuous
 62
     7
370
     5
100
AcDbLine
 10
-721.4191252518178
 20
-418.0853204349626
 30
0.0
 11
-719.9188525009633
 21
-418.0853204349626
 31
0.0
  0
LINE
  5
1F8
330
1F
100
AcDbEntity
  8
D-0
  6
Continuous
 62
     7
370
     5
100
AcDbLine
 10
-719.9188525009633
 20
-418.0853204349626
 30
0.0
 11
-719.9188525009633
 21
-419.5855931858171
 31
0.0
  0
LINE
  5
1F9
330
1F
100
AcDbEntity
  8
D-0
  6
Continuous
 62
     7
370
     5
100
AcDbLine
 10
-719.9188525009633
 20
-419.5855931858171
 30
0.0
 11
-721.4191252518178
 21
-419.5855931858171
 31
0.0
  0
LINE
  5
1FA
330
1F
100
AcDbEntity
  8
D-0
  6
Continuous
 62
     7
370
     5
100
AcDbLine
 10
-730.0243718349647
 20
-476.7432609008125
 30
0.0
 11
-730.0243718349647
 21
-475.2429786132149
 31
0.0
  0
LINE
  5
1FB
330
1F
100
AcDbEntity
  8
D-0
  6
Continuous
 62
     7
370
     5
100
AcDbLine
 10
-730.0243718349647
 20
-475.2429786132149
 30
0.0
 11
-728.5245878421973
 21
-475.2429786132149
 31
0.0
  0
LINE
  5
1FC
330
1F
100
AcDbEntity
  8
D-0
  6
Continuous
 62
     7
370
     5
100
AcDbLine
 10
-728.5245878421973
 20
-475.2429786132149
 30
0.0
 11
-728.5245878421973
 21
-476.7432609008125
 31
0.0
  0
LINE
  5
1FD
330
1F
100
AcDbEntity
  8
D-0
  6
Continuous
 62
     7
370
     5
100
AcDbLine
 10
-728.5245878421973
 20
-476.7432609008125
 30
0.0
 11
-730.0243718349647
 21
-476.7432609008125
 31
0.0
  0
LINE
  5
1FE
330
1F
100
AcDbEntity
  8
D-4
  6
Continuous
 62
     7
370
     5
100
AcDbLine
 10
-950.1671676244381
 20
-278.1034020561964
 30
0.0
 11
-950.1671676244381
 21
-403.1033978838713
 31
0.0
  0
LWPOLYLINE
  5
1FF
330
1F
100
AcDbEntity
  8
D-4
  6
Continuous
 62
     7
370
     5
100
AcDbPolyline
 90
        4
 70
     1
 43
1.0
 10
-949.6671676244381
 20
-278.1034020561964
 42
0.4142135623731
 10
-950.1671676244381
 20
-277.6034020561964
 42
0.4142135623731
 10
-950.667167624438
 20
-278.1034020561964
 42
0.4142135623731
 10
-950.1671676244381
 20
-278.6034020561964
 42
0.4142135623731
  0
LWPOLYLINE
  5
200
330
1F
100
AcDbEntity
  8
D-4
  6
Continuous
 62
     7
370
     5
100
AcDbPolyline
 90
        4
 70
     1
 43
1.0
 10
-949.6671676244381
 20
-403.1033978838713
 42
0.4142135623731
 10
-950.1671676244381
 20
-402.6033978838713
 42
0.4142135623731
 10
-950.667167624438
 20
-403.1033978838713
 42
0.4142135623731
 10
-950.1671676244381
 20
-403.6033978838713
 42
0.4142135623731
  0
LINE
  5
201
330
1F
100
AcDbEntity
  8
D-4
  6
Continuous
 62
     7
370
     5
100
AcDbLine
 10
-953.1671676244382
 20
-278.1034020561964
 30
0.0
 11
-728.3877463066291
 21
-278.1034020561964
 31
0.0
  0
LINE
  5
202
330
1F
100
AcDbEntity
  8
D-4
  6
Continuous
 62
     7
370
     5
100
AcDbLine
 10
-953.1671676244382
 20
-403.1033978838713
 30
0.0
 11
-856.3881392204474
 21
-403.1033978838713
 31
0.0
  0
TEXT
  5
203
330
1F
100
AcDbEntity
  8
D-4
  6
Continuous
 62
     2
370
   211
100
AcDbText
 10
-961.807167624438
 20
-429.5255615268086
 30
0.0
 40
30.48
  1
25
 50
90.0
 41
1.0625
  7
ＭＳ ゴシック
100
AcDbText
  0
LINE
  5
204
330
1F
100
AcDbEntity
  8
D-5
  6
Continuous
 62
     7
370
     5
100
AcDbLine
 10
-494.2941942101337
 20
-50.69414939261129
 30
0.0
 11
-43.89830478086061
 21
-50.69414939261129
 31
0.0
  0
TEXT
  5
205
330
1F
100
AcDbEntity
  8
D-5
  6
Continuous
 62
     7
370
     5
100
AcDbText
 10
-494.2941942101337
 20
-108.2179652744234
 30
0.0
 40
22.86
  1
クッション材
 41
1.138888888888889
  7
ＭＳ ゴシック
100
AcDbText
  0
TEXT
  5
206
330
1F
100
AcDbEntity
  8
D-5
  6
Continuous
 62
     7
370
     5
100
AcDbText
 10
-494.2941942101337
 20
-153.1562368793617
 30
0.0
 40
22.86
  1
（軟質塩化ビニル）
 41
1.148148148148148
  7
ＭＳ ゴシック
100
AcDbText
  0
LINE
  5
207
330
1F
100
AcDbEntity
  8
D-5
  6
Continuous
 62
     7
370
     5
100
AcDbLine
 10
-512.5568726904149
 20
-119.8260735549343
 30
0.0
 11
-199.8354316264503
 21
-119.8260735549343
 31
0.0
  0
TEXT
  5
208
330
1F
100
AcDbEntity
  8
D-5
  6
Continuous
 62
     7
370
     5
100
AcDbText
 10
-493.0481613482434
 20
-41.70617286062887
 30
0.0
 40
22.86
  1
ステンレス製受枠ＳＦ２０Ｂ
 41
1.153846153846154
  7
ＭＳ ゴシック
100
AcDbText
  0
TEXT
  5
209
330
1F
100
AcDbEntity
  8
D-5
  6
Continuous
 62
     7
370
     5
100
AcDbText
 10
-499.6840145755713
 20
-247.9706611008436
 30
0.0
 40
22.86
  1
ｔ＝２．３（ＳＰＨＣ）
 41
1.151515151515152
  7
ＭＳ ゴシック
100
AcDbText
  0
LINE
  5
20A
330
1F
100
AcDbEntity
  8
D-5
  6
Continuous
 62
     7
370
     5
100
AcDbLine
 10
-626.0344937015478
 20
-363.1029240269453
 30
0.0
 11
-500.1259663272803
 21
-218.4404102940351
 31
0.0
  0
LINE
  5
20B
330
1F
100
AcDbEntity
  8
D-5
  6
Continuous
 62
     7
370
     5
100
AcDbLine
 10
-512.5568726904149
 20
-119.8260735549343
 30
0.0
 11
-742.3545966832221
 21
-383.8492828462512
 31
0.0
  0
LINE
  5
20C
330
1F
100
AcDbEntity
  8
D-5
  6
Continuous
 62
     7
370
     5
100
AcDbLine
 10
-494.2941942101337
 20
-50.69414939261129
 30
0.0
 11
-692.2235570637761
 21
-278.103834189871
 31
0.0
  0
LINE
  5
20D
330
1F
100
AcDbEntity
  8
D-5
  6
Continuous
 62
     7
370
     5
100
AcDbLine
 10
-493.7650829792304
 20
22.87243453377322
 30
0.0
 11
-755.8043487566873
 21
-280.6040014211732
 31
0.0
  0
LINE
  5
20E
330
1F
100
AcDbEntity
  8
D-5
  6
Continuous
 62
     7
370
     5
100
AcDbLine
 10
-755.8043487566873
 20
-280.6040014211732
 30
0.0
 11
-737.1360786456033
 21
-263.976041216095
 31
0.0
  0
LINE
  5
20F
330
1F
100
AcDbEntity
  8
D-5
  6
Continuous
 62
     7
370
     5
100
AcDbLine
 10
-755.8043487566873
 20
-280.6040014211732
 30
0.0
 11
-742.0759017962381
 21
-259.7110570852357
 31
0.0
  0
LINE
  5
210
330
1F
100
AcDbEntity
  8
D-5
  6
Continuous
 62
     7
370
     5
100
AcDbLine
 10
-692.2235570637761
 20
-278.103834189871
 30
0.0
 11
-678.4128628460942
 21
-257.2654086206347
 31
0.0
  0
LINE
  5
211
330
1F
100
AcDbEntity
  8
D-5
  6
Continuous
 62
     7
370
     5
100
AcDbLine
 10
-692.2235570637761
 20
-278.103834189871
 30
0.0
 11
-673.4888945309697
 21
-261.5497273061663
 31
0.0
  0
LINE
  5
212
330
1F
100
AcDbEntity
  8
D-5
  6
Continuous
 62
     7
370
     5
100
AcDbLine
 10
-742.3550925938666
 20
-383.8497787568957
 30
0.0
 11
-723.6214194981635
 21
-367.2956710908801
 31
0.0
  0
LINE
  5
213
330
1F
100
AcDbEntity
  8
D-5
  6
Continuous
 62
     7
370
     5
100
AcDbLine
 10
-742.3550925938666
 20
-383.8497787568957
 30
0.0
 11
-728.5424075810492
 21
-363.0118423555285
 31
0.0
  0
LINE
  5
214
330
1F
100
AcDbEntity
  8
D-5
  6
Continuous
 62
     7
370
     5
100
AcDbLine
 10
-626.0354855228369
 20
-363.1039158482344
 30
0.0
 11
-607.3008206058447
 21
-346.5498081822187
 31
0.0
  0
LINE
  5
215
330
1F
100
AcDbEntity
  8
D-5
  6
Continuous
 62
     7
370
     5
100
AcDbLine
 10
-626.0354855228369
 20
-363.1039158482344
 30
0.0
 11
-612.2247889209692
 21
-342.2644964833052
 31
0.0
  0
LINE
  5
216
330
1F
100
AcDbEntity
  8
D-0
  6
Continuous
 62
     7
370
     5
100
AcDbLine
 10
-626.1252077051596
 20
-345.9805645491727
 30
0.0
 11
-626.1252077051596
 21
-344.480282261575
 31
0.0
  0
LINE
  5
217
330
1F
100
AcDbEntity
  8
D-0
  6
Continuous
 62
     7
370
     5
100
AcDbLine
 10
-626.1252077051596
 20
-344.480282261575
 30
0.0
 11
-624.6254213282065
 21
-344.480282261575
 31
0.0
  0
LINE
  5
218
330
1F
100
AcDbEntity
  8
D-0
  6
Continuous
 62
     7
370
     5
100
AcDbLine
 10
-624.6254213282065
 20
-344.480282261575
 30
0.0
 11
-624.6254213282065
 21
-345.9805645491727
 31
0.0
  0
LINE
  5
219
330
1F
100
AcDbEntity
  8
D-0
  6
Continuous
 62
     7
370
     5
100
AcDbLine
 10
-624.6254213282065
 20
-345.9805645491727
 30
0.0
 11
-626.1252077051596
 21
-345.9805645491727
 31
0.0
  0
LINE
  5
21A
330
1F
100
AcDbEntity
  8
D-0
  6
Continuous
 62
     7
370
     5
100
AcDbLine
 10
-593.0302949536399
 20
-312.9758960382027
 30
0.0
 11
-593.0302949536399
 21
-311.4756185189766
 31
0.0
  0
LINE
  5
21B
330
1F
100
AcDbEntity
  8
D-0
  6
Continuous
 62
     7
370
     5
100
AcDbLine
 10
-593.0302949536399
 20
-311.4756185189766
 30
0.0
 11
-591.5300126660422
 21
-311.4756185189766
 31
0.0
  0
LINE
  5
21C
330
1F
100
AcDbEntity
  8
D-0
  6
Continuous
 62
     7
370
     5
100
AcDbLine
 10
-591.5300126660422
 20
-311.4756185189766
 30
0.0
 11
-591.5300126660422
 21
-312.9758960382027
 31
0.0
  0
LINE
  5
21D
330
1F
100
AcDbEntity
  8
D-0
  6
Continuous
 62
     7
370
     5
100
AcDbLine
 10
-591.5300126660422
 20
-312.9758960382027
 30
0.0
 11
-593.0302949536399
 21
-312.9758960382027
 31
0.0
  0
LINE
  5
21E
330
1F
100
AcDbEntity
  8
D-4
  6
Continuous
 62
     7
370
     5
100
AcDbLine
 10
-841.3864321434211
 20
-931.2451230235636
 30
0.0
 11
-441.3855642997931
 21
-931.2451230235636
 31
0.0
  0
LINE
  5
21F
330
1F
100
AcDbEntity
  8
D-4
  6
Continuous
 62
     7
370
     5
100
AcDbLine
 10
-441.3855642997931
 20
-597.9769978899748
 30
0.0
 11
-441.3855642997931
 21
-934.2441617198526
 31
0.0
  0
LINE
  5
220
330
1F
100
AcDbEntity
  8
D-4
  6
Continuous
 62
     7
370
     5
100
AcDbLine
 10
-841.3864321434211
 20
-803.1040463824064
 30
0.0
 11
-841.3864321434211
 21
-934.2441617198526
 31
0.0
  0
LWPOLYLINE
  5
221
330
1F
100
AcDbEntity
  8
D-4
  6
Continuous
 62
     7
370
     5
100
AcDbPolyline
 90
        4
 70
     1
 43
1.0
 10
-840.8864321434212
 20
-931.2451230235636
 42
0.4142135623731
 10
-841.3864321434211
 20
-930.7451230235636
 42
0.4142135623731
 10
-841.8864321434211
 20
-931.2451230235636
 42
0.4142135623731
 10
-841.3864321434211
 20
-931.7451230235635
 42
0.4142135623731
  0
LWPOLYLINE
  5
222
330
1F
100
AcDbEntity
  8
D-4
  6
Continuous
 62
     7
370
     5
100
AcDbPolyline
 90
        4
 70
     1
 43
1.0
 10
-440.8855642997931
 20
-931.2451230235636
 42
0.4142135623731
 10
-441.3855642997931
 20
-930.7451230235636
 42
0.4142135623731
 10
-441.8855642997931
 20
-931.2451230235636
 42
0.4142135623731
 10
-441.3855642997931
 20
-931.7451230235635
 42
0.4142135623731
  0
TEXT
  5
223
330
1F
100
AcDbEntity
  8
D-4
  6
Continuous
 62
     2
370
     5
100
AcDbText
 10
-709.254816862316
 20
-920.6048178477823
 30
0.0
 40
30.48
  1
75～80
 41
1.104166666666667
  7
ＭＳ ゴシック
100
AcDbText
  0
LINE
  5
224
330
1F
100
AcDbEntity
  8
D-4
  6
Continuous
 62
     7
370
     5
100
AcDbLine
 10
-66.74847780962067
 20
-528.1040082354338
 30
0.0
 11
-66.74847780962067
 21
-278.103834189871
 31
0.0
  0
LINE
  5
225
330
1F
100
AcDbEntity
  8
D-4
  6
Continuous
 62
     7
370
     5
100
AcDbLine
 10
-265.3568930351447
 20
-278.103834189871
 30
0.0
 11
-63.74791323442535
 21
-278.103834189871
 31
0.0
  0
LINE
  5
226
330
1F
100
AcDbEntity
  8
D-4
  6
Continuous
 62
     7
370
     5
100
AcDbLine
 10
-385.6076712333868
 20
-528.1040082354338
 30
0.0
 11
-63.74791323442535
 21
-528.1040082354338
 31
0.0
  0
LWPOLYLINE
  5
227
330
1F
100
AcDbEntity
  8
D-4
  6
Continuous
 62
     7
370
     5
100
AcDbPolyline
 90
        4
 70
     1
 43
1.0
 10
-66.24847780962067
 20
-528.1040082354338
 42
0.4142135623731
 10
-66.74847780962067
 20
-527.6040082354338
 42
0.4142135623731
 10
-67.24847780962067
 20
-528.1040082354338
 42
0.4142135623731
 10
-66.74847780962067
 20
-528.6040082354338
 42
0.4142135623731
  0
LWPOLYLINE
  5
228
330
1F
100
AcDbEntity
  8
D-4
  6
Continuous
 62
     7
370
     5
100
AcDbPolyline
 90
        4
 70
     1
 43
1.0
 10
-66.24847780962067
 20
-278.103834189871
 42
0.4142135623731
 10
-66.74847780962067
 20
-277.603834189871
 42
0.4142135623731
 10
-67.24847780962067
 20
-278.103834189871
 42
0.4142135623731
 10
-66.74847780962067
 20
-278.603834189871
 42
0.4142135623731
  0
TEXT
  5
229
330
1F
100
AcDbEntity
  8
D-4
  6
Continuous
 62
     2
370
     5
100
AcDbText
 10
-77.38874483842926
 20
-469.3533027629719
 30
0.0
 40
30.48
  1
40～50
 50
90.00000250447816
 41
1.104166666666667
  7
ＭＳ ゴシック
100
AcDbText
  0
LINE
  5
22A
330
1F
100
AcDbEntity
  8
D-5
  6
Continuous
 62
     7
370
     5
100
AcDbLine
 10
-389.0434238395416
 20
-597.691645904978
 30
0.0
 11
-200.7192134767219
 21
-597.691645904978
 31
0.0
  0
TEXT
  5
22B
330
1F
100
AcDbEntity
  8
D-5
  6
Continuous
 62
     7
370
     5
100
AcDbText
 10
-388.6014720878326
 20
-585.9979046024878
 30
0.0
 40
22.86
  1
差筋φ9程度
 41
1.136363636363636
  7
ＭＳ ゴシック
100
AcDbText
  0
LINE
  5
22C
330
1F
100
AcDbEntity
  8
D-5
  6
Continuous
 62
     7
370
     5
100
AcDbLine
 10
-552.8858656608771
 20
-433.8492040836427
 30
0.0
 11
-389.0434238395416
 21
-597.691645904978
 31
0.0
  0
LINE
  5
22D
330
1F
100
AcDbEntity
  8
D-5
  6
Continuous
 62
     7
370
     5
100
AcDbLine
 10
-552.8858656608771
 20
-433.8492040836427
 30
0.0
 11
-533.0520321535972
 21
-449.0682398088607
 31
0.0
  0
LINE
  5
22E
330
1F
100
AcDbEntity
  8
D-5
  6
Continuous
 62
     7
370
     5
100
AcDbLine
 10
-552.8858656608771
 20
-433.8492040836427
 30
0.0
 11
-537.6668299356596
 21
-453.6830375909236
 31
0.0
  0
LINE
  5
22F
330
1F
100
AcDbEntity
  8
D-0
  6
Continuous
 62
     7
370
     5
100
AcDbLine
 10
-526.9957748313245
 20
-482.4699239720328
 30
0.0
 11
-526.9957748313245
 21
-480.9696416844351
 31
0.0
  0
LINE
  5
230
330
1F
100
AcDbEntity
  8
D-0
  6
Continuous
 62
     7
370
     5
100
AcDbLine
 10
-526.9957748313245
 20
-480.9696416844351
 30
0.0
 11
-525.4959884543714
 21
-480.9696416844351
 31
0.0
  0
LINE
  5
231
330
1F
100
AcDbEntity
  8
D-0
  6
Continuous
 62
     7
370
     5
100
AcDbLine
 10
-525.4959884543714
 20
-480.9696416844351
 30
0.0
 11
-525.4959884543714
 21
-482.4699239720328
 31
0.0
  0
LINE
  5
232
330
1F
100
AcDbEntity
  8
D-0
  6
Continuous
 62
     7
370
     5
100
AcDbLine
 10
-525.4959884543714
 20
-482.4699239720328
 30
0.0
 11
-526.9957748313245
 21
-482.4699239720328
 31
0.0
  0
LINE
  5
233
330
1F
100
AcDbEntity
  8
D-0
  6
Continuous
 62
     7
370
     5
100
AcDbLine
 10
-504.4123092551527
 20
-510.0308637608512
 30
0.0
 11
-504.4123092551527
 21
-508.5305814732535
 31
0.0
  0
LINE
  5
234
330
1F
100
AcDbEntity
  8
D-0
  6
Continuous
 62
     7
370
     5
100
AcDbLine
 10
-504.4123092551527
 20
-508.5305814732535
 30
0.0
 11
-502.9120269675551
 21
-508.5305814732535
 31
0.0
  0
LINE
  5
235
330
1F
100
AcDbEntity
  8
D-0
  6
Continuous
 62
     7
370
     5
100
AcDbLine
 10
-502.9120269675551
 20
-508.5305814732535
 30
0.0
 11
-502.9120269675551
 21
-510.0308637608512
 31
0.0
  0
LINE
  5
236
330
1F
100
AcDbEntity
  8
D-0
  6
Continuous
 62
     7
370
     5
100
AcDbLine
 10
-502.9120269675551
 20
-510.0308637608512
 30
0.0
 11
-504.4123092551527
 21
-510.0308637608512
 31
0.0
  0
LINE
  5
237
330
1F
100
AcDbEntity
  8
D-4
  6
Continuous
 62
     7
370
     5
100
AcDbLine
 10
-1576.399317910225
 20
-280.6035692874985
 30
0.0
 11
-1576.399317910225
 21
-380.6034455675871
 31
0.0
  0
LWPOLYLINE
  5
238
330
1F
100
AcDbEntity
  8
D-4
  6
Continuous
 62
     7
370
     5
100
AcDbPolyline
 90
        4
 70
     1
 43
1.0
 10
-1575.899317910225
 20
-280.6035692874985
 42
0.4142135623731
 10
-1576.399317910225
 20
-280.1035692874985
 42
0.4142135623731
 10
-1576.899317910225
 20
-280.6035692874985
 42
0.4142135623731
 10
-1576.399317910225
 20
-281.1035692874985
 42
0.4142135623731
  0
LWPOLYLINE
  5
239
330
1F
100
AcDbEntity
  8
D-4
  6
Continuous
 62
     7
370
     5
100
AcDbPolyline
 90
        4
 70
     1
 43
1.0
 10
-1575.899317910225
 20
-380.6034455675871
 42
0.4142135623731
 10
-1576.399317910225
 20
-380.1034455675871
 42
0.4142135623731
 10
-1576.899317910225
 20
-380.6034455675871
 42
0.4142135623731
 10
-1576.399317910225
 20
-381.1034455675871
 42
0.4142135623731
  0
LINE
  5
23A
330
1F
100
AcDbEntity
  8
D-4
  6
Continuous
 62
     7
370
     5
100
AcDbLine
 10
-1579.399317910225
 20
-280.6035692874985
 30
0.0
 11
-1433.502585785347
 21
-280.6035692874985
 31
0.0
  0
LINE
  5
23B
330
1F
100
AcDbEntity
  8
D-4
  6
Continuous
 62
     7
370
     5
100
AcDbLine
 10
-1579.399317910225
 20
-380.6034455675871
 30
0.0
 11
-1433.502585785347
 21
-380.6034455675871
 31
0.0
  0
TEXT
  5
23C
330
1F
100
AcDbEntity
  8
D-4
  6
Continuous
 62
     2
370
   211
100
AcDbText
 10
-1588.039317910225
 20
-351.8535074275428
 30
0.0
 40
30.48
  1
20
 50
90.0
 41
1.0625
  7
ＭＳ ゴシック
100
AcDbText
  0
LINE
  5
23D
330
1F
100
AcDbEntity
  8
D-5
  6
Continuous
 62
     7
370
     5
100
AcDbLine
 10
-500.1259663272803
 20
-218.4404102940351
 30
0.0
 11
-137.0783682491074
 21
-218.4404102940351
 31
0.0
  0
TEXT
  5
23E
330
1F
100
AcDbEntity
  8
D-5
  6
Continuous
 62
     7
370
     5
100
AcDbText
 10
-499.6840145755713
 20
-206.7466689915449
 30
0.0
 40
22.86
  1
溶接用アンカー
 41
1.142857142857143
  7
ＭＳ ゴシック
100
AcDbText
  0
TEXT
  5
23F
330
1F
100
AcDbEntity
  8
D-4
  6
Continuous
 62
     2
370
     5
100
AcDbText
 10
-1414.923382708456
 20
-33.8017796061731
 30
0.0
 40
30.48
  1
□450
 41
1.1
  7
ＭＳ ゴシック
100
AcDbText
  0
TEXT
  5
240
330
1F
100
AcDbEntity
  8
D-4
  6
Continuous
 62
     2
370
     5
100
AcDbText
 10
-1414.923382708456
 20
-142.5539323326299
 30
0.0
 40
30.48
  1
□400
 41
1.1
  7
ＭＳ ゴシック
100
AcDbText
  0
TEXT
  5
241
330
1F
100
AcDbEntity
  8
D-4
  6
Continuous
 62
     2
370
     5
100
AcDbText
 10
-1414.923382708456
 20
76.89413664699437
 30
0.0
 40
30.48
  1
□462
 41
1.1
  7
ＭＳ ゴシック
100
AcDbText
  0
ARC
  5
242
330
1F
100
AcDbEntity
  8
D-2
  6
Continuous
 62
     3
370
     5
100
AcDbCircle
 10
-1345.772805390965
 20
-292.6035346459236
 30
0.0
 40
5.000000064437454
100
AcDbArc
 50
0.0
 51
90.0
  0
ARC
  5
243
330
1F
100
AcDbEntity
  8
D-2
  6
Continuous
 62
     3
370
     5
100
AcDbCircle
 10
-1328.772947256463
 20
-292.6035346459236
 30
0.0
 40
5.000000064437454
100
AcDbArc
 50
90.0
 51
180.0
  0
LINE
  5
244
330
1F
100
AcDbEntity
  8
D-2
  6
Continuous
 62
     3
370
     5
100
AcDbLine
 10
-1317.273305219407
 20
-287.6036418698465
 30
0.0
 11
-1357.272447428022
 21
-287.6036418698465
 31
0.0
  0
LINE
  5
245
330
1F
100
AcDbEntity
  8
D-2
  6
Continuous
 62
     3
370
     5
100
AcDbLine
 10
-1357.272447428022
 20
-280.6035692874985
 30
0.0
 11
-1357.272447428022
 21
-287.6036418698465
 31
0.0
  0
LINE
  5
246
330
1F
100
AcDbEntity
  8
D-2
  6
Continuous
 62
     3
370
     5
100
AcDbLine
 10
-1317.273305219407
 20
-280.6035692874985
 30
0.0
 11
-1357.272447428022
 21
-280.6035692874985
 31
0.0
  0
LINE
  5
247
330
1F
100
AcDbEntity
  8
D-2
  6
Continuous
 62
     3
370
     5
100
AcDbLine
 10
-1317.273305219407
 20
-280.6035692874985
 30
0.0
 11
-1317.273305219407
 21
-287.6036418698465
 31
0.0
  0
LINE
  5
248
330
1F
100
AcDbEntity
  8
D-2
  6
Continuous
 62
     3
370
     5
100
AcDbLine
 10
-722.8883052193833
 20
-380.6034455675871
 30
0.0
 11
-1409.852585785347
 21
-380.6034455675871
 31
0.0
  0
LINE
  5
249
330
1F
100
AcDbEntity
  8
D-2
  6
Continuous
 62
     3
370
     5
100
AcDbLine
 10
-760.3880577795603
 20
-280.6035692874985
 30
0.0
 11
-1409.852585785347
 21
-280.6035692874985
 31
0.0
  0
ARC
  5
24A
330
1F
100
AcDbEntity
  8
D-2
  6
Continuous
 62
     3
370
     5
100
AcDbCircle
 10
-1260.787805390965
 20
-292.6035346459236
 30
0.0
 40
5.000000064437454
100
AcDbArc
 50
0.0
 51
90.0
  0
ARC
  5
24B
330
1F
100
AcDbEntity
  8
D-2
  6
Continuous
 62
     3
370
     5
100
AcDbCircle
 10
-1243.787947256463
 20
-292.6035346459236
 30
0.0
 40
5.000000064437454
100
AcDbArc
 50
90.0
 51
180.0
  0
LINE
  5
24C
330
1F
100
AcDbEntity
  8
D-2
  6
Continuous
 62
     3
370
     5
100
AcDbLine
 10
-1232.288305219407
 20
-287.6036418698465
 30
0.0
 11
-1272.287447428022
 21
-287.6036418698465
 31
0.0
  0
LINE
  5
24D
330
1F
100
AcDbEntity
  8
D-2
  6
Continuous
 62
     3
370
     5
100
AcDbLine
 10
-1272.287447428022
 20
-280.6035692874985
 30
0.0
 11
-1272.287447428022
 21
-287.6036418698465
 31
0.0
  0
LINE
  5
24E
330
1F
100
AcDbEntity
  8
D-2
  6
Continuous
 62
     3
370
     5
100
AcDbLine
 10
-1232.288305219407
 20
-280.6035692874985
 30
0.0
 11
-1272.287447428022
 21
-280.6035692874985
 31
0.0
  0
LINE
  5
24F
330
1F
100
AcDbEntity
  8
D-2
  6
Continuous
 62
     3
370
     5
100
AcDbLine
 10
-1232.288305219407
 20
-280.6035692874985
 30
0.0
 11
-1232.288305219407
 21
-287.6036418698465
 31
0.0
  0
ARC
  5
250
330
1F
100
AcDbEntity
  8
D-2
  6
Continuous
 62
     3
370
     5
100
AcDbCircle
 10
-1175.887805390961
 20
-292.6035346459236
 30
0.0
 40
5.000000064437454
100
AcDbArc
 50
0.0
 51
90.0
  0
ARC
  5
251
330
1F
100
AcDbEntity
  8
D-2
  6
Continuous
 62
     3
370
     5
100
AcDbCircle
 10
-1158.887947256459
 20
-292.6035346459236
 30
0.0
 40
5.000000064437454
100
AcDbArc
 50
90.0
 51
180.0
  0
LINE
  5
252
330
1F
100
AcDbEntity
  8
D-2
  6
Continuous
 62
     3
370
     5
100
AcDbLine
 10
-1147.388305219402
 20
-287.6036418698465
 30
0.0
 11
-1187.387447428018
 21
-287.6036418698465
 31
0.0
  0
LINE
  5
253
330
1F
100
AcDbEntity
  8
D-2
  6
Continuous
 62
     3
370
     5
100
AcDbLine
 10
-1187.387447428018
 20
-280.6035692874985
 30
0.0
 11
-1187.387447428018
 21
-287.6036418698465
 31
0.0
  0
LINE
  5
254
330
1F
100
AcDbEntity
  8
D-2
  6
Continuous
 62
     3
370
     5
100
AcDbLine
 10
-1147.388305219402
 20
-280.6035692874985
 30
0.0
 11
-1187.387447428018
 21
-280.6035692874985
 31
0.0
  0
LINE
  5
255
330
1F
100
AcDbEntity
  8
D-2
  6
Continuous
 62
     3
370
     5
100
AcDbLine
 10
-1147.388305219402
 20
-280.6035692874985
 30
0.0
 11
-1147.388305219402
 21
-287.6036418698465
 31
0.0
  0
ARC
  5
256
330
1F
100
AcDbEntity
  8
D-2
  6
Continuous
 62
     3
370
     5
100
AcDbCircle
 10
-1090.987805390957
 20
-292.6035346459236
 30
0.0
 40
5.000000064437454
100
AcDbArc
 50
0.0
 51
90.0
  0
ARC
  5
257
330
1F
100
AcDbEntity
  8
D-2
  6
Continuous
 62
     3
370
     5
100
AcDbCircle
 10
-1073.987947256455
 20
-292.6035346459236
 30
0.0
 40
5.000000064437454
100
AcDbArc
 50
90.0
 51
180.0
  0
LINE
  5
258
330
1F
100
AcDbEntity
  8
D-2
  6
Continuous
 62
     3
370
     5
100
AcDbLine
 10
-1062.488305219399
 20
-287.6036418698465
 30
0.0
 11
-1102.487447428013
 21
-287.6036418698465
 31
0.0
  0
LINE
  5
259
330
1F
100
AcDbEntity
  8
D-2
  6
Continuous
 62
     3
370
     5
100
AcDbLine
 10
-1102.487447428013
 20
-280.6035692874985
 30
0.0
 11
-1102.487447428013
 21
-287.6036418698465
 31
0.0
  0
LINE
  5
25A
330
1F
100
AcDbEntity
  8
D-2
  6
Continuous
 62
     3
370
     5
100
AcDbLine
 10
-1062.488305219399
 20
-280.6035692874985
 30
0.0
 11
-1102.487447428013
 21
-280.6035692874985
 31
0.0
  0
LINE
  5
25B
330
1F
100
AcDbEntity
  8
D-2
  6
Continuous
 62
     3
370
     5
100
AcDbLine
 10
-1062.488305219399
 20
-280.6035692874985
 30
0.0
 11
-1062.488305219399
 21
-287.6036418698465
 31
0.0
  0
ARC
  5
25C
330
1F
100
AcDbEntity
  8
D-2
  6
Continuous
 62
     3
370
     5
100
AcDbCircle
 10
-1006.087805390953
 20
-292.6035346459236
 30
0.0
 40
5.000000064437454
100
AcDbArc
 50
0.0
 51
90.0
  0
ARC
  5
25D
330
1F
100
AcDbEntity
  8
D-2
  6
Continuous
 62
     3
370
     5
100
AcDbCircle
 10
-989.0879472564511
 20
-292.6035346459236
 30
0.0
 40
5.000000064437454
100
AcDbArc
 50
90.0
 51
180.0
  0
LINE
  5
25E
330
1F
100
AcDbEntity
  8
D-2
  6
Continuous
 62
     3
370
     5
100
AcDbLine
 10
-977.5883052193949
 20
-287.6036418698465
 30
0.0
 11
-1017.587447428009
 21
-287.6036418698465
 31
0.0
  0
LINE
  5
25F
330
1F
100
AcDbEntity
  8
D-2
  6
Continuous
 62
     3
370
     5
100
AcDbLine
 10
-1017.587447428009
 20
-280.6035692874985
 30
0.0
 11
-1017.587447428009
 21
-287.6036418698465
 31
0.0
  0
LINE
  5
260
330
1F
100
AcDbEntity
  8
D-2
  6
Continuous
 62
     3
370
     5
100
AcDbLine
 10
-977.5883052193949
 20
-280.6035692874985
 30
0.0
 11
-1017.587447428009
 21
-280.6035692874985
 31
0.0
  0
LINE
  5
261
330
1F
100
AcDbEntity
  8
D-2
  6
Continuous
 62
     3
370
     5
100
AcDbLine
 10
-977.5883052193949
 20
-280.6035692874985
 30
0.0
 11
-977.5883052193949
 21
-287.6036418698465
 31
0.0
  0
ARC
  5
262
330
1F
100
AcDbEntity
  8
D-2
  6
Continuous
 62
     3
370
     5
100
AcDbCircle
 10
-921.1878053909497
 20
-292.6035346459236
 30
0.0
 40
5.000000064437454
100
AcDbArc
 50
0.0
 51
90.0
  0
ARC
  5
263
330
1F
100
AcDbEntity
  8
D-2
  6
Continuous
 62
     3
370
     5
100
AcDbCircle
 10
-904.1879472564476
 20
-292.6035346459236
 30
0.0
 40
5.000000064437454
100
AcDbArc
 50
90.0
 51
180.0
  0
LINE
  5
264
330
1F
100
AcDbEntity
  8
D-2
  6
Continuous
 62
     3
370
     5
100
AcDbLine
 10
-892.6883052193914
 20
-287.6036418698465
 30
0.0
 11
-932.687447428006
 21
-287.6036418698465
 31
0.0
  0
LINE
  5
265
330
1F
100
AcDbEntity
  8
D-2
  6
Continuous
 62
     3
370
     5
100
AcDbLine
 10
-932.687447428006
 20
-280.6035692874985
 30
0.0
 11
-932.687447428006
 21
-287.6036418698465
 31
0.0
  0
LINE
  5
266
330
1F
100
AcDbEntity
  8
D-2
  6
Continuous
 62
     3
370
     5
100
AcDbLine
 10
-892.6883052193914
 20
-280.6035692874985
 30
0.0
 11
-932.687447428006
 21
-280.6035692874985
 31
0.0
  0
LINE
  5
267
330
1F
100
AcDbEntity
  8
D-2
  6
Continuous
 62
     3
370
     5
100
AcDbLine
 10
-892.6883052193914
 20
-280.6035692874985
 30
0.0
 11
-892.6883052193914
 21
-287.6036418698465
 31
0.0
  0
ARC
  5
268
330
1F
100
AcDbEntity
  8
D-2
  6
Continuous
 62
     3
370
     5
100
AcDbCircle
 10
-836.2878053909451
 20
-292.6035346459236
 30
0.0
 40
5.000000064437454
100
AcDbArc
 50
0.0
 51
90.0
  0
ARC
  5
269
330
1F
100
AcDbEntity
  8
D-2
  6
Continuous
 62
     3
370
     5
100
AcDbCircle
 10
-819.2879472564435
 20
-292.6035346459236
 30
0.0
 40
5.000000064437454
100
AcDbArc
 50
90.0
 51
180.0
  0
LINE
  5
26A
330
1F
100
AcDbEntity
  8
D-2
  6
Continuous
 62
     3
370
     5
100
AcDbLine
 10
-807.7883052193873
 20
-287.6036418698465
 30
0.0
 11
-847.7874474280025
 21
-287.6036418698465
 31
0.0
  0
LINE
  5
26B
330
1F
100
AcDbEntity
  8
D-2
  6
Continuous
 62
     3
370
     5
100
AcDbLine
 10
-847.7874474280025
 20
-280.6035692874985
 30
0.0
 11
-847.7874474280025
 21
-287.6036418698465
 31
0.0
  0
LINE
  5
26C
330
1F
100
AcDbEntity
  8
D-2
  6
Continuous
 62
     3
370
     5
100
AcDbLine
 10
-807.7883052193873
 20
-280.6035692874985
 30
0.0
 11
-847.7874474280025
 21
-280.6035692874985
 31
0.0
  0
LINE
  5
26D
330
1F
100
AcDbEntity
  8
D-2
  6
Continuous
 62
     3
370
     5
100
AcDbLine
 10
-807.7883052193873
 20
-280.6035692874985
 30
0.0
 11
-807.7883052193873
 21
-287.6036418698465
 31
0.0
  0
ARC
  5
26E
330
1F
100
AcDbEntity
  8
D-2
  6
Continuous
 62
     3
370
     5
100
AcDbCircle
 10
-751.3878053909416
 20
-292.6035346459236
 30
0.0
 40
5.000000064437454
100
AcDbArc
 50
0.0
 51
90.0
  0
LINE
  5
26F
330
1F
100
AcDbEntity
  8
D-2
  6
Continuous
 62
     3
370
     5
100
AcDbLine
 10
-739.3878400325166
 20
-380.6034455675871
 30
0.0
 11
-746.3879126148645
 21
-380.6034455675871
 31
0.0
  0
ARC
  5
270
330
1F
100
AcDbEntity
  8
D-2
  6
Continuous
 62
     3
370
     5
100
AcDbCircle
 10
-734.3879472564395
 20
-292.6035346459236
 30
0.0
 40
5.000000064437454
100
AcDbArc
 50
90.0
 51
180.0
  0
LINE
  5
271
330
1F
100
AcDbEntity
  8
D-2
  6
Continuous
 62
     3
370
     5
100
AcDbLine
 10
-722.8883052193833
 20
-287.6036418698465
 30
0.0
 11
-762.8874474279978
 21
-287.6036418698465
 31
0.0
  0
LINE
  5
272
330
1F
100
AcDbEntity
  8
D-2
  6
Continuous
 62
     3
370
     5
100
AcDbLine
 10
-762.8874474279978
 20
-280.6035692874985
 30
0.0
 11
-762.8874474279978
 21
-287.6036418698465
 31
0.0
  0
LINE
  5
273
330
1F
100
AcDbEntity
  8
D-2
  6
Continuous
 62
     3
370
     5
100
AcDbLine
 10
-722.8883052193833
 20
-280.6035692874985
 30
0.0
 11
-762.8874474279978
 21
-280.6035692874985
 31
0.0
  0
LINE
  5
274
330
1F
100
AcDbEntity
  8
D-2
  6
Continuous
 62
     3
370
     5
100
AcDbLine
 10
-722.8883052193833
 20
-280.6035692874985
 30
0.0
 11
-722.8883052193833
 21
-287.6036418698465
 31
0.0
  0
LINE
  5
275
330
1F
100
AcDbEntity
  8
D-2
  6
Continuous
 62
     3
370
     5
100
AcDbLine
 10
-1429.852402679879
 20
-345.5780154465961
 30
0.0
 11
-1409.852585785347
 21
-345.5780154465961
 31
0.0
  0
LINE
  5
276
330
1F
100
AcDbEntity
  8
D-2
  6
Continuous
 62
     3
370
     5
100
AcDbLine
 10
-1409.852585785347
 20
-315.5773745774553
 30
0.0
 11
-1409.852585785347
 21
-232.5780459641742
 31
0.0
  0
LINE
  5
277
330
1F
100
AcDbEntity
  8
D-2
  6
Continuous
 62
     3
370
     5
100
AcDbLine
 10
-1409.852585785347
 20
-315.5773745774553
 30
0.0
 11
-1389.852219574409
 21
-315.5773745774553
 31
0.0
  0
LINE
  5
278
330
1F
100
AcDbEntity
  8
D-2
  6
Continuous
 62
     3
370
     5
100
AcDbLine
 10
-1409.852585785347
 20
-345.5780154465961
 30
0.0
 11
-1409.852585785347
 21
-428.5778018235492
 31
0.0
  0
LINE
  5
279
330
1F
100
AcDbEntity
  8
C-A
  6
Continuous
 62
     3
370
     5
100
AcDbLine
 10
-822.4761707385334
 20
487.1996276744201
 30
0.0
 11
-372.4761707385334
 21
487.1996276744201
 31
0.0
  0
LINE
  5
27A
330
1F
100
AcDbEntity
  8
C-A
  6
Continuous
 62
     3
370
     5
100
AcDbLine
 10
-674.4761608409407
 20
935.8216276744199
 30
0.0
 11
-680.4761806361261
 21
935.8216276744199
 31
0.0
  0
LINE
  5
27B
330
1F
100
AcDbEntity
  8
C-A
  6
Continuous
 62
     3
370
     5
100
AcDbLine
 10
-594.4761608409407
 20
935.8216276744199
 30
0.0
 11
-600.4761806361261
 21
935.8216276744199
 31
0.0
  0
LINE
  5
27C
330
1F
100
AcDbEntity
  8
C-A
  6
Continuous
 62
     3
370
     5
100
AcDbLine
 10
-514.4761608409407
 20
935.8216276744199
 30
0.0
 11
-520.4761806361261
 21
935.8216276744199
 31
0.0
  0
LINE
  5
27D
330
1F
100
AcDbEntity
  8
C-A
  6
Continuous
 62
     3
370
     5
100
AcDbLine
 10
-434.4761608409407
 20
935.8216276744199
 30
0.0
 11
-440.4761806361261
 21
935.8216276744199
 31
0.0
  0
LINE
  5
27E
330
1F
100
AcDbEntity
  8
C-A
  6
Continuous
 62
     3
370
     5
100
AcDbLine
 10
-754.4761608409407
 20
935.8216276744199
 30
0.0
 11
-760.4761806361261
 21
935.8216276744199
 31
0.0
  0
ARC
  5
27F
330
1F
100
AcDbEntity
  8
C-A
  6
Continuous
 62
     3
370
     5
100
AcDbCircle
 10
-759.4217900639136
 20
930.324603550687
 30
0.0
 40
5.00000064437454
100
AcDbArc
 50
92.01400756835938
 51
122.922687553371
  0
LINE
  5
280
330
1F
100
AcDbEntity
  8
C-A
  6
Continuous
 62
     3
370
     5
100
AcDbLine
 10
-762.1658332489533
 20
934.52162767442
 30
0.0
 11
-760.4761806361261
 21
935.8216276744199
 31
0.0
  0
ARC
  5
281
330
1F
100
AcDbEntity
  8
C-A
  6
Continuous
 62
     3
370
     5
100
AcDbCircle
 10
-759.7142639342688
 20
932.3238183416495
 30
0.0
 40
3.000000038662472
100
AcDbArc
 50
47.10506745810005
 51
87.76651000976564
  0
ARC
  5
282
330
1F
100
AcDbEntity
  8
C-A
  6
Continuous
 62
     3
370
     5
100
AcDbCircle
 10
-755.238077542799
 20
932.3238183416495
 30
0.0
 40
3.000000038662472
100
AcDbArc
 50
92.23348999023438
 51
132.8949325418999
  0
ARC
  5
283
330
1F
100
AcDbEntity
  8
C-A
  6
Continuous
 62
     3
370
     5
100
AcDbCircle
 10
-755.5305514131531
 20
930.324603550687
 30
0.0
 40
5.00000064437454
100
AcDbArc
 50
57.07731244662897
 51
87.98599243164065
  0
LINE
  5
284
330
1F
100
AcDbEntity
  8
C-A
  6
Continuous
 62
     3
370
     5
100
AcDbLine
 10
-754.4761608409407
 20
935.8216276744199
 30
0.0
 11
-752.7865082281152
 21
934.52162767442
 31
0.0
  0
LINE
  5
285
330
1F
100
AcDbEntity
  8
C-A
  6
Continuous
 62
     3
370
     5
100
AcDbLine
 10
-682.1658332489533
 20
934.52162767442
 30
0.0
 11
-680.4761806361261
 21
935.8216276744199
 31
0.0
  0
LINE
  5
286
330
1F
100
AcDbEntity
  8
C-A
  6
Continuous
 62
     3
370
     5
100
AcDbLine
 10
-674.4761608409407
 20
935.8216276744199
 30
0.0
 11
-672.7865082281152
 21
934.52162767442
 31
0.0
  0
LINE
  5
287
330
1F
100
AcDbEntity
  8
C-A
  6
Continuous
 62
     3
370
     5
100
AcDbLine
 10
-594.4761608409407
 20
935.8216276744199
 30
0.0
 11
-592.7865082281152
 21
934.52162767442
 31
0.0
  0
LINE
  5
288
330
1F
100
AcDbEntity
  8
C-A
  6
Continuous
 62
     3
370
     5
100
AcDbLine
 10
-602.1658332489533
 20
934.52162767442
 30
0.0
 11
-600.4761806361261
 21
935.8216276744199
 31
0.0
  0
LINE
  5
289
330
1F
100
AcDbEntity
  8
C-A
  6
Continuous
 62
     3
370
     5
100
AcDbLine
 10
-514.4761608409407
 20
935.8216276744199
 30
0.0
 11
-512.7865082281152
 21
934.52162767442
 31
0.0
  0
LINE
  5
28A
330
1F
100
AcDbEntity
  8
C-A
  6
Continuous
 62
     3
370
     5
100
AcDbLine
 10
-522.1658332489533
 20
934.52162767442
 30
0.0
 11
-520.4761806361261
 21
935.8216276744199
 31
0.0
  0
LINE
  5
28B
330
1F
100
AcDbEntity
  8
C-A
  6
Continuous
 62
     3
370
     5
100
AcDbLine
 10
-434.4761608409407
 20
935.8216276744199
 30
0.0
 11
-432.7865082281152
 21
934.52162767442
 31
0.0
  0
LINE
  5
28C
330
1F
100
AcDbEntity
  8
C-A
  6
Continuous
 62
     3
370
     5
100
AcDbLine
 10
-442.1658332489533
 20
934.52162767442
 30
0.0
 11
-440.4761806361261
 21
935.8216276744199
 31
0.0
  0
ARC
  5
28D
330
1F
100
AcDbEntity
  8
C-A
  6
Continuous
 62
     3
370
     5
100
AcDbCircle
 10
-679.4217900639136
 20
930.324603550687
 30
0.0
 40
5.00000064437454
100
AcDbArc
 50
92.01400756835938
 51
122.922687553371
  0
ARC
  5
28E
330
1F
100
AcDbEntity
  8
C-A
  6
Continuous
 62
     3
370
     5
100
AcDbCircle
 10
-679.7142639342688
 20
932.3238183416495
 30
0.0
 40
3.000000038662472
100
AcDbArc
 50
47.10506745810005
 51
87.76651000976564
  0
ARC
  5
28F
330
1F
100
AcDbEntity
  8
C-A
  6
Continuous
 62
     3
370
     5
100
AcDbCircle
 10
-675.238077542799
 20
932.3238183416495
 30
0.0
 40
3.000000038662472
100
AcDbArc
 50
92.23348999023438
 51
132.8949325418999
  0
ARC
  5
290
330
1F
100
AcDbEntity
  8
C-A
  6
Continuous
 62
     3
370
     5
100
AcDbCircle
 10
-675.5305514131531
 20
930.324603550687
 30
0.0
 40
5.00000064437454
100
AcDbArc
 50
57.07731244662897
 51
87.98599243164065
  0
ARC
  5
291
330
1F
100
AcDbEntity
  8
C-A
  6
Continuous
 62
     3
370
     5
100
AcDbCircle
 10
-599.4217900639136
 20
930.324603550687
 30
0.0
 40
5.00000064437454
100
AcDbArc
 50
92.01400756835938
 51
122.9226875533724
  0
ARC
  5
292
330
1F
100
AcDbEntity
  8
C-A
  6
Continuous
 62
     3
370
     5
100
AcDbCircle
 10
-599.7142639342688
 20
932.3238183416495
 30
0.0
 40
3.000000038662472
100
AcDbArc
 50
47.10506745810005
 51
87.76651000976564
  0
ARC
  5
293
330
1F
100
AcDbEntity
  8
C-A
  6
Continuous
 62
     3
370
     5
100
AcDbCircle
 10
-595.238077542799
 20
932.3238183416495
 30
0.0
 40
3.000000038662472
100
AcDbArc
 50
92.23348999023438
 51
132.8949325418999
  0
ARC
  5
294
330
1F
100
AcDbEntity
  8
C-A
  6
Continuous
 62
     3
370
     5
100
AcDbCircle
 10
-595.5305514131531
 20
930.324603550687
 30
0.0
 40
5.00000064437454
100
AcDbArc
 50
57.0773124466276
 51
87.98599243164065
  0
ARC
  5
295
330
1F
100
AcDbEntity
  8
C-A
  6
Continuous
 62
     3
370
     5
100
AcDbCircle
 10
-519.4217900639136
 20
930.324603550687
 30
0.0
 40
5.00000064437454
100
AcDbArc
 50
92.01400756835938
 51
122.9226875533724
  0
ARC
  5
296
330
1F
100
AcDbEntity
  8
C-A
  6
Continuous
 62
     3
370
     5
100
AcDbCircle
 10
-519.7142639342688
 20
932.3238183416495
 30
0.0
 40
3.000000038662472
100
AcDbArc
 50
47.10506745810005
 51
87.76651000976564
  0
ARC
  5
297
330
1F
100
AcDbEntity
  8
C-A
  6
Continuous
 62
     3
370
     5
100
AcDbCircle
 10
-515.238077542799
 20
932.3238183416495
 30
0.0
 40
3.000000038662472
100
AcDbArc
 50
92.23348999023438
 51
132.8949325418999
  0
ARC
  5
298
330
1F
100
AcDbEntity
  8
C-A
  6
Continuous
 62
     3
370
     5
100
AcDbCircle
 10
-515.5305514131531
 20
930.324603550687
 30
0.0
 40
5.00000064437454
100
AcDbArc
 50
57.0773124466276
 51
87.98599243164065
  0
ARC
  5
299
330
1F
100
AcDbEntity
  8
C-A
  6
Continuous
 62
     3
370
     5
100
AcDbCircle
 10
-439.4217900639136
 20
930.324603550687
 30
0.0
 40
5.00000064437454
100
AcDbArc
 50
92.01400756835938
 51
122.9226875533724
  0
ARC
  5
29A
330
1F
100
AcDbEntity
  8
C-A
  6
Continuous
 62
     3
370
     5
100
AcDbCircle
 10
-435.5305514131531
 20
930.324603550687
 30
0.0
 40
5.00000064437454
100
AcDbArc
 50
57.0773124466276
 51
87.98599243164065
  0
ARC
  5
29B
330
1F
100
AcDbEntity
  8
C-A
  6
Continuous
 62
     3
370
     5
100
AcDbCircle
 10
-439.7142639342688
 20
932.3238183416495
 30
0.0
 40
3.000000038662472
100
AcDbArc
 50
47.10506745810005
 51
87.76651000976564
  0
ARC
  5
29C
330
1F
100
AcDbEntity
  8
C-A
  6
Continuous
 62
     3
370
     5
100
AcDbCircle
 10
-435.238077542799
 20
932.3238183416495
 30
0.0
 40
3.000000038662472
100
AcDbArc
 50
92.23348999023438
 51
132.8949325418999
  0
LINE
  5
29D
330
1F
100
AcDbEntity
  8
C-1
  6
Continuous
 62
     2
370
     5
100
AcDbLine
 10
-823.4761707385336
 20
936.8216276744201
 30
0.0
 11
-371.4761707385337
 21
936.8216276744201
 31
0.0
  0
LINE
  5
29E
330
1F
100
AcDbEntity
  8
C-1
  6
Continuous
 62
     2
370
     5
100
AcDbLine
 10
-366.4761707385337
 20
941.8216276744201
 30
0.0
 11
-366.4761707385337
 21
479.8216276744202
 31
0.0
  0
LINE
  5
29F
330
1F
100
AcDbEntity
  8
C-1
  6
Continuous
 62
     2
370
     5
100
AcDbLine
 10
-371.4761707385337
 20
936.8216276744201
 30
0.0
 11
-371.4761707385337
 21
484.8216276744202
 31
0.0
  0
LINE
  5
2A0
330
1F
100
AcDbEntity
  8
C-1
  6
Continuous
 62
     2
370
     5
100
AcDbLine
 10
-828.4761707385336
 20
941.8216276744201
 30
0.0
 11
-366.4761707385337
 21
941.8216276744201
 31
0.0
  0
LINE
  5
2A1
330
1F
100
AcDbEntity
  8
C-1
  6
Continuous
 62
     2
370
     5
100
AcDbLine
 10
-828.4761707385336
 20
941.8216276744201
 30
0.0
 11
-828.4761707385336
 21
479.8216276744202
 31
0.0
  0
LINE
  5
2A2
330
1F
100
AcDbEntity
  8
C-1
  6
Continuous
 62
     2
370
     5
100
AcDbLine
 10
-823.4761707385336
 20
936.8216276744201
 30
0.0
 11
-823.4761707385336
 21
484.8216276744202
 31
0.0
  0
LINE
  5
2A3
330
1F
100
AcDbEntity
  8
C-A
  6
Continuous
 62
     3
370
     5
100
AcDbLine
 10
-822.4761707385334
 20
934.52162767442
 30
0.0
 11
-822.4761707385334
 21
487.1996276744201
 31
0.0
  0
LINE
  5
2A4
330
1F
100
AcDbEntity
  8
C-1
  6
Continuous
 62
     2
370
     5
100
AcDbLine
 10
-828.4761707385336
 20
479.8216276744202
 30
0.0
 11
-366.4761707385337
 21
479.8216276744202
 31
0.0
  0
LINE
  5
2A5
330
1F
100
AcDbEntity
  8
C-1
  6
Continuous
 62
     2
370
     5
100
AcDbLine
 10
-823.4761707385336
 20
484.8216276744202
 30
0.0
 11
-371.4761707385337
 21
484.8216276744202
 31
0.0
  0
LINE
  5
2A6
330
1F
100
AcDbEntity
  8
C-A
  6
Continuous
 62
     3
370
     5
100
AcDbLine
 10
-372.4761707385334
 20
934.52162767442
 30
0.0
 11
-372.4761707385334
 21
487.1996276744201
 31
0.0
  0
LINE
  5
2A7
330
1F
100
AcDbEntity
  8
C-A
  6
Continuous
 62
     3
370
     5
100
AcDbLine
 10
-762.4259182068396
 20
926.5216276744197
 30
0.0
 11
-762.4259182068396
 21
917.6246276744203
 31
0.0
  0
LINE
  5
2A8
330
1F
100
AcDbEntity
  8
C-A
  6
Continuous
 62
     3
370
     5
100
AcDbLine
 10
-757.4761707385334
 20
926.5216276744197
 30
0.0
 11
-757.4761707385334
 21
917.6246276744203
 31
0.0
  0
LINE
  5
2A9
330
1F
100
AcDbEntity
  8
C-A
  6
Continuous
 62
     3
370
     5
100
AcDbLine
 10
-752.5264232702277
 20
926.5216276744197
 30
0.0
 11
-752.5264232702277
 21
917.6246276744203
 31
0.0
  0
LINE
  5
2AA
330
1F
100
AcDbEntity
  8
C-A
  6
Continuous
 62
     3
370
     5
100
AcDbLine
 10
-682.4259182068396
 20
926.5216276744197
 30
0.0
 11
-682.4259182068396
 21
917.6246276744203
 31
0.0
  0
LINE
  5
2AB
330
1F
100
AcDbEntity
  8
C-A
  6
Continuous
 62
     3
370
     5
100
AcDbLine
 10
-677.4761707385334
 20
926.5216276744197
 30
0.0
 11
-677.4761707385334
 21
917.6246276744203
 31
0.0
  0
LINE
  5
2AC
330
1F
100
AcDbEntity
  8
C-A
  6
Continuous
 62
     3
370
     5
100
AcDbLine
 10
-672.5264232702277
 20
926.5216276744197
 30
0.0
 11
-672.5264232702277
 21
917.6246276744203
 31
0.0
  0
LINE
  5
2AD
330
1F
100
AcDbEntity
  8
C-A
  6
Continuous
 62
     3
370
     5
100
AcDbLine
 10
-602.4259182068396
 20
926.5216276744197
 30
0.0
 11
-602.4259182068396
 21
917.6246276744203
 31
0.0
  0
LINE
  5
2AE
330
1F
100
AcDbEntity
  8
C-A
  6
Continuous
 62
     3
370
     5
100
AcDbLine
 10
-597.4761707385334
 20
926.5216276744197
 30
0.0
 11
-597.4761707385334
 21
917.6246276744203
 31
0.0
  0
LINE
  5
2AF
330
1F
100
AcDbEntity
  8
C-A
  6
Continuous
 62
     3
370
     5
100
AcDbLine
 10
-592.5264232702277
 20
926.5216276744197
 30
0.0
 11
-592.5264232702277
 21
917.6246276744203
 31
0.0
  0
LINE
  5
2B0
330
1F
100
AcDbEntity
  8
C-A
  6
Continuous
 62
     3
370
     5
100
AcDbLine
 10
-522.4259182068396
 20
926.5216276744197
 30
0.0
 11
-522.4259182068396
 21
917.6246276744203
 31
0.0
  0
LINE
  5
2B1
330
1F
100
AcDbEntity
  8
C-A
  6
Continuous
 62
     3
370
     5
100
AcDbLine
 10
-517.4761707385334
 20
926.5216276744197
 30
0.0
 11
-517.4761707385334
 21
917.6246276744203
 31
0.0
  0
LINE
  5
2B2
330
1F
100
AcDbEntity
  8
C-A
  6
Continuous
 62
     3
370
     5
100
AcDbLine
 10
-512.5264232702277
 20
926.5216276744197
 30
0.0
 11
-512.5264232702277
 21
917.6246276744203
 31
0.0
  0
LINE
  5
2B3
330
1F
100
AcDbEntity
  8
C-A
  6
Continuous
 62
     3
370
     5
100
AcDbLine
 10
-442.4259182068396
 20
926.5216276744197
 30
0.0
 11
-442.4259182068396
 21
917.6246276744203
 31
0.0
  0
LINE
  5
2B4
330
1F
100
AcDbEntity
  8
C-A
  6
Continuous
 62
     3
370
     5
100
AcDbLine
 10
-437.4761707385334
 20
926.5216276744197
 30
0.0
 11
-437.4761707385334
 21
917.6246276744203
 31
0.0
  0
LINE
  5
2B5
330
1F
100
AcDbEntity
  8
C-A
  6
Continuous
 62
     3
370
     5
100
AcDbLine
 10
-432.5264232702277
 20
926.5216276744197
 30
0.0
 11
-432.5264232702277
 21
917.6246276744203
 31
0.0
  0
LINE
  5
2B6
330
1F
100
AcDbEntity
  8
C-A
  6
Continuous
 62
     3
370
     5
100
AcDbLine
 10
-762.4259182068396
 20
909.6246276744196
 30
0.0
 11
-762.4259182068396
 21
900.7276276744201
 31
0.0
  0
LINE
  5
2B7
330
1F
100
AcDbEntity
  8
C-A
  6
Continuous
 62
     3
370
     5
100
AcDbLine
 10
-757.4761707385334
 20
909.6246276744196
 30
0.0
 11
-757.4761707385334
 21
900.7276276744201
 31
0.0
  0
LINE
  5
2B8
330
1F
100
AcDbEntity
  8
C-A
  6
Continuous
 62
     3
370
     5
100
AcDbLine
 10
-752.5264232702277
 20
909.6246276744196
 30
0.0
 11
-752.5264232702277
 21
900.7276276744201
 31
0.0
  0
LINE
  5
2B9
330
1F
100
AcDbEntity
  8
C-A
  6
Continuous
 62
     3
370
     5
100
AcDbLine
 10
-682.4259182068396
 20
909.6246276744196
 30
0.0
 11
-682.4259182068396
 21
900.7276276744201
 31
0.0
  0
LINE
  5
2BA
330
1F
100
AcDbEntity
  8
C-A
  6
Continuous
 62
     3
370
     5
100
AcDbLine
 10
-677.4761707385334
 20
909.6246276744196
 30
0.0
 11
-677.4761707385334
 21
900.7276276744201
 31
0.0
  0
LINE
  5
2BB
330
1F
100
AcDbEntity
  8
C-A
  6
Continuous
 62
     3
370
     5
100
AcDbLine
 10
-672.5264232702277
 20
909.6246276744196
 30
0.0
 11
-672.5264232702277
 21
900.7276276744201
 31
0.0
  0
LINE
  5
2BC
330
1F
100
AcDbEntity
  8
C-A
  6
Continuous
 62
     3
370
     5
100
AcDbLine
 10
-602.4259182068396
 20
909.6246276744196
 30
0.0
 11
-602.4259182068396
 21
900.7276276744201
 31
0.0
  0
LINE
  5
2BD
330
1F
100
AcDbEntity
  8
C-A
  6
Continuous
 62
     3
370
     5
100
AcDbLine
 10
-597.4761707385334
 20
909.6246276744196
 30
0.0
 11
-597.4761707385334
 21
900.7276276744201
 31
0.0
  0
LINE
  5
2BE
330
1F
100
AcDbEntity
  8
C-A
  6
Continuous
 62
     3
370
     5
100
AcDbLine
 10
-592.5264232702277
 20
909.6246276744196
 30
0.0
 11
-592.5264232702277
 21
900.7276276744201
 31
0.0
  0
LINE
  5
2BF
330
1F
100
AcDbEntity
  8
C-A
  6
Continuous
 62
     3
370
     5
100
AcDbLine
 10
-522.4259182068396
 20
909.6246276744196
 30
0.0
 11
-522.4259182068396
 21
900.7276276744201
 31
0.0
  0
LINE
  5
2C0
330
1F
100
AcDbEntity
  8
C-A
  6
Continuous
 62
     3
370
     5
100
AcDbLine
 10
-517.4761707385334
 20
909.6246276744196
 30
0.0
 11
-517.4761707385334
 21
900.7276276744201
 31
0.0
  0
LINE
  5
2C1
330
1F
100
AcDbEntity
  8
C-A
  6
Continuous
 62
     3
370
     5
100
AcDbLine
 10
-512.5264232702277
 20
909.6246276744196
 30
0.0
 11
-512.5264232702277
 21
900.7276276744201
 31
0.0
  0
LINE
  5
2C2
330
1F
100
AcDbEntity
  8
C-A
  6
Continuous
 62
     3
370
     5
100
AcDbLine
 10
-442.4259182068396
 20
909.6246276744196
 30
0.0
 11
-442.4259182068396
 21
900.7276276744201
 31
0.0
  0
LINE
  5
2C3
330
1F
100
AcDbEntity
  8
C-A
  6
Continuous
 62
     3
370
     5
100
AcDbLine
 10
-437.4761707385334
 20
909.6246276744196
 30
0.0
 11
-437.4761707385334
 21
900.7276276744201
 31
0.0
  0
LINE
  5
2C4
330
1F
100
AcDbEntity
  8
C-A
  6
Continuous
 62
     3
370
     5
100
AcDbLine
 10
-432.5264232702277
 20
909.6246276744196
 30
0.0
 11
-432.5264232702277
 21
900.7276276744201
 31
0.0
  0
LINE
  5
2C5
330
1F
100
AcDbEntity
  8
C-A
  6
Continuous
 62
     3
370
     5
100
AcDbLine
 10
-762.4259182068396
 20
892.7276276744194
 30
0.0
 11
-762.4259182068396
 21
883.8306276744199
 31
0.0
  0
LINE
  5
2C6
330
1F
100
AcDbEntity
  8
C-A
  6
Continuous
 62
     3
370
     5
100
AcDbLine
 10
-757.4761707385334
 20
892.7276276744194
 30
0.0
 11
-757.4761707385334
 21
883.8306276744199
 31
0.0
  0
LINE
  5
2C7
330
1F
100
AcDbEntity
  8
C-A
  6
Continuous
 62
     3
370
     5
100
AcDbLine
 10
-752.5264232702277
 20
892.7276276744194
 30
0.0
 11
-752.5264232702277
 21
883.8306276744199
 31
0.0
  0
LINE
  5
2C8
330
1F
100
AcDbEntity
  8
C-A
  6
Continuous
 62
     3
370
     5
100
AcDbLine
 10
-682.4259182068396
 20
892.7276276744194
 30
0.0
 11
-682.4259182068396
 21
883.8306276744199
 31
0.0
  0
LINE
  5
2C9
330
1F
100
AcDbEntity
  8
C-A
  6
Continuous
 62
     3
370
     5
100
AcDbLine
 10
-677.4761707385334
 20
892.7276276744194
 30
0.0
 11
-677.4761707385334
 21
883.8306276744199
 31
0.0
  0
LINE
  5
2CA
330
1F
100
AcDbEntity
  8
C-A
  6
Continuous
 62
     3
370
     5
100
AcDbLine
 10
-672.5264232702277
 20
892.7276276744194
 30
0.0
 11
-672.5264232702277
 21
883.8306276744199
 31
0.0
  0
LINE
  5
2CB
330
1F
100
AcDbEntity
  8
C-A
  6
Continuous
 62
     3
370
     5
100
AcDbLine
 10
-602.4259182068396
 20
892.7276276744194
 30
0.0
 11
-602.4259182068396
 21
883.8306276744199
 31
0.0
  0
LINE
  5
2CC
330
1F
100
AcDbEntity
  8
C-A
  6
Continuous
 62
     3
370
     5
100
AcDbLine
 10
-597.4761707385334
 20
892.7276276744194
 30
0.0
 11
-597.4761707385334
 21
883.8306276744199
 31
0.0
  0
LINE
  5
2CD
330
1F
100
AcDbEntity
  8
C-A
  6
Continuous
 62
     3
370
     5
100
AcDbLine
 10
-592.5264232702277
 20
892.7276276744194
 30
0.0
 11
-592.5264232702277
 21
883.8306276744199
 31
0.0
  0
LINE
  5
2CE
330
1F
100
AcDbEntity
  8
C-A
  6
Continuous
 62
     3
370
     5
100
AcDbLine
 10
-522.4259182068396
 20
892.7276276744194
 30
0.0
 11
-522.4259182068396
 21
883.8306276744199
 31
0.0
  0
LINE
  5
2CF
330
1F
100
AcDbEntity
  8
C-A
  6
Continuous
 62
     3
370
     5
100
AcDbLine
 10
-517.4761707385334
 20
892.7276276744194
 30
0.0
 11
-517.4761707385334
 21
883.8306276744199
 31
0.0
  0
LINE
  5
2D0
330
1F
100
AcDbEntity
  8
C-A
  6
Continuous
 62
     3
370
     5
100
AcDbLine
 10
-512.5264232702277
 20
892.7276276744194
 30
0.0
 11
-512.5264232702277
 21
883.8306276744199
 31
0.0
  0
LINE
  5
2D1
330
1F
100
AcDbEntity
  8
C-A
  6
Continuous
 62
     3
370
     5
100
AcDbLine
 10
-442.4259182068396
 20
892.7276276744194
 30
0.0
 11
-442.4259182068396
 21
883.8306276744199
 31
0.0
  0
LINE
  5
2D2
330
1F
100
AcDbEntity
  8
C-A
  6
Continuous
 62
     3
370
     5
100
AcDbLine
 10
-437.4761707385334
 20
892.7276276744194
 30
0.0
 11
-437.4761707385334
 21
883.8306276744199
 31
0.0
  0
LINE
  5
2D3
330
1F
100
AcDbEntity
  8
C-A
  6
Continuous
 62
     3
370
     5
100
AcDbLine
 10
-432.5264232702277
 20
892.7276276744194
 30
0.0
 11
-432.5264232702277
 21
883.8306276744199
 31
0.0
  0
LINE
  5
2D4
330
1F
100
AcDbEntity
  8
C-A
  6
Continuous
 62
     3
370
     5
100
AcDbLine
 10
-762.4259182068396
 20
875.8306276744192
 30
0.0
 11
-762.4259182068396
 21
866.9336276744198
 31
0.0
  0
LINE
  5
2D5
330
1F
100
AcDbEntity
  8
C-A
  6
Continuous
 62
     3
370
     5
100
AcDbLine
 10
-757.4761707385334
 20
875.8306276744192
 30
0.0
 11
-757.4761707385334
 21
866.9336276744198
 31
0.0
  0
LINE
  5
2D6
330
1F
100
AcDbEntity
  8
C-A
  6
Continuous
 62
     3
370
     5
100
AcDbLine
 10
-752.5264232702277
 20
875.8306276744192
 30
0.0
 11
-752.5264232702277
 21
866.9336276744198
 31
0.0
  0
LINE
  5
2D7
330
1F
100
AcDbEntity
  8
C-A
  6
Continuous
 62
     3
370
     5
100
AcDbLine
 10
-682.4259182068396
 20
875.8306276744192
 30
0.0
 11
-682.4259182068396
 21
866.9336276744198
 31
0.0
  0
LINE
  5
2D8
330
1F
100
AcDbEntity
  8
C-A
  6
Continuous
 62
     3
370
     5
100
AcDbLine
 10
-677.4761707385334
 20
875.8306276744192
 30
0.0
 11
-677.4761707385334
 21
866.9336276744198
 31
0.0
  0
LINE
  5
2D9
330
1F
100
AcDbEntity
  8
C-A
  6
Continuous
 62
     3
370
     5
100
AcDbLine
 10
-672.5264232702277
 20
875.8306276744192
 30
0.0
 11
-672.5264232702277
 21
866.9336276744198
 31
0.0
  0
LINE
  5
2DA
330
1F
100
AcDbEntity
  8
C-A
  6
Continuous
 62
     3
370
     5
100
AcDbLine
 10
-602.4259182068396
 20
875.8306276744192
 30
0.0
 11
-602.4259182068396
 21
866.9336276744198
 31
0.0
  0
LINE
  5
2DB
330
1F
100
AcDbEntity
  8
C-A
  6
Continuous
 62
     3
370
     5
100
AcDbLine
 10
-597.4761707385334
 20
875.8306276744192
 30
0.0
 11
-597.4761707385334
 21
866.9336276744198
 31
0.0
  0
LINE
  5
2DC
330
1F
100
AcDbEntity
  8
C-A
  6
Continuous
 62
     3
370
     5
100
AcDbLine
 10
-592.5264232702277
 20
875.8306276744192
 30
0.0
 11
-592.5264232702277
 21
866.9336276744198
 31
0.0
  0
LINE
  5
2DD
330
1F
100
AcDbEntity
  8
C-A
  6
Continuous
 62
     3
370
     5
100
AcDbLine
 10
-522.4259182068396
 20
875.8306276744192
 30
0.0
 11
-522.4259182068396
 21
866.9336276744198
 31
0.0
  0
LINE
  5
2DE
330
1F
100
AcDbEntity
  8
C-A
  6
Continuous
 62
     3
370
     5
100
AcDbLine
 10
-517.4761707385334
 20
875.8306276744192
 30
0.0
 11
-517.4761707385334
 21
866.9336276744198
 31
0.0
  0
LINE
  5
2DF
330
1F
100
AcDbEntity
  8
C-A
  6
Continuous
 62
     3
370
     5
100
AcDbLine
 10
-512.5264232702277
 20
875.8306276744192
 30
0.0
 11
-512.5264232702277
 21
866.9336276744198
 31
0.0
  0
LINE
  5
2E0
330
1F
100
AcDbEntity
  8
C-A
  6
Continuous
 62
     3
370
     5
100
AcDbLine
 10
-442.4259182068396
 20
875.8306276744192
 30
0.0
 11
-442.4259182068396
 21
866.9336276744198
 31
0.0
  0
LINE
  5
2E1
330
1F
100
AcDbEntity
  8
C-A
  6
Continuous
 62
     3
370
     5
100
AcDbLine
 10
-437.4761707385334
 20
875.8306276744192
 30
0.0
 11
-437.4761707385334
 21
866.9336276744198
 31
0.0
  0
LINE
  5
2E2
330
1F
100
AcDbEntity
  8
C-A
  6
Continuous
 62
     3
370
     5
100
AcDbLine
 10
-432.5264232702277
 20
875.8306276744192
 30
0.0
 11
-432.5264232702277
 21
866.9336276744198
 31
0.0
  0
LINE
  5
2E3
330
1F
100
AcDbEntity
  8
C-A
  6
Continuous
 62
     3
370
     5
100
AcDbLine
 10
-762.4259182068396
 20
858.9336276744191
 30
0.0
 11
-762.4259182068396
 21
850.0366276744196
 31
0.0
  0
LINE
  5
2E4
330
1F
100
AcDbEntity
  8
C-A
  6
Continuous
 62
     3
370
     5
100
AcDbLine
 10
-757.4761707385334
 20
858.9336276744191
 30
0.0
 11
-757.4761707385334
 21
850.0366276744196
 31
0.0
  0
LINE
  5
2E5
330
1F
100
AcDbEntity
  8
C-A
  6
Continuous
 62
     3
370
     5
100
AcDbLine
 10
-752.5264232702277
 20
858.9336276744191
 30
0.0
 11
-752.5264232702277
 21
850.0366276744196
 31
0.0
  0
LINE
  5
2E6
330
1F
100
AcDbEntity
  8
C-A
  6
Continuous
 62
     3
370
     5
100
AcDbLine
 10
-682.4259182068396
 20
858.9336276744191
 30
0.0
 11
-682.4259182068396
 21
850.0366276744196
 31
0.0
  0
LINE
  5
2E7
330
1F
100
AcDbEntity
  8
C-A
  6
Continuous
 62
     3
370
     5
100
AcDbLine
 10
-677.4761707385334
 20
858.9336276744191
 30
0.0
 11
-677.4761707385334
 21
850.0366276744196
 31
0.0
  0
LINE
  5
2E8
330
1F
100
AcDbEntity
  8
C-A
  6
Continuous
 62
     3
370
     5
100
AcDbLine
 10
-672.5264232702277
 20
858.9336276744191
 30
0.0
 11
-672.5264232702277
 21
850.0366276744196
 31
0.0
  0
LINE
  5
2E9
330
1F
100
AcDbEntity
  8
C-A
  6
Continuous
 62
     3
370
     5
100
AcDbLine
 10
-602.4259182068396
 20
858.9336276744191
 30
0.0
 11
-602.4259182068396
 21
850.0366276744196
 31
0.0
  0
LINE
  5
2EA
330
1F
100
AcDbEntity
  8
C-A
  6
Continuous
 62
     3
370
     5
100
AcDbLine
 10
-597.4761707385334
 20
858.9336276744191
 30
0.0
 11
-597.4761707385334
 21
850.0366276744196
 31
0.0
  0
LINE
  5
2EB
330
1F
100
AcDbEntity
  8
C-A
  6
Continuous
 62
     3
370
     5
100
AcDbLine
 10
-592.5264232702277
 20
858.9336276744191
 30
0.0
 11
-592.5264232702277
 21
850.0366276744196
 31
0.0
  0
LINE
  5
2EC
330
1F
100
AcDbEntity
  8
C-A
  6
Continuous
 62
     3
370
     5
100
AcDbLine
 10
-522.4259182068396
 20
858.9336276744191
 30
0.0
 11
-522.4259182068396
 21
850.0366276744196
 31
0.0
  0
LINE
  5
2ED
330
1F
100
AcDbEntity
  8
C-A
  6
Continuous
 62
     3
370
     5
100
AcDbLine
 10
-517.4761707385334
 20
858.9336276744191
 30
0.0
 11
-517.4761707385334
 21
850.0366276744196
 31
0.0
  0
LINE
  5
2EE
330
1F
100
AcDbEntity
  8
C-A
  6
Continuous
 62
     3
370
     5
100
AcDbLine
 10
-512.5264232702277
 20
858.9336276744191
 30
0.0
 11
-512.5264232702277
 21
850.0366276744196
 31
0.0
  0
LINE
  5
2EF
330
1F
100
AcDbEntity
  8
C-A
  6
Continuous
 62
     3
370
     5
100
AcDbLine
 10
-442.4259182068396
 20
858.9336276744191
 30
0.0
 11
-442.4259182068396
 21
850.0366276744196
 31
0.0
  0
LINE
  5
2F0
330
1F
100
AcDbEntity
  8
C-A
  6
Continuous
 62
     3
370
     5
100
AcDbLine
 10
-437.4761707385334
 20
858.9336276744191
 30
0.0
 11
-437.4761707385334
 21
850.0366276744196
 31
0.0
  0
LINE
  5
2F1
330
1F
100
AcDbEntity
  8
C-A
  6
Continuous
 62
     3
370
     5
100
AcDbLine
 10
-432.5264232702277
 20
858.9336276744191
 30
0.0
 11
-432.5264232702277
 21
850.0366276744196
 31
0.0
  0
LINE
  5
2F2
330
1F
100
AcDbEntity
  8
C-A
  6
Continuous
 62
     3
370
     5
100
AcDbLine
 10
-762.4259182068396
 20
842.0366276744189
 30
0.0
 11
-762.4259182068396
 21
833.1396276744194
 31
0.0
  0
LINE
  5
2F3
330
1F
100
AcDbEntity
  8
C-A
  6
Continuous
 62
     3
370
     5
100
AcDbLine
 10
-757.4761707385334
 20
842.0366276744189
 30
0.0
 11
-757.4761707385334
 21
833.1396276744194
 31
0.0
  0
LINE
  5
2F4
330
1F
100
AcDbEntity
  8
C-A
  6
Continuous
 62
     3
370
     5
100
AcDbLine
 10
-752.5264232702277
 20
842.0366276744189
 30
0.0
 11
-752.5264232702277
 21
833.1396276744194
 31
0.0
  0
LINE
  5
2F5
330
1F
100
AcDbEntity
  8
C-A
  6
Continuous
 62
     3
370
     5
100
AcDbLine
 10
-682.4259182068396
 20
842.0366276744189
 30
0.0
 11
-682.4259182068396
 21
833.1396276744194
 31
0.0
  0
LINE
  5
2F6
330
1F
100
AcDbEntity
  8
C-A
  6
Continuous
 62
     3
370
     5
100
AcDbLine
 10
-677.4761707385334
 20
842.0366276744189
 30
0.0
 11
-677.4761707385334
 21
833.1396276744194
 31
0.0
  0
LINE
  5
2F7
330
1F
100
AcDbEntity
  8
C-A
  6
Continuous
 62
     3
370
     5
100
AcDbLine
 10
-672.5264232702277
 20
842.0366276744189
 30
0.0
 11
-672.5264232702277
 21
833.1396276744194
 31
0.0
  0
LINE
  5
2F8
330
1F
100
AcDbEntity
  8
C-A
  6
Continuous
 62
     3
370
     5
100
AcDbLine
 10
-602.4259182068396
 20
842.0366276744189
 30
0.0
 11
-602.4259182068396
 21
833.1396276744194
 31
0.0
  0
LINE
  5
2F9
330
1F
100
AcDbEntity
  8
C-A
  6
Continuous
 62
     3
370
     5
100
AcDbLine
 10
-597.4761707385334
 20
842.0366276744189
 30
0.0
 11
-597.4761707385334
 21
833.1396276744194
 31
0.0
  0
LINE
  5
2FA
330
1F
100
AcDbEntity
  8
C-A
  6
Continuous
 62
     3
370
     5
100
AcDbLine
 10
-592.5264232702277
 20
842.0366276744189
 30
0.0
 11
-592.5264232702277
 21
833.1396276744194
 31
0.0
  0
LINE
  5
2FB
330
1F
100
AcDbEntity
  8
C-A
  6
Continuous
 62
     3
370
     5
100
AcDbLine
 10
-522.4259182068396
 20
842.0366276744189
 30
0.0
 11
-522.4259182068396
 21
833.1396276744194
 31
0.0
  0
LINE
  5
2FC
330
1F
100
AcDbEntity
  8
C-A
  6
Continuous
 62
     3
370
     5
100
AcDbLine
 10
-517.4761707385334
 20
842.0366276744189
 30
0.0
 11
-517.4761707385334
 21
833.1396276744194
 31
0.0
  0
LINE
  5
2FD
330
1F
100
AcDbEntity
  8
C-A
  6
Continuous
 62
     3
370
     5
100
AcDbLine
 10
-512.5264232702277
 20
842.0366276744189
 30
0.0
 11
-512.5264232702277
 21
833.1396276744194
 31
0.0
  0
LINE
  5
2FE
330
1F
100
AcDbEntity
  8
C-A
  6
Continuous
 62
     3
370
     5
100
AcDbLine
 10
-442.4259182068396
 20
842.0366276744189
 30
0.0
 11
-442.4259182068396
 21
833.1396276744194
 31
0.0
  0
LINE
  5
2FF
330
1F
100
AcDbEntity
  8
C-A
  6
Continuous
 62
     3
370
     5
100
AcDbLine
 10
-437.4761707385334
 20
842.0366276744189
 30
0.0
 11
-437.4761707385334
 21
833.1396276744194
 31
0.0
  0
LINE
  5
300
330
1F
100
AcDbEntity
  8
C-A
  6
Continuous
 62
     3
370
     5
100
AcDbLine
 10
-432.5264232702277
 20
842.0366276744189
 30
0.0
 11
-432.5264232702277
 21
833.1396276744194
 31
0.0
  0
LINE
  5
301
330
1F
100
AcDbEntity
  8
C-A
  6
Continuous
 62
     3
370
     5
100
AcDbLine
 10
-762.4259182068396
 20
825.1396276744188
 30
0.0
 11
-762.4259182068396
 21
816.2426276744193
 31
0.0
  0
LINE
  5
302
330
1F
100
AcDbEntity
  8
C-A
  6
Continuous
 62
     3
370
     5
100
AcDbLine
 10
-757.4761707385334
 20
825.1396276744188
 30
0.0
 11
-757.4761707385334
 21
816.2426276744193
 31
0.0
  0
LINE
  5
303
330
1F
100
AcDbEntity
  8
C-A
  6
Continuous
 62
     3
370
     5
100
AcDbLine
 10
-752.5264232702277
 20
825.1396276744188
 30
0.0
 11
-752.5264232702277
 21
816.2426276744193
 31
0.0
  0
LINE
  5
304
330
1F
100
AcDbEntity
  8
C-A
  6
Continuous
 62
     3
370
     5
100
AcDbLine
 10
-682.4259182068396
 20
825.1396276744188
 30
0.0
 11
-682.4259182068396
 21
816.2426276744193
 31
0.0
  0
LINE
  5
305
330
1F
100
AcDbEntity
  8
C-A
  6
Continuous
 62
     3
370
     5
100
AcDbLine
 10
-677.4761707385334
 20
825.1396276744188
 30
0.0
 11
-677.4761707385334
 21
816.2426276744193
 31
0.0
  0
LINE
  5
306
330
1F
100
AcDbEntity
  8
C-A
  6
Continuous
 62
     3
370
     5
100
AcDbLine
 10
-672.5264232702277
 20
825.1396276744188
 30
0.0
 11
-672.5264232702277
 21
816.2426276744193
 31
0.0
  0
LINE
  5
307
330
1F
100
AcDbEntity
  8
C-A
  6
Continuous
 62
     3
370
     5
100
AcDbLine
 10
-602.4259182068396
 20
825.1396276744188
 30
0.0
 11
-602.4259182068396
 21
816.2426276744193
 31
0.0
  0
LINE
  5
308
330
1F
100
AcDbEntity
  8
C-A
  6
Continuous
 62
     3
370
     5
100
AcDbLine
 10
-597.4761707385334
 20
825.1396276744188
 30
0.0
 11
-597.4761707385334
 21
816.2426276744193
 31
0.0
  0
LINE
  5
309
330
1F
100
AcDbEntity
  8
C-A
  6
Continuous
 62
     3
370
     5
100
AcDbLine
 10
-592.5264232702277
 20
825.1396276744188
 30
0.0
 11
-592.5264232702277
 21
816.2426276744193
 31
0.0
  0
LINE
  5
30A
330
1F
100
AcDbEntity
  8
C-A
  6
Continuous
 62
     3
370
     5
100
AcDbLine
 10
-522.4259182068396
 20
825.1396276744188
 30
0.0
 11
-522.4259182068396
 21
816.2426276744193
 31
0.0
  0
LINE
  5
30B
330
1F
100
AcDbEntity
  8
C-A
  6
Continuous
 62
     3
370
     5
100
AcDbLine
 10
-517.4761707385334
 20
825.1396276744188
 30
0.0
 11
-517.4761707385334
 21
816.2426276744193
 31
0.0
  0
LINE
  5
30C
330
1F
100
AcDbEntity
  8
C-A
  6
Continuous
 62
     3
370
     5
100
AcDbLine
 10
-512.5264232702277
 20
825.1396276744188
 30
0.0
 11
-512.5264232702277
 21
816.2426276744193
 31
0.0
  0
LINE
  5
30D
330
1F
100
AcDbEntity
  8
C-A
  6
Continuous
 62
     3
370
     5
100
AcDbLine
 10
-442.4259182068396
 20
825.1396276744188
 30
0.0
 11
-442.4259182068396
 21
816.2426276744193
 31
0.0
  0
LINE
  5
30E
330
1F
100
AcDbEntity
  8
C-A
  6
Continuous
 62
     3
370
     5
100
AcDbLine
 10
-437.4761707385334
 20
825.1396276744188
 30
0.0
 11
-437.4761707385334
 21
816.2426276744193
 31
0.0
  0
LINE
  5
30F
330
1F
100
AcDbEntity
  8
C-A
  6
Continuous
 62
     3
370
     5
100
AcDbLine
 10
-432.5264232702277
 20
825.1396276744188
 30
0.0
 11
-432.5264232702277
 21
816.2426276744193
 31
0.0
  0
LINE
  5
310
330
1F
100
AcDbEntity
  8
C-A
  6
Continuous
 62
     3
370
     5
100
AcDbLine
 10
-762.4259182068396
 20
808.2426276744186
 30
0.0
 11
-762.4259182068396
 21
799.3456276744191
 31
0.0
  0
LINE
  5
311
330
1F
100
AcDbEntity
  8
C-A
  6
Continuous
 62
     3
370
     5
100
AcDbLine
 10
-757.4761707385334
 20
808.2426276744186
 30
0.0
 11
-757.4761707385334
 21
799.3456276744191
 31
0.0
  0
LINE
  5
312
330
1F
100
AcDbEntity
  8
C-A
  6
Continuous
 62
     3
370
     5
100
AcDbLine
 10
-752.5264232702277
 20
808.2426276744186
 30
0.0
 11
-752.5264232702277
 21
799.3456276744191
 31
0.0
  0
LINE
  5
313
330
1F
100
AcDbEntity
  8
C-A
  6
Continuous
 62
     3
370
     5
100
AcDbLine
 10
-682.4259182068396
 20
808.2426276744186
 30
0.0
 11
-682.4259182068396
 21
799.3456276744191
 31
0.0
  0
LINE
  5
314
330
1F
100
AcDbEntity
  8
C-A
  6
Continuous
 62
     3
370
     5
100
AcDbLine
 10
-677.4761707385334
 20
808.2426276744186
 30
0.0
 11
-677.4761707385334
 21
799.3456276744191
 31
0.0
  0
LINE
  5
315
330
1F
100
AcDbEntity
  8
C-A
  6
Continuous
 62
     3
370
     5
100
AcDbLine
 10
-672.5264232702277
 20
808.2426276744186
 30
0.0
 11
-672.5264232702277
 21
799.3456276744191
 31
0.0
  0
LINE
  5
316
330
1F
100
AcDbEntity
  8
C-A
  6
Continuous
 62
     3
370
     5
100
AcDbLine
 10
-602.4259182068396
 20
808.2426276744186
 30
0.0
 11
-602.4259182068396
 21
799.3456276744191
 31
0.0
  0
LINE
  5
317
330
1F
100
AcDbEntity
  8
C-A
  6
Continuous
 62
     3
370
     5
100
AcDbLine
 10
-597.4761707385334
 20
808.2426276744186
 30
0.0
 11
-597.4761707385334
 21
799.3456276744191
 31
0.0
  0
LINE
  5
318
330
1F
100
AcDbEntity
  8
C-A
  6
Continuous
 62
     3
370
     5
100
AcDbLine
 10
-592.5264232702277
 20
808.2426276744186
 30
0.0
 11
-592.5264232702277
 21
799.3456276744191
 31
0.0
  0
LINE
  5
319
330
1F
100
AcDbEntity
  8
C-A
  6
Continuous
 62
     3
370
     5
100
AcDbLine
 10
-522.4259182068396
 20
808.2426276744186
 30
0.0
 11
-522.4259182068396
 21
799.3456276744191
 31
0.0
  0
LINE
  5
31A
330
1F
100
AcDbEntity
  8
C-A
  6
Continuous
 62
     3
370
     5
100
AcDbLine
 10
-517.4761707385334
 20
808.2426276744186
 30
0.0
 11
-517.4761707385334
 21
799.3456276744191
 31
0.0
  0
LINE
  5
31B
330
1F
100
AcDbEntity
  8
C-A
  6
Continuous
 62
     3
370
     5
100
AcDbLine
 10
-512.5264232702277
 20
808.2426276744186
 30
0.0
 11
-512.5264232702277
 21
799.3456276744191
 31
0.0
  0
LINE
  5
31C
330
1F
100
AcDbEntity
  8
C-A
  6
Continuous
 62
     3
370
     5
100
AcDbLine
 10
-442.4259182068396
 20
808.2426276744186
 30
0.0
 11
-442.4259182068396
 21
799.3456276744191
 31
0.0
  0
LINE
  5
31D
330
1F
100
AcDbEntity
  8
C-A
  6
Continuous
 62
     3
370
     5
100
AcDbLine
 10
-437.4761707385334
 20
808.2426276744186
 30
0.0
 11
-437.4761707385334
 21
799.3456276744191
 31
0.0
  0
LINE
  5
31E
330
1F
100
AcDbEntity
  8
C-A
  6
Continuous
 62
     3
370
     5
100
AcDbLine
 10
-432.5264232702277
 20
808.2426276744186
 30
0.0
 11
-432.5264232702277
 21
799.3456276744191
 31
0.0
  0
LINE
  5
31F
330
1F
100
AcDbEntity
  8
C-A
  6
Continuous
 62
     3
370
     5
100
AcDbLine
 10
-762.4259182068396
 20
791.3456276744184
 30
0.0
 11
-762.4259182068396
 21
782.448627674419
 31
0.0
  0
LINE
  5
320
330
1F
100
AcDbEntity
  8
C-A
  6
Continuous
 62
     3
370
     5
100
AcDbLine
 10
-757.4761707385334
 20
791.3456276744184
 30
0.0
 11
-757.4761707385334
 21
782.448627674419
 31
0.0
  0
LINE
  5
321
330
1F
100
AcDbEntity
  8
C-A
  6
Continuous
 62
     3
370
     5
100
AcDbLine
 10
-752.5264232702277
 20
791.3456276744184
 30
0.0
 11
-752.5264232702277
 21
782.448627674419
 31
0.0
  0
LINE
  5
322
330
1F
100
AcDbEntity
  8
C-A
  6
Continuous
 62
     3
370
     5
100
AcDbLine
 10
-682.4259182068396
 20
791.3456276744184
 30
0.0
 11
-682.4259182068396
 21
782.448627674419
 31
0.0
  0
LINE
  5
323
330
1F
100
AcDbEntity
  8
C-A
  6
Continuous
 62
     3
370
     5
100
AcDbLine
 10
-677.4761707385334
 20
791.3456276744184
 30
0.0
 11
-677.4761707385334
 21
782.448627674419
 31
0.0
  0
LINE
  5
324
330
1F
100
AcDbEntity
  8
C-A
  6
Continuous
 62
     3
370
     5
100
AcDbLine
 10
-672.5264232702277
 20
791.3456276744184
 30
0.0
 11
-672.5264232702277
 21
782.448627674419
 31
0.0
  0
LINE
  5
325
330
1F
100
AcDbEntity
  8
C-A
  6
Continuous
 62
     3
370
     5
100
AcDbLine
 10
-602.4259182068396
 20
791.3456276744184
 30
0.0
 11
-602.4259182068396
 21
782.448627674419
 31
0.0
  0
LINE
  5
326
330
1F
100
AcDbEntity
  8
C-A
  6
Continuous
 62
     3
370
     5
100
AcDbLine
 10
-597.4761707385334
 20
791.3456276744184
 30
0.0
 11
-597.4761707385334
 21
782.448627674419
 31
0.0
  0
LINE
  5
327
330
1F
100
AcDbEntity
  8
C-A
  6
Continuous
 62
     3
370
     5
100
AcDbLine
 10
-592.5264232702277
 20
791.3456276744184
 30
0.0
 11
-592.5264232702277
 21
782.448627674419
 31
0.0
  0
LINE
  5
328
330
1F
100
AcDbEntity
  8
C-A
  6
Continuous
 62
     3
370
     5
100
AcDbLine
 10
-522.4259182068396
 20
791.3456276744184
 30
0.0
 11
-522.4259182068396
 21
782.448627674419
 31
0.0
  0
LINE
  5
329
330
1F
100
AcDbEntity
  8
C-A
  6
Continuous
 62
     3
370
     5
100
AcDbLine
 10
-517.4761707385334
 20
791.3456276744184
 30
0.0
 11
-517.4761707385334
 21
782.448627674419
 31
0.0
  0
LINE
  5
32A
330
1F
100
AcDbEntity
  8
C-A
  6
Continuous
 62
     3
370
     5
100
AcDbLine
 10
-512.5264232702277
 20
791.3456276744184
 30
0.0
 11
-512.5264232702277
 21
782.448627674419
 31
0.0
  0
LINE
  5
32B
330
1F
100
AcDbEntity
  8
C-A
  6
Continuous
 62
     3
370
     5
100
AcDbLine
 10
-442.4259182068396
 20
791.3456276744184
 30
0.0
 11
-442.4259182068396
 21
782.448627674419
 31
0.0
  0
LINE
  5
32C
330
1F
100
AcDbEntity
  8
C-A
  6
Continuous
 62
     3
370
     5
100
AcDbLine
 10
-437.4761707385334
 20
791.3456276744184
 30
0.0
 11
-437.4761707385334
 21
782.448627674419
 31
0.0
  0
LINE
  5
32D
330
1F
100
AcDbEntity
  8
C-A
  6
Continuous
 62
     3
370
     5
100
AcDbLine
 10
-432.5264232702277
 20
791.3456276744184
 30
0.0
 11
-432.5264232702277
 21
782.448627674419
 31
0.0
  0
LINE
  5
32E
330
1F
100
AcDbEntity
  8
C-A
  6
Continuous
 62
     3
370
     5
100
AcDbLine
 10
-762.4259182068396
 20
774.4486276744183
 30
0.0
 11
-762.4259182068396
 21
765.5516276744188
 31
0.0
  0
LINE
  5
32F
330
1F
100
AcDbEntity
  8
C-A
  6
Continuous
 62
     3
370
     5
100
AcDbLine
 10
-757.4761707385334
 20
774.4486276744183
 30
0.0
 11
-757.4761707385334
 21
765.5516276744188
 31
0.0
  0
LINE
  5
330
330
1F
100
AcDbEntity
  8
C-A
  6
Continuous
 62
     3
370
     5
100
AcDbLine
 10
-752.5264232702277
 20
774.4486276744183
 30
0.0
 11
-752.5264232702277
 21
765.5516276744188
 31
0.0
  0
LINE
  5
331
330
1F
100
AcDbEntity
  8
C-A
  6
Continuous
 62
     3
370
     5
100
AcDbLine
 10
-682.4259182068396
 20
774.4486276744183
 30
0.0
 11
-682.4259182068396
 21
765.5516276744188
 31
0.0
  0
LINE
  5
332
330
1F
100
AcDbEntity
  8
C-A
  6
Continuous
 62
     3
370
     5
100
AcDbLine
 10
-677.4761707385334
 20
774.4486276744183
 30
0.0
 11
-677.4761707385334
 21
765.5516276744188
 31
0.0
  0
LINE
  5
333
330
1F
100
AcDbEntity
  8
C-A
  6
Continuous
 62
     3
370
     5
100
AcDbLine
 10
-672.5264232702277
 20
774.4486276744183
 30
0.0
 11
-672.5264232702277
 21
765.5516276744188
 31
0.0
  0
LINE
  5
334
330
1F
100
AcDbEntity
  8
C-A
  6
Continuous
 62
     3
370
     5
100
AcDbLine
 10
-602.4259182068396
 20
774.4486276744183
 30
0.0
 11
-602.4259182068396
 21
765.5516276744188
 31
0.0
  0
LINE
  5
335
330
1F
100
AcDbEntity
  8
C-A
  6
Continuous
 62
     3
370
     5
100
AcDbLine
 10
-597.4761707385334
 20
774.4486276744183
 30
0.0
 11
-597.4761707385334
 21
765.5516276744188
 31
0.0
  0
LINE
  5
336
330
1F
100
AcDbEntity
  8
C-A
  6
Continuous
 62
     3
370
     5
100
AcDbLine
 10
-592.5264232702277
 20
774.4486276744183
 30
0.0
 11
-592.5264232702277
 21
765.5516276744188
 31
0.0
  0
LINE
  5
337
330
1F
100
AcDbEntity
  8
C-A
  6
Continuous
 62
     3
370
     5
100
AcDbLine
 10
-522.4259182068396
 20
774.4486276744183
 30
0.0
 11
-522.4259182068396
 21
765.5516276744188
 31
0.0
  0
LINE
  5
338
330
1F
100
AcDbEntity
  8
C-A
  6
Continuous
 62
     3
370
     5
100
AcDbLine
 10
-517.4761707385334
 20
774.4486276744183
 30
0.0
 11
-517.4761707385334
 21
765.5516276744188
 31
0.0
  0
LINE
  5
339
330
1F
100
AcDbEntity
  8
C-A
  6
Continuous
 62
     3
370
     5
100
AcDbLine
 10
-512.5264232702277
 20
774.4486276744183
 30
0.0
 11
-512.5264232702277
 21
765.5516276744188
 31
0.0
  0
LINE
  5
33A
330
1F
100
AcDbEntity
  8
C-A
  6
Continuous
 62
     3
370
     5
100
AcDbLine
 10
-442.4259182068396
 20
774.4486276744183
 30
0.0
 11
-442.4259182068396
 21
765.5516276744188
 31
0.0
  0
LINE
  5
33B
330
1F
100
AcDbEntity
  8
C-A
  6
Continuous
 62
     3
370
     5
100
AcDbLine
 10
-437.4761707385334
 20
774.4486276744183
 30
0.0
 11
-437.4761707385334
 21
765.5516276744188
 31
0.0
  0
LINE
  5
33C
330
1F
100
AcDbEntity
  8
C-A
  6
Continuous
 62
     3
370
     5
100
AcDbLine
 10
-432.5264232702277
 20
774.4486276744183
 30
0.0
 11
-432.5264232702277
 21
765.5516276744188
 31
0.0
  0
LINE
  5
33D
330
1F
100
AcDbEntity
  8
C-A
  6
Continuous
 62
     3
370
     5
100
AcDbLine
 10
-762.4259182068396
 20
757.5516276744181
 30
0.0
 11
-762.4259182068396
 21
748.6546276744186
 31
0.0
  0
LINE
  5
33E
330
1F
100
AcDbEntity
  8
C-A
  6
Continuous
 62
     3
370
     5
100
AcDbLine
 10
-757.4761707385334
 20
757.5516276744181
 30
0.0
 11
-757.4761707385334
 21
748.6546276744186
 31
0.0
  0
LINE
  5
33F
330
1F
100
AcDbEntity
  8
C-A
  6
Continuous
 62
     3
370
     5
100
AcDbLine
 10
-752.5264232702277
 20
757.5516276744181
 30
0.0
 11
-752.5264232702277
 21
748.6546276744186
 31
0.0
  0
LINE
  5
340
330
1F
100
AcDbEntity
  8
C-A
  6
Continuous
 62
     3
370
     5
100
AcDbLine
 10
-682.4259182068396
 20
757.5516276744181
 30
0.0
 11
-682.4259182068396
 21
748.6546276744186
 31
0.0
  0
LINE
  5
341
330
1F
100
AcDbEntity
  8
C-A
  6
Continuous
 62
     3
370
     5
100
AcDbLine
 10
-677.4761707385334
 20
757.5516276744181
 30
0.0
 11
-677.4761707385334
 21
748.6546276744186
 31
0.0
  0
LINE
  5
342
330
1F
100
AcDbEntity
  8
C-A
  6
Continuous
 62
     3
370
     5
100
AcDbLine
 10
-672.5264232702277
 20
757.5516276744181
 30
0.0
 11
-672.5264232702277
 21
748.6546276744186
 31
0.0
  0
LINE
  5
343
330
1F
100
AcDbEntity
  8
C-A
  6
Continuous
 62
     3
370
     5
100
AcDbLine
 10
-602.4259182068396
 20
757.5516276744181
 30
0.0
 11
-602.4259182068396
 21
748.6546276744186
 31
0.0
  0
LINE
  5
344
330
1F
100
AcDbEntity
  8
C-A
  6
Continuous
 62
     3
370
     5
100
AcDbLine
 10
-597.4761707385334
 20
757.5516276744181
 30
0.0
 11
-597.4761707385334
 21
748.6546276744186
 31
0.0
  0
LINE
  5
345
330
1F
100
AcDbEntity
  8
C-A
  6
Continuous
 62
     3
370
     5
100
AcDbLine
 10
-592.5264232702277
 20
757.5516276744181
 30
0.0
 11
-592.5264232702277
 21
748.6546276744186
 31
0.0
  0
LINE
  5
346
330
1F
100
AcDbEntity
  8
C-A
  6
Continuous
 62
     3
370
     5
100
AcDbLine
 10
-522.4259182068396
 20
757.5516276744181
 30
0.0
 11
-522.4259182068396
 21
748.6546276744186
 31
0.0
  0
LINE
  5
347
330
1F
100
AcDbEntity
  8
C-A
  6
Continuous
 62
     3
370
     5
100
AcDbLine
 10
-517.4761707385334
 20
757.5516276744181
 30
0.0
 11
-517.4761707385334
 21
748.6546276744186
 31
0.0
  0
LINE
  5
348
330
1F
100
AcDbEntity
  8
C-A
  6
Continuous
 62
     3
370
     5
100
AcDbLine
 10
-512.5264232702277
 20
757.5516276744181
 30
0.0
 11
-512.5264232702277
 21
748.6546276744186
 31
0.0
  0
LINE
  5
349
330
1F
100
AcDbEntity
  8
C-A
  6
Continuous
 62
     3
370
     5
100
AcDbLine
 10
-442.4259182068396
 20
757.5516276744181
 30
0.0
 11
-442.4259182068396
 21
748.6546276744186
 31
0.0
  0
LINE
  5
34A
330
1F
100
AcDbEntity
  8
C-A
  6
Continuous
 62
     3
370
     5
100
AcDbLine
 10
-437.4761707385334
 20
757.5516276744181
 30
0.0
 11
-437.4761707385334
 21
748.6546276744186
 31
0.0
  0
LINE
  5
34B
330
1F
100
AcDbEntity
  8
C-A
  6
Continuous
 62
     3
370
     5
100
AcDbLine
 10
-432.5264232702277
 20
757.5516276744181
 30
0.0
 11
-432.5264232702277
 21
748.6546276744186
 31
0.0
  0
LINE
  5
34C
330
1F
100
AcDbEntity
  8
C-A
  6
Continuous
 62
     3
370
     5
100
AcDbLine
 10
-762.4259182068396
 20
740.654627674418
 30
0.0
 11
-762.4259182068396
 21
731.7576276744185
 31
0.0
  0
LINE
  5
34D
330
1F
100
AcDbEntity
  8
C-A
  6
Continuous
 62
     3
370
     5
100
AcDbLine
 10
-757.4761707385334
 20
740.654627674418
 30
0.0
 11
-757.4761707385334
 21
731.7576276744185
 31
0.0
  0
LINE
  5
34E
330
1F
100
AcDbEntity
  8
C-A
  6
Continuous
 62
     3
370
     5
100
AcDbLine
 10
-752.5264232702277
 20
740.654627674418
 30
0.0
 11
-752.5264232702277
 21
731.7576276744185
 31
0.0
  0
LINE
  5
34F
330
1F
100
AcDbEntity
  8
C-A
  6
Continuous
 62
     3
370
     5
100
AcDbLine
 10
-682.4259182068396
 20
740.654627674418
 30
0.0
 11
-682.4259182068396
 21
731.7576276744185
 31
0.0
  0
LINE
  5
350
330
1F
100
AcDbEntity
  8
C-A
  6
Continuous
 62
     3
370
     5
100
AcDbLine
 10
-677.4761707385334
 20
740.654627674418
 30
0.0
 11
-677.4761707385334
 21
731.7576276744185
 31
0.0
  0
LINE
  5
351
330
1F
100
AcDbEntity
  8
C-A
  6
Continuous
 62
     3
370
     5
100
AcDbLine
 10
-672.5264232702277
 20
740.654627674418
 30
0.0
 11
-672.5264232702277
 21
731.7576276744185
 31
0.0
  0
LINE
  5
352
330
1F
100
AcDbEntity
  8
C-A
  6
Continuous
 62
     3
370
     5
100
AcDbLine
 10
-602.4259182068396
 20
740.654627674418
 30
0.0
 11
-602.4259182068396
 21
731.7576276744185
 31
0.0
  0
LINE
  5
353
330
1F
100
AcDbEntity
  8
C-A
  6
Continuous
 62
     3
370
     5
100
AcDbLine
 10
-597.4761707385334
 20
740.654627674418
 30
0.0
 11
-597.4761707385334
 21
731.7576276744185
 31
0.0
  0
LINE
  5
354
330
1F
100
AcDbEntity
  8
C-A
  6
Continuous
 62
     3
370
     5
100
AcDbLine
 10
-592.5264232702277
 20
740.654627674418
 30
0.0
 11
-592.5264232702277
 21
731.7576276744185
 31
0.0
  0
LINE
  5
355
330
1F
100
AcDbEntity
  8
C-A
  6
Continuous
 62
     3
370
     5
100
AcDbLine
 10
-522.4259182068396
 20
740.654627674418
 30
0.0
 11
-522.4259182068396
 21
731.7576276744185
 31
0.0
  0
LINE
  5
356
330
1F
100
AcDbEntity
  8
C-A
  6
Continuous
 62
     3
370
     5
100
AcDbLine
 10
-517.4761707385334
 20
740.654627674418
 30
0.0
 11
-517.4761707385334
 21
731.7576276744185
 31
0.0
  0
LINE
  5
357
330
1F
100
AcDbEntity
  8
C-A
  6
Continuous
 62
     3
370
     5
100
AcDbLine
 10
-512.5264232702277
 20
740.654627674418
 30
0.0
 11
-512.5264232702277
 21
731.7576276744185
 31
0.0
  0
LINE
  5
358
330
1F
100
AcDbEntity
  8
C-A
  6
Continuous
 62
     3
370
     5
100
AcDbLine
 10
-442.4259182068396
 20
740.654627674418
 30
0.0
 11
-442.4259182068396
 21
731.7576276744185
 31
0.0
  0
LINE
  5
359
330
1F
100
AcDbEntity
  8
C-A
  6
Continuous
 62
     3
370
     5
100
AcDbLine
 10
-437.4761707385334
 20
740.654627674418
 30
0.0
 11
-437.4761707385334
 21
731.7576276744185
 31
0.0
  0
LINE
  5
35A
330
1F
100
AcDbEntity
  8
C-A
  6
Continuous
 62
     3
370
     5
100
AcDbLine
 10
-432.5264232702277
 20
740.654627674418
 30
0.0
 11
-432.5264232702277
 21
731.7576276744185
 31
0.0
  0
LINE
  5
35B
330
1F
100
AcDbEntity
  8
C-A
  6
Continuous
 62
     3
370
     5
100
AcDbLine
 10
-762.4259182068396
 20
723.7576276744178
 30
0.0
 11
-762.4259182068396
 21
714.8606276744183
 31
0.0
  0
LINE
  5
35C
330
1F
100
AcDbEntity
  8
C-A
  6
Continuous
 62
     3
370
     5
100
AcDbLine
 10
-757.4761707385334
 20
723.7576276744178
 30
0.0
 11
-757.4761707385334
 21
714.8606276744183
 31
0.0
  0
LINE
  5
35D
330
1F
100
AcDbEntity
  8
C-A
  6
Continuous
 62
     3
370
     5
100
AcDbLine
 10
-752.5264232702277
 20
723.7576276744178
 30
0.0
 11
-752.5264232702277
 21
714.8606276744183
 31
0.0
  0
LINE
  5
35E
330
1F
100
AcDbEntity
  8
C-A
  6
Continuous
 62
     3
370
     5
100
AcDbLine
 10
-682.4259182068396
 20
723.7576276744178
 30
0.0
 11
-682.4259182068396
 21
714.8606276744183
 31
0.0
  0
LINE
  5
35F
330
1F
100
AcDbEntity
  8
C-A
  6
Continuous
 62
     3
370
     5
100
AcDbLine
 10
-677.4761707385334
 20
723.7576276744178
 30
0.0
 11
-677.4761707385334
 21
714.8606276744183
 31
0.0
  0
LINE
  5
360
330
1F
100
AcDbEntity
  8
C-A
  6
Continuous
 62
     3
370
     5
100
AcDbLine
 10
-672.5264232702277
 20
723.7576276744178
 30
0.0
 11
-672.5264232702277
 21
714.8606276744183
 31
0.0
  0
LINE
  5
361
330
1F
100
AcDbEntity
  8
C-A
  6
Continuous
 62
     3
370
     5
100
AcDbLine
 10
-602.4259182068396
 20
723.7576276744178
 30
0.0
 11
-602.4259182068396
 21
714.8606276744183
 31
0.0
  0
LINE
  5
362
330
1F
100
AcDbEntity
  8
C-A
  6
Continuous
 62
     3
370
     5
100
AcDbLine
 10
-597.4761707385334
 20
723.7576276744178
 30
0.0
 11
-597.4761707385334
 21
714.8606276744183
 31
0.0
  0
LINE
  5
363
330
1F
100
AcDbEntity
  8
C-A
  6
Continuous
 62
     3
370
     5
100
AcDbLine
 10
-592.5264232702277
 20
723.7576276744178
 30
0.0
 11
-592.5264232702277
 21
714.8606276744183
 31
0.0
  0
LINE
  5
364
330
1F
100
AcDbEntity
  8
C-A
  6
Continuous
 62
     3
370
     5
100
AcDbLine
 10
-522.4259182068396
 20
723.7576276744178
 30
0.0
 11
-522.4259182068396
 21
714.8606276744183
 31
0.0
  0
LINE
  5
365
330
1F
100
AcDbEntity
  8
C-A
  6
Continuous
 62
     3
370
     5
100
AcDbLine
 10
-517.4761707385334
 20
723.7576276744178
 30
0.0
 11
-517.4761707385334
 21
714.8606276744183
 31
0.0
  0
LINE
  5
366
330
1F
100
AcDbEntity
  8
C-A
  6
Continuous
 62
     3
370
     5
100
AcDbLine
 10
-512.5264232702277
 20
723.7576276744178
 30
0.0
 11
-512.5264232702277
 21
714.8606276744183
 31
0.0
  0
LINE
  5
367
330
1F
100
AcDbEntity
  8
C-A
  6
Continuous
 62
     3
370
     5
100
AcDbLine
 10
-442.4259182068396
 20
723.7576276744178
 30
0.0
 11
-442.4259182068396
 21
714.8606276744183
 31
0.0
  0
LINE
  5
368
330
1F
100
AcDbEntity
  8
C-A
  6
Continuous
 62
     3
370
     5
100
AcDbLine
 10
-437.4761707385334
 20
723.7576276744178
 30
0.0
 11
-437.4761707385334
 21
714.8606276744183
 31
0.0
  0
LINE
  5
369
330
1F
100
AcDbEntity
  8
C-A
  6
Continuous
 62
     3
370
     5
100
AcDbLine
 10
-432.5264232702277
 20
723.7576276744178
 30
0.0
 11
-432.5264232702277
 21
714.8606276744183
 31
0.0
  0
LINE
  5
36A
330
1F
100
AcDbEntity
  8
C-A
  6
Continuous
 62
     3
370
     5
100
AcDbLine
 10
-762.4259182068396
 20
706.8606276744176
 30
0.0
 11
-762.4259182068396
 21
697.9636276744181
 31
0.0
  0
LINE
  5
36B
330
1F
100
AcDbEntity
  8
C-A
  6
Continuous
 62
     3
370
     5
100
AcDbLine
 10
-757.4761707385334
 20
706.8606276744176
 30
0.0
 11
-757.4761707385334
 21
697.9636276744181
 31
0.0
  0
LINE
  5
36C
330
1F
100
AcDbEntity
  8
C-A
  6
Continuous
 62
     3
370
     5
100
AcDbLine
 10
-752.5264232702277
 20
706.8606276744176
 30
0.0
 11
-752.5264232702277
 21
697.9636276744181
 31
0.0
  0
LINE
  5
36D
330
1F
100
AcDbEntity
  8
C-A
  6
Continuous
 62
     3
370
     5
100
AcDbLine
 10
-682.4259182068396
 20
706.8606276744176
 30
0.0
 11
-682.4259182068396
 21
697.9636276744181
 31
0.0
  0
LINE
  5
36E
330
1F
100
AcDbEntity
  8
C-A
  6
Continuous
 62
     3
370
     5
100
AcDbLine
 10
-677.4761707385334
 20
706.8606276744176
 30
0.0
 11
-677.4761707385334
 21
697.9636276744181
 31
0.0
  0
LINE
  5
36F
330
1F
100
AcDbEntity
  8
C-A
  6
Continuous
 62
     3
370
     5
100
AcDbLine
 10
-672.5264232702277
 20
706.8606276744176
 30
0.0
 11
-672.5264232702277
 21
697.9636276744181
 31
0.0
  0
LINE
  5
370
330
1F
100
AcDbEntity
  8
C-A
  6
Continuous
 62
     3
370
     5
100
AcDbLine
 10
-602.4259182068396
 20
706.8606276744176
 30
0.0
 11
-602.4259182068396
 21
697.9636276744181
 31
0.0
  0
LINE
  5
371
330
1F
100
AcDbEntity
  8
C-A
  6
Continuous
 62
     3
370
     5
100
AcDbLine
 10
-597.4761707385334
 20
706.8606276744176
 30
0.0
 11
-597.4761707385334
 21
697.9636276744181
 31
0.0
  0
LINE
  5
372
330
1F
100
AcDbEntity
  8
C-A
  6
Continuous
 62
     3
370
     5
100
AcDbLine
 10
-592.5264232702277
 20
706.8606276744176
 30
0.0
 11
-592.5264232702277
 21
697.9636276744181
 31
0.0
  0
LINE
  5
373
330
1F
100
AcDbEntity
  8
C-A
  6
Continuous
 62
     3
370
     5
100
AcDbLine
 10
-522.4259182068396
 20
706.8606276744176
 30
0.0
 11
-522.4259182068396
 21
697.9636276744181
 31
0.0
  0
LINE
  5
374
330
1F
100
AcDbEntity
  8
C-A
  6
Continuous
 62
     3
370
     5
100
AcDbLine
 10
-517.4761707385334
 20
706.8606276744176
 30
0.0
 11
-517.4761707385334
 21
697.9636276744181
 31
0.0
  0
LINE
  5
375
330
1F
100
AcDbEntity
  8
C-A
  6
Continuous
 62
     3
370
     5
100
AcDbLine
 10
-512.5264232702277
 20
706.8606276744176
 30
0.0
 11
-512.5264232702277
 21
697.9636276744181
 31
0.0
  0
LINE
  5
376
330
1F
100
AcDbEntity
  8
C-A
  6
Continuous
 62
     3
370
     5
100
AcDbLine
 10
-442.4259182068396
 20
706.8606276744176
 30
0.0
 11
-442.4259182068396
 21
697.9636276744181
 31
0.0
  0
LINE
  5
377
330
1F
100
AcDbEntity
  8
C-A
  6
Continuous
 62
     3
370
     5
100
AcDbLine
 10
-437.4761707385334
 20
706.8606276744176
 30
0.0
 11
-437.4761707385334
 21
697.9636276744181
 31
0.0
  0
LINE
  5
378
330
1F
100
AcDbEntity
  8
C-A
  6
Continuous
 62
     3
370
     5
100
AcDbLine
 10
-432.5264232702277
 20
706.8606276744176
 30
0.0
 11
-432.5264232702277
 21
697.9636276744181
 31
0.0
  0
LINE
  5
379
330
1F
100
AcDbEntity
  8
C-A
  6
Continuous
 62
     3
370
     5
100
AcDbLine
 10
-762.4259182068396
 20
689.9636276744175
 30
0.0
 11
-762.4259182068396
 21
681.066627674418
 31
0.0
  0
LINE
  5
37A
330
1F
100
AcDbEntity
  8
C-A
  6
Continuous
 62
     3
370
     5
100
AcDbLine
 10
-757.4761707385334
 20
689.9636276744175
 30
0.0
 11
-757.4761707385334
 21
681.066627674418
 31
0.0
  0
LINE
  5
37B
330
1F
100
AcDbEntity
  8
C-A
  6
Continuous
 62
     3
370
     5
100
AcDbLine
 10
-752.5264232702277
 20
689.9636276744175
 30
0.0
 11
-752.5264232702277
 21
681.066627674418
 31
0.0
  0
LINE
  5
37C
330
1F
100
AcDbEntity
  8
C-A
  6
Continuous
 62
     3
370
     5
100
AcDbLine
 10
-682.4259182068396
 20
689.9636276744175
 30
0.0
 11
-682.4259182068396
 21
681.066627674418
 31
0.0
  0
LINE
  5
37D
330
1F
100
AcDbEntity
  8
C-A
  6
Continuous
 62
     3
370
     5
100
AcDbLine
 10
-677.4761707385334
 20
689.9636276744175
 30
0.0
 11
-677.4761707385334
 21
681.066627674418
 31
0.0
  0
LINE
  5
37E
330
1F
100
AcDbEntity
  8
C-A
  6
Continuous
 62
     3
370
     5
100
AcDbLine
 10
-672.5264232702277
 20
689.9636276744175
 30
0.0
 11
-672.5264232702277
 21
681.066627674418
 31
0.0
  0
LINE
  5
37F
330
1F
100
AcDbEntity
  8
C-A
  6
Continuous
 62
     3
370
     5
100
AcDbLine
 10
-602.4259182068396
 20
689.9636276744175
 30
0.0
 11
-602.4259182068396
 21
681.066627674418
 31
0.0
  0
LINE
  5
380
330
1F
100
AcDbEntity
  8
C-A
  6
Continuous
 62
     3
370
     5
100
AcDbLine
 10
-597.4761707385334
 20
689.9636276744175
 30
0.0
 11
-597.4761707385334
 21
681.066627674418
 31
0.0
  0
LINE
  5
381
330
1F
100
AcDbEntity
  8
C-A
  6
Continuous
 62
     3
370
     5
100
AcDbLine
 10
-592.5264232702277
 20
689.9636276744175
 30
0.0
 11
-592.5264232702277
 21
681.066627674418
 31
0.0
  0
LINE
  5
382
330
1F
100
AcDbEntity
  8
C-A
  6
Continuous
 62
     3
370
     5
100
AcDbLine
 10
-522.4259182068396
 20
689.9636276744175
 30
0.0
 11
-522.4259182068396
 21
681.066627674418
 31
0.0
  0
LINE
  5
383
330
1F
100
AcDbEntity
  8
C-A
  6
Continuous
 62
     3
370
     5
100
AcDbLine
 10
-517.4761707385334
 20
689.9636276744175
 30
0.0
 11
-517.4761707385334
 21
681.066627674418
 31
0.0
  0
LINE
  5
384
330
1F
100
AcDbEntity
  8
C-A
  6
Continuous
 62
     3
370
     5
100
AcDbLine
 10
-512.5264232702277
 20
689.9636276744175
 30
0.0
 11
-512.5264232702277
 21
681.066627674418
 31
0.0
  0
LINE
  5
385
330
1F
100
AcDbEntity
  8
C-A
  6
Continuous
 62
     3
370
     5
100
AcDbLine
 10
-442.4259182068396
 20
689.9636276744175
 30
0.0
 11
-442.4259182068396
 21
681.066627674418
 31
0.0
  0
LINE
  5
386
330
1F
100
AcDbEntity
  8
C-A
  6
Continuous
 62
     3
370
     5
100
AcDbLine
 10
-437.4761707385334
 20
689.9636276744175
 30
0.0
 11
-437.4761707385334
 21
681.066627674418
 31
0.0
  0
LINE
  5
387
330
1F
100
AcDbEntity
  8
C-A
  6
Continuous
 62
     3
370
     5
100
AcDbLine
 10
-432.5264232702277
 20
689.9636276744175
 30
0.0
 11
-432.5264232702277
 21
681.066627674418
 31
0.0
  0
LINE
  5
388
330
1F
100
AcDbEntity
  8
C-A
  6
Continuous
 62
     3
370
     5
100
AcDbLine
 10
-762.4259182068396
 20
673.0666276744173
 30
0.0
 11
-762.4259182068396
 21
664.1696276744178
 31
0.0
  0
LINE
  5
389
330
1F
100
AcDbEntity
  8
C-A
  6
Continuous
 62
     3
370
     5
100
AcDbLine
 10
-757.4761707385334
 20
673.0666276744173
 30
0.0
 11
-757.4761707385334
 21
664.1696276744178
 31
0.0
  0
LINE
  5
38A
330
1F
100
AcDbEntity
  8
C-A
  6
Continuous
 62
     3
370
     5
100
AcDbLine
 10
-752.5264232702277
 20
673.0666276744173
 30
0.0
 11
-752.5264232702277
 21
664.1696276744178
 31
0.0
  0
LINE
  5
38B
330
1F
100
AcDbEntity
  8
C-A
  6
Continuous
 62
     3
370
     5
100
AcDbLine
 10
-682.4259182068396
 20
673.0666276744173
 30
0.0
 11
-682.4259182068396
 21
664.1696276744178
 31
0.0
  0
LINE
  5
38C
330
1F
100
AcDbEntity
  8
C-A
  6
Continuous
 62
     3
370
     5
100
AcDbLine
 10
-677.4761707385334
 20
673.0666276744173
 30
0.0
 11
-677.4761707385334
 21
664.1696276744178
 31
0.0
  0
LINE
  5
38D
330
1F
100
AcDbEntity
  8
C-A
  6
Continuous
 62
     3
370
     5
100
AcDbLine
 10
-672.5264232702277
 20
673.0666276744173
 30
0.0
 11
-672.5264232702277
 21
664.1696276744178
 31
0.0
  0
LINE
  5
38E
330
1F
100
AcDbEntity
  8
C-A
  6
Continuous
 62
     3
370
     5
100
AcDbLine
 10
-602.4259182068396
 20
673.0666276744173
 30
0.0
 11
-602.4259182068396
 21
664.1696276744178
 31
0.0
  0
LINE
  5
38F
330
1F
100
AcDbEntity
  8
C-A
  6
Continuous
 62
     3
370
     5
100
AcDbLine
 10
-597.4761707385334
 20
673.0666276744173
 30
0.0
 11
-597.4761707385334
 21
664.1696276744178
 31
0.0
  0
LINE
  5
390
330
1F
100
AcDbEntity
  8
C-A
  6
Continuous
 62
     3
370
     5
100
AcDbLine
 10
-592.5264232702277
 20
673.0666276744173
 30
0.0
 11
-592.5264232702277
 21
664.1696276744178
 31
0.0
  0
LINE
  5
391
330
1F
100
AcDbEntity
  8
C-A
  6
Continuous
 62
     3
370
     5
100
AcDbLine
 10
-522.4259182068396
 20
673.0666276744173
 30
0.0
 11
-522.4259182068396
 21
664.1696276744178
 31
0.0
  0
LINE
  5
392
330
1F
100
AcDbEntity
  8
C-A
  6
Continuous
 62
     3
370
     5
100
AcDbLine
 10
-517.4761707385334
 20
673.0666276744173
 30
0.0
 11
-517.4761707385334
 21
664.1696276744178
 31
0.0
  0
LINE
  5
393
330
1F
100
AcDbEntity
  8
C-A
  6
Continuous
 62
     3
370
     5
100
AcDbLine
 10
-512.5264232702277
 20
673.0666276744173
 30
0.0
 11
-512.5264232702277
 21
664.1696276744178
 31
0.0
  0
LINE
  5
394
330
1F
100
AcDbEntity
  8
C-A
  6
Continuous
 62
     3
370
     5
100
AcDbLine
 10
-442.4259182068396
 20
673.0666276744173
 30
0.0
 11
-442.4259182068396
 21
664.1696276744178
 31
0.0
  0
LINE
  5
395
330
1F
100
AcDbEntity
  8
C-A
  6
Continuous
 62
     3
370
     5
100
AcDbLine
 10
-437.4761707385334
 20
673.0666276744173
 30
0.0
 11
-437.4761707385334
 21
664.1696276744178
 31
0.0
  0
LINE
  5
396
330
1F
100
AcDbEntity
  8
C-A
  6
Continuous
 62
     3
370
     5
100
AcDbLine
 10
-432.5264232702277
 20
673.0666276744173
 30
0.0
 11
-432.5264232702277
 21
664.1696276744178
 31
0.0
  0
LINE
  5
397
330
1F
100
AcDbEntity
  8
C-A
  6
Continuous
 62
     3
370
     5
100
AcDbLine
 10
-762.4259182068396
 20
656.1696276744171
 30
0.0
 11
-762.4259182068396
 21
647.2726276744177
 31
0.0
  0
LINE
  5
398
330
1F
100
AcDbEntity
  8
C-A
  6
Continuous
 62
     3
370
     5
100
AcDbLine
 10
-757.4761707385334
 20
656.1696276744171
 30
0.0
 11
-757.4761707385334
 21
647.2726276744177
 31
0.0
  0
LINE
  5
399
330
1F
100
AcDbEntity
  8
C-A
  6
Continuous
 62
     3
370
     5
100
AcDbLine
 10
-752.5264232702277
 20
656.1696276744171
 30
0.0
 11
-752.5264232702277
 21
647.2726276744177
 31
0.0
  0
LINE
  5
39A
330
1F
100
AcDbEntity
  8
C-A
  6
Continuous
 62
     3
370
     5
100
AcDbLine
 10
-682.4259182068396
 20
656.1696276744171
 30
0.0
 11
-682.4259182068396
 21
647.2726276744177
 31
0.0
  0
LINE
  5
39B
330
1F
100
AcDbEntity
  8
C-A
  6
Continuous
 62
     3
370
     5
100
AcDbLine
 10
-677.4761707385334
 20
656.1696276744171
 30
0.0
 11
-677.4761707385334
 21
647.2726276744177
 31
0.0
  0
LINE
  5
39C
330
1F
100
AcDbEntity
  8
C-A
  6
Continuous
 62
     3
370
     5
100
AcDbLine
 10
-672.5264232702277
 20
656.1696276744171
 30
0.0
 11
-672.5264232702277
 21
647.2726276744177
 31
0.0
  0
LINE
  5
39D
330
1F
100
AcDbEntity
  8
C-A
  6
Continuous
 62
     3
370
     5
100
AcDbLine
 10
-602.4259182068396
 20
656.1696276744171
 30
0.0
 11
-602.4259182068396
 21
647.2726276744177
 31
0.0
  0
LINE
  5
39E
330
1F
100
AcDbEntity
  8
C-A
  6
Continuous
 62
     3
370
     5
100
AcDbLine
 10
-597.4761707385334
 20
656.1696276744171
 30
0.0
 11
-597.4761707385334
 21
647.2726276744177
 31
0.0
  0
LINE
  5
39F
330
1F
100
AcDbEntity
  8
C-A
  6
Continuous
 62
     3
370
     5
100
AcDbLine
 10
-592.5264232702277
 20
656.1696276744171
 30
0.0
 11
-592.5264232702277
 21
647.2726276744177
 31
0.0
  0
LINE
  5
3A0
330
1F
100
AcDbEntity
  8
C-A
  6
Continuous
 62
     3
370
     5
100
AcDbLine
 10
-522.4259182068396
 20
656.1696276744171
 30
0.0
 11
-522.4259182068396
 21
647.2726276744177
 31
0.0
  0
LINE
  5
3A1
330
1F
100
AcDbEntity
  8
C-A
  6
Continuous
 62
     3
370
     5
100
AcDbLine
 10
-517.4761707385334
 20
656.1696276744171
 30
0.0
 11
-517.4761707385334
 21
647.2726276744177
 31
0.0
  0
LINE
  5
3A2
330
1F
100
AcDbEntity
  8
C-A
  6
Continuous
 62
     3
370
     5
100
AcDbLine
 10
-512.5264232702277
 20
656.1696276744171
 30
0.0
 11
-512.5264232702277
 21
647.2726276744177
 31
0.0
  0
LINE
  5
3A3
330
1F
100
AcDbEntity
  8
C-A
  6
Continuous
 62
     3
370
     5
100
AcDbLine
 10
-442.4259182068396
 20
656.1696276744171
 30
0.0
 11
-442.4259182068396
 21
647.2726276744177
 31
0.0
  0
LINE
  5
3A4
330
1F
100
AcDbEntity
  8
C-A
  6
Continuous
 62
     3
370
     5
100
AcDbLine
 10
-437.4761707385334
 20
656.1696276744171
 30
0.0
 11
-437.4761707385334
 21
647.2726276744177
 31
0.0
  0
LINE
  5
3A5
330
1F
100
AcDbEntity
  8
C-A
  6
Continuous
 62
     3
370
     5
100
AcDbLine
 10
-432.5264232702277
 20
656.1696276744171
 30
0.0
 11
-432.5264232702277
 21
647.2726276744177
 31
0.0
  0
LINE
  5
3A6
330
1F
100
AcDbEntity
  8
C-A
  6
Continuous
 62
     3
370
     5
100
AcDbLine
 10
-762.4259182068396
 20
639.272627674417
 30
0.0
 11
-762.4259182068396
 21
630.3756276744175
 31
0.0
  0
LINE
  5
3A7
330
1F
100
AcDbEntity
  8
C-A
  6
Continuous
 62
     3
370
     5
100
AcDbLine
 10
-757.4761707385334
 20
639.272627674417
 30
0.0
 11
-757.4761707385334
 21
630.3756276744175
 31
0.0
  0
LINE
  5
3A8
330
1F
100
AcDbEntity
  8
C-A
  6
Continuous
 62
     3
370
     5
100
AcDbLine
 10
-752.5264232702277
 20
639.272627674417
 30
0.0
 11
-752.5264232702277
 21
630.3756276744175
 31
0.0
  0
LINE
  5
3A9
330
1F
100
AcDbEntity
  8
C-A
  6
Continuous
 62
     3
370
     5
100
AcDbLine
 10
-682.4259182068396
 20
639.272627674417
 30
0.0
 11
-682.4259182068396
 21
630.3756276744175
 31
0.0
  0
LINE
  5
3AA
330
1F
100
AcDbEntity
  8
C-A
  6
Continuous
 62
     3
370
     5
100
AcDbLine
 10
-677.4761707385334
 20
639.272627674417
 30
0.0
 11
-677.4761707385334
 21
630.3756276744175
 31
0.0
  0
LINE
  5
3AB
330
1F
100
AcDbEntity
  8
C-A
  6
Continuous
 62
     3
370
     5
100
AcDbLine
 10
-672.5264232702277
 20
639.272627674417
 30
0.0
 11
-672.5264232702277
 21
630.3756276744175
 31
0.0
  0
LINE
  5
3AC
330
1F
100
AcDbEntity
  8
C-A
  6
Continuous
 62
     3
370
     5
100
AcDbLine
 10
-602.4259182068396
 20
639.272627674417
 30
0.0
 11
-602.4259182068396
 21
630.3756276744175
 31
0.0
  0
LINE
  5
3AD
330
1F
100
AcDbEntity
  8
C-A
  6
Continuous
 62
     3
370
     5
100
AcDbLine
 10
-597.4761707385334
 20
639.272627674417
 30
0.0
 11
-597.4761707385334
 21
630.3756276744175
 31
0.0
  0
LINE
  5
3AE
330
1F
100
AcDbEntity
  8
C-A
  6
Continuous
 62
     3
370
     5
100
AcDbLine
 10
-592.5264232702277
 20
639.272627674417
 30
0.0
 11
-592.5264232702277
 21
630.3756276744175
 31
0.0
  0
LINE
  5
3AF
330
1F
100
AcDbEntity
  8
C-A
  6
Continuous
 62
     3
370
     5
100
AcDbLine
 10
-522.4259182068396
 20
639.272627674417
 30
0.0
 11
-522.4259182068396
 21
630.3756276744175
 31
0.0
  0
LINE
  5
3B0
330
1F
100
AcDbEntity
  8
C-A
  6
Continuous
 62
     3
370
     5
100
AcDbLine
 10
-517.4761707385334
 20
639.272627674417
 30
0.0
 11
-517.4761707385334
 21
630.3756276744175
 31
0.0
  0
LINE
  5
3B1
330
1F
100
AcDbEntity
  8
C-A
  6
Continuous
 62
     3
370
     5
100
AcDbLine
 10
-512.5264232702277
 20
639.272627674417
 30
0.0
 11
-512.5264232702277
 21
630.3756276744175
 31
0.0
  0
LINE
  5
3B2
330
1F
100
AcDbEntity
  8
C-A
  6
Continuous
 62
     3
370
     5
100
AcDbLine
 10
-442.4259182068396
 20
639.272627674417
 30
0.0
 11
-442.4259182068396
 21
630.3756276744175
 31
0.0
  0
LINE
  5
3B3
330
1F
100
AcDbEntity
  8
C-A
  6
Continuous
 62
     3
370
     5
100
AcDbLine
 10
-437.4761707385334
 20
639.272627674417
 30
0.0
 11
-437.4761707385334
 21
630.3756276744175
 31
0.0
  0
LINE
  5
3B4
330
1F
100
AcDbEntity
  8
C-A
  6
Continuous
 62
     3
370
     5
100
AcDbLine
 10
-432.5264232702277
 20
639.272627674417
 30
0.0
 11
-432.5264232702277
 21
630.3756276744175
 31
0.0
  0
LINE
  5
3B5
330
1F
100
AcDbEntity
  8
C-A
  6
Continuous
 62
     3
370
     5
100
AcDbLine
 10
-762.4259182068396
 20
622.3756276744168
 30
0.0
 11
-762.4259182068396
 21
613.4786276744173
 31
0.0
  0
LINE
  5
3B6
330
1F
100
AcDbEntity
  8
C-A
  6
Continuous
 62
     3
370
     5
100
AcDbLine
 10
-757.4761707385334
 20
622.3756276744168
 30
0.0
 11
-757.4761707385334
 21
613.4786276744173
 31
0.0
  0
LINE
  5
3B7
330
1F
100
AcDbEntity
  8
C-A
  6
Continuous
 62
     3
370
     5
100
AcDbLine
 10
-752.5264232702277
 20
622.3756276744168
 30
0.0
 11
-752.5264232702277
 21
613.4786276744173
 31
0.0
  0
LINE
  5
3B8
330
1F
100
AcDbEntity
  8
C-A
  6
Continuous
 62
     3
370
     5
100
AcDbLine
 10
-682.4259182068396
 20
622.3756276744168
 30
0.0
 11
-682.4259182068396
 21
613.4786276744173
 31
0.0
  0
LINE
  5
3B9
330
1F
100
AcDbEntity
  8
C-A
  6
Continuous
 62
     3
370
     5
100
AcDbLine
 10
-677.4761707385334
 20
622.3756276744168
 30
0.0
 11
-677.4761707385334
 21
613.4786276744173
 31
0.0
  0
LINE
  5
3BA
330
1F
100
AcDbEntity
  8
C-A
  6
Continuous
 62
     3
370
     5
100
AcDbLine
 10
-672.5264232702277
 20
622.3756276744168
 30
0.0
 11
-672.5264232702277
 21
613.4786276744173
 31
0.0
  0
LINE
  5
3BB
330
1F
100
AcDbEntity
  8
C-A
  6
Continuous
 62
     3
370
     5
100
AcDbLine
 10
-602.4259182068396
 20
622.3756276744168
 30
0.0
 11
-602.4259182068396
 21
613.4786276744173
 31
0.0
  0
LINE
  5
3BC
330
1F
100
AcDbEntity
  8
C-A
  6
Continuous
 62
     3
370
     5
100
AcDbLine
 10
-597.4761707385334
 20
622.3756276744168
 30
0.0
 11
-597.4761707385334
 21
613.4786276744173
 31
0.0
  0
LINE
  5
3BD
330
1F
100
AcDbEntity
  8
C-A
  6
Continuous
 62
     3
370
     5
100
AcDbLine
 10
-592.5264232702277
 20
622.3756276744168
 30
0.0
 11
-592.5264232702277
 21
613.4786276744173
 31
0.0
  0
LINE
  5
3BE
330
1F
100
AcDbEntity
  8
C-A
  6
Continuous
 62
     3
370
     5
100
AcDbLine
 10
-522.4259182068396
 20
622.3756276744168
 30
0.0
 11
-522.4259182068396
 21
613.4786276744173
 31
0.0
  0
LINE
  5
3BF
330
1F
100
AcDbEntity
  8
C-A
  6
Continuous
 62
     3
370
     5
100
AcDbLine
 10
-517.4761707385334
 20
622.3756276744168
 30
0.0
 11
-517.4761707385334
 21
613.4786276744173
 31
0.0
  0
LINE
  5
3C0
330
1F
100
AcDbEntity
  8
C-A
  6
Continuous
 62
     3
370
     5
100
AcDbLine
 10
-512.5264232702277
 20
622.3756276744168
 30
0.0
 11
-512.5264232702277
 21
613.4786276744173
 31
0.0
  0
LINE
  5
3C1
330
1F
100
AcDbEntity
  8
C-A
  6
Continuous
 62
     3
370
     5
100
AcDbLine
 10
-442.4259182068396
 20
622.3756276744168
 30
0.0
 11
-442.4259182068396
 21
613.4786276744173
 31
0.0
  0
LINE
  5
3C2
330
1F
100
AcDbEntity
  8
C-A
  6
Continuous
 62
     3
370
     5
100
AcDbLine
 10
-437.4761707385334
 20
622.3756276744168
 30
0.0
 11
-437.4761707385334
 21
613.4786276744173
 31
0.0
  0
LINE
  5
3C3
330
1F
100
AcDbEntity
  8
C-A
  6
Continuous
 62
     3
370
     5
100
AcDbLine
 10
-432.5264232702277
 20
622.3756276744168
 30
0.0
 11
-432.5264232702277
 21
613.4786276744173
 31
0.0
  0
LINE
  5
3C4
330
1F
100
AcDbEntity
  8
C-A
  6
Continuous
 62
     3
370
     5
100
AcDbLine
 10
-762.4259182068396
 20
605.4786276744167
 30
0.0
 11
-762.4259182068396
 21
596.5816276744172
 31
0.0
  0
LINE
  5
3C5
330
1F
100
AcDbEntity
  8
C-A
  6
Continuous
 62
     3
370
     5
100
AcDbLine
 10
-757.4761707385334
 20
605.4786276744167
 30
0.0
 11
-757.4761707385334
 21
596.5816276744172
 31
0.0
  0
LINE
  5
3C6
330
1F
100
AcDbEntity
  8
C-A
  6
Continuous
 62
     3
370
     5
100
AcDbLine
 10
-752.5264232702277
 20
605.4786276744167
 30
0.0
 11
-752.5264232702277
 21
596.5816276744172
 31
0.0
  0
LINE
  5
3C7
330
1F
100
AcDbEntity
  8
C-A
  6
Continuous
 62
     3
370
     5
100
AcDbLine
 10
-682.4259182068396
 20
605.4786276744167
 30
0.0
 11
-682.4259182068396
 21
596.5816276744172
 31
0.0
  0
LINE
  5
3C8
330
1F
100
AcDbEntity
  8
C-A
  6
Continuous
 62
     3
370
     5
100
AcDbLine
 10
-677.4761707385334
 20
605.4786276744167
 30
0.0
 11
-677.4761707385334
 21
596.5816276744172
 31
0.0
  0
LINE
  5
3C9
330
1F
100
AcDbEntity
  8
C-A
  6
Continuous
 62
     3
370
     5
100
AcDbLine
 10
-672.5264232702277
 20
605.4786276744167
 30
0.0
 11
-672.5264232702277
 21
596.5816276744172
 31
0.0
  0
LINE
  5
3CA
330
1F
100
AcDbEntity
  8
C-A
  6
Continuous
 62
     3
370
     5
100
AcDbLine
 10
-602.4259182068396
 20
605.4786276744167
 30
0.0
 11
-602.4259182068396
 21
596.5816276744172
 31
0.0
  0
LINE
  5
3CB
330
1F
100
AcDbEntity
  8
C-A
  6
Continuous
 62
     3
370
     5
100
AcDbLine
 10
-597.4761707385334
 20
605.4786276744167
 30
0.0
 11
-597.4761707385334
 21
596.5816276744172
 31
0.0
  0
LINE
  5
3CC
330
1F
100
AcDbEntity
  8
C-A
  6
Continuous
 62
     3
370
     5
100
AcDbLine
 10
-592.5264232702277
 20
605.4786276744167
 30
0.0
 11
-592.5264232702277
 21
596.5816276744172
 31
0.0
  0
LINE
  5
3CD
330
1F
100
AcDbEntity
  8
C-A
  6
Continuous
 62
     3
370
     5
100
AcDbLine
 10
-522.4259182068396
 20
605.4786276744167
 30
0.0
 11
-522.4259182068396
 21
596.5816276744172
 31
0.0
  0
LINE
  5
3CE
330
1F
100
AcDbEntity
  8
C-A
  6
Continuous
 62
     3
370
     5
100
AcDbLine
 10
-517.4761707385334
 20
605.4786276744167
 30
0.0
 11
-517.4761707385334
 21
596.5816276744172
 31
0.0
  0
LINE
  5
3CF
330
1F
100
AcDbEntity
  8
C-A
  6
Continuous
 62
     3
370
     5
100
AcDbLine
 10
-512.5264232702277
 20
605.4786276744167
 30
0.0
 11
-512.5264232702277
 21
596.5816276744172
 31
0.0
  0
LINE
  5
3D0
330
1F
100
AcDbEntity
  8
C-A
  6
Continuous
 62
     3
370
     5
100
AcDbLine
 10
-442.4259182068396
 20
605.4786276744167
 30
0.0
 11
-442.4259182068396
 21
596.5816276744172
 31
0.0
  0
LINE
  5
3D1
330
1F
100
AcDbEntity
  8
C-A
  6
Continuous
 62
     3
370
     5
100
AcDbLine
 10
-437.4761707385334
 20
605.4786276744167
 30
0.0
 11
-437.4761707385334
 21
596.5816276744172
 31
0.0
  0
LINE
  5
3D2
330
1F
100
AcDbEntity
  8
C-A
  6
Continuous
 62
     3
370
     5
100
AcDbLine
 10
-432.5264232702277
 20
605.4786276744167
 30
0.0
 11
-432.5264232702277
 21
596.5816276744172
 31
0.0
  0
LINE
  5
3D3
330
1F
100
AcDbEntity
  8
C-A
  6
Continuous
 62
     3
370
     5
100
AcDbLine
 10
-762.4259182068396
 20
588.5816276744165
 30
0.0
 11
-762.4259182068396
 21
579.684627674417
 31
0.0
  0
LINE
  5
3D4
330
1F
100
AcDbEntity
  8
C-A
  6
Continuous
 62
     3
370
     5
100
AcDbLine
 10
-757.4761707385334
 20
588.5816276744165
 30
0.0
 11
-757.4761707385334
 21
579.684627674417
 31
0.0
  0
LINE
  5
3D5
330
1F
100
AcDbEntity
  8
C-A
  6
Continuous
 62
     3
370
     5
100
AcDbLine
 10
-752.5264232702277
 20
588.5816276744165
 30
0.0
 11
-752.5264232702277
 21
579.684627674417
 31
0.0
  0
LINE
  5
3D6
330
1F
100
AcDbEntity
  8
C-A
  6
Continuous
 62
     3
370
     5
100
AcDbLine
 10
-682.4259182068396
 20
588.5816276744165
 30
0.0
 11
-682.4259182068396
 21
579.684627674417
 31
0.0
  0
LINE
  5
3D7
330
1F
100
AcDbEntity
  8
C-A
  6
Continuous
 62
     3
370
     5
100
AcDbLine
 10
-677.4761707385334
 20
588.5816276744165
 30
0.0
 11
-677.4761707385334
 21
579.684627674417
 31
0.0
  0
LINE
  5
3D8
330
1F
100
AcDbEntity
  8
C-A
  6
Continuous
 62
     3
370
     5
100
AcDbLine
 10
-672.5264232702277
 20
588.5816276744165
 30
0.0
 11
-672.5264232702277
 21
579.684627674417
 31
0.0
  0
LINE
  5
3D9
330
1F
100
AcDbEntity
  8
C-A
  6
Continuous
 62
     3
370
     5
100
AcDbLine
 10
-602.4259182068396
 20
588.5816276744165
 30
0.0
 11
-602.4259182068396
 21
579.684627674417
 31
0.0
  0
LINE
  5
3DA
330
1F
100
AcDbEntity
  8
C-A
  6
Continuous
 62
     3
370
     5
100
AcDbLine
 10
-597.4761707385334
 20
588.5816276744165
 30
0.0
 11
-597.4761707385334
 21
579.684627674417
 31
0.0
  0
LINE
  5
3DB
330
1F
100
AcDbEntity
  8
C-A
  6
Continuous
 62
     3
370
     5
100
AcDbLine
 10
-592.5264232702277
 20
588.5816276744165
 30
0.0
 11
-592.5264232702277
 21
579.684627674417
 31
0.0
  0
LINE
  5
3DC
330
1F
100
AcDbEntity
  8
C-A
  6
Continuous
 62
     3
370
     5
100
AcDbLine
 10
-522.4259182068396
 20
588.5816276744165
 30
0.0
 11
-522.4259182068396
 21
579.684627674417
 31
0.0
  0
LINE
  5
3DD
330
1F
100
AcDbEntity
  8
C-A
  6
Continuous
 62
     3
370
     5
100
AcDbLine
 10
-517.4761707385334
 20
588.5816276744165
 30
0.0
 11
-517.4761707385334
 21
579.684627674417
 31
0.0
  0
LINE
  5
3DE
330
1F
100
AcDbEntity
  8
C-A
  6
Continuous
 62
     3
370
     5
100
AcDbLine
 10
-512.5264232702277
 20
588.5816276744165
 30
0.0
 11
-512.5264232702277
 21
579.684627674417
 31
0.0
  0
LINE
  5
3DF
330
1F
100
AcDbEntity
  8
C-A
  6
Continuous
 62
     3
370
     5
100
AcDbLine
 10
-442.4259182068396
 20
588.5816276744165
 30
0.0
 11
-442.4259182068396
 21
579.684627674417
 31
0.0
  0
LINE
  5
3E0
330
1F
100
AcDbEntity
  8
C-A
  6
Continuous
 62
     3
370
     5
100
AcDbLine
 10
-437.4761707385334
 20
588.5816276744165
 30
0.0
 11
-437.4761707385334
 21
579.684627674417
 31
0.0
  0
LINE
  5
3E1
330
1F
100
AcDbEntity
  8
C-A
  6
Continuous
 62
     3
370
     5
100
AcDbLine
 10
-432.5264232702277
 20
588.5816276744165
 30
0.0
 11
-432.5264232702277
 21
579.684627674417
 31
0.0
  0
LINE
  5
3E2
330
1F
100
AcDbEntity
  8
C-A
  6
Continuous
 62
     3
370
     5
100
AcDbLine
 10
-762.4259182068396
 20
571.6846276744163
 30
0.0
 11
-762.4259182068396
 21
562.7876276744169
 31
0.0
  0
LINE
  5
3E3
330
1F
100
AcDbEntity
  8
C-A
  6
Continuous
 62
     3
370
     5
100
AcDbLine
 10
-757.4761707385334
 20
571.6846276744163
 30
0.0
 11
-757.4761707385334
 21
562.7876276744169
 31
0.0
  0
LINE
  5
3E4
330
1F
100
AcDbEntity
  8
C-A
  6
Continuous
 62
     3
370
     5
100
AcDbLine
 10
-752.5264232702277
 20
571.6846276744163
 30
0.0
 11
-752.5264232702277
 21
562.7876276744169
 31
0.0
  0
LINE
  5
3E5
330
1F
100
AcDbEntity
  8
C-A
  6
Continuous
 62
     3
370
     5
100
AcDbLine
 10
-682.4259182068396
 20
571.6846276744163
 30
0.0
 11
-682.4259182068396
 21
562.7876276744169
 31
0.0
  0
LINE
  5
3E6
330
1F
100
AcDbEntity
  8
C-A
  6
Continuous
 62
     3
370
     5
100
AcDbLine
 10
-677.4761707385334
 20
571.6846276744163
 30
0.0
 11
-677.4761707385334
 21
562.7876276744169
 31
0.0
  0
LINE
  5
3E7
330
1F
100
AcDbEntity
  8
C-A
  6
Continuous
 62
     3
370
     5
100
AcDbLine
 10
-672.5264232702277
 20
571.6846276744163
 30
0.0
 11
-672.5264232702277
 21
562.7876276744169
 31
0.0
  0
LINE
  5
3E8
330
1F
100
AcDbEntity
  8
C-A
  6
Continuous
 62
     3
370
     5
100
AcDbLine
 10
-602.4259182068396
 20
571.6846276744163
 30
0.0
 11
-602.4259182068396
 21
562.7876276744169
 31
0.0
  0
LINE
  5
3E9
330
1F
100
AcDbEntity
  8
C-A
  6
Continuous
 62
     3
370
     5
100
AcDbLine
 10
-597.4761707385334
 20
571.6846276744163
 30
0.0
 11
-597.4761707385334
 21
562.7876276744169
 31
0.0
  0
LINE
  5
3EA
330
1F
100
AcDbEntity
  8
C-A
  6
Continuous
 62
     3
370
     5
100
AcDbLine
 10
-592.5264232702277
 20
571.6846276744163
 30
0.0
 11
-592.5264232702277
 21
562.7876276744169
 31
0.0
  0
LINE
  5
3EB
330
1F
100
AcDbEntity
  8
C-A
  6
Continuous
 62
     3
370
     5
100
AcDbLine
 10
-522.4259182068396
 20
571.6846276744163
 30
0.0
 11
-522.4259182068396
 21
562.7876276744169
 31
0.0
  0
LINE
  5
3EC
330
1F
100
AcDbEntity
  8
C-A
  6
Continuous
 62
     3
370
     5
100
AcDbLine
 10
-517.4761707385334
 20
571.6846276744163
 30
0.0
 11
-517.4761707385334
 21
562.7876276744169
 31
0.0
  0
LINE
  5
3ED
330
1F
100
AcDbEntity
  8
C-A
  6
Continuous
 62
     3
370
     5
100
AcDbLine
 10
-512.5264232702277
 20
571.6846276744163
 30
0.0
 11
-512.5264232702277
 21
562.7876276744169
 31
0.0
  0
LINE
  5
3EE
330
1F
100
AcDbEntity
  8
C-A
  6
Continuous
 62
     3
370
     5
100
AcDbLine
 10
-442.4259182068396
 20
571.6846276744163
 30
0.0
 11
-442.4259182068396
 21
562.7876276744169
 31
0.0
  0
LINE
  5
3EF
330
1F
100
AcDbEntity
  8
C-A
  6
Continuous
 62
     3
370
     5
100
AcDbLine
 10
-437.4761707385334
 20
571.6846276744163
 30
0.0
 11
-437.4761707385334
 21
562.7876276744169
 31
0.0
  0
LINE
  5
3F0
330
1F
100
AcDbEntity
  8
C-A
  6
Continuous
 62
     3
370
     5
100
AcDbLine
 10
-432.5264232702277
 20
571.6846276744163
 30
0.0
 11
-432.5264232702277
 21
562.7876276744169
 31
0.0
  0
LINE
  5
3F1
330
1F
100
AcDbEntity
  8
C-A
  6
Continuous
 62
     3
370
     5
100
AcDbLine
 10
-762.4259182068396
 20
554.7876276744162
 30
0.0
 11
-762.4259182068396
 21
545.8906276744167
 31
0.0
  0
LINE
  5
3F2
330
1F
100
AcDbEntity
  8
C-A
  6
Continuous
 62
     3
370
     5
100
AcDbLine
 10
-757.4761707385334
 20
554.7876276744162
 30
0.0
 11
-757.4761707385334
 21
545.8906276744167
 31
0.0
  0
LINE
  5
3F3
330
1F
100
AcDbEntity
  8
C-A
  6
Continuous
 62
     3
370
     5
100
AcDbLine
 10
-752.5264232702277
 20
554.7876276744162
 30
0.0
 11
-752.5264232702277
 21
545.8906276744167
 31
0.0
  0
LINE
  5
3F4
330
1F
100
AcDbEntity
  8
C-A
  6
Continuous
 62
     3
370
     5
100
AcDbLine
 10
-682.4259182068396
 20
554.7876276744162
 30
0.0
 11
-682.4259182068396
 21
545.8906276744167
 31
0.0
  0
LINE
  5
3F5
330
1F
100
AcDbEntity
  8
C-A
  6
Continuous
 62
     3
370
     5
100
AcDbLine
 10
-677.4761707385334
 20
554.7876276744162
 30
0.0
 11
-677.4761707385334
 21
545.8906276744167
 31
0.0
  0
LINE
  5
3F6
330
1F
100
AcDbEntity
  8
C-A
  6
Continuous
 62
     3
370
     5
100
AcDbLine
 10
-672.5264232702277
 20
554.7876276744162
 30
0.0
 11
-672.5264232702277
 21
545.8906276744167
 31
0.0
  0
LINE
  5
3F7
330
1F
100
AcDbEntity
  8
C-A
  6
Continuous
 62
     3
370
     5
100
AcDbLine
 10
-602.4259182068396
 20
554.7876276744162
 30
0.0
 11
-602.4259182068396
 21
545.8906276744167
 31
0.0
  0
LINE
  5
3F8
330
1F
100
AcDbEntity
  8
C-A
  6
Continuous
 62
     3
370
     5
100
AcDbLine
 10
-597.4761707385334
 20
554.7876276744162
 30
0.0
 11
-597.4761707385334
 21
545.8906276744167
 31
0.0
  0
LINE
  5
3F9
330
1F
100
AcDbEntity
  8
C-A
  6
Continuous
 62
     3
370
     5
100
AcDbLine
 10
-592.5264232702277
 20
554.7876276744162
 30
0.0
 11
-592.5264232702277
 21
545.8906276744167
 31
0.0
  0
LINE
  5
3FA
330
1F
100
AcDbEntity
  8
C-A
  6
Continuous
 62
     3
370
     5
100
AcDbLine
 10
-522.4259182068396
 20
554.7876276744162
 30
0.0
 11
-522.4259182068396
 21
545.8906276744167
 31
0.0
  0
LINE
  5
3FB
330
1F
100
AcDbEntity
  8
C-A
  6
Continuous
 62
     3
370
     5
100
AcDbLine
 10
-517.4761707385334
 20
554.7876276744162
 30
0.0
 11
-517.4761707385334
 21
545.8906276744167
 31
0.0
  0
LINE
  5
3FC
330
1F
100
AcDbEntity
  8
C-A
  6
Continuous
 62
     3
370
     5
100
AcDbLine
 10
-512.5264232702277
 20
554.7876276744162
 30
0.0
 11
-512.5264232702277
 21
545.8906276744167
 31
0.0
  0
LINE
  5
3FD
330
1F
100
AcDbEntity
  8
C-A
  6
Continuous
 62
     3
370
     5
100
AcDbLine
 10
-442.4259182068396
 20
554.7876276744162
 30
0.0
 11
-442.4259182068396
 21
545.8906276744167
 31
0.0
  0
LINE
  5
3FE
330
1F
100
AcDbEntity
  8
C-A
  6
Continuous
 62
     3
370
     5
100
AcDbLine
 10
-437.4761707385334
 20
554.7876276744162
 30
0.0
 11
-437.4761707385334
 21
545.8906276744167
 31
0.0
  0
LINE
  5
3FF
330
1F
100
AcDbEntity
  8
C-A
  6
Continuous
 62
     3
370
     5
100
AcDbLine
 10
-432.5264232702277
 20
554.7876276744162
 30
0.0
 11
-432.5264232702277
 21
545.8906276744167
 31
0.0
  0
LINE
  5
400
330
1F
100
AcDbEntity
  8
C-A
  6
Continuous
 62
     3
370
     5
100
AcDbLine
 10
-762.4259182068396
 20
537.890627674416
 30
0.0
 11
-762.4259182068396
 21
528.9936276744165
 31
0.0
  0
LINE
  5
401
330
1F
100
AcDbEntity
  8
C-A
  6
Continuous
 62
     3
370
     5
100
AcDbLine
 10
-757.4761707385334
 20
537.890627674416
 30
0.0
 11
-757.4761707385334
 21
528.9936276744165
 31
0.0
  0
LINE
  5
402
330
1F
100
AcDbEntity
  8
C-A
  6
Continuous
 62
     3
370
     5
100
AcDbLine
 10
-752.5264232702277
 20
537.890627674416
 30
0.0
 11
-752.5264232702277
 21
528.9936276744165
 31
0.0
  0
LINE
  5
403
330
1F
100
AcDbEntity
  8
C-A
  6
Continuous
 62
     3
370
     5
100
AcDbLine
 10
-682.4259182068396
 20
537.890627674416
 30
0.0
 11
-682.4259182068396
 21
528.9936276744165
 31
0.0
  0
LINE
  5
404
330
1F
100
AcDbEntity
  8
C-A
  6
Continuous
 62
     3
370
     5
100
AcDbLine
 10
-677.4761707385334
 20
537.890627674416
 30
0.0
 11
-677.4761707385334
 21
528.9936276744165
 31
0.0
  0
LINE
  5
405
330
1F
100
AcDbEntity
  8
C-A
  6
Continuous
 62
     3
370
     5
100
AcDbLine
 10
-672.5264232702277
 20
537.890627674416
 30
0.0
 11
-672.5264232702277
 21
528.9936276744165
 31
0.0
  0
LINE
  5
406
330
1F
100
AcDbEntity
  8
C-A
  6
Continuous
 62
     3
370
     5
100
AcDbLine
 10
-602.4259182068396
 20
537.890627674416
 30
0.0
 11
-602.4259182068396
 21
528.9936276744165
 31
0.0
  0
LINE
  5
407
330
1F
100
AcDbEntity
  8
C-A
  6
Continuous
 62
     3
370
     5
100
AcDbLine
 10
-597.4761707385334
 20
537.890627674416
 30
0.0
 11
-597.4761707385334
 21
528.9936276744165
 31
0.0
  0
LINE
  5
408
330
1F
100
AcDbEntity
  8
C-A
  6
Continuous
 62
     3
370
     5
100
AcDbLine
 10
-592.5264232702277
 20
537.890627674416
 30
0.0
 11
-592.5264232702277
 21
528.9936276744165
 31
0.0
  0
LINE
  5
409
330
1F
100
AcDbEntity
  8
C-A
  6
Continuous
 62
     3
370
     5
100
AcDbLine
 10
-522.4259182068396
 20
537.890627674416
 30
0.0
 11
-522.4259182068396
 21
528.9936276744165
 31
0.0
  0
LINE
  5
40A
330
1F
100
AcDbEntity
  8
C-A
  6
Continuous
 62
     3
370
     5
100
AcDbLine
 10
-517.4761707385334
 20
537.890627674416
 30
0.0
 11
-517.4761707385334
 21
528.9936276744165
 31
0.0
  0
LINE
  5
40B
330
1F
100
AcDbEntity
  8
C-A
  6
Continuous
 62
     3
370
     5
100
AcDbLine
 10
-512.5264232702277
 20
537.890627674416
 30
0.0
 11
-512.5264232702277
 21
528.9936276744165
 31
0.0
  0
LINE
  5
40C
330
1F
100
AcDbEntity
  8
C-A
  6
Continuous
 62
     3
370
     5
100
AcDbLine
 10
-442.4259182068396
 20
537.890627674416
 30
0.0
 11
-442.4259182068396
 21
528.9936276744165
 31
0.0
  0
LINE
  5
40D
330
1F
100
AcDbEntity
  8
C-A
  6
Continuous
 62
     3
370
     5
100
AcDbLine
 10
-437.4761707385334
 20
537.890627674416
 30
0.0
 11
-437.4761707385334
 21
528.9936276744165
 31
0.0
  0
LINE
  5
40E
330
1F
100
AcDbEntity
  8
C-A
  6
Continuous
 62
     3
370
     5
100
AcDbLine
 10
-432.5264232702277
 20
537.890627674416
 30
0.0
 11
-432.5264232702277
 21
528.9936276744165
 31
0.0
  0
LINE
  5
40F
330
1F
100
AcDbEntity
  8
C-A
  6
Continuous
 62
     3
370
     5
100
AcDbLine
 10
-762.4259182068396
 20
520.9936276744158
 30
0.0
 11
-762.4259182068396
 21
512.0966276744164
 31
0.0
  0
LINE
  5
410
330
1F
100
AcDbEntity
  8
C-A
  6
Continuous
 62
     3
370
     5
100
AcDbLine
 10
-757.4761707385334
 20
520.9936276744158
 30
0.0
 11
-757.4761707385334
 21
512.0966276744164
 31
0.0
  0
LINE
  5
411
330
1F
100
AcDbEntity
  8
C-A
  6
Continuous
 62
     3
370
     5
100
AcDbLine
 10
-752.5264232702277
 20
520.9936276744158
 30
0.0
 11
-752.5264232702277
 21
512.0966276744164
 31
0.0
  0
LINE
  5
412
330
1F
100
AcDbEntity
  8
C-A
  6
Continuous
 62
     3
370
     5
100
AcDbLine
 10
-682.4259182068396
 20
520.9936276744158
 30
0.0
 11
-682.4259182068396
 21
512.0966276744164
 31
0.0
  0
LINE
  5
413
330
1F
100
AcDbEntity
  8
C-A
  6
Continuous
 62
     3
370
     5
100
AcDbLine
 10
-677.4761707385334
 20
520.9936276744158
 30
0.0
 11
-677.4761707385334
 21
512.0966276744164
 31
0.0
  0
LINE
  5
414
330
1F
100
AcDbEntity
  8
C-A
  6
Continuous
 62
     3
370
     5
100
AcDbLine
 10
-672.5264232702277
 20
520.9936276744158
 30
0.0
 11
-672.5264232702277
 21
512.0966276744164
 31
0.0
  0
LINE
  5
415
330
1F
100
AcDbEntity
  8
C-A
  6
Continuous
 62
     3
370
     5
100
AcDbLine
 10
-602.4259182068396
 20
520.9936276744158
 30
0.0
 11
-602.4259182068396
 21
512.0966276744164
 31
0.0
  0
LINE
  5
416
330
1F
100
AcDbEntity
  8
C-A
  6
Continuous
 62
     3
370
     5
100
AcDbLine
 10
-597.4761707385334
 20
520.9936276744158
 30
0.0
 11
-597.4761707385334
 21
512.0966276744164
 31
0.0
  0
LINE
  5
417
330
1F
100
AcDbEntity
  8
C-A
  6
Continuous
 62
     3
370
     5
100
AcDbLine
 10
-592.5264232702277
 20
520.9936276744158
 30
0.0
 11
-592.5264232702277
 21
512.0966276744164
 31
0.0
  0
LINE
  5
418
330
1F
100
AcDbEntity
  8
C-A
  6
Continuous
 62
     3
370
     5
100
AcDbLine
 10
-522.4259182068396
 20
520.9936276744158
 30
0.0
 11
-522.4259182068396
 21
512.0966276744164
 31
0.0
  0
LINE
  5
419
330
1F
100
AcDbEntity
  8
C-A
  6
Continuous
 62
     3
370
     5
100
AcDbLine
 10
-517.4761707385334
 20
520.9936276744158
 30
0.0
 11
-517.4761707385334
 21
512.0966276744164
 31
0.0
  0
LINE
  5
41A
330
1F
100
AcDbEntity
  8
C-A
  6
Continuous
 62
     3
370
     5
100
AcDbLine
 10
-512.5264232702277
 20
520.9936276744158
 30
0.0
 11
-512.5264232702277
 21
512.0966276744164
 31
0.0
  0
LINE
  5
41B
330
1F
100
AcDbEntity
  8
C-A
  6
Continuous
 62
     3
370
     5
100
AcDbLine
 10
-442.4259182068396
 20
520.9936276744158
 30
0.0
 11
-442.4259182068396
 21
512.0966276744164
 31
0.0
  0
LINE
  5
41C
330
1F
100
AcDbEntity
  8
C-A
  6
Continuous
 62
     3
370
     5
100
AcDbLine
 10
-437.4761707385334
 20
520.9936276744158
 30
0.0
 11
-437.4761707385334
 21
512.0966276744164
 31
0.0
  0
LINE
  5
41D
330
1F
100
AcDbEntity
  8
C-A
  6
Continuous
 62
     3
370
     5
100
AcDbLine
 10
-432.5264232702277
 20
520.9936276744158
 30
0.0
 11
-432.5264232702277
 21
512.0966276744164
 31
0.0
  0
LINE
  5
41E
330
1F
100
AcDbEntity
  8
C-A
  6
Continuous
 62
     3
370
     5
100
AcDbLine
 10
-762.4259182068396
 20
504.0966276744157
 30
0.0
 11
-762.4259182068396
 21
495.1996276744163
 31
0.0
  0
LINE
  5
41F
330
1F
100
AcDbEntity
  8
C-A
  6
Continuous
 62
     3
370
     5
100
AcDbLine
 10
-757.4761707385334
 20
504.0966276744157
 30
0.0
 11
-757.4761707385334
 21
495.1996276744163
 31
0.0
  0
LINE
  5
420
330
1F
100
AcDbEntity
  8
C-A
  6
Continuous
 62
     3
370
     5
100
AcDbLine
 10
-752.5264232702277
 20
504.0966276744157
 30
0.0
 11
-752.5264232702277
 21
495.1996276744163
 31
0.0
  0
LINE
  5
421
330
1F
100
AcDbEntity
  8
C-A
  6
Continuous
 62
     3
370
     5
100
AcDbLine
 10
-682.4259182068396
 20
504.0966276744157
 30
0.0
 11
-682.4259182068396
 21
495.1996276744163
 31
0.0
  0
LINE
  5
422
330
1F
100
AcDbEntity
  8
C-A
  6
Continuous
 62
     3
370
     5
100
AcDbLine
 10
-677.4761707385334
 20
504.0966276744157
 30
0.0
 11
-677.4761707385334
 21
495.1996276744163
 31
0.0
  0
LINE
  5
423
330
1F
100
AcDbEntity
  8
C-A
  6
Continuous
 62
     3
370
     5
100
AcDbLine
 10
-672.5264232702277
 20
504.0966276744157
 30
0.0
 11
-672.5264232702277
 21
495.1996276744163
 31
0.0
  0
LINE
  5
424
330
1F
100
AcDbEntity
  8
C-A
  6
Continuous
 62
     3
370
     5
100
AcDbLine
 10
-602.4259182068396
 20
504.0966276744157
 30
0.0
 11
-602.4259182068396
 21
495.1996276744163
 31
0.0
  0
LINE
  5
425
330
1F
100
AcDbEntity
  8
C-A
  6
Continuous
 62
     3
370
     5
100
AcDbLine
 10
-597.4761707385334
 20
504.0966276744157
 30
0.0
 11
-597.4761707385334
 21
495.1996276744163
 31
0.0
  0
LINE
  5
426
330
1F
100
AcDbEntity
  8
C-A
  6
Continuous
 62
     3
370
     5
100
AcDbLine
 10
-592.5264232702277
 20
504.0966276744157
 30
0.0
 11
-592.5264232702277
 21
495.1996276744163
 31
0.0
  0
LINE
  5
427
330
1F
100
AcDbEntity
  8
C-A
  6
Continuous
 62
     3
370
     5
100
AcDbLine
 10
-522.4259182068396
 20
504.0966276744157
 30
0.0
 11
-522.4259182068396
 21
495.1996276744163
 31
0.0
  0
LINE
  5
428
330
1F
100
AcDbEntity
  8
C-A
  6
Continuous
 62
     3
370
     5
100
AcDbLine
 10
-517.4761707385334
 20
504.0966276744157
 30
0.0
 11
-517.4761707385334
 21
495.1996276744163
 31
0.0
  0
LINE
  5
429
330
1F
100
AcDbEntity
  8
C-A
  6
Continuous
 62
     3
370
     5
100
AcDbLine
 10
-512.5264232702277
 20
504.0966276744157
 30
0.0
 11
-512.5264232702277
 21
495.1996276744163
 31
0.0
  0
LINE
  5
42A
330
1F
100
AcDbEntity
  8
C-A
  6
Continuous
 62
     3
370
     5
100
AcDbLine
 10
-442.4259182068396
 20
504.0966276744157
 30
0.0
 11
-442.4259182068396
 21
495.1996276744163
 31
0.0
  0
LINE
  5
42B
330
1F
100
AcDbEntity
  8
C-A
  6
Continuous
 62
     3
370
     5
100
AcDbLine
 10
-437.4761707385334
 20
504.0966276744157
 30
0.0
 11
-437.4761707385334
 21
495.1996276744163
 31
0.0
  0
LINE
  5
42C
330
1F
100
AcDbEntity
  8
C-A
  6
Continuous
 62
     3
370
     5
100
AcDbLine
 10
-432.5264232702277
 20
504.0966276744157
 30
0.0
 11
-432.5264232702277
 21
495.1996276744163
 31
0.0
  0
LINE
  5
42D
330
1F
100
AcDbEntity
  8
C-A
  6
Continuous
 62
     3
370
     5
100
AcDbLine
 10
-819.4761707385338
 20
934.52162767442
 30
0.0
 11
-819.4761707385338
 21
487.1996276744201
 31
0.0
  0
LINE
  5
42E
330
1F
100
AcDbEntity
  8
C-A
  6
Continuous
 62
     3
370
     5
100
AcDbLine
 10
-375.4761707385335
 20
934.52162767442
 30
0.0
 11
-375.4761707385335
 21
487.1996276744201
 31
0.0
  0
LINE
  5
42F
330
1F
100
AcDbEntity
  8
C-A
  6
Continuous
 62
     3
370
     5
100
AcDbLine
 10
-819.4761707385338
 20
926.5216276744197
 30
0.0
 11
-375.4761707385335
 21
926.5216276744197
 31
0.0
  0
LINE
  5
430
330
1F
100
AcDbEntity
  8
C-A
  6
Continuous
 62
     3
370
     5
100
AcDbLine
 10
-819.4761707385338
 20
909.6246276744196
 30
0.0
 11
-375.4761707385335
 21
909.6246276744196
 31
0.0
  0
LINE
  5
431
330
1F
100
AcDbEntity
  8
C-A
  6
Continuous
 62
     3
370
     5
100
AcDbLine
 10
-819.4761707385338
 20
917.6246276744198
 30
0.0
 11
-375.4761707385335
 21
917.6246276744198
 31
0.0
  0
LINE
  5
432
330
1F
100
AcDbEntity
  8
C-A
  6
Continuous
 62
     3
370
     5
100
AcDbLine
 10
-819.4761707385338
 20
892.7276276744194
 30
0.0
 11
-375.4761707385335
 21
892.7276276744194
 31
0.0
  0
LINE
  5
433
330
1F
100
AcDbEntity
  8
C-A
  6
Continuous
 62
     3
370
     5
100
AcDbLine
 10
-819.4761707385338
 20
900.7276276744196
 30
0.0
 11
-375.4761707385335
 21
900.7276276744196
 31
0.0
  0
LINE
  5
434
330
1F
100
AcDbEntity
  8
C-A
  6
Continuous
 62
     3
370
     5
100
AcDbLine
 10
-819.4761707385338
 20
875.8306276744192
 30
0.0
 11
-375.4761707385335
 21
875.8306276744192
 31
0.0
  0
LINE
  5
435
330
1F
100
AcDbEntity
  8
C-A
  6
Continuous
 62
     3
370
     5
100
AcDbLine
 10
-819.4761707385338
 20
883.8306276744195
 30
0.0
 11
-375.4761707385335
 21
883.8306276744195
 31
0.0
  0
LINE
  5
436
330
1F
100
AcDbEntity
  8
C-A
  6
Continuous
 62
     3
370
     5
100
AcDbLine
 10
-819.4761707385338
 20
858.9336276744191
 30
0.0
 11
-375.4761707385335
 21
858.9336276744191
 31
0.0
  0
LINE
  5
437
330
1F
100
AcDbEntity
  8
C-A
  6
Continuous
 62
     3
370
     5
100
AcDbLine
 10
-819.4761707385338
 20
866.9336276744193
 30
0.0
 11
-375.4761707385335
 21
866.9336276744193
 31
0.0
  0
LINE
  5
438
330
1F
100
AcDbEntity
  8
C-A
  6
Continuous
 62
     3
370
     5
100
AcDbLine
 10
-819.4761707385338
 20
842.0366276744189
 30
0.0
 11
-375.4761707385335
 21
842.0366276744189
 31
0.0
  0
LINE
  5
439
330
1F
100
AcDbEntity
  8
C-A
  6
Continuous
 62
     3
370
     5
100
AcDbLine
 10
-819.4761707385338
 20
850.0366276744192
 30
0.0
 11
-375.4761707385335
 21
850.0366276744192
 31
0.0
  0
LINE
  5
43A
330
1F
100
AcDbEntity
  8
C-A
  6
Continuous
 62
     3
370
     5
100
AcDbLine
 10
-819.4761707385338
 20
825.1396276744188
 30
0.0
 11
-375.4761707385335
 21
825.1396276744188
 31
0.0
  0
LINE
  5
43B
330
1F
100
AcDbEntity
  8
C-A
  6
Continuous
 62
     3
370
     5
100
AcDbLine
 10
-819.4761707385338
 20
833.139627674419
 30
0.0
 11
-375.4761707385335
 21
833.139627674419
 31
0.0
  0
LINE
  5
43C
330
1F
100
AcDbEntity
  8
C-A
  6
Continuous
 62
     3
370
     5
100
AcDbLine
 10
-819.4761707385338
 20
808.2426276744186
 30
0.0
 11
-375.4761707385335
 21
808.2426276744186
 31
0.0
  0
LINE
  5
43D
330
1F
100
AcDbEntity
  8
C-A
  6
Continuous
 62
     3
370
     5
100
AcDbLine
 10
-819.4761707385338
 20
816.2426276744188
 30
0.0
 11
-375.4761707385335
 21
816.2426276744188
 31
0.0
  0
LINE
  5
43E
330
1F
100
AcDbEntity
  8
C-A
  6
Continuous
 62
     3
370
     5
100
AcDbLine
 10
-819.4761707385338
 20
791.3456276744184
 30
0.0
 11
-375.4761707385335
 21
791.3456276744184
 31
0.0
  0
LINE
  5
43F
330
1F
100
AcDbEntity
  8
C-A
  6
Continuous
 62
     3
370
     5
100
AcDbLine
 10
-819.4761707385338
 20
799.3456276744187
 30
0.0
 11
-375.4761707385335
 21
799.3456276744187
 31
0.0
  0
LINE
  5
440
330
1F
100
AcDbEntity
  8
C-A
  6
Continuous
 62
     3
370
     5
100
AcDbLine
 10
-819.4761707385338
 20
774.4486276744183
 30
0.0
 11
-375.4761707385335
 21
774.4486276744183
 31
0.0
  0
LINE
  5
441
330
1F
100
AcDbEntity
  8
C-A
  6
Continuous
 62
     3
370
     5
100
AcDbLine
 10
-819.4761707385338
 20
782.4486276744185
 30
0.0
 11
-375.4761707385335
 21
782.4486276744185
 31
0.0
  0
LINE
  5
442
330
1F
100
AcDbEntity
  8
C-A
  6
Continuous
 62
     3
370
     5
100
AcDbLine
 10
-819.4761707385338
 20
757.5516276744181
 30
0.0
 11
-375.4761707385335
 21
757.5516276744181
 31
0.0
  0
LINE
  5
443
330
1F
100
AcDbEntity
  8
C-A
  6
Continuous
 62
     3
370
     5
100
AcDbLine
 10
-819.4761707385338
 20
765.5516276744183
 30
0.0
 11
-375.4761707385335
 21
765.5516276744183
 31
0.0
  0
LINE
  5
444
330
1F
100
AcDbEntity
  8
C-A
  6
Continuous
 62
     3
370
     5
100
AcDbLine
 10
-819.4761707385338
 20
740.654627674418
 30
0.0
 11
-375.4761707385335
 21
740.654627674418
 31
0.0
  0
LINE
  5
445
330
1F
100
AcDbEntity
  8
C-A
  6
Continuous
 62
     3
370
     5
100
AcDbLine
 10
-819.4761707385338
 20
748.6546276744182
 30
0.0
 11
-375.4761707385335
 21
748.6546276744182
 31
0.0
  0
LINE
  5
446
330
1F
100
AcDbEntity
  8
C-A
  6
Continuous
 62
     3
370
     5
100
AcDbLine
 10
-819.4761707385338
 20
723.7576276744178
 30
0.0
 11
-375.4761707385335
 21
723.7576276744178
 31
0.0
  0
LINE
  5
447
330
1F
100
AcDbEntity
  8
C-A
  6
Continuous
 62
     3
370
     5
100
AcDbLine
 10
-819.4761707385338
 20
731.757627674418
 30
0.0
 11
-375.4761707385335
 21
731.757627674418
 31
0.0
  0
LINE
  5
448
330
1F
100
AcDbEntity
  8
C-A
  6
Continuous
 62
     3
370
     5
100
AcDbLine
 10
-819.4761707385338
 20
706.8606276744176
 30
0.0
 11
-375.4761707385335
 21
706.8606276744176
 31
0.0
  0
LINE
  5
449
330
1F
100
AcDbEntity
  8
C-A
  6
Continuous
 62
     3
370
     5
100
AcDbLine
 10
-819.4761707385338
 20
714.8606276744179
 30
0.0
 11
-375.4761707385335
 21
714.8606276744179
 31
0.0
  0
LINE
  5
44A
330
1F
100
AcDbEntity
  8
C-A
  6
Continuous
 62
     3
370
     5
100
AcDbLine
 10
-819.4761707385338
 20
689.9636276744175
 30
0.0
 11
-375.4761707385335
 21
689.9636276744175
 31
0.0
  0
LINE
  5
44B
330
1F
100
AcDbEntity
  8
C-A
  6
Continuous
 62
     3
370
     5
100
AcDbLine
 10
-819.4761707385338
 20
697.9636276744177
 30
0.0
 11
-375.4761707385335
 21
697.9636276744177
 31
0.0
  0
LINE
  5
44C
330
1F
100
AcDbEntity
  8
C-A
  6
Continuous
 62
     3
370
     5
100
AcDbLine
 10
-819.4761707385338
 20
673.0666276744173
 30
0.0
 11
-375.4761707385335
 21
673.0666276744173
 31
0.0
  0
LINE
  5
44D
330
1F
100
AcDbEntity
  8
C-A
  6
Continuous
 62
     3
370
     5
100
AcDbLine
 10
-819.4761707385338
 20
681.0666276744175
 30
0.0
 11
-375.4761707385335
 21
681.0666276744175
 31
0.0
  0
LINE
  5
44E
330
1F
100
AcDbEntity
  8
C-A
  6
Continuous
 62
     3
370
     5
100
AcDbLine
 10
-819.4761707385338
 20
656.1696276744171
 30
0.0
 11
-375.4761707385335
 21
656.1696276744171
 31
0.0
  0
LINE
  5
44F
330
1F
100
AcDbEntity
  8
C-A
  6
Continuous
 62
     3
370
     5
100
AcDbLine
 10
-819.4761707385338
 20
664.1696276744174
 30
0.0
 11
-375.4761707385335
 21
664.1696276744174
 31
0.0
  0
LINE
  5
450
330
1F
100
AcDbEntity
  8
C-A
  6
Continuous
 62
     3
370
     5
100
AcDbLine
 10
-819.4761707385338
 20
639.272627674417
 30
0.0
 11
-375.4761707385335
 21
639.272627674417
 31
0.0
  0
LINE
  5
451
330
1F
100
AcDbEntity
  8
C-A
  6
Continuous
 62
     3
370
     5
100
AcDbLine
 10
-819.4761707385338
 20
647.2726276744172
 30
0.0
 11
-375.4761707385335
 21
647.2726276744172
 31
0.0
  0
LINE
  5
452
330
1F
100
AcDbEntity
  8
C-A
  6
Continuous
 62
     3
370
     5
100
AcDbLine
 10
-819.4761707385338
 20
622.3756276744168
 30
0.0
 11
-375.4761707385335
 21
622.3756276744168
 31
0.0
  0
LINE
  5
453
330
1F
100
AcDbEntity
  8
C-A
  6
Continuous
 62
     3
370
     5
100
AcDbLine
 10
-819.4761707385338
 20
630.375627674417
 30
0.0
 11
-375.4761707385335
 21
630.375627674417
 31
0.0
  0
LINE
  5
454
330
1F
100
AcDbEntity
  8
C-A
  6
Continuous
 62
     3
370
     5
100
AcDbLine
 10
-819.4761707385338
 20
605.4786276744167
 30
0.0
 11
-375.4761707385335
 21
605.4786276744167
 31
0.0
  0
LINE
  5
455
330
1F
100
AcDbEntity
  8
C-A
  6
Continuous
 62
     3
370
     5
100
AcDbLine
 10
-819.4761707385338
 20
613.4786276744169
 30
0.0
 11
-375.4761707385335
 21
613.4786276744169
 31
0.0
  0
LINE
  5
456
330
1F
100
AcDbEntity
  8
C-A
  6
Continuous
 62
     3
370
     5
100
AcDbLine
 10
-819.4761707385338
 20
588.5816276744165
 30
0.0
 11
-375.4761707385335
 21
588.5816276744165
 31
0.0
  0
LINE
  5
457
330
1F
100
AcDbEntity
  8
C-A
  6
Continuous
 62
     3
370
     5
100
AcDbLine
 10
-819.4761707385338
 20
596.5816276744167
 30
0.0
 11
-375.4761707385335
 21
596.5816276744167
 31
0.0
  0
LINE
  5
458
330
1F
100
AcDbEntity
  8
C-A
  6
Continuous
 62
     3
370
     5
100
AcDbLine
 10
-819.4761707385338
 20
571.6846276744163
 30
0.0
 11
-375.4761707385335
 21
571.6846276744163
 31
0.0
  0
LINE
  5
459
330
1F
100
AcDbEntity
  8
C-A
  6
Continuous
 62
     3
370
     5
100
AcDbLine
 10
-819.4761707385338
 20
579.6846276744166
 30
0.0
 11
-375.4761707385335
 21
579.6846276744166
 31
0.0
  0
LINE
  5
45A
330
1F
100
AcDbEntity
  8
C-A
  6
Continuous
 62
     3
370
     5
100
AcDbLine
 10
-819.4761707385338
 20
554.7876276744162
 30
0.0
 11
-375.4761707385335
 21
554.7876276744162
 31
0.0
  0
LINE
  5
45B
330
1F
100
AcDbEntity
  8
C-A
  6
Continuous
 62
     3
370
     5
100
AcDbLine
 10
-819.4761707385338
 20
562.7876276744164
 30
0.0
 11
-375.4761707385335
 21
562.7876276744164
 31
0.0
  0
LINE
  5
45C
330
1F
100
AcDbEntity
  8
C-A
  6
Continuous
 62
     3
370
     5
100
AcDbLine
 10
-819.4761707385338
 20
537.890627674416
 30
0.0
 11
-375.4761707385335
 21
537.890627674416
 31
0.0
  0
LINE
  5
45D
330
1F
100
AcDbEntity
  8
C-A
  6
Continuous
 62
     3
370
     5
100
AcDbLine
 10
-819.4761707385338
 20
545.8906276744162
 30
0.0
 11
-375.4761707385335
 21
545.8906276744162
 31
0.0
  0
LINE
  5
45E
330
1F
100
AcDbEntity
  8
C-A
  6
Continuous
 62
     3
370
     5
100
AcDbLine
 10
-819.4761707385338
 20
520.9936276744158
 30
0.0
 11
-375.4761707385335
 21
520.9936276744158
 31
0.0
  0
LINE
  5
45F
330
1F
100
AcDbEntity
  8
C-A
  6
Continuous
 62
     3
370
     5
100
AcDbLine
 10
-819.4761707385338
 20
528.9936276744161
 30
0.0
 11
-375.4761707385335
 21
528.9936276744161
 31
0.0
  0
LINE
  5
460
330
1F
100
AcDbEntity
  8
C-A
  6
Continuous
 62
     3
370
     5
100
AcDbLine
 10
-819.4761707385338
 20
504.0966276744157
 30
0.0
 11
-375.4761707385335
 21
504.0966276744157
 31
0.0
  0
LINE
  5
461
330
1F
100
AcDbEntity
  8
C-A
  6
Continuous
 62
     3
370
     5
100
AcDbLine
 10
-819.4761707385338
 20
512.0966276744159
 30
0.0
 11
-375.4761707385335
 21
512.0966276744159
 31
0.0
  0
LINE
  5
462
330
1F
100
AcDbEntity
  8
C-A
  6
Continuous
 62
     3
370
     5
100
AcDbLine
 10
-819.4761707385338
 20
495.1996276744157
 30
0.0
 11
-375.4761707385335
 21
495.1996276744157
 31
0.0
  0
LINE
  5
463
330
1F
100
AcDbEntity
  8
C-A
  6
Continuous
 62
     3
370
     5
100
AcDbLine
 10
-822.4761707385334
 20
934.52162767442
 30
0.0
 11
-372.4761707385334
 21
934.52162767442
 31
0.0
  0
LINE
  5
464
330
1F
100
AcDbEntity
  8
C-1
  6
JWW_DASHED3
 62
     2
370
     5
100
AcDbLine
 10
-797.4761707385334
 20
910.8216276744199
 30
0.0
 11
-797.4761707385334
 21
510.8216276744201
 31
0.0
  0
LINE
  5
465
330
1F
100
AcDbEntity
  8
C-1
  6
JWW_DASHED3
 62
     2
370
     5
100
AcDbLine
 10
-797.4761707385334
 20
910.8216276744199
 30
0.0
 11
-397.4761707385334
 21
910.8216276744199
 31
0.0
  0
LINE
  5
466
330
1F
100
AcDbEntity
  8
C-1
  6
JWW_DASHED3
 62
     2
370
     5
100
AcDbLine
 10
-397.4761707385334
 20
910.8216276744199
 30
0.0
 11
-397.4761707385334
 21
510.8216276744201
 31
0.0
  0
LINE
  5
467
330
1F
100
AcDbEntity
  8
C-1
  6
JWW_DASHED3
 62
     2
370
     5
100
AcDbLine
 10
-797.4761707385334
 20
510.8216276744201
 30
0.0
 11
-397.4761707385334
 21
510.8216276744201
 31
0.0
  0
LINE
  5
468
330
1F
100
AcDbEntity
  8
C-A
  6
Continuous
 62
     3
370
     5
100
AcDbLine
 10
-754.4761608409407
 20
485.86162767442
 30
0.0
 11
-760.4761806361261
 21
485.86162767442
 31
0.0
  0
LINE
  5
469
330
1F
100
AcDbEntity
  8
C-A
  6
Continuous
 62
     3
370
     5
100
AcDbLine
 10
-760.4761806361261
 20
485.86162767442
 30
0.0
 11
-762.2152230945595
 21
487.1996276744201
 31
0.0
  0
ARC
  5
46A
330
1F
100
AcDbEntity
  8
C-A
  6
Continuous
 62
     3
370
     5
100
AcDbCircle
 10
-759.4217900639136
 20
491.3586517981528
 30
0.0
 40
5.00000064437454
100
AcDbArc
 50
236.2845749109621
 51
267.9859924316407
  0
ARC
  5
46B
330
1F
100
AcDbEntity
  8
C-A
  6
Continuous
 62
     3
370
     5
100
AcDbCircle
 10
-759.7142639342688
 20
489.3594370071904
 30
0.0
 40
3.000000038662472
100
AcDbArc
 50
272.2334899902343
 51
313.9507673584699
  0
ARC
  5
46C
330
1F
100
AcDbEntity
  8
C-A
  6
Continuous
 62
     3
370
     5
100
AcDbCircle
 10
-755.238077542799
 20
489.3594370071904
 30
0.0
 40
3.000000038662472
100
AcDbArc
 50
226.0492326415301
 51
267.7665100097656
  0
ARC
  5
46D
330
1F
100
AcDbEntity
  8
C-A
  6
Continuous
 62
     3
370
     5
100
AcDbCircle
 10
-755.5305514131531
 20
491.3586517981528
 30
0.0
 40
5.00000064437454
100
AcDbArc
 50
272.0140075683593
 51
303.7154250890379
  0
LINE
  5
46E
330
1F
100
AcDbEntity
  8
C-A
  6
Continuous
 62
     3
370
     5
100
AcDbLine
 10
-754.4761608409407
 20
485.86162767442
 30
0.0
 11
-752.7371183825089
 21
487.1996276744201
 31
0.0
  0
LINE
  5
46F
330
1F
100
AcDbEntity
  8
C-A
  6
Continuous
 62
     3
370
     5
100
AcDbLine
 10
-674.4761608409407
 20
485.86162767442
 30
0.0
 11
-680.4761806361261
 21
485.86162767442
 31
0.0
  0
LINE
  5
470
330
1F
100
AcDbEntity
  8
C-A
  6
Continuous
 62
     3
370
     5
100
AcDbLine
 10
-680.4761806361261
 20
485.86162767442
 30
0.0
 11
-682.2152230945595
 21
487.1996276744201
 31
0.0
  0
ARC
  5
471
330
1F
100
AcDbEntity
  8
C-A
  6
Continuous
 62
     3
370
     5
100
AcDbCircle
 10
-679.4217900639136
 20
491.3586517981528
 30
0.0
 40
5.00000064437454
100
AcDbArc
 50
236.2845749109621
 51
267.9859924316407
  0
ARC
  5
472
330
1F
100
AcDbEntity
  8
C-A
  6
Continuous
 62
     3
370
     5
100
AcDbCircle
 10
-679.7142639342688
 20
489.3594370071904
 30
0.0
 40
3.000000038662472
100
AcDbArc
 50
272.2334899902343
 51
313.9507673584699
  0
ARC
  5
473
330
1F
100
AcDbEntity
  8
C-A
  6
Continuous
 62
     3
370
     5
100
AcDbCircle
 10
-675.238077542799
 20
489.3594370071904
 30
0.0
 40
3.000000038662472
100
AcDbArc
 50
226.0492326415301
 51
267.7665100097656
  0
ARC
  5
474
330
1F
100
AcDbEntity
  8
C-A
  6
Continuous
 62
     3
370
     5
100
AcDbCircle
 10
-675.5305514131531
 20
491.3586517981528
 30
0.0
 40
5.00000064437454
100
AcDbArc
 50
272.0140075683593
 51
303.7154250890379
  0
LINE
  5
475
330
1F
100
AcDbEntity
  8
C-A
  6
Continuous
 62
     3
370
     5
100
AcDbLine
 10
-674.4761608409407
 20
485.86162767442
 30
0.0
 11
-672.7371183825089
 21
487.1996276744201
 31
0.0
  0
LINE
  5
476
330
1F
100
AcDbEntity
  8
C-A
  6
Continuous
 62
     3
370
     5
100
AcDbLine
 10
-594.4761608409407
 20
485.86162767442
 30
0.0
 11
-600.4761806361261
 21
485.86162767442
 31
0.0
  0
LINE
  5
477
330
1F
100
AcDbEntity
  8
C-A
  6
Continuous
 62
     3
370
     5
100
AcDbLine
 10
-600.4761806361261
 20
485.86162767442
 30
0.0
 11
-602.2152230945595
 21
487.1996276744201
 31
0.0
  0
ARC
  5
478
330
1F
100
AcDbEntity
  8
C-A
  6
Continuous
 62
     3
370
     5
100
AcDbCircle
 10
-599.4217900639136
 20
491.3586517981528
 30
0.0
 40
5.00000064437454
100
AcDbArc
 50
236.2845749109621
 51
267.9859924316407
  0
ARC
  5
479
330
1F
100
AcDbEntity
  8
C-A
  6
Continuous
 62
     3
370
     5
100
AcDbCircle
 10
-599.7142639342688
 20
489.3594370071904
 30
0.0
 40
3.000000038662472
100
AcDbArc
 50
272.2334899902343
 51
313.9507673584699
  0
ARC
  5
47A
330
1F
100
AcDbEntity
  8
C-A
  6
Continuous
 62
     3
370
     5
100
AcDbCircle
 10
-595.238077542799
 20
489.3594370071904
 30
0.0
 40
3.000000038662472
100
AcDbArc
 50
226.0492326415301
 51
267.7665100097656
  0
ARC
  5
47B
330
1F
100
AcDbEntity
  8
C-A
  6
Continuous
 62
     3
370
     5
100
AcDbCircle
 10
-595.5305514131531
 20
491.3586517981528
 30
0.0
 40
5.00000064437454
100
AcDbArc
 50
272.0140075683593
 51
303.7154250890379
  0
LINE
  5
47C
330
1F
100
AcDbEntity
  8
C-A
  6
Continuous
 62
     3
370
     5
100
AcDbLine
 10
-594.4761608409407
 20
485.86162767442
 30
0.0
 11
-592.7371183825089
 21
487.1996276744201
 31
0.0
  0
LINE
  5
47D
330
1F
100
AcDbEntity
  8
C-A
  6
Continuous
 62
     3
370
     5
100
AcDbLine
 10
-514.4761608409407
 20
485.86162767442
 30
0.0
 11
-520.4761806361261
 21
485.86162767442
 31
0.0
  0
LINE
  5
47E
330
1F
100
AcDbEntity
  8
C-A
  6
Continuous
 62
     3
370
     5
100
AcDbLine
 10
-520.4761806361261
 20
485.86162767442
 30
0.0
 11
-522.2152230945595
 21
487.1996276744201
 31
0.0
  0
ARC
  5
47F
330
1F
100
AcDbEntity
  8
C-A
  6
Continuous
 62
     3
370
     5
100
AcDbCircle
 10
-519.4217900639136
 20
491.3586517981528
 30
0.0
 40
5.00000064437454
100
AcDbArc
 50
236.2845749109621
 51
267.9859924316407
  0
ARC
  5
480
330
1F
100
AcDbEntity
  8
C-A
  6
Continuous
 62
     3
370
     5
100
AcDbCircle
 10
-519.7142639342688
 20
489.3594370071904
 30
0.0
 40
3.000000038662472
100
AcDbArc
 50
272.2334899902343
 51
313.9507673584699
  0
ARC
  5
481
330
1F
100
AcDbEntity
  8
C-A
  6
Continuous
 62
     3
370
     5
100
AcDbCircle
 10
-515.238077542799
 20
489.3594370071904
 30
0.0
 40
3.000000038662472
100
AcDbArc
 50
226.0492326415301
 51
267.7665100097656
  0
ARC
  5
482
330
1F
100
AcDbEntity
  8
C-A
  6
Continuous
 62
     3
370
     5
100
AcDbCircle
 10
-515.5305514131531
 20
491.3586517981528
 30
0.0
 40
5.00000064437454
100
AcDbArc
 50
272.0140075683593
 51
303.7154250890379
  0
LINE
  5
483
330
1F
100
AcDbEntity
  8
C-A
  6
Continuous
 62
     3
370
     5
100
AcDbLine
 10
-514.4761608409407
 20
485.86162767442
 30
0.0
 11
-512.7371183825089
 21
487.1996276744201
 31
0.0
  0
LINE
  5
484
330
1F
100
AcDbEntity
  8
C-A
  6
Continuous
 62
     3
370
     5
100
AcDbLine
 10
-434.4761608409407
 20
485.86162767442
 30
0.0
 11
-440.4761806361261
 21
485.86162767442
 31
0.0
  0
LINE
  5
485
330
1F
100
AcDbEntity
  8
C-A
  6
Continuous
 62
     3
370
     5
100
AcDbLine
 10
-440.4761806361261
 20
485.86162767442
 30
0.0
 11
-442.2152230945595
 21
487.1996276744201
 31
0.0
  0
ARC
  5
486
330
1F
100
AcDbEntity
  8
C-A
  6
Continuous
 62
     3
370
     5
100
AcDbCircle
 10
-439.4217900639136
 20
491.3586517981528
 30
0.0
 40
5.00000064437454
100
AcDbArc
 50
236.2845749109621
 51
267.9859924316407
  0
ARC
  5
487
330
1F
100
AcDbEntity
  8
C-A
  6
Continuous
 62
     3
370
     5
100
AcDbCircle
 10
-439.7142639342688
 20
489.3594370071904
 30
0.0
 40
3.000000038662472
100
AcDbArc
 50
272.2334899902343
 51
313.9507673584699
  0
ARC
  5
488
330
1F
100
AcDbEntity
  8
C-A
  6
Continuous
 62
     3
370
     5
100
AcDbCircle
 10
-435.238077542799
 20
489.3594370071904
 30
0.0
 40
3.000000038662472
100
AcDbArc
 50
226.0492326415301
 51
267.7665100097656
  0
ARC
  5
489
330
1F
100
AcDbEntity
  8
C-A
  6
Continuous
 62
     3
370
     5
100
AcDbCircle
 10
-435.5305514131531
 20
491.3586517981528
 30
0.0
 40
5.00000064437454
100
AcDbArc
 50
272.0140075683593
 51
303.7154250890379
  0
LINE
  5
48A
330
1F
100
AcDbEntity
  8
C-A
  6
Continuous
 62
     3
370
     5
100
AcDbLine
 10
-434.4761608409407
 20
485.86162767442
 30
0.0
 11
-432.7371183825089
 21
487.1996276744201
 31
0.0
  0
LINE
  5
48B
330
1F
100
AcDbEntity
  8
C-5
  6
Continuous
 62
     7
370
     5
100
AcDbLine
 10
-309.9758913119589
 20
288.0549711357439
 30
0.0
 11
-884.9763185580526
 21
288.0549711357439
 31
0.0
  0
TEXT
  5
48C
330
1F
100
AcDbEntity
  8
C-5
  6
Continuous
 62
     2
370
     5
100
AcDbText
 10
-864.9762365420615
 20
306.1946411644304
 30
0.0
 40
30.48
  1
平面詳細図　Ｓ＝１：１０
 41
1.114583333333333
  7
ＭＳ ゴシック
100
AcDbText
  0
LINE
  5
48D
330
1F
100
AcDbEntity
  8
C-4
  6
Continuous
 62
     7
370
     5
100
AcDbLine
 10
-822.4761707385334
 20
1075.821291156261
 30
0.0
 11
-797.4761707385334
 21
1075.821291156261
 31
0.0
  0
LWPOLYLINE
  5
48E
330
1F
100
AcDbEntity
  8
C-4
  6
Continuous
 62
     7
370
     5
100
AcDbPolyline
 90
        4
 70
     1
 43
1.0
 10
-821.9761707385334
 20
1075.821291156261
 42
0.4142135623731
 10
-822.4761707385334
 20
1076.321291156261
 42
0.4142135623731
 10
-822.9761707385333
 20
1075.821291156261
 42
0.4142135623731
 10
-822.4761707385334
 20
1075.321291156261
 42
0.4142135623731
  0
LWPOLYLINE
  5
48F
330
1F
100
AcDbEntity
  8
C-4
  6
Continuous
 62
     7
370
     5
100
AcDbPolyline
 90
        4
 70
     1
 43
1.0
 10
-796.9761707385334
 20
1075.821291156261
 42
0.4142135623731
 10
-797.4761707385334
 20
1076.321291156261
 42
0.4142135623731
 10
-797.9761707385333
 20
1075.821291156261
 42
0.4142135623731
 10
-797.4761707385334
 20
1075.321291156261
 42
0.4142135623731
  0
LINE
  5
490
330
1F
100
AcDbEntity
  8
C-4
  6
Continuous
 62
     7
370
     5
100
AcDbLine
 10
-797.4761707385334
 20
1075.821291156261
 30
0.0
 11
-397.4761707385334
 21
1075.821291156261
 31
0.0
  0
LWPOLYLINE
  5
491
330
1F
100
AcDbEntity
  8
C-4
  6
Continuous
 62
     7
370
     5
100
AcDbPolyline
 90
        4
 70
     1
 43
1.0
 10
-396.9761707385334
 20
1075.821291156261
 42
0.4142135623731
 10
-397.4761707385334
 20
1076.321291156261
 42
0.4142135623731
 10
-397.9761707385333
 20
1075.821291156261
 42
0.4142135623731
 10
-397.4761707385334
 20
1075.321291156261
 42
0.4142135623731
  0
TEXT
  5
492
330
1F
100
AcDbEntity
  8
C-4
  6
Continuous
 62
     2
370
   211
100
AcDbText
 10
-629.9761707385334
 20
1087.461291156261
 30
0.0
 40
30.48
  1
400
 41
1.083333333333333
  7
ＭＳ ゴシック
100
AcDbText
  0
LINE
  5
493
330
1F
100
AcDbEntity
  8
C-4
  6
Continuous
 62
     7
370
     5
100
AcDbLine
 10
-397.4761707385334
 20
1075.821291156261
 30
0.0
 11
-372.4761707385334
 21
1075.821291156261
 31
0.0
  0
LWPOLYLINE
  5
494
330
1F
100
AcDbEntity
  8
C-4
  6
Continuous
 62
     7
370
     5
100
AcDbPolyline
 90
        4
 70
     1
 43
1.0
 10
-371.9761707385334
 20
1075.821291156261
 42
0.4142135623731
 10
-372.4761707385334
 20
1076.321291156261
 42
0.4142135623731
 10
-372.9761707385333
 20
1075.821291156261
 42
0.4142135623731
 10
-372.4761707385334
 20
1075.321291156261
 42
0.4142135623731
  0
LINE
  5
495
330
1F
100
AcDbEntity
  8
C-4
  6
Continuous
 62
     7
370
     5
100
AcDbLine
 10
-822.4761707385334
 20
1078.821291156261
 30
0.0
 11
-822.4761707385334
 21
955.8216276744199
 31
0.0
  0
LINE
  5
496
330
1F
100
AcDbEntity
  8
C-4
  6
Continuous
 62
     7
370
     5
100
AcDbLine
 10
-797.4761707385334
 20
1078.821291156261
 30
0.0
 11
-797.4761707385334
 21
955.8216276744199
 31
0.0
  0
LINE
  5
497
330
1F
100
AcDbEntity
  8
C-4
  6
Continuous
 62
     7
370
     5
100
AcDbLine
 10
-397.4761707385334
 20
1078.821291156261
 30
0.0
 11
-397.4761707385334
 21
955.8216276744199
 31
0.0
  0
LINE
  5
498
330
1F
100
AcDbEntity
  8
C-4
  6
Continuous
 62
     7
370
     5
100
AcDbLine
 10
-372.4761707385334
 20
1078.821291156261
 30
0.0
 11
-372.4761707385334
 21
955.8216276744199
 31
0.0
  0
TEXT
  5
499
330
1F
100
AcDbEntity
  8
C-4
  6
Continuous
 62
     2
370
   211
100
AcDbText
 10
-422.3163449846463
 20
1087.461291156261
 30
0.0
 40
30.48
  1
25
 41
1.0625
  7
ＭＳ ゴシック
100
AcDbText
  0
TEXT
  5
49A
330
1F
100
AcDbEntity
  8
C-4
  6
Continuous
 62
     2
370
   211
100
AcDbText
 10
-813.2523122338152
 20
1087.461291156261
 30
0.0
 40
30.48
  1
25
 41
1.0625
  7
ＭＳ ゴシック
100
AcDbText
  0
LINE
  5
49B
330
1F
100
AcDbEntity
  8
C-4
  6
Continuous
 62
     7
370
     5
100
AcDbLine
 10
-828.4761707385336
 20
1145.820730292663
 30
0.0
 11
-823.4761707385336
 21
1145.820730292663
 31
0.0
  0
LWPOLYLINE
  5
49C
330
1F
100
AcDbEntity
  8
C-4
  6
Continuous
 62
     7
370
     5
100
AcDbPolyline
 90
        4
 70
     1
 43
1.0
 10
-827.9761707385336
 20
1145.820730292663
 42
0.4142135623731
 10
-828.4761707385336
 20
1146.320730292663
 42
0.4142135623731
 10
-828.9761707385335
 20
1145.820730292663
 42
0.4142135623731
 10
-828.4761707385336
 20
1145.320730292663
 42
0.4142135623731
  0
LWPOLYLINE
  5
49D
330
1F
100
AcDbEntity
  8
C-4
  6
Continuous
 62
     7
370
     5
100
AcDbPolyline
 90
        4
 70
     1
 43
1.0
 10
-822.9761707385336
 20
1145.820730292663
 42
0.4142135623731
 10
-823.4761707385336
 20
1146.320730292663
 42
0.4142135623731
 10
-823.9761707385335
 20
1145.820730292663
 42
0.4142135623731
 10
-823.4761707385336
 20
1145.320730292663
 42
0.4142135623731
  0
LINE
  5
49E
330
1F
100
AcDbEntity
  8
C-4
  6
Continuous
 62
     7
370
     5
100
AcDbLine
 10
-823.4761707385336
 20
1145.820730292663
 30
0.0
 11
-822.4761707385334
 21
1145.820730292663
 31
0.0
  0
LWPOLYLINE
  5
49F
330
1F
100
AcDbEntity
  8
C-4
  6
Continuous
 62
     7
370
     5
100
AcDbPolyline
 90
        4
 70
     1
 43
1.0
 10
-821.9761707385334
 20
1145.820730292663
 42
0.4142135623731
 10
-822.4761707385334
 20
1146.320730292663
 42
0.4142135623731
 10
-822.9761707385333
 20
1145.820730292663
 42
0.4142135623731
 10
-822.4761707385334
 20
1145.320730292663
 42
0.4142135623731
  0
LWPOLYLINE
  5
4A0
330
1F
100
AcDbEntity
  8
C-4
  6
Continuous
 62
     7
370
     5
100
AcDbPolyline
 90
        4
 70
     1
 43
1.0
 10
-371.9761707385334
 20
1145.820730292663
 42
0.4142135623731
 10
-372.4761707385334
 20
1146.320730292663
 42
0.4142135623731
 10
-372.9761707385333
 20
1145.820730292663
 42
0.4142135623731
 10
-372.4761707385334
 20
1145.320730292663
 42
0.4142135623731
  0
TEXT
  5
4A1
330
1F
100
AcDbEntity
  8
C-4
  6
Continuous
 62
     2
370
   211
100
AcDbText
 10
-629.9761707385334
 20
1157.460730292663
 30
0.0
 40
30.48
  1
450
 41
1.083333333333333
  7
ＭＳ ゴシック
100
AcDbText
  0
LINE
  5
4A2
330
1F
100
AcDbEntity
  8
C-4
  6
Continuous
 62
     7
370
     5
100
AcDbLine
 10
-372.4761707385334
 20
1145.820730292663
 30
0.0
 11
-371.4761707385337
 21
1145.820730292663
 31
0.0
  0
LWPOLYLINE
  5
4A3
330
1F
100
AcDbEntity
  8
C-4
  6
Continuous
 62
     7
370
     5
100
AcDbPolyline
 90
        4
 70
     1
 43
1.0
 10
-370.9761707385337
 20
1145.820730292663
 42
0.4142135623731
 10
-371.4761707385337
 20
1146.320730292663
 42
0.4142135623731
 10
-371.9761707385337
 20
1145.820730292663
 42
0.4142135623731
 10
-371.4761707385337
 20
1145.320730292663
 42
0.4142135623731
  0
LINE
  5
4A4
330
1F
100
AcDbEntity
  8
C-4
  6
Continuous
 62
     7
370
     5
100
AcDbLine
 10
-371.4761707385337
 20
1145.820730292663
 30
0.0
 11
-366.4761707385337
 21
1145.820730292663
 31
0.0
  0
LWPOLYLINE
  5
4A5
330
1F
100
AcDbEntity
  8
C-4
  6
Continuous
 62
     7
370
     5
100
AcDbPolyline
 90
        4
 70
     1
 43
1.0
 10
-365.9761707385337
 20
1145.820730292663
 42
0.4142135623731
 10
-366.4761707385337
 20
1146.320730292663
 42
0.4142135623731
 10
-366.9761707385337
 20
1145.820730292663
 42
0.4142135623731
 10
-366.4761707385337
 20
1145.320730292663
 42
0.4142135623731
  0
LINE
  5
4A6
330
1F
100
AcDbEntity
  8
C-4
  6
Continuous
 62
     7
370
     5
100
AcDbLine
 10
-828.4761707385336
 20
1148.820730292663
 30
0.0
 11
-828.4761707385336
 21
955.8216276744199
 31
0.0
  0
LINE
  5
4A7
330
1F
100
AcDbEntity
  8
C-4
  6
Continuous
 62
     7
370
     5
100
AcDbLine
 10
-823.4761707385336
 20
1148.820730292663
 30
0.0
 11
-823.4761707385336
 21
955.8216276744199
 31
0.0
  0
LINE
  5
4A8
330
1F
100
AcDbEntity
  8
C-4
  6
Continuous
 62
     7
370
     5
100
AcDbLine
 10
-822.4761707385334
 20
1148.820730292663
 30
0.0
 11
-822.4761707385334
 21
955.8216276744199
 31
0.0
  0
LINE
  5
4A9
330
1F
100
AcDbEntity
  8
C-4
  6
Continuous
 62
     7
370
     5
100
AcDbLine
 10
-372.4761707385334
 20
1148.820730292663
 30
0.0
 11
-372.4761707385334
 21
955.8216276744199
 31
0.0
  0
LINE
  5
4AA
330
1F
100
AcDbEntity
  8
C-4
  6
Continuous
 62
     7
370
     5
100
AcDbLine
 10
-371.4761707385337
 20
1148.820730292663
 30
0.0
 11
-371.4761707385337
 21
955.8216276744199
 31
0.0
  0
LINE
  5
4AB
330
1F
100
AcDbEntity
  8
C-4
  6
Continuous
 62
     7
370
     5
100
AcDbLine
 10
-366.4761707385337
 20
1148.820730292663
 30
0.0
 11
-366.4761707385337
 21
955.8216276744199
 31
0.0
  0
TEXT
  5
4AC
330
1F
100
AcDbEntity
  8
C-4
  6
Continuous
 62
     2
370
   211
100
AcDbText
 10
-857.2854346637171
 20
1157.460730292663
 30
0.0
 40
30.48
  1
5
 41
0.9999999999999998
  7
ＭＳ ゴシック
100
AcDbText
  0
TEXT
  5
4AD
330
1F
100
AcDbEntity
  8
C-4
  6
Continuous
 62
     2
370
   211
100
AcDbText
 10
-821.6590487142399
 20
1157.460730292663
 30
0.0
 40
30.48
  1
1
 41
0.9999999999999998
  7
ＭＳ ゴシック
100
AcDbText
  0
TEXT
  5
4AE
330
1F
100
AcDbEntity
  8
C-4
  6
Continuous
 62
     2
370
   211
100
AcDbText
 10
-394.4605100522112
 20
1157.460730292663
 30
0.0
 40
30.48
  1
1
 41
0.9999999999999998
  7
ＭＳ ゴシック
100
AcDbText
  0
TEXT
  5
4AF
330
1F
100
AcDbEntity
  8
C-4
  6
Continuous
 62
     2
370
   211
100
AcDbText
 10
-355.7440804234431
 20
1157.460730292663
 30
0.0
 40
30.48
  1
5
 41
0.9999999999999998
  7
ＭＳ ゴシック
100
AcDbText
  0
LINE
  5
4B0
330
1F
100
AcDbEntity
  8
C-4
  6
Continuous
 62
     7
370
     5
100
AcDbLine
 10
-860.4360674347594
 20
1145.820730292663
 30
0.0
 11
-332.2961019158798
 21
1145.820730292663
 31
0.0
  0
LINE
  5
4B1
330
1F
100
AcDbEntity
  8
C-4
  6
Continuous
 62
     7
370
     5
100
AcDbLine
 10
-828.4761707385336
 20
1215.820664308711
 30
0.0
 11
-366.4761707385337
 21
1215.820664308711
 31
0.0
  0
LWPOLYLINE
  5
4B2
330
1F
100
AcDbEntity
  8
C-4
  6
Continuous
 62
     7
370
     5
100
AcDbPolyline
 90
        4
 70
     1
 43
1.0
 10
-827.9761707385336
 20
1215.820664308711
 42
0.4142135623731
 10
-828.4761707385336
 20
1216.320664308711
 42
0.4142135623731
 10
-828.9761707385335
 20
1215.820664308711
 42
0.4142135623731
 10
-828.4761707385336
 20
1215.320664308711
 42
0.4142135623731
  0
LWPOLYLINE
  5
4B3
330
1F
100
AcDbEntity
  8
C-4
  6
Continuous
 62
     7
370
     5
100
AcDbPolyline
 90
        4
 70
     1
 43
1.0
 10
-365.9761707385337
 20
1215.820664308711
 42
0.4142135623731
 10
-366.4761707385337
 20
1216.320664308711
 42
0.4142135623731
 10
-366.9761707385337
 20
1215.820664308711
 42
0.4142135623731
 10
-366.4761707385337
 20
1215.320664308711
 42
0.4142135623731
  0
TEXT
  5
4B4
330
1F
100
AcDbEntity
  8
C-4
  6
Continuous
 62
     2
370
   211
100
AcDbText
 10
-629.9761707385334
 20
1227.460664308711
 30
0.0
 40
30.48
  1
462
 41
1.083333333333333
  7
ＭＳ ゴシック
100
AcDbText
  0
LINE
  5
4B5
330
1F
100
AcDbEntity
  8
C-4
  6
Continuous
 62
     7
370
     5
100
AcDbLine
 10
-828.4761707385336
 20
1218.820664308711
 30
0.0
 11
-828.4761707385336
 21
955.8216276744199
 31
0.0
  0
LINE
  5
4B6
330
1F
100
AcDbEntity
  8
C-4
  6
Continuous
 62
     7
370
     5
100
AcDbLine
 10
-366.4761707385337
 20
1218.820664308711
 30
0.0
 11
-366.4761707385337
 21
955.8216276744199
 31
0.0
  0
LINE
  5
4B7
330
1F
100
AcDbEntity
  8
C-4
  6
Continuous
 62
     7
370
     5
100
AcDbLine
 10
-962.4597754983834
 20
935.8216276744199
 30
0.0
 11
-962.4597754983834
 21
910.8216276744199
 31
0.0
  0
LWPOLYLINE
  5
4B8
330
1F
100
AcDbEntity
  8
C-4
  6
Continuous
 62
     7
370
     5
100
AcDbPolyline
 90
        4
 70
     1
 43
1.0
 10
-961.9597754983834
 20
935.8216276744199
 42
0.4142135623731
 10
-962.4597754983834
 20
936.3216276744198
 42
0.4142135623731
 10
-962.9597754983832
 20
935.8216276744199
 42
0.4142135623731
 10
-962.4597754983834
 20
935.3216276744199
 42
0.4142135623731
  0
LWPOLYLINE
  5
4B9
330
1F
100
AcDbEntity
  8
C-4
  6
Continuous
 62
     7
370
     5
100
AcDbPolyline
 90
        4
 70
     1
 43
1.0
 10
-961.9597754983834
 20
910.8216276744199
 42
0.4142135623731
 10
-962.4597754983834
 20
911.3216276744198
 42
0.4142135623731
 10
-962.9597754983832
 20
910.8216276744199
 42
0.4142135623731
 10
-962.4597754983834
 20
910.3216276744199
 42
0.4142135623731
  0
LINE
  5
4BA
330
1F
100
AcDbEntity
  8
C-4
  6
Continuous
 62
     7
370
     5
100
AcDbLine
 10
-962.4597754983834
 20
910.8216276744199
 30
0.0
 11
-962.4597754983834
 21
510.8216276744201
 31
0.0
  0
LWPOLYLINE
  5
4BB
330
1F
100
AcDbEntity
  8
C-4
  6
Continuous
 62
     7
370
     5
100
AcDbPolyline
 90
        4
 70
     1
 43
1.0
 10
-961.9597754983834
 20
510.8216276744201
 42
0.4142135623731
 10
-962.4597754983834
 20
511.3216276744201
 42
0.4142135623731
 10
-962.9597754983832
 20
510.8216276744201
 42
0.4142135623731
 10
-962.4597754983834
 20
510.3216276744201
 42
0.4142135623731
  0
LINE
  5
4BC
330
1F
100
AcDbEntity
  8
C-4
  6
Continuous
 62
     7
370
     5
100
AcDbLine
 10
-962.4597754983834
 20
510.8216276744201
 30
0.0
 11
-962.4597754983834
 21
485.86162767442
 31
0.0
  0
LWPOLYLINE
  5
4BD
330
1F
100
AcDbEntity
  8
C-4
  6
Continuous
 62
     7
370
     5
100
AcDbPolyline
 90
        4
 70
     1
 43
1.0
 10
-961.9597754983834
 20
485.86162767442
 42
0.4142135623731
 10
-962.4597754983834
 20
486.36162767442
 42
0.4142135623731
 10
-962.9597754983832
 20
485.86162767442
 42
0.4142135623731
 10
-962.4597754983834
 20
485.3616276744201
 42
0.4142135623731
  0
LINE
  5
4BE
330
1F
100
AcDbEntity
  8
C-4
  6
Continuous
 62
     7
370
     5
100
AcDbLine
 10
-965.4597754983834
 20
935.8216276744199
 30
0.0
 11
-842.4761707385334
 21
935.8216276744199
 31
0.0
  0
LINE
  5
4BF
330
1F
100
AcDbEntity
  8
C-4
  6
Continuous
 62
     7
370
     5
100
AcDbLine
 10
-965.4597754983834
 20
910.8216276744199
 30
0.0
 11
-842.4761707385334
 21
910.8216276744199
 31
0.0
  0
LINE
  5
4C0
330
1F
100
AcDbEntity
  8
C-4
  6
Continuous
 62
     7
370
     5
100
AcDbLine
 10
-965.4597754983834
 20
510.8216276744201
 30
0.0
 11
-842.4761707385334
 21
510.8216276744201
 31
0.0
  0
LINE
  5
4C1
330
1F
100
AcDbEntity
  8
C-4
  6
Continuous
 62
     7
370
     5
100
AcDbLine
 10
-965.4597754983834
 20
485.86162767442
 30
0.0
 11
-842.4761707385334
 21
485.86162767442
 31
0.0
  0
TEXT
  5
4C2
330
1F
100
AcDbEntity
  8
C-4
  6
Continuous
 62
     2
370
   211
100
AcDbText
 10
-974.0997754983829
 20
678.3216276744199
 30
0.0
 40
30.48
  1
400
 50
90.0
 41
1.083333333333333
  7
ＭＳ ゴシック
100
AcDbText
  0
TEXT
  5
4C3
330
1F
100
AcDbEntity
  8
C-4
  6
Continuous
 62
     2
370
   211
100
AcDbText
 10
-974.0997754983829
 20
882.7100172440564
 30
0.0
 40
30.48
  1
25
 50
90.0
 41
1.0625
  7
ＭＳ ゴシック
100
AcDbText
  0
TEXT
  5
4C4
330
1F
100
AcDbEntity
  8
C-4
  6
Continuous
 62
     2
370
   211
100
AcDbText
 10
-974.0997754983829
 20
491.6481382885922
 30
0.0
 40
30.48
  1
25
 50
90.0
 41
1.0625
  7
ＭＳ ゴシック
100
AcDbText
  0
LINE
  5
4C5
330
1F
100
AcDbEntity
  8
C-4
  6
Continuous
 62
     7
370
     5
100
AcDbLine
 10
-1032.476443248855
 20
941.8216276744201
 30
0.0
 11
-1032.476443248855
 21
936.8216276744201
 31
0.0
  0
LWPOLYLINE
  5
4C6
330
1F
100
AcDbEntity
  8
C-4
  6
Continuous
 62
     7
370
     5
100
AcDbPolyline
 90
        4
 70
     1
 43
1.0
 10
-1031.976443248855
 20
941.8216276744201
 42
0.4142135623731
 10
-1032.476443248855
 20
942.32162767442
 42
0.4142135623731
 10
-1032.976443248855
 20
941.8216276744201
 42
0.4142135623731
 10
-1032.476443248855
 20
941.3216276744201
 42
0.4142135623731
  0
LWPOLYLINE
  5
4C7
330
1F
100
AcDbEntity
  8
C-4
  6
Continuous
 62
     7
370
     5
100
AcDbPolyline
 90
        4
 70
     1
 43
1.0
 10
-1031.976443248855
 20
936.8216276744201
 42
0.4142135623731
 10
-1032.476443248855
 20
937.32162767442
 42
0.4142135623731
 10
-1032.976443248855
 20
936.8216276744201
 42
0.4142135623731
 10
-1032.476443248855
 20
936.3216276744201
 42
0.4142135623731
  0
LINE
  5
4C8
330
1F
100
AcDbEntity
  8
C-4
  6
Continuous
 62
     7
370
     5
100
AcDbLine
 10
-1032.476443248855
 20
936.8216276744201
 30
0.0
 11
-1032.476443248855
 21
935.8216276744199
 31
0.0
  0
LWPOLYLINE
  5
4C9
330
1F
100
AcDbEntity
  8
C-4
  6
Continuous
 62
     7
370
     5
100
AcDbPolyline
 90
        4
 70
     1
 43
1.0
 10
-1031.976443248855
 20
935.8216276744199
 42
0.4142135623731
 10
-1032.476443248855
 20
936.3216276744198
 42
0.4142135623731
 10
-1032.976443248855
 20
935.8216276744199
 42
0.4142135623731
 10
-1032.476443248855
 20
935.3216276744199
 42
0.4142135623731
  0
LWPOLYLINE
  5
4CA
330
1F
100
AcDbEntity
  8
C-4
  6
Continuous
 62
     7
370
     5
100
AcDbPolyline
 90
        4
 70
     1
 43
1.0
 10
-1031.976443248855
 20
485.86162767442
 42
0.4142135623731
 10
-1032.476443248855
 20
486.36162767442
 42
0.4142135623731
 10
-1032.976443248855
 20
485.86162767442
 42
0.4142135623731
 10
-1032.476443248855
 20
485.3616276744201
 42
0.4142135623731
  0
LINE
  5
4CB
330
1F
100
AcDbEntity
  8
C-4
  6
Continuous
 62
     7
370
     5
100
AcDbLine
 10
-1032.476443248855
 20
485.86162767442
 30
0.0
 11
-1032.476443248855
 21
484.8216276744202
 31
0.0
  0
LWPOLYLINE
  5
4CC
330
1F
100
AcDbEntity
  8
C-4
  6
Continuous
 62
     7
370
     5
100
AcDbPolyline
 90
        4
 70
     1
 43
1.0
 10
-1031.976443248855
 20
484.8216276744202
 42
0.4142135623731
 10
-1032.476443248855
 20
485.3216276744201
 42
0.4142135623731
 10
-1032.976443248855
 20
484.8216276744202
 42
0.4142135623731
 10
-1032.476443248855
 20
484.3216276744203
 42
0.4142135623731
  0
LINE
  5
4CD
330
1F
100
AcDbEntity
  8
C-4
  6
Continuous
 62
     7
370
     5
100
AcDbLine
 10
-1032.476443248855
 20
484.8216276744202
 30
0.0
 11
-1032.476443248855
 21
479.8216276744202
 31
0.0
  0
LWPOLYLINE
  5
4CE
330
1F
100
AcDbEntity
  8
C-4
  6
Continuous
 62
     7
370
     5
100
AcDbPolyline
 90
        4
 70
     1
 43
1.0
 10
-1031.976443248855
 20
479.8216276744202
 42
0.4142135623731
 10
-1032.476443248855
 20
480.3216276744201
 42
0.4142135623731
 10
-1032.976443248855
 20
479.8216276744202
 42
0.4142135623731
 10
-1032.476443248855
 20
479.3216276744203
 42
0.4142135623731
  0
LINE
  5
4CF
330
1F
100
AcDbEntity
  8
C-4
  6
Continuous
 62
     7
370
     5
100
AcDbLine
 10
-1035.476443248855
 20
479.8216276744202
 30
0.0
 11
-848.4761707385336
 21
479.8216276744202
 31
0.0
  0
LINE
  5
4D0
330
1F
100
AcDbEntity
  8
C-4
  6
Continuous
 62
     7
370
     5
100
AcDbLine
 10
-1032.476443248855
 20
972.5286122418399
 30
0.0
 11
-1032.476443248855
 21
451.6593377330571
 31
0.0
  0
LINE
  5
4D1
330
1F
100
AcDbEntity
  8
C-4
  6
Continuous
 62
     7
370
     5
100
AcDbLine
 10
-1035.476443248855
 20
484.8216276744202
 30
0.0
 11
-842.4761707385334
 21
484.8216276744202
 31
0.0
  0
LINE
  5
4D2
330
1F
100
AcDbEntity
  8
C-4
  6
Continuous
 62
     7
370
     5
100
AcDbLine
 10
-1035.476443248855
 20
941.8216276744201
 30
0.0
 11
-842.4761707385334
 21
941.8216276744201
 31
0.0
  0
LINE
  5
4D3
330
1F
100
AcDbEntity
  8
C-4
  6
Continuous
 62
     7
370
     5
100
AcDbLine
 10
-1035.476443248855
 20
936.8216276744201
 30
0.0
 11
-842.4761707385334
 21
936.8216276744201
 31
0.0
  0
LINE
  5
4D4
330
1F
100
AcDbEntity
  8
C-4
  6
Continuous
 62
     7
370
     5
100
AcDbLine
 10
-1035.476443248855
 20
935.8216276744199
 30
0.0
 11
-842.4761707385334
 21
935.8216276744199
 31
0.0
  0
LINE
  5
4D5
330
1F
100
AcDbEntity
  8
C-4
  6
Continuous
 62
     7
370
     5
100
AcDbLine
 10
-1035.476443248855
 20
485.86162767442
 30
0.0
 11
-842.4761707385334
 21
485.86162767442
 31
0.0
  0
TEXT
  5
4D6
330
1F
100
AcDbEntity
  8
C-4
  6
Continuous
 62
     2
370
   211
100
AcDbText
 10
-1044.116443248855
 20
678.3416276744199
 30
0.0
 40
30.48
  1
450
 50
90.0
 41
1.083333333333333
  7
ＭＳ ゴシック
100
AcDbText
  0
TEXT
  5
4D7
330
1F
100
AcDbEntity
  8
C-4
  6
Continuous
 62
     2
370
   211
100
AcDbText
 10
-1044.116443248855
 20
949.2368399864463
 30
0.0
 40
30.48
  1
5
 50
90.0
 41
0.9999999999999998
  7
ＭＳ ゴシック
100
AcDbText
  0
TEXT
  5
4D8
330
1F
100
AcDbEntity
  8
C-4
  6
Continuous
 62
     2
370
   211
100
AcDbText
 10
-1044.116443248855
 20
916.8822649915135
 30
0.0
 40
30.48
  1
1
 50
90.0
 41
0.9999999999999998
  7
ＭＳ ゴシック
100
AcDbText
  0
TEXT
  5
4D9
330
1F
100
AcDbEntity
  8
C-4
  6
Continuous
 62
     2
370
   211
100
AcDbText
 10
-1044.116443248855
 20
483.6503781774852
 30
0.0
 40
30.48
  1
1
 50
90.0
 41
0.9999999999999998
  7
ＭＳ ゴシック
100
AcDbText
  0
TEXT
  5
4DA
330
1F
100
AcDbEntity
  8
C-4
  6
Continuous
 62
     2
370
   211
100
AcDbText
 10
-1044.116443248855
 20
453.3558323020799
 30
0.0
 40
30.48
  1
5
 50
90.0
 41
0.9999999999999998
  7
ＭＳ ゴシック
100
AcDbText
  0
LINE
  5
4DB
330
1F
100
AcDbEntity
  8
C-4
  6
Continuous
 62
     7
370
     5
100
AcDbLine
 10
-1102.524799029618
 20
479.8216276744202
 30
0.0
 11
-1102.524799029618
 21
941.8216276744201
 31
0.0
  0
LWPOLYLINE
  5
4DC
330
1F
100
AcDbEntity
  8
C-4
  6
Continuous
 62
     7
370
     5
100
AcDbPolyline
 90
        4
 70
     1
 43
1.0
 10
-1102.024799029618
 20
479.8216276744202
 42
0.4142135623731
 10
-1102.524799029618
 20
480.3216276744201
 42
0.4142135623731
 10
-1103.024799029618
 20
479.8216276744202
 42
0.4142135623731
 10
-1102.524799029618
 20
479.3216276744203
 42
0.4142135623731
  0
LWPOLYLINE
  5
4DD
330
1F
100
AcDbEntity
  8
C-4
  6
Continuous
 62
     7
370
     5
100
AcDbPolyline
 90
        4
 70
     1
 43
1.0
 10
-1102.024799029618
 20
941.8216276744201
 42
0.4142135623731
 10
-1102.524799029618
 20
942.32162767442
 42
0.4142135623731
 10
-1103.024799029618
 20
941.8216276744201
 42
0.4142135623731
 10
-1102.524799029618
 20
941.3216276744201
 42
0.4142135623731
  0
LINE
  5
4DE
330
1F
100
AcDbEntity
  8
C-4
  6
Continuous
 62
     7
370
     5
100
AcDbLine
 10
-1105.524799029617
 20
941.8216276744201
 30
0.0
 11
-842.4761707385334
 21
941.8216276744201
 31
0.0
  0
LINE
  5
4DF
330
1F
100
AcDbEntity
  8
C-4
  6
Continuous
 62
     7
370
     5
100
AcDbLine
 10
-1105.524799029617
 20
479.8216276744202
 30
0.0
 11
-842.4761707385334
 21
479.8216276744202
 31
0.0
  0
TEXT
  5
4E0
330
1F
100
AcDbEntity
  8
C-4
  6
Continuous
 62
     2
370
   211
100
AcDbText
 10
-1114.164799029618
 20
678.3216276744201
 30
0.0
 40
30.48
  1
462
 50
90.0
 41
1.083333333333333
  7
ＭＳ ゴシック
100
AcDbText
  0
LINE
  5
4E1
330
1F
100
AcDbEntity
  8
D-5
  6
Continuous
 62
     7
370
     5
100
AcDbLine
 10
1426.689459314938
 20
364.8065717116893
 30
0.0
 11
1623.609581029268
 21
364.8065717116893
 31
0.0
  0
TEXT
  5
4E2
330
1F
100
AcDbEntity
  8
D-5
  6
Continuous
 62
     2
370
     5
100
AcDbText
 10
1428.926573747829
 20
385.4465717116893
 30
0.0
 40
30.48
  1
C-C断面図
 41
1.097222222222222
  7
ＭＳ ゴシック
100
AcDbText
  0
LINE
  5
4E3
330
1F
100
AcDbEntity
  8
D-2
  6
Continuous
 62
     3
370
     5
100
AcDbLine
 10
1576.412741784185
 20
628.620921594415
 30
0.0
 11
1576.412741784185
 21
635.6209826295712
 31
0.0
  0
LINE
  5
4E4
330
1F
100
AcDbEntity
  8
D-2
  6
Continuous
 62
     3
370
     5
100
AcDbLine
 10
1616.412131432622
 20
635.6209826295712
 30
0.0
 11
1576.412741784185
 21
635.6209826295712
 31
0.0
  0
LINE
  5
4E5
330
1F
100
AcDbEntity
  8
D-2
  6
Continuous
 62
     3
370
     5
100
AcDbLine
 10
1616.412131432622
 20
635.6209826295712
 30
0.0
 11
1616.412131432622
 21
629.620921594415
 31
0.0
  0
LINE
  5
4E6
330
1F
100
AcDbEntity
  8
D-2
  6
Continuous
 62
     3
370
     5
100
AcDbLine
 10
1616.412131432622
 20
634.6209826295712
 30
0.0
 11
1616.412131432622
 21
628.620921594415
 31
0.0
  0
LINE
  5
4E7
330
1F
100
AcDbEntity
  8
D-2
  6
Continuous
 62
     3
370
     5
100
AcDbLine
 10
1616.412131432622
 20
628.620921594415
 30
0.0
 11
1576.412741784185
 21
628.620921594415
 31
0.0
  0
ARC
  5
4E8
330
1F
100
AcDbEntity
  8
D-2
  6
Continuous
 62
     3
370
     5
100
AcDbCircle
 10
1587.912253502935
 20
623.620921594415
 30
0.0
 40
5.0
100
AcDbArc
 50
0.0
 51
90.0
  0
ARC
  5
4E9
330
1F
100
AcDbEntity
  8
D-2
  6
Continuous
 62
     3
370
     5
100
AcDbCircle
 10
1604.912619713873
 20
623.620921594415
 30
0.0
 40
5.0
100
AcDbArc
 50
90.0
 51
180.0
  0
LINE
  5
4EA
330
1F
100
AcDbEntity
  8
D-2
  6
Continuous
 62
     3
370
     5
100
AcDbLine
 10
1531.412741784185
 20
635.6209826295712
 30
0.0
 11
1491.413352135747
 21
635.6209826295712
 31
0.0
  0
LINE
  5
4EB
330
1F
100
AcDbEntity
  8
D-2
  6
Continuous
 62
     3
370
     5
100
AcDbLine
 10
1491.413352135747
 20
635.6209826295712
 30
0.0
 11
1491.413352135747
 21
628.620921594415
 31
0.0
  0
LINE
  5
4EC
330
1F
100
AcDbEntity
  8
D-2
  6
Continuous
 62
     3
370
     5
100
AcDbLine
 10
1531.412741784185
 20
635.6209826295712
 30
0.0
 11
1531.412741784185
 21
628.620921594415
 31
0.0
  0
LINE
  5
4ED
330
1F
100
AcDbEntity
  8
D-2
  6
Continuous
 62
     3
370
     5
100
AcDbLine
 10
1491.413352135747
 20
628.620921594415
 30
0.0
 11
1531.412741784185
 21
628.620921594415
 31
0.0
  0
ARC
  5
4EE
330
1F
100
AcDbEntity
  8
D-2
  6
Continuous
 62
     3
370
     5
100
AcDbCircle
 10
1502.912863854497
 20
623.620921594415
 30
0.0
 40
5.0
100
AcDbArc
 50
0.0
 51
90.0
  0
ARC
  5
4EF
330
1F
100
AcDbEntity
  8
D-2
  6
Continuous
 62
     3
370
     5
100
AcDbCircle
 10
1519.913230065435
 20
623.620921594415
 30
0.0
 40
5.0
100
AcDbArc
 50
90.0
 51
180.0
  0
LINE
  5
4F0
330
1F
100
AcDbEntity
  8
D-2
  6
Continuous
 62
     3
370
     5
100
AcDbLine
 10
1531.412741784185
 20
635.6209826295712
 30
0.0
 11
1576.412741784185
 21
635.6209826295712
 31
0.0
  0
LINE
  5
4F1
330
1F
100
AcDbEntity
  8
D-2
  6
Continuous
 62
     3
370
     5
100
AcDbLine
 10
1369.712546471684
 20
635.6209826295712
 30
0.0
 11
1406.912497643559
 21
635.6209826295712
 31
0.0
  0
LINE
  5
4F2
330
1F
100
AcDbEntity
  8
D-2
  6
Continuous
 62
     3
370
     5
100
AcDbLine
 10
1406.412863854496
 20
635.6209826295712
 30
0.0
 11
1406.412863854496
 21
628.620921594415
 31
0.0
  0
LINE
  5
4F3
330
1F
100
AcDbEntity
  8
D-2
  6
Continuous
 62
     3
370
     5
100
AcDbLine
 10
1406.412863854496
 20
628.620921594415
 30
0.0
 11
1446.412253502934
 21
628.620921594415
 31
0.0
  0
ARC
  5
4F4
330
1F
100
AcDbEntity
  8
D-2
  6
Continuous
 62
     3
370
     5
100
AcDbCircle
 10
1417.912375573247
 20
623.620921594415
 30
0.0
 40
5.0
100
AcDbArc
 50
0.0
 51
90.0
  0
ARC
  5
4F5
330
1F
100
AcDbEntity
  8
D-2
  6
Continuous
 62
     3
370
     5
100
AcDbCircle
 10
1434.912741784184
 20
623.620921594415
 30
0.0
 40
5.0
100
AcDbArc
 50
90.0
 51
180.0
  0
LINE
  5
4F6
330
1F
100
AcDbEntity
  8
D-2
  6
Continuous
 62
     3
370
     5
100
AcDbLine
 10
1446.412253502934
 20
628.620921594415
 30
0.0
 11
1446.412253502934
 21
635.6209826295712
 31
0.0
  0
LINE
  5
4F7
330
1F
100
AcDbEntity
  8
D-2
  6
Continuous
 62
     3
370
     5
100
AcDbLine
 10
1406.412863854496
 20
635.6209826295712
 30
0.0
 11
1491.412619713872
 21
635.6209826295712
 31
0.0
  0
LINE
  5
4F8
330
1F
100
AcDbEntity
  8
D-2
  6
Continuous
 62
     3
370
     5
100
AcDbLine
 10
1615.912253502935
 20
635.6209826295712
 30
0.0
 11
1653.61220467481
 21
635.6209826295712
 31
0.0
  0
LINE
  5
4F9
330
1F
100
AcDbEntity
  8
D-2
  6
Continuous
 62
     3
370
     5
100
AcDbLine
 10
1369.712546471684
 20
535.6211063494827
 30
0.0
 11
1653.61220467481
 21
535.6211063494827
 31
0.0
  0
LINE
  5
4FA
330
1F
100
AcDbEntity
  8
D-4
  6
Continuous
 62
     7
370
     5
100
AcDbLine
 10
1406.412863854496
 20
743.30134151629
 30
0.0
 11
1446.412253502934
 21
743.30134151629
 31
0.0
  0
LWPOLYLINE
  5
4FB
330
1F
100
AcDbEntity
  8
D-4
  6
Continuous
 62
     7
370
     5
100
AcDbPolyline
 90
        4
 70
     1
 43
1.0
 10
1406.912863854496
 20
743.30134151629
 42
0.4142135623731
 10
1406.412863854496
 20
743.80134151629
 42
0.4142135623731
 10
1405.912863854496
 20
743.30134151629
 42
0.4142135623731
 10
1406.412863854496
 20
742.80134151629
 42
0.4142135623731
  0
LWPOLYLINE
  5
4FC
330
1F
100
AcDbEntity
  8
D-4
  6
Continuous
 62
     7
370
     5
100
AcDbPolyline
 90
        4
 70
     1
 43
1.0
 10
1446.912253502934
 20
743.30134151629
 42
0.4142135623731
 10
1446.412253502934
 20
743.80134151629
 42
0.4142135623731
 10
1445.912253502934
 20
743.30134151629
 42
0.4142135623731
 10
1446.412253502934
 20
742.80134151629
 42
0.4142135623731
  0
LINE
  5
4FD
330
1F
100
AcDbEntity
  8
D-4
  6
Continuous
 62
     7
370
     5
100
AcDbLine
 10
1406.412863854496
 20
746.30134151629
 30
0.0
 11
1406.412863854496
 21
655.6209826295712
 31
0.0
  0
LINE
  5
4FE
330
1F
100
AcDbEntity
  8
D-4
  6
Continuous
 62
     7
370
     5
100
AcDbLine
 10
1446.412253502934
 20
746.30134151629
 30
0.0
 11
1446.412253502934
 21
655.6209826295712
 31
0.0
  0
TEXT
  5
4FF
330
1F
100
AcDbEntity
  8
D-4
  6
Continuous
 62
     2
370
   211
100
AcDbText
 10
1416.412558678715
 20
754.9413415162899
 30
0.0
 40
30.48
  1
8
 41
0.9999999999999998
  7
ＭＳ ゴシック
100
AcDbText
  0
LINE
  5
500
330
1F
100
AcDbEntity
  8
D-4
  6
Continuous
 62
     7
370
     5
100
AcDbLine
 10
1446.412253502934
 20
743.30134151629
 30
0.0
 11
1491.413352135747
 21
743.30134151629
 31
0.0
  0
LWPOLYLINE
  5
501
330
1F
100
AcDbEntity
  8
D-4
  6
Continuous
 62
     7
370
     5
100
AcDbPolyline
 90
        4
 70
     1
 43
1.0
 10
1491.913352135748
 20
743.30134151629
 42
0.4142135623731
 10
1491.413352135747
 20
743.80134151629
 42
0.4142135623731
 10
1490.913352135747
 20
743.30134151629
 42
0.4142135623731
 10
1491.413352135747
 20
742.80134151629
 42
0.4142135623731
  0
LINE
  5
502
330
1F
100
AcDbEntity
  8
D-4
  6
Continuous
 62
     7
370
     5
100
AcDbLine
 10
1491.413352135747
 20
746.30134151629
 30
0.0
 11
1491.413352135747
 21
655.6209826295712
 31
0.0
  0
TEXT
  5
503
330
1F
100
AcDbEntity
  8
D-4
  6
Continuous
 62
     2
370
   211
100
AcDbText
 10
1458.912802819341
 20
754.9413415162899
 30
0.0
 40
30.48
  1
9
 41
0.9999999999999998
  7
ＭＳ ゴシック
100
AcDbText
  0
LINE
  5
504
330
1F
100
AcDbEntity
  8
D-4
  6
Continuous
 62
     7
370
     5
100
AcDbLine
 10
1491.413352135747
 20
743.30134151629
 30
0.0
 11
1531.412741784185
 21
743.30134151629
 31
0.0
  0
LWPOLYLINE
  5
505
330
1F
100
AcDbEntity
  8
D-4
  6
Continuous
 62
     7
370
     5
100
AcDbPolyline
 90
        4
 70
     1
 43
1.0
 10
1531.912741784185
 20
743.30134151629
 42
0.4142135623731
 10
1531.412741784185
 20
743.80134151629
 42
0.4142135623731
 10
1530.912741784185
 20
743.30134151629
 42
0.4142135623731
 10
1531.412741784185
 20
742.80134151629
 42
0.4142135623731
  0
LINE
  5
506
330
1F
100
AcDbEntity
  8
D-4
  6
Continuous
 62
     7
370
     5
100
AcDbLine
 10
1531.412741784185
 20
746.30134151629
 30
0.0
 11
1531.412741784185
 21
655.6209826295712
 31
0.0
  0
TEXT
  5
507
330
1F
100
AcDbEntity
  8
D-4
  6
Continuous
 62
     2
370
   211
100
AcDbText
 10
1501.413046959966
 20
754.9413415162899
 30
0.0
 40
30.48
  1
8
 41
0.9999999999999998
  7
ＭＳ ゴシック
100
AcDbText
  0
LINE
  5
508
330
1F
100
AcDbEntity
  8
D-4
  6
Continuous
 62
     7
370
     5
100
AcDbLine
 10
1531.412741784185
 20
743.30134151629
 30
0.0
 11
1576.412741784185
 21
743.30134151629
 31
0.0
  0
LWPOLYLINE
  5
509
330
1F
100
AcDbEntity
  8
D-4
  6
Continuous
 62
     7
370
     5
100
AcDbPolyline
 90
        4
 70
     1
 43
1.0
 10
1576.912741784185
 20
743.30134151629
 42
0.4142135623731
 10
1576.412741784185
 20
743.80134151629
 42
0.4142135623731
 10
1575.912741784185
 20
743.30134151629
 42
0.4142135623731
 10
1576.412741784185
 20
742.80134151629
 42
0.4142135623731
  0
LINE
  5
50A
330
1F
100
AcDbEntity
  8
D-4
  6
Continuous
 62
     7
370
     5
100
AcDbLine
 10
1576.412741784185
 20
746.30134151629
 30
0.0
 11
1576.412741784185
 21
655.6209826295712
 31
0.0
  0
TEXT
  5
50B
330
1F
100
AcDbEntity
  8
D-4
  6
Continuous
 62
     2
370
   211
100
AcDbText
 10
1543.912741784185
 20
754.9413415162899
 30
0.0
 40
30.48
  1
9
 41
0.9999999999999998
  7
ＭＳ ゴシック
100
AcDbText
  0
LINE
  5
50C
330
1F
100
AcDbEntity
  8
D-4
  6
Continuous
 62
     7
370
     5
100
AcDbLine
 10
1576.412741784185
 20
743.30134151629
 30
0.0
 11
1616.412131432622
 21
743.30134151629
 31
0.0
  0
LWPOLYLINE
  5
50D
330
1F
100
AcDbEntity
  8
D-4
  6
Continuous
 62
     7
370
     5
100
AcDbPolyline
 90
        4
 70
     1
 43
1.0
 10
1616.912131432623
 20
743.30134151629
 42
0.4142135623731
 10
1616.412131432622
 20
743.80134151629
 42
0.4142135623731
 10
1615.912131432622
 20
743.30134151629
 42
0.4142135623731
 10
1616.412131432622
 20
742.80134151629
 42
0.4142135623731
  0
LINE
  5
50E
330
1F
100
AcDbEntity
  8
D-4
  6
Continuous
 62
     7
370
     5
100
AcDbLine
 10
1616.412131432622
 20
746.30134151629
 30
0.0
 11
1616.412131432622
 21
655.6209826295712
 31
0.0
  0
TEXT
  5
50F
330
1F
100
AcDbEntity
  8
D-4
  6
Continuous
 62
     2
370
   211
100
AcDbText
 10
1586.412436608404
 20
754.9413415162899
 30
0.0
 40
30.48
  1
8
 41
0.9999999999999998
  7
ＭＳ ゴシック
100
AcDbText
  0
LINE
  5
510
330
1F
100
AcDbEntity
  8
D-4
  6
Continuous
 62
     7
370
     5
100
AcDbLine
 10
1748.470202217285
 20
635.6209826295712
 30
0.0
 11
1748.470202217285
 21
535.6211063494827
 31
0.0
  0
LWPOLYLINE
  5
511
330
1F
100
AcDbEntity
  8
D-4
  6
Continuous
 62
     7
370
     5
100
AcDbPolyline
 90
        4
 70
     1
 43
1.0
 10
1748.970202217285
 20
635.6209826295712
 42
0.4142135623731
 10
1748.470202217285
 20
636.1209826295712
 42
0.4142135623731
 10
1747.970202217285
 20
635.6209826295712
 42
0.4142135623731
 10
1748.470202217285
 20
635.1209826295712
 42
0.4142135623731
  0
LWPOLYLINE
  5
512
330
1F
100
AcDbEntity
  8
D-4
  6
Continuous
 62
     7
370
     5
100
AcDbPolyline
 90
        4
 70
     1
 43
1.0
 10
1748.970202217285
 20
535.6211063494827
 42
0.4142135623731
 10
1748.470202217285
 20
536.1211063494827
 42
0.4142135623731
 10
1747.970202217285
 20
535.6211063494827
 42
0.4142135623731
 10
1748.470202217285
 20
535.1211063494827
 42
0.4142135623731
  0
LINE
  5
513
330
1F
100
AcDbEntity
  8
D-4
  6
Continuous
 62
     7
370
     5
100
AcDbLine
 10
1751.470202217285
 20
635.6209826295712
 30
0.0
 11
1673.61220467481
 21
635.6209826295712
 31
0.0
  0
LINE
  5
514
330
1F
100
AcDbEntity
  8
D-4
  6
Continuous
 62
     7
370
     5
100
AcDbLine
 10
1751.470202217285
 20
535.6211063494827
 30
0.0
 11
1673.61220467481
 21
535.6211063494827
 31
0.0
  0
TEXT
  5
515
330
1F
100
AcDbEntity
  8
D-4
  6
Continuous
 62
     2
370
   211
100
AcDbText
 10
1736.830202217285
 20
564.371044489527
 30
0.0
 40
30.48
  1
20
 50
90.0
 41
1.0625
  7
ＭＳ ゴシック
100
AcDbText
  0
SOLID
  5
516
330
1F
100
AcDbEntity
  8
C-5
  6
Continuous
 62
     4
370
     5
100
AcDbTrace
 10
-595.4761707385337
 20
1002.430847298113
 30
0.0
 11
-595.4761707385337
 21
1042.430847298113
 31
0.0
 12
-599.4761707385335
 22
1002.430847298113
 32
0.0
 13
-599.4761707385335
 23
1042.430847298113
 33
0.0
  0
LINE
  5
517
330
1F
100
AcDbEntity
  8
C-5
  6
Continuous
 62
     4
370
     5
100
AcDbLine
 10
-587.8100809408216
 20
1023.411844171587
 30
0.0
 11
-538.5606882578802
 21
1023.411844171587
 31
0.0
  0
LINE
  5
518
330
1F
100
AcDbEntity
  8
C-5
  6
Continuous
 62
     4
370
     5
100
AcDbLine
 10
-587.8100809408216
 20
1023.411844171587
 30
0.0
 11
-563.0239594064766
 21
1020.148689366085
 31
0.0
  0
LINE
  5
519
330
1F
100
AcDbEntity
  8
C-5
  6
Continuous
 62
     4
370
     5
100
AcDbLine
 10
-587.8100809408216
 20
1023.411844171587
 30
0.0
 11
-563.0239594064766
 21
1026.674998977088
 31
0.0
  0
TEXT
  5
51A
330
1F
100
AcDbEntity
  8
C-5
  6
Continuous
 62
     2
370
     5
100
AcDbText
 10
-530.8499171239299
 20
1011.206662151383
 30
0.0
 40
30.48
  1
A
 41
0.9999999999999998
  7
ＭＳ ゴシック
100
AcDbText
  0
TEXT
  5
51B
330
1F
100
AcDbEntity
  8
D-4
  6
Continuous
 62
     2
370
     5
100
AcDbText
 10
-722.8501937391377
 20
-37.79296865413492
 30
0.0
 40
30.48
  1
1
 41
0.9999999999999998
  7
ＭＳ ゴシック
100
AcDbText
  0
LINE
  5
51C
330
1F
100
AcDbEntity
  8
D-4
  6
Continuous
 62
     7
370
     5
100
AcDbLine
 10
-1414.055203887195
 20
-48.43226293514078
 30
0.0
 11
-645.9193761290749
 21
-48.43226293514078
 31
0.0
  0
TEXT
  5
51D
330
1F
100
AcDbEntity
  8
D-4
  6
Continuous
 62
     2
370
     5
100
AcDbText
 10
-673.0388729844208
 20
-37.79296865413492
 30
0.0
 40
30.48
  1
5
 41
0.9999999999999998
  7
ＭＳ ゴシック
100
AcDbText
  0
TEXT
  5
51E
330
1F
100
AcDbEntity
  8
D-5
  6
Continuous
 62
     2
370
     5
100
AcDbText
 10
-1140.881445909027
 20
-1069.694941407314
 30
0.0
 40
30.48
  1
A断面詳細図　Ｓ＝１：２
 50
359.9999375525338
 41
1.114130434782609
  7
ＭＳ ゴシック
100
AcDbText
  0
LINE
  5
51F
330
1F
100
AcDbEntity
  8
D-5
  6
Continuous
 62
     7
370
     5
100
AcDbLine
 10
-633.6308541164962
 20
-1087.83463623153
 30
0.0
 11
-1147.321512052961
 21
-1087.83463623153
 31
0.0
  0
LINE
  5
520
330
1F
100
AcDbEntity
  8
C-5
  6
JWW_CENTER1
 62
     4
370
     5
100
AcDbLine
 10
-597.4761707385336
 20
1002.430847298113
 30
0.0
 11
-597.4761707385336
 21
740.654627674418
 31
0.0
  0
LINE
  5
521
330
1F
100
AcDbEntity
  8
D-2
  6
Continuous
 62
     3
370
     5
100
AcDbLine
 10
-723.8887011230998
 20
-358.3521291877308
 30
0.0
 11
-739.3878400325166
 21
-358.3521291877308
 31
0.0
  0
LINE
  5
522
330
1F
100
AcDbEntity
  8
D-2
  6
Continuous
 62
     3
370
     5
100
AcDbLine
 10
-723.8887011230998
 20
-308.8550093872663
 30
0.0
 11
-739.3878400325166
 21
-308.8550093872663
 31
0.0
  0
LINE
  5
523
330
1F
100
AcDbEntity
  8
D-2
  6
Continuous
 62
     3
370
     5
100
AcDbLine
 10
-1409.852585785347
 20
-358.3521291877308
 30
0.0
 11
-1340.772912614888
 21
-358.3521291877308
 31
0.0
  0
LINE
  5
524
330
1F
100
AcDbEntity
  8
D-2
  6
Continuous
 62
     3
370
     5
100
AcDbLine
 10
-1409.852585785347
 20
-308.8550093872663
 30
0.0
 11
-1340.772912614888
 21
-308.8550093872663
 31
0.0
  0
LINE
  5
525
330
1F
100
AcDbEntity
  8
D-2
  6
Continuous
 62
     3
370
     5
100
AcDbLine
 10
-1255.787912614888
 20
-358.3521291877308
 30
0.0
 11
-1333.77284003254
 21
-358.3521291877308
 31
0.0
  0
LINE
  5
526
330
1F
100
AcDbEntity
  8
D-2
  6
Continuous
 62
     3
370
     5
100
AcDbLine
 10
-1255.787912614888
 20
-333.6035692874991
 30
0.0
 11
-1333.77284003254
 21
-333.6035692874991
 31
0.0
  0
LINE
  5
527
330
1F
100
AcDbEntity
  8
D-2
  6
Continuous
 62
     3
370
     5
100
AcDbLine
 10
-1255.787912614888
 20
-308.8550093872663
 30
0.0
 11
-1333.77284003254
 21
-308.8550093872663
 31
0.0
  0
LINE
  5
528
330
1F
100
AcDbEntity
  8
D-2
  6
Continuous
 62
     3
370
     5
100
AcDbLine
 10
-1171.138074275568
 20
-358.3521291877308
 30
0.0
 11
-1248.78784003254
 21
-358.3521291877308
 31
0.0
  0
LINE
  5
529
330
1F
100
AcDbEntity
  8
D-2
  6
Continuous
 62
     3
370
     5
100
AcDbLine
 10
-1171.138074275568
 20
-333.6035692874991
 30
0.0
 11
-1248.78784003254
 21
-333.6035692874991
 31
0.0
  0
LINE
  5
52A
330
1F
100
AcDbEntity
  8
D-2
  6
Continuous
 62
     3
370
     5
100
AcDbLine
 10
-1171.138074275568
 20
-308.8550093872663
 30
0.0
 11
-1248.78784003254
 21
-308.8550093872663
 31
0.0
  0
LINE
  5
52B
330
1F
100
AcDbEntity
  8
D-2
  6
Continuous
 62
     3
370
     5
100
AcDbLine
 10
-1086.238074275564
 20
-358.3521291877308
 30
0.0
 11
-1163.887840032536
 21
-358.3521291877308
 31
0.0
  0
LINE
  5
52C
330
1F
100
AcDbEntity
  8
D-2
  6
Continuous
 62
     3
370
     5
100
AcDbLine
 10
-1086.238074275564
 20
-333.6035692874991
 30
0.0
 11
-1163.887840032536
 21
-333.6035692874991
 31
0.0
  0
LINE
  5
52D
330
1F
100
AcDbEntity
  8
D-2
  6
Continuous
 62
     3
370
     5
100
AcDbLine
 10
-1086.238074275564
 20
-308.8550093872663
 30
0.0
 11
-1163.887840032536
 21
-308.8550093872663
 31
0.0
  0
LINE
  5
52E
330
1F
100
AcDbEntity
  8
D-2
  6
Continuous
 62
     3
370
     5
100
AcDbLine
 10
-1001.338074275561
 20
-358.3521291877308
 30
0.0
 11
-1078.987840032532
 21
-358.3521291877308
 31
0.0
  0
LINE
  5
52F
330
1F
100
AcDbEntity
  8
D-2
  6
Continuous
 62
     3
370
     5
100
AcDbLine
 10
-1001.338074275561
 20
-333.6035692874991
 30
0.0
 11
-1078.987840032532
 21
-333.6035692874991
 31
0.0
  0
LINE
  5
530
330
1F
100
AcDbEntity
  8
D-2
  6
Continuous
 62
     3
370
     5
100
AcDbLine
 10
-1001.338074275561
 20
-308.8550093872663
 30
0.0
 11
-1078.987840032532
 21
-308.8550093872663
 31
0.0
  0
LINE
  5
531
330
1F
100
AcDbEntity
  8
D-2
  6
Continuous
 62
     3
370
     5
100
AcDbLine
 10
-916.4380742755559
 20
-358.3521291877308
 30
0.0
 11
-994.0878400325282
 21
-358.3521291877308
 31
0.0
  0
LINE
  5
532
330
1F
100
AcDbEntity
  8
D-2
  6
Continuous
 62
     3
370
     5
100
AcDbLine
 10
-916.4380742755559
 20
-333.6035692874991
 30
0.0
 11
-994.0878400325282
 21
-333.6035692874991
 31
0.0
  0
LINE
  5
533
330
1F
100
AcDbEntity
  8
D-2
  6
Continuous
 62
     3
370
     5
100
AcDbLine
 10
-916.4380742755559
 20
-308.8550093872663
 30
0.0
 11
-994.0878400325282
 21
-308.8550093872663
 31
0.0
  0
LINE
  5
534
330
1F
100
AcDbEntity
  8
D-2
  6
Continuous
 62
     3
370
     5
100
AcDbLine
 10
-831.5380742755524
 20
-358.3521291877308
 30
0.0
 11
-909.1878400325247
 21
-358.3521291877308
 31
0.0
  0
LINE
  5
535
330
1F
100
AcDbEntity
  8
D-2
  6
Continuous
 62
     3
370
     5
100
AcDbLine
 10
-831.5380742755524
 20
-333.6035692874991
 30
0.0
 11
-909.1878400325247
 21
-333.6035692874991
 31
0.0
  0
LINE
  5
536
330
1F
100
AcDbEntity
  8
D-2
  6
Continuous
 62
     3
370
     5
100
AcDbLine
 10
-831.5380742755524
 20
-308.8550093872663
 30
0.0
 11
-909.1878400325247
 21
-308.8550093872663
 31
0.0
  0
LINE
  5
537
330
1F
100
AcDbEntity
  8
D-2
  6
Continuous
 62
     3
370
     5
100
AcDbLine
 10
-746.3879126148645
 20
-308.8550093872663
 30
0.0
 11
-824.2878400325201
 21
-308.8550093872663
 31
0.0
  0
LINE
  5
538
330
1F
100
AcDbEntity
  8
D-2
  6
Continuous
 62
     3
370
     5
100
AcDbLine
 10
-746.3879126148645
 20
-333.6035692874991
 30
0.0
 11
-824.2878400325201
 21
-333.6035692874991
 31
0.0
  0
LINE
  5
539
330
1F
100
AcDbEntity
  8
D-2
  6
Continuous
 62
     3
370
     5
100
AcDbLine
 10
-746.3879126148645
 20
-358.3521291877308
 30
0.0
 11
-824.2878400325201
 21
-358.3521291877308
 31
0.0
  0
ARC
  5
53A
330
1F
100
AcDbEntity
  8
D-2
  6
Continuous
 62
     3
370
     5
100
AcDbCircle
 10
-743.8734258380488
 20
-343.3316659143991
 30
0.0
 40
25.00000322187269
100
AcDbArc
 50
323.0792846679688
 51
357.9859924316406
  0
LINE
  5
53B
330
1F
100
AcDbEntity
  8
D-2
  6
Continuous
 62
     3
370
     5
100
AcDbLine
 10
-716.3883052193831
 20
-318.603519799534
 30
0.0
 11
-716.3883052193831
 21
-348.6036187754631
 31
0.0
  0
ARC
  5
53C
330
1F
100
AcDbEntity
  8
D-2
  6
Continuous
 62
     3
370
     5
100
AcDbCircle
 10
-733.8773518832347
 20
-344.7940352661725
 30
0.0
 40
15.00000019331236
100
AcDbArc
 50
2.233489990234375
 51
48.24812316894532
  0
ARC
  5
53D
330
1F
100
AcDbEntity
  8
D-2
  6
Continuous
 62
     3
370
     5
100
AcDbCircle
 10
-733.8773518832347
 20
-322.4131033088246
 30
0.0
 40
15.00000019331236
100
AcDbArc
 50
311.7518768310547
 51
357.7665100097656
  0
ARC
  5
53E
330
1F
100
AcDbEntity
  8
D-2
  6
Continuous
 62
     3
370
     5
100
AcDbCircle
 10
-743.8734258380488
 20
-323.875472660598
 30
0.0
 40
25.00000322187269
100
AcDbArc
 50
2.014007568359375
 51
36.92071533203126
  0
LINE
  5
53F
330
1F
100
AcDbEntity
  8
D-2
  6
Continuous
 62
     3
370
     5
100
AcDbLine
 10
-723.8887011230998
 20
-333.6035692874991
 30
0.0
 11
-739.3878400325166
 21
-333.6035692874991
 31
0.0
  0
LINE
  5
540
330
1F
100
AcDbEntity
  8
D-2
  6
Continuous
 62
     3
370
     5
100
AcDbLine
 10
-716.3883052193831
 20
-318.603519799534
 30
0.0
 11
-723.8887011230998
 21
-308.8550093872663
 31
0.0
  0
LINE
  5
541
330
1F
100
AcDbEntity
  8
D-2
  6
Continuous
 62
     3
370
     5
100
AcDbLine
 10
-716.3883052193831
 20
-348.6036187754631
 30
0.0
 11
-723.8887011230998
 21
-358.3521291877308
 31
0.0
  0
LINE
  5
542
330
1F
100
AcDbEntity
  8
D-2
  6
Continuous
 62
     3
370
     5
100
AcDbLine
 10
-722.8883052193833
 20
-280.6035692874985
 30
0.0
 11
-722.8883052193833
 21
-310.1552567354015
 31
0.0
  0
LINE
  5
543
330
1F
100
AcDbEntity
  8
D-2
  6
Continuous
 62
     3
370
     5
100
AcDbLine
 10
-722.8883052193833
 20
-380.6034455675871
 30
0.0
 11
-722.8883052193833
 21
-357.0518818395956
 31
0.0
  0
LINE
  5
544
330
1F
100
AcDbEntity
  8
D-2
  6
Continuous
 62
     3
370
     5
100
AcDbLine
 10
-1340.772912614888
 20
-333.6035692874991
 30
0.0
 11
-1413.886742444829
 21
-333.6035692874991
 31
0.0
  0
LINE
  5
545
330
1F
100
AcDbEntity
  8
D-2
  6
Continuous
 62
     3
370
     5
100
AcDbLine
 10
-1429.852402679879
 20
-345.5780154465961
 30
0.0
 11
-1389.852219574409
 21
-315.5773745774553
 31
0.0
  0
LINE
  5
546
330
1F
100
AcDbEntity
  8
D-0
  6
Continuous
 62
     3
370
     5
100
AcDbLine
 10
245.3069784655146
 20
914.0986360169393
 30
0.0
 11
245.3069784655146
 21
1197.995646588319
 31
0.0
  0
LINE
  5
547
330
1F
100
AcDbEntity
  8
D-0
  6
Continuous
 62
     3
370
     5
100
AcDbLine
 10
230.3069784655146
 20
914.0986360169393
 30
0.0
 11
230.3069784655146
 21
1197.995646588319
 31
0.0
  0
SOLID
  5
548
330
1F
100
AcDbEntity
  8
D-5
  6
Continuous
 62
     4
370
     5
100
AcDbTrace
 10
676.5685842578513
 20
885.8214132265732
 30
0.0
 11
676.5685842578513
 21
845.8214132265732
 31
0.0
 12
672.5685842578515
 22
885.8214132265732
 32
0.0
 13
672.5685842578515
 23
845.8214132265732
 33
0.0
  0
LINE
  5
549
330
1F
100
AcDbEntity
  8
D-5
  6
Continuous
 62
     4
370
     5
100
AcDbLine
 10
684.2346740555633
 20
864.8404163530995
 30
0.0
 11
733.4840667385056
 21
864.8404163530995
 31
0.0
  0
LINE
  5
54A
330
1F
100
AcDbEntity
  8
D-5
  6
Continuous
 62
     4
370
     5
100
AcDbLine
 10
684.2346740555633
 20
864.8404163530995
 30
0.0
 11
709.0207955899087
 21
868.1035711586009
 31
0.0
  0
LINE
  5
54B
330
1F
100
AcDbEntity
  8
D-5
  6
Continuous
 62
     4
370
     5
100
AcDbLine
 10
684.2346740555633
 20
864.8404163530995
 30
0.0
 11
709.0207955899087
 21
861.5772615475981
 31
0.0
  0
LINE
  5
54C
330
1F
100
AcDbEntity
  8
D-5
  6
JWW_CENTER1
 62
     4
370
     5
100
AcDbLine
 10
674.5685842578514
 20
885.8214132265732
 30
0.0
 11
674.5685842578514
 21
935.8214132265732
 31
0.0
  0
SOLID
  5
54D
330
1F
100
AcDbEntity
  8
D-5
  6
Continuous
 62
     4
370
     5
100
AcDbTrace
 10
676.5685842578513
 20
1225.821230121105
 30
0.0
 11
676.5685842578513
 21
1265.821230121105
 31
0.0
 12
672.5685842578515
 22
1225.821230121105
 32
0.0
 13
672.5685842578515
 23
1265.821230121105
 33
0.0
  0
LINE
  5
54E
330
1F
100
AcDbEntity
  8
D-5
  6
Continuous
 62
     4
370
     5
100
AcDbLine
 10
684.2346740555633
 20
1246.802226994579
 30
0.0
 11
733.4840667385056
 21
1246.802226994579
 31
0.0
  0
LINE
  5
54F
330
1F
100
AcDbEntity
  8
D-5
  6
Continuous
 62
     4
370
     5
100
AcDbLine
 10
684.2346740555633
 20
1246.802226994579
 30
0.0
 11
709.0207955899087
 21
1243.539072189077
 31
0.0
  0
LINE
  5
550
330
1F
100
AcDbEntity
  8
D-5
  6
Continuous
 62
     4
370
     5
100
AcDbLine
 10
684.2346740555633
 20
1246.802226994579
 30
0.0
 11
709.0207955899087
 21
1250.06538180008
 31
0.0
  0
LINE
  5
551
330
1F
100
AcDbEntity
  8
D-5
  6
JWW_CENTER1
 62
     4
370
     5
100
AcDbLine
 10
674.5685842578514
 20
1225.821230121105
 30
0.0
 11
674.5685842578514
 21
1175.821230121105
 31
0.0
  0
TEXT
  5
552
330
1F
100
AcDbEntity
  8
D-5
  6
Continuous
 62
     2
370
     5
100
AcDbText
 10
741.1948378724555
 20
1234.597044974375
 30
0.0
 40
30.48
  1
C
 41
0.9999999999999998
  7
ＭＳ ゴシック
100
AcDbText
  0
TEXT
  5
553
330
1F
100
AcDbEntity
  8
D-5
  6
Continuous
 62
     2
370
     5
100
AcDbText
 10
741.1948378724555
 20
852.6352343328958
 30
0.0
 40
30.48
  1
C
 41
0.9999999999999998
  7
ＭＳ ゴシック
100
AcDbText
  0
LINE
  5
554
330
1F
100
AcDbEntity
  8
D-5
  6
Continuous
 62
     7
370
     5
100
AcDbLine
 10
570.48278359397
 20
364.8065717116893
 30
0.0
 11
767.4029053082996
 21
364.8065717116893
 31
0.0
  0
TEXT
  5
555
330
1F
100
AcDbEntity
  8
D-5
  6
Continuous
 62
     2
370
     5
100
AcDbText
 10
572.7198980268612
 20
385.4465717116893
 30
0.0
 40
30.48
  1
B-B断面図
 41
1.097222222222222
  7
ＭＳ ゴシック
100
AcDbText
  0
LINE
  5
556
330
1F
100
AcDbEntity
  8
D-4
  6
Continuous
 62
     7
370
     5
100
AcDbLine
 10
113.8205719256764
 20
970.8213827089952
 30
0.0
 11
113.8205719256764
 21
1055.821321673839
 31
0.0
  0
LWPOLYLINE
  5
557
330
1F
100
AcDbEntity
  8
D-4
  6
Continuous
 62
     7
370
     5
100
AcDbPolyline
 90
        4
 70
     1
 43
1.0
 10
114.3205719256764
 20
970.8213827089952
 42
0.4142135623731
 10
113.8205719256764
 20
971.3213827089952
 42
0.4142135623731
 10
113.3205719256764
 20
970.8213827089952
 42
0.4142135623731
 10
113.8205719256764
 20
970.3213827089952
 42
0.4142135623731
  0
LWPOLYLINE
  5
558
330
1F
100
AcDbEntity
  8
D-4
  6
Continuous
 62
     7
370
     5
100
AcDbPolyline
 90
        4
 70
     1
 43
1.0
 10
114.3205719256764
 20
1055.821321673839
 42
0.4142135623731
 10
113.8205719256764
 20
1056.321321673839
 42
0.4142135623731
 10
113.3205719256764
 20
1055.821321673839
 42
0.4142135623731
 10
113.8205719256764
 20
1055.321321673839
 42
0.4142135623731
  0
TEXT
  5
559
330
1F
100
AcDbEntity
  8
D-4
  6
Continuous
 62
     2
370
   211
100
AcDbText
 10
98.18057192567643
 20
992.0713521914171
 30
0.0
 40
30.48
  1
17
 50
90.0
 41
1.0625
  7
ＭＳ ゴシック
100
AcDbText
  0
LINE
  5
55A
330
1F
100
AcDbEntity
  8
D-4
  6
Continuous
 62
     7
370
     5
100
AcDbLine
 10
113.8205719256764
 20
1055.821321673839
 30
0.0
 11
113.8205719256764
 21
1140.821260638683
 31
0.0
  0
LWPOLYLINE
  5
55B
330
1F
100
AcDbEntity
  8
D-4
  6
Continuous
 62
     7
370
     5
100
AcDbPolyline
 90
        4
 70
     1
 43
1.0
 10
114.3205719256764
 20
1140.821260638683
 42
0.4142135623731
 10
113.8205719256764
 20
1141.321260638683
 42
0.4142135623731
 10
113.3205719256764
 20
1140.821260638683
 42
0.4142135623731
 10
113.8205719256764
 20
1140.321260638683
 42
0.4142135623731
  0
TEXT
  5
55C
330
1F
100
AcDbEntity
  8
D-4
  6
Continuous
 62
     2
370
   211
100
AcDbText
 10
98.18057192567643
 20
1077.071291156261
 30
0.0
 40
30.48
  1
17
 50
90.0
 41
1.0625
  7
ＭＳ ゴシック
100
AcDbText
  0
LINE
  5
55D
330
1F
100
AcDbEntity
  8
D-4
  6
Continuous
 62
     7
370
     5
100
AcDbLine
 10
110.8205719256769
 20
1055.821321673839
 30
0.0
 11
215.3069784655146
 21
1055.821321673839
 31
0.0
  0
LINE
  5
55E
330
1F
100
AcDbEntity
  8
D-4
  6
Continuous
 62
     7
370
     5
100
AcDbLine
 10
110.8205719256769
 20
1140.821260638683
 30
0.0
 11
215.3069784655146
 21
1140.821260638683
 31
0.0
  0
LINE
  5
55F
330
1F
100
AcDbEntity
  8
D-0
  6
Continuous
 62
     3
370
     5
100
AcDbLine
 10
230.3069784655146
 20
535.6211063494827
 30
0.0
 11
230.3069784655146
 21
635.6209826295712
 31
0.0
  0
LINE
  5
560
330
1F
100
AcDbEntity
  8
D-0
  6
Continuous
 62
     3
370
     5
100
AcDbLine
 10
245.3069784655146
 20
535.6211063494827
 30
0.0
 11
245.3069784655146
 21
635.6209826295712
 31
0.0
  0
TEXT
  5
561
330
1F
100
AcDbEntity
  8
D-5
  6
Continuous
 62
     7
370
     5
100
AcDbText
 10
-10.32735355059785
 20
525.9328619992036
 30
0.0
 40
22.86
  1
サイドバー
 41
1.133333333333333
  7
ＭＳ ゴシック
100
AcDbText
  0
LINE
  5
562
330
1F
100
AcDbEntity
  8
D-4
  6
Continuous
 62
     7
370
     5
100
AcDbLine
 10
-10.32735355059785
 20
516.7028619992036
 30
0.0
 11
161.3887959751914
 21
516.7028619992036
 31
0.0
  0
LINE
  5
563
330
1F
100
AcDbEntity
  8
D-4
  6
Continuous
 62
     7
370
     5
100
AcDbLine
 10
161.3887959751914
 20
516.7028619992036
 30
0.0
 11
230.3069784655146
 21
585.621044489527
 31
0.0
  0
LINE
  5
564
330
1F
100
AcDbEntity
  8
D-4
  6
Continuous
 62
     7
370
     5
100
AcDbLine
 10
230.3069784655146
 20
585.621044489527
 30
0.0
 11
215.0879427402965
 21
565.787210982246
 31
0.0
  0
LINE
  5
565
330
1F
100
AcDbEntity
  8
D-4
  6
Continuous
 62
     7
370
     5
100
AcDbLine
 10
230.3069784655146
 20
585.621044489527
 30
0.0
 11
210.4731449582336
 21
570.4020087643089
 31
0.0
  0
SOLID
  5
566
330
1F
100
AcDbEntity
  8
D-5
  6
Continuous
 62
     4
370
     5
100
AcDbTrace
 10
-0.8577407547575078
 20
1011.321352191417
 30
0.0
 11
-40.85774075475751
 21
1011.321352191417
 31
0.0
 12
-0.8577407547575078
 22
1015.321352191417
 32
0.0
 13
-40.85774075475751
 23
1015.321352191417
 33
0.0
  0
LINE
  5
567
330
1F
100
AcDbEntity
  8
D-5
  6
Continuous
 62
     4
370
     5
100
AcDbLine
 10
-21.83873762823122
 20
1003.655262393705
 30
0.0
 11
-21.83873762823122
 21
954.4058697107635
 31
0.0
  0
LINE
  5
568
330
1F
100
AcDbEntity
  8
D-5
  6
Continuous
 62
     4
370
     5
100
AcDbLine
 10
-21.83873762823122
 20
1003.655262393705
 30
0.0
 11
-18.57558282272986
 21
978.86914085936
 31
0.0
  0
LINE
  5
569
330
1F
100
AcDbEntity
  8
D-5
  6
Continuous
 62
     4
370
     5
100
AcDbLine
 10
-21.83873762823122
 20
1003.655262393705
 30
0.0
 11
-25.10189243373258
 21
978.86914085936
 31
0.0
  0
TEXT
  5
56A
330
1F
100
AcDbEntity
  8
D-5
  6
Continuous
 62
     2
370
     5
100
AcDbText
 10
-31.83873762823122
 20
914.0797698733511
 30
0.0
 40
30.48
  1
B
 41
0.9999999999999998
  7
ＭＳ ゴシック
100
AcDbText
  0
LINE
  5
56B
330
1F
100
AcDbEntity
  8
D-0
  6
Continuous
 62
     3
370
     5
100
AcDbLine
 10
530.5580474055485
 20
1160.821230121105
 30
0.0
 11
530.5580474055485
 21
1197.995646588319
 31
0.0
  0
LINE
  5
56C
330
1F
100
AcDbEntity
  8
D-0
  6
Continuous
 62
     3
370
     5
100
AcDbLine
 10
555.3069784655146
 20
1160.821230121105
 30
0.0
 11
555.3069784655146
 21
1197.995646588319
 31
0.0
  0
LINE
  5
56D
330
1F
100
AcDbEntity
  8
D-0
  6
Continuous
 62
     3
370
     5
100
AcDbLine
 10
580.0559095254807
 20
1160.821230121105
 30
0.0
 11
580.0559095254807
 21
1197.995646588319
 31
0.0
  0
LINE
  5
56E
330
1F
100
AcDbEntity
  8
D-0
  6
Continuous
 62
     3
370
     5
100
AcDbLine
 10
530.5580474055485
 20
1075.821291156261
 30
0.0
 11
530.5580474055485
 21
1120.821291156261
 31
0.0
  0
LINE
  5
56F
330
1F
100
AcDbEntity
  8
D-0
  6
Continuous
 62
     3
370
     5
100
AcDbLine
 10
555.3069784655146
 20
1075.821291156261
 30
0.0
 11
555.3069784655146
 21
1120.821291156261
 31
0.0
  0
LINE
  5
570
330
1F
100
AcDbEntity
  8
D-0
  6
Continuous
 62
     3
370
     5
100
AcDbLine
 10
580.0559095254807
 20
1075.821291156261
 30
0.0
 11
580.0559095254807
 21
1120.821291156261
 31
0.0
  0
LINE
  5
571
330
1F
100
AcDbEntity
  8
D-0
  6
Continuous
 62
     3
370
     5
100
AcDbLine
 10
530.5580474055485
 20
990.8213521914172
 30
0.0
 11
530.5580474055485
 21
1035.821352191417
 31
0.0
  0
LINE
  5
572
330
1F
100
AcDbEntity
  8
D-0
  6
Continuous
 62
     3
370
     5
100
AcDbLine
 10
555.3069784655146
 20
990.8213521914172
 30
0.0
 11
555.3069784655146
 21
1035.821352191417
 31
0.0
  0
LINE
  5
573
330
1F
100
AcDbEntity
  8
D-0
  6
Continuous
 62
     3
370
     5
100
AcDbLine
 10
580.0559095254807
 20
990.8213521914172
 30
0.0
 11
580.0559095254807
 21
1035.821352191417
 31
0.0
  0
LINE
  5
574
330
1F
100
AcDbEntity
  8
D-0
  6
Continuous
 62
     3
370
     5
100
AcDbLine
 10
530.5580474055485
 20
914.0986360169393
 30
0.0
 11
530.5580474055485
 21
950.8214132265732
 31
0.0
  0
LINE
  5
575
330
1F
100
AcDbEntity
  8
D-0
  6
Continuous
 62
     3
370
     5
100
AcDbLine
 10
555.3069784655146
 20
914.0986360169393
 30
0.0
 11
555.3069784655146
 21
950.8214132265732
 31
0.0
  0
LINE
  5
576
330
1F
100
AcDbEntity
  8
D-0
  6
Continuous
 62
     3
370
     5
100
AcDbLine
 10
580.0559095254807
 20
914.0986360169393
 30
0.0
 11
580.0559095254807
 21
950.8214132265732
 31
0.0
  0
LINE
  5
577
330
1F
100
AcDbEntity
  8
D-0
  6
Continuous
 62
     3
370
     5
100
AcDbLine
 10
955.3069372255443
 20
1160.821230121105
 30
0.0
 11
955.3069372255443
 21
1197.995646588319
 31
0.0
  0
LINE
  5
578
330
1F
100
AcDbEntity
  8
D-0
  6
Continuous
 62
     3
370
     5
100
AcDbLine
 10
930.5580061655776
 20
1160.821230121105
 30
0.0
 11
930.5580061655776
 21
1197.995646588319
 31
0.0
  0
LINE
  5
579
330
1F
100
AcDbEntity
  8
D-0
  6
Continuous
 62
     3
370
     5
100
AcDbLine
 10
980.0558682855099
 20
1160.821230121105
 30
0.0
 11
980.0558682855099
 21
1197.995646588319
 31
0.0
  0
LINE
  5
57A
330
1F
100
AcDbEntity
  8
D-0
  6
Continuous
 62
     3
370
     5
100
AcDbLine
 10
930.5580061655776
 20
1075.821291156261
 30
0.0
 11
930.5580061655776
 21
1120.821291156261
 31
0.0
  0
LINE
  5
57B
330
1F
100
AcDbEntity
  8
D-0
  6
Continuous
 62
     3
370
     5
100
AcDbLine
 10
955.3069372255443
 20
1075.821291156261
 30
0.0
 11
955.3069372255443
 21
1120.821291156261
 31
0.0
  0
LINE
  5
57C
330
1F
100
AcDbEntity
  8
D-0
  6
Continuous
 62
     3
370
     5
100
AcDbLine
 10
980.0558682855099
 20
1075.821291156261
 30
0.0
 11
980.0558682855099
 21
1120.821291156261
 31
0.0
  0
LINE
  5
57D
330
1F
100
AcDbEntity
  8
D-0
  6
Continuous
 62
     3
370
     5
100
AcDbLine
 10
930.5580061655776
 20
990.8213521914172
 30
0.0
 11
930.5580061655776
 21
1035.821352191417
 31
0.0
  0
LINE
  5
57E
330
1F
100
AcDbEntity
  8
D-0
  6
Continuous
 62
     3
370
     5
100
AcDbLine
 10
955.3069372255443
 20
990.8213521914172
 30
0.0
 11
955.3069372255443
 21
1035.821352191417
 31
0.0
  0
LINE
  5
57F
330
1F
100
AcDbEntity
  8
D-0
  6
Continuous
 62
     3
370
     5
100
AcDbLine
 10
980.0558682855099
 20
990.8213521914172
 30
0.0
 11
980.0558682855099
 21
1035.821352191417
 31
0.0
  0
LINE
  5
580
330
1F
100
AcDbEntity
  8
D-0
  6
Continuous
 62
     3
370
     5
100
AcDbLine
 10
930.5580061655776
 20
914.0986360169393
 30
0.0
 11
930.5580061655776
 21
950.8214132265732
 31
0.0
  0
LINE
  5
581
330
1F
100
AcDbEntity
  8
D-0
  6
Continuous
 62
     3
370
     5
100
AcDbLine
 10
955.3069372255443
 20
914.0986360169393
 30
0.0
 11
955.3069372255443
 21
950.8214132265732
 31
0.0
  0
LINE
  5
582
330
1F
100
AcDbEntity
  8
D-0
  6
Continuous
 62
     3
370
     5
100
AcDbLine
 10
980.0558682855099
 20
914.0986360169393
 30
0.0
 11
980.0558682855099
 21
950.8214132265732
 31
0.0
  0
LINE
  5
583
330
1F
100
AcDbEntity
  8
D-0
  6
Continuous
 62
     3
370
     5
100
AcDbLine
 10
1218.608956427727
 20
1160.821230121105
 30
0.0
 11
245.3069784655146
 21
1160.821230121105
 31
0.0
  0
LINE
  5
584
330
1F
100
AcDbEntity
  8
D-0
  6
Continuous
 62
     3
370
     5
100
AcDbLine
 10
1218.608956427727
 20
1120.821291156261
 30
0.0
 11
245.3069784655146
 21
1120.821291156261
 31
0.0
  0
LINE
  5
585
330
1F
100
AcDbEntity
  8
D-0
  6
Continuous
 62
     3
370
     5
100
AcDbLine
 10
1218.608956427727
 20
1075.821291156261
 30
0.0
 11
245.3069784655146
 21
1075.821291156261
 31
0.0
  0
LINE
  5
586
330
1F
100
AcDbEntity
  8
D-0
  6
Continuous
 62
     3
370
     5
100
AcDbLine
 10
1218.608956427727
 20
1035.821352191417
 30
0.0
 11
245.3069784655146
 21
1035.821352191417
 31
0.0
  0
LINE
  5
587
330
1F
100
AcDbEntity
  8
D-0
  6
Continuous
 62
     3
370
     5
100
AcDbLine
 10
1218.608956427727
 20
990.8213521914172
 30
0.0
 11
245.3069784655146
 21
990.8213521914172
 31
0.0
  0
LINE
  5
588
330
1F
100
AcDbEntity
  8
D-0
  6
Continuous
 62
     3
370
     5
100
AcDbLine
 10
1218.608956427727
 20
950.8214132265732
 30
0.0
 11
245.3069784655146
 21
950.8214132265732
 31
0.0
  0
LINE
  5
589
330
1F
100
AcDbEntity
  8
D-5
  6
JWW_CENTER1
 62
     4
370
     5
100
AcDbLine
 10
-0.8577407547575078
 20
1013.321352191417
 30
0.0
 11
49.14225924524249
 21
1013.321352191417
 31
0.0
  0
LINE
  5
58A
330
1F
100
AcDbEntity
  8
D-4
  6
Continuous
 62
     7
370
     5
100
AcDbLine
 10
555.3069784655146
 20
746.30134151629
 30
0.0
 11
555.3069784655146
 21
648.30134151629
 31
0.0
  0
LWPOLYLINE
  5
58B
330
1F
100
AcDbEntity
  8
D-4
  6
Continuous
 62
     7
370
     5
100
AcDbPolyline
 90
        4
 70
     1
 43
1.0
 10
555.8069784655146
 20
743.30134151629
 42
0.4142135623731
 10
555.3069784655146
 20
743.80134151629
 42
0.4142135623731
 10
554.8069784655147
 20
743.30134151629
 42
0.4142135623731
 10
555.3069784655146
 20
742.80134151629
 42
0.4142135623731
  0
LINE
  5
58C
330
1F
100
AcDbEntity
  8
D-4
  6
Continuous
 62
     7
370
     5
100
AcDbLine
 10
555.3069784655146
 20
743.30134151629
 30
0.0
 11
955.3069372255437
 21
743.30134151629
 31
0.0
  0
TEXT
  5
58D
330
1F
100
AcDbEntity
  8
D-4
  6
Continuous
 62
     2
370
   211
100
AcDbText
 10
734.0569578455292
 20
758.94134151629
 30
0.0
 40
30.48
  1
80
 41
1.0625
  7
ＭＳ ゴシック
100
AcDbText
  0
LINE
  5
58E
330
1F
100
AcDbEntity
  8
D-4
  6
Continuous
 62
     7
370
     5
100
AcDbLine
 10
955.3069372255437
 20
746.30134151629
 30
0.0
 11
955.3069372255437
 21
648.30134151629
 31
0.0
  0
LWPOLYLINE
  5
58F
330
1F
100
AcDbEntity
  8
D-4
  6
Continuous
 62
     7
370
     5
100
AcDbPolyline
 90
        4
 70
     1
 43
1.0
 10
955.8069372255437
 20
743.30134151629
 42
0.4142135623731
 10
955.3069372255437
 20
743.80134151629
 42
0.4142135623731
 10
954.8069372255438
 20
743.30134151629
 42
0.4142135623731
 10
955.3069372255437
 20
742.80134151629
 42
0.4142135623731
  0
TEXT
  5
590
330
1F
100
AcDbEntity
  8
D-5
  6
Continuous
 62
     2
370
     5
100
AcDbText
 10
1278.383283165613
 20
916.3693346180638
 30
0.0
 40
30.48
  1
B
 41
0.9999999999999998
  7
ＭＳ ゴシック
100
AcDbText
  0
LINE
  5
591
330
1F
100
AcDbEntity
  8
D-5
  6
Continuous
 62
     4
370
     5
100
AcDbLine
 10
1288.383283165613
 20
1006.664034352307
 30
0.0
 11
1291.646437971114
 21
981.8779128179614
 31
0.0
  0
LINE
  5
592
330
1F
100
AcDbEntity
  8
D-5
  6
JWW_CENTER1
 62
     4
370
     5
100
AcDbLine
 10
1270.339137342394
 20
1013.321352191417
 30
0.0
 11
1220.339137342394
 21
1013.321352191417
 31
0.0
  0
SOLID
  5
593
330
1F
100
AcDbEntity
  8
D-5
  6
Continuous
 62
     4
370
     5
100
AcDbTrace
 10
1270.339137342394
 20
1015.321352191417
 30
0.0
 11
1310.339137342394
 21
1015.321352191417
 31
0.0
 12
1270.339137342394
 22
1011.321352191417
 32
0.0
 13
1310.339137342394
 23
1011.321352191417
 33
0.0
  0
LINE
  5
594
330
1F
100
AcDbEntity
  8
D-5
  6
Continuous
 62
     4
370
     5
100
AcDbLine
 10
1288.383283165613
 20
1006.664034352307
 30
0.0
 11
1285.120128360112
 21
981.8779128179614
 31
0.0
  0
LINE
  5
595
330
1F
100
AcDbEntity
  8
D-5
  6
Continuous
 62
     4
370
     5
100
AcDbLine
 10
1288.383283165613
 20
1006.664034352307
 30
0.0
 11
1288.383283165613
 21
957.4146416693648
 31
0.0
  0
LINE
  5
596
330
1F
100
AcDbEntity
  8
D-2
  6
Continuous
 62
     3
370
     5
100
AcDbLine
 10
1233.609810919915
 20
598.2373421292024
 30
0.0
 11
1218.608956427727
 21
598.2373421292024
 31
0.0
  0
LINE
  5
597
330
1F
100
AcDbEntity
  8
D-2
  6
Continuous
 62
     3
370
     5
100
AcDbLine
 10
1218.608956427727
 20
503.529022174966
 30
0.0
 11
1218.608956427727
 21
578.2362587551787
 31
0.0
  0
LINE
  5
598
330
1F
100
AcDbEntity
  8
D-2
  6
Continuous
 62
     3
370
     5
100
AcDbLine
 10
1218.608956427727
 20
578.2362587551787
 30
0.0
 11
1203.608834357414
 21
578.2362587551787
 31
0.0
  0
LINE
  5
599
330
1F
100
AcDbEntity
  8
D-2
  6
Continuous
 62
     3
370
     5
100
AcDbLine
 10
1233.609810919915
 20
598.2373421292024
 30
0.0
 11
1203.608834357414
 21
578.2362587551787
 31
0.0
  0
LINE
  5
59A
330
1F
100
AcDbEntity
  8
D-2
  6
Continuous
 62
     3
370
     5
100
AcDbLine
 10
1218.608956427727
 20
598.2373421292024
 30
0.0
 11
1218.608956427727
 21
667.712695644354
 31
0.0
  0
LINE
  5
59B
330
1F
100
AcDbEntity
  8
D-2
  6
Continuous
 62
     3
370
     5
100
AcDbLine
 10
230.3069784655146
 20
635.6209826295712
 30
0.0
 11
1218.608956427727
 21
635.6209826295712
 31
0.0
  0
LINE
  5
59C
330
1F
100
AcDbEntity
  8
D-2
  6
Continuous
 62
     3
370
     5
100
AcDbLine
 10
245.3069784655146
 20
628.6209100472239
 30
0.0
 11
1218.608956427727
 21
628.6209100472239
 31
0.0
  0
LINE
  5
59D
330
1F
100
AcDbEntity
  8
D-2
  6
Continuous
 62
     3
370
     5
100
AcDbLine
 10
230.3069784655146
 20
535.6211063494827
 30
0.0
 11
1218.608956427727
 21
535.6211063494827
 31
0.0
  0
LINE
  5
59E
330
1F
100
AcDbEntity
  8
D-2
  6
Continuous
 62
     3
370
     5
100
AcDbLine
 10
555.3069784655146
 20
557.8720515696054
 30
0.0
 11
530.5582329854151
 21
582.6209826295712
 31
0.0
  0
LINE
  5
59F
330
1F
100
AcDbEntity
  8
D-2
  6
Continuous
 62
     3
370
     5
100
AcDbLine
 10
580.0557239456135
 20
582.6209826295712
 30
0.0
 11
555.3069784655146
 21
557.8720515696054
 31
0.0
  0
LINE
  5
5A0
330
1F
100
AcDbEntity
  8
D-2
  6
Continuous
 62
     3
370
     5
100
AcDbLine
 10
537.8069825895114
 20
600.1211640854413
 30
0.0
 11
548.0582288614182
 21
600.1211640854413
 31
0.0
  0
LINE
  5
5A1
330
1F
100
AcDbEntity
  8
D-2
  6
Continuous
 62
     3
370
     5
100
AcDbLine
 10
562.555728069611
 20
600.1211640854413
 30
0.0
 11
572.8069743415177
 21
600.1211640854413
 31
0.0
  0
LINE
  5
5A2
330
1F
100
AcDbEntity
  8
D-2
  6
Continuous
 62
     3
370
     5
100
AcDbLine
 10
572.8069743415177
 20
600.1211640854413
 30
0.0
 11
572.8069743415177
 21
589.869732233668
 31
0.0
  0
LINE
  5
5A3
330
1F
100
AcDbEntity
  8
D-2
  6
Continuous
 62
     3
370
     5
100
AcDbLine
 10
572.8069743415177
 20
575.3722330254752
 30
0.0
 11
572.8069743415177
 21
565.1208011737012
 31
0.0
  0
LINE
  5
5A4
330
1F
100
AcDbEntity
  8
D-2
  6
Continuous
 62
     3
370
     5
100
AcDbLine
 10
572.8069743415177
 20
565.1208011737012
 30
0.0
 11
562.555728069611
 21
565.1208011737012
 31
0.0
  0
LINE
  5
5A5
330
1F
100
AcDbEntity
  8
D-2
  6
Continuous
 62
     3
370
     5
100
AcDbLine
 10
548.0582288614182
 20
565.1208011737012
 30
0.0
 11
537.8069825895114
 21
565.1208011737012
 31
0.0
  0
LINE
  5
5A6
330
1F
100
AcDbEntity
  8
D-2
  6
Continuous
 62
     3
370
     5
100
AcDbLine
 10
537.8069825895114
 20
565.1208011737012
 30
0.0
 11
537.8069825895114
 21
575.3722330254752
 31
0.0
  0
LINE
  5
5A7
330
1F
100
AcDbEntity
  8
D-2
  6
Continuous
 62
     3
370
     5
100
AcDbLine
 10
537.8069825895114
 20
589.869732233668
 30
0.0
 11
537.8069825895114
 21
600.1211640854413
 31
0.0
  0
LINE
  5
5A8
330
1F
100
AcDbEntity
  8
D-2
  6
JWW_CENTER1
 62
     3
370
     5
100
AcDbLine
 10
525.1268670186182
 20
582.6209826295712
 30
0.0
 11
585.4872754922776
 21
582.6209826295712
 31
0.0
  0
LINE
  5
5A9
330
1F
100
AcDbEntity
  8
D-4
  6
Continuous
 62
     7
370
     5
100
AcDbLine
 10
542.9326057254651
 20
570.2465170995883
 30
0.0
 11
527.713570000247
 21
550.4126835923074
 31
0.0
  0
LINE
  5
5AA
330
1F
100
AcDbEntity
  8
D-4
  6
Continuous
 62
     7
370
     5
100
AcDbLine
 10
542.9326057254651
 20
570.2465170995883
 30
0.0
 11
523.0987722181841
 21
555.0274813743703
 31
0.0
  0
LINE
  5
5AB
330
1F
100
AcDbEntity
  8
D-2
  6
Continuous
 62
     3
370
     5
100
AcDbLine
 10
955.3069372255437
 20
557.8720515696054
 30
0.0
 11
930.5581917454448
 21
582.6209826295712
 31
0.0
  0
LINE
  5
5AC
330
1F
100
AcDbEntity
  8
D-2
  6
Continuous
 62
     3
370
     5
100
AcDbLine
 10
937.8069413495406
 20
565.1208011737012
 30
0.0
 11
937.8069413495406
 21
575.3722330254752
 31
0.0
  0
LINE
  5
5AD
330
1F
100
AcDbEntity
  8
D-2
  6
Continuous
 62
     3
370
     5
100
AcDbLine
 10
948.0581876214474
 20
565.1208011737012
 30
0.0
 11
937.8069413495406
 21
565.1208011737012
 31
0.0
  0
LINE
  5
5AE
330
1F
100
AcDbEntity
  8
D-2
  6
Continuous
 62
     3
370
     5
100
AcDbLine
 10
937.8069413495406
 20
589.869732233668
 30
0.0
 11
937.8069413495406
 21
600.1211640854413
 31
0.0
  0
LINE
  5
5AF
330
1F
100
AcDbEntity
  8
D-2
  6
Continuous
 62
     3
370
     5
100
AcDbLine
 10
937.8069413495406
 20
600.1211640854413
 30
0.0
 11
948.0581876214474
 21
600.1211640854413
 31
0.0
  0
LINE
  5
5B0
330
1F
100
AcDbEntity
  8
D-2
  6
JWW_CENTER1
 62
     3
370
     5
100
AcDbLine
 10
925.1268257786479
 20
582.6209826295712
 30
0.0
 11
985.4872342523067
 21
582.6209826295712
 31
0.0
  0
LINE
  5
5B1
330
1F
100
AcDbEntity
  8
D-2
  6
Continuous
 62
     3
370
     5
100
AcDbLine
 10
972.8069331015469
 20
565.1208011737012
 30
0.0
 11
962.5556868296401
 21
565.1208011737012
 31
0.0
  0
LINE
  5
5B2
330
1F
100
AcDbEntity
  8
D-2
  6
Continuous
 62
     3
370
     5
100
AcDbLine
 10
980.0556827056432
 20
582.6209826295712
 30
0.0
 11
955.3069372255437
 21
557.8720515696054
 31
0.0
  0
LINE
  5
5B3
330
1F
100
AcDbEntity
  8
D-2
  6
Continuous
 62
     3
370
     5
100
AcDbLine
 10
972.8069331015469
 20
575.3722330254752
 30
0.0
 11
972.8069331015469
 21
565.1208011737012
 31
0.0
  0
LINE
  5
5B4
330
1F
100
AcDbEntity
  8
D-2
  6
Continuous
 62
     3
370
     5
100
AcDbLine
 10
972.8069331015469
 20
600.1211640854413
 30
0.0
 11
972.8069331015469
 21
589.869732233668
 31
0.0
  0
LINE
  5
5B5
330
1F
100
AcDbEntity
  8
D-2
  6
Continuous
 62
     3
370
     5
100
AcDbLine
 10
962.5556868296401
 20
600.1211640854413
 30
0.0
 11
972.8069331015469
 21
600.1211640854413
 31
0.0
  0
LINE
  5
5B6
330
1F
100
AcDbEntity
  8
D-2
  6
JWW_CENTER1
 62
     3
370
     5
100
AcDbLine
 10
955.3069372255437
 20
552.4408711826752
 30
0.0
 11
955.3069372255437
 21
612.8014652362012
 31
0.0
  0
LINE
  5
5B7
330
1F
100
AcDbEntity
  8
D-2
  6
Continuous
 62
     3
370
     5
100
AcDbLine
 10
955.3069372255437
 20
607.3699136895377
 30
0.0
 11
980.0556827056432
 21
582.6209826295712
 31
0.0
  0
LINE
  5
5B8
330
1F
100
AcDbEntity
  8
D-2
  6
Continuous
 62
     3
370
     5
100
AcDbLine
 10
930.5581917454448
 20
582.6209826295712
 30
0.0
 11
955.3069372255437
 21
607.3699136895377
 31
0.0
  0
LINE
  5
5B9
330
1F
100
AcDbEntity
  8
D-2
  6
JWW_CENTER1
 62
     3
370
     5
100
AcDbLine
 10
555.3069784655146
 20
552.4408711826752
 30
0.0
 11
555.3069784655146
 21
612.8014652362012
 31
0.0
  0
LINE
  5
5BA
330
1F
100
AcDbEntity
  8
D-2
  6
Continuous
 62
     3
370
     5
100
AcDbLine
 10
555.3069784655146
 20
607.3699136895377
 30
0.0
 11
580.0557239456135
 21
582.6209826295712
 31
0.0
  0
LINE
  5
5BB
330
1F
100
AcDbEntity
  8
D-2
  6
Continuous
 62
     3
370
     5
100
AcDbLine
 10
530.5582329854151
 20
582.6209826295712
 30
0.0
 11
555.3069784655146
 21
607.3699136895377
 31
0.0
  0
LINE
  5
5BC
330
1F
100
AcDbEntity
  8
D-4
  6
Continuous
 62
     7
370
     5
100
AcDbLine
 10
542.9326057254651
 20
570.2465170995883
 30
0.0
 11
414.094287493079
 21
441.4081988672021
 31
0.0
  0
LINE
  5
5BD
330
1F
100
AcDbEntity
  8
D-4
  6
Continuous
 62
     7
370
     5
100
AcDbLine
 10
237.4556939661348
 20
441.4081988672021
 30
0.0
 11
414.094287493079
 21
441.4081988672021
 31
0.0
  0
TEXT
  5
5BE
330
1F
100
AcDbEntity
  8
D-5
  6
Continuous
 62
     7
370
     5
100
AcDbText
 10
237.4556939661348
 20
450.6381988672022
 30
0.0
 40
22.86
  1
クロスバー
 41
1.133333333333333
  7
ＭＳ ゴシック
100
AcDbText
  0
LINE
  5
5BF
330
1F
100
AcDbEntity
  8
D-2
  6
Continuous
 62
     3
370
     5
100
AcDbLine
 10
1514.912863854497
 20
607.3699136895377
 30
0.0
 11
1592.912253502935
 21
607.3699136895377
 31
0.0
  0
LINE
  5
5C0
330
1F
100
AcDbEntity
  8
D-2
  6
Continuous
 62
     3
370
     5
100
AcDbLine
 10
1514.912863854497
 20
582.6209826295712
 30
0.0
 11
1592.912253502935
 21
582.6209826295712
 31
0.0
  0
LINE
  5
5C1
330
1F
100
AcDbEntity
  8
D-2
  6
Continuous
 62
     3
370
     5
100
AcDbLine
 10
1514.912863854497
 20
557.8720515696054
 30
0.0
 11
1592.912253502935
 21
557.8720515696054
 31
0.0
  0
LINE
  5
5C2
330
1F
100
AcDbEntity
  8
D-2
  6
Continuous
 62
     3
370
     5
100
AcDbLine
 10
1369.712546471684
 20
607.3699136895377
 30
0.0
 11
1422.912375573247
 21
607.3699136895377
 31
0.0
  0
LINE
  5
5C3
330
1F
100
AcDbEntity
  8
D-2
  6
Continuous
 62
     3
370
     5
100
AcDbLine
 10
1369.712546471684
 20
582.6209826295712
 30
0.0
 11
1422.912375573247
 21
582.6209826295712
 31
0.0
  0
LINE
  5
5C4
330
1F
100
AcDbEntity
  8
D-2
  6
Continuous
 62
     3
370
     5
100
AcDbLine
 10
1599.912619713873
 20
607.3699136895377
 30
0.0
 11
1653.61220467481
 21
607.3699136895377
 31
0.0
  0
LINE
  5
5C5
330
1F
100
AcDbEntity
  8
D-2
  6
Continuous
 62
     3
370
     5
100
AcDbLine
 10
1599.912619713873
 20
582.6209826295712
 30
0.0
 11
1653.61220467481
 21
582.6209826295712
 31
0.0
  0
LINE
  5
5C6
330
1F
100
AcDbEntity
  8
D-2
  6
Continuous
 62
     3
370
     5
100
AcDbLine
 10
1599.912619713873
 20
557.8720515696054
 30
0.0
 11
1653.61220467481
 21
557.8720515696054
 31
0.0
  0
LINE
  5
5C7
330
1F
100
AcDbEntity
  8
D-5
  6
Continuous
 62
     7
370
     5
100
AcDbLine
 10
630.5958831892094
 20
241.4093358909477
 30
0.0
 11
1251.952435143616
 21
241.4093358909477
 31
0.0
  0
TEXT
  5
5C8
330
1F
100
AcDbEntity
  8
D-5
  6
Continuous
 62
     2
370
     5
100
AcDbText
 10
630.1450239739127
 20
262.0493358909477
 30
0.0
 40
30.48
  1
メインバー詳細図　Ｓ＝１：２
 41
1.116071428571427
  7
ＭＳ ゴシック
100
AcDbText
  0
LINE
  5
5C9
330
1F
100
AcDbEntity
  8
D-4
  6
Continuous
 62
     7
370
     5
100
AcDbLine
 10
110.8205719256769
 20
970.8213827089952
 30
0.0
 11
215.3069784655146
 21
970.8213827089952
 31
0.0
  0
LINE
  5
5CA
330
1F
100
AcDbEntity
  8
D-4
  6
Continuous
 62
     7
370
     5
100
AcDbLine
 10
1126.133859872544
 20
690.7932051223088
 30
0.0
 11
1295.431528634453
 21
690.7932051223088
 31
0.0
  0
TEXT
  5
5CB
330
1F
100
AcDbEntity
  8
D-5
  6
Continuous
 62
     7
370
     5
100
AcDbText
 10
1126.133859872544
 20
700.0232051223088
 30
0.0
 40
22.86
  1
メインバー
 41
1.133333333333335
  7
ＭＳ ゴシック
100
AcDbText
  0
LINE
  5
5CC
330
1F
100
AcDbEntity
  8
D-4
  6
Continuous
 62
     7
370
     5
100
AcDbLine
 10
1070.961637379806
 20
635.6209826295712
 30
0.0
 11
1126.133859872544
 21
690.7932051223088
 31
0.0
  0
LINE
  5
5CD
330
1F
100
AcDbEntity
  8
D-4
  6
Continuous
 62
     7
370
     5
100
AcDbLine
 10
1070.961637379806
 20
635.6209826295712
 30
0.0
 11
1086.180673105024
 21
655.4548161368521
 31
0.0
  0
LINE
  5
5CE
330
1F
100
AcDbEntity
  8
D-4
  6
Continuous
 62
     7
370
     5
100
AcDbLine
 10
1070.961637379806
 20
635.6209826295712
 30
0.0
 11
1090.795470887087
 21
650.8400183547893
 31
0.0
  0
LINE
  5
5CF
330
1F
100
AcDbEntity
  8
D-2
  6
Continuous
 62
     3
370
     5
100
AcDbLine
 10
1507.912863854497
 20
607.3699136895377
 30
0.0
 11
1429.912741784184
 21
607.3699136895377
 31
0.0
  0
LINE
  5
5D0
330
1F
100
AcDbEntity
  8
D-2
  6
Continuous
 62
     3
370
     5
100
AcDbLine
 10
1507.912863854497
 20
582.6209826295712
 30
0.0
 11
1429.912741784184
 21
582.6209826295712
 31
0.0
  0
LINE
  5
5D1
330
1F
100
AcDbEntity
  8
D-2
  6
Continuous
 62
     3
370
     5
100
AcDbLine
 10
1369.712546471684
 20
557.8720515696054
 30
0.0
 11
1422.912375573247
 21
557.8720515696054
 31
0.0
  0
LINE
  5
5D2
330
1F
100
AcDbEntity
  8
D-2
  6
Continuous
 62
     3
370
     5
100
AcDbLine
 10
1429.912741784184
 20
557.8720515696054
 30
0.0
 11
1507.912863854497
 21
557.8720515696054
 31
0.0
  0
TEXT
  5
5D3
330
1F
100
AcDbEntity
  8
F-5ﾚｲﾔ
  6
Continuous
 62
     2
370
     5
100
AcDbText
 10
-835.1756858100371
 20
-1334.157865351975
 30
0.0
 40
30.48
  1
ステンレス製　縦目タイプ　細目プレーンタイプ　グレーチング（すきま9mm）
 41
0.7742957746478872
  7
ＭＳ ゴシック
100
AcDbText
  0
TEXT
  5
5D4
330
1F
100
AcDbEntity
  8
F-5ﾚｲﾔ
  6
Continuous
 62
     2
370
     5
100
AcDbText
 10
-836.4280030302039
 20
-1378.437156308856
 30
0.0
 40
30.48
  1
ＹＲ－Ａ－２０　４５０×４５０×２０　ステンレス製受枠ＳＦ２０Ｂ（四方枠）
 41
0.7743243243243242
  7
ＭＳ ゴシック
100
AcDbText
  0
TEXT
  5
5D5
330
1F
100
AcDbEntity
  8
D-5
  6
Continuous
 62
     2
370
     5
100
AcDbText
 10
340.0530769955799
 20
-505.3843008513242
 30
0.0
 40
30.48
  1
ステンレス製　縦目タイプ　細目プレーンタイプ
 41
1.119318181818182
  7
ＭＳ ゴシック
100
AcDbText
  0
TEXT
  5
5D6
330
1F
100
AcDbEntity
  8
D-5
  6
Continuous
 62
     2
370
     5
100
AcDbText
 10
340.0530769955799
 20
-570.3842674727233
 30
0.0
 40
30.48
  1
グレーチング（すきま９mm）　ＹＲ－Ａ－２０　４５０×４５０×２０
 41
1.12109375
  7
ＭＳ ゴシック
100
AcDbText
  0
TEXT
  5
5D7
330
1F
100
AcDbEntity
  8
D-5
  6
Continuous
 62
     7
370
     5
100
AcDbText
 10
-485.6935483478228
 20
68.09862204461716
 30
0.0
 40
22.86
  1
ステンレス製　縦目タイプ　細目プレーンタイプ
 41
1.159090909090909
  7
ＭＳ ゴシック
100
AcDbText
  0
TEXT
  5
5D8
330
1F
100
AcDbEntity
  8
D-5
  6
Continuous
 62
     7
370
     5
100
AcDbText
 10
-485.6935519623241
 20
35.39369650750617
 30
0.0
 40
22.86
  1
グレーチング（すきま9mm）ＹＲーＡ－２０
 50
0.0000489587974819
 41
1.158119658119658
  7
ＭＳ ゴシック
100
AcDbText
  0
LINE
  5
5D9
330
1F
100
AcDbEntity
  8
D-5
  6
Continuous
 62
     7
370
     5
100
AcDbLine
 10
-493.7650829792304
 20
22.87243453377322
 30
0.0
 11
281.1055547106468
 21
22.87243453377322
 31
0.0
  0
LINE
  5
5DA
330
1F
100
AcDbEntity
  8
D-2
  6
Continuous
 62
     3
370
     5
100
AcDbLine
 10
-1340.772912614888
 20
-292.5707799194472
 30
0.0
 11
-1340.772912614888
 21
-380.6034455675871
 31
0.0
  0
LINE
  5
5DB
330
1F
100
AcDbEntity
  8
D-2
  6
Continuous
 62
     3
370
     5
100
AcDbLine
 10
-739.3878400325166
 20
-292.5707799194472
 30
0.0
 11
-739.3878400325166
 21
-380.6034455675871
 31
0.0
  0
LINE
  5
5DC
330
1F
100
AcDbEntity
  8
D-2
  6
Continuous
 62
     3
370
     5
100
AcDbLine
 10
-1333.77284003254
 20
-292.5707799194472
 30
0.0
 11
-1333.77284003254
 21
-380.6034455675871
 31
0.0
  0
LINE
  5
5DD
330
1F
100
AcDbEntity
  8
D-2
  6
Continuous
 62
     3
370
     5
100
AcDbLine
 10
-1255.787912614888
 20
-292.5707799194472
 30
0.0
 11
-1255.787912614888
 21
-380.6034455675871
 31
0.0
  0
LINE
  5
5DE
330
1F
100
AcDbEntity
  8
D-2
  6
Continuous
 62
     3
370
     5
100
AcDbLine
 10
-1248.78784003254
 20
-292.5707799194472
 30
0.0
 11
-1248.78784003254
 21
-380.6034455675871
 31
0.0
  0
LINE
  5
5DF
330
1F
100
AcDbEntity
  8
D-2
  6
Continuous
 62
     3
370
     5
100
AcDbLine
 10
-1163.887840032536
 20
-292.5707799194472
 30
0.0
 11
-1163.887840032536
 21
-380.6034455675871
 31
0.0
  0
LINE
  5
5E0
330
1F
100
AcDbEntity
  8
D-2
  6
Continuous
 62
     3
370
     5
100
AcDbLine
 10
-1170.887912614884
 20
-292.5707799194472
 30
0.0
 11
-1170.887912614884
 21
-380.6034455675871
 31
0.0
  0
LINE
  5
5E1
330
1F
100
AcDbEntity
  8
D-2
  6
Continuous
 62
     3
370
     5
100
AcDbLine
 10
-1078.987840032532
 20
-292.5707799194472
 30
0.0
 11
-1078.987840032532
 21
-380.6034455675871
 31
0.0
  0
LINE
  5
5E2
330
1F
100
AcDbEntity
  8
D-2
  6
Continuous
 62
     3
370
     5
100
AcDbLine
 10
-1085.98791261488
 20
-292.5707799194472
 30
0.0
 11
-1085.98791261488
 21
-380.6034455675871
 31
0.0
  0
LINE
  5
5E3
330
1F
100
AcDbEntity
  8
D-2
  6
Continuous
 62
     3
370
     5
100
AcDbLine
 10
-994.0878400325282
 20
-292.5707799194472
 30
0.0
 11
-994.0878400325282
 21
-380.6034455675871
 31
0.0
  0
LINE
  5
5E4
330
1F
100
AcDbEntity
  8
D-2
  6
Continuous
 62
     3
370
     5
100
AcDbLine
 10
-1001.087912614876
 20
-292.5707799194472
 30
0.0
 11
-1001.087912614876
 21
-380.6034455675871
 31
0.0
  0
LINE
  5
5E5
330
1F
100
AcDbEntity
  8
D-2
  6
Continuous
 62
     3
370
     5
100
AcDbLine
 10
-909.1878400325247
 20
-292.5707799194472
 30
0.0
 11
-909.1878400325247
 21
-380.6034455675871
 31
0.0
  0
LINE
  5
5E6
330
1F
100
AcDbEntity
  8
D-2
  6
Continuous
 62
     3
370
     5
100
AcDbLine
 10
-916.1879126148726
 20
-292.5707799194472
 30
0.0
 11
-916.1879126148726
 21
-380.6034455675871
 31
0.0
  0
LINE
  5
5E7
330
1F
100
AcDbEntity
  8
D-2
  6
Continuous
 62
     3
370
     5
100
AcDbLine
 10
-824.2878400325201
 20
-292.5707799194472
 30
0.0
 11
-824.2878400325201
 21
-380.6034455675871
 31
0.0
  0
LINE
  5
5E8
330
1F
100
AcDbEntity
  8
D-2
  6
Continuous
 62
     3
370
     5
100
AcDbLine
 10
-831.287912614868
 20
-292.5707799194472
 30
0.0
 11
-831.287912614868
 21
-380.6034455675871
 31
0.0
  0
LINE
  5
5E9
330
1F
100
AcDbEntity
  8
D-2
  6
Continuous
 62
     3
370
     5
100
AcDbLine
 10
-746.3879126148645
 20
-292.5707799194472
 30
0.0
 11
-746.3879126148645
 21
-380.6034455675871
 31
0.0
  0
LINE
  5
5EA
330
1F
100
AcDbEntity
  8
D-2
  6
Continuous
 62
     3
370
     5
100
AcDbLine
 10
1422.912375573247
 20
623.620921594415
 30
0.0
 11
1422.912375573247
 21
535.7801487078812
 31
0.0
  0
LINE
  5
5EB
330
1F
100
AcDbEntity
  8
D-2
  6
Continuous
 62
     3
370
     5
100
AcDbLine
 10
1599.912619713873
 20
623.620921594415
 30
0.0
 11
1599.912619713873
 21
535.7801487078812
 31
0.0
  0
LINE
  5
5EC
330
1F
100
AcDbEntity
  8
D-2
  6
Continuous
 62
     3
370
     5
100
AcDbLine
 10
1592.912253502935
 20
623.620921594415
 30
0.0
 11
1592.912253502935
 21
535.7801487078812
 31
0.0
  0
LINE
  5
5ED
330
1F
100
AcDbEntity
  8
D-2
  6
Continuous
 62
     3
370
     5
100
AcDbLine
 10
1507.912863854497
 20
623.620921594415
 30
0.0
 11
1507.912863854497
 21
535.7801487078812
 31
0.0
  0
LINE
  5
5EE
330
1F
100
AcDbEntity
  8
D-2
  6
Continuous
 62
     3
370
     5
100
AcDbLine
 10
1514.913230065435
 20
623.620921594415
 30
0.0
 11
1514.913230065435
 21
535.7801487078812
 31
0.0
  0
LINE
  5
5EF
330
1F
100
AcDbEntity
  8
D-2
  6
Continuous
 62
     3
370
     5
100
AcDbLine
 10
1429.912741784184
 20
623.620921594415
 30
0.0
 11
1429.912741784184
 21
535.7801487078812
 31
0.0
  0
ENDSEC
  0
SECTION
  2
OBJECTS
  0
DICTIONARY
  5
C
330
0
100
AcDbDictionary
281
     1
  3
ACAD_GROUP
350
D
  3
ACAD_LAYOUT
350
1A
  3
ACAD_MLEADERSTYLE
350
5F1
  3
ACAD_MLINESTYLE
350
17
  3
ACAD_PLOTSETTINGS
350
19
  3
ACAD_PLOTSTYLENAME
350
E
  3
ACAD_TABLESTYLE
350
5F0
  3
ACAD_VISUALSTYLE
350
2A
  0
DICTIONARY
  5
D
102
{ACAD_REACTORS
330
C
102
}
330
C
100
AcDbDictionary
281
     1
  0
DICTIONARY
  5
1A
102
{ACAD_REACTORS
330
C
102
}
330
C
100
AcDbDictionary
281
     1
  3
Layout1
350
1E
  3
Layout2
350
26
  3
Model
350
22
  0
DICTIONARY
  5
5F1
102
{ACAD_REACTORS
330
C
102
}
330
C
100
AcDbDictionary
281
     1
  0
DICTIONARY
  5
17
102
{ACAD_REACTORS
330
C
102
}
330
C
100
AcDbDictionary
281
     1
  3
Standard
350
18
  0
DICTIONARY
  5
19
102
{ACAD_REACTORS
330
C
102
}
330
C
100
AcDbDictionary
281
     1
  0
ACDBDICTIONARYWDFLT
  5
E
102
{ACAD_REACTORS
330
C
102
}
330
C
100
AcDbDictionary
281
     1
  3
Normal
350
F
100
AcDbDictionaryWithDefault
340
F
  0
DICTIONARY
  5
5F0
102
{ACAD_REACTORS
330
C
102
}
330
C
100
AcDbDictionary
281
     1
  0
DICTIONARY
  5
2A
102
{ACAD_REACTORS
330
C
102
}
330
C
100
AcDbDictionary
281
     1
  3
2dWireframe
350
2F
  3
3D Hidden
350
31
  3
3dWireframe
350
30
  3
Basic
350
32
  3
Brighten
350
36
  3
ColorChange
350
3A
  3
Conceptual
350
34
  3
Dim
350
35
  3
Facepattern
350
39
  3
Flat
350
2B
  3
FlatWithEdges
350
2C
  3
Gouraud
350
2D
  3
GouraudWithEdges
350
2E
  3
Linepattern
350
38
  3
Realistic
350
33
  3
Thicken
350
37
  0
LAYOUT
  5
1E
102
{ACAD_REACTORS
330
1A
102
}
330
1A
100
AcDbPlotSettings
  1

  2
none_device
  4

  6

 40
0.0
 41
0.0
 42
0.0
 43
0.0
 44
0.0
 45
0.0
 46
0.0
 47
0.0
 48
0.0
 49
0.0
140
0.0
141
0.0
142
1.0
143
1.0
 70
   688
 72
     0
 73
     0
 74
     5
  7

 75
    16
 76
     0
 77
     5
 78
   300
147
1.0
148
0.0
149
0.0
100
AcDbLayout
  1
Layout1
 70
     1
 71
     1
 10
0.0
 20
0.0
 11
420.0
 21
297.0
 12
0.0
 22
0.0
 32
0.0
 14
1.000000000000000E+20
 24
1.000000000000000E+20
 34
1.000000000000000E+20
 15
-1.000000000000000E+20
 25
-1.000000000000000E+20
 35
-1.000000000000000E+20
146
0.0
 13
0.0
 23
0.0
 33
0.0
 16
1.0
 26
0.0
 36
0.0
 17
0.0
 27
1.0
 37
0.0
 76
     0
330
1B
  0
LAYOUT
  5
26
102
{ACAD_REACTORS
330
1A
102
}
330
1A
100
AcDbPlotSettings
  1

  2
none_device
  4

  6

 40
0.0
 41
0.0
 42
0.0
 43
0.0
 44
0.0
 45
0.0
 46
0.0
 47
0.0
 48
0.0
 49
0.0
140
0.0
141
0.0
142
1.0
143
1.0
 70
   688
 72
     0
 73
     0
 74
     5
  7

 75
    16
 76
     0
 77
     5
 78
   300
147
1.0
148
0.0
149
0.0
100
AcDbLayout
  1
Layout2
 70
     1
 71
     2
 10
0.0
 20
0.0
 11
0.0
 21
0.0
 12
0.0
 22
0.0
 32
0.0
 14
0.0
 24
0.0
 34
0.0
 15
0.0
 25
0.0
 35
0.0
146
0.0
 13
0.0
 23
0.0
 33
0.0
 16
1.0
 26
0.0
 36
0.0
 17
0.0
 27
1.0
 37
0.0
 76
     0
330
23
  0
LAYOUT
  5
22
102
{ACAD_REACTORS
330
1A
102
}
330
1A
100
AcDbPlotSettings
  1

  2
none_device
  4

  6

 40
0.0
 41
0.0
 42
0.0
 43
0.0
 44
0.0
 45
0.0
 46
0.0
 47
0.0
 48
0.0
 49
0.0
140
0.0
141
0.0
142
1.0
143
1.0
 70
  1712
 72
     0
 73
     0
 74
     0
  7

 75
     0
 76
     0
 77
     5
 78
   300
147
1.0
148
0.0
149
0.0
100
AcDbLayout
  1
Model
 70
     1
 71
     0
 10
-2100.0
 20
-1485.0
 11
2100.0
 21
1485.0
 12
0.0
 22
0.0
 32
0.0
 14
-2100.0
 24
-1485.0
 34
0.0
 15
2100.0
 25
1485.0
 35
0.0
146
0.0
 13
0.0
 23
0.0
 33
0.0
 16
1.0
 26
0.0
 36
0.0
 17
0.0
 27
1.0
 37
0.0
 76
     0
330
1F
331
29
  0
MLINESTYLE
  5
18
102
{ACAD_REACTORS
330
17
102
}
330
17
100
AcDbMlineStyle
  2
Standard
 70
     0
  3

 62
   256
 51
90.0
 52
90.0
 71
     2
 49
0.5
 62
   256
  6
BYLAYER
 49
-0.5
 62
   256
  6
BYLAYER
  0
ACDBPLACEHOLDER
  5
F
102
{ACAD_REACTORS
330
E
102
}
330
E
  0
VISUALSTYLE
  5
2F
102
{ACAD_REACTORS
330
2A
102
}
330
2A
100
AcDbVisualStyle
  2
2dWireframe
 70
     4
 71
     0
 72
     2
 73
     0
 90
        0
 40
-0.6
 41
-30.0
 62
     5
 63
     7
421
 16777215
 74
     1
 91
        4
 64
     7
 65
   257
 75
     1
175
     1
 42
1.0
 92
        0
 66
   257
 43
1.0
 76
     1
 77
     6
 78
     2
 67
     7
 79
     5
170
     0
171
     0
290
     0
174
     0
 93
        1
 44
0.0
173
     0
291
     0
 45
0.0
  0
VISUALSTYLE
  5
31
102
{ACAD_REACTORS
330
2A
102
}
330
2A
100
AcDbVisualStyle
  2
3D Hidden
 70
     6
 71
     1
 72
     2
 73
     2
 90
        0
 40
-0.6
 41
-30.0
 62
     5
 63
     7
421
 16777215
 74
     2
 91
        2
 64
     7
 65
   257
 75
     2
175
     1
 42
40.0
 92
        0
 66
   257
 43
1.0
 76
     1
 77
     6
 78
     2
 67
     7
 79
     3
170
     0
171
     0
290
     0
174
     0
 93
        1
 44
0.0
173
     0
291
     0
 45
0.0
  0
VISUALSTYLE
  5
30
102
{ACAD_REACTORS
330
2A
102
}
330
2A
100
AcDbVisualStyle
  2
3dWireframe
 70
     5
 71
     0
 72
     2
 73
     0
 90
        0
 40
-0.6
 41
-30.0
 62
     5
 63
     7
421
 16777215
 74
     1
 91
        4
 64
     7
 65
   257
 75
     1
175
     1
 42
1.0
 92
        0
 66
   257
 43
1.0
 76
     1
 77
     6
 78
     2
 67
     7
 79
     5
170
     0
171
     0
290
     0
174
     0
 93
        1
 44
0.0
173
     0
291
     0
 45
0.0
  0
VISUALSTYLE
  5
32
102
{ACAD_REACTORS
330
2A
102
}
330
2A
100
AcDbVisualStyle
  2
Basic
 70
     7
 71
     1
 72
     0
 73
     1
 90
        0
 40
-0.6
 41
-30.0
 62
     5
 63
     7
421
 16777215
 74
     0
 91
        4
 64
     7
 65
   257
 75
     1
175
     1
 42
1.0
 92
        8
 66
     7
 43
1.0
 76
     1
 77
     6
 78
     2
 67
     7
 79
     5
170
     0
171
     0
290
     0
174
     0
 93
        1
 44
0.0
173
     0
291
     1
 45
0.0
  0
VISUALSTYLE
  5
36
102
{ACAD_REACTORS
330
2A
102
}
330
2A
100
AcDbVisualStyle
  2
Brighten
 70
    12
 71
     2
 72
     2
 73
     0
 90
        0
 40
-0.6
 41
-30.0
 62
     5
 63
     7
421
 16777215
 74
     1
 91
        4
 64
     7
 65
   257
 75
     1
175
     1
 42
1.0
 92
        8
 66
     7
 43
1.0
 76
     1
 77
     6
 78
     2
 67
     7
 79
     5
170
     0
171
     0
290
     0
174
     0
 93
        1
 44
50.0
173
     0
291
     1
 45
0.0
  0
VISUALSTYLE
  5
3A
102
{ACAD_REACTORS
330
2A
102
}
330
2A
100
AcDbVisualStyle
  2
ColorChange
 70
    16
 71
     2
 72
     2
 73
     3
 90
        0
 40
-0.6
 41
-30.0
 62
     5
 63
     8
421
  8421504
 74
     1
 91
        4
 64
     7
 65
   257
 75
     1
175
     1
 42
1.0
 92
        8
 66
     8
424
  8421504
 43
1.0
 76
     1
 77
     6
 78
     2
 67
     7
 79
     5
170
     0
171
     0
290
     0
174
     0
 93
        1
 44
0.0
173
     0
291
     1
 45
0.0
  0
VISUALSTYLE
  5
34
102
{ACAD_REACTORS
330
2A
102
}
330
2A
100
AcDbVisualStyle
  2
Conceptual
 70
     9
 71
     3
 72
     2
 73
     0
 90
        0
 40
-0.6
 41
-30.0
 62
     5
 63
     7
421
 16777215
 74
     2
 91
        2
 64
     7
 65
   257
 75
     1
175
     1
 42
40.0
 92
        8
 66
     7
 43
1.0
 76
     1
 77
     6
 78
     2
 67
     7
 79
     3
170
     0
171
     0
290
     0
174
     0
 93
        1
 44
0.0
173
     0
291
     0
 45
0.0
  0
VISUALSTYLE
  5
35
102
{ACAD_REACTORS
330
2A
102
}
330
2A
100
AcDbVisualStyle
  2
Dim
 70
    11
 71
     2
 72
     2
 73
     0
 90
        0
 40
-0.6
 41
-30.0
 62
     5
 63
     7
421
 16777215
 74
     1
 91
        4
 64
     7
 65
   257
 75
     1
175
     1
 42
1.0
 92
        8
 66
     7
 43
1.0
 76
     1
 77
     6
 78
     2
 67
     7
 79
     5
170
     0
171
     0
290
     0
174
     0
 93
        1
 44
-50.0
173
     0
291
     1
 45
0.0
  0
VISUALSTYLE
  5
39
102
{ACAD_REACTORS
330
2A
102
}
330
2A
100
AcDbVisualStyle
  2
Facepattern
 70
    15
 71
     2
 72
     2
 73
     0
 90
        0
 40
-0.6
 41
-30.0
 62
     5
 63
     7
421
 16777215
 74
     1
 91
        4
 64
     7
 65
   257
 75
     1
175
     1
 42
1.0
 92
        8
 66
     7
 43
1.0
 76
     1
 77
     6
 78
     2
 67
     7
 79
     5
170
     0
171
     0
290
     0
174
     0
 93
        1
 44
0.0
173
     0
291
     1
 45
0.0
  0
VISUALSTYLE
  5
2B
102
{ACAD_REACTORS
330
2A
102
}
330
2A
100
AcDbVisualStyle
  2
Flat
 70
     0
 71
     2
 72
     1
 73
     1
 90
        2
 40
-0.6
 41
30.0
 62
     5
 63
     7
421
 16777215
 74
     0
 91
        4
 64
     7
 65
   257
 75
     1
175
     1
 42
1.0
 92
        8
 66
     7
 43
1.0
 76
     1
 77
     6
 78
     2
 67
     7
 79
     5
170
     0
171
     0
290
     0
174
     0
 93
       13
 44
0.0
173
     0
291
     1
 45
0.0
  0
VISUALSTYLE
  5
2C
102
{ACAD_REACTORS
330
2A
102
}
330
2A
100
AcDbVisualStyle
  2
FlatWithEdges
 70
     1
 71
     2
 72
     1
 73
     1
 90
        2
 40
-0.6
 41
30.0
 62
     5
 63
     7
421
 16777215
 74
     1
 91
        4
 64
     7
 65
   257
 75
     1
175
     1
 42
1.0
 92
        0
 66
   257
 43
1.0
 76
     1
 77
     6
 78
     2
 67
     7
 79
     5
170
     0
171
     0
290
     0
174
     0
 93
       13
 44
0.0
173
     0
291
     1
 45
0.0
  0
VISUALSTYLE
  5
2D
102
{ACAD_REACTORS
330
2A
102
}
330
2A
100
AcDbVisualStyle
  2
Gouraud
 70
     2
 71
     2
 72
     2
 73
     1
 90
        2
 40
-0.6
 41
30.0
 62
     5
 63
     7
421
 16777215
 74
     0
 91
        4
 64
     7
 65
   257
 75
     1
175
     1
 42
1.0
 92
        0
 66
     7
 43
1.0
 76
     1
 77
     6
 78
     2
 67
     7
 79
     5
170
     0
171
     0
290
     0
174
     0
 93
       13
 44
0.0
173
     0
291
     1
 45
0.0
  0
VISUALSTYLE
  5
2E
102
{ACAD_REACTORS
330
2A
102
}
330
2A
100
AcDbVisualStyle
  2
GouraudWithEdges
 70
     3
 71
     2
 72
     2
 73
     1
 90
        2
 40
-0.6
 41
30.0
 62
     5
 63
     7
421
 16777215
 74
     1
 91
        4
 64
     7
 65
   257
 75
     1
175
     1
 42
1.0
 92
        0
 66
   257
 43
1.0
 76
     1
 77
     6
 78
     2
 67
     7
 79
     5
170
     0
171
     0
290
     0
174
     0
 93
       13
 44
0.0
173
     0
291
     1
 45
0.0
  0
VISUALSTYLE
  5
38
102
{ACAD_REACTORS
330
2A
102
}
330
2A
100
AcDbVisualStyle
  2
Linepattern
 70
    14
 71
     2
 72
     2
 73
     0
 90
        0
 40
-0.6
 41
-30.0
 62
     5
 63
     7
421
 16777215
 74
     1
 91
        4
 64
     7
 65
   257
 75
     7
175
     7
 42
1.0
 92
        8
 66
     7
 43
1.0
 76
     1
 77
     6
 78
     2
 67
     7
 79
     5
170
     0
171
     0
290
     0
174
     0
 93
        1
 44
0.0
173
     0
291
     1
 45
0.0
  0
VISUALSTYLE
  5
33
102
{ACAD_REACTORS
330
2A
102
}
330
2A
100
AcDbVisualStyle
  2
Realistic
 70
     8
 71
     2
 72
     2
 73
     0
 90
        0
 40
-0.6
 41
-30.0
 62
     5
 63
     7
421
 16777215
 74
     1
 91
        0
 64
     7
 65
   257
 75
     1
175
     1
 42
1.0
 92
        8
 66
     8
424
  7895160
 43
1.0
 76
     1
 77
     6
 78
     2
 67
     7
 79
     5
170
     0
171
     0
290
     0
174
     0
 93
       13
 44
0.0
173
     0
291
     0
 45
0.0
  0
VISUALSTYLE
  5
37
102
{ACAD_REACTORS
330
2A
102
}
330
2A
100
AcDbVisualStyle
  2
Thicken
 70
    13
 71
     2
 72
     2
 73
     0
 90
        0
 40
-0.6
 41
-30.0
 62
     5
 63
     7
421
 16777215
 74
     1
 91
        4
 64
     7
 65
   257
 75
     1
175
     1
 42
1.0
 92
       12
 66
     7
 43
1.0
 76
     1
 77
     6
 78
     2
 67
     7
 79
     5
170
     0
171
     0
290
     0
174
     0
 93
        1
 44
0.0
173
     0
291
     1
 45
0.0
  0
ENDSEC
  0
EOF
