  0
SECTION
  2
HEADER
  9
$ACADVER
  1
AC1018
  9
$ACADMAINTVER
 70
     0
  9
$DWGCODEPAGE
  3
ANSI_932
  9
$INSBASE
 10
0.0
 20
0.0
 30
0.0
  9
$EXTMIN
 10
-2100.0
 20
-1485.0
 30
0.0
  9
$EXTMAX
 10
2100.0
 20
1485.0
 30
0.0
  9
$LIMMIN
 10
-2100.0
 20
-1485.0
  9
$LIMMAX
 10
2100.0
 20
1485.0
  9
$ORTHOMODE
 70
     0
  9
$REGENMODE
 70
     1
  9
$FILLMODE
 70
     1
  9
$QTEXTMODE
 70
     0
  9
$MIRRTEXT
 70
     1
  9
$LTSCALE
 40
10.0
  9
$ATTMODE
 70
     1
  9
$TEXTSIZE
 40
2.5
  9
$TRACEWID
 40
1.0
  9
$TEXTSTYLE
  7
Standard
  9
$CLAYER
  8
0
  9
$CELTYPE
  6
ByLayer
  9
$CECOLOR
 62
   256
  9
$CELTSCALE
 40
1.0
  9
$DISPSILH
 70
     0
  9
$DIMSCALE
 40
1.0
  9
$DIMASZ
 40
2.5
  9
$DIMEXO
 40
0.625
  9
$DIMDLI
 40
3.75
  9
$DIMRND
 40
0.0
  9
$DIMDLE
 40
0.0
  9
$DIMEXE
 40
1.25
  9
$DIMTP
 40
0.0
  9
$DIMTM
 40
0.0
  9
$DIMTXT
 40
2.5
  9
$DIMCEN
 40
2.5
  9
$DIMTSZ
 40
0.0
  9
$DIMTOL
 70
     0
  9
$DIMLIM
 70
     0
  9
$DIMTIH
 70
     0
  9
$DIMTOH
 70
     0
  9
$DIMSE1
 70
     0
  9
$DIMSE2
 70
     0
  9
$DIMTAD
 70
     1
  9
$DIMZIN
 70
     8
  9
$DIMBLK
  1

  9
$DIMASO
 70
     1
  9
$DIMSHO
 70
     1
  9
$DIMPOST
  1

  9
$DIMAPOST
  1

  9
$DIMALT
 70
     0
  9
$DIMALTD
 70
     3
  9
$DIMALTF
 40
0.03937007874016
  9
$DIMLFAC
 40
1.0
  9
$DIMTOFL
 70
     1
  9
$DIMTVP
 40
0.0
  9
$DIMTIX
 70
     0
  9
$DIMSOXD
 70
     0
  9
$DIMSAH
 70
     0
  9
$DIMBLK1
  1

  9
$DIMBLK2
  1

  9
$DIMSTYLE
  2
ISO-25
  9
$DIMCLRD
 70
     0
  9
$DIMCLRE
 70
     0
  9
$DIMCLRT
 70
     0
  9
$DIMTFAC
 40
1.0
  9
$DIMGAP
 40
0.625
  9
$DIMJUST
 70
     0
  9
$DIMSD1
 70
     0
  9
$DIMSD2
 70
     0
  9
$DIMTOLJ
 70
     0
  9
$DIMTZIN
 70
     8
  9
$DIMALTZ
 70
     0
  9
$DIMALTTZ
 70
     0
  9
$DIMUPT
 70
     0
  9
$DIMDEC
 70
     2
  9
$DIMTDEC
 70
     2
  9
$DIMALTU
 70
     2
  9
$DIMALTTD
 70
     3
  9
$DIMTXSTY
  7
Standard
  9
$DIMAUNIT
 70
     0
  9
$DIMADEC
 70
     0
  9
$DIMALTRND
 40
0.0
  9
$DIMAZIN
 70
     0
  9
$DIMDSEP
 70
    44
  9
$DIMATFIT
 70
     3
  9
$DIMFRAC
 70
     0
  9
$DIMLDRBLK
  1

  9
$DIMLUNIT
 70
     2
  9
$DIMLWD
 70
    -2
  9
$DIMLWE
 70
    -2
  9
$DIMTMOVE
 70
     0
  9
$LUNITS
 70
     2
  9
$LUPREC
 70
     4
  9
$SKETCHINC
 40
1.0
  9
$FILLETRAD
 40
10.0
  9
$AUNITS
 70
     0
  9
$AUPREC
 70
     0
  9
$MENU
  1
.
  9
$ELEVATION
 40
0.0
  9
$PELEVATION
 40
0.0
  9
$THICKNESS
 40
0.0
  9
$LIMCHECK
 70
     0
  9
$CHAMFERA
 40
10.0
  9
$CHAMFERB
 40
10.0
  9
$CHAMFERC
 40
20.0
  9
$CHAMFERD
 40
0.0
  9
$SKPOLY
 70
     0
  9
$TDCREATE
 40
2457641.426711748
  9
$TDUCREATE
 40
2457641.051711748
  9
$TDUPDATE
 40
2457641.426711759
  9
$TDUUPDATE
 40
2457641.051711759
  9
$TDINDWG
 40
0.0000000116
  9
$TDUSRTIMER
 40
0.0000000116
  9
$USRTIMER
 70
     1
  9
$ANGBASE
 50
0.0
  9
$ANGDIR
 70
     0
  9
$PDMODE
 70
     0
  9
$PDSIZE
 40
0.0
  9
$PLINEWID
 40
0.0
  9
$SPLFRAME
 70
     0
  9
$SPLINETYPE
 70
     6
  9
$SPLINESEGS
 70
     8
  9
$HANDSEED
  5
541
  9
$SURFTAB1
 70
     6
  9
$SURFTAB2
 70
     6
  9
$SURFTYPE
 70
     6
  9
$SURFU
 70
     6
  9
$SURFV
 70
     6
  9
$UCSBASE
  2

  9
$UCSNAME
  2

  9
$UCSORG
 10
0.0
 20
0.0
 30
0.0
  9
$UCSXDIR
 10
1.0
 20
0.0
 30
0.0
  9
$UCSYDIR
 10
0.0
 20
1.0
 30
0.0
  9
$UCSORTHOREF
  2

  9
$UCSORTHOVIEW
 70
     0
  9
$UCSORGTOP
 10
0.0
 20
0.0
 30
0.0
  9
$UCSORGBOTTOM
 10
0.0
 20
0.0
 30
0.0
  9
$UCSORGLEFT
 10
0.0
 20
0.0
 30
0.0
  9
$UCSORGRIGHT
 10
0.0
 20
0.0
 30
0.0
  9
$UCSORGFRONT
 10
0.0
 20
0.0
 30
0.0
  9
$UCSORGBACK
 10
0.0
 20
0.0
 30
0.0
  9
$PUCSBASE
  2

  9
$PUCSNAME
  2

  9
$PUCSORG
 10
0.0
 20
0.0
 30
0.0
  9
$PUCSXDIR
 10
1.0
 20
0.0
 30
0.0
  9
$PUCSYDIR
 10
0.0
 20
1.0
 30
0.0
  9
$PUCSORTHOREF
  2

  9
$PUCSORTHOVIEW
 70
     0
  9
$PUCSORGTOP
 10
0.0
 20
0.0
 30
0.0
  9
$PUCSORGBOTTOM
 10
0.0
 20
0.0
 30
0.0
  9
$PUCSORGLEFT
 10
0.0
 20
0.0
 30
0.0
  9
$PUCSORGRIGHT
 10
0.0
 20
0.0
 30
0.0
  9
$PUCSORGFRONT
 10
0.0
 20
0.0
 30
0.0
  9
$PUCSORGBACK
 10
0.0
 20
0.0
 30
0.0
  9
$USERI1
 70
     0
  9
$USERI2
 70
     0
  9
$USERI3
 70
     0
  9
$USERI4
 70
     0
  9
$USERI5
 70
     0
  9
$USERR1
 40
0.0
  9
$USERR2
 40
0.0
  9
$USERR3
 40
0.0
  9
$USERR4
 40
0.0
  9
$USERR5
 40
0.0
  9
$WORLDVIEW
 70
     1
  9
$SHADEDGE
 70
     3
  9
$SHADEDIF
 70
    70
  9
$TILEMODE
 70
     1
  9
$MAXACTVP
 70
    64
  9
$PINSBASE
 10
0.0
 20
0.0
 30
0.0
  9
$PLIMCHECK
 70
     0
  9
$PEXTMIN
 10
1.000000000000000E+20
 20
1.000000000000000E+20
 30
1.000000000000000E+20
  9
$PEXTMAX
 10
-1.000000000000000E+20
 20
-1.000000000000000E+20
 30
-1.000000000000000E+20
  9
$PLIMMIN
 10
0.0
 20
0.0
  9
$PLIMMAX
 10
420.0
 20
297.0
  9
$UNITMODE
 70
     0
  9
$VISRETAIN
 70
     1
  9
$PLINEGEN
 70
     0
  9
$PSLTSCALE
 70
     1
  9
$TREEDEPTH
 70
  3020
  9
$CMLSTYLE
  2
Standard
  9
$CMLJUST
 70
     0
  9
$CMLSCALE
 40
20.0
  9
$PROXYGRAPHICS
 70
     1
  9
$MEASUREMENT
 70
     1
  9
$CELWEIGHT
370
    -1
  9
$ENDCAPS
280
     0
  9
$JOINSTYLE
280
     0
  9
$LWDISPLAY
290
     0
  9
$INSUNITS
 70
     4
  9
$HYPERLINKBASE
  1

  9
$STYLESHEET
  1

  9
$XEDIT
290
     1
  9
$CEPSNTYPE
380
     0
  9
$PSTYLEMODE
290
     1
  9
$FINGERPRINTGUID
  2
{F6038E9C-6CF3-4F40-9ECB-0D89AF458484}
  9
$VERSIONGUID
  2
{FAEB1C32-E019-11D5-929B-00C0DF256EC4}
  9
$EXTNAMES
290
     1
  9
$PSVPSCALE
 40
0.0
  9
$OLESTARTUP
290
     0
  9
$SORTENTS
280
   127
  9
$INDEXCTL
280
     0
  9
$HIDETEXT
280
     1
  9
$XCLIPFRAME
290
     0
  9
$HALOGAP
280
     0
  9
$OBSCOLOR
 70
   257
  9
$OBSLTYPE
280
     0
  9
$INTERSECTIONDISPLAY
280
     0
  9
$INTERSECTIONCOLOR
 70
   257
  9
$DIMASSOC
280
     2
  9
$PROJECTNAME
  1

  0
ENDSEC
  0
SECTION
  2
CLASSES
  0
CLASS
  1
ACDBDICTIONARYWDFLT
  2
AcDbDictionaryWithDefault
  3
ObjectDBX Classes
 90
        0
 91
        4
280
     0
281
     0
  0
CLASS
  1
VISUALSTYLE
  2
AcDbVisualStyle
  3
ObjectDBX Classes
 90
     4095
 91
        4
280
     0
281
     0
  0
ENDSEC
  0
SECTION
  2
TABLES
  0
TABLE
  2
VPORT
  5
8
330
0
100
AcDbSymbolTable
 70
     1
  0
VPORT
  5
29
330
8
100
AcDbSymbolTableRecord
100
AcDbViewportTableRecord
  2
*Active
 70
     0
 10
0.0
 20
0.0
 11
1.0
 21
1.0
 12
0.0
 22
0.0
 13
0.0
 23
0.0
 14
10.0
 24
10.0
 15
10.0
 25
10.0
 16
0.0
 26
0.0
 36
1.0
 17
0.0
 27
0.0
 37
0.0
 40
3267.0
 41
1.414141414141414
 42
50.0
 43
0.0
 44
0.0
 50
0.0
 51
0.0
 71
     0
 72
 10000
 73
     1
 74
     3
 75
     0
 76
     0
 77
     0
 78
     0
281
     0
 65
     1
110
0.0
120
0.0
130
0.0
111
1.0
121
0.0
131
0.0
112
0.0
122
1.0
132
0.0
 79
     0
146
0.0
  0
ENDTAB
  0
TABLE
  2
LTYPE
  5
5
330
0
100
AcDbSymbolTable
 70
     5
  0
LTYPE
  5
14
330
5
100
AcDbSymbolTableRecord
100
AcDbLinetypeTableRecord
  2
ByBlock
 70
     0
  3

 72
    65
 73
     0
 40
0.0
  0
LTYPE
  5
15
330
5
100
AcDbSymbolTableRecord
100
AcDbLinetypeTableRecord
  2
ByLayer
 70
     0
  3

 72
    65
 73
     0
 40
0.0
  0
LTYPE
  5
16
330
5
100
AcDbSymbolTableRecord
100
AcDbLinetypeTableRecord
  2
Continuous
 70
     0
  3
Solid line
 72
    65
 73
     0
 40
0.0
  0
LTYPE
  5
3C
330
5
100
AcDbSymbolTableRecord
100
AcDbLinetypeTableRecord
  2
JWW_DASHED3
 70
     0
  3
---  ------  ------  ------  ---
 72
    65
 73
     2
 40
3.386666666666667
 49
2.54
 74
     0
 49
-0.8466666666666667
 74
     0
  0
LTYPE
  5
3D
330
5
100
AcDbSymbolTableRecord
100
AcDbLinetypeTableRecord
  2
JWW_CENTER2
 70
     0
  3
-------------  --  -------------
 72
    65
 73
     4
 40
13.54666666666667
 49
11.00666666666667
 74
     0
 49
-0.8466666666666667
 74
     0
 49
0.8466666666666667
 74
     0
 49
-0.8466666666666667
 74
     0
  0
LTYPE
  5
3E
330
5
100
AcDbSymbolTableRecord
100
AcDbLinetypeTableRecord
  2
JWW_CENTER1
 70
     0
  3
-----  --  ----------  --  -----
 72
    65
 73
     4
 40
6.773333333333333
 49
4.233333333333333
 74
     0
 49
-0.8466666666666667
 74
     0
 49
0.8466666666666667
 74
     0
 49
-0.8466666666666667
 74
     0
  0
LTYPE
  5
3F
330
5
100
AcDbSymbolTableRecord
100
AcDbLinetypeTableRecord
  2
JWW_DASHED2
 70
     0
  3
--    ----    ----    ----    --
 72
    65
 73
     2
 40
3.386666666666667
 49
1.693333333333333
 74
     0
 49
-1.693333333333333
 74
     0
  0
ENDTAB
  0
TABLE
  2
LAYER
  5
2
330
0
100
AcDbSymbolTable
 70
    17
  0
LAYER
  5
10
330
2
100
AcDbSymbolTableRecord
100
AcDbLayerTableRecord
  2
0
 70
     0
 62
     7
  6
Continuous
370
    -3
390
F
  0
LAYER
  5
40
330
2
100
AcDbSymbolTableRecord
100
AcDbLayerTableRecord
  2
D-2
 70
     0
 62
     7
  6
Continuous
370
    -3
390
F
  0
LAYER
  5
41
330
2
100
AcDbSymbolTableRecord
100
AcDbLayerTableRecord
  2
D-4
 70
     0
 62
     7
  6
Continuous
370
    -3
390
F
  0
LAYER
  5
42
330
2
100
AcDbSymbolTableRecord
100
AcDbLayerTableRecord
  2
D-6
 70
     0
 62
     7
  6
Continuous
370
    -3
390
F
  0
LAYER
  5
43
330
2
100
AcDbSymbolTableRecord
100
AcDbLayerTableRecord
  2
D-0
 70
     0
 62
     7
  6
Continuous
370
    -3
390
F
  0
LAYER
  5
44
330
2
100
AcDbSymbolTableRecord
100
AcDbLayerTableRecord
  2
D-9
 70
     0
 62
     7
  6
Continuous
370
    -3
390
F
  0
LAYER
  5
45
330
2
100
AcDbSymbolTableRecord
100
AcDbLayerTableRecord
  2
D-1
 70
     0
 62
     7
  6
Continuous
370
    -3
390
F
  0
LAYER
  5
46
330
2
100
AcDbSymbolTableRecord
100
AcDbLayerTableRecord
  2
D-3
 70
     0
 62
     7
  6
Continuous
370
    -3
390
F
  0
LAYER
  5
47
330
2
100
AcDbSymbolTableRecord
100
AcDbLayerTableRecord
  2
D-A
 70
     0
 62
     7
  6
Continuous
370
    -3
390
F
  0
LAYER
  5
48
330
2
100
AcDbSymbolTableRecord
100
AcDbLayerTableRecord
  2
D-5
 70
     0
 62
     7
  6
Continuous
370
    -3
390
F
  0
LAYER
  5
49
330
2
100
AcDbSymbolTableRecord
100
AcDbLayerTableRecord
  2
F-5ﾚｲﾔ
 70
     0
 62
     7
  6
Continuous
370
    -3
390
F
  0
LAYER
  5
4A
330
2
100
AcDbSymbolTableRecord
100
AcDbLayerTableRecord
  2
F-4ﾚｲﾔ
 70
     0
 62
     7
  6
Continuous
370
    -3
390
F
  0
LAYER
  5
4B
330
2
100
AcDbSymbolTableRecord
100
AcDbLayerTableRecord
  2
C-5
 70
     0
 62
     7
  6
Continuous
370
    -3
390
F
  0
LAYER
  5
4C
330
2
100
AcDbSymbolTableRecord
100
AcDbLayerTableRecord
  2
C-4
 70
     0
 62
     7
  6
Continuous
370
    -3
390
F
  0
LAYER
  5
4D
330
2
100
AcDbSymbolTableRecord
100
AcDbLayerTableRecord
  2
C-2
 70
     0
 62
     7
  6
Continuous
370
    -3
390
F
  0
LAYER
  5
4E
330
2
100
AcDbSymbolTableRecord
100
AcDbLayerTableRecord
  2
C-A
 70
     0
 62
     7
  6
Continuous
370
    -3
390
F
  0
LAYER
  5
4F
330
2
100
AcDbSymbolTableRecord
100
AcDbLayerTableRecord
  2
C-1
 70
     0
 62
     7
  6
Continuous
370
    -3
390
F
  0
ENDTAB
  0
TABLE
  2
STYLE
  5
3
330
0
100
AcDbSymbolTable
 70
     2
  0
STYLE
  5
11
330
3
100
AcDbSymbolTableRecord
100
AcDbTextStyleTableRecord
  2
Standard
 70
     0
 40
0.0
 41
1.0
 50
0.0
 71
     0
 42
2.5
  3
txt
  4

1001
ACAD
1000

1071
        0
  0
STYLE
  5
3B
330
3
100
AcDbSymbolTableRecord
100
AcDbTextStyleTableRecord
  2
ＭＳ ゴシック
 70
     0
 40
1.0
 41
1.0
 50
0.0
 71
     0
 42
10.0
  3

  4

1001
ACAD
1000
MS Gothic
1071
    32817
  0
ENDTAB
  0
TABLE
  2
VIEW
  5
6
330
0
100
AcDbSymbolTable
 70
     0
  0
ENDTAB
  0
TABLE
  2
UCS
  5
7
330
0
100
AcDbSymbolTable
 70
     0
  0
ENDTAB
  0
TABLE
  2
APPID
  5
9
330
0
100
AcDbSymbolTable
 70
     1
  0
APPID
  5
12
330
9
100
AcDbSymbolTableRecord
100
AcDbRegAppTableRecord
  2
ACAD
 70
     0
  0
ENDTAB
  0
TABLE
  2
DIMSTYLE
  5
A
330
0
100
AcDbSymbolTable
 70
     1
100
AcDbDimStyleTable
  0
DIMSTYLE
105
27
330
A
100
AcDbSymbolTableRecord
100
AcDbDimStyleTableRecord
  2
ISO-25
 70
     0
 41
2.5
 42
0.625
 43
3.75
 44
1.25
 73
     0
 74
     0
 77
     1
 78
     8
140
2.5
141
2.5
143
0.03937007874016
147
0.625
171
     3
172
     1
271
     2
272
     2
274
     3
278
    44
283
     0
284
     8
340
11
  0
ENDTAB
  0
TABLE
  2
BLOCK_RECORD
  5
1
330
0
100
AcDbSymbolTable
 70
     1
  0
BLOCK_RECORD
  5
1F
330
1
100
AcDbSymbolTableRecord
100
AcDbBlockTableRecord
  2
*Model_Space
340
22
  0
BLOCK_RECORD
  5
1B
330
1
100
AcDbSymbolTableRecord
100
AcDbBlockTableRecord
  2
*Paper_Space
340
1E
  0
BLOCK_RECORD
  5
23
330
1
100
AcDbSymbolTableRecord
100
AcDbBlockTableRecord
  2
*Paper_Space0
340
26
  0
ENDTAB
  0
ENDSEC
  0
SECTION
  2
BLOCKS
  0
BLOCK
  5
20
330
1F
100
AcDbEntity
  8
0
100
AcDbBlockBegin
  2
*Model_Space
 70
     0
 10
0.0
 20
0.0
 30
0.0
  3
*Model_Space
  1

  0
ENDBLK
  5
21
330
1F
100
AcDbEntity
  8
0
100
AcDbBlockEnd
  0
BLOCK
  5
1C
330
1B
100
AcDbEntity
 67
     1
  8
0
100
AcDbBlockBegin
  2
*Paper_Space
 70
     0
 10
0.0
 20
0.0
 30
0.0
  3
*Paper_Space
  1

  0
ENDBLK
  5
1D
330
1B
100
AcDbEntity
 67
     1
  8
0
100
AcDbBlockEnd
  0
BLOCK
  5
24
330
23
100
AcDbEntity
  8
0
100
AcDbBlockBegin
  2
*Paper_Space0
 70
     0
 10
0.0
 20
0.0
 30
0.0
  3
*Paper_Space0
  1

  0
ENDBLK
  5
25
330
23
100
AcDbEntity
  8
0
100
AcDbBlockEnd
  0
ENDSEC
  0
SECTION
  2
ENTITIES
  0
ARC
  5
50
330
1F
100
AcDbEntity
  8
D-2
  6
Continuous
 62
     3
370
     9
100
AcDbCircle
 10
-1065.768204839256
 20
-269.1087444054108
 30
0.0
 40
5.0
100
AcDbArc
 50
0.0
 51
90.00000000000001
  0
LINE
  5
51
330
1F
100
AcDbEntity
  8
D-2
  6
Continuous
 62
     3
370
     9
100
AcDbLine
 10
-827.2676478934546
 20
-333.1088595615847
 30
0.0
 11
-827.2676478934546
 21
-258.1087612139208
 31
0.0
  0
LINE
  5
52
330
1F
100
AcDbEntity
  8
D-2
  6
Continuous
 62
     3
370
     9
100
AcDbLine
 10
-1502.267571599509
 20
-333.1088595615847
 30
0.0
 11
-827.2676478934546
 21
-333.1088595615847
 31
0.0
  0
LINE
  5
53
330
1F
100
AcDbEntity
  8
D-2
  6
Continuous
 62
     3
370
     9
100
AcDbLine
 10
-827.2676478934546
 20
-258.1087612139208
 30
0.0
 11
-1502.267571599509
 21
-258.1087612139208
 31
0.0
  0
LINE
  5
54
330
1F
100
AcDbEntity
  8
D-2
  6
Continuous
 62
     3
370
     9
100
AcDbLine
 10
-1457.267609746482
 20
-264.1087444054108
 30
0.0
 11
-1457.267609746482
 21
-258.1087612139208
 31
0.0
  0
LINE
  5
55
330
1F
100
AcDbEntity
  8
D-2
  6
Continuous
 62
     3
370
     9
100
AcDbLine
 10
-1497.268258245017
 20
-264.1087444054108
 30
0.0
 11
-1497.268258245017
 21
-258.1087612139208
 31
0.0
  0
LINE
  5
56
330
1F
100
AcDbEntity
  8
D-2
  6
Continuous
 62
     3
370
     9
100
AcDbLine
 10
-1401.268235356833
 20
-264.1087444054108
 30
0.0
 11
-1389.767914922263
 21
-264.1087444054108
 31
0.0
  0
LINE
  5
57
330
1F
100
AcDbEntity
  8
D-2
  6
Continuous
 62
     3
370
     9
100
AcDbLine
 10
-1427.26844897988
 20
-264.1087444054108
 30
0.0
 11
-1387.267800481345
 21
-264.1087444054108
 31
0.0
  0
LINE
  5
58
330
1F
100
AcDbEntity
  8
D-2
  6
Continuous
 62
     3
370
     9
100
AcDbLine
 10
-1387.267800481345
 20
-264.1087444054108
 30
0.0
 11
-1387.267800481345
 21
-258.1087612139208
 31
0.0
  0
LINE
  5
59
330
1F
100
AcDbEntity
  8
D-2
  6
Continuous
 62
     3
370
     9
100
AcDbLine
 10
-1427.26844897988
 20
-264.1087444054108
 30
0.0
 11
-1427.26844897988
 21
-258.1087612139208
 31
0.0
  0
LINE
  5
5A
330
1F
100
AcDbEntity
  8
D-2
  6
Continuous
 62
     3
370
     9
100
AcDbLine
 10
-1331.268387944724
 20
-264.1087444054108
 30
0.0
 11
-1319.768067510154
 21
-264.1087444054108
 31
0.0
  0
LINE
  5
5B
330
1F
100
AcDbEntity
  8
D-2
  6
Continuous
 62
     3
370
     9
100
AcDbLine
 10
-1357.268601567771
 20
-264.1087444054108
 30
0.0
 11
-1317.267953069236
 21
-264.1087444054108
 31
0.0
  0
LINE
  5
5C
330
1F
100
AcDbEntity
  8
D-2
  6
Continuous
 62
     3
370
     9
100
AcDbLine
 10
-1317.267953069236
 20
-264.1087444054108
 30
0.0
 11
-1317.267953069236
 21
-258.1087612139208
 31
0.0
  0
LINE
  5
5D
330
1F
100
AcDbEntity
  8
D-2
  6
Continuous
 62
     3
370
     9
100
AcDbLine
 10
-1357.268601567771
 20
-264.1087444054108
 30
0.0
 11
-1357.268601567771
 21
-258.1087612139208
 31
0.0
  0
LINE
  5
5E
330
1F
100
AcDbEntity
  8
D-2
  6
Continuous
 62
     3
370
     9
100
AcDbLine
 10
-1261.268082768943
 20
-264.1087444054108
 30
0.0
 11
-1249.767762334373
 21
-264.1087444054108
 31
0.0
  0
LINE
  5
5F
330
1F
100
AcDbEntity
  8
D-2
  6
Continuous
 62
     3
370
     9
100
AcDbLine
 10
-1287.26829639199
 20
-264.1087444054108
 30
0.0
 11
-1247.267647893455
 21
-264.1087444054108
 31
0.0
  0
LINE
  5
60
330
1F
100
AcDbEntity
  8
D-2
  6
Continuous
 62
     3
370
     9
100
AcDbLine
 10
-1247.267647893455
 20
-264.1087444054108
 30
0.0
 11
-1247.267647893455
 21
-258.1087612139208
 31
0.0
  0
LINE
  5
61
330
1F
100
AcDbEntity
  8
D-2
  6
Continuous
 62
     3
370
     9
100
AcDbLine
 10
-1287.26829639199
 20
-264.1087444054108
 30
0.0
 11
-1287.26829639199
 21
-258.1087612139208
 31
0.0
  0
LINE
  5
62
330
1F
100
AcDbEntity
  8
D-2
  6
Continuous
 62
     3
370
     9
100
AcDbLine
 10
-1191.268235356834
 20
-264.1087444054108
 30
0.0
 11
-1179.767914922263
 21
-264.1087444054108
 31
0.0
  0
LINE
  5
63
330
1F
100
AcDbEntity
  8
D-2
  6
Continuous
 62
     3
370
     9
100
AcDbLine
 10
-1217.268448979881
 20
-264.1087444054108
 30
0.0
 11
-1177.267800481345
 21
-264.1087444054108
 31
0.0
  0
LINE
  5
64
330
1F
100
AcDbEntity
  8
D-2
  6
Continuous
 62
     3
370
     9
100
AcDbLine
 10
-1177.267800481345
 20
-264.1087444054108
 30
0.0
 11
-1177.267800481345
 21
-258.1087612139208
 31
0.0
  0
LINE
  5
65
330
1F
100
AcDbEntity
  8
D-2
  6
Continuous
 62
     3
370
     9
100
AcDbLine
 10
-1217.268448979881
 20
-264.1087444054108
 30
0.0
 11
-1217.268448979881
 21
-258.1087612139208
 31
0.0
  0
LINE
  5
66
330
1F
100
AcDbEntity
  8
D-2
  6
Continuous
 62
     3
370
     9
100
AcDbLine
 10
-1121.268407018211
 20
-264.1087444054108
 30
0.0
 11
-1109.76808658364
 21
-264.1087444054108
 31
0.0
  0
LINE
  5
67
330
1F
100
AcDbEntity
  8
D-2
  6
Continuous
 62
     3
370
     9
100
AcDbLine
 10
-1147.268620641257
 20
-264.1087444054108
 30
0.0
 11
-1107.267972142722
 21
-264.1087444054108
 31
0.0
  0
LINE
  5
68
330
1F
100
AcDbEntity
  8
D-2
  6
Continuous
 62
     3
370
     9
100
AcDbLine
 10
-1107.267972142722
 20
-264.1087444054108
 30
0.0
 11
-1107.267972142722
 21
-258.1087612139208
 31
0.0
  0
LINE
  5
69
330
1F
100
AcDbEntity
  8
D-2
  6
Continuous
 62
     3
370
     9
100
AcDbLine
 10
-1147.268620641257
 20
-264.1087444054108
 30
0.0
 11
-1147.268620641257
 21
-258.1087612139208
 31
0.0
  0
LINE
  5
6A
330
1F
100
AcDbEntity
  8
D-2
  6
Continuous
 62
     3
370
     9
100
AcDbLine
 10
-1051.268082768943
 20
-264.1087444054108
 30
0.0
 11
-1039.767762334373
 21
-264.1087444054108
 31
0.0
  0
LINE
  5
6B
330
1F
100
AcDbEntity
  8
D-2
  6
Continuous
 62
     3
370
     9
100
AcDbLine
 10
-1077.26829639199
 20
-264.1087444054108
 30
0.0
 11
-1037.267647893455
 21
-264.1087444054108
 31
0.0
  0
LINE
  5
6C
330
1F
100
AcDbEntity
  8
D-2
  6
Continuous
 62
     3
370
     9
100
AcDbLine
 10
-1037.267647893455
 20
-264.1087444054108
 30
0.0
 11
-1037.267647893455
 21
-258.1087612139208
 31
0.0
  0
LINE
  5
6D
330
1F
100
AcDbEntity
  8
D-2
  6
Continuous
 62
     3
370
     9
100
AcDbLine
 10
-1077.26829639199
 20
-264.1087444054108
 30
0.0
 11
-1077.26829639199
 21
-258.1087612139208
 31
0.0
  0
LINE
  5
6E
330
1F
100
AcDbEntity
  8
D-2
  6
Continuous
 62
     3
370
     9
100
AcDbLine
 10
-981.2682544303199
 20
-264.1087444054108
 30
0.0
 11
-969.7679339957496
 21
-264.1087444054108
 31
0.0
  0
LINE
  5
6F
330
1F
100
AcDbEntity
  8
D-2
  6
Continuous
 62
     3
370
     9
100
AcDbLine
 10
-1007.268468053367
 20
-264.1087444054108
 30
0.0
 11
-967.2678195548316
 21
-264.1087444054108
 31
0.0
  0
LINE
  5
70
330
1F
100
AcDbEntity
  8
D-2
  6
Continuous
 62
     3
370
     9
100
AcDbLine
 10
-967.2678195548316
 20
-264.1087444054108
 30
0.0
 11
-967.2678195548316
 21
-258.1087612139208
 31
0.0
  0
LINE
  5
71
330
1F
100
AcDbEntity
  8
D-2
  6
Continuous
 62
     3
370
     9
100
AcDbLine
 10
-1007.268468053367
 20
-264.1087444054108
 30
0.0
 11
-1007.268468053367
 21
-258.1087612139208
 31
0.0
  0
LINE
  5
72
330
1F
100
AcDbEntity
  8
D-2
  6
Continuous
 62
     3
370
     9
100
AcDbLine
 10
-911.2684260916968
 20
-264.1087444054108
 30
0.0
 11
-899.7681056571265
 21
-264.1087444054108
 31
0.0
  0
LINE
  5
73
330
1F
100
AcDbEntity
  8
D-2
  6
Continuous
 62
     3
370
     9
100
AcDbLine
 10
-937.2686397147437
 20
-264.1087444054108
 30
0.0
 11
-897.2679912162085
 21
-264.1087444054108
 31
0.0
  0
LINE
  5
74
330
1F
100
AcDbEntity
  8
D-2
  6
Continuous
 62
     3
370
     9
100
AcDbLine
 10
-897.2679912162085
 20
-264.1087444054108
 30
0.0
 11
-897.2679912162085
 21
-258.1087612139208
 31
0.0
  0
LINE
  5
75
330
1F
100
AcDbEntity
  8
D-2
  6
Continuous
 62
     3
370
     9
100
AcDbLine
 10
-937.2686397147437
 20
-264.1087444054108
 30
0.0
 11
-937.2686397147437
 21
-258.1087612139208
 31
0.0
  0
LINE
  5
76
330
1F
100
AcDbEntity
  8
D-2
  6
Continuous
 62
     3
370
     9
100
AcDbLine
 10
-841.2676107001563
 20
-264.1087444054108
 30
0.0
 11
-829.767290265586
 21
-264.1087444054108
 31
0.0
  0
LINE
  5
77
330
1F
100
AcDbEntity
  8
D-2
  6
Continuous
 62
     3
370
     9
100
AcDbLine
 10
-867.2678243232032
 20
-264.1087444054108
 30
0.0
 11
-827.267175824668
 21
-264.1087444054108
 31
0.0
  0
LINE
  5
78
330
1F
100
AcDbEntity
  8
D-2
  6
Continuous
 62
     3
370
     9
100
AcDbLine
 10
-827.267175824668
 20
-264.1087444054108
 30
0.0
 11
-827.267175824668
 21
-258.1087612139208
 31
0.0
  0
LINE
  5
79
330
1F
100
AcDbEntity
  8
D-2
  6
Continuous
 62
     3
370
     9
100
AcDbLine
 10
-867.2678243232032
 20
-264.1087444054108
 30
0.0
 11
-867.2678243232032
 21
-258.1087612139208
 31
0.0
  0
ARC
  5
7A
330
1F
100
AcDbEntity
  8
D-2
  6
Continuous
 62
     3
370
     9
100
AcDbCircle
 10
-1485.768166692283
 20
-269.1087444054108
 30
0.0
 40
5.0
100
AcDbArc
 50
0.0
 51
90.00000000000001
  0
ARC
  5
7B
330
1F
100
AcDbEntity
  8
D-2
  6
Continuous
 62
     3
370
     9
100
AcDbCircle
 10
-1468.768197209861
 20
-269.1087444054108
 30
0.0
 40
5.0
100
AcDbArc
 50
90.0
 51
180.0
  0
LINE
  5
7C
330
1F
100
AcDbEntity
  8
D-2
  6
Continuous
 62
     3
370
     9
100
AcDbLine
 10
-1497.268258245017
 20
-264.1087444054108
 30
0.0
 11
-1457.267609746482
 21
-264.1087444054108
 31
0.0
  0
ARC
  5
7D
330
1F
100
AcDbEntity
  8
D-2
  6
Continuous
 62
     3
370
     9
100
AcDbCircle
 10
-1415.768357427146
 20
-269.1087444054108
 30
0.0
 40
5.0
100
AcDbArc
 50
0.0
 51
90.00000000000001
  0
ARC
  5
7E
330
1F
100
AcDbEntity
  8
D-2
  6
Continuous
 62
     3
370
     9
100
AcDbCircle
 10
-1398.768387944724
 20
-269.1087444054108
 30
0.0
 40
5.0
100
AcDbArc
 50
90.0
 51
180.0
  0
ARC
  5
7F
330
1F
100
AcDbEntity
  8
D-2
  6
Continuous
 62
     3
370
     9
100
AcDbCircle
 10
-1345.768510015037
 20
-269.1087444054108
 30
0.0
 40
5.0
100
AcDbArc
 50
0.0
 51
90.00000000000001
  0
ARC
  5
80
330
1F
100
AcDbEntity
  8
D-2
  6
Continuous
 62
     3
370
     9
100
AcDbCircle
 10
-1328.768540532615
 20
-269.1087444054108
 30
0.0
 40
5.0
100
AcDbArc
 50
90.0
 51
180.0
  0
ARC
  5
81
330
1F
100
AcDbEntity
  8
D-2
  6
Continuous
 62
     3
370
     9
100
AcDbCircle
 10
-1275.768204839256
 20
-269.1087444054108
 30
0.0
 40
5.0
100
AcDbArc
 50
0.0
 51
90.00000000000001
  0
ARC
  5
82
330
1F
100
AcDbEntity
  8
D-2
  6
Continuous
 62
     3
370
     9
100
AcDbCircle
 10
-1258.768235356834
 20
-269.1087444054108
 30
0.0
 40
5.0
100
AcDbArc
 50
90.0
 51
180.0
  0
ARC
  5
83
330
1F
100
AcDbEntity
  8
D-2
  6
Continuous
 62
     3
370
     9
100
AcDbCircle
 10
-1205.768357427146
 20
-269.1087444054108
 30
0.0
 40
5.0
100
AcDbArc
 50
0.0
 51
90.00000000000001
  0
ARC
  5
84
330
1F
100
AcDbEntity
  8
D-2
  6
Continuous
 62
     3
370
     9
100
AcDbCircle
 10
-1188.768387944724
 20
-269.1087444054108
 30
0.0
 40
5.0
100
AcDbArc
 50
90.0
 51
180.0
  0
ARC
  5
85
330
1F
100
AcDbEntity
  8
D-2
  6
Continuous
 62
     3
370
     9
100
AcDbCircle
 10
-1135.768529088523
 20
-269.1087444054108
 30
0.0
 40
5.0
100
AcDbArc
 50
0.0
 51
90.00000000000001
  0
ARC
  5
86
330
1F
100
AcDbEntity
  8
D-2
  6
Continuous
 62
     3
370
     9
100
AcDbCircle
 10
-1118.768559606101
 20
-269.1087444054108
 30
0.0
 40
5.0
100
AcDbArc
 50
90.0
 51
180.0
  0
ARC
  5
87
330
1F
100
AcDbEntity
  8
D-2
  6
Continuous
 62
     3
370
     9
100
AcDbCircle
 10
-1048.768235356834
 20
-269.1087444054108
 30
0.0
 40
5.0
100
AcDbArc
 50
90.0
 51
180.0
  0
ARC
  5
88
330
1F
100
AcDbEntity
  8
D-2
  6
Continuous
 62
     3
370
     9
100
AcDbCircle
 10
-995.7683765006324
 20
-269.1087444054108
 30
0.0
 40
5.0
100
AcDbArc
 50
0.0
 51
90.00000000000001
  0
ARC
  5
89
330
1F
100
AcDbEntity
  8
D-2
  6
Continuous
 62
     3
370
     9
100
AcDbCircle
 10
-978.7684070182105
 20
-269.1087444054108
 30
0.0
 40
5.0
100
AcDbArc
 50
90.0
 51
180.0
  0
ARC
  5
8A
330
1F
100
AcDbEntity
  8
D-2
  6
Continuous
 62
     3
370
     9
100
AcDbCircle
 10
-925.7685481620093
 20
-269.1087444054108
 30
0.0
 40
5.0
100
AcDbArc
 50
0.0
 51
90.00000000000001
  0
ARC
  5
8B
330
1F
100
AcDbEntity
  8
D-2
  6
Continuous
 62
     3
370
     9
100
AcDbCircle
 10
-908.7685786795874
 20
-269.1087444054108
 30
0.0
 40
5.0
100
AcDbArc
 50
90.0
 51
180.0
  0
ARC
  5
8C
330
1F
100
AcDbEntity
  8
D-2
  6
Continuous
 62
     3
370
     9
100
AcDbCircle
 10
-855.7677327704688
 20
-269.1087444054108
 30
0.0
 40
5.0
100
AcDbArc
 50
0.0
 51
90.00000000000001
  0
ARC
  5
8D
330
1F
100
AcDbEntity
  8
D-2
  6
Continuous
 62
     3
370
     9
100
AcDbCircle
 10
-838.7677632880469
 20
-269.1087444054108
 30
0.0
 40
5.0
100
AcDbArc
 50
90.0
 51
180.0
  0
LINE
  5
8E
330
1F
100
AcDbEntity
  8
D-4
  6
Continuous
 62
     7
370
     9
100
AcDbLine
 10
-1524.935265691306
 20
-134.6896099077685
 30
0.0
 11
-952.2674857688208
 21
-134.6896099077685
 31
0.0
  0
LINE
  5
8F
330
1F
100
AcDbEntity
  8
D-4
  6
Continuous
 62
     7
370
     9
100
AcDbLine
 10
-952.2674857688208
 20
-240.1531087385638
 30
0.0
 11
-952.2674857688208
 21
-131.6890453325732
 31
0.0
  0
LINE
  5
90
330
1F
100
AcDbEntity
  8
D-4
  6
Continuous
 62
     7
370
     9
100
AcDbLine
 10
-952.2674857688208
 20
-134.6896099077685
 30
0.0
 11
-827.2676478934546
 21
-134.6896099077685
 31
0.0
  0
LINE
  5
91
330
1F
100
AcDbEntity
  8
D-4
  6
Continuous
 62
     7
370
     9
100
AcDbLine
 10
-827.2676478934546
 20
-240.1531087385638
 30
0.0
 11
-827.2676478934546
 21
-22.93761482109858
 31
0.0
  0
LINE
  5
92
330
1F
100
AcDbEntity
  8
D-4
  6
Continuous
 62
     7
370
     9
100
AcDbLine
 10
-822.2673772883674
 20
-240.1531087385638
 30
0.0
 11
-822.2673772883674
 21
-22.93761482109858
 31
0.0
  0
LINE
  5
93
330
1F
100
AcDbEntity
  8
D-4
  6
Continuous
 62
     7
370
     9
100
AcDbLine
 10
-797.268499047782
 20
-240.1531087385638
 30
0.0
 11
-797.268499047782
 21
87.75904426703619
 31
0.0
  0
LINE
  5
94
330
1F
100
AcDbEntity
  8
D-4
  6
Continuous
 62
     7
370
     9
100
AcDbLine
 10
-952.2674857688208
 20
-661.2272380815966
 30
0.0
 11
-802.2682749343177
 21
-661.2272380815966
 31
0.0
  0
LINE
  5
95
330
1F
100
AcDbEntity
  8
D-4
  6
Continuous
 62
     7
370
     9
100
AcDbLine
 10
-280.5822764945289
 20
-505.6084369646533
 30
0.0
 11
-280.5822764945289
 21
-255.6087612139208
 31
0.0
  0
LINE
  5
96
330
1F
100
AcDbEntity
  8
D-4
  6
Continuous
 62
     7
370
     9
100
AcDbLine
 10
-376.2374507498999
 20
-255.6087612139208
 30
0.0
 11
-277.5827037406226
 21
-255.6087612139208
 31
0.0
  0
LINE
  5
97
330
1F
100
AcDbEntity
  8
D-6
  6
Continuous
 62
     6
370
     9
100
AcDbLine
 10
-802.2682749343177
 20
-505.6084369646533
 30
0.0
 11
-802.2682749343177
 21
-755.6081127153857
 31
0.0
  0
LINE
  5
98
330
1F
100
AcDbEntity
  8
D-6
  6
JWW_DASHED3
 62
     6
370
     9
100
AcDbLine
 10
-708.7663852286597
 20
-633.1084178911669
 30
0.0
 11
-708.7663852286597
 21
-505.6084369646533
 31
0.0
  0
LINE
  5
99
330
1F
100
AcDbEntity
  8
D-6
  6
JWW_DASHED3
 62
     6
370
     9
100
AcDbLine
 10
-663.7659274649878
 20
-505.6084369646533
 30
0.0
 11
-663.7659274649878
 21
-633.1084178911669
 31
0.0
  0
LINE
  5
9A
330
1F
100
AcDbEntity
  8
D-6
  6
Continuous
 62
     6
370
     9
100
AcDbLine
 10
-552.267609746482
 20
-405.6089614855273
 30
0.0
 11
-387.2666179251929
 21
-405.6089614855273
 31
0.0
  0
LINE
  5
9B
330
1F
100
AcDbEntity
  8
D-6
  6
Continuous
 62
     6
370
     9
100
AcDbLine
 10
-552.267609746482
 20
-405.6089614855273
 30
0.0
 11
-552.267609746482
 21
-505.6084369646533
 31
0.0
  0
LINE
  5
9C
330
1F
100
AcDbEntity
  8
D-4
  6
Continuous
 62
     7
370
     9
100
AcDbLine
 10
-496.4887248587867
 20
-505.6084369646533
 30
0.0
 11
-277.5827037406226
 21
-505.6084369646533
 31
0.0
  0
LINE
  5
9D
330
1F
100
AcDbEntity
  8
D-6
  6
Continuous
 62
     6
370
     9
100
AcDbLine
 10
-802.2682749343177
 20
-505.6084369646533
 30
0.0
 11
-552.267609746482
 21
-505.6084369646533
 31
0.0
  0
LINE
  5
9E
330
1F
100
AcDbEntity
  8
D-6
  6
Continuous
 62
     6
370
     9
100
AcDbLine
 10
-708.7663852286597
 20
-308.1086324678881
 30
0.0
 11
-663.7659274649878
 21
-308.1086324678881
 31
0.0
  0
LINE
  5
9F
330
1F
100
AcDbEntity
  8
D-6
  6
JWW_CENTER2
 62
     6
370
     9
100
AcDbLine
 10
-686.2661563468238
 20
-304.0294383989794
 30
0.0
 11
-686.2661563468238
 21
-633.1084178911669
 31
0.0
  0
LINE
  5
A0
330
1F
100
AcDbEntity
  8
D-4
  6
Continuous
 62
     7
370
     9
100
AcDbLine
 10
-797.268499047782
 20
-393.5760044085009
 30
0.0
 11
-797.268499047782
 21
-464.918548964165
 31
0.0
  0
LINE
  5
A1
330
1F
100
AcDbEntity
  8
D-6
  6
Continuous
 62
     6
370
     9
100
AcDbLine
 10
-708.7663852286597
 20
-340.6084083544238
 30
0.0
 11
-708.7663852286597
 21
-308.1086324678881
 31
0.0
  0
LINE
  5
A2
330
1F
100
AcDbEntity
  8
D-6
  6
Continuous
 62
     6
370
     9
100
AcDbLine
 10
-663.7659274649878
 20
-340.6084083544238
 30
0.0
 11
-663.7659274649878
 21
-308.1086324678881
 31
0.0
  0
LINE
  5
A3
330
1F
100
AcDbEntity
  8
D-6
  6
Continuous
 62
     6
370
     9
100
AcDbLine
 10
-708.7663852286597
 20
-505.6084369646533
 30
0.0
 11
-708.7663852286597
 21
-390.6081508623583
 31
0.0
  0
LINE
  5
A4
330
1F
100
AcDbEntity
  8
D-6
  6
Continuous
 62
     6
370
     9
100
AcDbLine
 10
-663.7659274649878
 20
-505.6084369646533
 30
0.0
 11
-663.7659274649878
 21
-390.6081508623583
 31
0.0
  0
LINE
  5
A5
330
1F
100
AcDbEntity
  8
D-4
  6
Continuous
 62
     7
370
     9
100
AcDbLine
 10
-825.4126127672454
 20
-255.6087612139208
 30
0.0
 11
-1100.750561864402
 21
-255.6087612139208
 31
0.0
  0
LINE
  5
A6
330
1F
100
AcDbEntity
  8
D-4
  6
Continuous
 62
     7
370
     9
100
AcDbLine
 10
-1524.935265691306
 20
84.75847969184088
 30
0.0
 11
-797.268499047782
 21
84.75847969184088
 31
0.0
  0
LINE
  5
A7
330
1F
100
AcDbEntity
  8
D-4
  6
Continuous
 62
     7
370
     9
100
AcDbLine
 10
-1524.935265691306
 20
-25.93718757500483
 30
0.0
 11
-761.1820231986304
 21
-25.93718757500483
 31
0.0
  0
LINE
  5
A8
330
1F
100
AcDbEntity
  8
D-4
  6
Continuous
 62
     7
370
     9
100
AcDbLine
 10
-797.268499047782
 20
-461.918003462456
 30
0.0
 11
-652.2680675101539
 21
-461.918003462456
 31
0.0
  0
LINE
  5
A9
330
1F
100
AcDbEntity
  8
D-6
  6
Continuous
 62
     6
370
     9
100
AcDbLine
 10
-552.267609746482
 20
-452.9485248552783
 30
0.0
 11
-504.9275600028296
 21
-405.6084655748828
 31
0.0
  0
LINE
  5
AA
330
1F
100
AcDbEntity
  8
D-6
  6
Continuous
 62
     6
370
     9
100
AcDbLine
 10
-802.2672854972144
 20
-702.9462169634326
 30
0.0
 11
-604.9280177665015
 21
-505.6084369646533
 31
0.0
  0
LINE
  5
AB
330
1F
100
AcDbEntity
  8
D-6
  6
Continuous
 62
     6
370
     9
100
AcDbLine
 10
-802.2672854972144
 20
-717.0868801104052
 30
0.0
 11
-590.7873355460425
 21
-505.6084369646533
 31
0.0
  0
LINE
  5
AC
330
1F
100
AcDbEntity
  8
D-6
  6
Continuous
 62
     6
370
     9
100
AcDbLine
 10
-552.267609746482
 20
-467.0892070757372
 30
0.0
 11
-490.7868587088843
 21
-405.6084655748828
 31
0.0
  0
LINE
  5
AD
330
1F
100
AcDbEntity
  8
D-6
  6
Continuous
 62
     6
370
     9
100
AcDbLine
 10
-802.2672854972144
 20
-731.2275814043505
 30
0.0
 11
-576.6466533255835
 21
-505.6084369646533
 31
0.0
  0
LINE
  5
AE
330
1F
100
AcDbEntity
  8
D-6
  6
Continuous
 62
     6
370
     9
100
AcDbLine
 10
-552.267609746482
 20
-481.2298892961962
 30
0.0
 11
-476.6461955619117
 21
-405.6084655748828
 31
0.0
  0
LINE
  5
AF
330
1F
100
AcDbEntity
  8
D-6
  6
Continuous
 62
     6
370
     9
100
AcDbLine
 10
-463.095132024314
 20
-755.6081127153857
 30
0.0
 11
-387.2666179251929
 21
-679.7800945269091
 31
0.0
  0
LINE
  5
B0
330
1F
100
AcDbEntity
  8
D-6
  6
Continuous
 62
     6
370
     9
100
AcDbLine
 10
-477.2357951712867
 20
-755.6081127153857
 30
0.0
 11
-387.2666179251929
 21
-665.6393932329638
 31
0.0
  0
LINE
  5
B1
330
1F
100
AcDbEntity
  8
D-6
  6
Continuous
 62
     6
370
     9
100
AcDbLine
 10
-448.9544307303687
 20
-755.6081127153857
 30
0.0
 11
-387.2666179251929
 21
-693.9207576738818
 31
0.0
  0
LINE
  5
B2
330
1F
100
AcDbEntity
  8
D-0
  6
Continuous
 62
     7
370
     9
100
AcDbLine
 10
-525.4221164298316
 20
-276.5581726061328
 30
0.0
 11
-525.4221164298316
 21
-275.0578927027209
 31
0.0
  0
LINE
  5
B3
330
1F
100
AcDbEntity
  8
D-0
  6
Continuous
 62
     7
370
     9
100
AcDbLine
 10
-525.4221164298316
 20
-275.0578927027209
 30
0.0
 11
-523.9223491263648
 21
-275.0578927027209
 31
0.0
  0
LINE
  5
B4
330
1F
100
AcDbEntity
  8
D-0
  6
Continuous
 62
     7
370
     9
100
AcDbLine
 10
-523.9223491263648
 20
-275.0578927027209
 30
0.0
 11
-523.9223491263648
 21
-276.5581726061328
 31
0.0
  0
LINE
  5
B5
330
1F
100
AcDbEntity
  8
D-0
  6
Continuous
 62
     7
370
     9
100
AcDbLine
 10
-523.9223491263648
 20
-276.5581726061328
 30
0.0
 11
-525.4221164298316
 21
-276.5581726061328
 31
0.0
  0
LINE
  5
B6
330
1F
100
AcDbEntity
  8
D-0
  6
Continuous
 62
     7
370
     9
100
AcDbLine
 10
-474.666291387107
 20
-279.2654131876452
 30
0.0
 11
-474.666291387107
 21
-277.7651332842333
 31
0.0
  0
LINE
  5
B7
330
1F
100
AcDbEntity
  8
D-0
  6
Continuous
 62
     7
370
     9
100
AcDbLine
 10
-474.666291387107
 20
-277.7651332842333
 30
0.0
 11
-473.1660090995093
 21
-277.7651332842333
 31
0.0
  0
LINE
  5
B8
330
1F
100
AcDbEntity
  8
D-0
  6
Continuous
 62
     7
370
     9
100
AcDbLine
 10
-473.1660090995093
 20
-277.7651332842333
 30
0.0
 11
-473.1660090995093
 21
-279.2654131876452
 31
0.0
  0
LINE
  5
B9
330
1F
100
AcDbEntity
  8
D-0
  6
Continuous
 62
     7
370
     9
100
AcDbLine
 10
-473.1660090995093
 20
-279.2654131876452
 30
0.0
 11
-474.666291387107
 21
-279.2654131876452
 31
0.0
  0
LINE
  5
BA
330
1F
100
AcDbEntity
  8
D-0
  6
Continuous
 62
     7
370
     9
100
AcDbLine
 10
-409.6984492850562
 20
-277.2349833475573
 30
0.0
 11
-409.6984492850562
 21
-275.7347034441455
 31
0.0
  0
LINE
  5
BB
330
1F
100
AcDbEntity
  8
D-0
  6
Continuous
 62
     7
370
     9
100
AcDbLine
 10
-409.6984492850562
 20
-275.7347034441455
 30
0.0
 11
-408.1986629081031
 21
-275.7347034441455
 31
0.0
  0
LINE
  5
BC
330
1F
100
AcDbEntity
  8
D-0
  6
Continuous
 62
     7
370
     9
100
AcDbLine
 10
-408.1986629081031
 20
-275.7347034441455
 30
0.0
 11
-408.1986629081031
 21
-277.2349833475573
 31
0.0
  0
LINE
  5
BD
330
1F
100
AcDbEntity
  8
D-0
  6
Continuous
 62
     7
370
     9
100
AcDbLine
 10
-408.1986629081031
 20
-277.2349833475573
 30
0.0
 11
-409.6984492850562
 21
-277.2349833475573
 31
0.0
  0
LINE
  5
BE
330
1F
100
AcDbEntity
  8
D-0
  6
Continuous
 62
     7
370
     9
100
AcDbLine
 10
-434.0616618705054
 20
-309.7189067827685
 30
0.0
 11
-434.0616618705054
 21
-308.2186244951708
 31
0.0
  0
LINE
  5
BF
330
1F
100
AcDbEntity
  8
D-0
  6
Continuous
 62
     7
370
     9
100
AcDbLine
 10
-434.0616618705054
 20
-308.2186244951708
 30
0.0
 11
-432.5613795829078
 21
-308.2186244951708
 31
0.0
  0
LINE
  5
C0
330
1F
100
AcDbEntity
  8
D-0
  6
Continuous
 62
     7
370
     9
100
AcDbLine
 10
-432.5613795829078
 20
-308.2186244951708
 30
0.0
 11
-432.5613795829078
 21
-309.7189067827685
 31
0.0
  0
LINE
  5
C1
330
1F
100
AcDbEntity
  8
D-0
  6
Continuous
 62
     7
370
     9
100
AcDbLine
 10
-432.5613795829078
 20
-309.7189067827685
 30
0.0
 11
-434.0616618705054
 21
-309.7189067827685
 31
0.0
  0
LINE
  5
C2
330
1F
100
AcDbEntity
  8
D-0
  6
Continuous
 62
     7
370
     9
100
AcDbLine
 10
-484.6266948294898
 20
-313.6499570833666
 30
0.0
 11
-484.6266948294898
 21
-312.149674795769
 31
0.0
  0
LINE
  5
C3
330
1F
100
AcDbEntity
  8
D-0
  6
Continuous
 62
     7
370
     9
100
AcDbLine
 10
-484.6266948294898
 20
-312.149674795769
 30
0.0
 11
-483.1269465995093
 21
-312.149674795769
 31
0.0
  0
LINE
  5
C4
330
1F
100
AcDbEntity
  8
D-0
  6
Continuous
 62
     7
370
     9
100
AcDbLine
 10
-483.1269465995093
 20
-312.149674795769
 30
0.0
 11
-483.1269465995093
 21
-313.6499570833666
 31
0.0
  0
LINE
  5
C5
330
1F
100
AcDbEntity
  8
D-0
  6
Continuous
 62
     7
370
     9
100
AcDbLine
 10
-483.1269465995093
 20
-313.6499570833666
 30
0.0
 11
-484.6266948294898
 21
-313.6499570833666
 31
0.0
  0
LINE
  5
C6
330
1F
100
AcDbEntity
  8
D-0
  6
Continuous
 62
     7
370
     9
100
AcDbLine
 10
-501.7362224173804
 20
-347.6168178545458
 30
0.0
 11
-501.7362224173804
 21
-346.1165355669482
 31
0.0
  0
LINE
  5
C7
330
1F
100
AcDbEntity
  8
D-0
  6
Continuous
 62
     7
370
     9
100
AcDbLine
 10
-501.7362224173804
 20
-346.1165355669482
 30
0.0
 11
-500.2359782767554
 21
-346.1165355669482
 31
0.0
  0
LINE
  5
C8
330
1F
100
AcDbEntity
  8
D-0
  6
Continuous
 62
     7
370
     9
100
AcDbLine
 10
-500.2359782767554
 20
-346.1165355669482
 30
0.0
 11
-500.2359782767554
 21
-347.6168178545458
 31
0.0
  0
LINE
  5
C9
330
1F
100
AcDbEntity
  8
D-0
  6
Continuous
 62
     7
370
     9
100
AcDbLine
 10
-500.2359782767554
 20
-347.6168178545458
 30
0.0
 11
-501.7362224173804
 21
-347.6168178545458
 31
0.0
  0
LINE
  5
CA
330
1F
100
AcDbEntity
  8
D-0
  6
Continuous
 62
     7
370
     9
100
AcDbLine
 10
-533.0924808097144
 20
-333.0450796114428
 30
0.0
 11
-533.0924808097144
 21
-331.5448020922167
 31
0.0
  0
LINE
  5
CB
330
1F
100
AcDbEntity
  8
D-0
  6
Continuous
 62
     7
370
     9
100
AcDbLine
 10
-533.0924808097144
 20
-331.5448020922167
 30
0.0
 11
-531.5926944327613
 21
-331.5448020922167
 31
0.0
  0
LINE
  5
CC
330
1F
100
AcDbEntity
  8
D-0
  6
Continuous
 62
     7
370
     9
100
AcDbLine
 10
-531.5926944327613
 20
-331.5448020922167
 30
0.0
 11
-531.5926944327613
 21
-333.0450796114428
 31
0.0
  0
LINE
  5
CD
330
1F
100
AcDbEntity
  8
D-0
  6
Continuous
 62
     7
370
     9
100
AcDbLine
 10
-531.5926944327613
 20
-333.0450796114428
 30
0.0
 11
-533.0924808097144
 21
-333.0450796114428
 31
0.0
  0
LINE
  5
CE
330
1F
100
AcDbEntity
  8
D-0
  6
Continuous
 62
     7
370
     9
100
AcDbLine
 10
-543.8168918204566
 20
-374.2651103960497
 30
0.0
 11
-543.8168918204566
 21
-372.7648281084521
 31
0.0
  0
LINE
  5
CF
330
1F
100
AcDbEntity
  8
D-0
  6
Continuous
 62
     7
370
     9
100
AcDbLine
 10
-543.8168918204566
 20
-372.7648281084521
 30
0.0
 11
-542.3166095328589
 21
-372.7648281084521
 31
0.0
  0
LINE
  5
D0
330
1F
100
AcDbEntity
  8
D-0
  6
Continuous
 62
     7
370
     9
100
AcDbLine
 10
-542.3166095328589
 20
-372.7648281084521
 30
0.0
 11
-542.3166095328589
 21
-374.2651103960497
 31
0.0
  0
LINE
  5
D1
330
1F
100
AcDbEntity
  8
D-0
  6
Continuous
 62
     7
370
     9
100
AcDbLine
 10
-542.3166095328589
 20
-374.2651103960497
 30
0.0
 11
-543.8168918204566
 21
-374.2651103960497
 31
0.0
  0
LINE
  5
D2
330
1F
100
AcDbEntity
  8
D-0
  6
Continuous
 62
     7
370
     9
100
AcDbLine
 10
-506.4734279227515
 20
-382.8074859606249
 30
0.0
 11
-506.4734279227515
 21
-381.3072036730273
 31
0.0
  0
LINE
  5
D3
330
1F
100
AcDbEntity
  8
D-0
  6
Continuous
 62
     7
370
     9
100
AcDbLine
 10
-506.4734279227515
 20
-381.3072036730273
 30
0.0
 11
-504.9731456351539
 21
-381.3072036730273
 31
0.0
  0
LINE
  5
D4
330
1F
100
AcDbEntity
  8
D-0
  6
Continuous
 62
     7
370
     9
100
AcDbLine
 10
-504.9731456351539
 20
-381.3072036730273
 30
0.0
 11
-504.9731456351539
 21
-382.8074859606249
 31
0.0
  0
LINE
  5
D5
330
1F
100
AcDbEntity
  8
D-0
  6
Continuous
 62
     7
370
     9
100
AcDbLine
 10
-504.9731456351539
 20
-382.8074859606249
 30
0.0
 11
-506.4734279227515
 21
-382.8074859606249
 31
0.0
  0
LINE
  5
D6
330
1F
100
AcDbEntity
  8
D-0
  6
Continuous
 62
     7
370
     9
100
AcDbLine
 10
-454.268342168357
 20
-387.5322746263964
 30
0.0
 11
-454.268342168357
 21
-386.0320018755419
 31
0.0
  0
LINE
  5
D7
330
1F
100
AcDbEntity
  8
D-0
  6
Continuous
 62
     7
370
     9
100
AcDbLine
 10
-454.268342168357
 20
-386.0320018755419
 30
0.0
 11
-452.7685557914039
 21
-386.0320018755419
 31
0.0
  0
LINE
  5
D8
330
1F
100
AcDbEntity
  8
D-0
  6
Continuous
 62
     7
370
     9
100
AcDbLine
 10
-452.7685557914039
 20
-386.0320018755419
 30
0.0
 11
-452.7685557914039
 21
-387.5322746263964
 31
0.0
  0
LINE
  5
D9
330
1F
100
AcDbEntity
  8
D-0
  6
Continuous
 62
     7
370
     9
100
AcDbLine
 10
-452.7685557914039
 20
-387.5322746263964
 30
0.0
 11
-454.268342168357
 21
-387.5322746263964
 31
0.0
  0
LINE
  5
DA
330
1F
100
AcDbEntity
  8
D-0
  6
Continuous
 62
     7
370
     9
100
AcDbLine
 10
-399.5472728324195
 20
-380.7770561205371
 30
0.0
 11
-399.5472728324195
 21
-379.2767738329394
 31
0.0
  0
LINE
  5
DB
330
1F
100
AcDbEntity
  8
D-0
  6
Continuous
 62
     7
370
     9
100
AcDbLine
 10
-399.5472728324195
 20
-379.2767738329394
 30
0.0
 11
-398.047524602439
 21
-379.2767738329394
 31
0.0
  0
LINE
  5
DC
330
1F
100
AcDbEntity
  8
D-0
  6
Continuous
 62
     7
370
     9
100
AcDbLine
 10
-398.047524602439
 20
-379.2767738329394
 30
0.0
 11
-398.047524602439
 21
-380.7770561205371
 31
0.0
  0
LINE
  5
DD
330
1F
100
AcDbEntity
  8
D-0
  6
Continuous
 62
     7
370
     9
100
AcDbLine
 10
-398.047524602439
 20
-380.7770561205371
 30
0.0
 11
-399.5472728324195
 21
-380.7770561205371
 31
0.0
  0
LINE
  5
DE
330
1F
100
AcDbEntity
  8
D-0
  6
Continuous
 62
     7
370
     9
100
AcDbLine
 10
-411.7288981986304
 20
-340.8492111193164
 30
0.0
 11
-411.7288981986304
 21
-339.3489288317187
 31
0.0
  0
LINE
  5
DF
330
1F
100
AcDbEntity
  8
D-0
  6
Continuous
 62
     7
370
     9
100
AcDbLine
 10
-411.7288981986304
 20
-339.3489288317187
 30
0.0
 11
-410.2286159110328
 21
-339.3489288317187
 31
0.0
  0
LINE
  5
E0
330
1F
100
AcDbEntity
  8
D-0
  6
Continuous
 62
     7
370
     9
100
AcDbLine
 10
-410.2286159110328
 20
-339.3489288317187
 30
0.0
 11
-410.2286159110328
 21
-340.8492111193164
 31
0.0
  0
LINE
  5
E1
330
1F
100
AcDbEntity
  8
D-0
  6
Continuous
 62
     7
370
     9
100
AcDbLine
 10
-410.2286159110328
 20
-340.8492111193164
 30
0.0
 11
-411.7288981986304
 21
-340.8492111193164
 31
0.0
  0
LINE
  5
E2
330
1F
100
AcDbEntity
  8
D-0
  6
Continuous
 62
     7
370
     9
100
AcDbLine
 10
-452.7576457572242
 20
-349.9668239580615
 30
0.0
 11
-452.7576457572242
 21
-348.4665416704638
 31
0.0
  0
LINE
  5
E3
330
1F
100
AcDbEntity
  8
D-0
  6
Continuous
 62
     7
370
     9
100
AcDbLine
 10
-452.7576457572242
 20
-348.4665416704638
 30
0.0
 11
-451.2578975272437
 21
-348.4665416704638
 31
0.0
  0
LINE
  5
E4
330
1F
100
AcDbEntity
  8
D-0
  6
Continuous
 62
     7
370
     9
100
AcDbLine
 10
-451.2578975272437
 20
-348.4665416704638
 30
0.0
 11
-451.2578975272437
 21
-349.9668239580615
 31
0.0
  0
LINE
  5
E5
330
1F
100
AcDbEntity
  8
D-0
  6
Continuous
 62
     7
370
     9
100
AcDbLine
 10
-451.2578975272437
 20
-349.9668239580615
 30
0.0
 11
-452.7576457572242
 21
-349.9668239580615
 31
0.0
  0
LINE
  5
E6
330
1F
100
AcDbEntity
  8
D-0
  6
Continuous
 62
     7
370
     9
100
AcDbLine
 10
-392.2728358817359
 20
-310.4784606920703
 30
0.0
 11
-392.2728358817359
 21
-308.9781784044726
 31
0.0
  0
LINE
  5
E7
330
1F
100
AcDbEntity
  8
D-0
  6
Continuous
 62
     7
370
     9
100
AcDbLine
 10
-392.2728358817359
 20
-308.9781784044726
 30
0.0
 11
-390.7725535941382
 21
-308.9781784044726
 31
0.0
  0
LINE
  5
E8
330
1F
100
AcDbEntity
  8
D-0
  6
Continuous
 62
     7
370
     9
100
AcDbLine
 10
-390.7725535941382
 20
-308.9781784044726
 30
0.0
 11
-390.7725535941382
 21
-310.4784606920703
 31
0.0
  0
LINE
  5
E9
330
1F
100
AcDbEntity
  8
D-0
  6
Continuous
 62
     7
370
     9
100
AcDbLine
 10
-390.7725535941382
 20
-310.4784606920703
 30
0.0
 11
-392.2728358817359
 21
-310.4784606920703
 31
0.0
  0
LINE
  5
EA
330
1F
100
AcDbEntity
  8
D-0
  6
Continuous
 62
     7
370
     9
100
AcDbLine
 10
-546.2734233451148
 20
-299.5855783449633
 30
0.0
 11
-546.2734233451148
 21
-298.0853008257372
 31
0.0
  0
LINE
  5
EB
330
1F
100
AcDbEntity
  8
D-0
  6
Continuous
 62
     7
370
     9
100
AcDbLine
 10
-546.2734233451148
 20
-298.0853008257372
 30
0.0
 11
-544.7731601310035
 21
-298.0853008257372
 31
0.0
  0
LINE
  5
EC
330
1F
100
AcDbEntity
  8
D-0
  6
Continuous
 62
     7
370
     9
100
AcDbLine
 10
-544.7731601310035
 20
-298.0853008257372
 30
0.0
 11
-544.7731601310035
 21
-299.5855783449633
 31
0.0
  0
LINE
  5
ED
330
1F
100
AcDbEntity
  8
D-0
  6
Continuous
 62
     7
370
     9
100
AcDbLine
 10
-544.7731601310035
 20
-299.5855783449633
 30
0.0
 11
-546.2734233451148
 21
-299.5855783449633
 31
0.0
  0
LINE
  5
EE
330
1F
100
AcDbEntity
  8
D-0
  6
Continuous
 62
     7
370
     9
100
AcDbLine
 10
-629.6231662345191
 20
-422.835914991997
 30
0.0
 11
-629.6231662345191
 21
-421.3356327043994
 31
0.0
  0
LINE
  5
EF
330
1F
100
AcDbEntity
  8
D-0
  6
Continuous
 62
     7
370
     9
100
AcDbLine
 10
-629.6231662345191
 20
-421.3356327043994
 30
0.0
 11
-628.1228839469214
 21
-421.3356327043994
 31
0.0
  0
LINE
  5
F0
330
1F
100
AcDbEntity
  8
D-0
  6
Continuous
 62
     7
370
     9
100
AcDbLine
 10
-628.1228839469214
 20
-421.3356327043994
 30
0.0
 11
-628.1228839469214
 21
-422.835914991997
 31
0.0
  0
LINE
  5
F1
330
1F
100
AcDbEntity
  8
D-0
  6
Continuous
 62
     7
370
     9
100
AcDbLine
 10
-628.1228839469214
 20
-422.835914991997
 30
0.0
 11
-629.6231662345191
 21
-422.835914991997
 31
0.0
  0
LINE
  5
F2
330
1F
100
AcDbEntity
  8
D-0
  6
Continuous
 62
     7
370
     9
100
AcDbLine
 10
-580.2586185050269
 20
-430.7341884600146
 30
0.0
 11
-580.2586185050269
 21
-429.2339061724169
 31
0.0
  0
LINE
  5
F3
330
1F
100
AcDbEntity
  8
D-0
  6
Continuous
 62
     7
370
     9
100
AcDbLine
 10
-580.2586185050269
 20
-429.2339061724169
 30
0.0
 11
-578.7583552909156
 21
-429.2339061724169
 31
0.0
  0
LINE
  5
F4
330
1F
100
AcDbEntity
  8
D-0
  6
Continuous
 62
     7
370
     9
100
AcDbLine
 10
-578.7583552909156
 20
-429.2339061724169
 30
0.0
 11
-578.7583552909156
 21
-430.7341884600146
 31
0.0
  0
LINE
  5
F5
330
1F
100
AcDbEntity
  8
D-0
  6
Continuous
 62
     7
370
     9
100
AcDbLine
 10
-578.7583552909156
 20
-430.7341884600146
 30
0.0
 11
-580.2586185050269
 21
-430.7341884600146
 31
0.0
  0
LINE
  5
F6
330
1F
100
AcDbEntity
  8
D-0
  6
Continuous
 62
     7
370
     9
100
AcDbLine
 10
-597.1397410941382
 20
-451.3149570452197
 30
0.0
 11
-597.1397410941382
 21
-449.8146938311083
 31
0.0
  0
LINE
  5
F7
330
1F
100
AcDbEntity
  8
D-0
  6
Continuous
 62
     7
370
     9
100
AcDbLine
 10
-597.1397410941382
 20
-449.8146938311083
 30
0.0
 11
-595.6399547171851
 21
-449.8146938311083
 31
0.0
  0
LINE
  5
F8
330
1F
100
AcDbEntity
  8
D-0
  6
Continuous
 62
     7
370
     9
100
AcDbLine
 10
-595.6399547171851
 20
-449.8146938311083
 30
0.0
 11
-595.6399547171851
 21
-451.3149570452197
 31
0.0
  0
LINE
  5
F9
330
1F
100
AcDbEntity
  8
D-0
  6
Continuous
 62
     7
370
     9
100
AcDbLine
 10
-595.6399547171851
 20
-451.3149570452197
 30
0.0
 11
-597.1397410941382
 21
-451.3149570452197
 31
0.0
  0
LINE
  5
FA
330
1F
100
AcDbEntity
  8
D-0
  6
Continuous
 62
     7
370
     9
100
AcDbLine
 10
-645.4197131705542
 20
-486.023056410454
 30
0.0
 11
-645.4197131705542
 21
-484.5227741228564
 31
0.0
  0
LINE
  5
FB
330
1F
100
AcDbEntity
  8
D-0
  6
Continuous
 62
     7
370
     9
100
AcDbLine
 10
-645.4197131705542
 20
-484.5227741228564
 30
0.0
 11
-643.9199267936011
 21
-484.5227741228564
 31
0.0
  0
LINE
  5
FC
330
1F
100
AcDbEntity
  8
D-0
  6
Continuous
 62
     7
370
     9
100
AcDbLine
 10
-643.9199267936011
 20
-484.5227741228564
 30
0.0
 11
-643.9199267936011
 21
-486.023056410454
 31
0.0
  0
LINE
  5
FD
330
1F
100
AcDbEntity
  8
D-0
  6
Continuous
 62
     7
370
     9
100
AcDbLine
 10
-643.9199267936011
 20
-486.023056410454
 30
0.0
 11
-645.4197131705542
 21
-486.023056410454
 31
0.0
  0
LINE
  5
FE
330
1F
100
AcDbEntity
  8
D-0
  6
Continuous
 62
     7
370
     9
100
AcDbLine
 10
-574.3347941947242
 20
-484.0481113420947
 30
0.0
 11
-574.3347941947242
 21
-482.547829054497
 31
0.0
  0
LINE
  5
FF
330
1F
100
AcDbEntity
  8
D-0
  6
Continuous
 62
     7
370
     9
100
AcDbLine
 10
-574.3347941947242
 20
-482.547829054497
 30
0.0
 11
-572.8345309806128
 21
-482.547829054497
 31
0.0
  0
LINE
  5
100
330
1F
100
AcDbEntity
  8
D-0
  6
Continuous
 62
     7
370
     9
100
AcDbLine
 10
-572.8345309806128
 20
-482.547829054497
 30
0.0
 11
-572.8345309806128
 21
-484.0481113420947
 31
0.0
  0
LINE
  5
101
330
1F
100
AcDbEntity
  8
D-0
  6
Continuous
 62
     7
370
     9
100
AcDbLine
 10
-572.8345309806128
 20
-484.0481113420947
 30
0.0
 11
-574.3347941947242
 21
-484.0481113420947
 31
0.0
  0
LINE
  5
102
330
1F
100
AcDbEntity
  8
D-0
  6
Continuous
 62
     7
370
     9
100
AcDbLine
 10
-631.5976153922339
 20
-452.4550365435107
 30
0.0
 11
-631.5976153922339
 21
-450.954754255913
 31
0.0
  0
LINE
  5
103
330
1F
100
AcDbEntity
  8
D-0
  6
Continuous
 62
     7
370
     9
100
AcDbLine
 10
-631.5976153922339
 20
-450.954754255913
 30
0.0
 11
-630.0978290152808
 21
-450.954754255913
 31
0.0
  0
LINE
  5
104
330
1F
100
AcDbEntity
  8
D-0
  6
Continuous
 62
     7
370
     9
100
AcDbLine
 10
-630.0978290152808
 20
-450.954754255913
 30
0.0
 11
-630.0978290152808
 21
-452.4550365435107
 31
0.0
  0
LINE
  5
105
330
1F
100
AcDbEntity
  8
D-0
  6
Continuous
 62
     7
370
     9
100
AcDbLine
 10
-630.0978290152808
 20
-452.4550365435107
 30
0.0
 11
-631.5976153922339
 21
-452.4550365435107
 31
0.0
  0
LINE
  5
106
330
1F
100
AcDbEntity
  8
D-0
  6
Continuous
 62
     7
370
     9
100
AcDbLine
 10
-599.7305499625464
 20
-408.5763191210253
 30
0.0
 11
-599.7305499625464
 21
-407.0760463701708
 31
0.0
  0
LINE
  5
107
330
1F
100
AcDbEntity
  8
D-0
  6
Continuous
 62
     7
370
     9
100
AcDbLine
 10
-599.7305499625464
 20
-407.0760463701708
 30
0.0
 11
-598.2302676749488
 21
-407.0760463701708
 31
0.0
  0
LINE
  5
108
330
1F
100
AcDbEntity
  8
D-0
  6
Continuous
 62
     7
370
     9
100
AcDbLine
 10
-598.2302676749488
 20
-407.0760463701708
 30
0.0
 11
-598.2302676749488
 21
-408.5763191210253
 31
0.0
  0
LINE
  5
109
330
1F
100
AcDbEntity
  8
D-0
  6
Continuous
 62
     7
370
     9
100
AcDbLine
 10
-598.2302676749488
 20
-408.5763191210253
 30
0.0
 11
-599.7305499625464
 21
-408.5763191210253
 31
0.0
  0
LINE
  5
10A
330
1F
100
AcDbEntity
  8
D-0
  6
Continuous
 62
     7
370
     9
100
AcDbLine
 10
-609.0141498160621
 20
-480.015976332329
 30
0.0
 11
-609.0141498160621
 21
-478.5157131182177
 31
0.0
  0
LINE
  5
10B
330
1F
100
AcDbEntity
  8
D-0
  6
Continuous
 62
     7
370
     9
100
AcDbLine
 10
-609.0141498160621
 20
-478.5157131182177
 30
0.0
 11
-607.5138675284644
 21
-478.5157131182177
 31
0.0
  0
LINE
  5
10C
330
1F
100
AcDbEntity
  8
D-0
  6
Continuous
 62
     7
370
     9
100
AcDbLine
 10
-607.5138675284644
 20
-478.5157131182177
 30
0.0
 11
-607.5138675284644
 21
-480.015976332329
 31
0.0
  0
LINE
  5
10D
330
1F
100
AcDbEntity
  8
D-0
  6
Continuous
 62
     7
370
     9
100
AcDbLine
 10
-607.5138675284644
 20
-480.015976332329
 30
0.0
 11
-609.0141498160621
 21
-480.015976332329
 31
0.0
  0
LINE
  5
10E
330
1F
100
AcDbEntity
  8
D-0
  6
Continuous
 62
     7
370
     9
100
AcDbLine
 10
-772.1398078513404
 20
-270.1398693548663
 30
0.0
 11
-772.1398078513404
 21
-268.6395894514544
 31
0.0
  0
LINE
  5
10F
330
1F
100
AcDbEntity
  8
D-0
  6
Continuous
 62
     7
370
     9
100
AcDbLine
 10
-772.1398078513404
 20
-268.6395894514544
 30
0.0
 11
-770.6395303321143
 21
-268.6395894514544
 31
0.0
  0
LINE
  5
110
330
1F
100
AcDbEntity
  8
D-0
  6
Continuous
 62
     7
370
     9
100
AcDbLine
 10
-770.6395303321143
 20
-268.6395894514544
 30
0.0
 11
-770.6395303321143
 21
-270.1398693548663
 31
0.0
  0
LINE
  5
111
330
1F
100
AcDbEntity
  8
D-0
  6
Continuous
 62
     7
370
     9
100
AcDbLine
 10
-770.6395303321143
 20
-270.1398693548663
 30
0.0
 11
-772.1398078513404
 21
-270.1398693548663
 31
0.0
  0
LINE
  5
112
330
1F
100
AcDbEntity
  8
D-0
  6
Continuous
 62
     7
370
     9
100
AcDbLine
 10
-750.8951007437964
 20
-285.9383868204577
 30
0.0
 11
-750.8951007437964
 21
-284.4381069170458
 31
0.0
  0
LINE
  5
113
330
1F
100
AcDbEntity
  8
D-0
  6
Continuous
 62
     7
370
     9
100
AcDbLine
 10
-750.8951007437964
 20
-284.4381069170458
 30
0.0
 11
-749.3948184561988
 21
-284.4381069170458
 31
0.0
  0
LINE
  5
114
330
1F
100
AcDbEntity
  8
D-0
  6
Continuous
 62
     7
370
     9
100
AcDbLine
 10
-749.3948184561988
 20
-284.4381069170458
 30
0.0
 11
-749.3948184561988
 21
-285.9383868204577
 31
0.0
  0
LINE
  5
115
330
1F
100
AcDbEntity
  8
D-0
  6
Continuous
 62
     7
370
     9
100
AcDbLine
 10
-749.3948184561988
 20
-285.9383868204577
 30
0.0
 11
-750.8951007437964
 21
-285.9383868204577
 31
0.0
  0
LINE
  5
116
330
1F
100
AcDbEntity
  8
D-0
  6
Continuous
 62
     7
370
     9
100
AcDbLine
 10
-727.0288669181128
 20
-327.0186923967822
 30
0.0
 11
-727.0288669181128
 21
-325.5184148775561
 31
0.0
  0
LINE
  5
117
330
1F
100
AcDbEntity
  8
D-0
  6
Continuous
 62
     7
370
     9
100
AcDbLine
 10
-727.0288669181128
 20
-325.5184148775561
 30
0.0
 11
-725.5290805411597
 21
-325.5184148775561
 31
0.0
  0
LINE
  5
118
330
1F
100
AcDbEntity
  8
D-0
  6
Continuous
 62
     7
370
     9
100
AcDbLine
 10
-725.5290805411597
 20
-325.5184148775561
 30
0.0
 11
-725.5290805411597
 21
-327.0186923967822
 31
0.0
  0
LINE
  5
119
330
1F
100
AcDbEntity
  8
D-0
  6
Continuous
 62
     7
370
     9
100
AcDbLine
 10
-725.5290805411597
 20
-327.0186923967822
 30
0.0
 11
-727.0288669181128
 21
-327.0186923967822
 31
0.0
  0
LINE
  5
11A
330
1F
100
AcDbEntity
  8
D-0
  6
Continuous
 62
     7
370
     9
100
AcDbLine
 10
-681.2643920493384
 20
-274.0624963270648
 30
0.0
 11
-681.2643920493384
 21
-272.5622164236529
 31
0.0
  0
LINE
  5
11B
330
1F
100
AcDbEntity
  8
D-0
  6
Continuous
 62
     7
370
     9
100
AcDbLine
 10
-681.2643920493384
 20
-272.5622164236529
 30
0.0
 11
-679.7646152091285
 21
-272.5622164236529
 31
0.0
  0
LINE
  5
11C
330
1F
100
AcDbEntity
  8
D-0
  6
Continuous
 62
     7
370
     9
100
AcDbLine
 10
-679.7646152091285
 20
-272.5622164236529
 30
0.0
 11
-679.7646152091285
 21
-274.0624963270648
 31
0.0
  0
LINE
  5
11D
330
1F
100
AcDbEntity
  8
D-0
  6
Continuous
 62
     7
370
     9
100
AcDbLine
 10
-679.7646152091285
 20
-274.0624963270648
 30
0.0
 11
-681.2643920493384
 21
-274.0624963270648
 31
0.0
  0
LINE
  5
11E
330
1F
100
AcDbEntity
  8
D-0
  6
Continuous
 62
     7
370
     9
100
AcDbLine
 10
-633.7063228202124
 20
-268.6643635260089
 30
0.0
 11
-633.7063228202124
 21
-267.164083622597
 31
0.0
  0
LINE
  5
11F
330
1F
100
AcDbEntity
  8
D-0
  6
Continuous
 62
     7
370
     9
100
AcDbLine
 10
-633.7063228202124
 20
-267.164083622597
 30
0.0
 11
-632.2065364432593
 21
-267.164083622597
 31
0.0
  0
LINE
  5
120
330
1F
100
AcDbEntity
  8
D-0
  6
Continuous
 62
     7
370
     9
100
AcDbLine
 10
-632.2065364432593
 20
-267.164083622597
 30
0.0
 11
-632.2065364432593
 21
-268.6643635260089
 31
0.0
  0
LINE
  5
121
330
1F
100
AcDbEntity
  8
D-0
  6
Continuous
 62
     7
370
     9
100
AcDbLine
 10
-632.2065364432593
 20
-268.6643635260089
 30
0.0
 11
-633.7063228202124
 21
-268.6643635260089
 31
0.0
  0
LINE
  5
122
330
1F
100
AcDbEntity
  8
D-0
  6
Continuous
 62
     7
370
     9
100
AcDbLine
 10
-653.3199512076636
 20
-290.2390550600512
 30
0.0
 11
-653.3199512076636
 21
-288.7387775408251
 31
0.0
  0
LINE
  5
123
330
1F
100
AcDbEntity
  8
D-0
  6
Continuous
 62
     7
370
     9
100
AcDbLine
 10
-653.3199512076636
 20
-288.7387775408251
 30
0.0
 11
-651.819668920066
 21
-288.7387775408251
 31
0.0
  0
LINE
  5
124
330
1F
100
AcDbEntity
  8
D-0
  6
Continuous
 62
     7
370
     9
100
AcDbLine
 10
-651.819668920066
 20
-288.7387775408251
 30
0.0
 11
-651.819668920066
 21
-290.2390550600512
 31
0.0
  0
LINE
  5
125
330
1F
100
AcDbEntity
  8
D-0
  6
Continuous
 62
     7
370
     9
100
AcDbLine
 10
-651.819668920066
 20
-290.2390550600512
 30
0.0
 11
-653.3199512076636
 21
-290.2390550600512
 31
0.0
  0
LINE
  5
126
330
1F
100
AcDbEntity
  8
D-0
  6
Continuous
 62
     7
370
     9
100
AcDbLine
 10
-628.9622127127906
 20
-326.36517276635
 30
0.0
 11
-628.9622127127906
 21
-324.8648904787524
 31
0.0
  0
LINE
  5
127
330
1F
100
AcDbEntity
  8
D-0
  6
Continuous
 62
     7
370
     9
100
AcDbLine
 10
-628.9622127127906
 20
-324.8648904787524
 30
0.0
 11
-627.4619304251929
 21
-324.8648904787524
 31
0.0
  0
LINE
  5
128
330
1F
100
AcDbEntity
  8
D-0
  6
Continuous
 62
     7
370
     9
100
AcDbLine
 10
-627.4619304251929
 20
-324.8648904787524
 30
0.0
 11
-627.4619304251929
 21
-326.36517276635
 31
0.0
  0
LINE
  5
129
330
1F
100
AcDbEntity
  8
D-0
  6
Continuous
 62
     7
370
     9
100
AcDbLine
 10
-627.4619304251929
 20
-326.36517276635
 30
0.0
 11
-628.9622127127906
 21
-326.36517276635
 31
0.0
  0
LINE
  5
12A
330
1F
100
AcDbEntity
  8
D-0
  6
Continuous
 62
     7
370
     9
100
AcDbLine
 10
-625.0391017508765
 20
-364.937908552788
 30
0.0
 11
-625.0391017508765
 21
-363.4376262651904
 31
0.0
  0
LINE
  5
12B
330
1F
100
AcDbEntity
  8
D-0
  6
Continuous
 62
     7
370
     9
100
AcDbLine
 10
-625.0391017508765
 20
-363.4376262651904
 30
0.0
 11
-623.5393153739234
 21
-363.4376262651904
 31
0.0
  0
LINE
  5
12C
330
1F
100
AcDbEntity
  8
D-0
  6
Continuous
 62
     7
370
     9
100
AcDbLine
 10
-623.5393153739234
 20
-363.4376262651904
 30
0.0
 11
-623.5393153739234
 21
-364.937908552788
 31
0.0
  0
LINE
  5
12D
330
1F
100
AcDbEntity
  8
D-0
  6
Continuous
 62
     7
370
     9
100
AcDbLine
 10
-623.5393153739234
 20
-364.937908552788
 30
0.0
 11
-625.0391017508765
 21
-364.937908552788
 31
0.0
  0
LINE
  5
12E
330
1F
100
AcDbEntity
  8
D-0
  6
Continuous
 62
     7
370
     9
100
AcDbLine
 10
-700.708075673606
 20
-288.563876055382
 30
0.0
 11
-700.708075673606
 21
-287.0635961519702
 31
0.0
  0
LINE
  5
12F
330
1F
100
AcDbEntity
  8
D-0
  6
Continuous
 62
     7
370
     9
100
AcDbLine
 10
-700.708075673606
 20
-287.0635961519702
 30
0.0
 11
-699.2077933860083
 21
-287.0635961519702
 31
0.0
  0
LINE
  5
130
330
1F
100
AcDbEntity
  8
D-0
  6
Continuous
 62
     7
370
     9
100
AcDbLine
 10
-699.2077933860083
 20
-287.0635961519702
 30
0.0
 11
-699.2077933860083
 21
-288.563876055382
 31
0.0
  0
LINE
  5
131
330
1F
100
AcDbEntity
  8
D-0
  6
Continuous
 62
     7
370
     9
100
AcDbLine
 10
-699.2077933860083
 20
-288.563876055382
 30
0.0
 11
-700.708075673606
 21
-288.563876055382
 31
0.0
  0
LINE
  5
132
330
1F
100
AcDbEntity
  8
D-0
  6
Continuous
 62
     7
370
     9
100
AcDbLine
 10
-778.9901601386329
 20
-416.0028957354052
 30
0.0
 11
-778.9901601386329
 21
-414.5026229845507
 31
0.0
  0
LINE
  5
133
330
1F
100
AcDbEntity
  8
D-0
  6
Continuous
 62
     7
370
     9
100
AcDbLine
 10
-778.9901601386329
 20
-414.5026229845507
 30
0.0
 11
-777.4898826194068
 21
-414.5026229845507
 31
0.0
  0
LINE
  5
134
330
1F
100
AcDbEntity
  8
D-0
  6
Continuous
 62
     7
370
     9
100
AcDbLine
 10
-777.4898826194068
 20
-414.5026229845507
 30
0.0
 11
-777.4898826194068
 21
-416.0028957354052
 31
0.0
  0
LINE
  5
135
330
1F
100
AcDbEntity
  8
D-0
  6
Continuous
 62
     7
370
     9
100
AcDbLine
 10
-777.4898826194068
 20
-416.0028957354052
 30
0.0
 11
-778.9901601386329
 21
-416.0028957354052
 31
0.0
  0
LINE
  5
136
330
1F
100
AcDbEntity
  8
D-0
  6
Continuous
 62
     7
370
     9
100
AcDbLine
 10
-929.7613059592505
 20
-405.0644420610888
 30
0.0
 11
-929.7613059592505
 21
-403.5641597734912
 31
0.0
  0
LINE
  5
137
330
1F
100
AcDbEntity
  8
D-0
  6
Continuous
 62
     7
370
     9
100
AcDbLine
 10
-929.7613059592505
 20
-403.5641597734912
 30
0.0
 11
-928.261033208396
 21
-403.5641597734912
 31
0.0
  0
LINE
  5
138
330
1F
100
AcDbEntity
  8
D-0
  6
Continuous
 62
     7
370
     9
100
AcDbLine
 10
-928.261033208396
 20
-403.5641597734912
 30
0.0
 11
-928.261033208396
 21
-405.0644420610888
 31
0.0
  0
LINE
  5
139
330
1F
100
AcDbEntity
  8
D-0
  6
Continuous
 62
     7
370
     9
100
AcDbLine
 10
-928.261033208396
 20
-405.0644420610888
 30
0.0
 11
-929.7613059592505
 21
-405.0644420610888
 31
0.0
  0
LINE
  5
13A
330
1F
100
AcDbEntity
  8
D-0
  6
Continuous
 62
     7
370
     9
100
AcDbLine
 10
-870.5230628562232
 20
-509.7178577410205
 30
0.0
 11
-870.5230628562232
 21
-508.2175754534228
 31
0.0
  0
LINE
  5
13B
330
1F
100
AcDbEntity
  8
D-0
  6
Continuous
 62
     7
370
     9
100
AcDbLine
 10
-870.5230628562232
 20
-508.2175754534228
 30
0.0
 11
-869.0232812476416
 21
-508.2175754534228
 31
0.0
  0
LINE
  5
13C
330
1F
100
AcDbEntity
  8
D-0
  6
Continuous
 62
     7
370
     9
100
AcDbLine
 10
-869.0232812476416
 20
-508.2175754534228
 30
0.0
 11
-869.0232812476416
 21
-509.7178577410205
 31
0.0
  0
LINE
  5
13D
330
1F
100
AcDbEntity
  8
D-0
  6
Continuous
 62
     7
370
     9
100
AcDbLine
 10
-869.0232812476416
 20
-509.7178577410205
 30
0.0
 11
-870.5230628562232
 21
-509.7178577410205
 31
0.0
  0
LINE
  5
13E
330
1F
100
AcDbEntity
  8
D-0
  6
Continuous
 62
     7
370
     9
100
AcDbLine
 10
-884.3456517768165
 20
-568.9556049334033
 30
0.0
 11
-884.3456517768165
 21
-567.4553226458056
 31
0.0
  0
LINE
  5
13F
330
1F
100
AcDbEntity
  8
D-0
  6
Continuous
 62
     7
370
     9
100
AcDbLine
 10
-884.3456517768165
 20
-567.4553226458056
 30
0.0
 11
-882.8453694892188
 21
-567.4553226458056
 31
0.0
  0
LINE
  5
140
330
1F
100
AcDbEntity
  8
D-0
  6
Continuous
 62
     7
370
     9
100
AcDbLine
 10
-882.8453694892188
 20
-567.4553226458056
 30
0.0
 11
-882.8453694892188
 21
-568.9556049334033
 31
0.0
  0
LINE
  5
141
330
1F
100
AcDbEntity
  8
D-0
  6
Continuous
 62
     7
370
     9
100
AcDbLine
 10
-882.8453694892188
 20
-568.9556049334033
 30
0.0
 11
-884.3456517768165
 21
-568.9556049334033
 31
0.0
  0
LINE
  5
142
330
1F
100
AcDbEntity
  8
D-0
  6
Continuous
 62
     7
370
     9
100
AcDbLine
 10
-914.9517451834937
 20
-579.8158000933154
 30
0.0
 11
-914.9517451834937
 21
-578.3155178057177
 31
0.0
  0
LINE
  5
143
330
1F
100
AcDbEntity
  8
D-0
  6
Continuous
 62
     7
370
     9
100
AcDbLine
 10
-914.9517451834937
 20
-578.3155178057177
 30
0.0
 11
-913.4514724326392
 21
-578.3155178057177
 31
0.0
  0
LINE
  5
144
330
1F
100
AcDbEntity
  8
D-0
  6
Continuous
 62
     7
370
     9
100
AcDbLine
 10
-913.4514724326392
 20
-578.3155178057177
 30
0.0
 11
-913.4514724326392
 21
-579.8158000933154
 31
0.0
  0
LINE
  5
145
330
1F
100
AcDbEntity
  8
D-0
  6
Continuous
 62
     7
370
     9
100
AcDbLine
 10
-913.4514724326392
 20
-579.8158000933154
 30
0.0
 11
-914.9517451834937
 21
-579.8158000933154
 31
0.0
  0
LINE
  5
146
330
1F
100
AcDbEntity
  8
D-0
  6
Continuous
 62
     7
370
     9
100
AcDbLine
 10
-937.805243642356
 20
-513.6672328936083
 30
0.0
 11
-937.805243642356
 21
-512.1669506060107
 31
0.0
  0
LINE
  5
147
330
1F
100
AcDbEntity
  8
D-0
  6
Continuous
 62
     7
370
     9
100
AcDbLine
 10
-937.805243642356
 20
-512.1669506060107
 30
0.0
 11
-936.3054572654029
 21
-512.1669506060107
 31
0.0
  0
LINE
  5
148
330
1F
100
AcDbEntity
  8
D-0
  6
Continuous
 62
     7
370
     9
100
AcDbLine
 10
-936.3054572654029
 20
-512.1669506060107
 30
0.0
 11
-936.3054572654029
 21
-513.6672328936083
 31
0.0
  0
LINE
  5
149
330
1F
100
AcDbEntity
  8
D-0
  6
Continuous
 62
     7
370
     9
100
AcDbLine
 10
-936.3054572654029
 20
-513.6672328936083
 30
0.0
 11
-937.805243642356
 21
-513.6672328936083
 31
0.0
  0
LINE
  5
14A
330
1F
100
AcDbEntity
  8
D-0
  6
Continuous
 62
     7
370
     9
100
AcDbLine
 10
-911.9898330283423
 20
-491.9468807207568
 30
0.0
 11
-911.9898330283423
 21
-490.4465984331591
 31
0.0
  0
LINE
  5
14B
330
1F
100
AcDbEntity
  8
D-0
  6
Continuous
 62
     7
370
     9
100
AcDbLine
 10
-911.9898330283423
 20
-490.4465984331591
 30
0.0
 11
-910.4895602774878
 21
-490.4465984331591
 31
0.0
  0
LINE
  5
14C
330
1F
100
AcDbEntity
  8
D-0
  6
Continuous
 62
     7
370
     9
100
AcDbLine
 10
-910.4895602774878
 20
-490.4465984331591
 30
0.0
 11
-910.4895602774878
 21
-491.9468807207568
 31
0.0
  0
LINE
  5
14D
330
1F
100
AcDbEntity
  8
D-0
  6
Continuous
 62
     7
370
     9
100
AcDbLine
 10
-910.4895602774878
 20
-491.9468807207568
 30
0.0
 11
-911.9898330283423
 21
-491.9468807207568
 31
0.0
  0
LINE
  5
14E
330
1F
100
AcDbEntity
  8
D-0
  6
Continuous
 62
     7
370
     9
100
AcDbLine
 10
-848.8027035308143
 20
-544.439804457329
 30
0.0
 11
-848.8027035308143
 21
-542.9395221697314
 31
0.0
  0
LINE
  5
14F
330
1F
100
AcDbEntity
  8
D-0
  6
Continuous
 62
     7
370
     9
100
AcDbLine
 10
-848.8027035308143
 20
-542.9395221697314
 30
0.0
 11
-847.3029195380469
 21
-542.9395221697314
 31
0.0
  0
LINE
  5
150
330
1F
100
AcDbEntity
  8
D-0
  6
Continuous
 62
     7
370
     9
100
AcDbLine
 10
-847.3029195380469
 20
-542.9395221697314
 30
0.0
 11
-847.3029195380469
 21
-544.439804457329
 31
0.0
  0
LINE
  5
151
330
1F
100
AcDbEntity
  8
D-0
  6
Continuous
 62
     7
370
     9
100
AcDbLine
 10
-847.3029195380469
 20
-544.439804457329
 30
0.0
 11
-848.8027035308143
 21
-544.439804457329
 31
0.0
  0
LINE
  5
152
330
1F
100
AcDbEntity
  8
D-0
  6
Continuous
 62
     7
370
     9
100
AcDbLine
 10
-925.8119308066626
 20
-682.3188518511279
 30
0.0
 11
-925.8119308066626
 21
-680.8185695635302
 31
0.0
  0
LINE
  5
153
330
1F
100
AcDbEntity
  8
D-0
  6
Continuous
 62
     7
370
     9
100
AcDbLine
 10
-925.8119308066626
 20
-680.8185695635302
 30
0.0
 11
-924.3121444297095
 21
-680.8185695635302
 31
0.0
  0
LINE
  5
154
330
1F
100
AcDbEntity
  8
D-0
  6
Continuous
 62
     7
370
     9
100
AcDbLine
 10
-924.3121444297095
 20
-680.8185695635302
 30
0.0
 11
-924.3121444297095
 21
-682.3188518511279
 31
0.0
  0
LINE
  5
155
330
1F
100
AcDbEntity
  8
D-0
  6
Continuous
 62
     7
370
     9
100
AcDbLine
 10
-924.3121444297095
 20
-682.3188518511279
 30
0.0
 11
-925.8119308066626
 21
-682.3188518511279
 31
0.0
  0
LINE
  5
156
330
1F
100
AcDbEntity
  8
D-0
  6
Continuous
 62
     7
370
     9
100
AcDbLine
 10
-855.4216705870887
 20
-686.0308956133349
 30
0.0
 11
-855.4216705870887
 21
-684.5306133257372
 31
0.0
  0
LINE
  5
157
330
1F
100
AcDbEntity
  8
D-0
  6
Continuous
 62
     7
370
     9
100
AcDbLine
 10
-855.4216705870887
 20
-684.5306133257372
 30
0.0
 11
-853.9218865943213
 21
-684.5306133257372
 31
0.0
  0
LINE
  5
158
330
1F
100
AcDbEntity
  8
D-0
  6
Continuous
 62
     7
370
     9
100
AcDbLine
 10
-853.9218865943213
 20
-684.5306133257372
 30
0.0
 11
-853.9218865943213
 21
-686.0308956133349
 31
0.0
  0
LINE
  5
159
330
1F
100
AcDbEntity
  8
D-0
  6
Continuous
 62
     7
370
     9
100
AcDbLine
 10
-853.9218865943213
 20
-686.0308956133349
 30
0.0
 11
-855.4216705870887
 21
-686.0308956133349
 31
0.0
  0
LINE
  5
15A
330
1F
100
AcDbEntity
  8
D-0
  6
Continuous
 62
     7
370
     9
100
AcDbLine
 10
-831.0312288117667
 20
-711.9374965654833
 30
0.0
 11
-831.0312288117667
 21
-710.4372142778857
 31
0.0
  0
LINE
  5
15B
330
1F
100
AcDbEntity
  8
D-0
  6
Continuous
 62
     7
370
     9
100
AcDbLine
 10
-831.0312288117667
 20
-710.4372142778857
 30
0.0
 11
-829.5314446699878
 21
-710.4372142778857
 31
0.0
  0
LINE
  5
15C
330
1F
100
AcDbEntity
  8
D-0
  6
Continuous
 62
     7
370
     9
100
AcDbLine
 10
-829.5314446699878
 20
-710.4372142778857
 30
0.0
 11
-829.5314446699878
 21
-711.9374965654833
 31
0.0
  0
LINE
  5
15D
330
1F
100
AcDbEntity
  8
D-0
  6
Continuous
 62
     7
370
     9
100
AcDbLine
 10
-829.5314446699878
 20
-711.9374965654833
 30
0.0
 11
-831.0312288117667
 21
-711.9374965654833
 31
0.0
  0
LINE
  5
15E
330
1F
100
AcDbEntity
  8
D-0
  6
Continuous
 62
     7
370
     9
100
AcDbLine
 10
-824.7526483845969
 20
-750.1495098101122
 30
0.0
 11
-824.7526483845969
 21
-748.6492275225146
 31
0.0
  0
LINE
  5
15F
330
1F
100
AcDbEntity
  8
D-0
  6
Continuous
 62
     7
370
     9
100
AcDbLine
 10
-824.7526483845969
 20
-748.6492275225146
 30
0.0
 11
-823.2523690772315
 21
-748.6492275225146
 31
0.0
  0
LINE
  5
160
330
1F
100
AcDbEntity
  8
D-0
  6
Continuous
 62
     7
370
     9
100
AcDbLine
 10
-823.2523690772315
 20
-748.6492275225146
 30
0.0
 11
-823.2523690772315
 21
-750.1495098101122
 31
0.0
  0
LINE
  5
161
330
1F
100
AcDbEntity
  8
D-0
  6
Continuous
 62
     7
370
     9
100
AcDbLine
 10
-823.2523690772315
 20
-750.1495098101122
 30
0.0
 11
-824.7526483845969
 21
-750.1495098101122
 31
0.0
  0
LINE
  5
162
330
1F
100
AcDbEntity
  8
D-0
  6
Continuous
 62
     7
370
     9
100
AcDbLine
 10
-898.981305272605
 20
-755.6081127153857
 30
0.0
 11
-898.981305272605
 21
-754.107830427788
 31
0.0
  0
LINE
  5
163
330
1F
100
AcDbEntity
  8
D-0
  6
Continuous
 62
     7
370
     9
100
AcDbLine
 10
-898.981305272605
 20
-754.107830427788
 30
0.0
 11
-897.4810229850074
 21
-754.107830427788
 31
0.0
  0
LINE
  5
164
330
1F
100
AcDbEntity
  8
D-0
  6
Continuous
 62
     7
370
     9
100
AcDbLine
 10
-897.4810229850074
 20
-754.107830427788
 30
0.0
 11
-897.4810229850074
 21
-755.6081127153857
 31
0.0
  0
LINE
  5
165
330
1F
100
AcDbEntity
  8
D-0
  6
Continuous
 62
     7
370
     9
100
AcDbLine
 10
-897.4810229850074
 20
-755.6081127153857
 30
0.0
 11
-898.981305272605
 21
-755.6081127153857
 31
0.0
  0
LINE
  5
166
330
1F
100
AcDbEntity
  8
D-0
  6
Continuous
 62
     7
370
     9
100
AcDbLine
 10
-933.7101947379371
 20
-746.3116191851122
 30
0.0
 11
-933.7101947379371
 21
-744.8113368975146
 31
0.0
  0
LINE
  5
167
330
1F
100
AcDbEntity
  8
D-0
  6
Continuous
 62
     7
370
     9
100
AcDbLine
 10
-933.7101947379371
 20
-744.8113368975146
 30
0.0
 11
-932.2099124503394
 21
-744.8113368975146
 31
0.0
  0
LINE
  5
168
330
1F
100
AcDbEntity
  8
D-0
  6
Continuous
 62
     7
370
     9
100
AcDbLine
 10
-932.2099124503394
 20
-744.8113368975146
 30
0.0
 11
-932.2099124503394
 21
-746.3116191851122
 31
0.0
  0
LINE
  5
169
330
1F
100
AcDbEntity
  8
D-0
  6
Continuous
 62
     7
370
     9
100
AcDbLine
 10
-932.2099124503394
 20
-746.3116191851122
 30
0.0
 11
-933.7101947379371
 21
-746.3116191851122
 31
0.0
  0
LINE
  5
16A
330
1F
100
AcDbEntity
  8
D-0
  6
Continuous
 62
     7
370
     9
100
AcDbLine
 10
-935.9214698386451
 20
-706.0136531816943
 30
0.0
 11
-935.9214698386451
 21
-704.5133708940966
 31
0.0
  0
LINE
  5
16B
330
1F
100
AcDbEntity
  8
D-0
  6
Continuous
 62
     7
370
     9
100
AcDbLine
 10
-935.9214698386451
 20
-704.5133708940966
 30
0.0
 11
-934.4216929984351
 21
-704.5133708940966
 31
0.0
  0
LINE
  5
16C
330
1F
100
AcDbEntity
  8
D-0
  6
Continuous
 62
     7
370
     9
100
AcDbLine
 10
-934.4216929984351
 20
-704.5133708940966
 30
0.0
 11
-934.4216929984351
 21
-706.0136531816943
 31
0.0
  0
LINE
  5
16D
330
1F
100
AcDbEntity
  8
D-0
  6
Continuous
 62
     7
370
     9
100
AcDbLine
 10
-934.4216929984351
 20
-706.0136531816943
 30
0.0
 11
-935.9214698386451
 21
-706.0136531816943
 31
0.0
  0
LINE
  5
16E
330
1F
100
AcDbEntity
  8
D-0
  6
Continuous
 62
     7
370
     9
100
AcDbLine
 10
-878.4218274665137
 20
-725.7595943438037
 30
0.0
 11
-878.4218274665137
 21
-724.259312056206
 31
0.0
  0
LINE
  5
16F
330
1F
100
AcDbEntity
  8
D-0
  6
Continuous
 62
     7
370
     9
100
AcDbLine
 10
-878.4218274665137
 20
-724.259312056206
 30
0.0
 11
-876.9215451789161
 21
-724.259312056206
 31
0.0
  0
LINE
  5
170
330
1F
100
AcDbEntity
  8
D-0
  6
Continuous
 62
     7
370
     9
100
AcDbLine
 10
-876.9215451789161
 20
-724.259312056206
 30
0.0
 11
-876.9215451789161
 21
-725.7595943438037
 31
0.0
  0
LINE
  5
171
330
1F
100
AcDbEntity
  8
D-0
  6
Continuous
 62
     7
370
     9
100
AcDbLine
 10
-876.9215451789161
 20
-725.7595943438037
 30
0.0
 11
-878.4218274665137
 21
-725.7595943438037
 31
0.0
  0
LINE
  5
172
330
1F
100
AcDbEntity
  8
D-0
  6
Continuous
 62
     7
370
     9
100
AcDbLine
 10
-890.2694760871192
 20
-692.191555403374
 30
0.0
 11
-890.2694760871192
 21
-690.6912731157763
 31
0.0
  0
LINE
  5
173
330
1F
100
AcDbEntity
  8
D-0
  6
Continuous
 62
     7
370
     9
100
AcDbLine
 10
-890.2694760871192
 20
-690.6912731157763
 30
0.0
 11
-888.7691937995215
 21
-690.6912731157763
 31
0.0
  0
LINE
  5
174
330
1F
100
AcDbEntity
  8
D-0
  6
Continuous
 62
     7
370
     9
100
AcDbLine
 10
-888.7691937995215
 20
-690.6912731157763
 30
0.0
 11
-888.7691937995215
 21
-692.191555403374
 31
0.0
  0
LINE
  5
175
330
1F
100
AcDbEntity
  8
D-0
  6
Continuous
 62
     7
370
     9
100
AcDbLine
 10
-888.7691937995215
 20
-692.191555403374
 30
0.0
 11
-890.2694760871192
 21
-692.191555403374
 31
0.0
  0
LINE
  5
176
330
1F
100
AcDbEntity
  8
D-0
  6
Continuous
 62
     7
370
     9
100
AcDbLine
 10
-834.9806105208655
 20
-578.0078243242724
 30
0.0
 11
-834.9806105208655
 21
-576.5075420366747
 31
0.0
  0
LINE
  5
177
330
1F
100
AcDbEntity
  8
D-0
  6
Continuous
 62
     7
370
     9
100
AcDbLine
 10
-834.9806105208655
 20
-576.5075420366747
 30
0.0
 11
-833.4808265280982
 21
-576.5075420366747
 31
0.0
  0
LINE
  5
178
330
1F
100
AcDbEntity
  8
D-0
  6
Continuous
 62
     7
370
     9
100
AcDbLine
 10
-833.4808265280982
 20
-576.5075420366747
 30
0.0
 11
-833.4808265280982
 21
-578.0078243242724
 31
0.0
  0
LINE
  5
179
330
1F
100
AcDbEntity
  8
D-0
  6
Continuous
 62
     7
370
     9
100
AcDbLine
 10
-833.4808265280982
 20
-578.0078243242724
 30
0.0
 11
-834.9806105208655
 21
-578.0078243242724
 31
0.0
  0
LINE
  5
17A
330
1F
100
AcDbEntity
  8
D-0
  6
Continuous
 62
     7
370
     9
100
AcDbLine
 10
-823.1334563207885
 20
-478.1242870317919
 30
0.0
 11
-823.1334563207885
 21
-476.6240047441943
 31
0.0
  0
LINE
  5
17B
330
1F
100
AcDbEntity
  8
D-0
  6
Continuous
 62
     7
370
     9
100
AcDbLine
 10
-823.1334563207885
 20
-476.6240047441943
 30
0.0
 11
-821.6331767153998
 21
-476.6240047441943
 31
0.0
  0
LINE
  5
17C
330
1F
100
AcDbEntity
  8
D-0
  6
Continuous
 62
     7
370
     9
100
AcDbLine
 10
-821.6331767153998
 20
-476.6240047441943
 30
0.0
 11
-821.6331767153998
 21
-478.1242870317919
 31
0.0
  0
LINE
  5
17D
330
1F
100
AcDbEntity
  8
D-0
  6
Continuous
 62
     7
370
     9
100
AcDbLine
 10
-821.6331767153998
 20
-478.1242870317919
 30
0.0
 11
-823.1334563207885
 21
-478.1242870317919
 31
0.0
  0
LINE
  5
17E
330
1F
100
AcDbEntity
  8
D-0
  6
Continuous
 62
     7
370
     9
100
AcDbLine
 10
-727.0224200797339
 20
-489.3486331926806
 30
0.0
 11
-727.0224200797339
 21
-487.848350905083
 31
0.0
  0
LINE
  5
17F
330
1F
100
AcDbEntity
  8
D-0
  6
Continuous
 62
     7
370
     9
100
AcDbLine
 10
-727.0224200797339
 20
-487.848350905083
 30
0.0
 11
-725.522643239524
 21
-487.848350905083
 31
0.0
  0
LINE
  5
180
330
1F
100
AcDbEntity
  8
D-0
  6
Continuous
 62
     7
370
     9
100
AcDbLine
 10
-725.522643239524
 20
-487.848350905083
 30
0.0
 11
-725.522643239524
 21
-489.3486331926806
 31
0.0
  0
LINE
  5
181
330
1F
100
AcDbEntity
  8
D-0
  6
Continuous
 62
     7
370
     9
100
AcDbLine
 10
-725.522643239524
 20
-489.3486331926806
 30
0.0
 11
-727.0224200797339
 21
-489.3486331926806
 31
0.0
  0
LINE
  5
182
330
1F
100
AcDbEntity
  8
D-0
  6
Continuous
 62
     7
370
     9
100
AcDbLine
 10
-779.5569764685889
 20
-480.7235073076708
 30
0.0
 11
-779.5569764685889
 21
-479.2232250200732
 31
0.0
  0
LINE
  5
183
330
1F
100
AcDbEntity
  8
D-0
  6
Continuous
 62
     7
370
     9
100
AcDbLine
 10
-779.5569764685889
 20
-479.2232250200732
 30
0.0
 11
-778.0571948600074
 21
-479.2232250200732
 31
0.0
  0
LINE
  5
184
330
1F
100
AcDbEntity
  8
D-0
  6
Continuous
 62
     7
370
     9
100
AcDbLine
 10
-778.0571948600074
 20
-479.2232250200732
 30
0.0
 11
-778.0571948600074
 21
-480.7235073076708
 31
0.0
  0
LINE
  5
185
330
1F
100
AcDbEntity
  8
D-0
  6
Continuous
 62
     7
370
     9
100
AcDbLine
 10
-778.0571948600074
 20
-480.7235073076708
 30
0.0
 11
-779.5569764685889
 21
-480.7235073076708
 31
0.0
  0
LINE
  5
186
330
1F
100
AcDbEntity
  8
D-0
  6
Continuous
 62
     7
370
     9
100
AcDbLine
 10
-915.9387218070289
 20
-541.3114093767626
 30
0.0
 11
-915.9387218070289
 21
-539.8111461626513
 31
0.0
  0
LINE
  5
187
330
1F
100
AcDbEntity
  8
D-0
  6
Continuous
 62
     7
370
     9
100
AcDbLine
 10
-915.9387218070289
 20
-539.8111461626513
 30
0.0
 11
-914.4389354300757
 21
-539.8111461626513
 31
0.0
  0
LINE
  5
188
330
1F
100
AcDbEntity
  8
D-0
  6
Continuous
 62
     7
370
     9
100
AcDbLine
 10
-914.4389354300757
 20
-539.8111461626513
 30
0.0
 11
-914.4389354300757
 21
-541.3114093767626
 31
0.0
  0
LINE
  5
189
330
1F
100
AcDbEntity
  8
D-0
  6
Continuous
 62
     7
370
     9
100
AcDbLine
 10
-914.4389354300757
 20
-541.3114093767626
 30
0.0
 11
-915.9387218070289
 21
-541.3114093767626
 31
0.0
  0
LINE
  5
18A
330
1F
100
AcDbEntity
  8
D-0
  6
Continuous
 62
     7
370
     9
100
AcDbLine
 10
-884.8183261466285
 20
-399.5404552446826
 30
0.0
 11
-884.8183261466285
 21
-398.0401824938281
 31
0.0
  0
LINE
  5
18B
330
1F
100
AcDbEntity
  8
D-0
  6
Continuous
 62
     7
370
     9
100
AcDbLine
 10
-884.8183261466285
 20
-398.0401824938281
 30
0.0
 11
-883.3180486274024
 21
-398.0401824938281
 31
0.0
  0
LINE
  5
18C
330
1F
100
AcDbEntity
  8
D-0
  6
Continuous
 62
     7
370
     9
100
AcDbLine
 10
-883.3180486274024
 20
-398.0401824938281
 30
0.0
 11
-883.3180486274024
 21
-399.5404552446826
 31
0.0
  0
LINE
  5
18D
330
1F
100
AcDbEntity
  8
D-0
  6
Continuous
 62
     7
370
     9
100
AcDbLine
 10
-883.3180486274024
 20
-399.5404552446826
 30
0.0
 11
-884.8183261466285
 21
-399.5404552446826
 31
0.0
  0
LINE
  5
18E
330
1F
100
AcDbEntity
  8
D-0
  6
Continuous
 62
     7
370
     9
100
AcDbLine
 10
-829.057281078126
 20
-510.871803663872
 30
0.0
 11
-829.057281078126
 21
-509.3715213762744
 31
0.0
  0
LINE
  5
18F
330
1F
100
AcDbEntity
  8
D-0
  6
Continuous
 62
     7
370
     9
100
AcDbLine
 10
-829.057281078126
 20
-509.3715213762744
 30
0.0
 11
-827.5570016590019
 21
-509.3715213762744
 31
0.0
  0
LINE
  5
190
330
1F
100
AcDbEntity
  8
D-0
  6
Continuous
 62
     7
370
     9
100
AcDbLine
 10
-827.5570016590019
 20
-509.3715213762744
 30
0.0
 11
-827.5570016590019
 21
-510.871803663872
 31
0.0
  0
LINE
  5
191
330
1F
100
AcDbEntity
  8
D-0
  6
Continuous
 62
     7
370
     9
100
AcDbLine
 10
-827.5570016590019
 20
-510.871803663872
 30
0.0
 11
-829.057281078126
 21
-510.871803663872
 31
0.0
  0
LINE
  5
192
330
1F
100
AcDbEntity
  8
D-0
  6
Continuous
 62
     7
370
     9
100
AcDbLine
 10
-888.2945357871314
 20
-533.4131549822314
 30
0.0
 11
-888.2945357871314
 21
-531.9128726946337
 31
0.0
  0
LINE
  5
193
330
1F
100
AcDbEntity
  8
D-0
  6
Continuous
 62
     7
370
     9
100
AcDbLine
 10
-888.2945357871314
 20
-531.9128726946337
 30
0.0
 11
-886.7947541785499
 21
-531.9128726946337
 31
0.0
  0
LINE
  5
194
330
1F
100
AcDbEntity
  8
D-0
  6
Continuous
 62
     7
370
     9
100
AcDbLine
 10
-886.7947541785499
 20
-531.9128726946337
 30
0.0
 11
-886.7947541785499
 21
-533.4131549822314
 31
0.0
  0
LINE
  5
195
330
1F
100
AcDbEntity
  8
D-0
  6
Continuous
 62
     7
370
     9
100
AcDbLine
 10
-886.7947541785499
 20
-533.4131549822314
 30
0.0
 11
-888.2945357871314
 21
-533.4131549822314
 31
0.0
  0
LINE
  5
196
330
1F
100
AcDbEntity
  8
D-0
  6
Continuous
 62
     7
370
     9
100
AcDbLine
 10
-876.4468871665259
 20
-606.4729808794482
 30
0.0
 11
-876.4468871665259
 21
-604.9726985918505
 31
0.0
  0
LINE
  5
197
330
1F
100
AcDbEntity
  8
D-0
  6
Continuous
 62
     7
370
     9
100
AcDbLine
 10
-876.4468871665259
 20
-604.9726985918505
 30
0.0
 11
-874.9471055579444
 21
-604.9726985918505
 31
0.0
  0
LINE
  5
198
330
1F
100
AcDbEntity
  8
D-0
  6
Continuous
 62
     7
370
     9
100
AcDbLine
 10
-874.9471055579444
 20
-604.9726985918505
 30
0.0
 11
-874.9471055579444
 21
-606.4729808794482
 31
0.0
  0
LINE
  5
199
330
1F
100
AcDbEntity
  8
D-0
  6
Continuous
 62
     7
370
     9
100
AcDbLine
 10
-874.9471055579444
 20
-606.4729808794482
 30
0.0
 11
-876.4468871665259
 21
-606.4729808794482
 31
0.0
  0
LINE
  5
19A
330
1F
100
AcDbEntity
  8
D-0
  6
Continuous
 62
     7
370
     9
100
AcDbLine
 10
-924.824458272483
 20
-605.4855083452685
 30
0.0
 11
-924.824458272483
 21
-603.9852260576708
 31
0.0
  0
LINE
  5
19B
330
1F
100
AcDbEntity
  8
D-0
  6
Continuous
 62
     7
370
     9
100
AcDbLine
 10
-924.824458272483
 20
-603.9852260576708
 30
0.0
 11
-923.3241759848853
 21
-603.9852260576708
 31
0.0
  0
LINE
  5
19C
330
1F
100
AcDbEntity
  8
D-0
  6
Continuous
 62
     7
370
     9
100
AcDbLine
 10
-923.3241759848853
 20
-603.9852260576708
 30
0.0
 11
-923.3241759848853
 21
-605.4855083452685
 31
0.0
  0
LINE
  5
19D
330
1F
100
AcDbEntity
  8
D-0
  6
Continuous
 62
     7
370
     9
100
AcDbLine
 10
-923.3241759848853
 20
-605.4855083452685
 30
0.0
 11
-924.824458272483
 21
-605.4855083452685
 31
0.0
  0
LINE
  5
19E
330
1F
100
AcDbEntity
  8
D-0
  6
Continuous
 62
     7
370
     9
100
AcDbLine
 10
-911.8714152884742
 20
-724.5912670122607
 30
0.0
 11
-911.8714152884742
 21
-723.090984724663
 31
0.0
  0
LINE
  5
19F
330
1F
100
AcDbEntity
  8
D-0
  6
Continuous
 62
     7
370
     9
100
AcDbLine
 10
-911.8714152884742
 20
-723.090984724663
 30
0.0
 11
-910.3716384482642
 21
-723.090984724663
 31
0.0
  0
LINE
  5
1A0
330
1F
100
AcDbEntity
  8
D-0
  6
Continuous
 62
     7
370
     9
100
AcDbLine
 10
-910.3716384482642
 20
-723.090984724663
 30
0.0
 11
-910.3716384482642
 21
-724.5912670122607
 31
0.0
  0
LINE
  5
1A1
330
1F
100
AcDbEntity
  8
D-0
  6
Continuous
 62
     7
370
     9
100
AcDbLine
 10
-910.3716384482642
 20
-724.5912670122607
 30
0.0
 11
-911.8714152884742
 21
-724.5912670122607
 31
0.0
  0
LINE
  5
1A2
330
1F
100
AcDbEntity
  8
D-0
  6
Continuous
 62
     7
370
     9
100
AcDbLine
 10
-861.3454948973914
 20
-754.0989040361865
 30
0.0
 11
-861.3454948973914
 21
-752.5986217485888
 31
0.0
  0
LINE
  5
1A3
330
1F
100
AcDbEntity
  8
D-0
  6
Continuous
 62
     7
370
     9
100
AcDbLine
 10
-861.3454948973914
 20
-752.5986217485888
 30
0.0
 11
-859.8457109046241
 21
-752.5986217485888
 31
0.0
  0
LINE
  5
1A4
330
1F
100
AcDbEntity
  8
D-0
  6
Continuous
 62
     7
370
     9
100
AcDbLine
 10
-859.8457109046241
 20
-752.5986217485888
 30
0.0
 11
-859.8457109046241
 21
-754.0989040361865
 31
0.0
  0
LINE
  5
1A5
330
1F
100
AcDbEntity
  8
D-0
  6
Continuous
 62
     7
370
     9
100
AcDbLine
 10
-859.8457109046241
 20
-754.0989040361865
 30
0.0
 11
-861.3454948973914
 21
-754.0989040361865
 31
0.0
  0
LINE
  5
1A6
330
1F
100
AcDbEntity
  8
D-0
  6
Continuous
 62
     7
370
     9
100
AcDbLine
 10
-825.1078995180388
 20
-678.3694576250537
 30
0.0
 11
-825.1078995180388
 21
-676.8692134844287
 31
0.0
  0
LINE
  5
1A7
330
1F
100
AcDbEntity
  8
D-0
  6
Continuous
 62
     7
370
     9
100
AcDbLine
 10
-825.1078995180388
 20
-676.8692134844287
 30
0.0
 11
-823.6076199126502
 21
-676.8692134844287
 31
0.0
  0
LINE
  5
1A8
330
1F
100
AcDbEntity
  8
D-0
  6
Continuous
 62
     7
370
     9
100
AcDbLine
 10
-823.6076199126502
 20
-676.8692134844287
 30
0.0
 11
-823.6076199126502
 21
-678.3694576250537
 31
0.0
  0
LINE
  5
1A9
330
1F
100
AcDbEntity
  8
D-0
  6
Continuous
 62
     7
370
     9
100
AcDbLine
 10
-823.6076199126502
 20
-678.3694576250537
 30
0.0
 11
-825.1078995180388
 21
-678.3694576250537
 31
0.0
  0
LINE
  5
1AA
330
1F
100
AcDbEntity
  8
D-0
  6
Continuous
 62
     7
370
     9
100
AcDbLine
 10
-942.140599401023
 20
-560.3061985002978
 30
0.0
 11
-942.140599401023
 21
-558.8059162127001
 31
0.0
  0
LINE
  5
1AB
330
1F
100
AcDbEntity
  8
D-0
  6
Continuous
 62
     7
370
     9
100
AcDbLine
 10
-942.140599401023
 20
-558.8059162127001
 30
0.0
 11
-940.6403171134253
 21
-558.8059162127001
 31
0.0
  0
LINE
  5
1AC
330
1F
100
AcDbEntity
  8
D-0
  6
Continuous
 62
     7
370
     9
100
AcDbLine
 10
-940.6403171134253
 20
-558.8059162127001
 30
0.0
 11
-940.6403171134253
 21
-560.3061985002978
 31
0.0
  0
LINE
  5
1AD
330
1F
100
AcDbEntity
  8
D-0
  6
Continuous
 62
     7
370
     9
100
AcDbLine
 10
-940.6403171134253
 20
-560.3061985002978
 30
0.0
 11
-942.140599401023
 21
-560.3061985002978
 31
0.0
  0
LINE
  5
1AE
330
1F
100
AcDbEntity
  8
D-0
  6
Continuous
 62
     7
370
     9
100
AcDbLine
 10
-825.2188845587035
 20
-604.0402339922412
 30
0.0
 11
-825.2188845587035
 21
-602.5399517046435
 31
0.0
  0
LINE
  5
1AF
330
1F
100
AcDbEntity
  8
D-0
  6
Continuous
 62
     7
370
     9
100
AcDbLine
 10
-825.2188845587035
 20
-602.5399517046435
 30
0.0
 11
-823.7186049533149
 21
-602.5399517046435
 31
0.0
  0
LINE
  5
1B0
330
1F
100
AcDbEntity
  8
D-0
  6
Continuous
 62
     7
370
     9
100
AcDbLine
 10
-823.7186049533149
 20
-602.5399517046435
 30
0.0
 11
-823.7186049533149
 21
-604.0402339922412
 31
0.0
  0
LINE
  5
1B1
330
1F
100
AcDbEntity
  8
D-0
  6
Continuous
 62
     7
370
     9
100
AcDbLine
 10
-823.7186049533149
 20
-604.0402339922412
 30
0.0
 11
-825.2188845587035
 21
-604.0402339922412
 31
0.0
  0
LINE
  5
1B2
330
1F
100
AcDbEntity
  8
D-0
  6
Continuous
 62
     7
370
     9
100
AcDbLine
 10
-849.9492179465552
 20
-727.3862194048388
 30
0.0
 11
-849.9492179465552
 21
-725.8859371172412
 31
0.0
  0
LINE
  5
1B3
330
1F
100
AcDbEntity
  8
D-0
  6
Continuous
 62
     7
370
     9
100
AcDbLine
 10
-849.9492179465552
 20
-725.8859371172412
 30
0.0
 11
-848.4489380431434
 21
-725.8859371172412
 31
0.0
  0
LINE
  5
1B4
330
1F
100
AcDbEntity
  8
D-0
  6
Continuous
 62
     7
370
     9
100
AcDbLine
 10
-848.4489380431434
 20
-725.8859371172412
 30
0.0
 11
-848.4489380431434
 21
-727.3862194048388
 31
0.0
  0
LINE
  5
1B5
330
1F
100
AcDbEntity
  8
D-0
  6
Continuous
 62
     7
370
     9
100
AcDbLine
 10
-848.4489380431434
 20
-727.3862194048388
 30
0.0
 11
-849.9492179465552
 21
-727.3862194048388
 31
0.0
  0
LINE
  5
1B6
330
1F
100
AcDbEntity
  8
D-0
  6
Continuous
 62
     7
370
     9
100
AcDbLine
 10
-818.105439455535
 20
-414.9242710100634
 30
0.0
 11
-818.105439455535
 21
-413.4239887224658
 31
0.0
  0
LINE
  5
1B7
330
1F
100
AcDbEntity
  8
D-0
  6
Continuous
 62
     7
370
     9
100
AcDbLine
 10
-818.105439455535
 20
-413.4239887224658
 30
0.0
 11
-816.6051601481696
 21
-413.4239887224658
 31
0.0
  0
LINE
  5
1B8
330
1F
100
AcDbEntity
  8
D-0
  6
Continuous
 62
     7
370
     9
100
AcDbLine
 10
-816.6051601481696
 20
-413.4239887224658
 30
0.0
 11
-816.6051601481696
 21
-414.9242710100634
 31
0.0
  0
LINE
  5
1B9
330
1F
100
AcDbEntity
  8
D-0
  6
Continuous
 62
     7
370
     9
100
AcDbLine
 10
-816.6051601481696
 20
-414.9242710100634
 30
0.0
 11
-818.105439455535
 21
-414.9242710100634
 31
0.0
  0
LINE
  5
1BA
330
1F
100
AcDbEntity
  8
D-4
  6
Continuous
 62
     7
370
     9
100
AcDbLine
 10
-652.2680675101539
 20
-402.4349903093798
 30
0.0
 11
-652.2680675101539
 21
-464.918548964165
 31
0.0
  0
LINE
  5
1BB
330
1F
100
AcDbEntity
  8
D-4
  6
Continuous
 62
     7
370
     9
100
AcDbLine
 10
-640.4412280631324
 20
-390.6091426836474
 30
0.0
 11
-550.694180638816
 21
-390.6091426836474
 31
0.0
  0
LINE
  5
1BC
330
1F
100
AcDbEntity
  8
D-4
  6
Continuous
 62
     7
370
     9
100
AcDbLine
 10
-640.4412280631324
 20
-340.6089042650683
 30
0.0
 11
-550.694180638816
 21
-340.6089042650683
 31
0.0
  0
LINE
  5
1BD
330
1F
100
AcDbEntity
  8
D-4
  6
Continuous
 62
     7
370
     9
100
AcDbLine
 10
-553.694726140525
 20
-340.6089042650683
 30
0.0
 11
-553.694726140525
 21
-255.6087612139208
 31
0.0
  0
LINE
  5
1BE
330
1F
100
AcDbEntity
  8
D-4
  6
Continuous
 62
     7
370
     9
100
AcDbLine
 10
-553.694726140525
 20
-390.6091426836474
 30
0.0
 11
-553.694726140525
 21
-340.6089042650683
 31
0.0
  0
LINE
  5
1BF
330
1F
100
AcDbEntity
  8
D-4
  6
Continuous
 62
     7
370
     9
100
AcDbLine
 10
-797.268499047782
 20
-461.918003462456
 30
0.0
 11
-952.2674857688208
 21
-461.918003462456
 31
0.0
  0
LINE
  5
1C0
330
1F
100
AcDbEntity
  8
D-9
  6
Continuous
 62
     4
370
     9
100
AcDbLine
 10
-937.2681247306128
 20
-333.1094287859423
 30
0.0
 11
-822.2683679175635
 21
-333.1094287859423
 31
0.0
  0
LINE
  5
1C1
330
1F
100
AcDbEntity
  8
D-1
  6
Continuous
 62
     2
370
     9
100
AcDbLine
 10
-797.2685324263831
 20
-258.6087613331301
 30
0.0
 11
-797.2685324263831
 21
-283.1086443888171
 31
0.0
  0
LINE
  5
1C2
330
1F
100
AcDbEntity
  8
D-1
  6
Continuous
 62
     2
370
     9
100
AcDbLine
 10
-797.2685324263831
 20
-377.6083873735888
 30
0.0
 11
-797.2685324263831
 21
-353.1085037218554
 31
0.0
  0
LINE
  5
1C3
330
1F
100
AcDbEntity
  8
D-1
  6
Continuous
 62
     2
370
     9
100
AcDbLine
 10
-819.2682837558051
 20
-255.6091720027007
 30
0.0
 11
-800.2679978919288
 21
-255.6091720027007
 31
0.0
  0
LINE
  5
1C4
330
1F
100
AcDbEntity
  8
D-1
  6
Continuous
 62
     2
370
     9
100
AcDbLine
 10
-947.2681628775855
 20
-350.6086849199755
 30
0.0
 11
-947.2681628775855
 21
-343.1087802874072
 31
0.0
  0
LINE
  5
1C5
330
1F
100
AcDbEntity
  8
D-1
  6
Continuous
 62
     2
370
     9
100
AcDbLine
 10
-952.2685538840552
 20
-350.6086849199755
 30
0.0
 11
-952.2685538840552
 21
-343.1087802874072
 31
0.0
  0
LINE
  5
1C6
330
1F
100
AcDbEntity
  8
D-1
  6
Continuous
 62
     2
370
     9
100
AcDbLine
 10
-817.2685985875388
 20
-375.6087039934619
 30
0.0
 11
-802.2683011603614
 21
-375.6087039934619
 31
0.0
  0
LINE
  5
1C7
330
1F
100
AcDbEntity
  8
D-1
  6
Continuous
 62
     2
370
     9
100
AcDbLine
 10
-817.268351228263
 20
-380.6089614855273
 30
0.0
 11
-800.2679978919288
 21
-380.6089614855273
 31
0.0
  0
LINE
  5
1C8
330
1F
100
AcDbEntity
  8
D-1
  6
Continuous
 62
     2
370
     9
100
AcDbLine
 10
-822.2683679175635
 20
-345.6084178911669
 30
0.0
 11
-822.2683679175635
 21
-258.6087613331301
 31
0.0
  0
LINE
  5
1C9
330
1F
100
AcDbEntity
  8
D-1
  6
Continuous
 62
     2
370
     9
100
AcDbLine
 10
-822.2683679175635
 20
-345.6084178911669
 30
0.0
 11
-872.2680388999244
 21
-345.6084178911669
 31
0.0
  0
LINE
  5
1CA
330
1F
100
AcDbEntity
  8
D-1
  6
Continuous
 62
     2
370
     9
100
AcDbLine
 10
-947.2681628775855
 20
-355.608942412041
 30
0.0
 11
-822.2683679175635
 21
-355.608942412041
 31
0.0
  0
LINE
  5
1CB
330
1F
100
AcDbEntity
  8
D-1
  6
Continuous
 62
     2
370
     9
100
AcDbLine
 10
-822.2683679175635
 20
-375.6089519487841
 30
0.0
 11
-822.2683679175635
 21
-355.608942412041
 31
0.0
  0
LINE
  5
1CC
330
1F
100
AcDbEntity
  8
D-1
  6
Continuous
 62
     2
370
     9
100
AcDbLine
 10
-817.2685985875388
 20
-355.6086944567187
 30
0.0
 11
-817.2685985875388
 21
-375.6087039934619
 31
0.0
  0
LINE
  5
1CD
330
1F
100
AcDbEntity
  8
D-1
  6
Continuous
 62
     2
370
     9
100
AcDbLine
 10
-822.2686152768393
 20
-350.6086849199755
 30
0.0
 11
-947.2681628775855
 21
-350.6086849199755
 31
0.0
  0
LINE
  5
1CE
330
1F
100
AcDbEntity
  8
D-1
  6
Continuous
 62
     2
370
     9
100
AcDbLine
 10
-817.2685985875388
 20
-345.6086658464892
 30
0.0
 11
-817.2685985875388
 21
-260.6084462033732
 31
0.0
  0
LINE
  5
1CF
330
1F
100
AcDbEntity
  8
D-9
  6
Continuous
 62
     4
370
     9
100
AcDbLine
 10
-822.2683679175635
 20
-338.6998390184863
 30
0.0
 11
-829.1769496214648
 21
-345.6084178911669
 31
0.0
  0
LINE
  5
1D0
330
1F
100
AcDbEntity
  8
D-9
  6
Continuous
 62
     4
370
     9
100
AcDbLine
 10
-823.74830535176
 20
-333.1094287859423
 30
0.0
 11
-836.2474804234763
 21
-345.6084178911669
 31
0.0
  0
LINE
  5
1D1
330
1F
100
AcDbEntity
  8
D-9
  6
Continuous
 62
     4
370
     9
100
AcDbLine
 10
-830.8196406674643
 20
-333.1094287859423
 30
0.0
 11
-843.3188163352271
 21
-345.6084178911669
 31
0.0
  0
LINE
  5
1D2
330
1F
100
AcDbEntity
  8
D-9
  6
Continuous
 62
     4
370
     9
100
AcDbLine
 10
-837.8904806685706
 20
-333.1094287859423
 30
0.0
 11
-850.3896557402869
 21
-345.6084178911669
 31
0.0
  0
LINE
  5
1D3
330
1F
100
AcDbEntity
  8
D-9
  6
Continuous
 62
     4
370
     9
100
AcDbLine
 10
-844.961815984275
 20
-333.1094287859423
 30
0.0
 11
-857.4609910559913
 21
-345.6084178911669
 31
0.0
  0
LINE
  5
1D4
330
1F
100
AcDbEntity
  8
D-9
  6
Continuous
 62
     4
370
     9
100
AcDbLine
 10
-852.0326577735206
 20
-333.1094287859423
 30
0.0
 11
-864.5320164275428
 21
-345.6084178911669
 31
0.0
  0
LINE
  5
1D5
330
1F
100
AcDbEntity
  8
D-9
  6
Continuous
 62
     4
370
     9
100
AcDbLine
 10
-859.1039930892249
 20
-333.1094287859423
 30
0.0
 11
-871.6033517432471
 21
-345.6084178911669
 31
0.0
  0
LINE
  5
1D6
330
1F
100
AcDbEntity
  8
D-9
  6
Continuous
 62
     4
370
     9
100
AcDbLine
 10
-894.4596778464576
 20
-333.1094287859423
 30
0.0
 11
-899.4587670874854
 21
-338.1085132585986
 31
0.0
  0
LINE
  5
1D7
330
1F
100
AcDbEntity
  8
D-9
  6
Continuous
 62
     4
370
     9
100
AcDbLine
 10
-901.5305196357032
 20
-333.1094287859423
 30
0.0
 11
-906.5296708655616
 21
-338.1085132585986
 31
0.0
  0
LINE
  5
1D8
330
1F
100
AcDbEntity
  8
D-9
  6
Continuous
 62
     4
370
     9
100
AcDbLine
 10
-936.8862067771216
 20
-333.1094287859423
 30
0.0
 11
-941.8856631827613
 21
-338.1085132585986
 31
0.0
  0
LINE
  5
1D9
330
1F
100
AcDbEntity
  8
D-9
  6
Continuous
 62
     4
370
     9
100
AcDbLine
 10
-887.388344914939
 20
-333.1094287859423
 30
0.0
 11
-892.3876105857154
 21
-338.1085132585986
 31
0.0
  0
LINE
  5
1DA
330
1F
100
AcDbEntity
  8
D-9
  6
Continuous
 62
     4
370
     9
100
AcDbLine
 10
-873.2461654258033
 20
-333.1094287859423
 30
0.0
 11
-878.2453595710059
 21
-338.1085132585986
 31
0.0
  0
LINE
  5
1DB
330
1F
100
AcDbEntity
  8
D-9
  6
Continuous
 62
     4
370
     9
100
AcDbLine
 10
-880.3175031256934
 20
-333.1094287859423
 30
0.0
 11
-885.3166781974097
 21
-338.1085132585986
 31
0.0
  0
LINE
  5
1DC
330
1F
100
AcDbEntity
  8
D-9
  6
Continuous
 62
     4
370
     9
100
AcDbLine
 10
-908.6018573355933
 20
-333.1094287859423
 30
0.0
 11
-913.6009418082496
 21
-338.1085132585986
 31
0.0
  0
LINE
  5
1DD
330
1F
100
AcDbEntity
  8
D-9
  6
Continuous
 62
     4
370
     9
100
AcDbLine
 10
-915.6726943564673
 20
-333.1094287859423
 30
0.0
 11
-920.6718741965552
 21
-338.1085132585986
 31
0.0
  0
LINE
  5
1DE
330
1F
100
AcDbEntity
  8
D-9
  6
Continuous
 62
     4
370
     9
100
AcDbLine
 10
-922.7435313773414
 20
-333.1094287859423
 30
0.0
 11
-927.7427398276587
 21
-338.1085132585986
 31
0.0
  0
LINE
  5
1DF
330
1F
100
AcDbEntity
  8
D-9
  6
Continuous
 62
     4
370
     9
100
AcDbLine
 10
-929.8148738456031
 20
-333.1094287859423
 30
0.0
 11
-934.8141395163794
 21
-338.1085132585986
 31
0.0
  0
LINE
  5
1E0
330
1F
100
AcDbEntity
  8
D-1
  6
Continuous
 62
     2
370
     9
100
AcDbLine
 10
-877.2683679175635
 20
-343.1087802874072
 30
0.0
 11
-947.2681628775855
 21
-343.1087802874072
 31
0.0
  0
LINE
  5
1E1
330
1F
100
AcDbEntity
  8
D-1
  6
Continuous
 62
     2
370
     9
100
AcDbLine
 10
-877.2683679175635
 20
-345.6086849199755
 30
0.0
 11
-877.2683679175635
 21
-343.1087802874072
 31
0.0
  0
LINE
  5
1E2
330
1F
100
AcDbEntity
  8
D-1
  6
Continuous
 62
     2
370
     9
100
AcDbLine
 10
-877.2683679175635
 20
-338.1085132585986
 30
0.0
 11
-947.2681628775855
 21
-338.1085132585986
 31
0.0
  0
LINE
  5
1E3
330
1F
100
AcDbEntity
  8
D-1
  6
Continuous
 62
     2
370
     9
100
AcDbLine
 10
-872.2683679175635
 20
-343.1085132585986
 30
0.0
 11
-872.2683679175635
 21
-345.6084178911669
 31
0.0
  0
LINE
  5
1E4
330
1F
100
AcDbEntity
  8
D-9
  6
Continuous
 62
     4
370
     9
100
AcDbLine
 10
-866.1753284049292
 20
-333.1094287859423
 30
0.0
 11
-873.2284270835181
 21
-340.1625274645312
 31
0.0
  0
LINE
  5
1E5
330
1F
100
AcDbEntity
  8
D-3
  6
Continuous
 62
     3
370
     9
100
AcDbLine
 10
-813.7683152270575
 20
-260.6084462033732
 30
0.0
 11
-813.7683152270575
 21
-373.1084465013964
 31
0.0
  0
LINE
  5
1E6
330
1F
100
AcDbEntity
  8
D-3
  6
Continuous
 62
     3
370
     9
100
AcDbLine
 10
-652.2684299063941
 20
-350.6083702074511
 30
0.0
 11
-652.2684299063941
 21
-390.6083797441943
 31
0.0
  0
LINE
  5
1E7
330
1F
100
AcDbEntity
  8
D-3
  6
Continuous
 62
     3
370
     9
100
AcDbLine
 10
-777.2683440757056
 20
-372.4281143175585
 30
0.0
 11
-777.2683440757056
 21
-390.6083797441943
 31
0.0
  0
LINE
  5
1E8
330
1F
100
AcDbEntity
  8
D-3
  6
Continuous
 62
     3
370
     9
100
AcDbLine
 10
-780.1972877097388
 20
-365.3570198046191
 30
0.0
 11
-802.2683011603614
 21
-343.2860111223681
 31
0.0
  0
LINE
  5
1E9
330
1F
100
AcDbEntity
  8
D-3
  6
JWW_CENTER1
 62
     3
370
     9
100
AcDbLine
 10
-752.3298751426001
 20
-312.1083425508959
 30
0.0
 11
-821.0008572650214
 21
-312.1083425508959
 31
0.0
  0
LINE
  5
1EA
330
1F
100
AcDbEntity
  8
D-3
  6
Continuous
 62
     3
370
     9
100
AcDbLine
 10
-759.5907460761329
 20
-333.285977743767
 30
0.0
 11
-762.7681218695899
 21
-330.10860195031
 31
0.0
  0
LINE
  5
1EB
330
1F
100
AcDbEntity
  8
D-3
  6
Continuous
 62
     3
370
     9
100
AcDbLine
 10
-790.7687841964026
 20
-302.1078180300219
 30
0.0
 11
-802.2683011603614
 21
-290.6082986818774
 31
0.0
  0
LINE
  5
1EC
330
1F
100
AcDbEntity
  8
D-A
  6
Continuous
 62
     7
370
     9
100
AcDbLine
 10
-816.0190283370276
 20
-322.1078800188525
 30
0.0
 11
-816.0190283370276
 21
-302.1078180300219
 31
0.0
  0
LINE
  5
1ED
330
1F
100
AcDbEntity
  8
D-A
  6
Continuous
 62
     7
370
     9
100
AcDbLine
 10
-816.0190283370276
 20
-302.1078180300219
 30
0.0
 11
-817.2685985875388
 21
-303.3578800188525
 31
0.0
  0
LINE
  5
1EE
330
1F
100
AcDbEntity
  8
D-A
  6
Continuous
 62
     7
370
     9
100
AcDbLine
 10
-816.0190283370276
 20
-322.1078800188525
 30
0.0
 11
-817.2685985875388
 21
-320.8583091722949
 31
0.0
  0
LINE
  5
1EF
330
1F
100
AcDbEntity
  8
D-A
  6
Continuous
 62
     7
370
     9
100
AcDbLine
 10
-754.2685662818213
 20
-323.6086057650073
 30
0.0
 11
-754.2685662818213
 21
-300.6080841051562
 31
0.0
  0
LINE
  5
1F0
330
1F
100
AcDbEntity
  8
D-A
  6
Continuous
 62
     7
370
     9
100
AcDbLine
 10
-760.7685624671241
 20
-330.10860195031
 30
0.0
 11
-767.2685586524268
 21
-330.10860195031
 31
0.0
  0
LINE
  5
1F1
330
1F
100
AcDbEntity
  8
D-A
  6
Continuous
 62
     7
370
     9
100
AcDbLine
 10
-760.7685624671241
 20
-294.1080855356677
 30
0.0
 11
-767.2685586524268
 21
-294.1080855356677
 31
0.0
  0
LINE
  5
1F2
330
1F
100
AcDbEntity
  8
D-A
  6
Continuous
 62
     7
370
     9
100
AcDbLine
 10
-767.2685586524268
 20
-294.1080855356677
 30
0.0
 11
-767.2685586524268
 21
-330.10860195031
 31
0.0
  0
LINE
  5
1F3
330
1F
100
AcDbEntity
  8
D-A
  6
Continuous
 62
     7
370
     9
100
AcDbLine
 10
-767.2685586524268
 20
-302.1078180300219
 30
0.0
 11
-802.2683011603614
 21
-302.1078180300219
 31
0.0
  0
LINE
  5
1F4
330
1F
100
AcDbEntity
  8
D-A
  6
Continuous
 62
     7
370
     9
100
AcDbLine
 10
-767.2685586524268
 20
-303.3578800188525
 30
0.0
 11
-802.2683011603614
 21
-303.3578800188525
 31
0.0
  0
LINE
  5
1F5
330
1F
100
AcDbEntity
  8
D-A
  6
Continuous
 62
     7
370
     9
100
AcDbLine
 10
-767.2685586524268
 20
-320.8583091722949
 30
0.0
 11
-802.2683011603614
 21
-320.8583091722949
 31
0.0
  0
LINE
  5
1F6
330
1F
100
AcDbEntity
  8
D-A
  6
Continuous
 62
     7
370
     9
100
AcDbLine
 10
-767.2685586524268
 20
-322.1078800188525
 30
0.0
 11
-802.2683011603614
 21
-322.1078800188525
 31
0.0
  0
LINE
  5
1F7
330
1F
100
AcDbEntity
  8
D-A
  6
Continuous
 62
     7
370
     9
100
AcDbLine
 10
-813.7683152270575
 20
-320.8583091722949
 30
0.0
 11
-817.2685985875388
 21
-320.8583091722949
 31
0.0
  0
LINE
  5
1F8
330
1F
100
AcDbEntity
  8
D-A
  6
Continuous
 62
     7
370
     9
100
AcDbLine
 10
-813.7683152270575
 20
-322.1078800188525
 30
0.0
 11
-816.0190283370276
 21
-322.1078800188525
 31
0.0
  0
LINE
  5
1F9
330
1F
100
AcDbEntity
  8
D-A
  6
Continuous
 62
     7
370
     9
100
AcDbLine
 10
-813.7683152270575
 20
-303.3578800188525
 30
0.0
 11
-817.2685985875388
 21
-303.3578800188525
 31
0.0
  0
LINE
  5
1FA
330
1F
100
AcDbEntity
  8
D-A
  6
Continuous
 62
     7
370
     9
100
AcDbLine
 10
-813.7683152270575
 20
-302.1078180300219
 30
0.0
 11
-816.0190283370276
 21
-302.1078180300219
 31
0.0
  0
LINE
  5
1FB
330
1F
100
AcDbEntity
  8
D-3
  6
JWW_DASHED2
 62
     3
370
     9
100
AcDbLine
 10
-777.2683440757056
 20
-379.1083644854052
 30
0.0
 11
-652.2684299063941
 21
-379.1083644854052
 31
0.0
  0
LINE
  5
1FC
330
1F
100
AcDbEntity
  8
D-3
  6
Continuous
 62
     3
370
     9
100
AcDbLine
 10
-662.2683345389624
 20
-340.6084655748828
 30
0.0
 11
-741.913024098899
 21
-340.6084655748828
 31
0.0
  0
LINE
  5
1FD
330
1F
100
AcDbEntity
  8
D-3
  6
Continuous
 62
     3
370
     9
100
AcDbLine
 10
-777.2683440757056
 20
-390.6083797441943
 30
0.0
 11
-652.2684299063941
 21
-390.6083797441943
 31
0.0
  0
LINE
  5
1FE
330
1F
100
AcDbEntity
  8
D-1
  6
Continuous
 62
     2
370
     9
100
AcDbLine
 10
-817.2685985875388
 20
-260.6084462033732
 30
0.0
 11
-802.2683011603614
 21
-260.6084462033732
 31
0.0
  0
LINE
  5
1FF
330
1F
100
AcDbEntity
  8
D-1
  6
Continuous
 62
     2
370
     9
100
AcDbLine
 10
-797.2685324263831
 20
-283.1086443888171
 30
0.0
 11
-802.2683011603614
 21
-283.1086443888171
 31
0.0
  0
LINE
  5
200
330
1F
100
AcDbEntity
  8
D-1
  6
Continuous
 62
     2
370
     9
100
AcDbLine
 10
-802.2683011603614
 20
-283.1086443888171
 30
0.0
 11
-802.2683011603614
 21
-260.6084462033732
 31
0.0
  0
LINE
  5
201
330
1F
100
AcDbEntity
  8
D-3
  6
Continuous
 62
     3
370
     9
100
AcDbLine
 10
-813.7683152270575
 20
-260.6084462033732
 30
0.0
 11
-802.2683011603614
 21
-260.6084462033732
 31
0.0
  0
LINE
  5
202
330
1F
100
AcDbEntity
  8
D-1
  6
Continuous
 62
     2
370
     9
100
AcDbLine
 10
-797.2685324263831
 20
-353.1085037218554
 30
0.0
 11
-802.2683011603614
 21
-353.1085037218554
 31
0.0
  0
LINE
  5
203
330
1F
100
AcDbEntity
  8
D-1
  6
Continuous
 62
     2
370
     9
100
AcDbLine
 10
-802.2683011603614
 20
-375.6087039934619
 30
0.0
 11
-802.2683011603614
 21
-353.1085037218554
 31
0.0
  0
LINE
  5
204
330
1F
100
AcDbEntity
  8
D-3
  6
Continuous
 62
     3
370
     9
100
AcDbLine
 10
-813.7683152270575
 20
-373.1084465013964
 30
0.0
 11
-802.2683011603614
 21
-373.1084465013964
 31
0.0
  0
LINE
  5
205
330
1F
100
AcDbEntity
  8
D-3
  6
Continuous
 62
     3
370
     9
100
AcDbLine
 10
-802.2683011603614
 20
-260.6084462033732
 30
0.0
 11
-802.2683011603614
 21
-373.1084465013964
 31
0.0
  0
LINE
  5
206
330
1F
100
AcDbEntity
  8
D-6
  6
Continuous
 62
     6
370
     9
100
AcDbLine
 10
-800.2679978919288
 20
-255.6087612139208
 30
0.0
 11
-387.2666179251929
 21
-255.6087612139208
 31
0.0
  0
LINE
  5
207
330
1F
100
AcDbEntity
  8
D-6
  6
Continuous
 62
     6
370
     9
100
AcDbLine
 10
-952.2674857688208
 20
-350.6086849199755
 30
0.0
 11
-952.2674857688208
 21
-755.6081127153857
 31
0.0
  0
LINE
  5
208
330
1F
100
AcDbEntity
  8
D-4
  6
Continuous
 62
     7
370
     9
100
AcDbLine
 10
-869.1223632407447
 20
-380.6085990892871
 30
0.0
 11
-1100.750561864402
 21
-380.6085990892871
 31
0.0
  0
ARC
  5
209
330
1F
100
AcDbEntity
  8
D-9
  6
Continuous
 62
     4
370
     9
100
AcDbCircle
 10
-937.2681247306128
 20
-338.1087039934619
 30
0.0
 40
5.0
100
AcDbArc
 50
90.0
 51
180.0
  0
ARC
  5
20A
330
1F
100
AcDbEntity
  8
D-1
  6
Continuous
 62
     2
370
     9
100
AcDbCircle
 10
-947.2681628775855
 20
-343.1087802874072
 30
0.0
 40
5.0
100
AcDbArc
 50
90.0
 51
180.0
  0
ARC
  5
20B
330
1F
100
AcDbEntity
  8
D-1
  6
Continuous
 62
     2
370
     9
100
AcDbCircle
 10
-800.2679978919288
 20
-258.6087613331301
 30
0.0
 40
3.00000011920929
100
AcDbArc
 50
0.0
 51
90.0
  0
ARC
  5
20C
330
1F
100
AcDbEntity
  8
D-1
  6
Continuous
 62
     2
370
     9
100
AcDbCircle
 10
-819.2682837558051
 20
-258.6087613331301
 30
0.0
 40
3.00000011920929
100
AcDbArc
 50
90.0
 51
180.0
  0
ARC
  5
20D
330
1F
100
AcDbEntity
  8
D-1
  6
Continuous
 62
     2
370
     9
100
AcDbCircle
 10
-800.2679978919288
 20
-377.6083873735888
 30
0.0
 40
3.00000011920929
100
AcDbArc
 50
270.0
 51
0.0
  0
ARC
  5
20E
330
1F
100
AcDbEntity
  8
D-1
  6
Continuous
 62
     2
370
     9
100
AcDbCircle
 10
-947.2681628775855
 20
-350.6086849199755
 30
0.0
 40
5.0
100
AcDbArc
 50
180.0
 51
270.0
  0
ARC
  5
20F
330
1F
100
AcDbEntity
  8
D-1
  6
Continuous
 62
     2
370
     9
100
AcDbCircle
 10
-817.268351228263
 20
-375.6089519487841
 30
0.0
 40
5.0
100
AcDbArc
 50
180.0
 51
270.0
  0
ARC
  5
210
330
1F
100
AcDbEntity
  8
D-1
  6
Continuous
 62
     2
370
     9
100
AcDbCircle
 10
-822.2686152768393
 20
-355.6086944567187
 30
0.0
 40
5.0
100
AcDbArc
 50
0.0
 51
90.0
  0
ARC
  5
211
330
1F
100
AcDbEntity
  8
D-1
  6
Continuous
 62
     2
370
     9
100
AcDbCircle
 10
-822.2686152768393
 20
-345.6086658464892
 30
0.0
 40
5.0
100
AcDbArc
 50
270.0
 51
0.0
  0
ARC
  5
212
330
1F
100
AcDbEntity
  8
D-1
  6
Continuous
 62
     2
370
     9
100
AcDbCircle
 10
-872.2683679175635
 20
-345.6086849199755
 30
0.0
 40
5.0
100
AcDbArc
 50
180.0
 51
270.0
  0
ARC
  5
213
330
1F
100
AcDbEntity
  8
D-1
  6
Continuous
 62
     2
370
     9
100
AcDbCircle
 10
-877.2683679175635
 20
-343.1085132585986
 30
0.0
 40
5.0
100
AcDbArc
 50
0.0
 51
90.0
  0
ARC
  5
214
330
1F
100
AcDbEntity
  8
D-3
  6
Continuous
 62
     3
370
     9
100
AcDbCircle
 10
-741.913024098899
 20
-315.6083797441943
 30
0.0
 40
25.0
100
AcDbArc
 50
225.0
 51
270.0
  0
ARC
  5
215
330
1F
100
AcDbEntity
  8
D-3
  6
Continuous
 62
     3
370
     9
100
AcDbCircle
 10
-662.2683345389624
 20
-350.6083702074511
 30
0.0
 40
10.0
100
AcDbArc
 50
0.0
 51
90.0
  0
ARC
  5
216
330
1F
100
AcDbEntity
  8
D-3
  6
Continuous
 62
     3
370
     9
100
AcDbCircle
 10
-787.2683750701209
 20
-372.4281143175585
 30
0.0
 40
10.0
100
AcDbArc
 50
0.0
 51
45.000244140625
  0
ARC
  5
217
330
1F
100
AcDbEntity
  8
D-A
  6
Continuous
 62
     7
370
     9
100
AcDbCircle
 10
-760.7685624671241
 20
-300.6080841051562
 30
0.0
 40
6.499999761581421
100
AcDbArc
 50
0.0
 51
90.0
  0
ARC
  5
218
330
1F
100
AcDbEntity
  8
D-A
  6
Continuous
 62
     7
370
     9
100
AcDbCircle
 10
-760.7685624671241
 20
-323.6086057650073
 30
0.0
 40
6.499999761581421
100
AcDbArc
 50
270.0
 51
0.0
  0
LWPOLYLINE
  5
219
330
1F
100
AcDbEntity
  8
D-4
  6
Continuous
 62
     7
370
     9
100
AcDbPolyline
 90
        4
 70
     1
 43
1.0
 10
-796.7684990477821
 20
84.75847969184088
 42
0.4142135623731
 10
-797.268499047782
 20
85.25847969184088
 42
0.4142135623731
 10
-797.768499047782
 20
84.75847969184088
 42
0.4142135623731
 10
-797.268499047782
 20
84.25847969184088
 42
0.4142135623731
  0
LWPOLYLINE
  5
21A
330
1F
100
AcDbEntity
  8
D-4
  6
Continuous
 62
     7
370
     9
100
AcDbPolyline
 90
        4
 70
     1
 43
1.0
 10
-951.767485768821
 20
-134.6896099077685
 42
0.4142135623731
 10
-952.2674857688208
 20
-134.1896099077685
 42
0.4142135623731
 10
-952.7674857688208
 20
-134.6896099077685
 42
0.4142135623731
 10
-952.2674857688208
 20
-135.1896099077685
 42
0.4142135623731
  0
LWPOLYLINE
  5
21B
330
1F
100
AcDbEntity
  8
D-4
  6
Continuous
 62
     7
370
     9
100
AcDbPolyline
 90
        4
 70
     1
 43
1.0
 10
-826.7676478934548
 20
-134.6896099077685
 42
0.4142135623731
 10
-827.2676478934546
 20
-134.1896099077685
 42
0.4142135623731
 10
-827.7676478934546
 20
-134.6896099077685
 42
0.4142135623731
 10
-827.2676478934546
 20
-135.1896099077685
 42
0.4142135623731
  0
LWPOLYLINE
  5
21C
330
1F
100
AcDbEntity
  8
D-4
  6
Continuous
 62
     7
370
     9
100
AcDbPolyline
 90
        4
 70
     1
 43
1.0
 10
-826.7676478934548
 20
-25.93718757500483
 42
0.4142135623731
 10
-827.2676478934546
 20
-25.43718757500483
 42
0.4142135623731
 10
-827.7676478934546
 20
-25.93718757500483
 42
0.4142135623731
 10
-827.2676478934546
 20
-26.43718757500483
 42
0.4142135623731
  0
LWPOLYLINE
  5
21D
330
1F
100
AcDbEntity
  8
D-4
  6
Continuous
 62
     7
370
     9
100
AcDbPolyline
 90
        4
 70
     1
 43
1.0
 10
-821.7673772883675
 20
-25.93718757500483
 42
0.4142135623731
 10
-822.2673772883674
 20
-25.43718757500483
 42
0.4142135623731
 10
-822.7673772883674
 20
-25.93718757500483
 42
0.4142135623731
 10
-822.2673772883674
 20
-26.43718757500483
 42
0.4142135623731
  0
LWPOLYLINE
  5
21E
330
1F
100
AcDbEntity
  8
D-4
  6
Continuous
 62
     7
370
     9
100
AcDbPolyline
 90
        4
 70
     1
 43
1.0
 10
-796.7684990477821
 20
-25.93718757500483
 42
0.4142135623731
 10
-797.268499047782
 20
-25.43718757500483
 42
0.4142135623731
 10
-797.768499047782
 20
-25.93718757500483
 42
0.4142135623731
 10
-797.268499047782
 20
-26.43718757500483
 42
0.4142135623731
  0
LWPOLYLINE
  5
21F
330
1F
100
AcDbEntity
  8
D-4
  6
Continuous
 62
     7
370
     9
100
AcDbPolyline
 90
        4
 70
     1
 43
1.0
 10
-1097.249997289207
 20
-380.6085990892871
 42
0.4142135623731
 10
-1097.749997289207
 20
-380.1085990892871
 42
0.4142135623731
 10
-1098.249997289206
 20
-380.6085990892871
 42
0.4142135623731
 10
-1097.749997289207
 20
-381.1085990892871
 42
0.4142135623731
  0
LWPOLYLINE
  5
220
330
1F
100
AcDbEntity
  8
D-4
  6
Continuous
 62
     7
370
     9
100
AcDbPolyline
 90
        4
 70
     1
 43
1.0
 10
-1097.249997289207
 20
-255.6087612139208
 42
0.4142135623731
 10
-1097.749997289207
 20
-255.1087612139208
 42
0.4142135623731
 10
-1098.249997289206
 20
-255.6087612139208
 42
0.4142135623731
 10
-1097.749997289207
 20
-256.1087612139208
 42
0.4142135623731
  0
LWPOLYLINE
  5
221
330
1F
100
AcDbEntity
  8
D-4
  6
Continuous
 62
     7
370
     9
100
AcDbPolyline
 90
        4
 70
     1
 43
1.0
 10
-796.7684990477821
 20
-461.918003462456
 42
0.4142135623731
 10
-797.268499047782
 20
-461.418003462456
 42
0.4142135623731
 10
-797.768499047782
 20
-461.918003462456
 42
0.4142135623731
 10
-797.268499047782
 20
-462.418003462456
 42
0.4142135623731
  0
LWPOLYLINE
  5
222
330
1F
100
AcDbEntity
  8
D-4
  6
Continuous
 62
     7
370
     9
100
AcDbPolyline
 90
        4
 70
     1
 43
1.0
 10
-651.768067510154
 20
-461.918003462456
 42
0.4142135623731
 10
-652.2680675101539
 20
-461.418003462456
 42
0.4142135623731
 10
-652.7680675101539
 20
-461.918003462456
 42
0.4142135623731
 10
-652.2680675101539
 20
-462.418003462456
 42
0.4142135623731
  0
LWPOLYLINE
  5
223
330
1F
100
AcDbEntity
  8
D-4
  6
Continuous
 62
     7
370
     9
100
AcDbPolyline
 90
        4
 70
     1
 43
1.0
 10
-951.767485768821
 20
-661.2272380815966
 42
0.4142135623731
 10
-952.2674857688208
 20
-660.7272380815966
 42
0.4142135623731
 10
-952.7674857688208
 20
-661.2272380815966
 42
0.4142135623731
 10
-952.2674857688208
 20
-661.7272380815966
 42
0.4142135623731
  0
LWPOLYLINE
  5
224
330
1F
100
AcDbEntity
  8
D-4
  6
Continuous
 62
     7
370
     9
100
AcDbPolyline
 90
        4
 70
     1
 43
1.0
 10
-801.7682749343178
 20
-661.2272380815966
 42
0.4142135623731
 10
-802.2682749343177
 20
-660.7272380815966
 42
0.4142135623731
 10
-802.7682749343177
 20
-661.2272380815966
 42
0.4142135623731
 10
-802.2682749343177
 20
-661.7272380815966
 42
0.4142135623731
  0
LWPOLYLINE
  5
225
330
1F
100
AcDbEntity
  8
D-4
  6
Continuous
 62
     7
370
     9
100
AcDbPolyline
 90
        4
 70
     1
 43
1.0
 10
-280.0822764945289
 20
-255.6087612139208
 42
0.4142135623731
 10
-280.5822764945289
 20
-255.1087612139208
 42
0.4142135623731
 10
-281.0822764945289
 20
-255.6087612139208
 42
0.4142135623731
 10
-280.5822764945289
 20
-256.1087612139208
 42
0.4142135623731
  0
LWPOLYLINE
  5
226
330
1F
100
AcDbEntity
  8
D-4
  6
Continuous
 62
     7
370
     9
100
AcDbPolyline
 90
        4
 70
     1
 43
1.0
 10
-280.0822764945289
 20
-505.6084369646533
 42
0.4142135623731
 10
-280.5822764945289
 20
-505.1084369646533
 42
0.4142135623731
 10
-281.0822764945289
 20
-505.6084369646533
 42
0.4142135623731
 10
-280.5822764945289
 20
-506.1084369646533
 42
0.4142135623731
  0
LWPOLYLINE
  5
227
330
1F
100
AcDbEntity
  8
D-4
  6
Continuous
 62
     7
370
     9
100
AcDbPolyline
 90
        4
 70
     1
 43
1.0
 10
-553.1947261405251
 20
-255.6087612139208
 42
0.4142135623731
 10
-553.694726140525
 20
-255.1087612139208
 42
0.4142135623731
 10
-554.194726140525
 20
-255.6087612139208
 42
0.4142135623731
 10
-553.694726140525
 20
-256.1087612139208
 42
0.4142135623731
  0
LWPOLYLINE
  5
228
330
1F
100
AcDbEntity
  8
D-4
  6
Continuous
 62
     7
370
     9
100
AcDbPolyline
 90
        4
 70
     1
 43
1.0
 10
-553.1947261405251
 20
-340.6089042650683
 42
0.4142135623731
 10
-553.694726140525
 20
-340.1089042650683
 42
0.4142135623731
 10
-554.194726140525
 20
-340.6089042650683
 42
0.4142135623731
 10
-553.694726140525
 20
-341.1089042650683
 42
0.4142135623731
  0
LWPOLYLINE
  5
229
330
1F
100
AcDbEntity
  8
D-4
  6
Continuous
 62
     7
370
     9
100
AcDbPolyline
 90
        4
 70
     1
 43
1.0
 10
-553.1947261405251
 20
-390.6091426836474
 42
0.4142135623731
 10
-553.694726140525
 20
-390.1091426836474
 42
0.4142135623731
 10
-554.194726140525
 20
-390.6091426836474
 42
0.4142135623731
 10
-553.694726140525
 20
-391.1091426836474
 42
0.4142135623731
  0
LWPOLYLINE
  5
22A
330
1F
100
AcDbEntity
  8
D-4
  6
Continuous
 62
     7
370
     9
100
AcDbPolyline
 90
        4
 70
     1
 43
1.0
 10
-796.7684990477821
 20
-461.918003462456
 42
0.4142135623731
 10
-797.268499047782
 20
-461.418003462456
 42
0.4142135623731
 10
-797.768499047782
 20
-461.918003462456
 42
0.4142135623731
 10
-797.268499047782
 20
-462.418003462456
 42
0.4142135623731
  0
LWPOLYLINE
  5
22B
330
1F
100
AcDbEntity
  8
D-4
  6
Continuous
 62
     7
370
     9
100
AcDbPolyline
 90
        4
 70
     1
 43
1.0
 10
-951.767485768821
 20
-461.918003462456
 42
0.4142135623731
 10
-952.2674857688208
 20
-461.418003462456
 42
0.4142135623731
 10
-952.7674857688208
 20
-461.918003462456
 42
0.4142135623731
 10
-952.2674857688208
 20
-462.418003462456
 42
0.4142135623731
  0
TEXT
  5
22C
330
1F
100
AcDbEntity
  8
D-4
  6
Continuous
 62
     2
370
     9
100
AcDbText
 10
-911.0167323661109
 20
-124.0493333422167
 30
0.0
 40
30.48
  1
25
 41
1.0625
  7
ＭＳ ゴシック
100
AcDbText
  0
TEXT
  5
22D
330
1F
100
AcDbEntity
  8
D-4
  6
Continuous
 62
     2
370
     9
100
AcDbText
 10
-943.5175048423072
 20
-650.5879628740771
 30
0.0
 40
30.48
  1
25～30
 41
1.104166666666667
  7
ＭＳ ゴシック
100
AcDbText
  0
TEXT
  5
22E
330
1F
100
AcDbEntity
  8
D-4
  6
Continuous
 62
     2
370
     9
100
AcDbText
 10
-291.2215517020484
 20
-446.8587233134804
 30
0.0
 40
30.48
  1
40～50
 50
90.00000250447816
 41
1.104166666666666
  7
ＭＳ ゴシック
100
AcDbText
  0
TEXT
  5
22F
330
1F
100
AcDbEntity
  8
D-4
  6
Continuous
 62
     2
370
     9
100
AcDbText
 10
-761.6844941755172
 20
-451.2787091818341
 30
0.0
 40
30.48
  1
29
 50
0.0006685549992706
 41
1.062500000000002
  7
ＭＳ ゴシック
100
AcDbText
  0
TEXT
  5
230
330
1F
100
AcDbEntity
  8
D-4
  6
Continuous
 62
     2
370
     9
100
AcDbText
 10
-788.3550178122779
 20
-15.2979123674853
 30
0.0
 40
30.48
  1
5
 41
0.9999999999999998
  7
ＭＳ ゴシック
100
AcDbText
  0
TEXT
  5
231
330
1F
100
AcDbEntity
  8
D-4
  6
Continuous
 62
     2
370
     9
100
AcDbText
 10
-564.3350122428199
 20
-386.8584372111855
 30
0.0
 40
30.48
  1
10
 50
90.00000250447819
 41
1.062500000000001
  7
ＭＳ ゴシック
100
AcDbText
  0
TEXT
  5
232
330
1F
100
AcDbEntity
  8
D-4
  6
Continuous
 62
     2
370
     9
100
AcDbText
 10
-564.3350122428199
 20
-319.3587471553383
 30
0.0
 40
30.48
  1
17
 50
90.00000250447819
 41
1.0625
  7
ＭＳ ゴシック
100
AcDbText
  0
TEXT
  5
233
330
1F
100
AcDbEntity
  8
D-4
  6
Continuous
 62
     2
370
     9
100
AcDbText
 10
-896.0179912162085
 20
-450.2779996477587
 30
0.0
 40
30.48
  1
31
 41
1.0625
  7
ＭＳ ゴシック
100
AcDbText
  0
TEXT
  5
234
330
1F
100
AcDbEntity
  8
D-4
  6
Continuous
 62
     2
370
     9
100
AcDbText
 10
-1514.935265691306
 20
-124.0496099077685
 30
0.0
 40
30.48
  1
□300
 41
1.1
  7
ＭＳ ゴシック
100
AcDbText
  0
TEXT
  5
235
330
1F
100
AcDbEntity
  8
D-4
  6
Continuous
 62
     2
370
     9
100
AcDbText
 10
-1514.935265691306
 20
-15.24960990776849
 30
0.0
 40
30.48
  1
□350
 41
1.1
  7
ＭＳ ゴシック
100
AcDbText
  0
TEXT
  5
236
330
1F
100
AcDbEntity
  8
D-4
  6
Continuous
 62
     2
370
     9
100
AcDbText
 10
-1514.935265691306
 20
95.4503900922315
 30
0.0
 40
30.48
  1
□362
 41
1.1
  7
ＭＳ ゴシック
100
AcDbText
  0
TEXT
  5
237
330
1F
100
AcDbEntity
  8
D-4
  6
Continuous
 62
     2
370
     9
100
AcDbText
 10
-1108.390264318015
 20
-434.1321984343509
 30
0.0
 40
30.48
  1
25
 50
90.0000025
 41
1.062499999999999
  7
ＭＳ ゴシック
100
AcDbText
  0
LINE
  5
238
330
1F
100
AcDbEntity
  8
D-4
  6
Continuous
 62
     7
370
     9
100
AcDbLine
 10
-1097.749997289207
 20
-444.7609051870731
 30
0.0
 11
-1097.749997289207
 21
-255.6087612139208
 31
0.0
  0
LINE
  5
239
330
1F
100
AcDbEntity
  8
D-4
  6
Continuous
 62
     7
370
     9
100
AcDbLine
 10
-1619.423905539132
 20
-333.1088595615847
 30
0.0
 11
-1619.423905539132
 21
-258.1087612139208
 31
0.0
  0
LINE
  5
23A
330
1F
100
AcDbEntity
  8
D-4
  6
Continuous
 62
     7
370
     9
100
AcDbLine
 10
-1522.156182439353
 20
-333.1088595615847
 30
0.0
 11
-1622.424012350656
 21
-333.1088595615847
 31
0.0
  0
LINE
  5
23B
330
1F
100
AcDbEntity
  8
D-4
  6
Continuous
 62
     7
370
     9
100
AcDbLine
 10
-1522.156182439353
 20
-258.1087612139208
 30
0.0
 11
-1622.424012350656
 21
-258.1087612139208
 31
0.0
  0
LWPOLYLINE
  5
23C
330
1F
100
AcDbEntity
  8
D-4
  6
Continuous
 62
     7
370
     9
100
AcDbPolyline
 90
        4
 70
     1
 43
1.0
 10
-1618.923905539132
 20
-333.1088595615847
 42
0.4142135623731
 10
-1619.423905539132
 20
-332.6088595615847
 42
0.4142135623731
 10
-1619.923905539132
 20
-333.1088595615847
 42
0.4142135623731
 10
-1619.423905539132
 20
-333.6088595615847
 42
0.4142135623731
  0
LWPOLYLINE
  5
23D
330
1F
100
AcDbEntity
  8
D-4
  6
Continuous
 62
     7
370
     9
100
AcDbPolyline
 90
        4
 70
     1
 43
1.0
 10
-1618.923905539132
 20
-258.1087612139208
 42
0.4142135623731
 10
-1619.423905539132
 20
-257.6087612139208
 42
0.4142135623731
 10
-1619.923905539132
 20
-258.1087612139208
 42
0.4142135623731
 10
-1619.423905539132
 20
-258.6087612139208
 42
0.4142135623731
  0
TEXT
  5
23E
330
1F
100
AcDbEntity
  8
D-4
  6
Continuous
 62
     2
370
     9
100
AcDbText
 10
-1635.063981833078
 20
-316.8589694806633
 30
0.0
 40
30.48
  1
15
 50
90.00000250447827
 41
1.062500000000001
  7
ＭＳ ゴシック
100
AcDbText
  0
LINE
  5
23F
330
1F
100
AcDbEntity
  8
D-2
  6
Continuous
 62
     3
370
     9
100
AcDbLine
 10
-1522.267500391827
 20
-308.8247820565655
 30
0.0
 11
-1502.267571599509
 21
-308.8247820565655
 31
0.0
  0
LINE
  5
240
330
1F
100
AcDbEntity
  8
D-2
  6
Continuous
 62
     3
370
     9
100
AcDbLine
 10
-1502.267571599509
 20
-278.824141187425
 30
0.0
 11
-1482.267317286358
 21
-278.824141187425
 31
0.0
  0
TEXT
  5
241
330
1F
100
AcDbEntity
  8
D-4
  6
Continuous
 62
     2
370
     9
100
AcDbText
 10
-835.6759959677738
 20
-15.2979123674853
 30
0.0
 40
30.48
  1
1
 41
0.9999999999999998
  7
ＭＳ ゴシック
100
AcDbText
  0
TEXT
  5
242
330
1F
100
AcDbEntity
  8
D-5
  6
Continuous
 62
     2
370
     9
100
AcDbText
 10
400.9685575880816
 20
-845.5674303572549
 30
0.0
 40
30.48
  1
　　　サイドバー　ＳＵＳ３０４
 41
1.116666666666666
  7
ＭＳ ゴシック
100
AcDbText
  0
LINE
  5
243
330
1F
100
AcDbEntity
  8
D-5
  6
Continuous
 62
     2
370
     9
100
AcDbLine
 10
464.166647187691
 20
-533.2874083464518
 30
0.0
 11
239.1673338331988
 21
-533.2874083464518
 31
0.0
  0
LINE
  5
244
330
1F
100
AcDbEntity
  8
D-5
  6
Continuous
 62
     2
370
     9
100
AcDbLine
 10
464.166647187691
 20
-483.2871746962443
 30
0.0
 11
464.166647187691
 21
-533.2874083464518
 31
0.0
  0
LINE
  5
245
330
1F
100
AcDbEntity
  8
D-5
  6
Continuous
 62
     2
370
     9
100
AcDbLine
 10
239.1673338331988
 20
-483.2871746962443
 30
0.0
 11
464.166647187691
 21
-483.2871746962443
 31
0.0
  0
LINE
  5
246
330
1F
100
AcDbEntity
  8
D-5
  6
Continuous
 62
     2
370
     9
100
AcDbLine
 10
239.1673338331988
 20
-533.2874083464518
 30
0.0
 11
239.1673338331988
 21
-483.2871746962443
 31
0.0
  0
TEXT
  5
247
330
1F
100
AcDbEntity
  8
D-5
  6
Continuous
 62
     2
370
     9
100
AcDbText
 10
400.9685575880816
 20
-780.5678690474405
 30
0.0
 40
30.48
  1
　　　クロスバー　ＳＵＳ３０４　＠８０
 41
1.118421052631579
  7
ＭＳ ゴシック
100
AcDbText
  0
TEXT
  5
248
330
1F
100
AcDbEntity
  8
D-5
  6
Continuous
 62
     2
370
     9
100
AcDbText
 10
400.9685575880816
 20
-715.5678118269815
 30
0.0
 40
30.48
  1
材質：メインバー　ＳＵＳ３０４　＠１４
 41
1.118421052631579
  7
ＭＳ ゴシック
100
AcDbText
  0
TEXT
  5
249
330
1F
100
AcDbEntity
  8
D-5
  6
Continuous
 62
     2
370
     9
100
AcDbText
 10
286.6668760695269
 20
-522.6471365492716
 30
0.0
 40
30.48
  1
仕　様
 41
1.083333333333333
  7
ＭＳ ゴシック
100
AcDbText
  0
TEXT
  5
24A
330
1F
100
AcDbEntity
  8
D-5
  6
Continuous
 62
     2
370
     9
100
AcDbText
 10
400.9685575880816
 20
-976.1603984280156
 30
0.0
 40
30.48
  1
材質：冷間圧延ステンレス鋼板（ＳＵＳ３０４－２Ｂ）
 41
1.12
  7
ＭＳ ゴシック
100
AcDbText
  0
TEXT
  5
24B
330
1F
100
AcDbEntity
  8
D-5
  6
Continuous
 62
     2
370
     9
100
AcDbText
 10
341.2566435255818
 20
-911.1608561916875
 30
0.0
 40
30.48
  1
ステンレス製受枠　ＳＦ１５Ｂ（四方枠）
 41
1.118421052631579
  7
ＭＳ ゴシック
100
AcDbText
  0
TEXT
  5
24C
330
1F
100
AcDbEntity
  8
D-5
  6
Continuous
 62
     2
370
     9
100
AcDbText
 10
341.2566435255816
 20
-585.5677069228068
 30
0.0
 40
30.48
  1
ステンレス製　縦目タイプ　細目プレーンタイプ
 41
1.119318181818182
  7
ＭＳ ゴシック
100
AcDbText
  0
LINE
  5
24D
330
1F
100
AcDbEntity
  8
D-0
  6
Continuous
 62
     3
370
     9
100
AcDbLine
 10
113.7126222649037
 20
557.647689527115
 30
0.0
 11
946.2124216736878
 21
557.647689527115
 31
0.0
  0
LINE
  5
24E
330
1F
100
AcDbEntity
  8
D-4
  6
Continuous
 62
     7
370
     9
100
AcDbLine
 10
29.79439028661588
 20
451.2295688967473
 30
0.0
 11
98.71257277693971
 21
520.1477513870707
 31
0.0
  0
LINE
  5
24F
330
1F
100
AcDbEntity
  8
D-4
  6
Continuous
 62
     7
370
     9
100
AcDbLine
 10
98.71257277693971
 20
520.1477513870707
 30
0.0
 11
83.49353705172163
 21
500.3139178797898
 31
0.0
  0
LINE
  5
250
330
1F
100
AcDbEntity
  8
D-4
  6
Continuous
 62
     7
370
     9
100
AcDbLine
 10
98.71257277693971
 20
520.1477513870707
 30
0.0
 11
78.87873926965867
 21
504.9287156618526
 31
0.0
  0
LINE
  5
251
330
1F
100
AcDbEntity
  8
D-4
  6
Continuous
 62
     7
370
     9
100
AcDbLine
 10
-141.9217592391733
 20
451.2295688967473
 30
0.0
 11
29.79439028661588
 21
451.2295688967473
 31
0.0
  0
TEXT
  5
252
330
1F
100
AcDbEntity
  8
D-5
  6
Continuous
 62
     7
370
     9
100
AcDbText
 10
-141.9217592391733
 20
460.4595688967473
 30
0.0
 40
22.86
  1
サイドバー
 41
1.133333333333333
  7
ＭＳ ゴシック
100
AcDbText
  0
LINE
  5
253
330
1F
100
AcDbEntity
  8
D-0
  6
Continuous
 62
     3
370
     9
100
AcDbLine
 10
113.7126222649037
 20
482.6478132470262
 30
0.0
 11
98.71257277693971
 21
482.6478132470262
 31
0.0
  0
LINE
  5
254
330
1F
100
AcDbEntity
  8
D-0
  6
Continuous
 62
     3
370
     9
100
AcDbLine
 10
113.7126222649037
 20
557.647689527115
 30
0.0
 11
98.71257277693971
 21
557.647689527115
 31
0.0
  0
LINE
  5
255
330
1F
100
AcDbEntity
  8
D-0
  6
Continuous
 62
     3
370
     9
100
AcDbLine
 10
98.71257277693971
 20
557.647689527115
 30
0.0
 11
98.71257277693971
 21
482.6478132470262
 31
0.0
  0
LINE
  5
256
330
1F
100
AcDbEntity
  8
D-0
  6
Continuous
 62
     3
370
     9
100
AcDbLine
 10
113.7126222649037
 20
557.647689527115
 30
0.0
 11
113.7126222649037
 21
482.6478132470262
 31
0.0
  0
LINE
  5
257
330
1F
100
AcDbEntity
  8
D-0
  6
Continuous
 62
     3
370
     9
100
AcDbLine
 10
113.7126222649037
 20
482.6478132470262
 30
0.0
 11
946.2124216736878
 21
482.6478132470262
 31
0.0
  0
LINE
  5
258
330
1F
100
AcDbEntity
  8
D-0
  6
Continuous
 62
     3
370
     9
100
AcDbLine
 10
113.7126222649037
 20
550.6476169447673
 30
0.0
 11
946.2124216736878
 21
550.6476169447673
 31
0.0
  0
LINE
  5
259
330
1F
100
AcDbEntity
  8
D-5
  6
Continuous
 62
     7
370
     9
100
AcDbLine
 10
424.0024363681492
 20
286.8332786092332
 30
0.0
 11
620.9225580824783
 21
286.8332786092332
 31
0.0
  0
TEXT
  5
25A
330
1F
100
AcDbEntity
  8
D-5
  6
Continuous
 62
     2
370
     9
100
AcDbText
 10
426.2395508010399
 20
307.4732786092331
 30
0.0
 40
30.48
  1
B-B断面図
 41
1.097222222222222
  7
ＭＳ ゴシック
100
AcDbText
  0
TEXT
  5
25B
330
1F
100
AcDbEntity
  8
D-5
  6
Continuous
 62
     2
370
     9
100
AcDbText
 10
577.1583424025907
 20
184.0760427884914
 30
0.0
 40
30.48
  1
メインバー詳細図　Ｓ＝１：２
 41
1.116071428571427
  7
ＭＳ ゴシック
100
AcDbText
  0
LINE
  5
25C
330
1F
100
AcDbEntity
  8
D-5
  6
Continuous
 62
     7
370
     9
100
AcDbLine
 10
577.6092016178869
 20
163.4360427884914
 30
0.0
 11
1198.965753572294
 21
163.4360427884914
 31
0.0
  0
LWPOLYLINE
  5
25D
330
1F
100
AcDbEntity
  8
D-4
  6
Continuous
 62
     7
370
     9
100
AcDbPolyline
 90
        4
 70
     1
 43
1.0
 10
-17.27383376289848
 20
1028.027622690927
 42
0.4142135623731
 10
-17.77383376289848
 20
1028.527622690927
 42
0.4142135623731
 10
-18.27383376289848
 20
1028.027622690927
 42
0.4142135623731
 10
-17.77383376289848
 20
1027.527622690928
 42
0.4142135623731
  0
LWPOLYLINE
  5
25E
330
1F
100
AcDbEntity
  8
D-4
  6
Continuous
 62
     7
370
     9
100
AcDbPolyline
 90
        4
 70
     1
 43
1.0
 10
-17.27383376289848
 20
958.0278859401216
 42
0.4142135623731
 10
-17.77383376289848
 20
958.5278859401216
 42
0.4142135623731
 10
-18.27383376289848
 20
958.0278859401216
 42
0.4142135623731
 10
-17.77383376289848
 20
957.5278859401216
 42
0.4142135623731
  0
LWPOLYLINE
  5
25F
330
1F
100
AcDbEntity
  8
D-4
  6
Continuous
 62
     7
370
     9
100
AcDbPolyline
 90
        4
 70
     1
 43
1.0
 10
-17.27383376289848
 20
888.0279469752776
 42
0.4142135623731
 10
-17.77383376289848
 20
888.5279469752776
 42
0.4142135623731
 10
-18.27383376289848
 20
888.0279469752776
 42
0.4142135623731
 10
-17.77383376289848
 20
887.5279469752776
 42
0.4142135623731
  0
LINE
  5
260
330
1F
100
AcDbEntity
  8
D-4
  6
Continuous
 62
     7
370
     9
100
AcDbLine
 10
-17.77383376289848
 20
958.0278859401216
 30
0.0
 11
-17.77383376289848
 21
1028.027622690927
 31
0.0
  0
TEXT
  5
261
330
1F
100
AcDbEntity
  8
D-4
  6
Continuous
 62
     2
370
   211
100
AcDbText
 10
-33.41383376289848
 20
971.7777543155245
 30
0.0
 40
30.48
  1
14
 50
90.0
 41
1.0625
  7
ＭＳ ゴシック
100
AcDbText
  0
LINE
  5
262
330
1F
100
AcDbEntity
  8
D-4
  6
Continuous
 62
     7
370
     9
100
AcDbLine
 10
-17.77383376289848
 20
888.0279469752776
 30
0.0
 11
-17.77383376289848
 21
958.0278859401216
 31
0.0
  0
TEXT
  5
263
330
1F
100
AcDbEntity
  8
D-4
  6
Continuous
 62
     2
370
   211
100
AcDbText
 10
-33.41383376289848
 20
901.7779164576996
 30
0.0
 40
30.48
  1
14
 50
90.0
 41
1.0625
  7
ＭＳ ゴシック
100
AcDbText
  0
LINE
  5
264
330
1F
100
AcDbEntity
  8
D-4
  6
Continuous
 62
     7
370
     9
100
AcDbLine
 10
-20.77383376289802
 20
1028.027622690927
 30
0.0
 11
83.71257277693971
 21
1028.027622690927
 31
0.0
  0
LINE
  5
265
330
1F
100
AcDbEntity
  8
D-4
  6
Continuous
 62
     7
370
     9
100
AcDbLine
 10
-20.77383376289802
 20
958.0278859401216
 30
0.0
 11
83.71257277693971
 21
958.0278859401216
 31
0.0
  0
LINE
  5
266
330
1F
100
AcDbEntity
  8
D-A
  6
Continuous
 62
     3
370
     9
100
AcDbLine
 10
113.7125727769397
 20
831.3052002832217
 30
0.0
 11
113.7125727769397
 21
1085.202008640564
 31
0.0
  0
LINE
  5
267
330
1F
100
AcDbEntity
  8
D-A
  6
Continuous
 62
     3
370
     9
100
AcDbLine
 10
98.71257277693971
 20
831.3052002832217
 30
0.0
 11
98.71257277693971
 21
1085.202008640564
 31
0.0
  0
LINE
  5
268
330
1F
100
AcDbEntity
  8
D-A
  6
Continuous
 62
     3
370
     9
100
AcDbLine
 10
918.7124216736884
 20
908.0279164576996
 30
0.0
 11
113.7125727769397
 21
908.0279164576996
 31
0.0
  0
LINE
  5
269
330
1F
100
AcDbEntity
  8
D-A
  6
Continuous
 62
     3
370
     9
100
AcDbLine
 10
918.7124216736884
 20
868.0279774928556
 30
0.0
 11
113.7125727769397
 21
868.0279774928556
 31
0.0
  0
LINE
  5
26A
330
1F
100
AcDbEntity
  8
D-A
  6
Continuous
 62
     3
370
     9
100
AcDbLine
 10
918.7124216736884
 20
1048.027592173349
 30
0.0
 11
113.7125727769397
 21
1048.027592173349
 31
0.0
  0
LINE
  5
26B
330
1F
100
AcDbEntity
  8
D-A
  6
Continuous
 62
     3
370
     9
100
AcDbLine
 10
918.7124216736884
 20
938.0279164576996
 30
0.0
 11
113.7125727769397
 21
938.0279164576996
 31
0.0
  0
LINE
  5
26C
330
1F
100
AcDbEntity
  8
D-A
  6
Continuous
 62
     3
370
     9
100
AcDbLine
 10
918.7124216736884
 20
1008.027653208505
 30
0.0
 11
113.7125727769397
 21
1008.027653208505
 31
0.0
  0
LINE
  5
26D
330
1F
100
AcDbEntity
  8
D-A
  6
Continuous
 62
     3
370
     9
100
AcDbLine
 10
918.7124216736884
 20
978.0278554225433
 30
0.0
 11
113.7125727769397
 21
978.0278554225433
 31
0.0
  0
SOLID
  5
26E
330
1F
100
AcDbEntity
  8
D-5
  6
Continuous
 62
     4
370
     9
100
AcDbTrace
 10
-184.2959983775707
 20
921.0279164576997
 30
0.0
 11
-224.2959983775707
 21
921.0279164576997
 31
0.0
 12
-184.2959983775707
 22
925.0279164576995
 32
0.0
 13
-224.2959983775707
 23
925.0279164576995
 33
0.0
  0
LINE
  5
26F
330
1F
100
AcDbEntity
  8
D-5
  6
Continuous
 62
     4
370
     9
100
AcDbLine
 10
-205.2769952510444
 20
913.3618266599876
 30
0.0
 11
-205.2769952510444
 21
864.112433977046
 31
0.0
  0
LINE
  5
270
330
1F
100
AcDbEntity
  8
D-5
  6
Continuous
 62
     4
370
     9
100
AcDbLine
 10
-205.2769952510444
 20
913.3618266599876
 30
0.0
 11
-202.013840445543
 21
888.5757051256426
 31
0.0
  0
LINE
  5
271
330
1F
100
AcDbEntity
  8
D-5
  6
Continuous
 62
     4
370
     9
100
AcDbLine
 10
-205.2769952510444
 20
913.3618266599876
 30
0.0
 11
-208.5401500565457
 21
888.5757051256426
 31
0.0
  0
TEXT
  5
272
330
1F
100
AcDbEntity
  8
D-5
  6
Continuous
 62
     2
370
     9
100
AcDbText
 10
-215.2769952510444
 20
823.7863341396335
 30
0.0
 40
30.48
  1
B
 41
0.9999999999999998
  7
ＭＳ ゴシック
100
AcDbText
  0
LINE
  5
273
330
1F
100
AcDbEntity
  8
D-5
  6
JWW_CENTER1
 62
     4
370
     9
100
AcDbLine
 10
-184.2959983775707
 20
923.0279164576996
 30
0.0
 11
-84.29599837757067
 21
923.0279164576996
 31
0.0
  0
LINE
  5
274
330
1F
100
AcDbEntity
  8
D-4
  6
Continuous
 62
     7
370
     9
100
AcDbLine
 10
-20.77383376289802
 20
888.0279469752776
 30
0.0
 11
83.71257277693971
 21
888.0279469752776
 31
0.0
  0
LINE
  5
275
330
1F
100
AcDbEntity
  8
D-0
  6
Continuous
 62
     3
370
     9
100
AcDbLine
 10
961.2132761658755
 20
527.648330190056
 30
0.0
 11
946.2124216736878
 21
527.648330190056
 31
0.0
  0
LINE
  5
276
330
1F
100
AcDbEntity
  8
D-0
  6
Continuous
 62
     3
370
     9
100
AcDbLine
 10
961.2132761658755
 20
527.648330190056
 30
0.0
 11
931.2122996033746
 21
507.6472468160322
 31
0.0
  0
LINE
  5
277
330
1F
100
AcDbEntity
  8
D-0
  6
Continuous
 62
     3
370
     9
100
AcDbLine
 10
946.2124216736878
 20
507.6472468160322
 30
0.0
 11
931.2122996033746
 21
507.6472468160322
 31
0.0
  0
LINE
  5
278
330
1F
100
AcDbEntity
  8
D-0
  6
Continuous
 62
     3
370
     9
100
AcDbLine
 10
946.2124216736878
 20
527.648330190056
 30
0.0
 11
946.2124216736878
 21
589.7394025418977
 31
0.0
  0
LINE
  5
279
330
1F
100
AcDbEntity
  8
D-0
  6
Continuous
 62
     3
370
     9
100
AcDbLine
 10
946.2124216736878
 20
450.5557290725097
 30
0.0
 11
946.2124216736878
 21
507.6472468160322
 31
0.0
  0
LINE
  5
27A
330
1F
100
AcDbEntity
  8
D-4
  6
Continuous
 62
     7
370
     9
100
AcDbLine
 10
-952.2674857688208
 20
-844.8705379987786
 30
0.0
 11
-552.2666179251929
 21
-844.8705379987786
 31
0.0
  0
LINE
  5
27B
330
1F
100
AcDbEntity
  8
D-4
  6
Continuous
 62
     7
370
     9
100
AcDbLine
 10
-552.2666179251929
 20
-575.4824184404833
 30
0.0
 11
-552.2666179251929
 21
-847.8701107526848
 31
0.0
  0
LINE
  5
27C
330
1F
100
AcDbEntity
  8
D-4
  6
Continuous
 62
     7
370
     9
100
AcDbLine
 10
-952.2674857688208
 20
-780.6084560381396
 30
0.0
 11
-952.2674857688208
 21
-847.8701107526848
 31
0.0
  0
LWPOLYLINE
  5
27D
330
1F
100
AcDbEntity
  8
D-4
  6
Continuous
 62
     7
370
     9
100
AcDbPolyline
 90
        4
 70
     1
 43
1.0
 10
-951.767485768821
 20
-844.8705379987786
 42
0.4142135623731
 10
-952.2674857688208
 20
-844.3705379987786
 42
0.4142135623731
 10
-952.7674857688208
 20
-844.8705379987786
 42
0.4142135623731
 10
-952.2674857688208
 20
-845.3705379987786
 42
0.4142135623731
  0
LWPOLYLINE
  5
27E
330
1F
100
AcDbEntity
  8
D-4
  6
Continuous
 62
     7
370
     9
100
AcDbPolyline
 90
        4
 70
     1
 43
1.0
 10
-551.766617925193
 20
-844.8705379987786
 42
0.4142135623731
 10
-552.2666179251929
 20
-844.3705379987786
 42
0.4142135623731
 10
-552.7666179251929
 20
-844.8705379987786
 42
0.4142135623731
 10
-552.2666179251929
 20
-845.3705379987786
 42
0.4142135623731
  0
TEXT
  5
27F
330
1F
100
AcDbEntity
  8
D-4
  6
Continuous
 62
     2
370
     9
100
AcDbText
 10
-820.1358493787643
 20
-834.2302709700094
 30
0.0
 40
30.48
  1
75～80
 50
359.9997855578312
 41
1.104166666666666
  7
ＭＳ ゴシック
100
AcDbText
  0
TEXT
  5
280
330
1F
100
AcDbEntity
  8
D-5
  6
Continuous
 62
     2
370
     9
100
AcDbText
 10
-1251.761516494728
 20
-962.5901418806151
 30
0.0
 40
30.48
  1
A断面詳細図　Ｓ＝１：２
 50
0.00002676319048
 41
1.114130434782609
  7
ＭＳ ゴシック
100
AcDbText
  0
LINE
  5
281
330
1F
100
AcDbEntity
  8
D-2
  6
Continuous
 62
     3
370
     9
100
AcDbLine
 10
-827.2676478934546
 20
-283.6081094290754
 30
0.0
 11
-834.7680437971713
 21
-273.8595990168077
 31
0.0
  0
LINE
  5
282
330
1F
100
AcDbEntity
  8
D-2
  6
Continuous
 62
     3
370
     9
100
AcDbLine
 10
-827.2676478934546
 20
-313.6082084050046
 30
0.0
 11
-834.7680437971713
 21
-323.3567188172724
 31
0.0
  0
ARC
  5
283
330
1F
100
AcDbEntity
  8
D-2
  6
Continuous
 62
     3
370
     9
100
AcDbCircle
 10
-844.7566945573057
 20
-287.417692938366
 30
0.0
 40
15.00000019331236
100
AcDbArc
 50
311.7518768310547
 51
357.7665100097656
  0
ARC
  5
284
330
1F
100
AcDbEntity
  8
D-2
  6
Continuous
 62
     3
370
     9
100
AcDbCircle
 10
-854.7527685121203
 20
-288.88006229014
 30
0.0
 40
25.00000322187269
100
AcDbArc
 50
2.014007568359375
 51
36.92071533203126
  0
ARC
  5
285
330
1F
100
AcDbEntity
  8
D-2
  6
Continuous
 62
     3
370
     9
100
AcDbCircle
 10
-844.7566945573057
 20
-309.7986248957139
 30
0.0
 40
15.00000019331236
100
AcDbArc
 50
2.233489990234375
 51
48.24812316894532
  0
ARC
  5
286
330
1F
100
AcDbEntity
  8
D-2
  6
Continuous
 62
     3
370
     9
100
AcDbCircle
 10
-854.7527685121203
 20
-308.3362555439405
 30
0.0
 40
25.00000322187269
100
AcDbArc
 50
323.0792846679688
 51
357.9859924316406
  0
LINE
  5
287
330
1F
100
AcDbEntity
  8
D-2
  6
Continuous
 62
     3
370
     9
100
AcDbLine
 10
-827.2676478934546
 20
-283.6081094290754
 30
0.0
 11
-827.2676478934546
 21
-313.6082084050046
 31
0.0
  0
LINE
  5
288
330
1F
100
AcDbEntity
  8
D-2
  6
Continuous
 62
     3
370
     9
100
AcDbLine
 10
-834.7680437971713
 20
-273.8595990168078
 30
0.0
 11
-843.7677632880469
 21
-273.8595990168078
 31
0.0
  0
LINE
  5
289
330
1F
100
AcDbEntity
  8
D-2
  6
Continuous
 62
     3
370
     9
100
AcDbLine
 10
-834.7680271296896
 20
-298.6081589170407
 30
0.0
 11
-843.7677632880469
 21
-298.6081589170407
 31
0.0
  0
LINE
  5
28A
330
1F
100
AcDbEntity
  8
D-2
  6
Continuous
 62
     3
370
     9
100
AcDbLine
 10
-834.7660778402793
 20
-323.3567188172724
 30
0.0
 11
-843.7677632880469
 21
-323.3567188172724
 31
0.0
  0
LINE
  5
28B
330
1F
100
AcDbEntity
  8
D-2
  6
Continuous
 62
     3
370
     9
100
AcDbLine
 10
-843.7677632880469
 20
-269.1087444054108
 30
0.0
 11
-843.7677632880469
 21
-333.1088595615847
 31
0.0
  0
LINE
  5
28C
330
1F
100
AcDbEntity
  8
D-2
  6
Continuous
 62
     3
370
     9
100
AcDbLine
 10
-850.7677327704688
 20
-333.1088595615847
 30
0.0
 11
-850.7677327704688
 21
-269.1087444054108
 31
0.0
  0
LINE
  5
28D
330
1F
100
AcDbEntity
  8
D-2
  6
Continuous
 62
     3
370
     9
100
AcDbLine
 10
-850.7677327704688
 20
-323.3574251162036
 30
0.0
 11
-913.7685786795874
 21
-323.3574251162036
 31
0.0
  0
LINE
  5
28E
330
1F
100
AcDbEntity
  8
D-2
  6
Continuous
 62
     3
370
     9
100
AcDbLine
 10
-850.7677327704688
 20
-273.8595990168078
 30
0.0
 11
-913.7685786795874
 21
-273.8595990168078
 31
0.0
  0
LINE
  5
28F
330
1F
100
AcDbEntity
  8
D-2
  6
Continuous
 62
     3
370
     9
100
AcDbLine
 10
-850.7677327704688
 20
-298.6087612139208
 30
0.0
 11
-913.7685786795874
 21
-298.6087612139208
 31
0.0
  0
LINE
  5
290
330
1F
100
AcDbEntity
  8
D-2
  6
Continuous
 62
     3
370
     9
100
AcDbLine
 10
-913.7685786795874
 20
-269.1087444054108
 30
0.0
 11
-913.7685786795874
 21
-333.1088595615847
 31
0.0
  0
LINE
  5
291
330
1F
100
AcDbEntity
  8
D-2
  6
Continuous
 62
     3
370
     9
100
AcDbLine
 10
-920.7685481620093
 20
-333.1088595615847
 30
0.0
 11
-920.7685481620093
 21
-269.1087444054108
 31
0.0
  0
LINE
  5
292
330
1F
100
AcDbEntity
  8
D-2
  6
Continuous
 62
     3
370
     9
100
AcDbLine
 10
-920.7685481620093
 20
-323.3574251162036
 30
0.0
 11
-983.7684070182105
 21
-323.3574251162036
 31
0.0
  0
LINE
  5
293
330
1F
100
AcDbEntity
  8
D-2
  6
Continuous
 62
     3
370
     9
100
AcDbLine
 10
-920.7685481620093
 20
-273.8595990168078
 30
0.0
 11
-983.7684070182105
 21
-273.8595990168078
 31
0.0
  0
LINE
  5
294
330
1F
100
AcDbEntity
  8
D-2
  6
Continuous
 62
     3
370
     9
100
AcDbLine
 10
-920.7685481620093
 20
-298.6087612139208
 30
0.0
 11
-983.7684070182105
 21
-298.6087612139208
 31
0.0
  0
LINE
  5
295
330
1F
100
AcDbEntity
  8
D-2
  6
Continuous
 62
     3
370
     9
100
AcDbLine
 10
-983.7684070182105
 20
-269.1087444054108
 30
0.0
 11
-983.7684070182105
 21
-333.1088595615847
 31
0.0
  0
LINE
  5
296
330
1F
100
AcDbEntity
  8
D-2
  6
Continuous
 62
     3
370
     9
100
AcDbLine
 10
-990.7683765006324
 20
-333.1088595615847
 30
0.0
 11
-990.7683765006324
 21
-269.1087444054108
 31
0.0
  0
LINE
  5
297
330
1F
100
AcDbEntity
  8
D-2
  6
Continuous
 62
     3
370
     9
100
AcDbLine
 10
-990.7683765006324
 20
-323.3574251162036
 30
0.0
 11
-1053.768235356834
 21
-323.3574251162036
 31
0.0
  0
LINE
  5
298
330
1F
100
AcDbEntity
  8
D-2
  6
Continuous
 62
     3
370
     9
100
AcDbLine
 10
-990.7683765006324
 20
-273.8595990168078
 30
0.0
 11
-1053.768235356834
 21
-273.8595990168078
 31
0.0
  0
LINE
  5
299
330
1F
100
AcDbEntity
  8
D-2
  6
Continuous
 62
     3
370
     9
100
AcDbLine
 10
-990.7683765006324
 20
-298.6087612139208
 30
0.0
 11
-1053.768235356834
 21
-298.6087612139208
 31
0.0
  0
LINE
  5
29A
330
1F
100
AcDbEntity
  8
D-2
  6
Continuous
 62
     3
370
     9
100
AcDbLine
 10
-1053.768235356834
 20
-269.1087444054108
 30
0.0
 11
-1053.768235356834
 21
-333.1088595615847
 31
0.0
  0
LINE
  5
29B
330
1F
100
AcDbEntity
  8
D-2
  6
Continuous
 62
     3
370
     9
100
AcDbLine
 10
-1060.768204839256
 20
-333.1088595615847
 30
0.0
 11
-1060.768204839256
 21
-269.1087444054108
 31
0.0
  0
LINE
  5
29C
330
1F
100
AcDbEntity
  8
D-2
  6
Continuous
 62
     3
370
     9
100
AcDbLine
 10
-1060.768204839256
 20
-323.3574251162036
 30
0.0
 11
-1123.768559606101
 21
-323.3574251162036
 31
0.0
  0
LINE
  5
29D
330
1F
100
AcDbEntity
  8
D-2
  6
Continuous
 62
     3
370
     9
100
AcDbLine
 10
-1060.768204839256
 20
-273.8595990168078
 30
0.0
 11
-1123.768559606101
 21
-273.8595990168078
 31
0.0
  0
LINE
  5
29E
330
1F
100
AcDbEntity
  8
D-2
  6
Continuous
 62
     3
370
     9
100
AcDbLine
 10
-1060.768204839256
 20
-298.6087612139208
 30
0.0
 11
-1123.768559606101
 21
-298.6087612139208
 31
0.0
  0
LINE
  5
29F
330
1F
100
AcDbEntity
  8
D-2
  6
Continuous
 62
     3
370
     9
100
AcDbLine
 10
-1123.768559606101
 20
-269.1087444054108
 30
0.0
 11
-1123.768559606101
 21
-333.1088595615847
 31
0.0
  0
LINE
  5
2A0
330
1F
100
AcDbEntity
  8
D-2
  6
Continuous
 62
     3
370
     9
100
AcDbLine
 10
-1130.768529088523
 20
-333.1088595615847
 30
0.0
 11
-1130.768529088523
 21
-269.1087444054108
 31
0.0
  0
LINE
  5
2A1
330
1F
100
AcDbEntity
  8
D-2
  6
Continuous
 62
     3
370
     9
100
AcDbLine
 10
-1130.768529088523
 20
-323.3574251162036
 30
0.0
 11
-1193.768387944724
 21
-323.3574251162036
 31
0.0
  0
LINE
  5
2A2
330
1F
100
AcDbEntity
  8
D-2
  6
Continuous
 62
     3
370
     9
100
AcDbLine
 10
-1130.768529088523
 20
-273.8595990168078
 30
0.0
 11
-1193.768387944724
 21
-273.8595990168078
 31
0.0
  0
LINE
  5
2A3
330
1F
100
AcDbEntity
  8
D-2
  6
Continuous
 62
     3
370
     9
100
AcDbLine
 10
-1130.768529088523
 20
-298.6087612139208
 30
0.0
 11
-1193.768387944724
 21
-298.6087612139208
 31
0.0
  0
LINE
  5
2A4
330
1F
100
AcDbEntity
  8
D-2
  6
Continuous
 62
     3
370
     9
100
AcDbLine
 10
-1193.768387944724
 20
-269.1087444054108
 30
0.0
 11
-1193.768387944724
 21
-333.1088595615847
 31
0.0
  0
LINE
  5
2A5
330
1F
100
AcDbEntity
  8
D-2
  6
Continuous
 62
     3
370
     9
100
AcDbLine
 10
-1200.768357427146
 20
-333.1088595615847
 30
0.0
 11
-1200.768357427146
 21
-269.1087444054108
 31
0.0
  0
LINE
  5
2A6
330
1F
100
AcDbEntity
  8
D-2
  6
Continuous
 62
     3
370
     9
100
AcDbLine
 10
-1200.768357427146
 20
-323.3574251162036
 30
0.0
 11
-1263.768235356834
 21
-323.3574251162036
 31
0.0
  0
LINE
  5
2A7
330
1F
100
AcDbEntity
  8
D-2
  6
Continuous
 62
     3
370
     9
100
AcDbLine
 10
-1200.768357427146
 20
-273.8595990168078
 30
0.0
 11
-1263.768235356834
 21
-273.8595990168078
 31
0.0
  0
LINE
  5
2A8
330
1F
100
AcDbEntity
  8
D-2
  6
Continuous
 62
     3
370
     9
100
AcDbLine
 10
-1200.768357427146
 20
-298.6087612139208
 30
0.0
 11
-1263.768235356834
 21
-298.6087612139208
 31
0.0
  0
LINE
  5
2A9
330
1F
100
AcDbEntity
  8
D-2
  6
Continuous
 62
     3
370
     9
100
AcDbLine
 10
-1263.768235356834
 20
-269.1087444054108
 30
0.0
 11
-1263.768235356834
 21
-333.1088595615847
 31
0.0
  0
LINE
  5
2AA
330
1F
100
AcDbEntity
  8
D-2
  6
Continuous
 62
     3
370
     9
100
AcDbLine
 10
-1270.768204839256
 20
-333.1088595615847
 30
0.0
 11
-1270.768204839256
 21
-269.1087444054108
 31
0.0
  0
LINE
  5
2AB
330
1F
100
AcDbEntity
  8
D-2
  6
Continuous
 62
     3
370
     9
100
AcDbLine
 10
-1270.768204839256
 20
-323.3574251162036
 30
0.0
 11
-1333.768540532615
 21
-323.3574251162036
 31
0.0
  0
LINE
  5
2AC
330
1F
100
AcDbEntity
  8
D-2
  6
Continuous
 62
     3
370
     9
100
AcDbLine
 10
-1270.768204839256
 20
-273.8595990168078
 30
0.0
 11
-1333.768540532615
 21
-273.8595990168078
 31
0.0
  0
LINE
  5
2AD
330
1F
100
AcDbEntity
  8
D-2
  6
Continuous
 62
     3
370
     9
100
AcDbLine
 10
-1270.768204839256
 20
-298.6087612139208
 30
0.0
 11
-1333.768540532615
 21
-298.6087612139208
 31
0.0
  0
LINE
  5
2AE
330
1F
100
AcDbEntity
  8
D-2
  6
Continuous
 62
     3
370
     9
100
AcDbLine
 10
-1333.768540532615
 20
-269.1087444054108
 30
0.0
 11
-1333.768540532615
 21
-333.1088595615847
 31
0.0
  0
LINE
  5
2AF
330
1F
100
AcDbEntity
  8
D-2
  6
Continuous
 62
     3
370
     9
100
AcDbLine
 10
-1340.768510015037
 20
-333.1088595615847
 30
0.0
 11
-1340.768510015037
 21
-269.1087444054108
 31
0.0
  0
LINE
  5
2B0
330
1F
100
AcDbEntity
  8
D-2
  6
Continuous
 62
     3
370
     9
100
AcDbLine
 10
-1340.768510015037
 20
-323.3574251162036
 30
0.0
 11
-1403.768387944724
 21
-323.3574251162036
 31
0.0
  0
LINE
  5
2B1
330
1F
100
AcDbEntity
  8
D-2
  6
Continuous
 62
     3
370
     9
100
AcDbLine
 10
-1340.768510015037
 20
-273.8595990168078
 30
0.0
 11
-1403.768387944724
 21
-273.8595990168078
 31
0.0
  0
LINE
  5
2B2
330
1F
100
AcDbEntity
  8
D-2
  6
Continuous
 62
     3
370
     9
100
AcDbLine
 10
-1340.768510015037
 20
-298.6087612139208
 30
0.0
 11
-1403.768387944724
 21
-298.6087612139208
 31
0.0
  0
LINE
  5
2B3
330
1F
100
AcDbEntity
  8
D-2
  6
Continuous
 62
     3
370
     9
100
AcDbLine
 10
-1403.768387944724
 20
-269.1087444054108
 30
0.0
 11
-1403.768387944724
 21
-333.1088595615847
 31
0.0
  0
LINE
  5
2B4
330
1F
100
AcDbEntity
  8
D-2
  6
Continuous
 62
     3
370
     9
100
AcDbLine
 10
-1410.768357427146
 20
-333.1088595615847
 30
0.0
 11
-1410.768357427146
 21
-269.1087444054108
 31
0.0
  0
LINE
  5
2B5
330
1F
100
AcDbEntity
  8
D-2
  6
Continuous
 62
     3
370
     9
100
AcDbLine
 10
-1410.768357427146
 20
-323.3574251162036
 30
0.0
 11
-1473.768197209861
 21
-323.3574251162036
 31
0.0
  0
LINE
  5
2B6
330
1F
100
AcDbEntity
  8
D-2
  6
Continuous
 62
     3
370
     9
100
AcDbLine
 10
-1410.768357427146
 20
-273.8595990168078
 30
0.0
 11
-1473.768197209861
 21
-273.8595990168078
 31
0.0
  0
LINE
  5
2B7
330
1F
100
AcDbEntity
  8
D-2
  6
Continuous
 62
     3
370
     9
100
AcDbLine
 10
-1410.768357427146
 20
-298.6087612139208
 30
0.0
 11
-1473.768197209861
 21
-298.6087612139208
 31
0.0
  0
LINE
  5
2B8
330
1F
100
AcDbEntity
  8
D-2
  6
Continuous
 62
     3
370
     9
100
AcDbLine
 10
-1473.768197209861
 20
-269.1087444054108
 30
0.0
 11
-1473.768197209861
 21
-333.1088595615847
 31
0.0
  0
LINE
  5
2B9
330
1F
100
AcDbEntity
  8
D-2
  6
Continuous
 62
     3
370
     9
100
AcDbLine
 10
-1502.267571599509
 20
-278.824141187425
 30
0.0
 11
-1502.267571599509
 21
-228.6009181211198
 31
0.0
  0
LINE
  5
2BA
330
1F
100
AcDbEntity
  8
D-2
  6
Continuous
 62
     3
370
     9
100
AcDbLine
 10
-1522.267500391827
 20
-308.8247820565655
 30
0.0
 11
-1482.267317286358
 21
-278.824141187425
 31
0.0
  0
LINE
  5
2BB
330
1F
100
AcDbEntity
  8
D-2
  6
Continuous
 62
     3
370
     9
100
AcDbLine
 10
-1502.267571599509
 20
-353.6007944012094
 30
0.0
 11
-1502.267571599509
 21
-308.8247820565655
 31
0.0
  0
LINE
  5
2BC
330
1F
100
AcDbEntity
  8
D-2
  6
Continuous
 62
     3
370
     9
100
AcDbLine
 10
-1502.267571599509
 20
-273.8595990168078
 30
0.0
 11
-1480.768166692283
 21
-273.8595990168078
 31
0.0
  0
LINE
  5
2BD
330
1F
100
AcDbEntity
  8
D-2
  6
Continuous
 62
     3
370
     9
100
AcDbLine
 10
-1508.64636789344
 20
-298.6087612139208
 30
0.0
 11
-1480.768166692283
 21
-298.6087612139208
 31
0.0
  0
LINE
  5
2BE
330
1F
100
AcDbEntity
  8
D-2
  6
Continuous
 62
     3
370
     9
100
AcDbLine
 10
-1502.267571599509
 20
-323.3574251162036
 30
0.0
 11
-1480.768166692283
 21
-323.3574251162036
 31
0.0
  0
LINE
  5
2BF
330
1F
100
AcDbEntity
  8
D-2
  6
Continuous
 62
     3
370
     9
100
AcDbLine
 10
-1480.768166692283
 20
-269.1087444054108
 30
0.0
 11
-1480.768166692283
 21
-333.1088595615847
 31
0.0
  0
LINE
  5
2C0
330
1F
100
AcDbEntity
  8
D-0
  6
JWW_CENTER1
 62
     3
370
     9
100
AcDbLine
 10
743.5324200900731
 20
517.147689527115
 30
0.0
 11
803.8928285637325
 21
517.147689527115
 31
0.0
  0
LINE
  5
2C1
330
1F
100
AcDbEntity
  8
D-4
  6
Continuous
 62
     7
370
     9
100
AcDbLine
 10
831.8279809945499
 20
557.647689527115
 30
0.0
 11
887.0002034872879
 21
612.8199120198525
 31
0.0
  0
LINE
  5
2C2
330
1F
100
AcDbEntity
  8
D-4
  6
Continuous
 62
     7
370
     9
100
AcDbLine
 10
831.8279809945499
 20
557.647689527115
 30
0.0
 11
847.0470167197685
 21
577.4815230343959
 31
0.0
  0
LINE
  5
2C3
330
1F
100
AcDbEntity
  8
D-4
  6
Continuous
 62
     7
370
     9
100
AcDbLine
 10
831.8279809945499
 20
557.647689527115
 30
0.0
 11
851.6618145018309
 21
572.866725252333
 31
0.0
  0
LINE
  5
2C4
330
1F
100
AcDbEntity
  8
D-4
  6
Continuous
 62
     7
370
     9
100
AcDbLine
 10
773.7125315369689
 20
630.6476895271148
 30
0.0
 11
773.7125315369689
 21
582.647689527115
 31
0.0
  0
LINE
  5
2C5
330
1F
100
AcDbEntity
  8
D-4
  6
Continuous
 62
     7
370
     9
100
AcDbLine
 10
373.7125727769397
 20
630.6476895271148
 30
0.0
 11
373.7125727769397
 21
582.647689527115
 31
0.0
  0
LWPOLYLINE
  5
2C6
330
1F
100
AcDbEntity
  8
D-4
  6
Continuous
 62
     7
370
     9
100
AcDbPolyline
 90
        4
 70
     1
 43
1.0
 10
774.2125315369688
 20
627.647689527115
 42
0.4142135623731
 10
773.7125315369689
 20
628.1476895271148
 42
0.4142135623731
 10
773.2125315369689
 20
627.647689527115
 42
0.4142135623731
 10
773.7125315369689
 20
627.147689527115
 42
0.4142135623731
  0
LWPOLYLINE
  5
2C7
330
1F
100
AcDbEntity
  8
D-4
  6
Continuous
 62
     7
370
     9
100
AcDbPolyline
 90
        4
 70
     1
 43
1.0
 10
374.2125727769397
 20
627.647689527115
 42
0.4142135623731
 10
373.7125727769397
 20
628.1476895271148
 42
0.4142135623731
 10
373.2125727769397
 20
627.647689527115
 42
0.4142135623731
 10
373.7125727769397
 20
627.147689527115
 42
0.4142135623731
  0
LINE
  5
2C8
330
1F
100
AcDbEntity
  8
D-4
  6
Continuous
 62
     7
370
     9
100
AcDbLine
 10
373.7125727769397
 20
627.647689527115
 30
0.0
 11
773.7125315369689
 21
627.647689527115
 31
0.0
  0
TEXT
  5
2C9
330
1F
100
AcDbEntity
  8
D-4
  6
Continuous
 62
     2
370
   211
100
AcDbText
 10
557.4625521569543
 20
643.2876895271149
 30
0.0
 40
30.48
  1
80
 41
1.0625
  7
ＭＳ ゴシック
100
AcDbText
  0
LINE
  5
2CA
330
1F
100
AcDbEntity
  8
D-0
  6
Continuous
 62
     7
370
     9
100
AcDbLine
 10
361.5016385084549
 20
504.8986347472378
 30
0.0
 11
341.6678050011739
 21
489.6795990220197
 31
0.0
  0
LINE
  5
2CB
330
1F
100
AcDbEntity
  8
D-0
  6
Continuous
 62
     7
370
     9
100
AcDbLine
 10
361.5016385084549
 20
504.8986347472378
 30
0.0
 11
346.2826027832363
 21
485.0648012399569
 31
0.0
  0
LINE
  5
2CC
330
1F
100
AcDbEntity
  8
D-0
  6
Continuous
 62
     3
370
     9
100
AcDbLine
 10
373.7125727769397
 20
492.3987584671489
 30
0.0
 11
348.9638272968397
 21
517.147689527115
 31
0.0
  0
LINE
  5
2CD
330
1F
100
AcDbEntity
  8
D-0
  6
Continuous
 62
     3
370
     9
100
AcDbLine
 10
348.9638272968397
 20
517.147689527115
 30
0.0
 11
373.7125727769397
 21
541.8966205870813
 31
0.0
  0
LINE
  5
2CE
330
1F
100
AcDbEntity
  8
D-0
  6
Continuous
 62
     3
370
     9
100
AcDbLine
 10
373.7125727769397
 20
541.8966205870813
 30
0.0
 11
398.4613182570387
 21
517.147689527115
 31
0.0
  0
LINE
  5
2CF
330
1F
100
AcDbEntity
  8
D-0
  6
Continuous
 62
     3
370
     9
100
AcDbLine
 10
398.4613182570387
 20
517.147689527115
 30
0.0
 11
373.7125727769397
 21
492.3987584671489
 31
0.0
  0
LINE
  5
2D0
330
1F
100
AcDbEntity
  8
D-0
  6
Continuous
 62
     3
370
     9
100
AcDbLine
 10
356.2125769009366
 20
534.6478709829848
 30
0.0
 11
366.4638231728428
 21
534.6478709829848
 31
0.0
  0
LINE
  5
2D1
330
1F
100
AcDbEntity
  8
D-0
  6
Continuous
 62
     3
370
     9
100
AcDbLine
 10
380.9613223810355
 20
534.6478709829848
 30
0.0
 11
391.2125686529429
 21
534.6478709829848
 31
0.0
  0
LINE
  5
2D2
330
1F
100
AcDbEntity
  8
D-0
  6
Continuous
 62
     3
370
     9
100
AcDbLine
 10
391.2125686529429
 20
534.6478709829848
 30
0.0
 11
391.2125686529429
 21
524.3964391312114
 31
0.0
  0
LINE
  5
2D3
330
1F
100
AcDbEntity
  8
D-0
  6
Continuous
 62
     3
370
     9
100
AcDbLine
 10
391.2125686529429
 20
509.8989399230189
 30
0.0
 11
391.2125686529429
 21
499.6475080712451
 31
0.0
  0
LINE
  5
2D4
330
1F
100
AcDbEntity
  8
D-0
  6
Continuous
 62
     3
370
     9
100
AcDbLine
 10
391.2125686529429
 20
499.6475080712451
 30
0.0
 11
380.9613223810355
 21
499.6475080712451
 31
0.0
  0
LINE
  5
2D5
330
1F
100
AcDbEntity
  8
D-0
  6
Continuous
 62
     3
370
     9
100
AcDbLine
 10
366.4638231728428
 20
499.6475080712451
 30
0.0
 11
356.2125769009366
 21
499.6475080712451
 31
0.0
  0
LINE
  5
2D6
330
1F
100
AcDbEntity
  8
D-0
  6
Continuous
 62
     3
370
     9
100
AcDbLine
 10
356.2125769009366
 20
499.6475080712451
 30
0.0
 11
356.2125769009366
 21
509.8989399230189
 31
0.0
  0
LINE
  5
2D7
330
1F
100
AcDbEntity
  8
D-0
  6
Continuous
 62
     3
370
     9
100
AcDbLine
 10
356.2125769009366
 20
524.3964391312114
 30
0.0
 11
356.2125769009366
 21
534.6478709829848
 31
0.0
  0
LINE
  5
2D8
330
1F
100
AcDbEntity
  8
D-0
  6
JWW_CENTER1
 62
     3
370
     9
100
AcDbLine
 10
343.5324613300428
 20
517.147689527115
 30
0.0
 11
403.8928698037022
 21
517.147689527115
 31
0.0
  0
LINE
  5
2D9
330
1F
100
AcDbEntity
  8
D-0
  6
JWW_CENTER1
 62
     3
370
     9
100
AcDbLine
 10
373.7125727769397
 20
486.9675780802189
 30
0.0
 11
373.7125727769397
 21
547.328172133745
 31
0.0
  0
LINE
  5
2DA
330
1F
100
AcDbEntity
  8
D-0
  6
Continuous
 62
     3
370
     9
100
AcDbLine
 10
773.7125315369689
 20
492.3987584671489
 30
0.0
 11
748.9637860568699
 21
517.147689527115
 31
0.0
  0
LINE
  5
2DB
330
1F
100
AcDbEntity
  8
D-0
  6
Continuous
 62
     3
370
     9
100
AcDbLine
 10
748.9637860568699
 20
517.147689527115
 30
0.0
 11
773.7125315369689
 21
541.8966205870813
 31
0.0
  0
LINE
  5
2DC
330
1F
100
AcDbEntity
  8
D-0
  6
Continuous
 62
     3
370
     9
100
AcDbLine
 10
773.7125315369689
 20
541.8966205870813
 30
0.0
 11
798.4612770170678
 21
517.147689527115
 31
0.0
  0
LINE
  5
2DD
330
1F
100
AcDbEntity
  8
D-0
  6
Continuous
 62
     3
370
     9
100
AcDbLine
 10
798.4612770170678
 20
517.147689527115
 30
0.0
 11
773.7125315369689
 21
492.3987584671489
 31
0.0
  0
LINE
  5
2DE
330
1F
100
AcDbEntity
  8
D-0
  6
Continuous
 62
     3
370
     9
100
AcDbLine
 10
756.2125356609657
 20
534.6478709829848
 30
0.0
 11
766.4637819328731
 21
534.6478709829848
 31
0.0
  0
LINE
  5
2DF
330
1F
100
AcDbEntity
  8
D-0
  6
Continuous
 62
     3
370
     9
100
AcDbLine
 10
780.9612811410658
 20
534.6478709829848
 30
0.0
 11
791.212527412972
 21
534.6478709829848
 31
0.0
  0
LINE
  5
2E0
330
1F
100
AcDbEntity
  8
D-0
  6
Continuous
 62
     3
370
     9
100
AcDbLine
 10
791.212527412972
 20
534.6478709829848
 30
0.0
 11
791.212527412972
 21
524.3964391312114
 31
0.0
  0
LINE
  5
2E1
330
1F
100
AcDbEntity
  8
D-0
  6
Continuous
 62
     3
370
     9
100
AcDbLine
 10
791.212527412972
 20
509.8989399230189
 30
0.0
 11
791.212527412972
 21
499.6475080712451
 31
0.0
  0
LINE
  5
2E2
330
1F
100
AcDbEntity
  8
D-0
  6
Continuous
 62
     3
370
     9
100
AcDbLine
 10
791.212527412972
 20
499.6475080712451
 30
0.0
 11
780.9612811410658
 21
499.6475080712451
 31
0.0
  0
LINE
  5
2E3
330
1F
100
AcDbEntity
  8
D-0
  6
Continuous
 62
     3
370
     9
100
AcDbLine
 10
766.4637819328731
 20
499.6475080712451
 30
0.0
 11
756.2125356609657
 21
499.6475080712451
 31
0.0
  0
LINE
  5
2E4
330
1F
100
AcDbEntity
  8
D-0
  6
Continuous
 62
     3
370
     9
100
AcDbLine
 10
756.2125356609657
 20
499.6475080712451
 30
0.0
 11
756.2125356609657
 21
509.8989399230189
 31
0.0
  0
LINE
  5
2E5
330
1F
100
AcDbEntity
  8
D-0
  6
Continuous
 62
     3
370
     9
100
AcDbLine
 10
756.2125356609657
 20
524.3964391312114
 30
0.0
 11
756.2125356609657
 21
534.6478709829848
 31
0.0
  0
LINE
  5
2E6
330
1F
100
AcDbEntity
  8
D-0
  6
JWW_CENTER1
 62
     3
370
     9
100
AcDbLine
 10
773.7125315369689
 20
486.9675780802189
 30
0.0
 11
773.7125315369689
 21
547.328172133745
 31
0.0
  0
LINE
  5
2E7
330
1F
100
AcDbEntity
  8
D-4
  6
Continuous
 62
     7
370
     9
100
AcDbLine
 10
887.0002034872879
 20
612.8199120198525
 30
0.0
 11
1056.297872249197
 21
612.8199120198525
 31
0.0
  0
TEXT
  5
2E8
330
1F
100
AcDbEntity
  8
D-5
  6
Continuous
 62
     7
370
     9
100
AcDbText
 10
887.0002034872884
 20
622.0499120198525
 30
0.0
 40
22.86
  1
メインバー
 41
1.133333333333327
  7
ＭＳ ゴシック
100
AcDbText
  0
LINE
  5
2E9
330
1F
100
AcDbEntity
  8
D-4
  6
Continuous
 62
     7
370
     9
100
AcDbLine
 10
361.5016385084549
 20
504.8986347472378
 30
0.0
 11
232.6633202760682
 21
376.0603165148515
 31
0.0
  0
LINE
  5
2EA
330
1F
100
AcDbEntity
  8
D-4
  6
Continuous
 62
     7
370
     9
100
AcDbLine
 10
56.02472674912448
 20
376.0603165148515
 30
0.0
 11
232.6633202760682
 21
376.0603165148515
 31
0.0
  0
TEXT
  5
2EB
330
1F
100
AcDbEntity
  8
D-5
  6
Continuous
 62
     7
370
     9
100
AcDbText
 10
56.02472674912448
 20
385.2903165148516
 30
0.0
 40
22.86
  1
クロスバー
 41
1.13333333333333
  7
ＭＳ ゴシック
100
AcDbText
  0
TEXT
  5
2EC
330
1F
100
AcDbEntity
  8
F-5ﾚｲﾔ
  6
Continuous
 62
     2
370
     9
100
AcDbText
 10
-845.3997081828237
 20
-1330.761336706767
 30
0.0
 40
30.48
  1
ステンレス製　縦目タイプ　細目プレーンタイプ　グレーチング（すきま6mm）
 41
0.7742957746478872
  7
ＭＳ ゴシック
100
AcDbText
  0
TEXT
  5
2ED
330
1F
100
AcDbEntity
  8
F-4ﾚｲﾔ
  6
Continuous
 62
     2
370
     9
100
AcDbText
 10
-845.9896769380546
 20
-1379.05859205821
 30
0.0
 40
30.48
  1
ＹＲ－Ｈ－Ａ－１５　３５０×３５０×１５　ステンレス製受枠ＳＦ１５Ｂ（四方枠）
 41
0.7743589743589743
  7
ＭＳ ゴシック
100
AcDbText
  0
LINE
  5
2EE
330
1F
100
AcDbEntity
  8
D-5
  6
JWW_CENTER1
 62
     4
370
     9
100
AcDbLine
 10
542.9741785692765
 20
1113.02759217335
 30
0.0
 11
542.9741785692765
 21
1063.027592173349
 31
0.0
  0
TEXT
  5
2EF
330
1F
100
AcDbEntity
  8
D-5
  6
Continuous
 62
     2
370
     9
100
AcDbText
 10
609.6004321838807
 20
1121.80340702662
 30
0.0
 40
30.48
  1
C
 41
0.9999999999999998
  7
ＭＳ ゴシック
100
AcDbText
  0
SOLID
  5
2F0
330
1F
100
AcDbEntity
  8
D-5
  6
Continuous
 62
     4
370
     9
100
AcDbTrace
 10
544.9741785692764
 20
803.0279774928556
 30
0.0
 11
544.9741785692764
 21
763.0279774928556
 31
0.0
 12
540.9741785692767
 22
803.0279774928556
 32
0.0
 13
540.9741785692767
 23
763.0279774928556
 33
0.0
  0
LINE
  5
2F1
330
1F
100
AcDbEntity
  8
D-5
  6
Continuous
 62
     4
370
     9
100
AcDbLine
 10
552.6402683669885
 20
782.0469806193819
 30
0.0
 11
601.8896610499302
 21
782.0469806193819
 31
0.0
  0
LINE
  5
2F2
330
1F
100
AcDbEntity
  8
D-5
  6
Continuous
 62
     4
370
     9
100
AcDbLine
 10
552.6402683669885
 20
782.0469806193819
 30
0.0
 11
577.4263899013339
 21
785.3101354248832
 31
0.0
  0
LINE
  5
2F3
330
1F
100
AcDbEntity
  8
D-5
  6
Continuous
 62
     4
370
     9
100
AcDbLine
 10
552.6402683669885
 20
782.0469806193819
 30
0.0
 11
577.4263899013339
 21
778.7838258138805
 31
0.0
  0
LINE
  5
2F4
330
1F
100
AcDbEntity
  8
D-5
  6
JWW_CENTER1
 62
     4
370
     9
100
AcDbLine
 10
542.9741785692765
 20
803.0279774928556
 30
0.0
 11
542.9741785692765
 21
853.0279774928556
 31
0.0
  0
TEXT
  5
2F5
330
1F
100
AcDbEntity
  8
D-5
  6
Continuous
 62
     2
370
     9
100
AcDbText
 10
609.6004321838807
 20
769.8417985991782
 30
0.0
 40
30.48
  1
C
 41
0.9999999999999998
  7
ＭＳ ゴシック
100
AcDbText
  0
SOLID
  5
2F6
330
1F
100
AcDbEntity
  8
D-5
  6
Continuous
 62
     4
370
     9
100
AcDbTrace
 10
973.3291251750699
 20
925.0279164576995
 30
0.0
 11
1013.32912517507
 21
925.0279164576995
 31
0.0
 12
973.3291251750699
 22
921.0279164576997
 32
0.0
 13
1013.32912517507
 23
921.0279164576997
 33
0.0
  0
LINE
  5
2F7
330
1F
100
AcDbEntity
  8
D-5
  6
Continuous
 62
     4
370
     9
100
AcDbLine
 10
991.3732709982888
 20
916.3705986185892
 30
0.0
 11
991.3732709982888
 21
867.1212059356471
 31
0.0
  0
LINE
  5
2F8
330
1F
100
AcDbEntity
  8
D-5
  6
Continuous
 62
     4
370
     9
100
AcDbLine
 10
991.3732709982888
 20
916.3705986185892
 30
0.0
 11
994.6364258037902
 21
891.5844770842438
 31
0.0
  0
LINE
  5
2F9
330
1F
100
AcDbEntity
  8
D-5
  6
Continuous
 62
     4
370
     9
100
AcDbLine
 10
991.3732709982888
 20
916.3705986185892
 30
0.0
 11
988.1101161927875
 21
891.5844770842438
 31
0.0
  0
TEXT
  5
2FA
330
1F
100
AcDbEntity
  8
D-5
  6
Continuous
 62
     2
370
     9
100
AcDbText
 10
981.3732709982888
 20
826.0758988843464
 30
0.0
 40
30.48
  1
B
 41
0.9999999999999998
  7
ＭＳ ゴシック
100
AcDbText
  0
LINE
  5
2FB
330
1F
100
AcDbEntity
  8
D-5
  6
JWW_CENTER1
 62
     4
370
     9
100
AcDbLine
 10
973.3291251750699
 20
923.0279164576996
 30
0.0
 11
822.9456775732
 21
923.0279164576996
 31
0.0
  0
LINE
  5
2FC
330
1F
100
AcDbEntity
  8
D-A
  6
Continuous
 62
     3
370
     9
100
AcDbLine
 10
373.7125727769397
 20
1048.027592173349
 30
0.0
 11
373.7125727769397
 21
1085.202008640564
 31
0.0
  0
LINE
  5
2FD
330
1F
100
AcDbEntity
  8
D-A
  6
Continuous
 62
     3
370
     9
100
AcDbLine
 10
398.4615038369053
 20
1048.027592173349
 30
0.0
 11
398.4615038369053
 21
1085.202008640564
 31
0.0
  0
LINE
  5
2FE
330
1F
100
AcDbEntity
  8
D-A
  6
Continuous
 62
     3
370
     9
100
AcDbLine
 10
348.963641716973
 20
1048.027592173349
 30
0.0
 11
348.963641716973
 21
1085.202008640564
 31
0.0
  0
LINE
  5
2FF
330
1F
100
AcDbEntity
  8
D-A
  6
Continuous
 62
     3
370
     9
100
AcDbLine
 10
773.7125727769397
 20
1048.027592173349
 30
0.0
 11
773.7125727769397
 21
1085.202008640564
 31
0.0
  0
LINE
  5
300
330
1F
100
AcDbEntity
  8
D-A
  6
Continuous
 62
     3
370
     9
100
AcDbLine
 10
798.4615038369053
 20
1048.027592173349
 30
0.0
 11
798.4615038369053
 21
1085.202008640564
 31
0.0
  0
LINE
  5
301
330
1F
100
AcDbEntity
  8
D-A
  6
Continuous
 62
     3
370
     9
100
AcDbLine
 10
748.963641716973
 20
1048.027592173349
 30
0.0
 11
748.963641716973
 21
1085.202008640564
 31
0.0
  0
LINE
  5
302
330
1F
100
AcDbEntity
  8
D-A
  6
Continuous
 62
     3
370
     9
100
AcDbLine
 10
373.7125727769397
 20
978.0278554225433
 30
0.0
 11
373.7125727769397
 21
1008.027653208505
 31
0.0
  0
LINE
  5
303
330
1F
100
AcDbEntity
  8
D-A
  6
Continuous
 62
     3
370
     9
100
AcDbLine
 10
398.4615038369053
 20
978.0278554225433
 30
0.0
 11
398.4615038369053
 21
1008.027653208505
 31
0.0
  0
LINE
  5
304
330
1F
100
AcDbEntity
  8
D-A
  6
Continuous
 62
     3
370
     9
100
AcDbLine
 10
348.963641716973
 20
978.0278554225433
 30
0.0
 11
348.963641716973
 21
1008.027653208505
 31
0.0
  0
LINE
  5
305
330
1F
100
AcDbEntity
  8
D-A
  6
Continuous
 62
     3
370
     9
100
AcDbLine
 10
773.7125727769397
 20
978.0278554225433
 30
0.0
 11
773.7125727769397
 21
1008.027653208505
 31
0.0
  0
LINE
  5
306
330
1F
100
AcDbEntity
  8
D-A
  6
Continuous
 62
     3
370
     9
100
AcDbLine
 10
798.4615038369053
 20
978.0278554225433
 30
0.0
 11
798.4615038369053
 21
1008.027653208505
 31
0.0
  0
LINE
  5
307
330
1F
100
AcDbEntity
  8
D-A
  6
Continuous
 62
     3
370
     9
100
AcDbLine
 10
748.963641716973
 20
978.0278554225433
 30
0.0
 11
748.963641716973
 21
1008.027653208505
 31
0.0
  0
LINE
  5
308
330
1F
100
AcDbEntity
  8
D-A
  6
Continuous
 62
     3
370
     9
100
AcDbLine
 10
373.7125727769397
 20
908.0279164576996
 30
0.0
 11
373.7125727769397
 21
938.0279164576996
 31
0.0
  0
LINE
  5
309
330
1F
100
AcDbEntity
  8
D-A
  6
Continuous
 62
     3
370
     9
100
AcDbLine
 10
373.7125727769397
 20
831.3052002832217
 30
0.0
 11
373.7125727769397
 21
868.0279774928556
 31
0.0
  0
LINE
  5
30A
330
1F
100
AcDbEntity
  8
D-A
  6
Continuous
 62
     3
370
     9
100
AcDbLine
 10
398.4615038369053
 20
908.0279164576996
 30
0.0
 11
398.4615038369053
 21
938.0279164576996
 31
0.0
  0
LINE
  5
30B
330
1F
100
AcDbEntity
  8
D-A
  6
Continuous
 62
     3
370
     9
100
AcDbLine
 10
398.4615038369053
 20
831.3052002832217
 30
0.0
 11
398.4615038369053
 21
868.0279774928556
 31
0.0
  0
LINE
  5
30C
330
1F
100
AcDbEntity
  8
D-A
  6
Continuous
 62
     3
370
     9
100
AcDbLine
 10
348.963641716973
 20
908.0279164576996
 30
0.0
 11
348.963641716973
 21
938.0279164576996
 31
0.0
  0
LINE
  5
30D
330
1F
100
AcDbEntity
  8
D-A
  6
Continuous
 62
     3
370
     9
100
AcDbLine
 10
348.963641716973
 20
831.3052002832217
 30
0.0
 11
348.963641716973
 21
868.0279774928556
 31
0.0
  0
LINE
  5
30E
330
1F
100
AcDbEntity
  8
D-A
  6
Continuous
 62
     3
370
     9
100
AcDbLine
 10
773.7125727769397
 20
908.0279164576996
 30
0.0
 11
773.7125727769397
 21
938.0279164576996
 31
0.0
  0
LINE
  5
30F
330
1F
100
AcDbEntity
  8
D-A
  6
Continuous
 62
     3
370
     9
100
AcDbLine
 10
773.7125727769397
 20
831.3052002832217
 30
0.0
 11
773.7125727769397
 21
868.0279774928556
 31
0.0
  0
LINE
  5
310
330
1F
100
AcDbEntity
  8
D-A
  6
Continuous
 62
     3
370
     9
100
AcDbLine
 10
798.4615038369053
 20
908.0279164576996
 30
0.0
 11
798.4615038369053
 21
938.0279164576996
 31
0.0
  0
LINE
  5
311
330
1F
100
AcDbEntity
  8
D-A
  6
Continuous
 62
     3
370
     9
100
AcDbLine
 10
798.4615038369053
 20
831.3052002832217
 30
0.0
 11
798.4615038369053
 21
868.0279774928556
 31
0.0
  0
LINE
  5
312
330
1F
100
AcDbEntity
  8
D-A
  6
Continuous
 62
     3
370
     9
100
AcDbLine
 10
748.963641716973
 20
908.0279164576996
 30
0.0
 11
748.963641716973
 21
938.0279164576996
 31
0.0
  0
LINE
  5
313
330
1F
100
AcDbEntity
  8
D-A
  6
Continuous
 62
     3
370
     9
100
AcDbLine
 10
748.963641716973
 20
831.3052002832217
 30
0.0
 11
748.963641716973
 21
868.0279774928556
 31
0.0
  0
SOLID
  5
314
330
1F
100
AcDbEntity
  8
D-5
  6
Continuous
 62
     4
370
     9
100
AcDbTrace
 10
544.9741785692764
 20
1113.02759217335
 30
0.0
 11
544.9741785692764
 21
1153.02759217335
 31
0.0
 12
540.9741785692767
 22
1113.02759217335
 32
0.0
 13
540.9741785692767
 23
1153.02759217335
 33
0.0
  0
LINE
  5
315
330
1F
100
AcDbEntity
  8
D-5
  6
Continuous
 62
     4
370
     9
100
AcDbLine
 10
552.6402683669885
 20
1134.008589046823
 30
0.0
 11
601.8896610499302
 21
1134.008589046823
 31
0.0
  0
LINE
  5
316
330
1F
100
AcDbEntity
  8
D-5
  6
Continuous
 62
     4
370
     9
100
AcDbLine
 10
552.6402683669885
 20
1134.008589046823
 30
0.0
 11
577.4263899013339
 21
1130.745434241322
 31
0.0
  0
LINE
  5
317
330
1F
100
AcDbEntity
  8
D-5
  6
Continuous
 62
     4
370
     9
100
AcDbLine
 10
552.6402683669885
 20
1134.008589046823
 30
0.0
 11
577.4263899013339
 21
1137.271743852325
 31
0.0
  0
LINE
  5
318
330
1F
100
AcDbEntity
  8
D-2
  6
Continuous
 62
     3
370
     9
100
AcDbLine
 10
1439.220192789261
 20
482.6478132470259
 30
0.0
 11
1170.421050580638
 21
482.6478132470259
 31
0.0
  0
LINE
  5
319
330
1F
100
AcDbEntity
  8
D-2
  6
Continuous
 62
     3
370
     9
100
AcDbLine
 10
1439.220192789261
 20
557.647689527115
 30
0.0
 11
1170.421050580638
 21
557.647689527115
 31
0.0
  0
LINE
  5
31A
330
1F
100
AcDbEntity
  8
D-4
  6
Continuous
 62
     7
370
     9
100
AcDbLine
 10
1559.220192789261
 20
557.647689527115
 30
0.0
 11
1559.220192789261
 21
482.6478132470259
 31
0.0
  0
LWPOLYLINE
  5
31B
330
1F
100
AcDbEntity
  8
D-4
  6
Continuous
 62
     7
370
     9
100
AcDbPolyline
 90
        4
 70
     1
 43
1.0
 10
1559.720192789261
 20
557.647689527115
 42
0.4142135623731
 10
1559.220192789261
 20
558.1476895271148
 42
0.4142135623731
 10
1558.720192789261
 20
557.647689527115
 42
0.4142135623731
 10
1559.220192789261
 20
557.147689527115
 42
0.4142135623731
  0
LWPOLYLINE
  5
31C
330
1F
100
AcDbEntity
  8
D-4
  6
Continuous
 62
     7
370
     9
100
AcDbPolyline
 90
        4
 70
     1
 43
1.0
 10
1559.720192789261
 20
482.6478132470259
 42
0.4142135623731
 10
1559.220192789261
 20
483.1478132470258
 42
0.4142135623731
 10
1558.720192789261
 20
482.6478132470259
 42
0.4142135623731
 10
1559.220192789261
 20
482.1478132470259
 42
0.4142135623731
  0
LINE
  5
31D
330
1F
100
AcDbEntity
  8
D-4
  6
Continuous
 62
     7
370
     9
100
AcDbLine
 10
1562.220192789262
 20
557.647689527115
 30
0.0
 11
1459.220192789261
 21
557.647689527115
 31
0.0
  0
LINE
  5
31E
330
1F
100
AcDbEntity
  8
D-4
  6
Continuous
 62
     7
370
     9
100
AcDbLine
 10
1562.220192789262
 20
482.6478132470259
 30
0.0
 11
1459.220192789261
 21
482.6478132470259
 31
0.0
  0
TEXT
  5
31F
330
1F
100
AcDbEntity
  8
D-4
  6
Continuous
 62
     2
370
   211
100
AcDbText
 10
1543.580192789261
 20
498.8977513870703
 30
0.0
 40
30.48
  1
15
 50
90.0
 41
1.0625
  7
ＭＳ ゴシック
100
AcDbText
  0
LINE
  5
320
330
1F
100
AcDbEntity
  8
D-5
  6
Continuous
 62
     7
370
     9
100
AcDbLine
 10
1206.360560827785
 20
286.8332786092332
 30
0.0
 11
1403.280682542114
 21
286.8332786092332
 31
0.0
  0
TEXT
  5
321
330
1F
100
AcDbEntity
  8
D-5
  6
Continuous
 62
     2
370
     9
100
AcDbText
 10
1208.597675260675
 20
307.4732786092331
 30
0.0
 40
30.48
  1
C-C断面図
 41
1.097222222222223
  7
ＭＳ ゴシック
100
AcDbText
  0
LWPOLYLINE
  5
322
330
1F
100
AcDbEntity
  8
D-4
  6
Continuous
 62
     7
370
     9
100
AcDbPolyline
 90
        4
 70
     1
 43
1.0
 10
1207.62136796345
 20
627.647689527115
 42
0.4142135623731
 10
1207.12136796345
 20
628.1476895271148
 42
0.4142135623731
 10
1206.62136796345
 20
627.647689527115
 42
0.4142135623731
 10
1207.12136796345
 20
627.147689527115
 42
0.4142135623731
  0
LWPOLYLINE
  5
323
330
1F
100
AcDbEntity
  8
D-4
  6
Continuous
 62
     7
370
     9
100
AcDbPolyline
 90
        4
 70
     1
 43
1.0
 10
1247.620510172066
 20
627.647689527115
 42
0.4142135623731
 10
1247.120510172066
 20
628.1476895271148
 42
0.4142135623731
 10
1246.620510172066
 20
627.647689527115
 42
0.4142135623731
 10
1247.120510172066
 20
627.147689527115
 42
0.4142135623731
  0
LINE
  5
324
330
1F
100
AcDbEntity
  8
D-4
  6
Continuous
 62
     7
370
     9
100
AcDbLine
 10
1207.12136796345
 20
630.6476895271148
 30
0.0
 11
1207.12136796345
 21
577.647689527115
 31
0.0
  0
LINE
  5
325
330
1F
100
AcDbEntity
  8
D-4
  6
Continuous
 62
     7
370
     9
100
AcDbLine
 10
1247.120510172066
 20
630.6476895271148
 30
0.0
 11
1247.120510172066
 21
577.647689527115
 31
0.0
  0
LINE
  5
326
330
1F
100
AcDbEntity
  8
D-2
  6
Continuous
 62
     3
370
     9
100
AcDbLine
 10
1247.120510172065
 20
557.647689527115
 30
0.0
 11
1247.120510172065
 21
550.6476169447665
 31
0.0
  0
LINE
  5
327
330
1F
100
AcDbEntity
  8
D-2
  6
Continuous
 62
     3
370
     9
100
AcDbLine
 10
1247.120510172065
 20
557.647689527115
 30
0.0
 11
1207.12136796345
 21
557.647689527115
 31
0.0
  0
LINE
  5
328
330
1F
100
AcDbEntity
  8
D-2
  6
Continuous
 62
     3
370
     9
100
AcDbLine
 10
1207.12136796345
 20
557.647689527115
 30
0.0
 11
1207.12136796345
 21
550.6476169447665
 31
0.0
  0
LINE
  5
329
330
1F
100
AcDbEntity
  8
D-2
  6
Continuous
 62
     3
370
     9
100
AcDbLine
 10
1247.120510172065
 20
550.6476169447665
 30
0.0
 11
1207.12136796345
 21
550.6476169447665
 31
0.0
  0
ARC
  5
32A
330
1F
100
AcDbEntity
  8
D-2
  6
Continuous
 62
     3
370
     9
100
AcDbCircle
 10
1235.620868135008
 20
545.6477241686899
 30
0.0
 40
5.000000064437454
100
AcDbArc
 50
90.0
 51
180.0
  0
ARC
  5
32B
330
1F
100
AcDbEntity
  8
D-2
  6
Continuous
 62
     3
370
     9
100
AcDbCircle
 10
1218.621010000506
 20
545.6477241686899
 30
0.0
 40
5.000000064437454
100
AcDbArc
 50
0.0
 51
90.0
  0
LINE
  5
32C
330
1F
100
AcDbEntity
  8
D-2
  6
Continuous
 62
     3
370
     9
100
AcDbLine
 10
1223.620902776583
 20
550.6476169447665
 30
0.0
 11
1223.620902776583
 21
482.6478132470259
 31
0.0
  0
LINE
  5
32D
330
1F
100
AcDbEntity
  8
D-2
  6
Continuous
 62
     3
370
     9
100
AcDbLine
 10
1230.620975358931
 20
550.6476169447665
 30
0.0
 11
1230.620975358931
 21
482.6478132470259
 31
0.0
  0
LINE
  5
32E
330
1F
100
AcDbEntity
  8
D-2
  6
Continuous
 62
     3
370
     9
100
AcDbLine
 10
1223.3707411159
 20
541.8962494273478
 30
0.0
 11
1170.421050580638
 21
541.8962494273478
 31
0.0
  0
LINE
  5
32F
330
1F
100
AcDbEntity
  8
D-2
  6
Continuous
 62
     3
370
     9
100
AcDbLine
 10
1223.3707411159
 20
517.147689527115
 30
0.0
 11
1170.421050580638
 21
517.147689527115
 31
0.0
  0
LINE
  5
330
330
1F
100
AcDbEntity
  8
D-2
  6
Continuous
 62
     3
370
     9
100
AcDbLine
 10
1223.3707411159
 20
492.3991296268832
 30
0.0
 11
1170.421050580638
 21
492.3991296268832
 31
0.0
  0
LINE
  5
331
330
1F
100
AcDbEntity
  8
D-4
  6
Continuous
 62
     7
370
     9
100
AcDbLine
 10
1207.12136796345
 20
627.647689527115
 30
0.0
 11
1247.120510172066
 21
627.647689527115
 31
0.0
  0
TEXT
  5
332
330
1F
100
AcDbEntity
  8
D-4
  6
Continuous
 62
     2
370
   211
100
AcDbText
 10
1217.120939067757
 20
643.2876895271149
 30
0.0
 40
30.48
  1
8
 41
0.9999999999999998
  7
ＭＳ ゴシック
100
AcDbText
  0
TEXT
  5
333
330
1F
100
AcDbEntity
  8
D-4
  6
Continuous
 62
     2
370
   211
100
AcDbText
 10
1287.720435940115
 20
643.2876895271149
 30
0.0
 40
30.48
  1
8
 41
0.9999999999999998
  7
ＭＳ ゴシック
100
AcDbText
  0
LINE
  5
334
330
1F
100
AcDbEntity
  8
D-2
  6
Continuous
 62
     3
370
     9
100
AcDbLine
 10
1317.120864835811
 20
557.647689527115
 30
0.0
 11
1317.120864835811
 21
550.6476169447665
 31
0.0
  0
LINE
  5
335
330
1F
100
AcDbEntity
  8
D-2
  6
Continuous
 62
     3
370
     9
100
AcDbLine
 10
1317.120864835811
 20
557.647689527115
 30
0.0
 11
1277.121722627196
 21
557.647689527115
 31
0.0
  0
LINE
  5
336
330
1F
100
AcDbEntity
  8
D-2
  6
Continuous
 62
     3
370
     9
100
AcDbLine
 10
1277.121722627196
 20
557.647689527115
 30
0.0
 11
1277.121722627196
 21
550.6476169447665
 31
0.0
  0
LINE
  5
337
330
1F
100
AcDbEntity
  8
D-2
  6
Continuous
 62
     3
370
     9
100
AcDbLine
 10
1317.120864835811
 20
550.6476169447665
 30
0.0
 11
1277.121722627196
 21
550.6476169447665
 31
0.0
  0
ARC
  5
338
330
1F
100
AcDbEntity
  8
D-2
  6
Continuous
 62
     3
370
     9
100
AcDbCircle
 10
1305.621222798754
 20
545.6477241686899
 30
0.0
 40
5.000000064437454
100
AcDbArc
 50
90.0
 51
180.0
  0
ARC
  5
339
330
1F
100
AcDbEntity
  8
D-2
  6
Continuous
 62
     3
370
     9
100
AcDbCircle
 10
1288.621364664252
 20
545.6477241686899
 30
0.0
 40
5.000000064437454
100
AcDbArc
 50
0.0
 51
90.0
  0
LINE
  5
33A
330
1F
100
AcDbEntity
  8
D-2
  6
Continuous
 62
     3
370
     9
100
AcDbLine
 10
1293.621257440329
 20
550.6476169447665
 30
0.0
 11
1293.621257440329
 21
482.6478132470259
 31
0.0
  0
LINE
  5
33B
330
1F
100
AcDbEntity
  8
D-2
  6
Continuous
 62
     3
370
     9
100
AcDbLine
 10
1300.621330022677
 20
550.6476169447665
 30
0.0
 11
1300.621330022677
 21
482.6478132470259
 31
0.0
  0
LINE
  5
33C
330
1F
100
AcDbEntity
  8
D-2
  6
Continuous
 62
     3
370
     9
100
AcDbLine
 10
1293.371095779646
 20
541.8962494273478
 30
0.0
 11
1230.620975358931
 21
541.8962494273478
 31
0.0
  0
LINE
  5
33D
330
1F
100
AcDbEntity
  8
D-2
  6
Continuous
 62
     3
370
     9
100
AcDbLine
 10
1293.371095779646
 20
517.147689527115
 30
0.0
 11
1230.620975358931
 21
517.147689527115
 31
0.0
  0
LINE
  5
33E
330
1F
100
AcDbEntity
  8
D-2
  6
Continuous
 62
     3
370
     9
100
AcDbLine
 10
1293.371095779646
 20
492.3991296268832
 30
0.0
 11
1230.620975358931
 21
492.3991296268832
 31
0.0
  0
TEXT
  5
33F
330
1F
100
AcDbEntity
  8
D-4
  6
Continuous
 62
     2
370
   211
100
AcDbText
 10
1358.319932812472
 20
643.2876895271149
 30
0.0
 40
30.48
  1
8
 41
0.9999999999999998
  7
ＭＳ ゴシック
100
AcDbText
  0
LINE
  5
340
330
1F
100
AcDbEntity
  8
D-2
  6
Continuous
 62
     3
370
     9
100
AcDbLine
 10
1387.121219499557
 20
557.647689527115
 30
0.0
 11
1387.121219499557
 21
550.6476169447665
 31
0.0
  0
LINE
  5
341
330
1F
100
AcDbEntity
  8
D-2
  6
Continuous
 62
     3
370
     9
100
AcDbLine
 10
1387.121219499557
 20
557.647689527115
 30
0.0
 11
1347.122077290942
 21
557.647689527115
 31
0.0
  0
LINE
  5
342
330
1F
100
AcDbEntity
  8
D-2
  6
Continuous
 62
     3
370
     9
100
AcDbLine
 10
1347.122077290942
 20
557.647689527115
 30
0.0
 11
1347.122077290942
 21
550.6476169447665
 31
0.0
  0
LINE
  5
343
330
1F
100
AcDbEntity
  8
D-2
  6
Continuous
 62
     3
370
     9
100
AcDbLine
 10
1387.121219499557
 20
550.6476169447665
 30
0.0
 11
1347.122077290942
 21
550.6476169447665
 31
0.0
  0
ARC
  5
344
330
1F
100
AcDbEntity
  8
D-2
  6
Continuous
 62
     3
370
     9
100
AcDbCircle
 10
1375.621577462501
 20
545.6477241686899
 30
0.0
 40
5.000000064437454
100
AcDbArc
 50
90.0
 51
180.0
  0
ARC
  5
345
330
1F
100
AcDbEntity
  8
D-2
  6
Continuous
 62
     3
370
     9
100
AcDbCircle
 10
1358.621719327999
 20
545.6477241686899
 30
0.0
 40
5.000000064437454
100
AcDbArc
 50
0.0
 51
90.0
  0
LINE
  5
346
330
1F
100
AcDbEntity
  8
D-2
  6
Continuous
 62
     3
370
     9
100
AcDbLine
 10
1363.621612104076
 20
550.6476169447665
 30
0.0
 11
1363.621612104076
 21
482.6478132470259
 31
0.0
  0
LINE
  5
347
330
1F
100
AcDbEntity
  8
D-2
  6
Continuous
 62
     3
370
     9
100
AcDbLine
 10
1370.621684686424
 20
550.6476169447665
 30
0.0
 11
1370.621684686424
 21
482.6478132470259
 31
0.0
  0
LINE
  5
348
330
1F
100
AcDbEntity
  8
D-2
  6
Continuous
 62
     3
370
     9
100
AcDbLine
 10
1439.220192789261
 20
541.8962494273478
 30
0.0
 11
1370.621684686424
 21
541.8962494273478
 31
0.0
  0
LINE
  5
349
330
1F
100
AcDbEntity
  8
D-2
  6
Continuous
 62
     3
370
     9
100
AcDbLine
 10
1439.220192789261
 20
517.147689527115
 30
0.0
 11
1370.621684686424
 21
517.147689527115
 31
0.0
  0
LINE
  5
34A
330
1F
100
AcDbEntity
  8
D-2
  6
Continuous
 62
     3
370
     9
100
AcDbLine
 10
1439.220192789261
 20
492.3991296268832
 30
0.0
 11
1370.621684686424
 21
492.3991296268832
 31
0.0
  0
LINE
  5
34B
330
1F
100
AcDbEntity
  8
D-2
  6
Continuous
 62
     3
370
     9
100
AcDbLine
 10
1363.371450443391
 20
541.8962494273478
 30
0.0
 11
1300.621330022677
 21
541.8962494273478
 31
0.0
  0
LINE
  5
34C
330
1F
100
AcDbEntity
  8
D-2
  6
Continuous
 62
     3
370
     9
100
AcDbLine
 10
1363.371450443391
 20
517.147689527115
 30
0.0
 11
1300.621330022677
 21
517.147689527115
 31
0.0
  0
LINE
  5
34D
330
1F
100
AcDbEntity
  8
D-2
  6
Continuous
 62
     3
370
     9
100
AcDbLine
 10
1363.371450443391
 20
492.3991296268832
 30
0.0
 11
1300.621330022677
 21
492.3991296268832
 31
0.0
  0
LWPOLYLINE
  5
34E
330
1F
100
AcDbEntity
  8
D-4
  6
Continuous
 62
     7
370
     9
100
AcDbPolyline
 90
        4
 70
     1
 43
1.0
 10
1317.620864835811
 20
627.647689527115
 42
0.4142135623731
 10
1317.120864835811
 20
628.1476895271148
 42
0.4142135623731
 10
1316.620864835811
 20
627.647689527115
 42
0.4142135623731
 10
1317.120864835811
 20
627.147689527115
 42
0.4142135623731
  0
LINE
  5
34F
330
1F
100
AcDbEntity
  8
D-4
  6
Continuous
 62
     7
370
     9
100
AcDbLine
 10
1317.120864835811
 20
630.6476895271148
 30
0.0
 11
1317.120864835811
 21
577.647689527115
 31
0.0
  0
LINE
  5
350
330
1F
100
AcDbEntity
  8
D-4
  6
Continuous
 62
     7
370
     9
100
AcDbLine
 10
1277.121722627196
 20
627.647689527115
 30
0.0
 11
1317.120864835811
 21
627.647689527115
 31
0.0
  0
LWPOLYLINE
  5
351
330
1F
100
AcDbEntity
  8
D-4
  6
Continuous
 62
     7
370
     9
100
AcDbPolyline
 90
        4
 70
     1
 43
1.0
 10
1277.621722627196
 20
627.647689527115
 42
0.4142135623731
 10
1277.121722627196
 20
628.1476895271148
 42
0.4142135623731
 10
1276.621722627196
 20
627.647689527115
 42
0.4142135623731
 10
1277.121722627196
 20
627.147689527115
 42
0.4142135623731
  0
LINE
  5
352
330
1F
100
AcDbEntity
  8
D-4
  6
Continuous
 62
     7
370
     9
100
AcDbLine
 10
1277.121722627196
 20
630.6476895271148
 30
0.0
 11
1277.121722627196
 21
577.647689527115
 31
0.0
  0
LWPOLYLINE
  5
353
330
1F
100
AcDbEntity
  8
D-4
  6
Continuous
 62
     7
370
     9
100
AcDbPolyline
 90
        4
 70
     1
 43
1.0
 10
1347.622077290943
 20
627.647689527115
 42
0.4142135623731
 10
1347.122077290942
 20
628.1476895271148
 42
0.4142135623731
 10
1346.622077290942
 20
627.647689527115
 42
0.4142135623731
 10
1347.122077290942
 20
627.147689527115
 42
0.4142135623731
  0
LINE
  5
354
330
1F
100
AcDbEntity
  8
D-4
  6
Continuous
 62
     7
370
     9
100
AcDbLine
 10
1347.122077290942
 20
630.6476895271148
 30
0.0
 11
1347.122077290942
 21
577.647689527115
 31
0.0
  0
LWPOLYLINE
  5
355
330
1F
100
AcDbEntity
  8
D-4
  6
Continuous
 62
     7
370
     9
100
AcDbPolyline
 90
        4
 70
     1
 43
1.0
 10
1387.621219499557
 20
627.647689527115
 42
0.4142135623731
 10
1387.121219499557
 20
628.1476895271148
 42
0.4142135623731
 10
1386.621219499557
 20
627.647689527115
 42
0.4142135623731
 10
1387.121219499557
 20
627.147689527115
 42
0.4142135623731
  0
LINE
  5
356
330
1F
100
AcDbEntity
  8
D-4
  6
Continuous
 62
     7
370
     9
100
AcDbLine
 10
1387.121219499557
 20
630.6476895271148
 30
0.0
 11
1387.121219499557
 21
577.647689527115
 31
0.0
  0
LINE
  5
357
330
1F
100
AcDbEntity
  8
D-4
  6
Continuous
 62
     7
370
     9
100
AcDbLine
 10
1347.122077290942
 20
627.647689527115
 30
0.0
 11
1387.121219499557
 21
627.647689527115
 31
0.0
  0
LINE
  5
358
330
1F
100
AcDbEntity
  8
D-4
  6
Continuous
 62
     7
370
     9
100
AcDbLine
 10
1317.120864835811
 20
627.647689527115
 30
0.0
 11
1347.122077290942
 21
627.647689527115
 31
0.0
  0
TEXT
  5
359
330
1F
100
AcDbEntity
  8
D-4
  6
Continuous
 62
     2
370
   211
100
AcDbText
 10
1322.121471063376
 20
643.2876895271149
 30
0.0
 40
30.48
  1
6
 41
0.9999999999999998
  7
ＭＳ ゴシック
100
AcDbText
  0
LINE
  5
35A
330
1F
100
AcDbEntity
  8
D-4
  6
Continuous
 62
     7
370
     9
100
AcDbLine
 10
1247.120510172066
 20
627.647689527115
 30
0.0
 11
1277.121722627196
 21
627.647689527115
 31
0.0
  0
TEXT
  5
35B
330
1F
100
AcDbEntity
  8
D-4
  6
Continuous
 62
     2
370
   211
100
AcDbText
 10
1252.121116399631
 20
643.2876895271149
 30
0.0
 40
30.48
  1
6
 41
0.9999999999999998
  7
ＭＳ ゴシック
100
AcDbText
  0
LINE
  5
35C
330
1F
100
AcDbEntity
  8
D-5
  6
Continuous
 62
     7
370
     9
100
AcDbLine
 10
-634.0337694371682
 20
15.62637685547315
 30
0.0
 11
137.5861768661342
 21
15.62637685547315
 31
0.0
  0
LINE
  5
35D
330
1F
100
AcDbEntity
  8
D-5
  6
Continuous
 62
     7
370
     9
100
AcDbLine
 10
-540.5220233512181
 20
-200.7282089220507
 30
0.0
 11
-153.8185512137669
 21
-200.7282089220507
 31
0.0
  0
LINE
  5
35E
330
1F
100
AcDbEntity
  8
D-5
  6
Continuous
 62
     7
370
     9
100
AcDbLine
 10
-634.0337694371682
 20
15.62637685547315
 30
0.0
 11
-872.2841378695115
 21
-258.1095525058527
 31
0.0
  0
LINE
  5
35F
330
1F
100
AcDbEntity
  8
D-5
  6
Continuous
 62
     7
370
     9
100
AcDbLine
 10
-629.3132528896696
 20
-54.66189780641706
 30
0.0
 11
-804.2105137419959
 21
-255.6087612139208
 31
0.0
  0
LINE
  5
360
330
1F
100
AcDbEntity
  8
D-5
  6
Continuous
 62
     7
370
     9
100
AcDbLine
 10
-579.8178991909394
 20
-109.5241681616417
 30
0.0
 11
-827.7512254056593
 21
-394.3855976091845
 31
0.0
  0
LINE
  5
361
330
1F
100
AcDbEntity
  8
D-5
  6
Continuous
 62
     7
370
     9
100
AcDbLine
 10
-629.3132528896696
 20
-54.66189780641706
 30
0.0
 11
-178.522885763205
 21
-54.66189780641706
 31
0.0
  0
TEXT
  5
362
330
1F
100
AcDbEntity
  8
D-5
  6
Continuous
 62
     7
370
     9
100
AcDbText
 10
-629.6739515896207
 20
-45.6734253637901
 30
0.0
 40
22.86
  1
ステンレス製受枠ＳＦ１５Ｂ
 41
1.153846153846153
  7
ＭＳ ゴシック
100
AcDbText
  0
TEXT
  5
363
330
1F
100
AcDbEntity
  8
D-5
  6
Continuous
 62
     7
370
     9
100
AcDbText
 10
-570.1859793302481
 20
-101.7723728888146
 30
0.0
 40
22.86
  1
クッション材
 50
0.0000000020107312
 41
1.138888888888889
  7
ＭＳ ゴシック
100
AcDbText
  0
TEXT
  5
364
330
1F
100
AcDbEntity
  8
D-5
  6
Continuous
 62
     7
370
     9
100
AcDbText
 10
-598.1594213163714
 20
-140.4018117676367
 30
0.0
 40
22.86
  1
（軟質塩化ビニル）
 50
0.0000000020106818
 41
1.148148148148146
  7
ＭＳ ゴシック
100
AcDbText
  0
LINE
  5
365
330
1F
100
AcDbEntity
  8
D-5
  6
Continuous
 62
     7
370
     9
100
AcDbLine
 10
-579.8178991909394
 20
-109.5241681616417
 30
0.0
 11
-299.4859519284681
 21
-109.5241681616417
 31
0.0
  0
TEXT
  5
366
330
1F
100
AcDbEntity
  8
D-5
  6
Continuous
 62
     7
370
     9
100
AcDbText
 10
-540.0800715995091
 20
-230.2579650103076
 30
0.0
 40
22.86
  1
ｔ＝２．３（ＳＰＨＣ）
 41
1.151515151515152
  7
ＭＳ ゴシック
100
AcDbText
  0
LINE
  5
367
330
1F
100
AcDbEntity
  8
D-5
  6
Continuous
 62
     7
370
     9
100
AcDbLine
 10
-872.2841378695115
 20
-258.1095525058527
 30
0.0
 11
-853.5504623896226
 21
-241.555444839837
 31
0.0
  0
LINE
  5
368
330
1F
100
AcDbEntity
  8
D-5
  6
Continuous
 62
     7
370
     9
100
AcDbLine
 10
-872.2841378695115
 20
-258.1095525058527
 30
0.0
 11
-858.4734412676438
 21
-237.2711273463983
 31
0.0
  0
LINE
  5
369
330
1F
100
AcDbEntity
  8
D-5
  6
Continuous
 62
     7
370
     9
100
AcDbLine
 10
-804.2105137419959
 20
-255.6087612139208
 30
0.0
 11
-790.3998171401282
 21
-234.7703360544665
 31
0.0
  0
LINE
  5
36A
330
1F
100
AcDbEntity
  8
D-5
  6
Continuous
 62
     7
370
     9
100
AcDbLine
 10
-804.2105137419959
 20
-255.6087612139208
 30
0.0
 11
-785.476838262107
 21
-239.0546535479052
 31
0.0
  0
LINE
  5
36B
330
1F
100
AcDbEntity
  8
D-5
  6
Continuous
 62
     7
370
     9
100
AcDbLine
 10
-892.7997170996924
 20
-337.7685951220019
 30
0.0
 11
-876.2461053443213
 21
-356.5027641283496
 31
0.0
  0
LINE
  5
36C
330
1F
100
AcDbEntity
  8
D-5
  6
Continuous
 62
     7
370
     9
100
AcDbLine
 10
-827.7512254056593
 20
-394.3855976091845
 30
0.0
 11
-892.7997170996924
 21
-337.7685951220019
 31
0.0
  0
LINE
  5
36D
330
1F
100
AcDbEntity
  8
D-5
  6
Continuous
 62
     7
370
     9
100
AcDbLine
 10
-892.7997170996924
 20
-337.7685951220019
 30
0.0
 11
-871.9612943244239
 21
-351.5802883135302
 31
0.0
  0
LINE
  5
36E
330
1F
100
AcDbEntity
  8
D-5
  6
Continuous
 62
     7
370
     9
100
AcDbLine
 10
-662.2686206412574
 20
-340.6089519487841
 30
0.0
 11
-648.4569369864722
 21
-319.7695373522265
 31
0.0
  0
LINE
  5
36F
330
1F
100
AcDbEntity
  8
D-5
  6
Continuous
 62
     7
370
     9
100
AcDbLine
 10
-662.2686206412574
 20
-340.6089519487841
 30
0.0
 11
-540.5220233512181
 21
-200.7282089220507
 31
0.0
  0
LINE
  5
370
330
1F
100
AcDbEntity
  8
D-5
  6
Continuous
 62
     7
370
     9
100
AcDbLine
 10
-662.2686206412574
 20
-340.6089519487841
 30
0.0
 11
-643.5339557242652
 21
-324.0548490511401
 31
0.0
  0
LINE
  5
371
330
1F
100
AcDbEntity
  8
D-5
  6
Continuous
 62
     7
370
     9
100
AcDbLine
 10
-663.7659274649878
 20
-420.4655082297219
 30
0.0
 11
-542.0193301749485
 21
-560.3462512564554
 31
0.0
  0
LINE
  5
372
330
1F
100
AcDbEntity
  8
D-5
  6
Continuous
 62
     7
370
     9
100
AcDbLine
 10
-663.7659274649878
 20
-420.4655082297219
 30
0.0
 11
-645.0312625479957
 21
-437.019611127366
 31
0.0
  0
LINE
  5
373
330
1F
100
AcDbEntity
  8
D-5
  6
Continuous
 62
     7
370
     9
100
AcDbLine
 10
-663.7659274649878
 20
-420.4655082297219
 30
0.0
 11
-649.9542438102027
 21
-441.3049228262796
 31
0.0
  0
LINE
  5
374
330
1F
100
AcDbEntity
  8
D-5
  6
Continuous
 62
     7
370
     9
100
AcDbLine
 10
-542.0193301749485
 20
-560.3462512564554
 30
0.0
 11
-345.6259787706226
 21
-560.3462512564554
 31
0.0
  0
TEXT
  5
375
330
1F
100
AcDbEntity
  8
D-5
  6
Continuous
 62
     7
370
     9
100
AcDbText
 10
-541.5773784232396
 20
-548.6525099539651
 30
0.0
 40
22.86
  1
差筋φ9程度
 41
1.136363636363636
  7
ＭＳ ゴシック
100
AcDbText
  0
TEXT
  5
376
330
1F
100
AcDbEntity
  8
D-5
  6
Continuous
 62
     7
370
     9
100
AcDbText
 10
-634.0337694371682
 20
60.48847219238722
 30
0.0
 40
22.86
  1
ステンレス製　縦目タイプ　細目プレーンタイプ
 41
1.159090909090909
  7
ＭＳ ゴシック
100
AcDbText
  0
TEXT
  5
377
330
1F
100
AcDbEntity
  8
D-5
  6
Continuous
 62
     7
370
     9
100
AcDbText
 10
-634.0337721792624
 20
27.78335592041367
 30
0.0
 40
22.86
  1
グレーチング（すきま6mm）ＹＲーＨ－Ａ－１５
 50
0.0000371419447595
 41
1.15891472868217
  7
ＭＳ ゴシック
100
AcDbText
  0
LINE
  5
378
330
1F
100
AcDbEntity
  8
D-5
  6
Continuous
 62
     7
370
     9
100
AcDbLine
 10
-718.7644979689504
 20
-976.574051033025
 30
0.0
 11
-1293.764925215044
 21
-976.574051033025
 31
0.0
  0
TEXT
  5
379
330
1F
100
AcDbEntity
  8
C-5
  6
Continuous
 62
     2
370
     9
100
AcDbText
 10
-1204.838379631011
 20
390.0314626611249
 30
0.0
 40
30.48
  1
平面詳細図　Ｓ＝１：１０
 41
1.114583333333333
  7
ＭＳ ゴシック
100
AcDbText
  0
LINE
  5
37A
330
1F
100
AcDbEntity
  8
C-4
  6
Continuous
 62
     7
370
     9
100
AcDbLine
 10
-1112.338320503203
 20
1069.891227103569
 30
0.0
 11
-762.3381679153125
 21
1069.891227103569
 31
0.0
  0
LINE
  5
37B
330
1F
100
AcDbEntity
  8
C-4
  6
Continuous
 62
     7
370
     9
100
AcDbLine
 10
-762.3381679153125
 20
1069.891227103569
 30
0.0
 11
-761.3383205032032
 21
1069.891227103569
 31
0.0
  0
LINE
  5
37C
330
1F
100
AcDbEntity
  8
C-4
  6
Continuous
 62
     7
370
     9
100
AcDbLine
 10
-1112.338320503203
 20
994.891288138725
 30
0.0
 11
-1087.338457832305
 21
994.891288138725
 31
0.0
  0
LINE
  5
37D
330
1F
100
AcDbEntity
  8
C-4
  6
Continuous
 62
     7
370
     9
100
AcDbLine
 10
-787.3385341262501
 20
994.891288138725
 30
0.0
 11
-762.3381679153125
 21
994.891288138725
 31
0.0
  0
LINE
  5
37E
330
1F
100
AcDbEntity
  8
C-5
  6
Continuous
 62
     7
370
     9
100
AcDbLine
 10
-649.8380458449999
 20
371.891776419975
 30
0.0
 11
-1224.838473091094
 21
371.891776419975
 31
0.0
  0
LINE
  5
37F
330
1F
100
AcDbEntity
  8
C-2
  6
Continuous
 62
     3
370
     9
100
AcDbLine
 10
-1112.338320503203
 20
544.8916390908735
 30
0.0
 11
-1112.338320503203
 21
894.89153227935
 31
0.0
  0
LINE
  5
380
330
1F
100
AcDbEntity
  8
C-A
  6
Continuous
 62
     3
370
     9
100
AcDbLine
 10
-1109.338259468047
 20
544.8916390908735
 30
0.0
 11
-1109.338259468047
 21
894.89153227935
 31
0.0
  0
LINE
  5
381
330
1F
100
AcDbEntity
  8
C-1
  6
JWW_DASHED3
 62
     2
370
     9
100
AcDbLine
 10
-1087.338457832305
 20
569.891517020561
 30
0.0
 11
-1087.338457832305
 21
869.8911965859907
 31
0.0
  0
LINE
  5
382
330
1F
100
AcDbEntity
  8
C-1
  6
JWW_DASHED3
 62
     2
370
     9
100
AcDbLine
 10
-1087.338457832305
 20
869.8911965859907
 30
0.0
 11
-787.3385341262501
 21
869.8911965859907
 31
0.0
  0
LINE
  5
383
330
1F
100
AcDbEntity
  8
C-1
  6
Continuous
 62
     2
370
     9
100
AcDbLine
 10
-1113.338175544707
 20
895.8914102090375
 30
0.0
 11
-1113.338175544707
 21
543.8917916787641
 31
0.0
  0
LINE
  5
384
330
1F
100
AcDbEntity
  8
C-1
  6
Continuous
 62
     2
370
     9
100
AcDbLine
 10
-1113.338175544707
 20
895.8914102090375
 30
0.0
 11
-761.3383205032032
 21
895.8914102090375
 31
0.0
  0
LINE
  5
385
330
1F
100
AcDbEntity
  8
C-A
  6
Continuous
 62
     3
370
     9
100
AcDbLine
 10
-982.2881648635547
 20
552.8911355508344
 30
0.0
 11
-982.2881648635547
 21
558.5703958047407
 31
0.0
  0
LINE
  5
386
330
1F
100
AcDbEntity
  8
C-A
  6
Continuous
 62
     3
370
     9
100
AcDbLine
 10
-972.3882014846486
 20
552.8911355508344
 30
0.0
 11
-972.3882014846486
 21
558.5703958047407
 31
0.0
  0
LINE
  5
387
330
1F
100
AcDbEntity
  8
C-A
  6
Continuous
 62
     3
370
     9
100
AcDbLine
 10
-977.3384273147267
 20
552.8911355508344
 30
0.0
 11
-977.3384273147267
 21
558.5703958047407
 31
0.0
  0
LINE
  5
388
330
1F
100
AcDbEntity
  8
C-A
  6
Continuous
 62
     3
370
     9
100
AcDbLine
 10
-1062.288546333281
 20
552.8911355508344
 30
0.0
 11
-1062.288546333281
 21
558.5703958047407
 31
0.0
  0
LINE
  5
389
330
1F
100
AcDbEntity
  8
C-A
  6
Continuous
 62
     3
370
     9
100
AcDbLine
 10
-1052.389071235625
 20
552.8911355508344
 30
0.0
 11
-1052.389071235625
 21
558.5703958047407
 31
0.0
  0
LINE
  5
38A
330
1F
100
AcDbEntity
  8
C-A
  6
Continuous
 62
     3
370
     9
100
AcDbLine
 10
-1057.338808784453
 20
552.8911355508344
 30
0.0
 11
-1057.338808784453
 21
558.5703958047407
 31
0.0
  0
LINE
  5
38B
330
1F
100
AcDbEntity
  8
C-A
  6
Continuous
 62
     3
370
     9
100
AcDbLine
 10
-982.2881648635547
 20
566.570716239311
 30
0.0
 11
-982.2881648635547
 21
572.2493814004438
 31
0.0
  0
LINE
  5
38C
330
1F
100
AcDbEntity
  8
C-A
  6
Continuous
 62
     3
370
     9
100
AcDbLine
 10
-972.3882014846486
 20
566.570716239311
 30
0.0
 11
-972.3882014846486
 21
572.2493814004438
 31
0.0
  0
LINE
  5
38D
330
1F
100
AcDbEntity
  8
C-A
  6
Continuous
 62
     3
370
     9
100
AcDbLine
 10
-977.3384273147267
 20
566.570716239311
 30
0.0
 11
-977.3384273147267
 21
572.2493814004438
 31
0.0
  0
LINE
  5
38E
330
1F
100
AcDbEntity
  8
C-A
  6
Continuous
 62
     3
370
     9
100
AcDbLine
 10
-1062.288546333281
 20
566.570716239311
 30
0.0
 11
-1062.288546333281
 21
572.2493814004438
 31
0.0
  0
LINE
  5
38F
330
1F
100
AcDbEntity
  8
C-A
  6
Continuous
 62
     3
370
     9
100
AcDbLine
 10
-1052.389071235625
 20
566.570716239311
 30
0.0
 11
-1052.389071235625
 21
572.2493814004438
 31
0.0
  0
LINE
  5
390
330
1F
100
AcDbEntity
  8
C-A
  6
Continuous
 62
     3
370
     9
100
AcDbLine
 10
-1057.338808784453
 20
566.570716239311
 30
0.0
 11
-1057.338808784453
 21
572.2493814004438
 31
0.0
  0
LINE
  5
391
330
1F
100
AcDbEntity
  8
C-A
  6
Continuous
 62
     3
370
     9
100
AcDbLine
 10
-982.2881648635547
 20
580.2497170938032
 30
0.0
 11
-982.2881648635547
 21
585.928382254936
 31
0.0
  0
LINE
  5
392
330
1F
100
AcDbEntity
  8
C-A
  6
Continuous
 62
     3
370
     9
100
AcDbLine
 10
-972.3882014846486
 20
580.2497170938032
 30
0.0
 11
-972.3882014846486
 21
585.928382254936
 31
0.0
  0
LINE
  5
393
330
1F
100
AcDbEntity
  8
C-A
  6
Continuous
 62
     3
370
     9
100
AcDbLine
 10
-977.3384273147267
 20
580.2497170938032
 30
0.0
 11
-977.3384273147267
 21
585.928382254936
 31
0.0
  0
LINE
  5
394
330
1F
100
AcDbEntity
  8
C-A
  6
Continuous
 62
     3
370
     9
100
AcDbLine
 10
-1062.288546333281
 20
580.2497170938032
 30
0.0
 11
-1062.288546333281
 21
585.928382254936
 31
0.0
  0
LINE
  5
395
330
1F
100
AcDbEntity
  8
C-A
  6
Continuous
 62
     3
370
     9
100
AcDbLine
 10
-1052.389071235625
 20
580.2497170938032
 30
0.0
 11
-1052.389071235625
 21
585.928382254936
 31
0.0
  0
LINE
  5
396
330
1F
100
AcDbEntity
  8
C-A
  6
Continuous
 62
     3
370
     9
100
AcDbLine
 10
-1057.338808784453
 20
580.2497170938032
 30
0.0
 11
-1057.338808784453
 21
585.928382254936
 31
0.0
  0
LINE
  5
397
330
1F
100
AcDbEntity
  8
C-A
  6
Continuous
 62
     3
370
     9
100
AcDbLine
 10
-982.2881648635547
 20
593.9287179482953
 30
0.0
 11
-982.2881648635547
 21
599.6073678506391
 31
0.0
  0
LINE
  5
398
330
1F
100
AcDbEntity
  8
C-A
  6
Continuous
 62
     3
370
     9
100
AcDbLine
 10
-972.3882014846486
 20
593.9287179482953
 30
0.0
 11
-972.3882014846486
 21
599.6073678506391
 31
0.0
  0
LINE
  5
399
330
1F
100
AcDbEntity
  8
C-A
  6
Continuous
 62
     3
370
     9
100
AcDbLine
 10
-977.3384273147267
 20
593.9287179482953
 30
0.0
 11
-977.3384273147267
 21
599.6073678506391
 31
0.0
  0
LINE
  5
39A
330
1F
100
AcDbEntity
  8
C-A
  6
Continuous
 62
     3
370
     9
100
AcDbLine
 10
-1062.288546333281
 20
593.9287179482953
 30
0.0
 11
-1062.288546333281
 21
599.6073678506391
 31
0.0
  0
LINE
  5
39B
330
1F
100
AcDbEntity
  8
C-A
  6
Continuous
 62
     3
370
     9
100
AcDbLine
 10
-1052.389071235625
 20
593.9287179482953
 30
0.0
 11
-1052.389071235625
 21
599.6073678506391
 31
0.0
  0
LINE
  5
39C
330
1F
100
AcDbEntity
  8
C-A
  6
Continuous
 62
     3
370
     9
100
AcDbLine
 10
-1057.338808784453
 20
593.9287179482953
 30
0.0
 11
-1057.338808784453
 21
599.6073678506391
 31
0.0
  0
LINE
  5
39D
330
1F
100
AcDbEntity
  8
C-A
  6
Continuous
 62
     3
370
     9
100
AcDbLine
 10
-902.2883021926561
 20
607.6077340615766
 30
0.0
 11
-902.2883021926561
 21
613.2863992227094
 31
0.0
  0
LINE
  5
39E
330
1F
100
AcDbEntity
  8
C-A
  6
Continuous
 62
     3
370
     9
100
AcDbLine
 10
-892.38833881375
 20
607.6077340615766
 30
0.0
 11
-892.38833881375
 21
613.2863992227094
 31
0.0
  0
LINE
  5
39F
330
1F
100
AcDbEntity
  8
C-A
  6
Continuous
 62
     3
370
     9
100
AcDbLine
 10
-897.3385646438281
 20
607.6077340615766
 30
0.0
 11
-897.3385646438281
 21
613.2863992227094
 31
0.0
  0
LINE
  5
3A0
330
1F
100
AcDbEntity
  8
C-A
  6
Continuous
 62
     3
370
     9
100
AcDbLine
 10
-982.2881648635547
 20
607.6077340615766
 30
0.0
 11
-982.2881648635547
 21
613.2863992227094
 31
0.0
  0
LINE
  5
3A1
330
1F
100
AcDbEntity
  8
C-A
  6
Continuous
 62
     3
370
     9
100
AcDbLine
 10
-972.3882014846486
 20
607.6077340615766
 30
0.0
 11
-972.3882014846486
 21
613.2863992227094
 31
0.0
  0
LINE
  5
3A2
330
1F
100
AcDbEntity
  8
C-A
  6
Continuous
 62
     3
370
     9
100
AcDbLine
 10
-977.3384273147267
 20
607.6077340615766
 30
0.0
 11
-977.3384273147267
 21
613.2863992227094
 31
0.0
  0
LINE
  5
3A3
330
1F
100
AcDbEntity
  8
C-A
  6
Continuous
 62
     3
370
     9
100
AcDbLine
 10
-1062.288546333281
 20
607.6077340615766
 30
0.0
 11
-1062.288546333281
 21
613.2863992227094
 31
0.0
  0
LINE
  5
3A4
330
1F
100
AcDbEntity
  8
C-A
  6
Continuous
 62
     3
370
     9
100
AcDbLine
 10
-1052.389071235625
 20
607.6077340615766
 30
0.0
 11
-1052.389071235625
 21
613.2863992227094
 31
0.0
  0
LINE
  5
3A5
330
1F
100
AcDbEntity
  8
C-A
  6
Continuous
 62
     3
370
     9
100
AcDbLine
 10
-1057.338808784453
 20
607.6077340615766
 30
0.0
 11
-1057.338808784453
 21
613.2863992227094
 31
0.0
  0
LINE
  5
3A6
330
1F
100
AcDbEntity
  8
C-A
  6
Continuous
 62
     3
370
     9
100
AcDbLine
 10
-902.2883021926561
 20
621.2862466348188
 30
0.0
 11
-902.2883021926561
 21
626.9654000772016
 31
0.0
  0
LINE
  5
3A7
330
1F
100
AcDbEntity
  8
C-A
  6
Continuous
 62
     3
370
     9
100
AcDbLine
 10
-892.38833881375
 20
621.2862466348188
 30
0.0
 11
-892.38833881375
 21
626.9654000772016
 31
0.0
  0
LINE
  5
3A8
330
1F
100
AcDbEntity
  8
C-A
  6
Continuous
 62
     3
370
     9
100
AcDbLine
 10
-897.3385646438281
 20
621.2862466348188
 30
0.0
 11
-897.3385646438281
 21
626.9654000772016
 31
0.0
  0
LINE
  5
3A9
330
1F
100
AcDbEntity
  8
C-A
  6
Continuous
 62
     3
370
     9
100
AcDbLine
 10
-982.2881648635547
 20
621.2862466348188
 30
0.0
 11
-982.2881648635547
 21
626.9654000772016
 31
0.0
  0
LINE
  5
3AA
330
1F
100
AcDbEntity
  8
C-A
  6
Continuous
 62
     3
370
     9
100
AcDbLine
 10
-972.3882014846486
 20
621.2862466348188
 30
0.0
 11
-972.3882014846486
 21
626.9654000772016
 31
0.0
  0
LINE
  5
3AB
330
1F
100
AcDbEntity
  8
C-A
  6
Continuous
 62
     3
370
     9
100
AcDbLine
 10
-977.3384273147267
 20
621.2862466348188
 30
0.0
 11
-977.3384273147267
 21
626.9654000772016
 31
0.0
  0
LINE
  5
3AC
330
1F
100
AcDbEntity
  8
C-A
  6
Continuous
 62
     3
370
     9
100
AcDbLine
 10
-1062.288546333281
 20
621.2862466348188
 30
0.0
 11
-1062.288546333281
 21
626.9654000772016
 31
0.0
  0
LINE
  5
3AD
330
1F
100
AcDbEntity
  8
C-A
  6
Continuous
 62
     3
370
     9
100
AcDbLine
 10
-1052.389071235625
 20
621.2862466348188
 30
0.0
 11
-1052.389071235625
 21
626.9654000772016
 31
0.0
  0
LINE
  5
3AE
330
1F
100
AcDbEntity
  8
C-A
  6
Continuous
 62
     3
370
     9
100
AcDbLine
 10
-1057.338808784453
 20
621.2862466348188
 30
0.0
 11
-1057.338808784453
 21
626.9654000772016
 31
0.0
  0
LINE
  5
3AF
330
1F
100
AcDbEntity
  8
C-A
  6
Continuous
 62
     3
370
     9
100
AcDbLine
 10
-902.2883021926561
 20
634.9652322305219
 30
0.0
 11
-902.2883021926561
 21
640.6444009316938
 31
0.0
  0
LINE
  5
3B0
330
1F
100
AcDbEntity
  8
C-A
  6
Continuous
 62
     3
370
     9
100
AcDbLine
 10
-892.38833881375
 20
634.9652322305219
 30
0.0
 11
-892.38833881375
 21
640.6444009316938
 31
0.0
  0
LINE
  5
3B1
330
1F
100
AcDbEntity
  8
C-A
  6
Continuous
 62
     3
370
     9
100
AcDbLine
 10
-897.3385646438281
 20
634.9652322305219
 30
0.0
 11
-897.3385646438281
 21
640.6444009316938
 31
0.0
  0
LINE
  5
3B2
330
1F
100
AcDbEntity
  8
C-A
  6
Continuous
 62
     3
370
     9
100
AcDbLine
 10
-982.2881648635547
 20
634.9652322305219
 30
0.0
 11
-982.2881648635547
 21
640.6444009316938
 31
0.0
  0
LINE
  5
3B3
330
1F
100
AcDbEntity
  8
C-A
  6
Continuous
 62
     3
370
     9
100
AcDbLine
 10
-972.3882014846486
 20
634.9652322305219
 30
0.0
 11
-972.3882014846486
 21
640.6444009316938
 31
0.0
  0
LINE
  5
3B4
330
1F
100
AcDbEntity
  8
C-A
  6
Continuous
 62
     3
370
     9
100
AcDbLine
 10
-977.3384273147267
 20
634.9652322305219
 30
0.0
 11
-977.3384273147267
 21
640.6444009316938
 31
0.0
  0
LINE
  5
3B5
330
1F
100
AcDbEntity
  8
C-A
  6
Continuous
 62
     3
370
     9
100
AcDbLine
 10
-1062.288546333281
 20
634.9652322305219
 30
0.0
 11
-1062.288546333281
 21
640.6444009316938
 31
0.0
  0
LINE
  5
3B6
330
1F
100
AcDbEntity
  8
C-A
  6
Continuous
 62
     3
370
     9
100
AcDbLine
 10
-1052.389071235625
 20
634.9652322305219
 30
0.0
 11
-1052.389071235625
 21
640.6444009316938
 31
0.0
  0
LINE
  5
3B7
330
1F
100
AcDbEntity
  8
C-A
  6
Continuous
 62
     3
370
     9
100
AcDbLine
 10
-1057.338808784453
 20
634.9652322305219
 30
0.0
 11
-1057.338808784453
 21
640.6444009316938
 31
0.0
  0
LINE
  5
3B8
330
1F
100
AcDbEntity
  8
C-A
  6
Continuous
 62
     3
370
     9
100
AcDbLine
 10
-902.2883021926561
 20
648.644217826225
 30
0.0
 11
-902.2883021926561
 21
654.3233865273969
 31
0.0
  0
LINE
  5
3B9
330
1F
100
AcDbEntity
  8
C-A
  6
Continuous
 62
     3
370
     9
100
AcDbLine
 10
-892.38833881375
 20
648.644217826225
 30
0.0
 11
-892.38833881375
 21
654.3233865273969
 31
0.0
  0
LINE
  5
3BA
330
1F
100
AcDbEntity
  8
C-A
  6
Continuous
 62
     3
370
     9
100
AcDbLine
 10
-897.3385646438281
 20
648.644217826225
 30
0.0
 11
-897.3385646438281
 21
654.3233865273969
 31
0.0
  0
LINE
  5
3BB
330
1F
100
AcDbEntity
  8
C-A
  6
Continuous
 62
     3
370
     9
100
AcDbLine
 10
-982.2881648635547
 20
648.644217826225
 30
0.0
 11
-982.2881648635547
 21
654.3233865273969
 31
0.0
  0
LINE
  5
3BC
330
1F
100
AcDbEntity
  8
C-A
  6
Continuous
 62
     3
370
     9
100
AcDbLine
 10
-972.3882014846486
 20
648.644217826225
 30
0.0
 11
-972.3882014846486
 21
654.3233865273969
 31
0.0
  0
LINE
  5
3BD
330
1F
100
AcDbEntity
  8
C-A
  6
Continuous
 62
     3
370
     9
100
AcDbLine
 10
-977.3384273147267
 20
648.644217826225
 30
0.0
 11
-977.3384273147267
 21
654.3233865273969
 31
0.0
  0
LINE
  5
3BE
330
1F
100
AcDbEntity
  8
C-A
  6
Continuous
 62
     3
370
     9
100
AcDbLine
 10
-1062.288546333281
 20
648.644217826225
 30
0.0
 11
-1062.288546333281
 21
654.3233865273969
 31
0.0
  0
LINE
  5
3BF
330
1F
100
AcDbEntity
  8
C-A
  6
Continuous
 62
     3
370
     9
100
AcDbLine
 10
-1052.389071235625
 20
648.644217826225
 30
0.0
 11
-1052.389071235625
 21
654.3233865273969
 31
0.0
  0
LINE
  5
3C0
330
1F
100
AcDbEntity
  8
C-A
  6
Continuous
 62
     3
370
     9
100
AcDbLine
 10
-1057.338808784453
 20
648.644217826225
 30
0.0
 11
-1057.338808784453
 21
654.3233865273969
 31
0.0
  0
LINE
  5
3C1
330
1F
100
AcDbEntity
  8
C-A
  6
Continuous
 62
     3
370
     9
100
AcDbLine
 10
-902.2883021926561
 20
662.3232339395063
 30
0.0
 11
-902.2883021926561
 21
668.0023721231
 31
0.0
  0
LINE
  5
3C2
330
1F
100
AcDbEntity
  8
C-A
  6
Continuous
 62
     3
370
     9
100
AcDbLine
 10
-892.38833881375
 20
662.3232339395063
 30
0.0
 11
-892.38833881375
 21
668.0023721231
 31
0.0
  0
LINE
  5
3C3
330
1F
100
AcDbEntity
  8
C-A
  6
Continuous
 62
     3
370
     9
100
AcDbLine
 10
-897.3385646438281
 20
662.3232339395063
 30
0.0
 11
-897.3385646438281
 21
668.0023721231
 31
0.0
  0
LINE
  5
3C4
330
1F
100
AcDbEntity
  8
C-A
  6
Continuous
 62
     3
370
     9
100
AcDbLine
 10
-982.2881648635547
 20
662.3232339395063
 30
0.0
 11
-982.2881648635547
 21
668.0023721231
 31
0.0
  0
LINE
  5
3C5
330
1F
100
AcDbEntity
  8
C-A
  6
Continuous
 62
     3
370
     9
100
AcDbLine
 10
-972.3882014846486
 20
662.3232339395063
 30
0.0
 11
-972.3882014846486
 21
668.0023721231
 31
0.0
  0
LINE
  5
3C6
330
1F
100
AcDbEntity
  8
C-A
  6
Continuous
 62
     3
370
     9
100
AcDbLine
 10
-977.3384273147267
 20
662.3232339395063
 30
0.0
 11
-977.3384273147267
 21
668.0023721231
 31
0.0
  0
LINE
  5
3C7
330
1F
100
AcDbEntity
  8
C-A
  6
Continuous
 62
     3
370
     9
100
AcDbLine
 10
-1062.288546333281
 20
662.3232339395063
 30
0.0
 11
-1062.288546333281
 21
668.0023721231
 31
0.0
  0
LINE
  5
3C8
330
1F
100
AcDbEntity
  8
C-A
  6
Continuous
 62
     3
370
     9
100
AcDbLine
 10
-1052.389071235625
 20
662.3232339395063
 30
0.0
 11
-1052.389071235625
 21
668.0023721231
 31
0.0
  0
LINE
  5
3C9
330
1F
100
AcDbEntity
  8
C-A
  6
Continuous
 62
     3
370
     9
100
AcDbLine
 10
-1057.338808784453
 20
662.3232339395063
 30
0.0
 11
-1057.338808784453
 21
668.0023721231
 31
0.0
  0
LINE
  5
3CA
330
1F
100
AcDbEntity
  8
C-A
  6
Continuous
 62
     3
370
     9
100
AcDbLine
 10
-902.2883021926561
 20
676.0022500527875
 30
0.0
 11
-902.2883021926561
 21
681.6813882363813
 31
0.0
  0
LINE
  5
3CB
330
1F
100
AcDbEntity
  8
C-A
  6
Continuous
 62
     3
370
     9
100
AcDbLine
 10
-892.38833881375
 20
676.0022500527875
 30
0.0
 11
-892.38833881375
 21
681.6813882363813
 31
0.0
  0
LINE
  5
3CC
330
1F
100
AcDbEntity
  8
C-A
  6
Continuous
 62
     3
370
     9
100
AcDbLine
 10
-897.3385646438281
 20
676.0022500527875
 30
0.0
 11
-897.3385646438281
 21
681.6813882363813
 31
0.0
  0
LINE
  5
3CD
330
1F
100
AcDbEntity
  8
C-A
  6
Continuous
 62
     3
370
     9
100
AcDbLine
 10
-982.2881648635547
 20
676.0022500527875
 30
0.0
 11
-982.2881648635547
 21
681.6813882363813
 31
0.0
  0
LINE
  5
3CE
330
1F
100
AcDbEntity
  8
C-A
  6
Continuous
 62
     3
370
     9
100
AcDbLine
 10
-972.3882014846486
 20
676.0022500527875
 30
0.0
 11
-972.3882014846486
 21
681.6813882363813
 31
0.0
  0
LINE
  5
3CF
330
1F
100
AcDbEntity
  8
C-A
  6
Continuous
 62
     3
370
     9
100
AcDbLine
 10
-977.3384273147267
 20
676.0022500527875
 30
0.0
 11
-977.3384273147267
 21
681.6813882363813
 31
0.0
  0
LINE
  5
3D0
330
1F
100
AcDbEntity
  8
C-A
  6
Continuous
 62
     3
370
     9
100
AcDbLine
 10
-1062.288546333281
 20
676.0022500527875
 30
0.0
 11
-1062.288546333281
 21
681.6813882363813
 31
0.0
  0
LINE
  5
3D1
330
1F
100
AcDbEntity
  8
C-A
  6
Continuous
 62
     3
370
     9
100
AcDbLine
 10
-1052.389071235625
 20
676.0022500527875
 30
0.0
 11
-1052.389071235625
 21
681.6813882363813
 31
0.0
  0
LINE
  5
3D2
330
1F
100
AcDbEntity
  8
C-A
  6
Continuous
 62
     3
370
     9
100
AcDbLine
 10
-1057.338808784453
 20
676.0022500527875
 30
0.0
 11
-1057.338808784453
 21
681.6813882363813
 31
0.0
  0
LINE
  5
3D3
330
1F
100
AcDbEntity
  8
C-A
  6
Continuous
 62
     3
370
     9
100
AcDbLine
 10
-902.2883021926561
 20
689.6812356484907
 30
0.0
 11
-902.2883021926561
 21
695.3604043496625
 31
0.0
  0
LINE
  5
3D4
330
1F
100
AcDbEntity
  8
C-A
  6
Continuous
 62
     3
370
     9
100
AcDbLine
 10
-892.38833881375
 20
689.6812356484907
 30
0.0
 11
-892.38833881375
 21
695.3604043496625
 31
0.0
  0
LINE
  5
3D5
330
1F
100
AcDbEntity
  8
C-A
  6
Continuous
 62
     3
370
     9
100
AcDbLine
 10
-897.3385646438281
 20
689.6812356484907
 30
0.0
 11
-897.3385646438281
 21
695.3604043496625
 31
0.0
  0
LINE
  5
3D6
330
1F
100
AcDbEntity
  8
C-A
  6
Continuous
 62
     3
370
     9
100
AcDbLine
 10
-982.2881648635547
 20
689.6812356484907
 30
0.0
 11
-982.2881648635547
 21
695.3604043496625
 31
0.0
  0
LINE
  5
3D7
330
1F
100
AcDbEntity
  8
C-A
  6
Continuous
 62
     3
370
     9
100
AcDbLine
 10
-972.3882014846486
 20
689.6812356484907
 30
0.0
 11
-972.3882014846486
 21
695.3604043496625
 31
0.0
  0
LINE
  5
3D8
330
1F
100
AcDbEntity
  8
C-A
  6
Continuous
 62
     3
370
     9
100
AcDbLine
 10
-977.3384273147267
 20
689.6812356484907
 30
0.0
 11
-977.3384273147267
 21
695.3604043496625
 31
0.0
  0
LINE
  5
3D9
330
1F
100
AcDbEntity
  8
C-A
  6
Continuous
 62
     3
370
     9
100
AcDbLine
 10
-1062.288546333281
 20
689.6812356484907
 30
0.0
 11
-1062.288546333281
 21
695.3604043496625
 31
0.0
  0
LINE
  5
3DA
330
1F
100
AcDbEntity
  8
C-A
  6
Continuous
 62
     3
370
     9
100
AcDbLine
 10
-1052.389071235625
 20
689.6812356484907
 30
0.0
 11
-1052.389071235625
 21
695.3604043496625
 31
0.0
  0
LINE
  5
3DB
330
1F
100
AcDbEntity
  8
C-A
  6
Continuous
 62
     3
370
     9
100
AcDbLine
 10
-1057.338808784453
 20
689.6812356484907
 30
0.0
 11
-1057.338808784453
 21
695.3604043496625
 31
0.0
  0
LINE
  5
3DC
330
1F
100
AcDbEntity
  8
C-A
  6
Continuous
 62
     3
370
     9
100
AcDbLine
 10
-902.2883021926561
 20
703.360251761772
 30
0.0
 11
-902.2883021926561
 21
709.0393899453657
 31
0.0
  0
LINE
  5
3DD
330
1F
100
AcDbEntity
  8
C-A
  6
Continuous
 62
     3
370
     9
100
AcDbLine
 10
-892.38833881375
 20
703.360251761772
 30
0.0
 11
-892.38833881375
 21
709.0393899453657
 31
0.0
  0
LINE
  5
3DE
330
1F
100
AcDbEntity
  8
C-A
  6
Continuous
 62
     3
370
     9
100
AcDbLine
 10
-897.3385646438281
 20
703.360251761772
 30
0.0
 11
-897.3385646438281
 21
709.0393899453657
 31
0.0
  0
LINE
  5
3DF
330
1F
100
AcDbEntity
  8
C-A
  6
Continuous
 62
     3
370
     9
100
AcDbLine
 10
-982.2881648635547
 20
703.360251761772
 30
0.0
 11
-982.2881648635547
 21
709.0393899453657
 31
0.0
  0
LINE
  5
3E0
330
1F
100
AcDbEntity
  8
C-A
  6
Continuous
 62
     3
370
     9
100
AcDbLine
 10
-972.3882014846486
 20
703.360251761772
 30
0.0
 11
-972.3882014846486
 21
709.0393899453657
 31
0.0
  0
LINE
  5
3E1
330
1F
100
AcDbEntity
  8
C-A
  6
Continuous
 62
     3
370
     9
100
AcDbLine
 10
-977.3384273147267
 20
703.360251761772
 30
0.0
 11
-977.3384273147267
 21
709.0393899453657
 31
0.0
  0
LINE
  5
3E2
330
1F
100
AcDbEntity
  8
C-A
  6
Continuous
 62
     3
370
     9
100
AcDbLine
 10
-1062.288546333281
 20
703.360251761772
 30
0.0
 11
-1062.288546333281
 21
709.0393899453657
 31
0.0
  0
LINE
  5
3E3
330
1F
100
AcDbEntity
  8
C-A
  6
Continuous
 62
     3
370
     9
100
AcDbLine
 10
-1052.389071235625
 20
703.360251761772
 30
0.0
 11
-1052.389071235625
 21
709.0393899453657
 31
0.0
  0
LINE
  5
3E4
330
1F
100
AcDbEntity
  8
C-A
  6
Continuous
 62
     3
370
     9
100
AcDbLine
 10
-1057.338808784453
 20
703.360251761772
 30
0.0
 11
-1057.338808784453
 21
709.0393899453657
 31
0.0
  0
LINE
  5
3E5
330
1F
100
AcDbEntity
  8
C-A
  6
Continuous
 62
     3
370
     9
100
AcDbLine
 10
-902.2883021926561
 20
717.0392678750532
 30
0.0
 11
-902.2883021926561
 21
722.7184060586469
 31
0.0
  0
LINE
  5
3E6
330
1F
100
AcDbEntity
  8
C-A
  6
Continuous
 62
     3
370
     9
100
AcDbLine
 10
-892.38833881375
 20
717.0392678750532
 30
0.0
 11
-892.38833881375
 21
722.7184060586469
 31
0.0
  0
LINE
  5
3E7
330
1F
100
AcDbEntity
  8
C-A
  6
Continuous
 62
     3
370
     9
100
AcDbLine
 10
-897.3385646438281
 20
717.0392678750532
 30
0.0
 11
-897.3385646438281
 21
722.7184060586469
 31
0.0
  0
LINE
  5
3E8
330
1F
100
AcDbEntity
  8
C-A
  6
Continuous
 62
     3
370
     9
100
AcDbLine
 10
-982.2881648635547
 20
717.0392678750532
 30
0.0
 11
-982.2881648635547
 21
722.7184060586469
 31
0.0
  0
LINE
  5
3E9
330
1F
100
AcDbEntity
  8
C-A
  6
Continuous
 62
     3
370
     9
100
AcDbLine
 10
-972.3882014846486
 20
717.0392678750532
 30
0.0
 11
-972.3882014846486
 21
722.7184060586469
 31
0.0
  0
LINE
  5
3EA
330
1F
100
AcDbEntity
  8
C-A
  6
Continuous
 62
     3
370
     9
100
AcDbLine
 10
-977.3384273147267
 20
717.0392678750532
 30
0.0
 11
-977.3384273147267
 21
722.7184060586469
 31
0.0
  0
LINE
  5
3EB
330
1F
100
AcDbEntity
  8
C-A
  6
Continuous
 62
     3
370
     9
100
AcDbLine
 10
-1062.288546333281
 20
717.0392678750532
 30
0.0
 11
-1062.288546333281
 21
722.7184060586469
 31
0.0
  0
LINE
  5
3EC
330
1F
100
AcDbEntity
  8
C-A
  6
Continuous
 62
     3
370
     9
100
AcDbLine
 10
-1052.389071235625
 20
717.0392678750532
 30
0.0
 11
-1052.389071235625
 21
722.7184060586469
 31
0.0
  0
LINE
  5
3ED
330
1F
100
AcDbEntity
  8
C-A
  6
Continuous
 62
     3
370
     9
100
AcDbLine
 10
-1057.338808784453
 20
717.0392678750532
 30
0.0
 11
-1057.338808784453
 21
722.7184060586469
 31
0.0
  0
LINE
  5
3EE
330
1F
100
AcDbEntity
  8
C-A
  6
Continuous
 62
     3
370
     9
100
AcDbLine
 10
-902.2883021926561
 20
730.7182229531782
 30
0.0
 11
-902.2883021926561
 21
736.3974221719282
 31
0.0
  0
LINE
  5
3EF
330
1F
100
AcDbEntity
  8
C-A
  6
Continuous
 62
     3
370
     9
100
AcDbLine
 10
-892.38833881375
 20
730.7182229531782
 30
0.0
 11
-892.38833881375
 21
736.3974221719282
 31
0.0
  0
LINE
  5
3F0
330
1F
100
AcDbEntity
  8
C-A
  6
Continuous
 62
     3
370
     9
100
AcDbLine
 10
-897.3385646438281
 20
730.7182229531782
 30
0.0
 11
-897.3385646438281
 21
736.3974221719282
 31
0.0
  0
LINE
  5
3F1
330
1F
100
AcDbEntity
  8
C-A
  6
Continuous
 62
     3
370
     9
100
AcDbLine
 10
-982.2881648635547
 20
730.7182229531782
 30
0.0
 11
-982.2881648635547
 21
736.3974221719282
 31
0.0
  0
LINE
  5
3F2
330
1F
100
AcDbEntity
  8
C-A
  6
Continuous
 62
     3
370
     9
100
AcDbLine
 10
-972.3882014846486
 20
730.7182229531782
 30
0.0
 11
-972.3882014846486
 21
736.3974221719282
 31
0.0
  0
LINE
  5
3F3
330
1F
100
AcDbEntity
  8
C-A
  6
Continuous
 62
     3
370
     9
100
AcDbLine
 10
-977.3384273147267
 20
730.7182229531782
 30
0.0
 11
-977.3384273147267
 21
736.3974221719282
 31
0.0
  0
LINE
  5
3F4
330
1F
100
AcDbEntity
  8
C-A
  6
Continuous
 62
     3
370
     9
100
AcDbLine
 10
-1062.288546333281
 20
730.7182229531782
 30
0.0
 11
-1062.288546333281
 21
736.3974221719282
 31
0.0
  0
LINE
  5
3F5
330
1F
100
AcDbEntity
  8
C-A
  6
Continuous
 62
     3
370
     9
100
AcDbLine
 10
-1052.389071235625
 20
730.7182229531782
 30
0.0
 11
-1052.389071235625
 21
736.3974221719282
 31
0.0
  0
LINE
  5
3F6
330
1F
100
AcDbEntity
  8
C-A
  6
Continuous
 62
     3
370
     9
100
AcDbLine
 10
-1057.338808784453
 20
730.7182229531782
 30
0.0
 11
-1057.338808784453
 21
736.3974221719282
 31
0.0
  0
LINE
  5
3F7
330
1F
100
AcDbEntity
  8
C-A
  6
Continuous
 62
     3
370
     9
100
AcDbLine
 10
-902.2883021926561
 20
744.3972695840375
 30
0.0
 11
-902.2883021926561
 21
750.0763772500532
 31
0.0
  0
LINE
  5
3F8
330
1F
100
AcDbEntity
  8
C-A
  6
Continuous
 62
     3
370
     9
100
AcDbLine
 10
-892.38833881375
 20
744.3972695840375
 30
0.0
 11
-892.38833881375
 21
750.0763772500532
 31
0.0
  0
LINE
  5
3F9
330
1F
100
AcDbEntity
  8
C-A
  6
Continuous
 62
     3
370
     9
100
AcDbLine
 10
-897.3385646438281
 20
744.3972695840375
 30
0.0
 11
-897.3385646438281
 21
750.0763772500532
 31
0.0
  0
LINE
  5
3FA
330
1F
100
AcDbEntity
  8
C-A
  6
Continuous
 62
     3
370
     9
100
AcDbLine
 10
-982.2881648635547
 20
744.3972695840375
 30
0.0
 11
-982.2881648635547
 21
750.0763772500532
 31
0.0
  0
LINE
  5
3FB
330
1F
100
AcDbEntity
  8
C-A
  6
Continuous
 62
     3
370
     9
100
AcDbLine
 10
-972.3882014846486
 20
744.3972695840375
 30
0.0
 11
-972.3882014846486
 21
750.0763772500532
 31
0.0
  0
LINE
  5
3FC
330
1F
100
AcDbEntity
  8
C-A
  6
Continuous
 62
     3
370
     9
100
AcDbLine
 10
-977.3384273147267
 20
744.3972695840375
 30
0.0
 11
-977.3384273147267
 21
750.0763772500532
 31
0.0
  0
LINE
  5
3FD
330
1F
100
AcDbEntity
  8
C-A
  6
Continuous
 62
     3
370
     9
100
AcDbLine
 10
-1062.288546333281
 20
744.3972695840375
 30
0.0
 11
-1062.288546333281
 21
750.0763772500532
 31
0.0
  0
LINE
  5
3FE
330
1F
100
AcDbEntity
  8
C-A
  6
Continuous
 62
     3
370
     9
100
AcDbLine
 10
-1052.389071235625
 20
744.3972695840375
 30
0.0
 11
-1052.389071235625
 21
750.0763772500532
 31
0.0
  0
LINE
  5
3FF
330
1F
100
AcDbEntity
  8
C-A
  6
Continuous
 62
     3
370
     9
100
AcDbLine
 10
-1057.338808784453
 20
744.3972695840375
 30
0.0
 11
-1057.338808784453
 21
750.0763772500532
 31
0.0
  0
LINE
  5
400
330
1F
100
AcDbEntity
  8
C-A
  6
Continuous
 62
     3
370
     9
100
AcDbLine
 10
-902.2883021926561
 20
758.0762246621625
 30
0.0
 11
-902.2883021926561
 21
763.7554238809125
 31
0.0
  0
LINE
  5
401
330
1F
100
AcDbEntity
  8
C-A
  6
Continuous
 62
     3
370
     9
100
AcDbLine
 10
-892.38833881375
 20
758.0762246621625
 30
0.0
 11
-892.38833881375
 21
763.7554238809125
 31
0.0
  0
LINE
  5
402
330
1F
100
AcDbEntity
  8
C-A
  6
Continuous
 62
     3
370
     9
100
AcDbLine
 10
-897.3385646438281
 20
758.0762246621625
 30
0.0
 11
-897.3385646438281
 21
763.7554238809125
 31
0.0
  0
LINE
  5
403
330
1F
100
AcDbEntity
  8
C-A
  6
Continuous
 62
     3
370
     9
100
AcDbLine
 10
-982.2881648635547
 20
758.0762246621625
 30
0.0
 11
-982.2881648635547
 21
763.7554238809125
 31
0.0
  0
LINE
  5
404
330
1F
100
AcDbEntity
  8
C-A
  6
Continuous
 62
     3
370
     9
100
AcDbLine
 10
-972.3882014846486
 20
758.0762246621625
 30
0.0
 11
-972.3882014846486
 21
763.7554238809125
 31
0.0
  0
LINE
  5
405
330
1F
100
AcDbEntity
  8
C-A
  6
Continuous
 62
     3
370
     9
100
AcDbLine
 10
-977.3384273147267
 20
758.0762246621625
 30
0.0
 11
-977.3384273147267
 21
763.7554238809125
 31
0.0
  0
LINE
  5
406
330
1F
100
AcDbEntity
  8
C-A
  6
Continuous
 62
     3
370
     9
100
AcDbLine
 10
-1062.288546333281
 20
758.0762246621625
 30
0.0
 11
-1062.288546333281
 21
763.7554238809125
 31
0.0
  0
LINE
  5
407
330
1F
100
AcDbEntity
  8
C-A
  6
Continuous
 62
     3
370
     9
100
AcDbLine
 10
-1052.389071235625
 20
758.0762246621625
 30
0.0
 11
-1052.389071235625
 21
763.7554238809125
 31
0.0
  0
LINE
  5
408
330
1F
100
AcDbEntity
  8
C-A
  6
Continuous
 62
     3
370
     9
100
AcDbLine
 10
-1057.338808784453
 20
758.0762246621625
 30
0.0
 11
-1057.338808784453
 21
763.7554238809125
 31
0.0
  0
LINE
  5
409
330
1F
100
AcDbEntity
  8
C-A
  6
Continuous
 62
     3
370
     9
100
AcDbLine
 10
-902.2883021926561
 20
771.7552407754438
 30
0.0
 11
-902.2883021926561
 21
777.4343789590375
 31
0.0
  0
LINE
  5
40A
330
1F
100
AcDbEntity
  8
C-A
  6
Continuous
 62
     3
370
     9
100
AcDbLine
 10
-892.38833881375
 20
771.7552407754438
 30
0.0
 11
-892.38833881375
 21
777.4343789590375
 31
0.0
  0
LINE
  5
40B
330
1F
100
AcDbEntity
  8
C-A
  6
Continuous
 62
     3
370
     9
100
AcDbLine
 10
-897.3385646438281
 20
771.7552407754438
 30
0.0
 11
-897.3385646438281
 21
777.4343789590375
 31
0.0
  0
LINE
  5
40C
330
1F
100
AcDbEntity
  8
C-A
  6
Continuous
 62
     3
370
     9
100
AcDbLine
 10
-982.2881648635547
 20
771.7552407754438
 30
0.0
 11
-982.2881648635547
 21
777.4343789590375
 31
0.0
  0
LINE
  5
40D
330
1F
100
AcDbEntity
  8
C-A
  6
Continuous
 62
     3
370
     9
100
AcDbLine
 10
-972.3882014846486
 20
771.7552407754438
 30
0.0
 11
-972.3882014846486
 21
777.4343789590375
 31
0.0
  0
LINE
  5
40E
330
1F
100
AcDbEntity
  8
C-A
  6
Continuous
 62
     3
370
     9
100
AcDbLine
 10
-977.3384273147267
 20
771.7552407754438
 30
0.0
 11
-977.3384273147267
 21
777.4343789590375
 31
0.0
  0
LINE
  5
40F
330
1F
100
AcDbEntity
  8
C-A
  6
Continuous
 62
     3
370
     9
100
AcDbLine
 10
-1062.288546333281
 20
771.7552407754438
 30
0.0
 11
-1062.288546333281
 21
777.4343789590375
 31
0.0
  0
LINE
  5
410
330
1F
100
AcDbEntity
  8
C-A
  6
Continuous
 62
     3
370
     9
100
AcDbLine
 10
-1052.389071235625
 20
771.7552407754438
 30
0.0
 11
-1052.389071235625
 21
777.4343789590375
 31
0.0
  0
LINE
  5
411
330
1F
100
AcDbEntity
  8
C-A
  6
Continuous
 62
     3
370
     9
100
AcDbLine
 10
-1057.338808784453
 20
771.7552407754438
 30
0.0
 11
-1057.338808784453
 21
777.4343789590375
 31
0.0
  0
LINE
  5
412
330
1F
100
AcDbEntity
  8
C-A
  6
Continuous
 62
     3
370
     9
100
AcDbLine
 10
-902.2883021926561
 20
785.434226371147
 30
0.0
 11
-902.2883021926561
 21
791.1133950723189
 31
0.0
  0
LINE
  5
413
330
1F
100
AcDbEntity
  8
C-A
  6
Continuous
 62
     3
370
     9
100
AcDbLine
 10
-892.38833881375
 20
785.434226371147
 30
0.0
 11
-892.38833881375
 21
791.1133950723189
 31
0.0
  0
LINE
  5
414
330
1F
100
AcDbEntity
  8
C-A
  6
Continuous
 62
     3
370
     9
100
AcDbLine
 10
-897.3385646438281
 20
785.434226371147
 30
0.0
 11
-897.3385646438281
 21
791.1133950723189
 31
0.0
  0
LINE
  5
415
330
1F
100
AcDbEntity
  8
C-A
  6
Continuous
 62
     3
370
     9
100
AcDbLine
 10
-982.2881648635547
 20
785.434226371147
 30
0.0
 11
-982.2881648635547
 21
791.1133950723189
 31
0.0
  0
LINE
  5
416
330
1F
100
AcDbEntity
  8
C-A
  6
Continuous
 62
     3
370
     9
100
AcDbLine
 10
-972.3882014846486
 20
785.434226371147
 30
0.0
 11
-972.3882014846486
 21
791.1133950723189
 31
0.0
  0
LINE
  5
417
330
1F
100
AcDbEntity
  8
C-A
  6
Continuous
 62
     3
370
     9
100
AcDbLine
 10
-977.3384273147267
 20
785.434226371147
 30
0.0
 11
-977.3384273147267
 21
791.1133950723189
 31
0.0
  0
LINE
  5
418
330
1F
100
AcDbEntity
  8
C-A
  6
Continuous
 62
     3
370
     9
100
AcDbLine
 10
-1062.288546333281
 20
785.434226371147
 30
0.0
 11
-1062.288546333281
 21
791.1133950723189
 31
0.0
  0
LINE
  5
419
330
1F
100
AcDbEntity
  8
C-A
  6
Continuous
 62
     3
370
     9
100
AcDbLine
 10
-1052.389071235625
 20
785.434226371147
 30
0.0
 11
-1052.389071235625
 21
791.1133950723189
 31
0.0
  0
LINE
  5
41A
330
1F
100
AcDbEntity
  8
C-A
  6
Continuous
 62
     3
370
     9
100
AcDbLine
 10
-1057.338808784453
 20
785.434226371147
 30
0.0
 11
-1057.338808784453
 21
791.1133950723189
 31
0.0
  0
LINE
  5
41B
330
1F
100
AcDbEntity
  8
C-A
  6
Continuous
 62
     3
370
     9
100
AcDbLine
 10
-902.2883021926561
 20
799.1132424844282
 30
0.0
 11
-902.2883021926561
 21
804.7923501504438
 31
0.0
  0
LINE
  5
41C
330
1F
100
AcDbEntity
  8
C-A
  6
Continuous
 62
     3
370
     9
100
AcDbLine
 10
-892.38833881375
 20
799.1132424844282
 30
0.0
 11
-892.38833881375
 21
804.7923501504438
 31
0.0
  0
LINE
  5
41D
330
1F
100
AcDbEntity
  8
C-A
  6
Continuous
 62
     3
370
     9
100
AcDbLine
 10
-897.3385646438281
 20
799.1132424844282
 30
0.0
 11
-897.3385646438281
 21
804.7923501504438
 31
0.0
  0
LINE
  5
41E
330
1F
100
AcDbEntity
  8
C-A
  6
Continuous
 62
     3
370
     9
100
AcDbLine
 10
-982.2881648635547
 20
799.1132424844282
 30
0.0
 11
-982.2881648635547
 21
804.7923501504438
 31
0.0
  0
LINE
  5
41F
330
1F
100
AcDbEntity
  8
C-A
  6
Continuous
 62
     3
370
     9
100
AcDbLine
 10
-972.3882014846486
 20
799.1132424844282
 30
0.0
 11
-972.3882014846486
 21
804.7923501504438
 31
0.0
  0
LINE
  5
420
330
1F
100
AcDbEntity
  8
C-A
  6
Continuous
 62
     3
370
     9
100
AcDbLine
 10
-977.3384273147267
 20
799.1132424844282
 30
0.0
 11
-977.3384273147267
 21
804.7923501504438
 31
0.0
  0
LINE
  5
421
330
1F
100
AcDbEntity
  8
C-A
  6
Continuous
 62
     3
370
     9
100
AcDbLine
 10
-1062.288546333281
 20
799.1132424844282
 30
0.0
 11
-1062.288546333281
 21
804.7923501504438
 31
0.0
  0
LINE
  5
422
330
1F
100
AcDbEntity
  8
C-A
  6
Continuous
 62
     3
370
     9
100
AcDbLine
 10
-1052.389071235625
 20
799.1132424844282
 30
0.0
 11
-1052.389071235625
 21
804.7923501504438
 31
0.0
  0
LINE
  5
423
330
1F
100
AcDbEntity
  8
C-A
  6
Continuous
 62
     3
370
     9
100
AcDbLine
 10
-1057.338808784453
 20
799.1132424844282
 30
0.0
 11
-1057.338808784453
 21
804.7923501504438
 31
0.0
  0
LINE
  5
424
330
1F
100
AcDbEntity
  8
C-A
  6
Continuous
 62
     3
370
     9
100
AcDbLine
 10
-902.2883021926561
 20
812.7922585977094
 30
0.0
 11
-902.2883021926561
 21
818.4713967813032
 31
0.0
  0
LINE
  5
425
330
1F
100
AcDbEntity
  8
C-A
  6
Continuous
 62
     3
370
     9
100
AcDbLine
 10
-892.38833881375
 20
812.7922585977094
 30
0.0
 11
-892.38833881375
 21
818.4713967813032
 31
0.0
  0
LINE
  5
426
330
1F
100
AcDbEntity
  8
C-A
  6
Continuous
 62
     3
370
     9
100
AcDbLine
 10
-897.3385646438281
 20
812.7922585977094
 30
0.0
 11
-897.3385646438281
 21
818.4713967813032
 31
0.0
  0
LINE
  5
427
330
1F
100
AcDbEntity
  8
C-A
  6
Continuous
 62
     3
370
     9
100
AcDbLine
 10
-982.2881648635547
 20
812.7922585977094
 30
0.0
 11
-982.2881648635547
 21
818.4713967813032
 31
0.0
  0
LINE
  5
428
330
1F
100
AcDbEntity
  8
C-A
  6
Continuous
 62
     3
370
     9
100
AcDbLine
 10
-972.3882014846486
 20
812.7922585977094
 30
0.0
 11
-972.3882014846486
 21
818.4713967813032
 31
0.0
  0
LINE
  5
429
330
1F
100
AcDbEntity
  8
C-A
  6
Continuous
 62
     3
370
     9
100
AcDbLine
 10
-977.3384273147267
 20
812.7922585977094
 30
0.0
 11
-977.3384273147267
 21
818.4713967813032
 31
0.0
  0
LINE
  5
42A
330
1F
100
AcDbEntity
  8
C-A
  6
Continuous
 62
     3
370
     9
100
AcDbLine
 10
-1062.288546333281
 20
812.7922585977094
 30
0.0
 11
-1062.288546333281
 21
818.4713967813032
 31
0.0
  0
LINE
  5
42B
330
1F
100
AcDbEntity
  8
C-A
  6
Continuous
 62
     3
370
     9
100
AcDbLine
 10
-1052.389071235625
 20
812.7922585977094
 30
0.0
 11
-1052.389071235625
 21
818.4713967813032
 31
0.0
  0
LINE
  5
42C
330
1F
100
AcDbEntity
  8
C-A
  6
Continuous
 62
     3
370
     9
100
AcDbLine
 10
-1057.338808784453
 20
812.7922585977094
 30
0.0
 11
-1057.338808784453
 21
818.4713967813032
 31
0.0
  0
LINE
  5
42D
330
1F
100
AcDbEntity
  8
C-A
  6
Continuous
 62
     3
370
     9
100
AcDbLine
 10
-902.2883021926561
 20
826.4712441934125
 30
0.0
 11
-902.2883021926561
 21
832.1504128945844
 31
0.0
  0
LINE
  5
42E
330
1F
100
AcDbEntity
  8
C-A
  6
Continuous
 62
     3
370
     9
100
AcDbLine
 10
-892.38833881375
 20
826.4712441934125
 30
0.0
 11
-892.38833881375
 21
832.1504128945844
 31
0.0
  0
LINE
  5
42F
330
1F
100
AcDbEntity
  8
C-A
  6
Continuous
 62
     3
370
     9
100
AcDbLine
 10
-897.3385646438281
 20
826.4712441934125
 30
0.0
 11
-897.3385646438281
 21
832.1504128945844
 31
0.0
  0
LINE
  5
430
330
1F
100
AcDbEntity
  8
C-A
  6
Continuous
 62
     3
370
     9
100
AcDbLine
 10
-982.2881648635547
 20
826.4712441934125
 30
0.0
 11
-982.2881648635547
 21
832.1504128945844
 31
0.0
  0
LINE
  5
431
330
1F
100
AcDbEntity
  8
C-A
  6
Continuous
 62
     3
370
     9
100
AcDbLine
 10
-972.3882014846486
 20
826.4712441934125
 30
0.0
 11
-972.3882014846486
 21
832.1504128945844
 31
0.0
  0
LINE
  5
432
330
1F
100
AcDbEntity
  8
C-A
  6
Continuous
 62
     3
370
     9
100
AcDbLine
 10
-977.3384273147267
 20
826.4712441934125
 30
0.0
 11
-977.3384273147267
 21
832.1504128945844
 31
0.0
  0
LINE
  5
433
330
1F
100
AcDbEntity
  8
C-A
  6
Continuous
 62
     3
370
     9
100
AcDbLine
 10
-1062.288546333281
 20
826.4712441934125
 30
0.0
 11
-1062.288546333281
 21
832.1504128945844
 31
0.0
  0
LINE
  5
434
330
1F
100
AcDbEntity
  8
C-A
  6
Continuous
 62
     3
370
     9
100
AcDbLine
 10
-1052.389071235625
 20
826.4712441934125
 30
0.0
 11
-1052.389071235625
 21
832.1504128945844
 31
0.0
  0
LINE
  5
435
330
1F
100
AcDbEntity
  8
C-A
  6
Continuous
 62
     3
370
     9
100
AcDbLine
 10
-1057.338808784453
 20
826.4712441934125
 30
0.0
 11
-1057.338808784453
 21
832.1504128945844
 31
0.0
  0
LINE
  5
436
330
1F
100
AcDbEntity
  8
C-A
  6
Continuous
 62
     3
370
     9
100
AcDbLine
 10
-902.2883021926561
 20
840.1502603066939
 30
0.0
 11
-902.2883021926561
 21
845.8293679727094
 31
0.0
  0
LINE
  5
437
330
1F
100
AcDbEntity
  8
C-A
  6
Continuous
 62
     3
370
     9
100
AcDbLine
 10
-892.38833881375
 20
840.1502603066939
 30
0.0
 11
-892.38833881375
 21
845.8293679727094
 31
0.0
  0
LINE
  5
438
330
1F
100
AcDbEntity
  8
C-A
  6
Continuous
 62
     3
370
     9
100
AcDbLine
 10
-897.3385646438281
 20
840.1502603066939
 30
0.0
 11
-897.3385646438281
 21
845.8293679727094
 31
0.0
  0
LINE
  5
439
330
1F
100
AcDbEntity
  8
C-A
  6
Continuous
 62
     3
370
     9
100
AcDbLine
 10
-982.2881648635547
 20
840.1502603066939
 30
0.0
 11
-982.2881648635547
 21
845.8293679727094
 31
0.0
  0
LINE
  5
43A
330
1F
100
AcDbEntity
  8
C-A
  6
Continuous
 62
     3
370
     9
100
AcDbLine
 10
-972.3882014846486
 20
840.1502603066939
 30
0.0
 11
-972.3882014846486
 21
845.8293679727094
 31
0.0
  0
LINE
  5
43B
330
1F
100
AcDbEntity
  8
C-A
  6
Continuous
 62
     3
370
     9
100
AcDbLine
 10
-977.3384273147267
 20
840.1502603066939
 30
0.0
 11
-977.3384273147267
 21
845.8293679727094
 31
0.0
  0
LINE
  5
43C
330
1F
100
AcDbEntity
  8
C-A
  6
Continuous
 62
     3
370
     9
100
AcDbLine
 10
-1062.288546333281
 20
840.1502603066939
 30
0.0
 11
-1062.288546333281
 21
845.8293679727094
 31
0.0
  0
LINE
  5
43D
330
1F
100
AcDbEntity
  8
C-A
  6
Continuous
 62
     3
370
     9
100
AcDbLine
 10
-1052.389071235625
 20
840.1502603066939
 30
0.0
 11
-1052.389071235625
 21
845.8293679727094
 31
0.0
  0
LINE
  5
43E
330
1F
100
AcDbEntity
  8
C-A
  6
Continuous
 62
     3
370
     9
100
AcDbLine
 10
-1057.338808784453
 20
840.1502603066939
 30
0.0
 11
-1057.338808784453
 21
845.8293679727094
 31
0.0
  0
LINE
  5
43F
330
1F
100
AcDbEntity
  8
C-A
  6
Continuous
 62
     3
370
     9
100
AcDbLine
 10
-902.2883021926561
 20
853.8292153848188
 30
0.0
 11
-902.2883021926561
 21
859.5084146035688
 31
0.0
  0
LINE
  5
440
330
1F
100
AcDbEntity
  8
C-A
  6
Continuous
 62
     3
370
     9
100
AcDbLine
 10
-892.38833881375
 20
853.8292153848188
 30
0.0
 11
-892.38833881375
 21
859.5084146035688
 31
0.0
  0
LINE
  5
441
330
1F
100
AcDbEntity
  8
C-A
  6
Continuous
 62
     3
370
     9
100
AcDbLine
 10
-897.3385646438281
 20
853.8292153848188
 30
0.0
 11
-897.3385646438281
 21
859.5084146035688
 31
0.0
  0
LINE
  5
442
330
1F
100
AcDbEntity
  8
C-A
  6
Continuous
 62
     3
370
     9
100
AcDbLine
 10
-982.2881648635547
 20
853.8292153848188
 30
0.0
 11
-982.2881648635547
 21
859.5084146035688
 31
0.0
  0
LINE
  5
443
330
1F
100
AcDbEntity
  8
C-A
  6
Continuous
 62
     3
370
     9
100
AcDbLine
 10
-972.3882014846486
 20
853.8292153848188
 30
0.0
 11
-972.3882014846486
 21
859.5084146035688
 31
0.0
  0
LINE
  5
444
330
1F
100
AcDbEntity
  8
C-A
  6
Continuous
 62
     3
370
     9
100
AcDbLine
 10
-977.3384273147267
 20
853.8292153848188
 30
0.0
 11
-977.3384273147267
 21
859.5084146035688
 31
0.0
  0
LINE
  5
445
330
1F
100
AcDbEntity
  8
C-A
  6
Continuous
 62
     3
370
     9
100
AcDbLine
 10
-1062.288546333281
 20
853.8292153848188
 30
0.0
 11
-1062.288546333281
 21
859.5084146035688
 31
0.0
  0
LINE
  5
446
330
1F
100
AcDbEntity
  8
C-A
  6
Continuous
 62
     3
370
     9
100
AcDbLine
 10
-1052.389071235625
 20
853.8292153848188
 30
0.0
 11
-1052.389071235625
 21
859.5084146035688
 31
0.0
  0
LINE
  5
447
330
1F
100
AcDbEntity
  8
C-A
  6
Continuous
 62
     3
370
     9
100
AcDbLine
 10
-1057.338808784453
 20
853.8292153848188
 30
0.0
 11
-1057.338808784453
 21
859.5084146035688
 31
0.0
  0
LINE
  5
448
330
1F
100
AcDbEntity
  8
C-A
  6
Continuous
 62
     3
370
     9
100
AcDbLine
 10
-902.2883021926561
 20
867.5082620156782
 30
0.0
 11
-902.2883021926561
 21
873.1873696816939
 31
0.0
  0
LINE
  5
449
330
1F
100
AcDbEntity
  8
C-A
  6
Continuous
 62
     3
370
     9
100
AcDbLine
 10
-892.38833881375
 20
867.5082620156782
 30
0.0
 11
-892.38833881375
 21
873.1873696816939
 31
0.0
  0
LINE
  5
44A
330
1F
100
AcDbEntity
  8
C-A
  6
Continuous
 62
     3
370
     9
100
AcDbLine
 10
-897.3385646438281
 20
867.5082620156782
 30
0.0
 11
-897.3385646438281
 21
873.1873696816939
 31
0.0
  0
LINE
  5
44B
330
1F
100
AcDbEntity
  8
C-A
  6
Continuous
 62
     3
370
     9
100
AcDbLine
 10
-982.2881648635547
 20
867.5082620156782
 30
0.0
 11
-982.2881648635547
 21
873.1873696816939
 31
0.0
  0
LINE
  5
44C
330
1F
100
AcDbEntity
  8
C-A
  6
Continuous
 62
     3
370
     9
100
AcDbLine
 10
-972.3882014846486
 20
867.5082620156782
 30
0.0
 11
-972.3882014846486
 21
873.1873696816939
 31
0.0
  0
LINE
  5
44D
330
1F
100
AcDbEntity
  8
C-A
  6
Continuous
 62
     3
370
     9
100
AcDbLine
 10
-977.3384273147267
 20
867.5082620156782
 30
0.0
 11
-977.3384273147267
 21
873.1873696816939
 31
0.0
  0
LINE
  5
44E
330
1F
100
AcDbEntity
  8
C-A
  6
Continuous
 62
     3
370
     9
100
AcDbLine
 10
-1062.288546333281
 20
867.5082620156782
 30
0.0
 11
-1062.288546333281
 21
873.1873696816939
 31
0.0
  0
LINE
  5
44F
330
1F
100
AcDbEntity
  8
C-A
  6
Continuous
 62
     3
370
     9
100
AcDbLine
 10
-1052.389071235625
 20
867.5082620156782
 30
0.0
 11
-1052.389071235625
 21
873.1873696816939
 31
0.0
  0
LINE
  5
450
330
1F
100
AcDbEntity
  8
C-A
  6
Continuous
 62
     3
370
     9
100
AcDbLine
 10
-1057.338808784453
 20
867.5082620156782
 30
0.0
 11
-1057.338808784453
 21
873.1873696816939
 31
0.0
  0
LINE
  5
451
330
1F
100
AcDbEntity
  8
C-A
  6
Continuous
 62
     3
370
     9
100
AcDbLine
 10
-902.2883021926561
 20
881.1872170938032
 30
0.0
 11
-902.2883021926561
 21
886.866385794975
 31
0.0
  0
LINE
  5
452
330
1F
100
AcDbEntity
  8
C-A
  6
Continuous
 62
     3
370
     9
100
AcDbLine
 10
-892.38833881375
 20
881.1872170938032
 30
0.0
 11
-892.38833881375
 21
886.866385794975
 31
0.0
  0
LINE
  5
453
330
1F
100
AcDbEntity
  8
C-A
  6
Continuous
 62
     3
370
     9
100
AcDbLine
 10
-897.3385646438281
 20
881.1872170938032
 30
0.0
 11
-897.3385646438281
 21
886.866385794975
 31
0.0
  0
LINE
  5
454
330
1F
100
AcDbEntity
  8
C-A
  6
Continuous
 62
     3
370
     9
100
AcDbLine
 10
-982.2881648635547
 20
881.1872170938032
 30
0.0
 11
-982.2881648635547
 21
886.866385794975
 31
0.0
  0
LINE
  5
455
330
1F
100
AcDbEntity
  8
C-A
  6
Continuous
 62
     3
370
     9
100
AcDbLine
 10
-972.3882014846486
 20
881.1872170938032
 30
0.0
 11
-972.3882014846486
 21
886.866385794975
 31
0.0
  0
LINE
  5
456
330
1F
100
AcDbEntity
  8
C-A
  6
Continuous
 62
     3
370
     9
100
AcDbLine
 10
-977.3384273147267
 20
881.1872170938032
 30
0.0
 11
-977.3384273147267
 21
886.866385794975
 31
0.0
  0
LINE
  5
457
330
1F
100
AcDbEntity
  8
C-A
  6
Continuous
 62
     3
370
     9
100
AcDbLine
 10
-1062.288546333281
 20
881.1872170938032
 30
0.0
 11
-1062.288546333281
 21
886.866385794975
 31
0.0
  0
LINE
  5
458
330
1F
100
AcDbEntity
  8
C-A
  6
Continuous
 62
     3
370
     9
100
AcDbLine
 10
-1052.389071235625
 20
881.1872170938032
 30
0.0
 11
-1052.389071235625
 21
886.866385794975
 31
0.0
  0
LINE
  5
459
330
1F
100
AcDbEntity
  8
C-A
  6
Continuous
 62
     3
370
     9
100
AcDbLine
 10
-1057.338808784453
 20
881.1872170938032
 30
0.0
 11
-1057.338808784453
 21
886.866385794975
 31
0.0
  0
LINE
  5
45A
330
1F
100
AcDbEntity
  8
C-A
  6
Continuous
 62
     3
370
     9
100
AcDbLine
 10
-822.2884242629688
 20
730.7182229531782
 30
0.0
 11
-822.2884242629688
 21
736.3974221719282
 31
0.0
  0
LINE
  5
45B
330
1F
100
AcDbEntity
  8
C-A
  6
Continuous
 62
     3
370
     9
100
AcDbLine
 10
-812.3884608840625
 20
730.7182229531782
 30
0.0
 11
-812.3884608840625
 21
736.3974221719282
 31
0.0
  0
LINE
  5
45C
330
1F
100
AcDbEntity
  8
C-A
  6
Continuous
 62
     3
370
     9
100
AcDbLine
 10
-817.3386867141407
 20
730.7182229531782
 30
0.0
 11
-817.3386867141407
 21
736.3974221719282
 31
0.0
  0
LINE
  5
45D
330
1F
100
AcDbEntity
  8
C-A
  6
Continuous
 62
     3
370
     9
100
AcDbLine
 10
-822.2884242629688
 20
744.3972695840375
 30
0.0
 11
-822.2884242629688
 21
750.0763772500532
 31
0.0
  0
LINE
  5
45E
330
1F
100
AcDbEntity
  8
C-A
  6
Continuous
 62
     3
370
     9
100
AcDbLine
 10
-812.3884608840625
 20
744.3972695840375
 30
0.0
 11
-812.3884608840625
 21
750.0763772500532
 31
0.0
  0
LINE
  5
45F
330
1F
100
AcDbEntity
  8
C-A
  6
Continuous
 62
     3
370
     9
100
AcDbLine
 10
-817.3386867141407
 20
744.3972695840375
 30
0.0
 11
-817.3386867141407
 21
750.0763772500532
 31
0.0
  0
LINE
  5
460
330
1F
100
AcDbEntity
  8
C-A
  6
Continuous
 62
     3
370
     9
100
AcDbLine
 10
-822.2884242629688
 20
758.0762246621625
 30
0.0
 11
-822.2884242629688
 21
763.7554238809125
 31
0.0
  0
LINE
  5
461
330
1F
100
AcDbEntity
  8
C-A
  6
Continuous
 62
     3
370
     9
100
AcDbLine
 10
-812.3884608840625
 20
758.0762246621625
 30
0.0
 11
-812.3884608840625
 21
763.7554238809125
 31
0.0
  0
LINE
  5
462
330
1F
100
AcDbEntity
  8
C-A
  6
Continuous
 62
     3
370
     9
100
AcDbLine
 10
-817.3386867141407
 20
758.0762246621625
 30
0.0
 11
-817.3386867141407
 21
763.7554238809125
 31
0.0
  0
LINE
  5
463
330
1F
100
AcDbEntity
  8
C-A
  6
Continuous
 62
     3
370
     9
100
AcDbLine
 10
-822.2884242629688
 20
771.7552407754438
 30
0.0
 11
-822.2884242629688
 21
777.4343789590375
 31
0.0
  0
LINE
  5
464
330
1F
100
AcDbEntity
  8
C-A
  6
Continuous
 62
     3
370
     9
100
AcDbLine
 10
-812.3884608840625
 20
771.7552407754438
 30
0.0
 11
-812.3884608840625
 21
777.4343789590375
 31
0.0
  0
LINE
  5
465
330
1F
100
AcDbEntity
  8
C-A
  6
Continuous
 62
     3
370
     9
100
AcDbLine
 10
-817.3386867141407
 20
771.7552407754438
 30
0.0
 11
-817.3386867141407
 21
777.4343789590375
 31
0.0
  0
LINE
  5
466
330
1F
100
AcDbEntity
  8
C-A
  6
Continuous
 62
     3
370
     9
100
AcDbLine
 10
-822.2884242629688
 20
785.434226371147
 30
0.0
 11
-822.2884242629688
 21
791.1133950723189
 31
0.0
  0
LINE
  5
467
330
1F
100
AcDbEntity
  8
C-A
  6
Continuous
 62
     3
370
     9
100
AcDbLine
 10
-812.3884608840625
 20
785.434226371147
 30
0.0
 11
-812.3884608840625
 21
791.1133950723189
 31
0.0
  0
LINE
  5
468
330
1F
100
AcDbEntity
  8
C-A
  6
Continuous
 62
     3
370
     9
100
AcDbLine
 10
-817.3386867141407
 20
785.434226371147
 30
0.0
 11
-817.3386867141407
 21
791.1133950723189
 31
0.0
  0
LINE
  5
469
330
1F
100
AcDbEntity
  8
C-A
  6
Continuous
 62
     3
370
     9
100
AcDbLine
 10
-822.2884242629688
 20
799.1132424844282
 30
0.0
 11
-822.2884242629688
 21
804.7923501504438
 31
0.0
  0
LINE
  5
46A
330
1F
100
AcDbEntity
  8
C-A
  6
Continuous
 62
     3
370
     9
100
AcDbLine
 10
-812.3884608840625
 20
799.1132424844282
 30
0.0
 11
-812.3884608840625
 21
804.7923501504438
 31
0.0
  0
LINE
  5
46B
330
1F
100
AcDbEntity
  8
C-A
  6
Continuous
 62
     3
370
     9
100
AcDbLine
 10
-817.3386867141407
 20
799.1132424844282
 30
0.0
 11
-817.3386867141407
 21
804.7923501504438
 31
0.0
  0
LINE
  5
46C
330
1F
100
AcDbEntity
  8
C-A
  6
Continuous
 62
     3
370
     9
100
AcDbLine
 10
-822.2884242629688
 20
812.7922585977094
 30
0.0
 11
-822.2884242629688
 21
818.4713967813032
 31
0.0
  0
LINE
  5
46D
330
1F
100
AcDbEntity
  8
C-A
  6
Continuous
 62
     3
370
     9
100
AcDbLine
 10
-812.3884608840625
 20
812.7922585977094
 30
0.0
 11
-812.3884608840625
 21
818.4713967813032
 31
0.0
  0
LINE
  5
46E
330
1F
100
AcDbEntity
  8
C-A
  6
Continuous
 62
     3
370
     9
100
AcDbLine
 10
-817.3386867141407
 20
812.7922585977094
 30
0.0
 11
-817.3386867141407
 21
818.4713967813032
 31
0.0
  0
LINE
  5
46F
330
1F
100
AcDbEntity
  8
C-A
  6
Continuous
 62
     3
370
     9
100
AcDbLine
 10
-822.2884242629688
 20
826.4712441934125
 30
0.0
 11
-822.2884242629688
 21
832.1504128945844
 31
0.0
  0
LINE
  5
470
330
1F
100
AcDbEntity
  8
C-A
  6
Continuous
 62
     3
370
     9
100
AcDbLine
 10
-812.3884608840625
 20
826.4712441934125
 30
0.0
 11
-812.3884608840625
 21
832.1504128945844
 31
0.0
  0
LINE
  5
471
330
1F
100
AcDbEntity
  8
C-A
  6
Continuous
 62
     3
370
     9
100
AcDbLine
 10
-817.3386867141407
 20
826.4712441934125
 30
0.0
 11
-817.3386867141407
 21
832.1504128945844
 31
0.0
  0
LINE
  5
472
330
1F
100
AcDbEntity
  8
C-A
  6
Continuous
 62
     3
370
     9
100
AcDbLine
 10
-822.2884242629688
 20
840.1502603066939
 30
0.0
 11
-822.2884242629688
 21
845.8293679727094
 31
0.0
  0
LINE
  5
473
330
1F
100
AcDbEntity
  8
C-A
  6
Continuous
 62
     3
370
     9
100
AcDbLine
 10
-812.3884608840625
 20
840.1502603066939
 30
0.0
 11
-812.3884608840625
 21
845.8293679727094
 31
0.0
  0
LINE
  5
474
330
1F
100
AcDbEntity
  8
C-A
  6
Continuous
 62
     3
370
     9
100
AcDbLine
 10
-817.3386867141407
 20
840.1502603066939
 30
0.0
 11
-817.3386867141407
 21
845.8293679727094
 31
0.0
  0
LINE
  5
475
330
1F
100
AcDbEntity
  8
C-A
  6
Continuous
 62
     3
370
     9
100
AcDbLine
 10
-822.2884242629688
 20
853.8292153848188
 30
0.0
 11
-822.2884242629688
 21
859.5084146035688
 31
0.0
  0
LINE
  5
476
330
1F
100
AcDbEntity
  8
C-A
  6
Continuous
 62
     3
370
     9
100
AcDbLine
 10
-812.3884608840625
 20
853.8292153848188
 30
0.0
 11
-812.3884608840625
 21
859.5084146035688
 31
0.0
  0
LINE
  5
477
330
1F
100
AcDbEntity
  8
C-A
  6
Continuous
 62
     3
370
     9
100
AcDbLine
 10
-817.3386867141407
 20
853.8292153848188
 30
0.0
 11
-817.3386867141407
 21
859.5084146035688
 31
0.0
  0
LINE
  5
478
330
1F
100
AcDbEntity
  8
C-A
  6
Continuous
 62
     3
370
     9
100
AcDbLine
 10
-822.2884242629688
 20
867.5082620156782
 30
0.0
 11
-822.2884242629688
 21
873.1873696816939
 31
0.0
  0
LINE
  5
479
330
1F
100
AcDbEntity
  8
C-A
  6
Continuous
 62
     3
370
     9
100
AcDbLine
 10
-812.3884608840625
 20
867.5082620156782
 30
0.0
 11
-812.3884608840625
 21
873.1873696816939
 31
0.0
  0
LINE
  5
47A
330
1F
100
AcDbEntity
  8
C-A
  6
Continuous
 62
     3
370
     9
100
AcDbLine
 10
-817.3386867141407
 20
867.5082620156782
 30
0.0
 11
-817.3386867141407
 21
873.1873696816939
 31
0.0
  0
LINE
  5
47B
330
1F
100
AcDbEntity
  8
C-A
  6
Continuous
 62
     3
370
     9
100
AcDbLine
 10
-822.2884242629688
 20
881.1872170938032
 30
0.0
 11
-822.2884242629688
 21
886.866385794975
 31
0.0
  0
LINE
  5
47C
330
1F
100
AcDbEntity
  8
C-A
  6
Continuous
 62
     3
370
     9
100
AcDbLine
 10
-812.3884608840625
 20
881.1872170938032
 30
0.0
 11
-812.3884608840625
 21
886.866385794975
 31
0.0
  0
LINE
  5
47D
330
1F
100
AcDbEntity
  8
C-A
  6
Continuous
 62
     3
370
     9
100
AcDbLine
 10
-817.3386867141407
 20
881.1872170938032
 30
0.0
 11
-817.3386867141407
 21
886.866385794975
 31
0.0
  0
LINE
  5
47E
330
1F
100
AcDbEntity
  8
C-2
  6
Continuous
 62
     3
370
     9
100
AcDbLine
 10
-1112.338320503203
 20
894.89153227935
 30
0.0
 11
-762.3381679153125
 21
894.89153227935
 31
0.0
  0
LINE
  5
47F
330
1F
100
AcDbEntity
  8
C-A
  6
Continuous
 62
     3
370
     9
100
AcDbLine
 10
-765.3382289504686
 20
886.8666299356
 30
0.0
 11
-1109.338259468047
 21
886.8666299356
 31
0.0
  0
LINE
  5
480
330
1F
100
AcDbEntity
  8
C-A
  6
Continuous
 62
     3
370
     9
100
AcDbLine
 10
-765.3382289504686
 20
812.7926858438032
 30
0.0
 11
-1109.338259468047
 21
812.7926858438032
 31
0.0
  0
LINE
  5
481
330
1F
100
AcDbEntity
  8
C-A
  6
Continuous
 62
     3
370
     9
100
AcDbLine
 10
-765.3382289504686
 20
818.4716409219283
 30
0.0
 11
-1109.338259468047
 21
818.4716409219283
 31
0.0
  0
LINE
  5
482
330
1F
100
AcDbEntity
  8
C-A
  6
Continuous
 62
     3
370
     9
100
AcDbLine
 10
-765.3382289504686
 20
826.4717324746625
 30
0.0
 11
-1109.338259468047
 21
826.4717324746625
 31
0.0
  0
LINE
  5
483
330
1F
100
AcDbEntity
  8
C-A
  6
Continuous
 62
     3
370
     9
100
AcDbLine
 10
-765.3382289504686
 20
832.1506570352094
 30
0.0
 11
-1109.338259468047
 21
832.1506570352094
 31
0.0
  0
LINE
  5
484
330
1F
100
AcDbEntity
  8
C-A
  6
Continuous
 62
     3
370
     9
100
AcDbLine
 10
-765.3382289504686
 20
840.1507485879438
 30
0.0
 11
-1109.338259468047
 21
840.1507485879438
 31
0.0
  0
LINE
  5
485
330
1F
100
AcDbEntity
  8
C-A
  6
Continuous
 62
     3
370
     9
100
AcDbLine
 10
-765.3382289504686
 20
845.8296426309125
 30
0.0
 11
-1109.338259468047
 21
845.8296426309125
 31
0.0
  0
LINE
  5
486
330
1F
100
AcDbEntity
  8
C-A
  6
Continuous
 62
     3
370
     9
100
AcDbLine
 10
-765.3382289504686
 20
853.8297036660688
 30
0.0
 11
-1109.338259468047
 21
853.8297036660688
 31
0.0
  0
LINE
  5
487
330
1F
100
AcDbEntity
  8
C-A
  6
Continuous
 62
     3
370
     9
100
AcDbLine
 10
-765.3382289504686
 20
859.5086587441938
 30
0.0
 11
-1109.338259468047
 21
859.5086587441938
 31
0.0
  0
LINE
  5
488
330
1F
100
AcDbEntity
  8
C-A
  6
Continuous
 62
     3
370
     9
100
AcDbLine
 10
-765.3382289504686
 20
867.5087502969282
 30
0.0
 11
-1109.338259468047
 21
867.5087502969282
 31
0.0
  0
LINE
  5
489
330
1F
100
AcDbEntity
  8
C-A
  6
Continuous
 62
     3
370
     9
100
AcDbLine
 10
-765.3382289504686
 20
873.1876138223188
 30
0.0
 11
-1109.338259468047
 21
873.1876138223188
 31
0.0
  0
LINE
  5
48A
330
1F
100
AcDbEntity
  8
C-A
  6
Continuous
 62
     3
370
     9
100
AcDbLine
 10
-765.3382289504686
 20
881.1877053750533
 30
0.0
 11
-1109.338259468047
 21
881.1877053750533
 31
0.0
  0
LINE
  5
48B
330
1F
100
AcDbEntity
  8
C-4
  6
Continuous
 62
     7
370
     9
100
AcDbLine
 10
-1112.338320503203
 20
994.891288138725
 30
0.0
 11
-762.3381679153125
 21
994.891288138725
 31
0.0
  0
LINE
  5
48C
330
1F
100
AcDbEntity
  8
C-4
  6
Continuous
 62
     7
370
     9
100
AcDbLine
 10
-1087.338457832305
 20
997.8912271035688
 30
0.0
 11
-1087.338457832305
 21
932.8914102090375
 31
0.0
  0
LINE
  5
48D
330
1F
100
AcDbEntity
  8
C-4
  6
Continuous
 62
     7
370
     9
100
AcDbLine
 10
-787.3385341262501
 20
997.8912271035688
 30
0.0
 11
-787.3385341262501
 21
932.8914102090375
 31
0.0
  0
LINE
  5
48E
330
1F
100
AcDbEntity
  8
C-4
  6
Continuous
 62
     7
370
     9
100
AcDbLine
 10
-1113.338175544707
 20
1072.891166068413
 30
0.0
 11
-1113.338175544707
 21
932.8914102090375
 31
0.0
  0
LINE
  5
48F
330
1F
100
AcDbEntity
  8
C-4
  6
Continuous
 62
     7
370
     9
100
AcDbLine
 10
-1112.338320503203
 20
1072.891166068413
 30
0.0
 11
-1112.338320503203
 21
932.8914102090375
 31
0.0
  0
LINE
  5
490
330
1F
100
AcDbEntity
  8
C-4
  6
Continuous
 62
     7
370
     9
100
AcDbLine
 10
-762.3381679153125
 20
1072.891166068413
 30
0.0
 11
-762.3381679153125
 21
932.8914102090375
 31
0.0
  0
LINE
  5
491
330
1F
100
AcDbEntity
  8
C-4
  6
Continuous
 62
     7
370
     9
100
AcDbLine
 10
-761.3383205032032
 20
1072.891166068413
 30
0.0
 11
-761.3383205032032
 21
932.8914102090375
 31
0.0
  0
LWPOLYLINE
  5
492
330
1F
100
AcDbEntity
  8
C-4
  6
Continuous
 62
     7
370
     9
100
AcDbPolyline
 90
        4
 70
     1
 43
1.0
 10
-1086.838457832305
 20
994.891288138725
 42
0.4142135623731
 10
-1087.338457832305
 20
995.3912881387249
 42
0.4142135623731
 10
-1087.838457832305
 20
994.891288138725
 42
0.4142135623731
 10
-1087.338457832305
 20
994.391288138725
 42
0.4142135623731
  0
LWPOLYLINE
  5
493
330
1F
100
AcDbEntity
  8
C-4
  6
Continuous
 62
     7
370
     9
100
AcDbPolyline
 90
        4
 70
     1
 43
1.0
 10
-786.8385341262501
 20
994.891288138725
 42
0.4142135623731
 10
-787.3385341262501
 20
995.3912881387249
 42
0.4142135623731
 10
-787.8385341262501
 20
994.891288138725
 42
0.4142135623731
 10
-787.3385341262501
 20
994.391288138725
 42
0.4142135623731
  0
LWPOLYLINE
  5
494
330
1F
100
AcDbEntity
  8
C-4
  6
Continuous
 62
     7
370
     9
100
AcDbPolyline
 90
        4
 70
     1
 43
1.0
 10
-1112.838175544707
 20
1069.891227103569
 42
0.4142135623731
 10
-1113.338175544707
 20
1070.391227103569
 42
0.4142135623731
 10
-1113.838175544707
 20
1069.891227103569
 42
0.4142135623731
 10
-1113.338175544707
 20
1069.391227103569
 42
0.4142135623731
  0
LWPOLYLINE
  5
495
330
1F
100
AcDbEntity
  8
C-4
  6
Continuous
 62
     7
370
     9
100
AcDbPolyline
 90
        4
 70
     1
 43
1.0
 10
-1111.838320503203
 20
1069.891227103569
 42
0.4142135623731
 10
-1112.338320503203
 20
1070.391227103569
 42
0.4142135623731
 10
-1112.838320503203
 20
1069.891227103569
 42
0.4142135623731
 10
-1112.338320503203
 20
1069.391227103569
 42
0.4142135623731
  0
LWPOLYLINE
  5
496
330
1F
100
AcDbEntity
  8
C-4
  6
Continuous
 62
     7
370
     9
100
AcDbPolyline
 90
        4
 70
     1
 43
1.0
 10
-761.8381679153126
 20
1069.891227103569
 42
0.4142135623731
 10
-762.3381679153125
 20
1070.391227103569
 42
0.4142135623731
 10
-762.8381679153125
 20
1069.891227103569
 42
0.4142135623731
 10
-762.3381679153125
 20
1069.391227103569
 42
0.4142135623731
  0
LWPOLYLINE
  5
497
330
1F
100
AcDbEntity
  8
C-4
  6
Continuous
 62
     7
370
     9
100
AcDbPolyline
 90
        4
 70
     1
 43
1.0
 10
-760.8383205032032
 20
1069.891227103569
 42
0.4142135623731
 10
-761.3383205032032
 20
1070.391227103569
 42
0.4142135623731
 10
-761.8383205032032
 20
1069.891227103569
 42
0.4142135623731
 10
-761.3383205032032
 20
1069.391227103569
 42
0.4142135623731
  0
LWPOLYLINE
  5
498
330
1F
100
AcDbEntity
  8
C-4
  6
Continuous
 62
     7
370
     9
100
AcDbPolyline
 90
        4
 70
     1
 43
1.0
 10
-1111.838320503203
 20
994.891288138725
 42
0.4142135623731
 10
-1112.338320503203
 20
995.3912881387249
 42
0.4142135623731
 10
-1112.838320503203
 20
994.891288138725
 42
0.4142135623731
 10
-1112.338320503203
 20
994.391288138725
 42
0.4142135623731
  0
LWPOLYLINE
  5
499
330
1F
100
AcDbEntity
  8
C-4
  6
Continuous
 62
     7
370
     9
100
AcDbPolyline
 90
        4
 70
     1
 43
1.0
 10
-761.8381679153126
 20
994.891288138725
 42
0.4142135623731
 10
-762.3381679153125
 20
995.3912881387249
 42
0.4142135623731
 10
-762.8381679153125
 20
994.891288138725
 42
0.4142135623731
 10
-762.3381679153125
 20
994.391288138725
 42
0.4142135623731
  0
TEXT
  5
49A
330
1F
100
AcDbEntity
  8
C-4
  6
Continuous
 62
     2
370
     9
100
AcDbText
 10
-969.838518867461
 20
1005.531288138725
 30
0.0
 40
30.48
  1
300
 41
1.083333333333333
  7
ＭＳ ゴシック
100
AcDbText
  0
TEXT
  5
49B
330
1F
100
AcDbEntity
  8
C-4
  6
Continuous
 62
     2
370
     9
100
AcDbText
 10
-969.838518867461
 20
1080.531288138725
 30
0.0
 40
30.48
  1
350
 41
1.083333333333333
  7
ＭＳ ゴシック
100
AcDbText
  0
TEXT
  5
49C
330
1F
100
AcDbEntity
  8
C-4
  6
Continuous
 62
     2
370
     9
100
AcDbText
 10
-796.5973537063281
 20
1080.531288138725
 30
0.0
 40
30.48
  1
1
 41
0.9999999999999998
  7
ＭＳ ゴシック
100
AcDbText
  0
TEXT
  5
49D
330
1F
100
AcDbEntity
  8
C-4
  6
Continuous
 62
     2
370
     9
100
AcDbText
 10
-1100.832545051543
 20
1080.531288138725
 30
0.0
 40
30.48
  1
1
 41
0.9999999999999998
  7
ＭＳ ゴシック
100
AcDbText
  0
TEXT
  5
49E
330
1F
100
AcDbEntity
  8
C-4
  6
Continuous
 62
     2
370
     9
100
AcDbText
 10
-822.3121974563281
 20
1005.531288138725
 30
0.0
 40
30.48
  1
25
 41
1.0625
  7
ＭＳ ゴシック
100
AcDbText
  0
TEXT
  5
49F
330
1F
100
AcDbEntity
  8
C-4
  6
Continuous
 62
     2
370
     9
100
AcDbText
 10
-1098.46915699002
 20
1005.531288138725
 30
0.0
 40
30.48
  1
25
 41
1.0625
  7
ＭＳ ゴシック
100
AcDbText
  0
LINE
  5
4A0
330
1F
100
AcDbEntity
  8
C-4
  6
Continuous
 62
     7
370
     9
100
AcDbLine
 10
-1161.949816474883
 20
1069.891227103569
 30
0.0
 11
-1113.338175544707
 21
1069.891227103569
 31
0.0
  0
LINE
  5
4A1
330
1F
100
AcDbEntity
  8
C-4
  6
Continuous
 62
     7
370
     9
100
AcDbLine
 10
-1118.338160285918
 20
1147.891288138725
 30
0.0
 11
-1118.338160285918
 21
932.8914102090375
 31
0.0
  0
LWPOLYLINE
  5
4A2
330
1F
100
AcDbEntity
  8
C-4
  6
Continuous
 62
     7
370
     9
100
AcDbPolyline
 90
        4
 70
     1
 43
1.0
 10
-1117.838160285918
 20
1069.891227103569
 42
0.4142135623731
 10
-1118.338160285918
 20
1070.391227103569
 42
0.4142135623731
 10
-1118.838160285918
 20
1069.891227103569
 42
0.4142135623731
 10
-1118.338160285918
 20
1069.391227103569
 42
0.4142135623731
  0
LWPOLYLINE
  5
4A3
330
1F
100
AcDbEntity
  8
C-4
  6
Continuous
 62
     7
370
     9
100
AcDbPolyline
 90
        4
 70
     1
 43
1.0
 10
-1117.838160285918
 20
1144.891227103569
 42
0.4142135623731
 10
-1118.338160285918
 20
1145.391227103569
 42
0.4142135623731
 10
-1118.838160285918
 20
1144.891227103569
 42
0.4142135623731
 10
-1118.338160285918
 20
1144.391227103569
 42
0.4142135623731
  0
LINE
  5
4A4
330
1F
100
AcDbEntity
  8
C-4
  6
Continuous
 62
     7
370
     9
100
AcDbLine
 10
-761.3383205032032
 20
1069.891227103569
 30
0.0
 11
-711.8630702590624
 21
1069.891227103569
 31
0.0
  0
LINE
  5
4A5
330
1F
100
AcDbEntity
  8
C-4
  6
Continuous
 62
     7
370
     9
100
AcDbLine
 10
-756.3383510207813
 20
1147.891288138725
 30
0.0
 11
-756.3383510207813
 21
932.8914102090375
 31
0.0
  0
LWPOLYLINE
  5
4A6
330
1F
100
AcDbEntity
  8
C-4
  6
Continuous
 62
     7
370
     9
100
AcDbPolyline
 90
        4
 70
     1
 43
1.0
 10
-755.8383510207813
 20
1069.891227103569
 42
0.4142135623731
 10
-756.3383510207813
 20
1070.391227103569
 42
0.4142135623731
 10
-756.8383510207811
 20
1069.891227103569
 42
0.4142135623731
 10
-756.3383510207813
 20
1069.391227103569
 42
0.4142135623731
  0
LWPOLYLINE
  5
4A7
330
1F
100
AcDbEntity
  8
C-4
  6
Continuous
 62
     7
370
     9
100
AcDbPolyline
 90
        4
 70
     1
 43
1.0
 10
-755.8383510207813
 20
1144.891227103569
 42
0.4142135623731
 10
-756.3383510207813
 20
1145.391227103569
 42
0.4142135623731
 10
-756.8383510207811
 20
1144.891227103569
 42
0.4142135623731
 10
-756.3383510207813
 20
1144.391227103569
 42
0.4142135623731
  0
LINE
  5
4A8
330
1F
100
AcDbEntity
  8
C-4
  6
Continuous
 62
     7
370
     9
100
AcDbLine
 10
-1161.949816474883
 20
1069.891227103569
 30
0.0
 11
-711.8630702590624
 21
1069.891227103569
 31
0.0
  0
LINE
  5
4A9
330
1F
100
AcDbEntity
  8
C-4
  6
Continuous
 62
     7
370
     9
100
AcDbLine
 10
-1118.338160285918
 20
1144.891227103569
 30
0.0
 11
-756.3383510207813
 21
1144.891227103569
 31
0.0
  0
LINE
  5
4AA
330
1F
100
AcDbEntity
  8
C-1
  6
Continuous
 62
     2
370
     9
100
AcDbLine
 10
-1118.338160285918
 20
900.8913491738814
 30
0.0
 11
-756.3383510207813
 21
900.8913491738814
 31
0.0
  0
LINE
  5
4AB
330
1F
100
AcDbEntity
  8
C-1
  6
Continuous
 62
     2
370
     9
100
AcDbLine
 10
-1118.338160285918
 20
900.8913491738814
 30
0.0
 11
-1118.338160285918
 21
538.8918069375532
 31
0.0
  0
TEXT
  5
4AC
330
1F
100
AcDbEntity
  8
C-4
  6
Continuous
 62
     2
370
     9
100
AcDbText
 10
-1144.104412663836
 20
1080.531288138725
 30
0.0
 40
30.48
  1
5
 41
0.9999999999999998
  7
ＭＳ ゴシック
100
AcDbText
  0
TEXT
  5
4AD
330
1F
100
AcDbEntity
  8
C-4
  6
Continuous
 62
     2
370
     9
100
AcDbText
 10
-969.838518867461
 20
1154.176678209647
 30
0.0
 40
30.48
  1
362
 41
1.083333333333333
  7
ＭＳ ゴシック
100
AcDbText
  0
LINE
  5
4AE
330
1F
100
AcDbEntity
  8
C-4
  6
Continuous
 62
     7
370
     9
100
AcDbLine
 10
-1305.649357533733
 20
544.8913796914594
 30
0.0
 11
-1305.649357533733
 21
894.89153227935
 31
0.0
  0
LINE
  5
4AF
330
1F
100
AcDbEntity
  8
C-4
  6
Continuous
 62
     7
370
     9
100
AcDbLine
 10
-1305.649357533733
 20
894.89153227935
 30
0.0
 11
-1305.649357533733
 21
895.8913796914595
 31
0.0
  0
LINE
  5
4B0
330
1F
100
AcDbEntity
  8
C-4
  6
Continuous
 62
     7
370
     9
100
AcDbLine
 10
-1230.649418568889
 20
544.8913796914594
 30
0.0
 11
-1230.649418568889
 21
569.891242362358
 31
0.0
  0
LINE
  5
4B1
330
1F
100
AcDbEntity
  8
C-4
  6
Continuous
 62
     7
370
     9
100
AcDbLine
 10
-1230.649418568889
 20
869.8911660684126
 30
0.0
 11
-1230.649418568889
 21
894.89153227935
 31
0.0
  0
LINE
  5
4B2
330
1F
100
AcDbEntity
  8
C-4
  6
Continuous
 62
     7
370
     9
100
AcDbLine
 10
-1230.649418568889
 20
544.8913796914594
 30
0.0
 11
-1230.649418568889
 21
894.89153227935
 31
0.0
  0
LINE
  5
4B3
330
1F
100
AcDbEntity
  8
C-4
  6
Continuous
 62
     7
370
     9
100
AcDbLine
 10
-1233.649357533732
 20
569.891242362358
 30
0.0
 11
-1168.649540639201
 21
569.891242362358
 31
0.0
  0
LINE
  5
4B4
330
1F
100
AcDbEntity
  8
C-4
  6
Continuous
 62
     7
370
     9
100
AcDbLine
 10
-1233.649357533732
 20
869.8911660684126
 30
0.0
 11
-1168.649540639201
 21
869.8911660684126
 31
0.0
  0
LINE
  5
4B5
330
1F
100
AcDbEntity
  8
C-4
  6
Continuous
 62
     7
370
     9
100
AcDbLine
 10
-1308.649296498576
 20
543.8915246499556
 30
0.0
 11
-1168.649540639201
 21
543.8915246499556
 31
0.0
  0
LINE
  5
4B6
330
1F
100
AcDbEntity
  8
C-4
  6
Continuous
 62
     7
370
     9
100
AcDbLine
 10
-1308.649296498576
 20
544.8913796914594
 30
0.0
 11
-1168.649540639201
 21
544.8913796914594
 31
0.0
  0
LINE
  5
4B7
330
1F
100
AcDbEntity
  8
C-4
  6
Continuous
 62
     7
370
     9
100
AcDbLine
 10
-1308.649296498576
 20
894.89153227935
 30
0.0
 11
-1168.649540639201
 21
894.89153227935
 31
0.0
  0
LINE
  5
4B8
330
1F
100
AcDbEntity
  8
C-4
  6
Continuous
 62
     7
370
     9
100
AcDbLine
 10
-1308.649296498576
 20
895.8913796914595
 30
0.0
 11
-1168.649540639201
 21
895.8913796914595
 31
0.0
  0
LWPOLYLINE
  5
4B9
330
1F
100
AcDbEntity
  8
C-4
  6
Continuous
 62
     7
370
     9
100
AcDbPolyline
 90
        4
 70
     1
 43
1.0
 10
-1230.149418568889
 20
569.891242362358
 42
0.4142135623731
 10
-1230.649418568889
 20
570.391242362358
 42
0.4142135623731
 10
-1231.149418568889
 20
569.891242362358
 42
0.4142135623731
 10
-1230.649418568889
 20
569.391242362358
 42
0.4142135623731
  0
LWPOLYLINE
  5
4BA
330
1F
100
AcDbEntity
  8
C-4
  6
Continuous
 62
     7
370
     9
100
AcDbPolyline
 90
        4
 70
     1
 43
1.0
 10
-1230.149418568889
 20
869.8911660684126
 42
0.4142135623731
 10
-1230.649418568889
 20
870.3911660684126
 42
0.4142135623731
 10
-1231.149418568889
 20
869.8911660684126
 42
0.4142135623731
 10
-1230.649418568889
 20
869.3911660684126
 42
0.4142135623731
  0
LWPOLYLINE
  5
4BB
330
1F
100
AcDbEntity
  8
C-4
  6
Continuous
 62
     7
370
     9
100
AcDbPolyline
 90
        4
 70
     1
 43
1.0
 10
-1305.149357533733
 20
543.8915246499556
 42
0.4142135623731
 10
-1305.649357533733
 20
544.3915246499556
 42
0.4142135623731
 10
-1306.149357533733
 20
543.8915246499556
 42
0.4142135623731
 10
-1305.649357533733
 20
543.3915246499556
 42
0.4142135623731
  0
LWPOLYLINE
  5
4BC
330
1F
100
AcDbEntity
  8
C-4
  6
Continuous
 62
     7
370
     9
100
AcDbPolyline
 90
        4
 70
     1
 43
1.0
 10
-1305.149357533733
 20
544.8913796914594
 42
0.4142135623731
 10
-1305.649357533733
 20
545.3913796914594
 42
0.4142135623731
 10
-1306.149357533733
 20
544.8913796914594
 42
0.4142135623731
 10
-1305.649357533733
 20
544.3913796914594
 42
0.4142135623731
  0
LWPOLYLINE
  5
4BD
330
1F
100
AcDbEntity
  8
C-4
  6
Continuous
 62
     7
370
     9
100
AcDbPolyline
 90
        4
 70
     1
 43
1.0
 10
-1305.149357533733
 20
894.89153227935
 42
0.4142135623731
 10
-1305.649357533733
 20
895.39153227935
 42
0.4142135623731
 10
-1306.149357533733
 20
894.89153227935
 42
0.4142135623731
 10
-1305.649357533733
 20
894.39153227935
 42
0.4142135623731
  0
LWPOLYLINE
  5
4BE
330
1F
100
AcDbEntity
  8
C-4
  6
Continuous
 62
     7
370
     9
100
AcDbPolyline
 90
        4
 70
     1
 43
1.0
 10
-1305.149357533733
 20
895.8913796914595
 42
0.4142135623731
 10
-1305.649357533733
 20
896.3913796914595
 42
0.4142135623731
 10
-1306.149357533733
 20
895.8913796914595
 42
0.4142135623731
 10
-1305.649357533733
 20
895.3913796914595
 42
0.4142135623731
  0
LWPOLYLINE
  5
4BF
330
1F
100
AcDbEntity
  8
C-4
  6
Continuous
 62
     7
370
     9
100
AcDbPolyline
 90
        4
 70
     1
 43
1.0
 10
-1230.149418568889
 20
544.8913796914594
 42
0.4142135623731
 10
-1230.649418568889
 20
545.3913796914594
 42
0.4142135623731
 10
-1231.149418568889
 20
544.8913796914594
 42
0.4142135623731
 10
-1230.649418568889
 20
544.3913796914594
 42
0.4142135623731
  0
LWPOLYLINE
  5
4C0
330
1F
100
AcDbEntity
  8
C-4
  6
Continuous
 62
     7
370
     9
100
AcDbPolyline
 90
        4
 70
     1
 43
1.0
 10
-1230.149418568889
 20
894.89153227935
 42
0.4142135623731
 10
-1230.649418568889
 20
895.39153227935
 42
0.4142135623731
 10
-1231.149418568889
 20
894.89153227935
 42
0.4142135623731
 10
-1230.649418568889
 20
894.39153227935
 42
0.4142135623731
  0
TEXT
  5
4C1
330
1F
100
AcDbEntity
  8
C-4
  6
Continuous
 62
     2
370
     9
100
AcDbText
 10
-1241.289418568889
 20
687.3911813272016
 30
0.0
 40
30.48
  1
300
 50
90.0
 41
1.083333333333333
  7
ＭＳ ゴシック
100
AcDbText
  0
TEXT
  5
4C2
330
1F
100
AcDbEntity
  8
C-4
  6
Continuous
 62
     2
370
     9
100
AcDbText
 10
-1316.289418568889
 20
687.3911813272016
 30
0.0
 40
30.48
  1
350
 50
90.0
 41
1.083333333333333
  7
ＭＳ ゴシック
100
AcDbText
  0
TEXT
  5
4C3
330
1F
100
AcDbEntity
  8
C-4
  6
Continuous
 62
     2
370
     9
100
AcDbText
 10
-1316.289418568889
 20
860.6323464883344
 30
0.0
 40
30.48
  1
1
 50
90.0
 41
0.9999999999999998
  7
ＭＳ ゴシック
100
AcDbText
  0
TEXT
  5
4C4
330
1F
100
AcDbEntity
  8
C-4
  6
Continuous
 62
     2
370
     9
100
AcDbText
 10
-1316.289418568889
 20
556.3971551431196
 30
0.0
 40
30.48
  1
1
 50
90.0
 41
0.9999999999999998
  7
ＭＳ ゴシック
100
AcDbText
  0
TEXT
  5
4C5
330
1F
100
AcDbEntity
  8
C-4
  6
Continuous
 62
     2
370
     9
100
AcDbText
 10
-1241.289418568889
 20
834.9175027383344
 30
0.0
 40
30.48
  1
25
 50
90.0
 41
1.0625
  7
ＭＳ ゴシック
100
AcDbText
  0
TEXT
  5
4C6
330
1F
100
AcDbEntity
  8
C-4
  6
Continuous
 62
     2
370
     9
100
AcDbText
 10
-1241.289418568889
 20
558.760543204643
 30
0.0
 40
30.48
  1
25
 50
90.0
 41
1.0625
  7
ＭＳ ゴシック
100
AcDbText
  0
LINE
  5
4C7
330
1F
100
AcDbEntity
  8
C-4
  6
Continuous
 62
     7
370
     9
100
AcDbLine
 10
-1305.649357533733
 20
495.2798837197798
 30
0.0
 11
-1305.649357533733
 21
543.8915246499556
 31
0.0
  0
LINE
  5
4C8
330
1F
100
AcDbEntity
  8
C-4
  6
Continuous
 62
     7
370
     9
100
AcDbLine
 10
-1383.649418568889
 20
538.8915399087446
 30
0.0
 11
-1168.649540639201
 21
538.8915399087446
 31
0.0
  0
LWPOLYLINE
  5
4C9
330
1F
100
AcDbEntity
  8
C-4
  6
Continuous
 62
     7
370
     9
100
AcDbPolyline
 90
        4
 70
     1
 43
1.0
 10
-1305.149357533733
 20
538.8915399087446
 42
0.4142135623731
 10
-1305.649357533733
 20
539.3915399087446
 42
0.4142135623731
 10
-1306.149357533733
 20
538.8915399087446
 42
0.4142135623731
 10
-1305.649357533733
 20
538.3915399087447
 42
0.4142135623731
  0
LWPOLYLINE
  5
4CA
330
1F
100
AcDbEntity
  8
C-4
  6
Continuous
 62
     7
370
     9
100
AcDbPolyline
 90
        4
 70
     1
 43
1.0
 10
-1380.149357533733
 20
538.8915399087446
 42
0.4142135623731
 10
-1380.649357533733
 20
539.3915399087446
 42
0.4142135623731
 10
-1381.149357533733
 20
538.8915399087446
 42
0.4142135623731
 10
-1380.649357533733
 20
538.3915399087447
 42
0.4142135623731
  0
LINE
  5
4CB
330
1F
100
AcDbEntity
  8
C-4
  6
Continuous
 62
     7
370
     9
100
AcDbLine
 10
-1305.649357533733
 20
895.8913796914595
 30
0.0
 11
-1305.649357533733
 21
945.3666299356001
 31
0.0
  0
LINE
  5
4CC
330
1F
100
AcDbEntity
  8
C-4
  6
Continuous
 62
     7
370
     9
100
AcDbLine
 10
-1383.649418568889
 20
900.8913491738814
 30
0.0
 11
-1168.649540639201
 21
900.8913491738814
 31
0.0
  0
LWPOLYLINE
  5
4CD
330
1F
100
AcDbEntity
  8
C-4
  6
Continuous
 62
     7
370
     9
100
AcDbPolyline
 90
        4
 70
     1
 43
1.0
 10
-1305.149357533733
 20
900.8913491738814
 42
0.4142135623731
 10
-1305.649357533733
 20
901.3913491738813
 42
0.4142135623731
 10
-1306.149357533733
 20
900.8913491738814
 42
0.4142135623731
 10
-1305.649357533733
 20
900.3913491738814
 42
0.4142135623731
  0
LWPOLYLINE
  5
4CE
330
1F
100
AcDbEntity
  8
C-4
  6
Continuous
 62
     7
370
     9
100
AcDbPolyline
 90
        4
 70
     1
 43
1.0
 10
-1380.149357533733
 20
900.8913491738814
 42
0.4142135623731
 10
-1380.649357533733
 20
901.3913491738813
 42
0.4142135623731
 10
-1381.149357533733
 20
900.8913491738814
 42
0.4142135623731
 10
-1380.649357533733
 20
900.3913491738814
 42
0.4142135623731
  0
LINE
  5
4CF
330
1F
100
AcDbEntity
  8
C-4
  6
Continuous
 62
     7
370
     9
100
AcDbLine
 10
-1305.649357533733
 20
495.2798837197798
 30
0.0
 11
-1305.649357533733
 21
945.3666299356001
 31
0.0
  0
LINE
  5
4D0
330
1F
100
AcDbEntity
  8
C-4
  6
Continuous
 62
     7
370
     9
100
AcDbLine
 10
-1380.649357533733
 20
538.8915399087446
 30
0.0
 11
-1380.649357533733
 21
900.8913491738814
 31
0.0
  0
TEXT
  5
4D1
330
1F
100
AcDbEntity
  8
C-4
  6
Continuous
 62
     2
370
     9
100
AcDbText
 10
-1389.934808639811
 20
687.3911813272016
 30
0.0
 40
30.48
  1
362
 50
90.0
 41
1.083333333333333
  7
ＭＳ ゴシック
100
AcDbText
  0
LINE
  5
4D2
330
1F
100
AcDbEntity
  8
C-A
  6
Continuous
 62
     3
370
     9
100
AcDbLine
 10
-1109.338259468047
 20
804.7926248086469
 30
0.0
 11
-765.3382289504686
 21
804.7926248086469
 31
0.0
  0
LINE
  5
4D3
330
1F
100
AcDbEntity
  8
C-A
  6
Continuous
 62
     3
370
     9
100
AcDbLine
 10
-1109.338259468047
 20
791.1136392129438
 30
0.0
 11
-765.3382289504686
 21
791.1136392129438
 31
0.0
  0
LINE
  5
4D4
330
1F
100
AcDbEntity
  8
C-A
  6
Continuous
 62
     3
370
     9
100
AcDbLine
 10
-1109.338259468047
 20
763.7556680215375
 30
0.0
 11
-765.3382289504686
 21
763.7556680215375
 31
0.0
  0
LINE
  5
4D5
330
1F
100
AcDbEntity
  8
C-A
  6
Continuous
 62
     3
370
     9
100
AcDbLine
 10
-1109.338259468047
 20
771.7557595742719
 30
0.0
 11
-765.3382289504686
 21
771.7557595742719
 31
0.0
  0
LINE
  5
4D6
330
1F
100
AcDbEntity
  8
C-A
  6
Continuous
 62
     3
370
     9
100
AcDbLine
 10
-1109.338259468047
 20
777.4346230996625
 30
0.0
 11
-765.3382289504686
 21
777.4346230996625
 31
0.0
  0
LINE
  5
4D7
330
1F
100
AcDbEntity
  8
C-A
  6
Continuous
 62
     3
370
     9
100
AcDbLine
 10
-1109.338259468047
 20
785.4347146523969
 30
0.0
 11
-765.3382289504686
 21
785.4347146523969
 31
0.0
  0
LINE
  5
4D8
330
1F
100
AcDbEntity
  8
C-A
  6
Continuous
 62
     3
370
     9
100
AcDbLine
 10
-1109.338259468047
 20
799.1137307656783
 30
0.0
 11
-765.3382289504686
 21
799.1137307656783
 31
0.0
  0
LINE
  5
4D9
330
1F
100
AcDbEntity
  8
C-A
  6
Continuous
 62
     3
370
     9
100
AcDbLine
 10
-1109.338259468047
 20
730.7187417520063
 30
0.0
 11
-765.3382289504686
 21
730.7187417520063
 31
0.0
  0
LINE
  5
4DA
330
1F
100
AcDbEntity
  8
C-A
  6
Continuous
 62
     3
370
     9
100
AcDbLine
 10
-1109.338259468047
 20
736.3976052773969
 30
0.0
 11
-765.3382289504686
 21
736.3976052773969
 31
0.0
  0
LINE
  5
4DB
330
1F
100
AcDbEntity
  8
C-A
  6
Continuous
 62
     3
370
     9
100
AcDbLine
 10
-1109.338259468047
 20
744.3977578652875
 30
0.0
 11
-765.3382289504686
 21
744.3977578652875
 31
0.0
  0
LINE
  5
4DC
330
1F
100
AcDbEntity
  8
C-A
  6
Continuous
 62
     3
370
     9
100
AcDbLine
 10
-1109.338259468047
 20
750.0766213906782
 30
0.0
 11
-765.3382289504686
 21
750.0766213906782
 31
0.0
  0
LINE
  5
4DD
330
1F
100
AcDbEntity
  8
C-A
  6
Continuous
 62
     3
370
     9
100
AcDbLine
 10
-1109.338259468047
 20
758.0767129434125
 30
0.0
 11
-765.3382289504686
 21
758.0767129434125
 31
0.0
  0
LINE
  5
4DE
330
1F
100
AcDbEntity
  8
C-A
  6
Continuous
 62
     3
370
     9
100
AcDbLine
 10
-1109.338259468047
 20
676.0027078164594
 30
0.0
 11
-765.3382289504686
 21
676.0027078164594
 31
0.0
  0
LINE
  5
4DF
330
1F
100
AcDbEntity
  8
C-A
  6
Continuous
 62
     3
370
     9
100
AcDbLine
 10
-1109.338259468047
 20
681.6816323770063
 30
0.0
 11
-765.3382289504686
 21
681.6816323770063
 31
0.0
  0
LINE
  5
4E0
330
1F
100
AcDbEntity
  8
C-A
  6
Continuous
 62
     3
370
     9
100
AcDbLine
 10
-1109.338259468047
 20
689.6817239297407
 30
0.0
 11
-765.3382289504686
 21
689.6817239297407
 31
0.0
  0
LINE
  5
4E1
330
1F
100
AcDbEntity
  8
C-A
  6
Continuous
 62
     3
370
     9
100
AcDbLine
 10
-1109.338259468047
 20
695.3606179727094
 30
0.0
 11
-765.3382289504686
 21
695.3606179727094
 31
0.0
  0
LINE
  5
4E2
330
1F
100
AcDbEntity
  8
C-A
  6
Continuous
 62
     3
370
     9
100
AcDbLine
 10
-1109.338259468047
 20
703.3607400430219
 30
0.0
 11
-765.3382289504686
 21
703.3607400430219
 31
0.0
  0
LINE
  5
4E3
330
1F
100
AcDbEntity
  8
C-A
  6
Continuous
 62
     3
370
     9
100
AcDbLine
 10
-1109.338259468047
 20
709.0396340859907
 30
0.0
 11
-765.3382289504686
 21
709.0396340859907
 31
0.0
  0
LINE
  5
4E4
330
1F
100
AcDbEntity
  8
C-A
  6
Continuous
 62
     3
370
     9
100
AcDbLine
 10
-1109.338259468047
 20
717.0396951211469
 30
0.0
 11
-765.3382289504686
 21
717.0396951211469
 31
0.0
  0
LINE
  5
4E5
330
1F
100
AcDbEntity
  8
C-A
  6
Continuous
 62
     3
370
     9
100
AcDbLine
 10
-1109.338259468047
 20
722.7186501992719
 30
0.0
 11
-765.3382289504686
 21
722.7186501992719
 31
0.0
  0
LINE
  5
4E6
330
1F
100
AcDbEntity
  8
C-A
  6
Continuous
 62
     3
370
     9
100
AcDbLine
 10
-1109.338259468047
 20
607.6082070840375
 30
0.0
 11
-765.3382289504686
 21
607.6082070840375
 31
0.0
  0
LINE
  5
4E7
330
1F
100
AcDbEntity
  8
C-A
  6
Continuous
 62
     3
370
     9
100
AcDbLine
 10
-1109.338259468047
 20
613.2866433633344
 30
0.0
 11
-765.3382289504686
 21
613.2866433633344
 31
0.0
  0
LINE
  5
4E8
330
1F
100
AcDbEntity
  8
C-A
  6
Continuous
 62
     3
370
     9
100
AcDbLine
 10
-1109.338259468047
 20
621.2867349160688
 30
0.0
 11
-765.3382289504686
 21
621.2867349160688
 31
0.0
  0
LINE
  5
4E9
330
1F
100
AcDbEntity
  8
C-A
  6
Continuous
 62
     3
370
     9
100
AcDbLine
 10
-1109.338259468047
 20
626.9656442178266
 30
0.0
 11
-765.3382289504686
 21
626.9656442178266
 31
0.0
  0
LINE
  5
4EA
330
1F
100
AcDbEntity
  8
C-A
  6
Continuous
 62
     3
370
     9
100
AcDbLine
 10
-1109.338259468047
 20
634.9657205117719
 30
0.0
 11
-765.3382289504686
 21
634.9657205117719
 31
0.0
  0
LINE
  5
4EB
330
1F
100
AcDbEntity
  8
C-A
  6
Continuous
 62
     3
370
     9
100
AcDbLine
 10
-1109.338259468047
 20
640.6446450723188
 30
0.0
 11
-765.3382289504686
 21
640.6446450723188
 31
0.0
  0
LINE
  5
4EC
330
1F
100
AcDbEntity
  8
C-A
  6
Continuous
 62
     3
370
     9
100
AcDbLine
 10
-1109.338259468047
 20
648.6447366250532
 30
0.0
 11
-765.3382289504686
 21
648.6447366250532
 31
0.0
  0
LINE
  5
4ED
330
1F
100
AcDbEntity
  8
C-A
  6
Continuous
 62
     3
370
     9
100
AcDbLine
 10
-1109.338259468047
 20
654.3236306680219
 30
0.0
 11
-765.3382289504686
 21
654.3236306680219
 31
0.0
  0
LINE
  5
4EE
330
1F
100
AcDbEntity
  8
C-A
  6
Continuous
 62
     3
370
     9
100
AcDbLine
 10
-1109.338259468047
 20
662.3237222207563
 30
0.0
 11
-765.3382289504686
 21
662.3237222207563
 31
0.0
  0
LINE
  5
4EF
330
1F
100
AcDbEntity
  8
C-A
  6
Continuous
 62
     3
370
     9
100
AcDbLine
 10
-1109.338259468047
 20
668.002616263725
 30
0.0
 11
-765.3382289504686
 21
668.002616263725
 31
0.0
  0
LINE
  5
4F0
330
1F
100
AcDbEntity
  8
C-1
  6
Continuous
 62
     2
370
     9
100
AcDbLine
 10
-1113.338175544707
 20
543.8917916787641
 30
0.0
 11
-761.3383205032032
 21
543.8917916787641
 31
0.0
  0
LINE
  5
4F1
330
1F
100
AcDbEntity
  8
C-1
  6
Continuous
 62
     2
370
     9
100
AcDbLine
 10
-1118.338160285918
 20
538.8918069375532
 30
0.0
 11
-756.3383510207813
 21
538.8918069375532
 31
0.0
  0
LINE
  5
4F2
330
1F
100
AcDbEntity
  8
C-2
  6
Continuous
 62
     3
370
     9
100
AcDbLine
 10
-1112.338320503203
 20
544.8916390908735
 30
0.0
 11
-762.3381679153125
 21
544.8916390908735
 31
0.0
  0
LINE
  5
4F3
330
1F
100
AcDbEntity
  8
C-A
  6
Continuous
 62
     3
370
     9
100
AcDbLine
 10
-1109.338259468047
 20
566.57121977935
 30
0.0
 11
-765.3382289504686
 21
566.57121977935
 31
0.0
  0
LINE
  5
4F4
330
1F
100
AcDbEntity
  8
C-A
  6
Continuous
 62
     3
370
     9
100
AcDbLine
 10
-1109.338259468047
 20
558.5706399453657
 30
0.0
 11
-765.3382289504686
 21
558.5706399453657
 31
0.0
  0
LINE
  5
4F5
330
1F
100
AcDbEntity
  8
C-A
  6
Continuous
 62
     3
370
     9
100
AcDbLine
 10
-1109.338259468047
 20
580.2502206338422
 30
0.0
 11
-765.3382289504686
 21
580.2502206338422
 31
0.0
  0
LINE
  5
4F6
330
1F
100
AcDbEntity
  8
C-A
  6
Continuous
 62
     3
370
     9
100
AcDbLine
 10
-1109.338259468047
 20
572.2496255410688
 30
0.0
 11
-765.3382289504686
 21
572.2496255410688
 31
0.0
  0
LINE
  5
4F7
330
1F
100
AcDbEntity
  8
C-A
  6
Continuous
 62
     3
370
     9
100
AcDbLine
 10
-1109.338259468047
 20
593.9292062295453
 30
0.0
 11
-765.3382289504686
 21
593.9292062295453
 31
0.0
  0
LINE
  5
4F8
330
1F
100
AcDbEntity
  8
C-A
  6
Continuous
 62
     3
370
     9
100
AcDbLine
 10
-1109.338259468047
 20
585.928626395561
 30
0.0
 11
-765.3382289504686
 21
585.928626395561
 31
0.0
  0
LINE
  5
4F9
330
1F
100
AcDbEntity
  8
C-A
  6
Continuous
 62
     3
370
     9
100
AcDbLine
 10
-1109.338259468047
 20
599.6076272500532
 30
0.0
 11
-765.3382289504686
 21
599.6076272500532
 31
0.0
  0
LINE
  5
4FA
330
1F
100
AcDbEntity
  8
C-1
  6
JWW_DASHED3
 62
     2
370
     9
100
AcDbLine
 10
-1087.338457832305
 20
569.891517020561
 30
0.0
 11
-787.3385341262501
 21
569.891517020561
 31
0.0
  0
LINE
  5
4FB
330
1F
100
AcDbEntity
  8
C-1
  6
JWW_DASHED3
 62
     2
370
     9
100
AcDbLine
 10
-787.3385341262501
 20
869.8911965859907
 30
0.0
 11
-787.3385341262501
 21
569.891517020561
 31
0.0
  0
LINE
  5
4FC
330
1F
100
AcDbEntity
  8
C-1
  6
Continuous
 62
     2
370
     9
100
AcDbLine
 10
-761.3383205032032
 20
895.8914102090375
 30
0.0
 11
-761.3383205032032
 21
543.8917916787641
 31
0.0
  0
LINE
  5
4FD
330
1F
100
AcDbEntity
  8
C-1
  6
Continuous
 62
     2
370
     9
100
AcDbLine
 10
-756.3383510207813
 20
900.8913491738814
 30
0.0
 11
-756.3383510207813
 21
538.8918069375532
 31
0.0
  0
LINE
  5
4FE
330
1F
100
AcDbEntity
  8
C-2
  6
Continuous
 62
     3
370
     9
100
AcDbLine
 10
-762.3381679153125
 20
894.89153227935
 30
0.0
 11
-762.3381679153125
 21
544.8916390908735
 31
0.0
  0
LINE
  5
4FF
330
1F
100
AcDbEntity
  8
C-A
  6
Continuous
 62
     3
370
     9
100
AcDbLine
 10
-1109.338259468047
 20
552.8916390908735
 30
0.0
 11
-765.3382289504686
 21
552.8916390908735
 31
0.0
  0
LINE
  5
500
330
1F
100
AcDbEntity
  8
C-A
  6
Continuous
 62
     3
370
     9
100
AcDbLine
 10
-765.3382289504686
 20
894.89153227935
 30
0.0
 11
-765.3382289504686
 21
544.8916390908735
 31
0.0
  0
LINE
  5
501
330
1F
100
AcDbEntity
  8
C-A
  6
Continuous
 62
     3
370
     9
100
AcDbLine
 10
-902.2883021926564
 20
552.8911355508344
 30
0.0
 11
-902.2883021926564
 21
558.5703958047407
 31
0.0
  0
LINE
  5
502
330
1F
100
AcDbEntity
  8
C-A
  6
Continuous
 62
     3
370
     9
100
AcDbLine
 10
-892.38833881375
 20
552.8911355508344
 30
0.0
 11
-892.38833881375
 21
558.5703958047407
 31
0.0
  0
LINE
  5
503
330
1F
100
AcDbEntity
  8
C-A
  6
Continuous
 62
     3
370
     9
100
AcDbLine
 10
-897.3385646438281
 20
552.8911355508344
 30
0.0
 11
-897.3385646438281
 21
558.5703958047407
 31
0.0
  0
LINE
  5
504
330
1F
100
AcDbEntity
  8
C-A
  6
Continuous
 62
     3
370
     9
100
AcDbLine
 10
-902.2883021926564
 20
566.570716239311
 30
0.0
 11
-902.2883021926564
 21
572.2493814004438
 31
0.0
  0
LINE
  5
505
330
1F
100
AcDbEntity
  8
C-A
  6
Continuous
 62
     3
370
     9
100
AcDbLine
 10
-892.38833881375
 20
566.570716239311
 30
0.0
 11
-892.38833881375
 21
572.2493814004438
 31
0.0
  0
LINE
  5
506
330
1F
100
AcDbEntity
  8
C-A
  6
Continuous
 62
     3
370
     9
100
AcDbLine
 10
-897.3385646438281
 20
566.570716239311
 30
0.0
 11
-897.3385646438281
 21
572.2493814004438
 31
0.0
  0
LINE
  5
507
330
1F
100
AcDbEntity
  8
C-A
  6
Continuous
 62
     3
370
     9
100
AcDbLine
 10
-902.2883021926564
 20
580.2497170938032
 30
0.0
 11
-902.2883021926564
 21
585.928382254936
 31
0.0
  0
LINE
  5
508
330
1F
100
AcDbEntity
  8
C-A
  6
Continuous
 62
     3
370
     9
100
AcDbLine
 10
-892.38833881375
 20
580.2497170938032
 30
0.0
 11
-892.38833881375
 21
585.928382254936
 31
0.0
  0
LINE
  5
509
330
1F
100
AcDbEntity
  8
C-A
  6
Continuous
 62
     3
370
     9
100
AcDbLine
 10
-897.3385646438281
 20
580.2497170938032
 30
0.0
 11
-897.3385646438281
 21
585.928382254936
 31
0.0
  0
LINE
  5
50A
330
1F
100
AcDbEntity
  8
C-A
  6
Continuous
 62
     3
370
     9
100
AcDbLine
 10
-902.2883021926564
 20
593.9287179482953
 30
0.0
 11
-902.2883021926564
 21
599.6073678506391
 31
0.0
  0
LINE
  5
50B
330
1F
100
AcDbEntity
  8
C-A
  6
Continuous
 62
     3
370
     9
100
AcDbLine
 10
-892.38833881375
 20
593.9287179482953
 30
0.0
 11
-892.38833881375
 21
599.6073678506391
 31
0.0
  0
LINE
  5
50C
330
1F
100
AcDbEntity
  8
C-A
  6
Continuous
 62
     3
370
     9
100
AcDbLine
 10
-897.3385646438281
 20
593.9287179482953
 30
0.0
 11
-897.3385646438281
 21
599.6073678506391
 31
0.0
  0
LINE
  5
50D
330
1F
100
AcDbEntity
  8
C-A
  6
Continuous
 62
     3
370
     9
100
AcDbLine
 10
-822.2884242629688
 20
607.6077340615766
 30
0.0
 11
-822.2884242629688
 21
613.2863992227094
 31
0.0
  0
LINE
  5
50E
330
1F
100
AcDbEntity
  8
C-A
  6
Continuous
 62
     3
370
     9
100
AcDbLine
 10
-812.3884608840625
 20
607.6077340615766
 30
0.0
 11
-812.3884608840625
 21
613.2863992227094
 31
0.0
  0
LINE
  5
50F
330
1F
100
AcDbEntity
  8
C-A
  6
Continuous
 62
     3
370
     9
100
AcDbLine
 10
-817.3386867141407
 20
607.6077340615766
 30
0.0
 11
-817.3386867141407
 21
613.2863992227094
 31
0.0
  0
LINE
  5
510
330
1F
100
AcDbEntity
  8
C-A
  6
Continuous
 62
     3
370
     9
100
AcDbLine
 10
-822.2884242629688
 20
621.2862466348188
 30
0.0
 11
-822.2884242629688
 21
626.9654000772016
 31
0.0
  0
LINE
  5
511
330
1F
100
AcDbEntity
  8
C-A
  6
Continuous
 62
     3
370
     9
100
AcDbLine
 10
-812.3884608840625
 20
621.2862466348188
 30
0.0
 11
-812.3884608840625
 21
626.9654000772016
 31
0.0
  0
LINE
  5
512
330
1F
100
AcDbEntity
  8
C-A
  6
Continuous
 62
     3
370
     9
100
AcDbLine
 10
-817.3386867141407
 20
621.2862466348188
 30
0.0
 11
-817.3386867141407
 21
626.9654000772016
 31
0.0
  0
LINE
  5
513
330
1F
100
AcDbEntity
  8
C-A
  6
Continuous
 62
     3
370
     9
100
AcDbLine
 10
-822.2884242629688
 20
634.9652322305219
 30
0.0
 11
-822.2884242629688
 21
640.6444009316938
 31
0.0
  0
LINE
  5
514
330
1F
100
AcDbEntity
  8
C-A
  6
Continuous
 62
     3
370
     9
100
AcDbLine
 10
-812.3884608840625
 20
634.9652322305219
 30
0.0
 11
-812.3884608840625
 21
640.6444009316938
 31
0.0
  0
LINE
  5
515
330
1F
100
AcDbEntity
  8
C-A
  6
Continuous
 62
     3
370
     9
100
AcDbLine
 10
-817.3386867141407
 20
634.9652322305219
 30
0.0
 11
-817.3386867141407
 21
640.6444009316938
 31
0.0
  0
LINE
  5
516
330
1F
100
AcDbEntity
  8
C-A
  6
Continuous
 62
     3
370
     9
100
AcDbLine
 10
-822.2884242629688
 20
648.644217826225
 30
0.0
 11
-822.2884242629688
 21
654.3233865273969
 31
0.0
  0
LINE
  5
517
330
1F
100
AcDbEntity
  8
C-A
  6
Continuous
 62
     3
370
     9
100
AcDbLine
 10
-812.3884608840625
 20
648.644217826225
 30
0.0
 11
-812.3884608840625
 21
654.3233865273969
 31
0.0
  0
LINE
  5
518
330
1F
100
AcDbEntity
  8
C-A
  6
Continuous
 62
     3
370
     9
100
AcDbLine
 10
-817.3386867141407
 20
648.644217826225
 30
0.0
 11
-817.3386867141407
 21
654.3233865273969
 31
0.0
  0
LINE
  5
519
330
1F
100
AcDbEntity
  8
C-A
  6
Continuous
 62
     3
370
     9
100
AcDbLine
 10
-822.2884242629688
 20
662.3232339395063
 30
0.0
 11
-822.2884242629688
 21
668.0023721231
 31
0.0
  0
LINE
  5
51A
330
1F
100
AcDbEntity
  8
C-A
  6
Continuous
 62
     3
370
     9
100
AcDbLine
 10
-812.3884608840625
 20
662.3232339395063
 30
0.0
 11
-812.3884608840625
 21
668.0023721231
 31
0.0
  0
LINE
  5
51B
330
1F
100
AcDbEntity
  8
C-A
  6
Continuous
 62
     3
370
     9
100
AcDbLine
 10
-817.3386867141407
 20
662.3232339395063
 30
0.0
 11
-817.3386867141407
 21
668.0023721231
 31
0.0
  0
LINE
  5
51C
330
1F
100
AcDbEntity
  8
C-A
  6
Continuous
 62
     3
370
     9
100
AcDbLine
 10
-822.2884242629688
 20
676.0022500527875
 30
0.0
 11
-822.2884242629688
 21
681.6813882363813
 31
0.0
  0
LINE
  5
51D
330
1F
100
AcDbEntity
  8
C-A
  6
Continuous
 62
     3
370
     9
100
AcDbLine
 10
-812.3884608840625
 20
676.0022500527875
 30
0.0
 11
-812.3884608840625
 21
681.6813882363813
 31
0.0
  0
LINE
  5
51E
330
1F
100
AcDbEntity
  8
C-A
  6
Continuous
 62
     3
370
     9
100
AcDbLine
 10
-817.3386867141407
 20
676.0022500527875
 30
0.0
 11
-817.3386867141407
 21
681.6813882363813
 31
0.0
  0
LINE
  5
51F
330
1F
100
AcDbEntity
  8
C-A
  6
Continuous
 62
     3
370
     9
100
AcDbLine
 10
-822.2884242629688
 20
689.6812356484907
 30
0.0
 11
-822.2884242629688
 21
695.3604043496625
 31
0.0
  0
LINE
  5
520
330
1F
100
AcDbEntity
  8
C-A
  6
Continuous
 62
     3
370
     9
100
AcDbLine
 10
-812.3884608840625
 20
689.6812356484907
 30
0.0
 11
-812.3884608840625
 21
695.3604043496625
 31
0.0
  0
LINE
  5
521
330
1F
100
AcDbEntity
  8
C-A
  6
Continuous
 62
     3
370
     9
100
AcDbLine
 10
-817.3386867141407
 20
689.6812356484907
 30
0.0
 11
-817.3386867141407
 21
695.3604043496625
 31
0.0
  0
LINE
  5
522
330
1F
100
AcDbEntity
  8
C-A
  6
Continuous
 62
     3
370
     9
100
AcDbLine
 10
-822.2884242629688
 20
703.360251761772
 30
0.0
 11
-822.2884242629688
 21
709.0393899453657
 31
0.0
  0
LINE
  5
523
330
1F
100
AcDbEntity
  8
C-A
  6
Continuous
 62
     3
370
     9
100
AcDbLine
 10
-812.3884608840625
 20
703.360251761772
 30
0.0
 11
-812.3884608840625
 21
709.0393899453657
 31
0.0
  0
LINE
  5
524
330
1F
100
AcDbEntity
  8
C-A
  6
Continuous
 62
     3
370
     9
100
AcDbLine
 10
-817.3386867141407
 20
703.360251761772
 30
0.0
 11
-817.3386867141407
 21
709.0393899453657
 31
0.0
  0
LINE
  5
525
330
1F
100
AcDbEntity
  8
C-A
  6
Continuous
 62
     3
370
     9
100
AcDbLine
 10
-822.2884242629688
 20
717.0392678750532
 30
0.0
 11
-822.2884242629688
 21
722.7184060586469
 31
0.0
  0
LINE
  5
526
330
1F
100
AcDbEntity
  8
C-A
  6
Continuous
 62
     3
370
     9
100
AcDbLine
 10
-812.3884608840625
 20
717.0392678750532
 30
0.0
 11
-812.3884608840625
 21
722.7184060586469
 31
0.0
  0
LINE
  5
527
330
1F
100
AcDbEntity
  8
C-A
  6
Continuous
 62
     3
370
     9
100
AcDbLine
 10
-817.3386867141407
 20
717.0392678750532
 30
0.0
 11
-817.3386867141407
 21
722.7184060586469
 31
0.0
  0
LINE
  5
528
330
1F
100
AcDbEntity
  8
C-A
  6
Continuous
 62
     3
370
     9
100
AcDbLine
 10
-822.2884242629688
 20
552.8911355508344
 30
0.0
 11
-822.2884242629688
 21
558.5703958047407
 31
0.0
  0
LINE
  5
529
330
1F
100
AcDbEntity
  8
C-A
  6
Continuous
 62
     3
370
     9
100
AcDbLine
 10
-812.3884608840625
 20
552.8911355508344
 30
0.0
 11
-812.3884608840625
 21
558.5703958047407
 31
0.0
  0
LINE
  5
52A
330
1F
100
AcDbEntity
  8
C-A
  6
Continuous
 62
     3
370
     9
100
AcDbLine
 10
-817.3386867141407
 20
552.8911355508344
 30
0.0
 11
-817.3386867141407
 21
558.5703958047407
 31
0.0
  0
LINE
  5
52B
330
1F
100
AcDbEntity
  8
C-A
  6
Continuous
 62
     3
370
     9
100
AcDbLine
 10
-822.2884242629688
 20
566.570716239311
 30
0.0
 11
-822.2884242629688
 21
572.2493814004438
 31
0.0
  0
LINE
  5
52C
330
1F
100
AcDbEntity
  8
C-A
  6
Continuous
 62
     3
370
     9
100
AcDbLine
 10
-812.3884608840625
 20
566.570716239311
 30
0.0
 11
-812.3884608840625
 21
572.2493814004438
 31
0.0
  0
LINE
  5
52D
330
1F
100
AcDbEntity
  8
C-A
  6
Continuous
 62
     3
370
     9
100
AcDbLine
 10
-817.3386867141407
 20
566.570716239311
 30
0.0
 11
-817.3386867141407
 21
572.2493814004438
 31
0.0
  0
LINE
  5
52E
330
1F
100
AcDbEntity
  8
C-A
  6
Continuous
 62
     3
370
     9
100
AcDbLine
 10
-822.2884242629688
 20
580.2497170938032
 30
0.0
 11
-822.2884242629688
 21
585.928382254936
 31
0.0
  0
LINE
  5
52F
330
1F
100
AcDbEntity
  8
C-A
  6
Continuous
 62
     3
370
     9
100
AcDbLine
 10
-812.3884608840625
 20
580.2497170938032
 30
0.0
 11
-812.3884608840625
 21
585.928382254936
 31
0.0
  0
LINE
  5
530
330
1F
100
AcDbEntity
  8
C-A
  6
Continuous
 62
     3
370
     9
100
AcDbLine
 10
-817.3386867141407
 20
580.2497170938032
 30
0.0
 11
-817.3386867141407
 21
585.928382254936
 31
0.0
  0
LINE
  5
531
330
1F
100
AcDbEntity
  8
C-A
  6
Continuous
 62
     3
370
     9
100
AcDbLine
 10
-822.2884242629688
 20
593.9287179482953
 30
0.0
 11
-822.2884242629688
 21
599.6073678506391
 31
0.0
  0
LINE
  5
532
330
1F
100
AcDbEntity
  8
C-A
  6
Continuous
 62
     3
370
     9
100
AcDbLine
 10
-812.3884608840625
 20
593.9287179482953
 30
0.0
 11
-812.3884608840625
 21
599.6073678506391
 31
0.0
  0
LINE
  5
533
330
1F
100
AcDbEntity
  8
C-A
  6
Continuous
 62
     3
370
     9
100
AcDbLine
 10
-817.3386867141407
 20
593.9287179482953
 30
0.0
 11
-817.3386867141407
 21
599.6073678506391
 31
0.0
  0
SOLID
  5
534
330
1F
100
AcDbEntity
  8
C-5
  6
Continuous
 62
     4
370
     9
100
AcDbTrace
 10
-938.4889919561797
 20
930.7911312337703
 30
0.0
 11
-938.4889919561797
 21
970.7911312337703
 31
0.0
 12
-942.4889919561798
 22
930.7911312337703
 32
0.0
 13
-942.4889919561798
 23
970.7911312337703
 33
0.0
  0
LINE
  5
535
330
1F
100
AcDbEntity
  8
C-5
  6
Continuous
 62
     4
370
     9
100
AcDbLine
 10
-930.8229021584677
 20
951.772128107244
 30
0.0
 11
-881.573509475526
 21
951.772128107244
 31
0.0
  0
LINE
  5
536
330
1F
100
AcDbEntity
  8
C-5
  6
Continuous
 62
     4
370
     9
100
AcDbLine
 10
-930.8229021584677
 20
951.772128107244
 30
0.0
 11
-906.0367806241226
 21
948.5089733017426
 31
0.0
  0
LINE
  5
537
330
1F
100
AcDbEntity
  8
C-5
  6
Continuous
 62
     4
370
     9
100
AcDbLine
 10
-930.8229021584677
 20
951.772128107244
 30
0.0
 11
-906.0367806241226
 21
955.0352829127453
 31
0.0
  0
TEXT
  5
538
330
1F
100
AcDbEntity
  8
C-5
  6
Continuous
 62
     2
370
     9
100
AcDbText
 10
-873.8627383415756
 20
939.5669460870403
 30
0.0
 40
30.48
  1
A
 41
0.9999999999999998
  7
ＭＳ ゴシック
100
AcDbText
  0
TEXT
  5
539
330
1F
100
AcDbEntity
  8
C-4
  6
Continuous
 62
     2
370
     9
100
AcDbText
 10
-741.9157652919969
 20
1080.531288138725
 30
0.0
 40
30.48
  1
5
 41
0.9999999999999998
  7
ＭＳ ゴシック
100
AcDbText
  0
TEXT
  5
53A
330
1F
100
AcDbEntity
  8
C-4
  6
Continuous
 62
     2
370
     9
100
AcDbText
 10
-1316.289418568889
 20
913.5702096988646
 30
0.0
 40
30.48
  1
5
 50
90.0
 41
0.9999999999999998
  7
ＭＳ ゴシック
100
AcDbText
  0
TEXT
  5
53B
330
1F
100
AcDbEntity
  8
C-4
  6
Continuous
 62
     2
370
     9
100
AcDbText
 10
-1316.289418568889
 20
505.5213542004242
 30
0.0
 40
30.48
  1
5
 50
90.0
 41
0.9999999999999998
  7
ＭＳ ゴシック
100
AcDbText
  0
LINE
  5
53C
330
1F
100
AcDbEntity
  8
C-5
  6
JWW_CENTER1
 62
     4
370
     9
100
AcDbLine
 10
-940.4889919561797
 20
930.7911312337703
 30
0.0
 11
-940.4889919561797
 21
769.8554545055135
 31
0.0
  0
TEXT
  5
53D
330
1F
100
AcDbEntity
  8
D-5
  6
Continuous
 62
     2
370
     9
100
AcDbText
 10
341.2566435255816
 20
-650.5677641432657
 30
0.0
 40
30.48
  1
グレーチング（すきま６mm）　ＹＱ－Ｈ－Ａ－１５　３５０×３５０×１５
 41
1.121323529411764
  7
ＭＳ ゴシック
100
AcDbText
  0
TEXT
  5
53E
330
1F
100
AcDbEntity
  8
D-5
  6
Continuous
 62
     7
370
     9
100
AcDbText
 10
-540.0800715995091
 20
-189.0344676195605
 30
0.0
 40
22.86
  1
溶接用アンカー
 41
1.142857142857143
  7
ＭＳ ゴシック
100
AcDbText
  0
ENDSEC
  0
SECTION
  2
OBJECTS
  0
DICTIONARY
  5
C
330
0
100
AcDbDictionary
281
     1
  3
ACAD_GROUP
350
D
  3
ACAD_LAYOUT
350
1A
  3
ACAD_MLEADERSTYLE
350
540
  3
ACAD_MLINESTYLE
350
17
  3
ACAD_PLOTSETTINGS
350
19
  3
ACAD_PLOTSTYLENAME
350
E
  3
ACAD_TABLESTYLE
350
53F
  3
ACAD_VISUALSTYLE
350
2A
  0
DICTIONARY
  5
D
102
{ACAD_REACTORS
330
C
102
}
330
C
100
AcDbDictionary
281
     1
  0
DICTIONARY
  5
1A
102
{ACAD_REACTORS
330
C
102
}
330
C
100
AcDbDictionary
281
     1
  3
Layout1
350
1E
  3
Layout2
350
26
  3
Model
350
22
  0
DICTIONARY
  5
540
102
{ACAD_REACTORS
330
C
102
}
330
C
100
AcDbDictionary
281
     1
  0
DICTIONARY
  5
17
102
{ACAD_REACTORS
330
C
102
}
330
C
100
AcDbDictionary
281
     1
  3
Standard
350
18
  0
DICTIONARY
  5
19
102
{ACAD_REACTORS
330
C
102
}
330
C
100
AcDbDictionary
281
     1
  0
ACDBDICTIONARYWDFLT
  5
E
102
{ACAD_REACTORS
330
C
102
}
330
C
100
AcDbDictionary
281
     1
  3
Normal
350
F
100
AcDbDictionaryWithDefault
340
F
  0
DICTIONARY
  5
53F
102
{ACAD_REACTORS
330
C
102
}
330
C
100
AcDbDictionary
281
     1
  0
DICTIONARY
  5
2A
102
{ACAD_REACTORS
330
C
102
}
330
C
100
AcDbDictionary
281
     1
  3
2dWireframe
350
2F
  3
3D Hidden
350
31
  3
3dWireframe
350
30
  3
Basic
350
32
  3
Brighten
350
36
  3
ColorChange
350
3A
  3
Conceptual
350
34
  3
Dim
350
35
  3
Facepattern
350
39
  3
Flat
350
2B
  3
FlatWithEdges
350
2C
  3
Gouraud
350
2D
  3
GouraudWithEdges
350
2E
  3
Linepattern
350
38
  3
Realistic
350
33
  3
Thicken
350
37
  0
LAYOUT
  5
1E
102
{ACAD_REACTORS
330
1A
102
}
330
1A
100
AcDbPlotSettings
  1

  2
none_device
  4

  6

 40
0.0
 41
0.0
 42
0.0
 43
0.0
 44
0.0
 45
0.0
 46
0.0
 47
0.0
 48
0.0
 49
0.0
140
0.0
141
0.0
142
1.0
143
1.0
 70
   688
 72
     0
 73
     0
 74
     5
  7

 75
    16
 76
     0
 77
     5
 78
   300
147
1.0
148
0.0
149
0.0
100
AcDbLayout
  1
Layout1
 70
     1
 71
     1
 10
0.0
 20
0.0
 11
420.0
 21
297.0
 12
0.0
 22
0.0
 32
0.0
 14
1.000000000000000E+20
 24
1.000000000000000E+20
 34
1.000000000000000E+20
 15
-1.000000000000000E+20
 25
-1.000000000000000E+20
 35
-1.000000000000000E+20
146
0.0
 13
0.0
 23
0.0
 33
0.0
 16
1.0
 26
0.0
 36
0.0
 17
0.0
 27
1.0
 37
0.0
 76
     0
330
1B
  0
LAYOUT
  5
26
102
{ACAD_REACTORS
330
1A
102
}
330
1A
100
AcDbPlotSettings
  1

  2
none_device
  4

  6

 40
0.0
 41
0.0
 42
0.0
 43
0.0
 44
0.0
 45
0.0
 46
0.0
 47
0.0
 48
0.0
 49
0.0
140
0.0
141
0.0
142
1.0
143
1.0
 70
   688
 72
     0
 73
     0
 74
     5
  7

 75
    16
 76
     0
 77
     5
 78
   300
147
1.0
148
0.0
149
0.0
100
AcDbLayout
  1
Layout2
 70
     1
 71
     2
 10
0.0
 20
0.0
 11
0.0
 21
0.0
 12
0.0
 22
0.0
 32
0.0
 14
0.0
 24
0.0
 34
0.0
 15
0.0
 25
0.0
 35
0.0
146
0.0
 13
0.0
 23
0.0
 33
0.0
 16
1.0
 26
0.0
 36
0.0
 17
0.0
 27
1.0
 37
0.0
 76
     0
330
23
  0
LAYOUT
  5
22
102
{ACAD_REACTORS
330
1A
102
}
330
1A
100
AcDbPlotSettings
  1

  2
none_device
  4

  6

 40
0.0
 41
0.0
 42
0.0
 43
0.0
 44
0.0
 45
0.0
 46
0.0
 47
0.0
 48
0.0
 49
0.0
140
0.0
141
0.0
142
1.0
143
1.0
 70
  1712
 72
     0
 73
     0
 74
     0
  7

 75
     0
 76
     0
 77
     5
 78
   300
147
1.0
148
0.0
149
0.0
100
AcDbLayout
  1
Model
 70
     1
 71
     0
 10
-2100.0
 20
-1485.0
 11
2100.0
 21
1485.0
 12
0.0
 22
0.0
 32
0.0
 14
-2100.0
 24
-1485.0
 34
0.0
 15
2100.0
 25
1485.0
 35
0.0
146
0.0
 13
0.0
 23
0.0
 33
0.0
 16
1.0
 26
0.0
 36
0.0
 17
0.0
 27
1.0
 37
0.0
 76
     0
330
1F
331
29
  0
MLINESTYLE
  5
18
102
{ACAD_REACTORS
330
17
102
}
330
17
100
AcDbMlineStyle
  2
Standard
 70
     0
  3

 62
   256
 51
90.0
 52
90.0
 71
     2
 49
0.5
 62
   256
  6
BYLAYER
 49
-0.5
 62
   256
  6
BYLAYER
  0
ACDBPLACEHOLDER
  5
F
102
{ACAD_REACTORS
330
E
102
}
330
E
  0
VISUALSTYLE
  5
2F
102
{ACAD_REACTORS
330
2A
102
}
330
2A
100
AcDbVisualStyle
  2
2dWireframe
 70
     4
 71
     0
 72
     2
 73
     0
 90
        0
 40
-0.6
 41
-30.0
 62
     5
 63
     7
421
 16777215
 74
     1
 91
        4
 64
     7
 65
   257
 75
     1
175
     1
 42
1.0
 92
        0
 66
   257
 43
1.0
 76
     1
 77
     6
 78
     2
 67
     7
 79
     5
170
     0
171
     0
290
     0
174
     0
 93
        1
 44
0.0
173
     0
291
     0
 45
0.0
1001
ACAD
1000
AcDbSavedByObjectVersion
1070
     0
  0
VISUALSTYLE
  5
31
102
{ACAD_REACTORS
330
2A
102
}
330
2A
100
AcDbVisualStyle
  2
3D Hidden
 70
     6
 71
     1
 72
     2
 73
     2
 90
        0
 40
-0.6
 41
-30.0
 62
     5
 63
     7
421
 16777215
 74
     2
 91
        2
 64
     7
 65
   257
 75
     2
175
     1
 42
40.0
 92
        0
 66
   257
 43
1.0
 76
     1
 77
     6
 78
     2
 67
     7
 79
     3
170
     0
171
     0
290
     0
174
     0
 93
        1
 44
0.0
173
     0
291
     0
 45
0.0
1001
ACAD
1000
AcDbSavedByObjectVersion
1070
     0
  0
VISUALSTYLE
  5
30
102
{ACAD_REACTORS
330
2A
102
}
330
2A
100
AcDbVisualStyle
  2
3dWireframe
 70
     5
 71
     0
 72
     2
 73
     0
 90
        0
 40
-0.6
 41
-30.0
 62
     5
 63
     7
421
 16777215
 74
     1
 91
        4
 64
     7
 65
   257
 75
     1
175
     1
 42
1.0
 92
        0
 66
   257
 43
1.0
 76
     1
 77
     6
 78
     2
 67
     7
 79
     5
170
     0
171
     0
290
     0
174
     0
 93
        1
 44
0.0
173
     0
291
     0
 45
0.0
1001
ACAD
1000
AcDbSavedByObjectVersion
1070
     0
  0
VISUALSTYLE
  5
32
102
{ACAD_REACTORS
330
2A
102
}
330
2A
100
AcDbVisualStyle
  2
Basic
 70
     7
 71
     1
 72
     0
 73
     1
 90
        0
 40
-0.6
 41
-30.0
 62
     5
 63
     7
421
 16777215
 74
     0
 91
        4
 64
     7
 65
   257
 75
     1
175
     1
 42
1.0
 92
        8
 66
     7
 43
1.0
 76
     1
 77
     6
 78
     2
 67
     7
 79
     5
170
     0
171
     0
290
     0
174
     0
 93
        1
 44
0.0
173
     0
291
     1
 45
0.0
1001
ACAD
1000
AcDbSavedByObjectVersion
1070
     0
  0
VISUALSTYLE
  5
36
102
{ACAD_REACTORS
330
2A
102
}
330
2A
100
AcDbVisualStyle
  2
Brighten
 70
    12
 71
     2
 72
     2
 73
     0
 90
        0
 40
-0.6
 41
-30.0
 62
     5
 63
     7
421
 16777215
 74
     1
 91
        4
 64
     7
 65
   257
 75
     1
175
     1
 42
1.0
 92
        8
 66
     7
 43
1.0
 76
     1
 77
     6
 78
     2
 67
     7
 79
     5
170
     0
171
     0
290
     0
174
     0
 93
        1
 44
50.0
173
     0
291
     1
 45
0.0
1001
ACAD
1000
AcDbSavedByObjectVersion
1070
     0
  0
VISUALSTYLE
  5
3A
102
{ACAD_REACTORS
330
2A
102
}
330
2A
100
AcDbVisualStyle
  2
ColorChange
 70
    16
 71
     2
 72
     2
 73
     3
 90
        0
 40
-0.6
 41
-30.0
 62
     5
 63
     8
421
  8421504
 74
     1
 91
        4
 64
     7
 65
   257
 75
     1
175
     1
 42
1.0
 92
        8
 66
     8
424
  8421504
 43
1.0
 76
     1
 77
     6
 78
     2
 67
     7
 79
     5
170
     0
171
     0
290
     0
174
     0
 93
        1
 44
0.0
173
     0
291
     1
 45
0.0
1001
ACAD
1000
AcDbSavedByObjectVersion
1070
     0
  0
VISUALSTYLE
  5
34
102
{ACAD_REACTORS
330
2A
102
}
330
2A
100
AcDbVisualStyle
  2
Conceptual
 70
     9
 71
     3
 72
     2
 73
     0
 90
        0
 40
-0.6
 41
-30.0
 62
     5
 63
     7
421
 16777215
 74
     2
 91
        2
 64
     7
 65
   257
 75
     1
175
     1
 42
40.0
 92
        8
 66
     7
 43
1.0
 76
     1
 77
     6
 78
     2
 67
     7
 79
     3
170
     0
171
     0
290
     0
174
     0
 93
        1
 44
0.0
173
     0
291
     0
 45
0.0
1001
ACAD
1000
AcDbSavedByObjectVersion
1070
     0
  0
VISUALSTYLE
  5
35
102
{ACAD_REACTORS
330
2A
102
}
330
2A
100
AcDbVisualStyle
  2
Dim
 70
    11
 71
     2
 72
     2
 73
     0
 90
        0
 40
-0.6
 41
-30.0
 62
     5
 63
     7
421
 16777215
 74
     1
 91
        4
 64
     7
 65
   257
 75
     1
175
     1
 42
1.0
 92
        8
 66
     7
 43
1.0
 76
     1
 77
     6
 78
     2
 67
     7
 79
     5
170
     0
171
     0
290
     0
174
     0
 93
        1
 44
-50.0
173
     0
291
     1
 45
0.0
1001
ACAD
1000
AcDbSavedByObjectVersion
1070
     0
  0
VISUALSTYLE
  5
39
102
{ACAD_REACTORS
330
2A
102
}
330
2A
100
AcDbVisualStyle
  2
Facepattern
 70
    15
 71
     2
 72
     2
 73
     0
 90
        0
 40
-0.6
 41
-30.0
 62
     5
 63
     7
421
 16777215
 74
     1
 91
        4
 64
     7
 65
   257
 75
     1
175
     1
 42
1.0
 92
        8
 66
     7
 43
1.0
 76
     1
 77
     6
 78
     2
 67
     7
 79
     5
170
     0
171
     0
290
     0
174
     0
 93
        1
 44
0.0
173
     0
291
     1
 45
0.0
1001
ACAD
1000
AcDbSavedByObjectVersion
1070
     0
  0
VISUALSTYLE
  5
2B
102
{ACAD_REACTORS
330
2A
102
}
330
2A
100
AcDbVisualStyle
  2
Flat
 70
     0
 71
     2
 72
     1
 73
     1
 90
        2
 40
-0.6
 41
30.0
 62
     5
 63
     7
421
 16777215
 74
     0
 91
        4
 64
     7
 65
   257
 75
     1
175
     1
 42
1.0
 92
        8
 66
     7
 43
1.0
 76
     1
 77
     6
 78
     2
 67
     7
 79
     5
170
     0
171
     0
290
     0
174
     0
 93
       13
 44
0.0
173
     0
291
     1
 45
0.0
1001
ACAD
1000
AcDbSavedByObjectVersion
1070
     0
  0
VISUALSTYLE
  5
2C
102
{ACAD_REACTORS
330
2A
102
}
330
2A
100
AcDbVisualStyle
  2
FlatWithEdges
 70
     1
 71
     2
 72
     1
 73
     1
 90
        2
 40
-0.6
 41
30.0
 62
     5
 63
     7
421
 16777215
 74
     1
 91
        4
 64
     7
 65
   257
 75
     1
175
     1
 42
1.0
 92
        0
 66
   257
 43
1.0
 76
     1
 77
     6
 78
     2
 67
     7
 79
     5
170
     0
171
     0
290
     0
174
     0
 93
       13
 44
0.0
173
     0
291
     1
 45
0.0
1001
ACAD
1000
AcDbSavedByObjectVersion
1070
     0
  0
VISUALSTYLE
  5
2D
102
{ACAD_REACTORS
330
2A
102
}
330
2A
100
AcDbVisualStyle
  2
Gouraud
 70
     2
 71
     2
 72
     2
 73
     1
 90
        2
 40
-0.6
 41
30.0
 62
     5
 63
     7
421
 16777215
 74
     0
 91
        4
 64
     7
 65
   257
 75
     1
175
     1
 42
1.0
 92
        0
 66
     7
 43
1.0
 76
     1
 77
     6
 78
     2
 67
     7
 79
     5
170
     0
171
     0
290
     0
174
     0
 93
       13
 44
0.0
173
     0
291
     1
 45
0.0
1001
ACAD
1000
AcDbSavedByObjectVersion
1070
     0
  0
VISUALSTYLE
  5
2E
102
{ACAD_REACTORS
330
2A
102
}
330
2A
100
AcDbVisualStyle
  2
GouraudWithEdges
 70
     3
 71
     2
 72
     2
 73
     1
 90
        2
 40
-0.6
 41
30.0
 62
     5
 63
     7
421
 16777215
 74
     1
 91
        4
 64
     7
 65
   257
 75
     1
175
     1
 42
1.0
 92
        0
 66
   257
 43
1.0
 76
     1
 77
     6
 78
     2
 67
     7
 79
     5
170
     0
171
     0
290
     0
174
     0
 93
       13
 44
0.0
173
     0
291
     1
 45
0.0
1001
ACAD
1000
AcDbSavedByObjectVersion
1070
     0
  0
VISUALSTYLE
  5
38
102
{ACAD_REACTORS
330
2A
102
}
330
2A
100
AcDbVisualStyle
  2
Linepattern
 70
    14
 71
     2
 72
     2
 73
     0
 90
        0
 40
-0.6
 41
-30.0
 62
     5
 63
     7
421
 16777215
 74
     1
 91
        4
 64
     7
 65
   257
 75
     7
175
     7
 42
1.0
 92
        8
 66
     7
 43
1.0
 76
     1
 77
     6
 78
     2
 67
     7
 79
     5
170
     0
171
     0
290
     0
174
     0
 93
        1
 44
0.0
173
     0
291
     1
 45
0.0
1001
ACAD
1000
AcDbSavedByObjectVersion
1070
     0
  0
VISUALSTYLE
  5
33
102
{ACAD_REACTORS
330
2A
102
}
330
2A
100
AcDbVisualStyle
  2
Realistic
 70
     8
 71
     2
 72
     2
 73
     0
 90
        0
 40
-0.6
 41
-30.0
 62
     5
 63
     7
421
 16777215
 74
     1
 91
        0
 64
     7
 65
   257
 75
     1
175
     1
 42
1.0
 92
        8
 66
     8
424
  7895160
 43
1.0
 76
     1
 77
     6
 78
     2
 67
     7
 79
     5
170
     0
171
     0
290
     0
174
     0
 93
       13
 44
0.0
173
     0
291
     0
 45
0.0
1001
ACAD
1000
AcDbSavedByObjectVersion
1070
     0
  0
VISUALSTYLE
  5
37
102
{ACAD_REACTORS
330
2A
102
}
330
2A
100
AcDbVisualStyle
  2
Thicken
 70
    13
 71
     2
 72
     2
 73
     0
 90
        0
 40
-0.6
 41
-30.0
 62
     5
 63
     7
421
 16777215
 74
     1
 91
        4
 64
     7
 65
   257
 75
     1
175
     1
 42
1.0
 92
       12
 66
     7
 43
1.0
 76
     1
 77
     6
 78
     2
 67
     7
 79
     5
170
     0
171
     0
290
     0
174
     0
 93
        1
 44
0.0
173
     0
291
     1
 45
0.0
1001
ACAD
1000
AcDbSavedByObjectVersion
1070
     0
  0
ENDSEC
  0
EOF
