  0
SECTION
  2
HEADER
  9
$ACADVER
  1
AC1018
  9
$ACADMAINTVER
 70
     0
  9
$DWGCODEPAGE
  3
ANSI_932
  9
$INSBASE
 10
0.0
 20
0.0
 30
0.0
  9
$EXTMIN
 10
-2100.0
 20
-1485.0
 30
0.0
  9
$EXTMAX
 10
2100.0
 20
1485.0
 30
0.0
  9
$LIMMIN
 10
-2100.0
 20
-1485.0
  9
$LIMMAX
 10
2100.0
 20
1485.0
  9
$ORTHOMODE
 70
     0
  9
$REGENMODE
 70
     1
  9
$FILLMODE
 70
     1
  9
$QTEXTMODE
 70
     0
  9
$MIRRTEXT
 70
     1
  9
$LTSCALE
 40
10.0
  9
$ATTMODE
 70
     1
  9
$TEXTSIZE
 40
2.5
  9
$TRACEWID
 40
1.0
  9
$TEXTSTYLE
  7
Standard
  9
$CLAYER
  8
0
  9
$CELTYPE
  6
ByLayer
  9
$CECOLOR
 62
   256
  9
$CELTSCALE
 40
1.0
  9
$DISPSILH
 70
     0
  9
$DIMSCALE
 40
1.0
  9
$DIMASZ
 40
2.5
  9
$DIMEXO
 40
0.625
  9
$DIMDLI
 40
3.75
  9
$DIMRND
 40
0.0
  9
$DIMDLE
 40
0.0
  9
$DIMEXE
 40
1.25
  9
$DIMTP
 40
0.0
  9
$DIMTM
 40
0.0
  9
$DIMTXT
 40
2.5
  9
$DIMCEN
 40
2.5
  9
$DIMTSZ
 40
0.0
  9
$DIMTOL
 70
     0
  9
$DIMLIM
 70
     0
  9
$DIMTIH
 70
     0
  9
$DIMTOH
 70
     0
  9
$DIMSE1
 70
     0
  9
$DIMSE2
 70
     0
  9
$DIMTAD
 70
     1
  9
$DIMZIN
 70
     8
  9
$DIMBLK
  1

  9
$DIMASO
 70
     1
  9
$DIMSHO
 70
     1
  9
$DIMPOST
  1

  9
$DIMAPOST
  1

  9
$DIMALT
 70
     0
  9
$DIMALTD
 70
     3
  9
$DIMALTF
 40
0.03937007874016
  9
$DIMLFAC
 40
1.0
  9
$DIMTOFL
 70
     1
  9
$DIMTVP
 40
0.0
  9
$DIMTIX
 70
     0
  9
$DIMSOXD
 70
     0
  9
$DIMSAH
 70
     0
  9
$DIMBLK1
  1

  9
$DIMBLK2
  1

  9
$DIMSTYLE
  2
ISO-25
  9
$DIMCLRD
 70
     0
  9
$DIMCLRE
 70
     0
  9
$DIMCLRT
 70
     0
  9
$DIMTFAC
 40
1.0
  9
$DIMGAP
 40
0.625
  9
$DIMJUST
 70
     0
  9
$DIMSD1
 70
     0
  9
$DIMSD2
 70
     0
  9
$DIMTOLJ
 70
     0
  9
$DIMTZIN
 70
     8
  9
$DIMALTZ
 70
     0
  9
$DIMALTTZ
 70
     0
  9
$DIMUPT
 70
     0
  9
$DIMDEC
 70
     2
  9
$DIMTDEC
 70
     2
  9
$DIMALTU
 70
     2
  9
$DIMALTTD
 70
     3
  9
$DIMTXSTY
  7
Standard
  9
$DIMAUNIT
 70
     0
  9
$DIMADEC
 70
     0
  9
$DIMALTRND
 40
0.0
  9
$DIMAZIN
 70
     0
  9
$DIMDSEP
 70
    44
  9
$DIMATFIT
 70
     3
  9
$DIMFRAC
 70
     0
  9
$DIMLDRBLK
  1

  9
$DIMLUNIT
 70
     2
  9
$DIMLWD
 70
    -2
  9
$DIMLWE
 70
    -2
  9
$DIMTMOVE
 70
     0
  9
$LUNITS
 70
     2
  9
$LUPREC
 70
     4
  9
$SKETCHINC
 40
1.0
  9
$FILLETRAD
 40
10.0
  9
$AUNITS
 70
     0
  9
$AUPREC
 70
     0
  9
$MENU
  1
.
  9
$ELEVATION
 40
0.0
  9
$PELEVATION
 40
0.0
  9
$THICKNESS
 40
0.0
  9
$LIMCHECK
 70
     0
  9
$CHAMFERA
 40
10.0
  9
$CHAMFERB
 40
10.0
  9
$CHAMFERC
 40
20.0
  9
$CHAMFERD
 40
0.0
  9
$SKPOLY
 70
     0
  9
$TDCREATE
 40
2457641.426719329
  9
$TDUCREATE
 40
2457641.051719329
  9
$TDUPDATE
 40
2457641.42671934
  9
$TDUUPDATE
 40
2457641.05171934
  9
$TDINDWG
 40
0.0000000116
  9
$TDUSRTIMER
 40
0.0000000116
  9
$USRTIMER
 70
     1
  9
$ANGBASE
 50
0.0
  9
$ANGDIR
 70
     0
  9
$PDMODE
 70
     0
  9
$PDSIZE
 40
0.0
  9
$PLINEWID
 40
0.0
  9
$SPLFRAME
 70
     0
  9
$SPLINETYPE
 70
     6
  9
$SPLINESEGS
 70
     8
  9
$HANDSEED
  5
604
  9
$SURFTAB1
 70
     6
  9
$SURFTAB2
 70
     6
  9
$SURFTYPE
 70
     6
  9
$SURFU
 70
     6
  9
$SURFV
 70
     6
  9
$UCSBASE
  2

  9
$UCSNAME
  2

  9
$UCSORG
 10
0.0
 20
0.0
 30
0.0
  9
$UCSXDIR
 10
1.0
 20
0.0
 30
0.0
  9
$UCSYDIR
 10
0.0
 20
1.0
 30
0.0
  9
$UCSORTHOREF
  2

  9
$UCSORTHOVIEW
 70
     0
  9
$UCSORGTOP
 10
0.0
 20
0.0
 30
0.0
  9
$UCSORGBOTTOM
 10
0.0
 20
0.0
 30
0.0
  9
$UCSORGLEFT
 10
0.0
 20
0.0
 30
0.0
  9
$UCSORGRIGHT
 10
0.0
 20
0.0
 30
0.0
  9
$UCSORGFRONT
 10
0.0
 20
0.0
 30
0.0
  9
$UCSORGBACK
 10
0.0
 20
0.0
 30
0.0
  9
$PUCSBASE
  2

  9
$PUCSNAME
  2

  9
$PUCSORG
 10
0.0
 20
0.0
 30
0.0
  9
$PUCSXDIR
 10
1.0
 20
0.0
 30
0.0
  9
$PUCSYDIR
 10
0.0
 20
1.0
 30
0.0
  9
$PUCSORTHOREF
  2

  9
$PUCSORTHOVIEW
 70
     0
  9
$PUCSORGTOP
 10
0.0
 20
0.0
 30
0.0
  9
$PUCSORGBOTTOM
 10
0.0
 20
0.0
 30
0.0
  9
$PUCSORGLEFT
 10
0.0
 20
0.0
 30
0.0
  9
$PUCSORGRIGHT
 10
0.0
 20
0.0
 30
0.0
  9
$PUCSORGFRONT
 10
0.0
 20
0.0
 30
0.0
  9
$PUCSORGBACK
 10
0.0
 20
0.0
 30
0.0
  9
$USERI1
 70
     0
  9
$USERI2
 70
     0
  9
$USERI3
 70
     0
  9
$USERI4
 70
     0
  9
$USERI5
 70
     0
  9
$USERR1
 40
0.0
  9
$USERR2
 40
0.0
  9
$USERR3
 40
0.0
  9
$USERR4
 40
0.0
  9
$USERR5
 40
0.0
  9
$WORLDVIEW
 70
     1
  9
$SHADEDGE
 70
     3
  9
$SHADEDIF
 70
    70
  9
$TILEMODE
 70
     1
  9
$MAXACTVP
 70
    64
  9
$PINSBASE
 10
0.0
 20
0.0
 30
0.0
  9
$PLIMCHECK
 70
     0
  9
$PEXTMIN
 10
1.000000000000000E+20
 20
1.000000000000000E+20
 30
1.000000000000000E+20
  9
$PEXTMAX
 10
-1.000000000000000E+20
 20
-1.000000000000000E+20
 30
-1.000000000000000E+20
  9
$PLIMMIN
 10
0.0
 20
0.0
  9
$PLIMMAX
 10
420.0
 20
297.0
  9
$UNITMODE
 70
     0
  9
$VISRETAIN
 70
     1
  9
$PLINEGEN
 70
     0
  9
$PSLTSCALE
 70
     1
  9
$TREEDEPTH
 70
  3020
  9
$CMLSTYLE
  2
Standard
  9
$CMLJUST
 70
     0
  9
$CMLSCALE
 40
20.0
  9
$PROXYGRAPHICS
 70
     1
  9
$MEASUREMENT
 70
     1
  9
$CELWEIGHT
370
    -1
  9
$ENDCAPS
280
     0
  9
$JOINSTYLE
280
     0
  9
$LWDISPLAY
290
     0
  9
$INSUNITS
 70
     4
  9
$HYPERLINKBASE
  1

  9
$STYLESHEET
  1

  9
$XEDIT
290
     1
  9
$CEPSNTYPE
380
     0
  9
$PSTYLEMODE
290
     1
  9
$FINGERPRINTGUID
  2
{BA2D85D7-8583-4DBD-B93C-51029187DC22}
  9
$VERSIONGUID
  2
{FAEB1C32-E019-11D5-929B-00C0DF256EC4}
  9
$EXTNAMES
290
     1
  9
$PSVPSCALE
 40
0.0
  9
$OLESTARTUP
290
     0
  9
$SORTENTS
280
   127
  9
$INDEXCTL
280
     0
  9
$HIDETEXT
280
     1
  9
$XCLIPFRAME
290
     0
  9
$HALOGAP
280
     0
  9
$OBSCOLOR
 70
   257
  9
$OBSLTYPE
280
     0
  9
$INTERSECTIONDISPLAY
280
     0
  9
$INTERSECTIONCOLOR
 70
   257
  9
$DIMASSOC
280
     2
  9
$PROJECTNAME
  1

  0
ENDSEC
  0
SECTION
  2
CLASSES
  0
CLASS
  1
ACDBDICTIONARYWDFLT
  2
AcDbDictionaryWithDefault
  3
ObjectDBX Classes
 90
        0
 91
        4
280
     0
281
     0
  0
CLASS
  1
VISUALSTYLE
  2
AcDbVisualStyle
  3
ObjectDBX Classes
 90
     4095
 91
        4
280
     0
281
     0
  0
ENDSEC
  0
SECTION
  2
TABLES
  0
TABLE
  2
VPORT
  5
8
330
0
100
AcDbSymbolTable
 70
     1
  0
VPORT
  5
29
330
8
100
AcDbSymbolTableRecord
100
AcDbViewportTableRecord
  2
*Active
 70
     0
 10
0.0
 20
0.0
 11
1.0
 21
1.0
 12
0.0
 22
0.0
 13
0.0
 23
0.0
 14
10.0
 24
10.0
 15
10.0
 25
10.0
 16
0.0
 26
0.0
 36
1.0
 17
0.0
 27
0.0
 37
0.0
 40
3267.0
 41
1.414141414141414
 42
50.0
 43
0.0
 44
0.0
 50
0.0
 51
0.0
 71
     0
 72
 10000
 73
     1
 74
     3
 75
     0
 76
     0
 77
     0
 78
     0
281
     0
 65
     1
110
0.0
120
0.0
130
0.0
111
1.0
121
0.0
131
0.0
112
0.0
122
1.0
132
0.0
 79
     0
146
0.0
  0
ENDTAB
  0
TABLE
  2
LTYPE
  5
5
330
0
100
AcDbSymbolTable
 70
     5
  0
LTYPE
  5
14
330
5
100
AcDbSymbolTableRecord
100
AcDbLinetypeTableRecord
  2
ByBlock
 70
     0
  3

 72
    65
 73
     0
 40
0.0
  0
LTYPE
  5
15
330
5
100
AcDbSymbolTableRecord
100
AcDbLinetypeTableRecord
  2
ByLayer
 70
     0
  3

 72
    65
 73
     0
 40
0.0
  0
LTYPE
  5
16
330
5
100
AcDbSymbolTableRecord
100
AcDbLinetypeTableRecord
  2
Continuous
 70
     0
  3
Solid line
 72
    65
 73
     0
 40
0.0
  0
LTYPE
  5
3C
330
5
100
AcDbSymbolTableRecord
100
AcDbLinetypeTableRecord
  2
JWW_DASHED3
 70
     0
  3
---  ------  ------  ------  ---
 72
    65
 73
     2
 40
3.386666666666667
 49
2.54
 74
     0
 49
-0.8466666666666667
 74
     0
  0
LTYPE
  5
3D
330
5
100
AcDbSymbolTableRecord
100
AcDbLinetypeTableRecord
  2
JWW_CENTER2
 70
     0
  3
-------------  --  -------------
 72
    65
 73
     4
 40
13.54666666666667
 49
11.00666666666667
 74
     0
 49
-0.8466666666666667
 74
     0
 49
0.8466666666666667
 74
     0
 49
-0.8466666666666667
 74
     0
  0
LTYPE
  5
3E
330
5
100
AcDbSymbolTableRecord
100
AcDbLinetypeTableRecord
  2
JWW_CENTER1
 70
     0
  3
-----  --  ----------  --  -----
 72
    65
 73
     4
 40
6.773333333333333
 49
4.233333333333333
 74
     0
 49
-0.8466666666666667
 74
     0
 49
0.8466666666666667
 74
     0
 49
-0.8466666666666667
 74
     0
  0
LTYPE
  5
3F
330
5
100
AcDbSymbolTableRecord
100
AcDbLinetypeTableRecord
  2
JWW_DASHED2
 70
     0
  3
--    ----    ----    ----    --
 72
    65
 73
     2
 40
3.386666666666667
 49
1.693333333333333
 74
     0
 49
-1.693333333333333
 74
     0
  0
ENDTAB
  0
TABLE
  2
LAYER
  5
2
330
0
100
AcDbSymbolTable
 70
    17
  0
LAYER
  5
10
330
2
100
AcDbSymbolTableRecord
100
AcDbLayerTableRecord
  2
0
 70
     0
 62
     7
  6
Continuous
370
    -3
390
F
  0
LAYER
  5
40
330
2
100
AcDbSymbolTableRecord
100
AcDbLayerTableRecord
  2
C-4
 70
     0
 62
     7
  6
Continuous
370
    -3
390
F
  0
LAYER
  5
41
330
2
100
AcDbSymbolTableRecord
100
AcDbLayerTableRecord
  2
C-5
 70
     0
 62
     7
  6
Continuous
370
    -3
390
F
  0
LAYER
  5
42
330
2
100
AcDbSymbolTableRecord
100
AcDbLayerTableRecord
  2
C-1
 70
     0
 62
     7
  6
Continuous
370
    -3
390
F
  0
LAYER
  5
43
330
2
100
AcDbSymbolTableRecord
100
AcDbLayerTableRecord
  2
C-2
 70
     0
 62
     7
  6
Continuous
370
    -3
390
F
  0
LAYER
  5
44
330
2
100
AcDbSymbolTableRecord
100
AcDbLayerTableRecord
  2
C-A
 70
     0
 62
     7
  6
Continuous
370
    -3
390
F
  0
LAYER
  5
45
330
2
100
AcDbSymbolTableRecord
100
AcDbLayerTableRecord
  2
D-2
 70
     0
 62
     7
  6
Continuous
370
    -3
390
F
  0
LAYER
  5
46
330
2
100
AcDbSymbolTableRecord
100
AcDbLayerTableRecord
  2
D-4
 70
     0
 62
     7
  6
Continuous
370
    -3
390
F
  0
LAYER
  5
47
330
2
100
AcDbSymbolTableRecord
100
AcDbLayerTableRecord
  2
D-6
 70
     0
 62
     7
  6
Continuous
370
    -3
390
F
  0
LAYER
  5
48
330
2
100
AcDbSymbolTableRecord
100
AcDbLayerTableRecord
  2
D-0
 70
     0
 62
     7
  6
Continuous
370
    -3
390
F
  0
LAYER
  5
49
330
2
100
AcDbSymbolTableRecord
100
AcDbLayerTableRecord
  2
D-9
 70
     0
 62
     7
  6
Continuous
370
    -3
390
F
  0
LAYER
  5
4A
330
2
100
AcDbSymbolTableRecord
100
AcDbLayerTableRecord
  2
D-1
 70
     0
 62
     7
  6
Continuous
370
    -3
390
F
  0
LAYER
  5
4B
330
2
100
AcDbSymbolTableRecord
100
AcDbLayerTableRecord
  2
D-3
 70
     0
 62
     7
  6
Continuous
370
    -3
390
F
  0
LAYER
  5
4C
330
2
100
AcDbSymbolTableRecord
100
AcDbLayerTableRecord
  2
D-A
 70
     0
 62
     7
  6
Continuous
370
    -3
390
F
  0
LAYER
  5
4D
330
2
100
AcDbSymbolTableRecord
100
AcDbLayerTableRecord
  2
D-5
 70
     0
 62
     7
  6
Continuous
370
    -3
390
F
  0
LAYER
  5
4E
330
2
100
AcDbSymbolTableRecord
100
AcDbLayerTableRecord
  2
F-5ﾚｲﾔ
 70
     0
 62
     7
  6
Continuous
370
    -3
390
F
  0
LAYER
  5
4F
330
2
100
AcDbSymbolTableRecord
100
AcDbLayerTableRecord
  2
F-4ﾚｲﾔ
 70
     0
 62
     7
  6
Continuous
370
    -3
390
F
  0
ENDTAB
  0
TABLE
  2
STYLE
  5
3
330
0
100
AcDbSymbolTable
 70
     2
  0
STYLE
  5
11
330
3
100
AcDbSymbolTableRecord
100
AcDbTextStyleTableRecord
  2
Standard
 70
     0
 40
0.0
 41
1.0
 50
0.0
 71
     0
 42
2.5
  3
txt
  4

1001
ACAD
1000

1071
        0
  0
STYLE
  5
3B
330
3
100
AcDbSymbolTableRecord
100
AcDbTextStyleTableRecord
  2
ＭＳ ゴシック
 70
     0
 40
1.0
 41
1.0
 50
0.0
 71
     0
 42
10.0
  3

  4

1001
ACAD
1000
MS Gothic
1071
    32817
  0
ENDTAB
  0
TABLE
  2
VIEW
  5
6
330
0
100
AcDbSymbolTable
 70
     0
  0
ENDTAB
  0
TABLE
  2
UCS
  5
7
330
0
100
AcDbSymbolTable
 70
     0
  0
ENDTAB
  0
TABLE
  2
APPID
  5
9
330
0
100
AcDbSymbolTable
 70
     1
  0
APPID
  5
12
330
9
100
AcDbSymbolTableRecord
100
AcDbRegAppTableRecord
  2
ACAD
 70
     0
  0
ENDTAB
  0
TABLE
  2
DIMSTYLE
  5
A
330
0
100
AcDbSymbolTable
 70
     1
100
AcDbDimStyleTable
  0
DIMSTYLE
105
27
330
A
100
AcDbSymbolTableRecord
100
AcDbDimStyleTableRecord
  2
ISO-25
 70
     0
 41
2.5
 42
0.625
 43
3.75
 44
1.25
 73
     0
 74
     0
 77
     1
 78
     8
140
2.5
141
2.5
143
0.03937007874016
147
0.625
171
     3
172
     1
271
     2
272
     2
274
     3
278
    44
283
     0
284
     8
340
11
  0
ENDTAB
  0
TABLE
  2
BLOCK_RECORD
  5
1
330
0
100
AcDbSymbolTable
 70
     1
  0
BLOCK_RECORD
  5
1F
330
1
100
AcDbSymbolTableRecord
100
AcDbBlockTableRecord
  2
*Model_Space
340
22
  0
BLOCK_RECORD
  5
1B
330
1
100
AcDbSymbolTableRecord
100
AcDbBlockTableRecord
  2
*Paper_Space
340
1E
  0
BLOCK_RECORD
  5
23
330
1
100
AcDbSymbolTableRecord
100
AcDbBlockTableRecord
  2
*Paper_Space0
340
26
  0
ENDTAB
  0
ENDSEC
  0
SECTION
  2
BLOCKS
  0
BLOCK
  5
20
330
1F
100
AcDbEntity
  8
0
100
AcDbBlockBegin
  2
*Model_Space
 70
     0
 10
0.0
 20
0.0
 30
0.0
  3
*Model_Space
  1

  0
ENDBLK
  5
21
330
1F
100
AcDbEntity
  8
0
100
AcDbBlockEnd
  0
BLOCK
  5
1C
330
1B
100
AcDbEntity
 67
     1
  8
0
100
AcDbBlockBegin
  2
*Paper_Space
 70
     0
 10
0.0
 20
0.0
 30
0.0
  3
*Paper_Space
  1

  0
ENDBLK
  5
1D
330
1B
100
AcDbEntity
 67
     1
  8
0
100
AcDbBlockEnd
  0
BLOCK
  5
24
330
23
100
AcDbEntity
  8
0
100
AcDbBlockBegin
  2
*Paper_Space0
 70
     0
 10
0.0
 20
0.0
 30
0.0
  3
*Paper_Space0
  1

  0
ENDBLK
  5
25
330
23
100
AcDbEntity
  8
0
100
AcDbBlockEnd
  0
ENDSEC
  0
SECTION
  2
ENTITIES
  0
LINE
  5
50
330
1F
100
AcDbEntity
  8
C-4
  6
Continuous
 62
     7
370
     9
100
AcDbLine
 10
-1002.10597138866
 20
1169.891227103569
 30
0.0
 11
-1001.105620436511
 21
1169.891227103569
 31
0.0
  0
LINE
  5
51
330
1F
100
AcDbEntity
  8
C-4
  6
Continuous
 62
     7
370
     9
100
AcDbLine
 10
-576.1058836506224
 20
1094.891227103569
 30
0.0
 11
-551.1059752033567
 21
1094.891227103569
 31
0.0
  0
LINE
  5
52
330
1F
100
AcDbEntity
  8
C-4
  6
Continuous
 62
     7
370
     9
100
AcDbLine
 10
-551.1059752033567
 20
1169.891227103569
 30
0.0
 11
-550.1056700275756
 21
1169.891227103569
 31
0.0
  0
LINE
  5
53
330
1F
100
AcDbEntity
  8
C-4
  6
Continuous
 62
     7
370
     9
100
AcDbLine
 10
-1001.105620436511
 20
1169.891227103569
 30
0.0
 11
-551.1059752033567
 21
1169.891227103569
 31
0.0
  0
LINE
  5
54
330
1F
100
AcDbEntity
  8
C-4
  6
Continuous
 62
     7
370
     9
100
AcDbLine
 10
-976.1057539509153
 20
1094.891227103569
 30
0.0
 11
-576.1058836506224
 21
1094.891227103569
 31
0.0
  0
LINE
  5
55
330
1F
100
AcDbEntity
  8
C-5
  6
Continuous
 62
     7
370
     9
100
AcDbLine
 10
-488.6056089924193
 20
371.891776419975
 30
0.0
 11
-1063.606036238513
 21
371.891776419975
 31
0.0
  0
LINE
  5
56
330
1F
100
AcDbEntity
  8
C-4
  6
Continuous
 62
     7
370
     9
100
AcDbLine
 10
-1001.105620436511
 20
1094.891227103569
 30
0.0
 11
-551.1059752033567
 21
1094.891227103569
 31
0.0
  0
LINE
  5
57
330
1F
100
AcDbEntity
  8
C-4
  6
Continuous
 62
     7
370
     9
100
AcDbLine
 10
-1001.105620436511
 20
1172.891288138725
 30
0.0
 11
-1001.105620436511
 21
1032.891349173881
 31
0.0
  0
LINE
  5
58
330
1F
100
AcDbEntity
  8
C-4
  6
Continuous
 62
     7
370
     9
100
AcDbLine
 10
-1002.10597138866
 20
1172.891288138725
 30
0.0
 11
-1002.10597138866
 21
1032.891349173881
 31
0.0
  0
LINE
  5
59
330
1F
100
AcDbEntity
  8
C-4
  6
Continuous
 62
     7
370
     9
100
AcDbLine
 10
-976.1057539509153
 20
1097.891166068413
 30
0.0
 11
-976.1057539509153
 21
1032.891349173881
 31
0.0
  0
LINE
  5
5A
330
1F
100
AcDbEntity
  8
C-1
  6
Continuous
 62
     2
370
     9
100
AcDbLine
 10
-1002.10597138866
 20
995.8914712441938
 30
0.0
 11
-1002.10597138866
 21
543.8917916787641
 31
0.0
  0
LINE
  5
5B
330
1F
100
AcDbEntity
  8
C-1
  6
JWW_DASHED3
 62
     2
370
     9
100
AcDbLine
 10
-976.1057539509153
 20
569.891517020561
 30
0.0
 11
-976.1057539509153
 21
969.891288138725
 31
0.0
  0
LINE
  5
5C
330
1F
100
AcDbEntity
  8
C-2
  6
Continuous
 62
     3
370
     9
100
AcDbLine
 10
-1001.105620436511
 20
544.8916390908735
 30
0.0
 11
-1001.105620436511
 21
994.8916543496625
 31
0.0
  0
LINE
  5
5D
330
1F
100
AcDbEntity
  8
C-4
  6
Continuous
 62
     7
370
     9
100
AcDbLine
 10
-550.1056700275756
 20
1172.891288138725
 30
0.0
 11
-550.1056700275756
 21
1032.891349173881
 31
0.0
  0
LINE
  5
5E
330
1F
100
AcDbEntity
  8
C-4
  6
Continuous
 62
     7
370
     9
100
AcDbLine
 10
-551.1059752033567
 20
1172.891288138725
 30
0.0
 11
-551.1059752033567
 21
1032.891349173881
 31
0.0
  0
LINE
  5
5F
330
1F
100
AcDbEntity
  8
C-4
  6
Continuous
 62
     7
370
     9
100
AcDbLine
 10
-576.1058836506224
 20
1097.891166068413
 30
0.0
 11
-576.1058836506224
 21
1032.891349173881
 31
0.0
  0
LINE
  5
60
330
1F
100
AcDbEntity
  8
C-2
  6
Continuous
 62
     3
370
     9
100
AcDbLine
 10
-551.1059752033567
 20
544.8916390908735
 30
0.0
 11
-551.1059752033567
 21
994.8916543496625
 31
0.0
  0
LINE
  5
61
330
1F
100
AcDbEntity
  8
C-1
  6
Continuous
 62
     2
370
     9
100
AcDbLine
 10
-550.1056700275756
 20
543.8917916787641
 30
0.0
 11
-550.1056700275756
 21
995.8914712441938
 31
0.0
  0
LINE
  5
62
330
1F
100
AcDbEntity
  8
C-1
  6
JWW_DASHED3
 62
     2
370
     9
100
AcDbLine
 10
-576.1058836506224
 20
569.891517020561
 30
0.0
 11
-576.1058836506224
 21
969.891288138725
 31
0.0
  0
LINE
  5
63
330
1F
100
AcDbEntity
  8
C-2
  6
Continuous
 62
     3
370
     9
100
AcDbLine
 10
-551.1059752033567
 20
544.8916390908735
 30
0.0
 11
-1001.105620436511
 21
544.8916390908735
 31
0.0
  0
LINE
  5
64
330
1F
100
AcDbEntity
  8
C-1
  6
Continuous
 62
     2
370
     9
100
AcDbLine
 10
-1002.10597138866
 20
543.8917916787641
 30
0.0
 11
-550.1056700275756
 21
543.8917916787641
 31
0.0
  0
LINE
  5
65
330
1F
100
AcDbEntity
  8
C-1
  6
JWW_DASHED3
 62
     2
370
     9
100
AcDbLine
 10
-576.1058836506224
 20
569.891517020561
 30
0.0
 11
-976.1057539509153
 21
569.891517020561
 31
0.0
  0
LINE
  5
66
330
1F
100
AcDbEntity
  8
C-2
  6
Continuous
 62
     3
370
     9
100
AcDbLine
 10
-1001.105620436511
 20
994.8916543496625
 30
0.0
 11
-551.1059752033567
 21
994.8916543496625
 31
0.0
  0
LINE
  5
67
330
1F
100
AcDbEntity
  8
C-1
  6
Continuous
 62
     2
370
     9
100
AcDbLine
 10
-1002.10597138866
 20
995.8914712441938
 30
0.0
 11
-550.1056700275756
 21
995.8914712441938
 31
0.0
  0
LINE
  5
68
330
1F
100
AcDbEntity
  8
C-1
  6
JWW_DASHED3
 62
     2
370
     9
100
AcDbLine
 10
-976.1057539509153
 20
969.891288138725
 30
0.0
 11
-576.1058836506224
 21
969.891288138725
 31
0.0
  0
LINE
  5
69
330
1F
100
AcDbEntity
  8
C-1
  6
Continuous
 62
     3
370
     9
100
AcDbLine
 10
-998.1055555866576
 20
544.8760903848188
 30
0.0
 11
-998.1055555866576
 21
994.8916543496625
 31
0.0
  0
LINE
  5
6A
330
1F
100
AcDbEntity
  8
C-A
  6
Continuous
 62
     3
370
     9
100
AcDbLine
 10
-554.1060667560912
 20
986.8916543496625
 30
0.0
 11
-998.1055555866576
 21
986.8916543496625
 31
0.0
  0
LINE
  5
6B
330
1F
100
AcDbEntity
  8
C-A
  6
Continuous
 62
     3
370
     9
100
AcDbLine
 10
-554.1060667560912
 20
981.0787271035688
 30
0.0
 11
-998.1055555866576
 21
981.0787271035688
 31
0.0
  0
LINE
  5
6C
330
1F
100
AcDbEntity
  8
C-A
  6
Continuous
 62
     3
370
     9
100
AcDbLine
 10
-554.1060667560912
 20
973.0788491738813
 30
0.0
 11
-998.1055555866576
 21
973.0788491738813
 31
0.0
  0
LINE
  5
6D
330
1F
100
AcDbEntity
  8
C-A
  6
Continuous
 62
     3
370
     9
100
AcDbLine
 10
-554.1060667560912
 20
967.2654336465376
 30
0.0
 11
-998.1055555866576
 21
967.2654336465376
 31
0.0
  0
LINE
  5
6E
330
1F
100
AcDbEntity
  8
C-A
  6
Continuous
 62
     3
370
     9
100
AcDbLine
 10
-554.1060667560912
 20
959.2655557168501
 30
0.0
 11
-998.1055555866576
 21
959.2655557168501
 31
0.0
  0
LINE
  5
6F
330
1F
100
AcDbEntity
  8
C-A
  6
Continuous
 62
     3
370
     9
100
AcDbLine
 10
-554.1060667560912
 20
953.4525064004438
 30
0.0
 11
-998.1055555866576
 21
953.4525064004438
 31
0.0
  0
LINE
  5
70
330
1F
100
AcDbEntity
  8
C-A
  6
Continuous
 62
     3
370
     9
100
AcDbLine
 10
-554.1060667560912
 20
945.4526284707563
 30
0.0
 11
-998.1055555866576
 21
945.4526284707563
 31
0.0
  0
LINE
  5
71
330
1F
100
AcDbEntity
  8
C-A
  6
Continuous
 62
     3
370
     9
100
AcDbLine
 10
-554.1060667560912
 20
939.6397012246626
 30
0.0
 11
-998.1055555866576
 21
939.6397012246626
 31
0.0
  0
LINE
  5
72
330
1F
100
AcDbEntity
  8
C-A
  6
Continuous
 62
     3
370
     9
100
AcDbLine
 10
-554.1060667560912
 20
931.6397012246625
 30
0.0
 11
-998.1055555866576
 21
931.6397012246625
 31
0.0
  0
LINE
  5
73
330
1F
100
AcDbEntity
  8
C-A
  6
Continuous
 62
     3
370
     9
100
AcDbLine
 10
-554.1060667560912
 20
925.8267739785688
 30
0.0
 11
-998.1055555866576
 21
925.8267739785688
 31
0.0
  0
LINE
  5
74
330
1F
100
AcDbEntity
  8
C-A
  6
Continuous
 62
     3
370
     9
100
AcDbLine
 10
-554.1060667560912
 20
917.8268960488813
 30
0.0
 11
-998.1055555866576
 21
917.8268960488813
 31
0.0
  0
LINE
  5
75
330
1F
100
AcDbEntity
  8
C-A
  6
Continuous
 62
     3
370
     9
100
AcDbLine
 10
-554.1060667560912
 20
912.0134805215375
 30
0.0
 11
-998.1055555866576
 21
912.0134805215375
 31
0.0
  0
LINE
  5
76
330
1F
100
AcDbEntity
  8
C-A
  6
Continuous
 62
     3
370
     9
100
AcDbLine
 10
-554.1060667560912
 20
904.01360259185
 30
0.0
 11
-998.1055555866576
 21
904.01360259185
 31
0.0
  0
LINE
  5
77
330
1F
100
AcDbEntity
  8
C-A
  6
Continuous
 62
     3
370
     9
100
AcDbLine
 10
-554.1060667560912
 20
898.2005532754438
 30
0.0
 11
-998.1055555866576
 21
898.2005532754438
 31
0.0
  0
LINE
  5
78
330
1F
100
AcDbEntity
  8
C-A
  6
Continuous
 62
     3
370
     9
100
AcDbLine
 10
-554.1060667560912
 20
890.2007363809125
 30
0.0
 11
-998.1055555866576
 21
890.2007363809125
 31
0.0
  0
LINE
  5
79
330
1F
100
AcDbEntity
  8
C-A
  6
Continuous
 62
     3
370
     9
100
AcDbLine
 10
-554.1060667560912
 20
884.3876870645063
 30
0.0
 11
-998.1055555866576
 21
884.3876870645063
 31
0.0
  0
LINE
  5
7A
330
1F
100
AcDbEntity
  8
C-A
  6
Continuous
 62
     3
370
     9
100
AcDbLine
 10
-554.1060667560912
 20
876.3877786172407
 30
0.0
 11
-998.1055555866576
 21
876.3877786172407
 31
0.0
  0
LINE
  5
7B
330
1F
100
AcDbEntity
  8
C-A
  6
Continuous
 62
     3
370
     9
100
AcDbLine
 10
-554.1060667560912
 20
870.5744546426314
 30
0.0
 11
-998.1055555866576
 21
870.5744546426314
 31
0.0
  0
LINE
  5
7C
330
1F
100
AcDbEntity
  8
C-A
  6
Continuous
 62
     3
370
     9
100
AcDbLine
 10
-554.1060667560912
 20
862.5745461953657
 30
0.0
 11
-998.1055555866576
 21
862.5745461953657
 31
0.0
  0
LINE
  5
7D
330
1F
100
AcDbEntity
  8
C-A
  6
Continuous
 62
     3
370
     9
100
AcDbLine
 10
-554.1060667560912
 20
856.7615273965375
 30
0.0
 11
-998.1055555866576
 21
856.7615273965375
 31
0.0
  0
LINE
  5
7E
330
1F
100
AcDbEntity
  8
C-A
  6
Continuous
 62
     3
370
     9
100
AcDbLine
 10
-554.1060667560912
 20
848.7616799844282
 30
0.0
 11
-998.1055555866576
 21
848.7616799844282
 31
0.0
  0
LINE
  5
7F
330
1F
100
AcDbEntity
  8
C-A
  6
Continuous
 62
     3
370
     9
100
AcDbLine
 10
-554.1060667560912
 20
842.9486611856
 30
0.0
 11
-998.1055555866576
 21
842.9486611856
 31
0.0
  0
LINE
  5
80
330
1F
100
AcDbEntity
  8
C-A
  6
Continuous
 62
     3
370
     9
100
AcDbLine
 10
-554.1060667560912
 20
834.9487527383344
 30
0.0
 11
-998.1055555866576
 21
834.9487527383344
 31
0.0
  0
LINE
  5
81
330
1F
100
AcDbEntity
  8
C-A
  6
Continuous
 62
     3
370
     9
100
AcDbLine
 10
-554.1060667560912
 20
829.1357339395063
 30
0.0
 11
-998.1055555866576
 21
829.1357339395063
 31
0.0
  0
LINE
  5
82
330
1F
100
AcDbEntity
  8
C-A
  6
Continuous
 62
     3
370
     9
100
AcDbLine
 10
-554.1060667560912
 20
821.1358254922408
 30
0.0
 11
-998.1055555866576
 21
821.1358254922408
 31
0.0
  0
LINE
  5
83
330
1F
100
AcDbEntity
  8
C-A
  6
Continuous
 62
     3
370
     9
100
AcDbLine
 10
-554.1060667560912
 20
815.3225015176313
 30
0.0
 11
-998.1055555866576
 21
815.3225015176313
 31
0.0
  0
LINE
  5
84
330
1F
100
AcDbEntity
  8
C-A
  6
Continuous
 62
     3
370
     9
100
AcDbLine
 10
-998.1055555866576
 20
544.8916390908735
 30
0.0
 11
-998.1055555866576
 21
994.8916543496625
 31
0.0
  0
LINE
  5
85
330
1F
100
AcDbEntity
  8
C-A
  6
Continuous
 62
     3
370
     9
100
AcDbLine
 10
-941.0553007648803
 20
986.8916543496625
 30
0.0
 11
-941.0553007648803
 21
981.0787271035688
 31
0.0
  0
LINE
  5
86
330
1F
100
AcDbEntity
  8
C-A
  6
Continuous
 62
     3
370
     9
100
AcDbLine
 10
-936.1060591266966
 20
986.8916543496625
 30
0.0
 11
-936.1060591266966
 21
981.0787271035688
 31
0.0
  0
LINE
  5
87
330
1F
100
AcDbEntity
  8
C-A
  6
Continuous
 62
     3
370
     9
100
AcDbLine
 10
-931.1563292072631
 20
986.8916543496625
 30
0.0
 11
-931.1563292072631
 21
981.0787271035688
 31
0.0
  0
LINE
  5
88
330
1F
100
AcDbEntity
  8
C-A
  6
Continuous
 62
     3
370
     9
100
AcDbLine
 10
-861.0554228351928
 20
986.8916543496625
 30
0.0
 11
-861.0554228351928
 21
981.0787271035688
 31
0.0
  0
LINE
  5
89
330
1F
100
AcDbEntity
  8
C-A
  6
Continuous
 62
     3
370
     9
100
AcDbLine
 10
-856.1056852863646
 20
986.8916543496625
 30
0.0
 11
-856.1056852863646
 21
981.0787271035688
 31
0.0
  0
LINE
  5
8A
330
1F
100
AcDbEntity
  8
C-A
  6
Continuous
 62
     3
370
     9
100
AcDbLine
 10
-851.1559629963256
 20
986.8916543496625
 30
0.0
 11
-851.1559629963256
 21
981.0787271035688
 31
0.0
  0
LINE
  5
8B
330
1F
100
AcDbEntity
  8
C-A
  6
Continuous
 62
     3
370
     9
100
AcDbLine
 10
-781.0555296467162
 20
986.8916543496625
 30
0.0
 11
-781.0555296467162
 21
981.0787271035688
 31
0.0
  0
LINE
  5
8C
330
1F
100
AcDbEntity
  8
C-A
  6
Continuous
 62
     3
370
     9
100
AcDbLine
 10
-776.1058226154661
 20
986.8916543496625
 30
0.0
 11
-776.1058226154661
 21
981.0787271035688
 31
0.0
  0
LINE
  5
8D
330
1F
100
AcDbEntity
  8
C-A
  6
Continuous
 62
     3
370
     9
100
AcDbLine
 10
-771.1555967853881
 20
986.8916543496625
 30
0.0
 11
-771.1555967853881
 21
981.0787271035688
 31
0.0
  0
LINE
  5
8E
330
1F
100
AcDbEntity
  8
C-A
  6
Continuous
 62
     3
370
     9
100
AcDbLine
 10
-701.0556822346068
 20
986.8916543496625
 30
0.0
 11
-701.0556822346068
 21
981.0787271035688
 31
0.0
  0
LINE
  5
8F
330
1F
100
AcDbEntity
  8
C-A
  6
Continuous
 62
     3
370
     9
100
AcDbLine
 10
-696.1059446857786
 20
986.8916543496625
 30
0.0
 11
-696.1059446857786
 21
981.0787271035688
 31
0.0
  0
LINE
  5
90
330
1F
100
AcDbEntity
  8
C-A
  6
Continuous
 62
     3
370
     9
100
AcDbLine
 10
-691.1562071369506
 20
986.8916543496625
 30
0.0
 11
-691.1562071369506
 21
981.0787271035688
 31
0.0
  0
LINE
  5
91
330
1F
100
AcDbEntity
  8
C-A
  6
Continuous
 62
     3
370
     9
100
AcDbLine
 10
-621.0558043049193
 20
986.8916543496625
 30
0.0
 11
-621.0558043049193
 21
981.0787271035688
 31
0.0
  0
LINE
  5
92
330
1F
100
AcDbEntity
  8
C-A
  6
Continuous
 62
     3
370
     9
100
AcDbLine
 10
-616.1060667560911
 20
986.8916543496625
 30
0.0
 11
-616.1060667560911
 21
981.0787271035688
 31
0.0
  0
LINE
  5
93
330
1F
100
AcDbEntity
  8
C-A
  6
Continuous
 62
     3
370
     9
100
AcDbLine
 10
-611.156329207263
 20
986.8916543496625
 30
0.0
 11
-611.156329207263
 21
981.0787271035688
 31
0.0
  0
LINE
  5
94
330
1F
100
AcDbEntity
  8
C-A
  6
Continuous
 62
     3
370
     9
100
AcDbLine
 10
-941.0553007648803
 20
973.0788491738813
 30
0.0
 11
-941.0553007648803
 21
967.265799857475
 31
0.0
  0
LINE
  5
95
330
1F
100
AcDbEntity
  8
C-A
  6
Continuous
 62
     3
370
     9
100
AcDbLine
 10
-936.1060591266966
 20
973.0788491738813
 30
0.0
 11
-936.1060591266966
 21
967.265799857475
 31
0.0
  0
LINE
  5
96
330
1F
100
AcDbEntity
  8
C-A
  6
Continuous
 62
     3
370
     9
100
AcDbLine
 10
-931.1563292072631
 20
973.0788491738813
 30
0.0
 11
-931.1563292072631
 21
967.265799857475
 31
0.0
  0
LINE
  5
97
330
1F
100
AcDbEntity
  8
C-A
  6
Continuous
 62
     3
370
     9
100
AcDbLine
 10
-861.0554228351928
 20
973.0788491738813
 30
0.0
 11
-861.0554228351928
 21
967.265799857475
 31
0.0
  0
LINE
  5
98
330
1F
100
AcDbEntity
  8
C-A
  6
Continuous
 62
     3
370
     9
100
AcDbLine
 10
-856.1056852863646
 20
973.0788491738813
 30
0.0
 11
-856.1056852863646
 21
967.265799857475
 31
0.0
  0
LINE
  5
99
330
1F
100
AcDbEntity
  8
C-A
  6
Continuous
 62
     3
370
     9
100
AcDbLine
 10
-851.1559629963256
 20
973.0788491738813
 30
0.0
 11
-851.1559629963256
 21
967.265799857475
 31
0.0
  0
LINE
  5
9A
330
1F
100
AcDbEntity
  8
C-A
  6
Continuous
 62
     3
370
     9
100
AcDbLine
 10
-781.0555296467162
 20
973.0788491738813
 30
0.0
 11
-781.0555296467162
 21
967.265799857475
 31
0.0
  0
LINE
  5
9B
330
1F
100
AcDbEntity
  8
C-A
  6
Continuous
 62
     3
370
     9
100
AcDbLine
 10
-776.1058226154661
 20
973.0788491738813
 30
0.0
 11
-776.1058226154661
 21
967.265799857475
 31
0.0
  0
LINE
  5
9C
330
1F
100
AcDbEntity
  8
C-A
  6
Continuous
 62
     3
370
     9
100
AcDbLine
 10
-771.1555967853881
 20
973.0788491738813
 30
0.0
 11
-771.1555967853881
 21
967.265799857475
 31
0.0
  0
LINE
  5
9D
330
1F
100
AcDbEntity
  8
C-A
  6
Continuous
 62
     3
370
     9
100
AcDbLine
 10
-701.0556822346068
 20
973.0788491738813
 30
0.0
 11
-701.0556822346068
 21
967.265799857475
 31
0.0
  0
LINE
  5
9E
330
1F
100
AcDbEntity
  8
C-A
  6
Continuous
 62
     3
370
     9
100
AcDbLine
 10
-696.1059446857786
 20
973.0788491738813
 30
0.0
 11
-696.1059446857786
 21
967.265799857475
 31
0.0
  0
LINE
  5
9F
330
1F
100
AcDbEntity
  8
C-A
  6
Continuous
 62
     3
370
     9
100
AcDbLine
 10
-691.1562071369506
 20
973.0788491738813
 30
0.0
 11
-691.1562071369506
 21
967.265799857475
 31
0.0
  0
LINE
  5
A0
330
1F
100
AcDbEntity
  8
C-A
  6
Continuous
 62
     3
370
     9
100
AcDbLine
 10
-621.0558043049193
 20
973.0788491738813
 30
0.0
 11
-621.0558043049193
 21
967.265799857475
 31
0.0
  0
LINE
  5
A1
330
1F
100
AcDbEntity
  8
C-A
  6
Continuous
 62
     3
370
     9
100
AcDbLine
 10
-616.1060667560911
 20
973.0788491738813
 30
0.0
 11
-616.1060667560911
 21
967.265799857475
 31
0.0
  0
LINE
  5
A2
330
1F
100
AcDbEntity
  8
C-A
  6
Continuous
 62
     3
370
     9
100
AcDbLine
 10
-611.156329207263
 20
973.0788491738813
 30
0.0
 11
-611.156329207263
 21
967.265799857475
 31
0.0
  0
LINE
  5
A3
330
1F
100
AcDbEntity
  8
C-A
  6
Continuous
 62
     3
370
     9
100
AcDbLine
 10
-941.0553007648803
 20
959.2659219277875
 30
0.0
 11
-941.0553007648803
 21
953.4525064004438
 31
0.0
  0
LINE
  5
A4
330
1F
100
AcDbEntity
  8
C-A
  6
Continuous
 62
     3
370
     9
100
AcDbLine
 10
-936.1060591266966
 20
959.2659219277875
 30
0.0
 11
-936.1060591266966
 21
953.4525064004438
 31
0.0
  0
LINE
  5
A5
330
1F
100
AcDbEntity
  8
C-A
  6
Continuous
 62
     3
370
     9
100
AcDbLine
 10
-931.1563292072631
 20
959.2659219277875
 30
0.0
 11
-931.1563292072631
 21
953.4525064004438
 31
0.0
  0
LINE
  5
A6
330
1F
100
AcDbEntity
  8
C-A
  6
Continuous
 62
     3
370
     9
100
AcDbLine
 10
-861.0554228351928
 20
959.2659219277875
 30
0.0
 11
-861.0554228351928
 21
953.4525064004438
 31
0.0
  0
LINE
  5
A7
330
1F
100
AcDbEntity
  8
C-A
  6
Continuous
 62
     3
370
     9
100
AcDbLine
 10
-856.1056852863646
 20
959.2659219277875
 30
0.0
 11
-856.1056852863646
 21
953.4525064004438
 31
0.0
  0
LINE
  5
A8
330
1F
100
AcDbEntity
  8
C-A
  6
Continuous
 62
     3
370
     9
100
AcDbLine
 10
-851.1559629963256
 20
959.2659219277875
 30
0.0
 11
-851.1559629963256
 21
953.4525064004438
 31
0.0
  0
LINE
  5
A9
330
1F
100
AcDbEntity
  8
C-A
  6
Continuous
 62
     3
370
     9
100
AcDbLine
 10
-781.0555296467162
 20
959.2659219277875
 30
0.0
 11
-781.0555296467162
 21
953.4525064004438
 31
0.0
  0
LINE
  5
AA
330
1F
100
AcDbEntity
  8
C-A
  6
Continuous
 62
     3
370
     9
100
AcDbLine
 10
-776.1058226154661
 20
959.2659219277875
 30
0.0
 11
-776.1058226154661
 21
953.4525064004438
 31
0.0
  0
LINE
  5
AB
330
1F
100
AcDbEntity
  8
C-A
  6
Continuous
 62
     3
370
     9
100
AcDbLine
 10
-771.1555967853881
 20
959.2659219277875
 30
0.0
 11
-771.1555967853881
 21
953.4525064004438
 31
0.0
  0
LINE
  5
AC
330
1F
100
AcDbEntity
  8
C-A
  6
Continuous
 62
     3
370
     9
100
AcDbLine
 10
-701.0556822346068
 20
959.2659219277875
 30
0.0
 11
-701.0556822346068
 21
953.4525064004438
 31
0.0
  0
LINE
  5
AD
330
1F
100
AcDbEntity
  8
C-A
  6
Continuous
 62
     3
370
     9
100
AcDbLine
 10
-696.1059446857786
 20
959.2659219277875
 30
0.0
 11
-696.1059446857786
 21
953.4525064004438
 31
0.0
  0
LINE
  5
AE
330
1F
100
AcDbEntity
  8
C-A
  6
Continuous
 62
     3
370
     9
100
AcDbLine
 10
-691.1562071369506
 20
959.2659219277875
 30
0.0
 11
-691.1562071369506
 21
953.4525064004438
 31
0.0
  0
LINE
  5
AF
330
1F
100
AcDbEntity
  8
C-A
  6
Continuous
 62
     3
370
     9
100
AcDbLine
 10
-621.0558043049193
 20
959.2659219277875
 30
0.0
 11
-621.0558043049193
 21
953.4525064004438
 31
0.0
  0
LINE
  5
B0
330
1F
100
AcDbEntity
  8
C-A
  6
Continuous
 62
     3
370
     9
100
AcDbLine
 10
-616.1060667560911
 20
959.2659219277875
 30
0.0
 11
-616.1060667560911
 21
953.4525064004438
 31
0.0
  0
LINE
  5
B1
330
1F
100
AcDbEntity
  8
C-A
  6
Continuous
 62
     3
370
     9
100
AcDbLine
 10
-611.156329207263
 20
959.2659219277875
 30
0.0
 11
-611.156329207263
 21
953.4525064004438
 31
0.0
  0
LINE
  5
B2
330
1F
100
AcDbEntity
  8
C-A
  6
Continuous
 62
     3
370
     9
100
AcDbLine
 10
-941.0553007648803
 20
945.4529946816939
 30
0.0
 11
-941.0553007648803
 21
939.6400674356
 31
0.0
  0
LINE
  5
B3
330
1F
100
AcDbEntity
  8
C-A
  6
Continuous
 62
     3
370
     9
100
AcDbLine
 10
-936.1060591266966
 20
945.4529946816939
 30
0.0
 11
-936.1060591266966
 21
939.6400674356
 31
0.0
  0
LINE
  5
B4
330
1F
100
AcDbEntity
  8
C-A
  6
Continuous
 62
     3
370
     9
100
AcDbLine
 10
-931.1563292072631
 20
945.4529946816939
 30
0.0
 11
-931.1563292072631
 21
939.6400674356
 31
0.0
  0
LINE
  5
B5
330
1F
100
AcDbEntity
  8
C-A
  6
Continuous
 62
     3
370
     9
100
AcDbLine
 10
-861.0554228351928
 20
945.4529946816939
 30
0.0
 11
-861.0554228351928
 21
939.6400674356
 31
0.0
  0
LINE
  5
B6
330
1F
100
AcDbEntity
  8
C-A
  6
Continuous
 62
     3
370
     9
100
AcDbLine
 10
-856.1056852863646
 20
945.4529946816939
 30
0.0
 11
-856.1056852863646
 21
939.6400674356
 31
0.0
  0
LINE
  5
B7
330
1F
100
AcDbEntity
  8
C-A
  6
Continuous
 62
     3
370
     9
100
AcDbLine
 10
-851.1559629963256
 20
945.4529946816939
 30
0.0
 11
-851.1559629963256
 21
939.6400674356
 31
0.0
  0
LINE
  5
B8
330
1F
100
AcDbEntity
  8
C-A
  6
Continuous
 62
     3
370
     9
100
AcDbLine
 10
-781.0555296467162
 20
945.4529946816939
 30
0.0
 11
-781.0555296467162
 21
939.6400674356
 31
0.0
  0
LINE
  5
B9
330
1F
100
AcDbEntity
  8
C-A
  6
Continuous
 62
     3
370
     9
100
AcDbLine
 10
-776.1058226154661
 20
945.4529946816939
 30
0.0
 11
-776.1058226154661
 21
939.6400674356
 31
0.0
  0
LINE
  5
BA
330
1F
100
AcDbEntity
  8
C-A
  6
Continuous
 62
     3
370
     9
100
AcDbLine
 10
-771.1555967853881
 20
945.4529946816939
 30
0.0
 11
-771.1555967853881
 21
939.6400674356
 31
0.0
  0
LINE
  5
BB
330
1F
100
AcDbEntity
  8
C-A
  6
Continuous
 62
     3
370
     9
100
AcDbLine
 10
-701.0556822346068
 20
945.4529946816939
 30
0.0
 11
-701.0556822346068
 21
939.6400674356
 31
0.0
  0
LINE
  5
BC
330
1F
100
AcDbEntity
  8
C-A
  6
Continuous
 62
     3
370
     9
100
AcDbLine
 10
-696.1059446857786
 20
945.4529946816939
 30
0.0
 11
-696.1059446857786
 21
939.6400674356
 31
0.0
  0
LINE
  5
BD
330
1F
100
AcDbEntity
  8
C-A
  6
Continuous
 62
     3
370
     9
100
AcDbLine
 10
-691.1562071369506
 20
945.4529946816939
 30
0.0
 11
-691.1562071369506
 21
939.6400674356
 31
0.0
  0
LINE
  5
BE
330
1F
100
AcDbEntity
  8
C-A
  6
Continuous
 62
     3
370
     9
100
AcDbLine
 10
-621.0558043049193
 20
945.4529946816939
 30
0.0
 11
-621.0558043049193
 21
939.6400674356
 31
0.0
  0
LINE
  5
BF
330
1F
100
AcDbEntity
  8
C-A
  6
Continuous
 62
     3
370
     9
100
AcDbLine
 10
-616.1060667560911
 20
945.4529946816939
 30
0.0
 11
-616.1060667560911
 21
939.6400674356
 31
0.0
  0
LINE
  5
C0
330
1F
100
AcDbEntity
  8
C-A
  6
Continuous
 62
     3
370
     9
100
AcDbLine
 10
-611.156329207263
 20
945.4529946816939
 30
0.0
 11
-611.156329207263
 21
939.6400674356
 31
0.0
  0
LINE
  5
C1
330
1F
100
AcDbEntity
  8
C-A
  6
Continuous
 62
     3
370
     9
100
AcDbLine
 10
-941.0553007648803
 20
931.6400674356
 30
0.0
 11
-941.0553007648803
 21
925.8267739785688
 31
0.0
  0
LINE
  5
C2
330
1F
100
AcDbEntity
  8
C-A
  6
Continuous
 62
     3
370
     9
100
AcDbLine
 10
-936.1060591266966
 20
931.6400674356
 30
0.0
 11
-936.1060591266966
 21
925.8267739785688
 31
0.0
  0
LINE
  5
C3
330
1F
100
AcDbEntity
  8
C-A
  6
Continuous
 62
     3
370
     9
100
AcDbLine
 10
-931.1563292072631
 20
931.6400674356
 30
0.0
 11
-931.1563292072631
 21
925.8267739785688
 31
0.0
  0
LINE
  5
C4
330
1F
100
AcDbEntity
  8
C-A
  6
Continuous
 62
     3
370
     9
100
AcDbLine
 10
-861.0554228351928
 20
931.6400674356
 30
0.0
 11
-861.0554228351928
 21
925.8267739785688
 31
0.0
  0
LINE
  5
C5
330
1F
100
AcDbEntity
  8
C-A
  6
Continuous
 62
     3
370
     9
100
AcDbLine
 10
-856.1056852863646
 20
931.6400674356
 30
0.0
 11
-856.1056852863646
 21
925.8267739785688
 31
0.0
  0
LINE
  5
C6
330
1F
100
AcDbEntity
  8
C-A
  6
Continuous
 62
     3
370
     9
100
AcDbLine
 10
-851.1559629963256
 20
931.6400674356
 30
0.0
 11
-851.1559629963256
 21
925.8267739785688
 31
0.0
  0
LINE
  5
C7
330
1F
100
AcDbEntity
  8
C-A
  6
Continuous
 62
     3
370
     9
100
AcDbLine
 10
-781.0555296467162
 20
931.6400674356
 30
0.0
 11
-781.0555296467162
 21
925.8267739785688
 31
0.0
  0
LINE
  5
C8
330
1F
100
AcDbEntity
  8
C-A
  6
Continuous
 62
     3
370
     9
100
AcDbLine
 10
-776.1058226154661
 20
931.6400674356
 30
0.0
 11
-776.1058226154661
 21
925.8267739785688
 31
0.0
  0
LINE
  5
C9
330
1F
100
AcDbEntity
  8
C-A
  6
Continuous
 62
     3
370
     9
100
AcDbLine
 10
-771.1555967853881
 20
931.6400674356
 30
0.0
 11
-771.1555967853881
 21
925.8267739785688
 31
0.0
  0
LINE
  5
CA
330
1F
100
AcDbEntity
  8
C-A
  6
Continuous
 62
     3
370
     9
100
AcDbLine
 10
-701.0556822346068
 20
931.6400674356
 30
0.0
 11
-701.0556822346068
 21
925.8267739785688
 31
0.0
  0
LINE
  5
CB
330
1F
100
AcDbEntity
  8
C-A
  6
Continuous
 62
     3
370
     9
100
AcDbLine
 10
-696.1059446857786
 20
931.6400674356
 30
0.0
 11
-696.1059446857786
 21
925.8267739785688
 31
0.0
  0
LINE
  5
CC
330
1F
100
AcDbEntity
  8
C-A
  6
Continuous
 62
     3
370
     9
100
AcDbLine
 10
-691.1562071369506
 20
931.6400674356
 30
0.0
 11
-691.1562071369506
 21
925.8267739785688
 31
0.0
  0
LINE
  5
CD
330
1F
100
AcDbEntity
  8
C-A
  6
Continuous
 62
     3
370
     9
100
AcDbLine
 10
-621.0558043049193
 20
931.6400674356
 30
0.0
 11
-621.0558043049193
 21
925.8267739785688
 31
0.0
  0
LINE
  5
CE
330
1F
100
AcDbEntity
  8
C-A
  6
Continuous
 62
     3
370
     9
100
AcDbLine
 10
-616.1060667560911
 20
931.6400674356
 30
0.0
 11
-616.1060667560911
 21
925.8267739785688
 31
0.0
  0
LINE
  5
CF
330
1F
100
AcDbEntity
  8
C-A
  6
Continuous
 62
     3
370
     9
100
AcDbLine
 10
-611.156329207263
 20
931.6400674356
 30
0.0
 11
-611.156329207263
 21
925.8267739785688
 31
0.0
  0
LINE
  5
D0
330
1F
100
AcDbEntity
  8
C-A
  6
Continuous
 62
     3
370
     9
100
AcDbLine
 10
-941.0553007648803
 20
917.8268960488813
 30
0.0
 11
-941.0553007648803
 21
912.0142129434125
 31
0.0
  0
LINE
  5
D1
330
1F
100
AcDbEntity
  8
C-A
  6
Continuous
 62
     3
370
     9
100
AcDbLine
 10
-936.1060591266966
 20
917.8268960488813
 30
0.0
 11
-936.1060591266966
 21
912.0142129434125
 31
0.0
  0
LINE
  5
D2
330
1F
100
AcDbEntity
  8
C-A
  6
Continuous
 62
     3
370
     9
100
AcDbLine
 10
-931.1563292072631
 20
917.8268960488813
 30
0.0
 11
-931.1563292072631
 21
912.0142129434125
 31
0.0
  0
LINE
  5
D3
330
1F
100
AcDbEntity
  8
C-A
  6
Continuous
 62
     3
370
     9
100
AcDbLine
 10
-861.0554228351928
 20
917.8268960488813
 30
0.0
 11
-861.0554228351928
 21
912.0142129434125
 31
0.0
  0
LINE
  5
D4
330
1F
100
AcDbEntity
  8
C-A
  6
Continuous
 62
     3
370
     9
100
AcDbLine
 10
-856.1056852863646
 20
917.8268960488813
 30
0.0
 11
-856.1056852863646
 21
912.0142129434125
 31
0.0
  0
LINE
  5
D5
330
1F
100
AcDbEntity
  8
C-A
  6
Continuous
 62
     3
370
     9
100
AcDbLine
 10
-851.1559629963256
 20
917.8268960488813
 30
0.0
 11
-851.1559629963256
 21
912.0142129434125
 31
0.0
  0
LINE
  5
D6
330
1F
100
AcDbEntity
  8
C-A
  6
Continuous
 62
     3
370
     9
100
AcDbLine
 10
-781.0555296467162
 20
917.8268960488813
 30
0.0
 11
-781.0555296467162
 21
912.0142129434125
 31
0.0
  0
LINE
  5
D7
330
1F
100
AcDbEntity
  8
C-A
  6
Continuous
 62
     3
370
     9
100
AcDbLine
 10
-776.1058226154661
 20
917.8268960488813
 30
0.0
 11
-776.1058226154661
 21
912.0142129434125
 31
0.0
  0
LINE
  5
D8
330
1F
100
AcDbEntity
  8
C-A
  6
Continuous
 62
     3
370
     9
100
AcDbLine
 10
-771.1555967853881
 20
917.8268960488813
 30
0.0
 11
-771.1555967853881
 21
912.0142129434125
 31
0.0
  0
LINE
  5
D9
330
1F
100
AcDbEntity
  8
C-A
  6
Continuous
 62
     3
370
     9
100
AcDbLine
 10
-701.0556822346068
 20
917.8268960488813
 30
0.0
 11
-701.0556822346068
 21
912.0142129434125
 31
0.0
  0
LINE
  5
DA
330
1F
100
AcDbEntity
  8
C-A
  6
Continuous
 62
     3
370
     9
100
AcDbLine
 10
-696.1059446857786
 20
917.8268960488813
 30
0.0
 11
-696.1059446857786
 21
912.0142129434125
 31
0.0
  0
LINE
  5
DB
330
1F
100
AcDbEntity
  8
C-A
  6
Continuous
 62
     3
370
     9
100
AcDbLine
 10
-691.1562071369506
 20
917.8268960488813
 30
0.0
 11
-691.1562071369506
 21
912.0142129434125
 31
0.0
  0
LINE
  5
DC
330
1F
100
AcDbEntity
  8
C-A
  6
Continuous
 62
     3
370
     9
100
AcDbLine
 10
-621.0558043049193
 20
917.8268960488813
 30
0.0
 11
-621.0558043049193
 21
912.0142129434125
 31
0.0
  0
LINE
  5
DD
330
1F
100
AcDbEntity
  8
C-A
  6
Continuous
 62
     3
370
     9
100
AcDbLine
 10
-616.1060667560911
 20
917.8268960488813
 30
0.0
 11
-616.1060667560911
 21
912.0142129434125
 31
0.0
  0
LINE
  5
DE
330
1F
100
AcDbEntity
  8
C-A
  6
Continuous
 62
     3
370
     9
100
AcDbLine
 10
-611.156329207263
 20
917.8268960488813
 30
0.0
 11
-611.156329207263
 21
912.0142129434125
 31
0.0
  0
LINE
  5
DF
330
1F
100
AcDbEntity
  8
C-A
  6
Continuous
 62
     3
370
     9
100
AcDbLine
 10
-941.0553007648803
 20
904.014335013725
 30
0.0
 11
-941.0553007648803
 21
898.2009194863813
 31
0.0
  0
LINE
  5
E0
330
1F
100
AcDbEntity
  8
C-A
  6
Continuous
 62
     3
370
     9
100
AcDbLine
 10
-936.1060591266966
 20
904.014335013725
 30
0.0
 11
-936.1060591266966
 21
898.2009194863813
 31
0.0
  0
LINE
  5
E1
330
1F
100
AcDbEntity
  8
C-A
  6
Continuous
 62
     3
370
     9
100
AcDbLine
 10
-931.1563292072631
 20
904.014335013725
 30
0.0
 11
-931.1563292072631
 21
898.2009194863813
 31
0.0
  0
LINE
  5
E2
330
1F
100
AcDbEntity
  8
C-A
  6
Continuous
 62
     3
370
     9
100
AcDbLine
 10
-861.0554228351928
 20
904.014335013725
 30
0.0
 11
-861.0554228351928
 21
898.2009194863813
 31
0.0
  0
LINE
  5
E3
330
1F
100
AcDbEntity
  8
C-A
  6
Continuous
 62
     3
370
     9
100
AcDbLine
 10
-856.1056852863646
 20
904.014335013725
 30
0.0
 11
-856.1056852863646
 21
898.2009194863813
 31
0.0
  0
LINE
  5
E4
330
1F
100
AcDbEntity
  8
C-A
  6
Continuous
 62
     3
370
     9
100
AcDbLine
 10
-851.1559629963256
 20
904.014335013725
 30
0.0
 11
-851.1559629963256
 21
898.2009194863813
 31
0.0
  0
LINE
  5
E5
330
1F
100
AcDbEntity
  8
C-A
  6
Continuous
 62
     3
370
     9
100
AcDbLine
 10
-781.0555296467162
 20
904.014335013725
 30
0.0
 11
-781.0555296467162
 21
898.2009194863813
 31
0.0
  0
LINE
  5
E6
330
1F
100
AcDbEntity
  8
C-A
  6
Continuous
 62
     3
370
     9
100
AcDbLine
 10
-776.1058226154661
 20
904.014335013725
 30
0.0
 11
-776.1058226154661
 21
898.2009194863813
 31
0.0
  0
LINE
  5
E7
330
1F
100
AcDbEntity
  8
C-A
  6
Continuous
 62
     3
370
     9
100
AcDbLine
 10
-771.1555967853881
 20
904.014335013725
 30
0.0
 11
-771.1555967853881
 21
898.2009194863813
 31
0.0
  0
LINE
  5
E8
330
1F
100
AcDbEntity
  8
C-A
  6
Continuous
 62
     3
370
     9
100
AcDbLine
 10
-701.0556822346068
 20
904.014335013725
 30
0.0
 11
-701.0556822346068
 21
898.2009194863813
 31
0.0
  0
LINE
  5
E9
330
1F
100
AcDbEntity
  8
C-A
  6
Continuous
 62
     3
370
     9
100
AcDbLine
 10
-696.1059446857786
 20
904.014335013725
 30
0.0
 11
-696.1059446857786
 21
898.2009194863813
 31
0.0
  0
LINE
  5
EA
330
1F
100
AcDbEntity
  8
C-A
  6
Continuous
 62
     3
370
     9
100
AcDbLine
 10
-691.1562071369506
 20
904.014335013725
 30
0.0
 11
-691.1562071369506
 21
898.2009194863813
 31
0.0
  0
LINE
  5
EB
330
1F
100
AcDbEntity
  8
C-A
  6
Continuous
 62
     3
370
     9
100
AcDbLine
 10
-621.0558043049193
 20
904.014335013725
 30
0.0
 11
-621.0558043049193
 21
898.2009194863813
 31
0.0
  0
LINE
  5
EC
330
1F
100
AcDbEntity
  8
C-A
  6
Continuous
 62
     3
370
     9
100
AcDbLine
 10
-616.1060667560911
 20
904.014335013725
 30
0.0
 11
-616.1060667560911
 21
898.2009194863813
 31
0.0
  0
LINE
  5
ED
330
1F
100
AcDbEntity
  8
C-A
  6
Continuous
 62
     3
370
     9
100
AcDbLine
 10
-611.156329207263
 20
904.014335013725
 30
0.0
 11
-611.156329207263
 21
898.2009194863813
 31
0.0
  0
LINE
  5
EE
330
1F
100
AcDbEntity
  8
C-A
  6
Continuous
 62
     3
370
     9
100
AcDbLine
 10
-941.0553007648803
 20
890.20110259185
 30
0.0
 11
-941.0553007648803
 21
884.388358451225
 31
0.0
  0
LINE
  5
EF
330
1F
100
AcDbEntity
  8
C-A
  6
Continuous
 62
     3
370
     9
100
AcDbLine
 10
-936.1060591266966
 20
890.20110259185
 30
0.0
 11
-936.1060591266966
 21
884.388358451225
 31
0.0
  0
LINE
  5
F0
330
1F
100
AcDbEntity
  8
C-A
  6
Continuous
 62
     3
370
     9
100
AcDbLine
 10
-931.1563292072631
 20
890.20110259185
 30
0.0
 11
-931.1563292072631
 21
884.388358451225
 31
0.0
  0
LINE
  5
F1
330
1F
100
AcDbEntity
  8
C-A
  6
Continuous
 62
     3
370
     9
100
AcDbLine
 10
-861.0554228351928
 20
890.20110259185
 30
0.0
 11
-861.0554228351928
 21
884.388358451225
 31
0.0
  0
LINE
  5
F2
330
1F
100
AcDbEntity
  8
C-A
  6
Continuous
 62
     3
370
     9
100
AcDbLine
 10
-856.1056852863646
 20
890.20110259185
 30
0.0
 11
-856.1056852863646
 21
884.388358451225
 31
0.0
  0
LINE
  5
F3
330
1F
100
AcDbEntity
  8
C-A
  6
Continuous
 62
     3
370
     9
100
AcDbLine
 10
-851.1559629963256
 20
890.20110259185
 30
0.0
 11
-851.1559629963256
 21
884.388358451225
 31
0.0
  0
LINE
  5
F4
330
1F
100
AcDbEntity
  8
C-A
  6
Continuous
 62
     3
370
     9
100
AcDbLine
 10
-781.0555296467162
 20
890.20110259185
 30
0.0
 11
-781.0555296467162
 21
884.388358451225
 31
0.0
  0
LINE
  5
F5
330
1F
100
AcDbEntity
  8
C-A
  6
Continuous
 62
     3
370
     9
100
AcDbLine
 10
-776.1058226154661
 20
890.20110259185
 30
0.0
 11
-776.1058226154661
 21
884.388358451225
 31
0.0
  0
LINE
  5
F6
330
1F
100
AcDbEntity
  8
C-A
  6
Continuous
 62
     3
370
     9
100
AcDbLine
 10
-771.1555967853881
 20
890.20110259185
 30
0.0
 11
-771.1555967853881
 21
884.388358451225
 31
0.0
  0
LINE
  5
F7
330
1F
100
AcDbEntity
  8
C-A
  6
Continuous
 62
     3
370
     9
100
AcDbLine
 10
-701.0556822346068
 20
890.20110259185
 30
0.0
 11
-701.0556822346068
 21
884.388358451225
 31
0.0
  0
LINE
  5
F8
330
1F
100
AcDbEntity
  8
C-A
  6
Continuous
 62
     3
370
     9
100
AcDbLine
 10
-696.1059446857786
 20
890.20110259185
 30
0.0
 11
-696.1059446857786
 21
884.388358451225
 31
0.0
  0
LINE
  5
F9
330
1F
100
AcDbEntity
  8
C-A
  6
Continuous
 62
     3
370
     9
100
AcDbLine
 10
-691.1562071369506
 20
890.20110259185
 30
0.0
 11
-691.1562071369506
 21
884.388358451225
 31
0.0
  0
LINE
  5
FA
330
1F
100
AcDbEntity
  8
C-A
  6
Continuous
 62
     3
370
     9
100
AcDbLine
 10
-621.0558043049193
 20
890.20110259185
 30
0.0
 11
-621.0558043049193
 21
884.388358451225
 31
0.0
  0
LINE
  5
FB
330
1F
100
AcDbEntity
  8
C-A
  6
Continuous
 62
     3
370
     9
100
AcDbLine
 10
-616.1060667560911
 20
890.20110259185
 30
0.0
 11
-616.1060667560911
 21
884.388358451225
 31
0.0
  0
LINE
  5
FC
330
1F
100
AcDbEntity
  8
C-A
  6
Continuous
 62
     3
370
     9
100
AcDbLine
 10
-611.156329207263
 20
890.20110259185
 30
0.0
 11
-611.156329207263
 21
884.388358451225
 31
0.0
  0
LINE
  5
FD
330
1F
100
AcDbEntity
  8
C-A
  6
Continuous
 62
     3
370
     9
100
AcDbLine
 10
-941.0553007648803
 20
876.3885415566938
 30
0.0
 11
-941.0553007648803
 21
870.57512602935
 31
0.0
  0
LINE
  5
FE
330
1F
100
AcDbEntity
  8
C-A
  6
Continuous
 62
     3
370
     9
100
AcDbLine
 10
-936.1060591266966
 20
876.3885415566938
 30
0.0
 11
-936.1060591266966
 21
870.57512602935
 31
0.0
  0
LINE
  5
FF
330
1F
100
AcDbEntity
  8
C-A
  6
Continuous
 62
     3
370
     9
100
AcDbLine
 10
-931.1563292072631
 20
876.3885415566938
 30
0.0
 11
-931.1563292072631
 21
870.57512602935
 31
0.0
  0
LINE
  5
100
330
1F
100
AcDbEntity
  8
C-A
  6
Continuous
 62
     3
370
     9
100
AcDbLine
 10
-861.0554228351928
 20
876.3885415566938
 30
0.0
 11
-861.0554228351928
 21
870.57512602935
 31
0.0
  0
LINE
  5
101
330
1F
100
AcDbEntity
  8
C-A
  6
Continuous
 62
     3
370
     9
100
AcDbLine
 10
-856.1056852863646
 20
876.3885415566938
 30
0.0
 11
-856.1056852863646
 21
870.57512602935
 31
0.0
  0
LINE
  5
102
330
1F
100
AcDbEntity
  8
C-A
  6
Continuous
 62
     3
370
     9
100
AcDbLine
 10
-851.1559629963256
 20
876.3885415566938
 30
0.0
 11
-851.1559629963256
 21
870.57512602935
 31
0.0
  0
LINE
  5
103
330
1F
100
AcDbEntity
  8
C-A
  6
Continuous
 62
     3
370
     9
100
AcDbLine
 10
-781.0555296467162
 20
876.3885415566938
 30
0.0
 11
-781.0555296467162
 21
870.57512602935
 31
0.0
  0
LINE
  5
104
330
1F
100
AcDbEntity
  8
C-A
  6
Continuous
 62
     3
370
     9
100
AcDbLine
 10
-776.1058226154661
 20
876.3885415566938
 30
0.0
 11
-776.1058226154661
 21
870.57512602935
 31
0.0
  0
LINE
  5
105
330
1F
100
AcDbEntity
  8
C-A
  6
Continuous
 62
     3
370
     9
100
AcDbLine
 10
-771.1555967853881
 20
876.3885415566938
 30
0.0
 11
-771.1555967853881
 21
870.57512602935
 31
0.0
  0
LINE
  5
106
330
1F
100
AcDbEntity
  8
C-A
  6
Continuous
 62
     3
370
     9
100
AcDbLine
 10
-701.0556822346068
 20
876.3885415566938
 30
0.0
 11
-701.0556822346068
 21
870.57512602935
 31
0.0
  0
LINE
  5
107
330
1F
100
AcDbEntity
  8
C-A
  6
Continuous
 62
     3
370
     9
100
AcDbLine
 10
-696.1059446857786
 20
876.3885415566938
 30
0.0
 11
-696.1059446857786
 21
870.57512602935
 31
0.0
  0
LINE
  5
108
330
1F
100
AcDbEntity
  8
C-A
  6
Continuous
 62
     3
370
     9
100
AcDbLine
 10
-691.1562071369506
 20
876.3885415566938
 30
0.0
 11
-691.1562071369506
 21
870.57512602935
 31
0.0
  0
LINE
  5
109
330
1F
100
AcDbEntity
  8
C-A
  6
Continuous
 62
     3
370
     9
100
AcDbLine
 10
-621.0558043049193
 20
876.3885415566938
 30
0.0
 11
-621.0558043049193
 21
870.57512602935
 31
0.0
  0
LINE
  5
10A
330
1F
100
AcDbEntity
  8
C-A
  6
Continuous
 62
     3
370
     9
100
AcDbLine
 10
-616.1060667560911
 20
876.3885415566938
 30
0.0
 11
-616.1060667560911
 21
870.57512602935
 31
0.0
  0
LINE
  5
10B
330
1F
100
AcDbEntity
  8
C-A
  6
Continuous
 62
     3
370
     9
100
AcDbLine
 10
-611.156329207263
 20
876.3885415566938
 30
0.0
 11
-611.156329207263
 21
870.57512602935
 31
0.0
  0
LINE
  5
10C
330
1F
100
AcDbEntity
  8
C-A
  6
Continuous
 62
     3
370
     9
100
AcDbLine
 10
-941.0553007648803
 20
862.5752480996625
 30
0.0
 11
-941.0553007648803
 21
856.7621987832564
 31
0.0
  0
LINE
  5
10D
330
1F
100
AcDbEntity
  8
C-A
  6
Continuous
 62
     3
370
     9
100
AcDbLine
 10
-936.1060591266966
 20
862.5752480996625
 30
0.0
 11
-936.1060591266966
 21
856.7621987832564
 31
0.0
  0
LINE
  5
10E
330
1F
100
AcDbEntity
  8
C-A
  6
Continuous
 62
     3
370
     9
100
AcDbLine
 10
-931.1563292072631
 20
862.5752480996625
 30
0.0
 11
-931.1563292072631
 21
856.7621987832564
 31
0.0
  0
LINE
  5
10F
330
1F
100
AcDbEntity
  8
C-A
  6
Continuous
 62
     3
370
     9
100
AcDbLine
 10
-861.0554228351928
 20
862.5752480996625
 30
0.0
 11
-861.0554228351928
 21
856.7621987832564
 31
0.0
  0
LINE
  5
110
330
1F
100
AcDbEntity
  8
C-A
  6
Continuous
 62
     3
370
     9
100
AcDbLine
 10
-856.1056852863646
 20
862.5752480996625
 30
0.0
 11
-856.1056852863646
 21
856.7621987832564
 31
0.0
  0
LINE
  5
111
330
1F
100
AcDbEntity
  8
C-A
  6
Continuous
 62
     3
370
     9
100
AcDbLine
 10
-851.1559629963256
 20
862.5752480996625
 30
0.0
 11
-851.1559629963256
 21
856.7621987832564
 31
0.0
  0
LINE
  5
112
330
1F
100
AcDbEntity
  8
C-A
  6
Continuous
 62
     3
370
     9
100
AcDbLine
 10
-781.0555296467162
 20
862.5752480996625
 30
0.0
 11
-781.0555296467162
 21
856.7621987832564
 31
0.0
  0
LINE
  5
113
330
1F
100
AcDbEntity
  8
C-A
  6
Continuous
 62
     3
370
     9
100
AcDbLine
 10
-776.1058226154661
 20
862.5752480996625
 30
0.0
 11
-776.1058226154661
 21
856.7621987832564
 31
0.0
  0
LINE
  5
114
330
1F
100
AcDbEntity
  8
C-A
  6
Continuous
 62
     3
370
     9
100
AcDbLine
 10
-771.1555967853881
 20
862.5752480996625
 30
0.0
 11
-771.1555967853881
 21
856.7621987832564
 31
0.0
  0
LINE
  5
115
330
1F
100
AcDbEntity
  8
C-A
  6
Continuous
 62
     3
370
     9
100
AcDbLine
 10
-701.0556822346068
 20
862.5752480996625
 30
0.0
 11
-701.0556822346068
 21
856.7621987832564
 31
0.0
  0
LINE
  5
116
330
1F
100
AcDbEntity
  8
C-A
  6
Continuous
 62
     3
370
     9
100
AcDbLine
 10
-696.1059446857786
 20
862.5752480996625
 30
0.0
 11
-696.1059446857786
 21
856.7621987832564
 31
0.0
  0
LINE
  5
117
330
1F
100
AcDbEntity
  8
C-A
  6
Continuous
 62
     3
370
     9
100
AcDbLine
 10
-691.1562071369506
 20
862.5752480996625
 30
0.0
 11
-691.1562071369506
 21
856.7621987832564
 31
0.0
  0
LINE
  5
118
330
1F
100
AcDbEntity
  8
C-A
  6
Continuous
 62
     3
370
     9
100
AcDbLine
 10
-621.0558043049193
 20
862.5752480996625
 30
0.0
 11
-621.0558043049193
 21
856.7621987832564
 31
0.0
  0
LINE
  5
119
330
1F
100
AcDbEntity
  8
C-A
  6
Continuous
 62
     3
370
     9
100
AcDbLine
 10
-616.1060667560911
 20
862.5752480996625
 30
0.0
 11
-616.1060667560911
 21
856.7621987832564
 31
0.0
  0
LINE
  5
11A
330
1F
100
AcDbEntity
  8
C-A
  6
Continuous
 62
     3
370
     9
100
AcDbLine
 10
-611.156329207263
 20
862.5752480996625
 30
0.0
 11
-611.156329207263
 21
856.7621987832564
 31
0.0
  0
LINE
  5
11B
330
1F
100
AcDbEntity
  8
C-A
  6
Continuous
 62
     3
370
     9
100
AcDbLine
 10
-941.0553007648803
 20
848.7627480996625
 30
0.0
 11
-941.0553007648803
 21
842.9493325723189
 31
0.0
  0
LINE
  5
11C
330
1F
100
AcDbEntity
  8
C-A
  6
Continuous
 62
     3
370
     9
100
AcDbLine
 10
-936.1060591266966
 20
848.7627480996625
 30
0.0
 11
-936.1060591266966
 21
842.9493325723189
 31
0.0
  0
LINE
  5
11D
330
1F
100
AcDbEntity
  8
C-A
  6
Continuous
 62
     3
370
     9
100
AcDbLine
 10
-931.1563292072631
 20
848.7627480996625
 30
0.0
 11
-931.1563292072631
 21
842.9493325723189
 31
0.0
  0
LINE
  5
11E
330
1F
100
AcDbEntity
  8
C-A
  6
Continuous
 62
     3
370
     9
100
AcDbLine
 10
-861.0554228351928
 20
848.7627480996625
 30
0.0
 11
-861.0554228351928
 21
842.9493325723189
 31
0.0
  0
LINE
  5
11F
330
1F
100
AcDbEntity
  8
C-A
  6
Continuous
 62
     3
370
     9
100
AcDbLine
 10
-856.1056852863646
 20
848.7627480996625
 30
0.0
 11
-856.1056852863646
 21
842.9493325723189
 31
0.0
  0
LINE
  5
120
330
1F
100
AcDbEntity
  8
C-A
  6
Continuous
 62
     3
370
     9
100
AcDbLine
 10
-851.1559629963256
 20
848.7627480996625
 30
0.0
 11
-851.1559629963256
 21
842.9493325723189
 31
0.0
  0
LINE
  5
121
330
1F
100
AcDbEntity
  8
C-A
  6
Continuous
 62
     3
370
     9
100
AcDbLine
 10
-781.0555296467162
 20
848.7627480996625
 30
0.0
 11
-781.0555296467162
 21
842.9493325723189
 31
0.0
  0
LINE
  5
122
330
1F
100
AcDbEntity
  8
C-A
  6
Continuous
 62
     3
370
     9
100
AcDbLine
 10
-776.1058226154661
 20
848.7627480996625
 30
0.0
 11
-776.1058226154661
 21
842.9493325723189
 31
0.0
  0
LINE
  5
123
330
1F
100
AcDbEntity
  8
C-A
  6
Continuous
 62
     3
370
     9
100
AcDbLine
 10
-771.1555967853881
 20
848.7627480996625
 30
0.0
 11
-771.1555967853881
 21
842.9493325723189
 31
0.0
  0
LINE
  5
124
330
1F
100
AcDbEntity
  8
C-A
  6
Continuous
 62
     3
370
     9
100
AcDbLine
 10
-701.0556822346068
 20
848.7627480996625
 30
0.0
 11
-701.0556822346068
 21
842.9493325723189
 31
0.0
  0
LINE
  5
125
330
1F
100
AcDbEntity
  8
C-A
  6
Continuous
 62
     3
370
     9
100
AcDbLine
 10
-696.1059446857786
 20
848.7627480996625
 30
0.0
 11
-696.1059446857786
 21
842.9493325723189
 31
0.0
  0
LINE
  5
126
330
1F
100
AcDbEntity
  8
C-A
  6
Continuous
 62
     3
370
     9
100
AcDbLine
 10
-691.1562071369506
 20
848.7627480996625
 30
0.0
 11
-691.1562071369506
 21
842.9493325723189
 31
0.0
  0
LINE
  5
127
330
1F
100
AcDbEntity
  8
C-A
  6
Continuous
 62
     3
370
     9
100
AcDbLine
 10
-621.0558043049193
 20
848.7627480996625
 30
0.0
 11
-621.0558043049193
 21
842.9493325723189
 31
0.0
  0
LINE
  5
128
330
1F
100
AcDbEntity
  8
C-A
  6
Continuous
 62
     3
370
     9
100
AcDbLine
 10
-616.1060667560911
 20
848.7627480996625
 30
0.0
 11
-616.1060667560911
 21
842.9493325723189
 31
0.0
  0
LINE
  5
129
330
1F
100
AcDbEntity
  8
C-A
  6
Continuous
 62
     3
370
     9
100
AcDbLine
 10
-611.156329207263
 20
848.7627480996625
 30
0.0
 11
-611.156329207263
 21
842.9493325723189
 31
0.0
  0
LINE
  5
12A
330
1F
100
AcDbEntity
  8
C-A
  6
Continuous
 62
     3
370
     9
100
AcDbLine
 10
-941.0553007648803
 20
834.9494546426314
 30
0.0
 11
-941.0553007648803
 21
829.136405326225
 31
0.0
  0
LINE
  5
12B
330
1F
100
AcDbEntity
  8
C-A
  6
Continuous
 62
     3
370
     9
100
AcDbLine
 10
-936.1060591266966
 20
834.9494546426314
 30
0.0
 11
-936.1060591266966
 21
829.136405326225
 31
0.0
  0
LINE
  5
12C
330
1F
100
AcDbEntity
  8
C-A
  6
Continuous
 62
     3
370
     9
100
AcDbLine
 10
-931.1563292072631
 20
834.9494546426314
 30
0.0
 11
-931.1563292072631
 21
829.136405326225
 31
0.0
  0
LINE
  5
12D
330
1F
100
AcDbEntity
  8
C-A
  6
Continuous
 62
     3
370
     9
100
AcDbLine
 10
-861.0554228351928
 20
834.9494546426314
 30
0.0
 11
-861.0554228351928
 21
829.136405326225
 31
0.0
  0
LINE
  5
12E
330
1F
100
AcDbEntity
  8
C-A
  6
Continuous
 62
     3
370
     9
100
AcDbLine
 10
-856.1056852863646
 20
834.9494546426314
 30
0.0
 11
-856.1056852863646
 21
829.136405326225
 31
0.0
  0
LINE
  5
12F
330
1F
100
AcDbEntity
  8
C-A
  6
Continuous
 62
     3
370
     9
100
AcDbLine
 10
-851.1559629963256
 20
834.9494546426314
 30
0.0
 11
-851.1559629963256
 21
829.136405326225
 31
0.0
  0
LINE
  5
130
330
1F
100
AcDbEntity
  8
C-A
  6
Continuous
 62
     3
370
     9
100
AcDbLine
 10
-781.0555296467162
 20
834.9494546426314
 30
0.0
 11
-781.0555296467162
 21
829.136405326225
 31
0.0
  0
LINE
  5
131
330
1F
100
AcDbEntity
  8
C-A
  6
Continuous
 62
     3
370
     9
100
AcDbLine
 10
-776.1058226154661
 20
834.9494546426314
 30
0.0
 11
-776.1058226154661
 21
829.136405326225
 31
0.0
  0
LINE
  5
132
330
1F
100
AcDbEntity
  8
C-A
  6
Continuous
 62
     3
370
     9
100
AcDbLine
 10
-771.1555967853881
 20
834.9494546426314
 30
0.0
 11
-771.1555967853881
 21
829.136405326225
 31
0.0
  0
LINE
  5
133
330
1F
100
AcDbEntity
  8
C-A
  6
Continuous
 62
     3
370
     9
100
AcDbLine
 10
-701.0556822346068
 20
834.9494546426314
 30
0.0
 11
-701.0556822346068
 21
829.136405326225
 31
0.0
  0
LINE
  5
134
330
1F
100
AcDbEntity
  8
C-A
  6
Continuous
 62
     3
370
     9
100
AcDbLine
 10
-696.1059446857786
 20
834.9494546426314
 30
0.0
 11
-696.1059446857786
 21
829.136405326225
 31
0.0
  0
LINE
  5
135
330
1F
100
AcDbEntity
  8
C-A
  6
Continuous
 62
     3
370
     9
100
AcDbLine
 10
-691.1562071369506
 20
834.9494546426314
 30
0.0
 11
-691.1562071369506
 21
829.136405326225
 31
0.0
  0
LINE
  5
136
330
1F
100
AcDbEntity
  8
C-A
  6
Continuous
 62
     3
370
     9
100
AcDbLine
 10
-621.0558043049193
 20
834.9494546426314
 30
0.0
 11
-621.0558043049193
 21
829.136405326225
 31
0.0
  0
LINE
  5
137
330
1F
100
AcDbEntity
  8
C-A
  6
Continuous
 62
     3
370
     9
100
AcDbLine
 10
-616.1060667560911
 20
834.9494546426314
 30
0.0
 11
-616.1060667560911
 21
829.136405326225
 31
0.0
  0
LINE
  5
138
330
1F
100
AcDbEntity
  8
C-A
  6
Continuous
 62
     3
370
     9
100
AcDbLine
 10
-611.156329207263
 20
834.9494546426314
 30
0.0
 11
-611.156329207263
 21
829.136405326225
 31
0.0
  0
LINE
  5
139
330
1F
100
AcDbEntity
  8
C-A
  6
Continuous
 62
     3
370
     9
100
AcDbLine
 10
-941.0553007648803
 20
821.1365884316939
 30
0.0
 11
-941.0553007648803
 21
815.3235391152875
 31
0.0
  0
LINE
  5
13A
330
1F
100
AcDbEntity
  8
C-A
  6
Continuous
 62
     3
370
     9
100
AcDbLine
 10
-936.1060591266966
 20
821.1365884316939
 30
0.0
 11
-936.1060591266966
 21
815.3235391152875
 31
0.0
  0
LINE
  5
13B
330
1F
100
AcDbEntity
  8
C-A
  6
Continuous
 62
     3
370
     9
100
AcDbLine
 10
-931.1563292072631
 20
821.1365884316939
 30
0.0
 11
-931.1563292072631
 21
815.3235391152875
 31
0.0
  0
LINE
  5
13C
330
1F
100
AcDbEntity
  8
C-A
  6
Continuous
 62
     3
370
     9
100
AcDbLine
 10
-861.0554228351928
 20
821.1365884316939
 30
0.0
 11
-861.0554228351928
 21
815.3235391152875
 31
0.0
  0
LINE
  5
13D
330
1F
100
AcDbEntity
  8
C-A
  6
Continuous
 62
     3
370
     9
100
AcDbLine
 10
-856.1056852863646
 20
821.1365884316939
 30
0.0
 11
-856.1056852863646
 21
815.3235391152875
 31
0.0
  0
LINE
  5
13E
330
1F
100
AcDbEntity
  8
C-A
  6
Continuous
 62
     3
370
     9
100
AcDbLine
 10
-851.1559629963256
 20
821.1365884316939
 30
0.0
 11
-851.1559629963256
 21
815.3235391152875
 31
0.0
  0
LINE
  5
13F
330
1F
100
AcDbEntity
  8
C-A
  6
Continuous
 62
     3
370
     9
100
AcDbLine
 10
-781.0555296467162
 20
821.1365884316939
 30
0.0
 11
-781.0555296467162
 21
815.3235391152875
 31
0.0
  0
LINE
  5
140
330
1F
100
AcDbEntity
  8
C-A
  6
Continuous
 62
     3
370
     9
100
AcDbLine
 10
-776.1058226154661
 20
821.1365884316939
 30
0.0
 11
-776.1058226154661
 21
815.3235391152875
 31
0.0
  0
LINE
  5
141
330
1F
100
AcDbEntity
  8
C-A
  6
Continuous
 62
     3
370
     9
100
AcDbLine
 10
-771.1555967853881
 20
821.1365884316939
 30
0.0
 11
-771.1555967853881
 21
815.3235391152875
 31
0.0
  0
LINE
  5
142
330
1F
100
AcDbEntity
  8
C-A
  6
Continuous
 62
     3
370
     9
100
AcDbLine
 10
-701.0556822346068
 20
821.1365884316939
 30
0.0
 11
-701.0556822346068
 21
815.3235391152875
 31
0.0
  0
LINE
  5
143
330
1F
100
AcDbEntity
  8
C-A
  6
Continuous
 62
     3
370
     9
100
AcDbLine
 10
-696.1059446857786
 20
821.1365884316939
 30
0.0
 11
-696.1059446857786
 21
815.3235391152875
 31
0.0
  0
LINE
  5
144
330
1F
100
AcDbEntity
  8
C-A
  6
Continuous
 62
     3
370
     9
100
AcDbLine
 10
-691.1562071369506
 20
821.1365884316939
 30
0.0
 11
-691.1562071369506
 21
815.3235391152875
 31
0.0
  0
LINE
  5
145
330
1F
100
AcDbEntity
  8
C-A
  6
Continuous
 62
     3
370
     9
100
AcDbLine
 10
-621.0558043049193
 20
821.1365884316939
 30
0.0
 11
-621.0558043049193
 21
815.3235391152875
 31
0.0
  0
LINE
  5
146
330
1F
100
AcDbEntity
  8
C-A
  6
Continuous
 62
     3
370
     9
100
AcDbLine
 10
-616.1060667560911
 20
821.1365884316939
 30
0.0
 11
-616.1060667560911
 21
815.3235391152875
 31
0.0
  0
LINE
  5
147
330
1F
100
AcDbEntity
  8
C-A
  6
Continuous
 62
     3
370
     9
100
AcDbLine
 10
-611.156329207263
 20
821.1365884316939
 30
0.0
 11
-611.156329207263
 21
815.3235391152875
 31
0.0
  0
LINE
  5
148
330
1F
100
AcDbEntity
  8
C-A
  6
Continuous
 62
     3
370
     9
100
AcDbLine
 10
-941.0553007648803
 20
807.3236611856
 30
0.0
 11
-941.0553007648803
 21
801.5106423867719
 31
0.0
  0
LINE
  5
149
330
1F
100
AcDbEntity
  8
C-A
  6
Continuous
 62
     3
370
     9
100
AcDbLine
 10
-936.1060591266966
 20
807.3236611856
 30
0.0
 11
-936.1060591266966
 21
801.5106423867719
 31
0.0
  0
LINE
  5
14A
330
1F
100
AcDbEntity
  8
C-A
  6
Continuous
 62
     3
370
     9
100
AcDbLine
 10
-931.1563292072631
 20
807.3236611856
 30
0.0
 11
-931.1563292072631
 21
801.5106423867719
 31
0.0
  0
LINE
  5
14B
330
1F
100
AcDbEntity
  8
C-A
  6
Continuous
 62
     3
370
     9
100
AcDbLine
 10
-861.0554228351928
 20
807.3236611856
 30
0.0
 11
-861.0554228351928
 21
801.5106423867719
 31
0.0
  0
LINE
  5
14C
330
1F
100
AcDbEntity
  8
C-A
  6
Continuous
 62
     3
370
     9
100
AcDbLine
 10
-856.1056852863646
 20
807.3236611856
 30
0.0
 11
-856.1056852863646
 21
801.5106423867719
 31
0.0
  0
LINE
  5
14D
330
1F
100
AcDbEntity
  8
C-A
  6
Continuous
 62
     3
370
     9
100
AcDbLine
 10
-851.1559629963256
 20
807.3236611856
 30
0.0
 11
-851.1559629963256
 21
801.5106423867719
 31
0.0
  0
LINE
  5
14E
330
1F
100
AcDbEntity
  8
C-A
  6
Continuous
 62
     3
370
     9
100
AcDbLine
 10
-781.0555296467162
 20
807.3236611856
 30
0.0
 11
-781.0555296467162
 21
801.5106423867719
 31
0.0
  0
LINE
  5
14F
330
1F
100
AcDbEntity
  8
C-A
  6
Continuous
 62
     3
370
     9
100
AcDbLine
 10
-776.1058226154661
 20
807.3236611856
 30
0.0
 11
-776.1058226154661
 21
801.5106423867719
 31
0.0
  0
LINE
  5
150
330
1F
100
AcDbEntity
  8
C-A
  6
Continuous
 62
     3
370
     9
100
AcDbLine
 10
-771.1555967853881
 20
807.3236611856
 30
0.0
 11
-771.1555967853881
 21
801.5106423867719
 31
0.0
  0
LINE
  5
151
330
1F
100
AcDbEntity
  8
C-A
  6
Continuous
 62
     3
370
     9
100
AcDbLine
 10
-701.0556822346068
 20
807.3236611856
 30
0.0
 11
-701.0556822346068
 21
801.5106423867719
 31
0.0
  0
LINE
  5
152
330
1F
100
AcDbEntity
  8
C-A
  6
Continuous
 62
     3
370
     9
100
AcDbLine
 10
-696.1059446857786
 20
807.3236611856
 30
0.0
 11
-696.1059446857786
 21
801.5106423867719
 31
0.0
  0
LINE
  5
153
330
1F
100
AcDbEntity
  8
C-A
  6
Continuous
 62
     3
370
     9
100
AcDbLine
 10
-691.1562071369506
 20
807.3236611856
 30
0.0
 11
-691.1562071369506
 21
801.5106423867719
 31
0.0
  0
LINE
  5
154
330
1F
100
AcDbEntity
  8
C-A
  6
Continuous
 62
     3
370
     9
100
AcDbLine
 10
-621.0558043049193
 20
807.3236611856
 30
0.0
 11
-621.0558043049193
 21
801.5106423867719
 31
0.0
  0
LINE
  5
155
330
1F
100
AcDbEntity
  8
C-A
  6
Continuous
 62
     3
370
     9
100
AcDbLine
 10
-616.1060667560911
 20
807.3236611856
 30
0.0
 11
-616.1060667560911
 21
801.5106423867719
 31
0.0
  0
LINE
  5
156
330
1F
100
AcDbEntity
  8
C-A
  6
Continuous
 62
     3
370
     9
100
AcDbLine
 10
-611.156329207263
 20
807.3236611856
 30
0.0
 11
-611.156329207263
 21
801.5106423867719
 31
0.0
  0
LINE
  5
157
330
1F
100
AcDbEntity
  8
C-A
  6
Continuous
 62
     3
370
     9
100
AcDbLine
 10
-941.0553007648803
 20
793.5107949746625
 30
0.0
 11
-941.0553007648803
 21
787.6977761758344
 31
0.0
  0
LINE
  5
158
330
1F
100
AcDbEntity
  8
C-A
  6
Continuous
 62
     3
370
     9
100
AcDbLine
 10
-936.1060591266966
 20
793.5107949746625
 30
0.0
 11
-936.1060591266966
 21
787.6977761758344
 31
0.0
  0
LINE
  5
159
330
1F
100
AcDbEntity
  8
C-A
  6
Continuous
 62
     3
370
     9
100
AcDbLine
 10
-931.1563292072631
 20
793.5107949746625
 30
0.0
 11
-931.1563292072631
 21
787.6977761758344
 31
0.0
  0
LINE
  5
15A
330
1F
100
AcDbEntity
  8
C-A
  6
Continuous
 62
     3
370
     9
100
AcDbLine
 10
-861.0554228351928
 20
793.5107949746625
 30
0.0
 11
-861.0554228351928
 21
787.6977761758344
 31
0.0
  0
LINE
  5
15B
330
1F
100
AcDbEntity
  8
C-A
  6
Continuous
 62
     3
370
     9
100
AcDbLine
 10
-856.1056852863646
 20
793.5107949746625
 30
0.0
 11
-856.1056852863646
 21
787.6977761758344
 31
0.0
  0
LINE
  5
15C
330
1F
100
AcDbEntity
  8
C-A
  6
Continuous
 62
     3
370
     9
100
AcDbLine
 10
-851.1559629963256
 20
793.5107949746625
 30
0.0
 11
-851.1559629963256
 21
787.6977761758344
 31
0.0
  0
LINE
  5
15D
330
1F
100
AcDbEntity
  8
C-A
  6
Continuous
 62
     3
370
     9
100
AcDbLine
 10
-781.0555296467162
 20
793.5107949746625
 30
0.0
 11
-781.0555296467162
 21
787.6977761758344
 31
0.0
  0
LINE
  5
15E
330
1F
100
AcDbEntity
  8
C-A
  6
Continuous
 62
     3
370
     9
100
AcDbLine
 10
-776.1058226154661
 20
793.5107949746625
 30
0.0
 11
-776.1058226154661
 21
787.6977761758344
 31
0.0
  0
LINE
  5
15F
330
1F
100
AcDbEntity
  8
C-A
  6
Continuous
 62
     3
370
     9
100
AcDbLine
 10
-771.1555967853881
 20
793.5107949746625
 30
0.0
 11
-771.1555967853881
 21
787.6977761758344
 31
0.0
  0
LINE
  5
160
330
1F
100
AcDbEntity
  8
C-A
  6
Continuous
 62
     3
370
     9
100
AcDbLine
 10
-701.0556822346068
 20
793.5107949746625
 30
0.0
 11
-701.0556822346068
 21
787.6977761758344
 31
0.0
  0
LINE
  5
161
330
1F
100
AcDbEntity
  8
C-A
  6
Continuous
 62
     3
370
     9
100
AcDbLine
 10
-696.1059446857786
 20
793.5107949746625
 30
0.0
 11
-696.1059446857786
 21
787.6977761758344
 31
0.0
  0
LINE
  5
162
330
1F
100
AcDbEntity
  8
C-A
  6
Continuous
 62
     3
370
     9
100
AcDbLine
 10
-691.1562071369506
 20
793.5107949746625
 30
0.0
 11
-691.1562071369506
 21
787.6977761758344
 31
0.0
  0
LINE
  5
163
330
1F
100
AcDbEntity
  8
C-A
  6
Continuous
 62
     3
370
     9
100
AcDbLine
 10
-621.0558043049193
 20
793.5107949746625
 30
0.0
 11
-621.0558043049193
 21
787.6977761758344
 31
0.0
  0
LINE
  5
164
330
1F
100
AcDbEntity
  8
C-A
  6
Continuous
 62
     3
370
     9
100
AcDbLine
 10
-616.1060667560911
 20
793.5107949746625
 30
0.0
 11
-616.1060667560911
 21
787.6977761758344
 31
0.0
  0
LINE
  5
165
330
1F
100
AcDbEntity
  8
C-A
  6
Continuous
 62
     3
370
     9
100
AcDbLine
 10
-611.156329207263
 20
793.5107949746625
 30
0.0
 11
-611.156329207263
 21
787.6977761758344
 31
0.0
  0
LINE
  5
166
330
1F
100
AcDbEntity
  8
C-A
  6
Continuous
 62
     3
370
     9
100
AcDbLine
 10
-941.0553007648803
 20
779.6978677285688
 30
0.0
 11
-941.0553007648803
 21
773.8848489297408
 31
0.0
  0
LINE
  5
167
330
1F
100
AcDbEntity
  8
C-A
  6
Continuous
 62
     3
370
     9
100
AcDbLine
 10
-936.1060591266966
 20
779.6978677285688
 30
0.0
 11
-936.1060591266966
 21
773.8848489297408
 31
0.0
  0
LINE
  5
168
330
1F
100
AcDbEntity
  8
C-A
  6
Continuous
 62
     3
370
     9
100
AcDbLine
 10
-931.1563292072631
 20
779.6978677285688
 30
0.0
 11
-931.1563292072631
 21
773.8848489297408
 31
0.0
  0
LINE
  5
169
330
1F
100
AcDbEntity
  8
C-A
  6
Continuous
 62
     3
370
     9
100
AcDbLine
 10
-861.0554228351928
 20
779.6978677285688
 30
0.0
 11
-861.0554228351928
 21
773.8848489297408
 31
0.0
  0
LINE
  5
16A
330
1F
100
AcDbEntity
  8
C-A
  6
Continuous
 62
     3
370
     9
100
AcDbLine
 10
-856.1056852863646
 20
779.6978677285688
 30
0.0
 11
-856.1056852863646
 21
773.8848489297408
 31
0.0
  0
LINE
  5
16B
330
1F
100
AcDbEntity
  8
C-A
  6
Continuous
 62
     3
370
     9
100
AcDbLine
 10
-851.1559629963256
 20
779.6978677285688
 30
0.0
 11
-851.1559629963256
 21
773.8848489297408
 31
0.0
  0
LINE
  5
16C
330
1F
100
AcDbEntity
  8
C-A
  6
Continuous
 62
     3
370
     9
100
AcDbLine
 10
-781.0555296467162
 20
779.6978677285688
 30
0.0
 11
-781.0555296467162
 21
773.8848489297408
 31
0.0
  0
LINE
  5
16D
330
1F
100
AcDbEntity
  8
C-A
  6
Continuous
 62
     3
370
     9
100
AcDbLine
 10
-776.1058226154661
 20
779.6978677285688
 30
0.0
 11
-776.1058226154661
 21
773.8848489297408
 31
0.0
  0
LINE
  5
16E
330
1F
100
AcDbEntity
  8
C-A
  6
Continuous
 62
     3
370
     9
100
AcDbLine
 10
-771.1555967853881
 20
779.6978677285688
 30
0.0
 11
-771.1555967853881
 21
773.8848489297408
 31
0.0
  0
LINE
  5
16F
330
1F
100
AcDbEntity
  8
C-A
  6
Continuous
 62
     3
370
     9
100
AcDbLine
 10
-701.0556822346068
 20
779.6978677285688
 30
0.0
 11
-701.0556822346068
 21
773.8848489297408
 31
0.0
  0
LINE
  5
170
330
1F
100
AcDbEntity
  8
C-A
  6
Continuous
 62
     3
370
     9
100
AcDbLine
 10
-696.1059446857786
 20
779.6978677285688
 30
0.0
 11
-696.1059446857786
 21
773.8848489297408
 31
0.0
  0
LINE
  5
171
330
1F
100
AcDbEntity
  8
C-A
  6
Continuous
 62
     3
370
     9
100
AcDbLine
 10
-691.1562071369506
 20
779.6978677285688
 30
0.0
 11
-691.1562071369506
 21
773.8848489297408
 31
0.0
  0
LINE
  5
172
330
1F
100
AcDbEntity
  8
C-A
  6
Continuous
 62
     3
370
     9
100
AcDbLine
 10
-621.0558043049193
 20
779.6978677285688
 30
0.0
 11
-621.0558043049193
 21
773.8848489297408
 31
0.0
  0
LINE
  5
173
330
1F
100
AcDbEntity
  8
C-A
  6
Continuous
 62
     3
370
     9
100
AcDbLine
 10
-616.1060667560911
 20
779.6978677285688
 30
0.0
 11
-616.1060667560911
 21
773.8848489297408
 31
0.0
  0
LINE
  5
174
330
1F
100
AcDbEntity
  8
C-A
  6
Continuous
 62
     3
370
     9
100
AcDbLine
 10
-611.156329207263
 20
779.6978677285688
 30
0.0
 11
-611.156329207263
 21
773.8848489297408
 31
0.0
  0
LINE
  5
175
330
1F
100
AcDbEntity
  8
C-A
  6
Continuous
 62
     3
370
     9
100
AcDbLine
 10
-941.0553007648803
 20
765.884940482475
 30
0.0
 11
-941.0553007648803
 21
760.0719216836469
 31
0.0
  0
LINE
  5
176
330
1F
100
AcDbEntity
  8
C-A
  6
Continuous
 62
     3
370
     9
100
AcDbLine
 10
-936.1060591266966
 20
765.884940482475
 30
0.0
 11
-936.1060591266966
 21
760.0719216836469
 31
0.0
  0
LINE
  5
177
330
1F
100
AcDbEntity
  8
C-A
  6
Continuous
 62
     3
370
     9
100
AcDbLine
 10
-931.1563292072631
 20
765.884940482475
 30
0.0
 11
-931.1563292072631
 21
760.0719216836469
 31
0.0
  0
LINE
  5
178
330
1F
100
AcDbEntity
  8
C-A
  6
Continuous
 62
     3
370
     9
100
AcDbLine
 10
-861.0554228351928
 20
765.884940482475
 30
0.0
 11
-861.0554228351928
 21
760.0719216836469
 31
0.0
  0
LINE
  5
179
330
1F
100
AcDbEntity
  8
C-A
  6
Continuous
 62
     3
370
     9
100
AcDbLine
 10
-856.1056852863646
 20
765.884940482475
 30
0.0
 11
-856.1056852863646
 21
760.0719216836469
 31
0.0
  0
LINE
  5
17A
330
1F
100
AcDbEntity
  8
C-A
  6
Continuous
 62
     3
370
     9
100
AcDbLine
 10
-851.1559629963256
 20
765.884940482475
 30
0.0
 11
-851.1559629963256
 21
760.0719216836469
 31
0.0
  0
LINE
  5
17B
330
1F
100
AcDbEntity
  8
C-A
  6
Continuous
 62
     3
370
     9
100
AcDbLine
 10
-781.0555296467162
 20
765.884940482475
 30
0.0
 11
-781.0555296467162
 21
760.0719216836469
 31
0.0
  0
LINE
  5
17C
330
1F
100
AcDbEntity
  8
C-A
  6
Continuous
 62
     3
370
     9
100
AcDbLine
 10
-776.1058226154661
 20
765.884940482475
 30
0.0
 11
-776.1058226154661
 21
760.0719216836469
 31
0.0
  0
LINE
  5
17D
330
1F
100
AcDbEntity
  8
C-A
  6
Continuous
 62
     3
370
     9
100
AcDbLine
 10
-771.1555967853881
 20
765.884940482475
 30
0.0
 11
-771.1555967853881
 21
760.0719216836469
 31
0.0
  0
LINE
  5
17E
330
1F
100
AcDbEntity
  8
C-A
  6
Continuous
 62
     3
370
     9
100
AcDbLine
 10
-701.0556822346068
 20
765.884940482475
 30
0.0
 11
-701.0556822346068
 21
760.0719216836469
 31
0.0
  0
LINE
  5
17F
330
1F
100
AcDbEntity
  8
C-A
  6
Continuous
 62
     3
370
     9
100
AcDbLine
 10
-696.1059446857786
 20
765.884940482475
 30
0.0
 11
-696.1059446857786
 21
760.0719216836469
 31
0.0
  0
LINE
  5
180
330
1F
100
AcDbEntity
  8
C-A
  6
Continuous
 62
     3
370
     9
100
AcDbLine
 10
-691.1562071369506
 20
765.884940482475
 30
0.0
 11
-691.1562071369506
 21
760.0719216836469
 31
0.0
  0
LINE
  5
181
330
1F
100
AcDbEntity
  8
C-A
  6
Continuous
 62
     3
370
     9
100
AcDbLine
 10
-621.0558043049193
 20
765.884940482475
 30
0.0
 11
-621.0558043049193
 21
760.0719216836469
 31
0.0
  0
LINE
  5
182
330
1F
100
AcDbEntity
  8
C-A
  6
Continuous
 62
     3
370
     9
100
AcDbLine
 10
-616.1060667560911
 20
765.884940482475
 30
0.0
 11
-616.1060667560911
 21
760.0719216836469
 31
0.0
  0
LINE
  5
183
330
1F
100
AcDbEntity
  8
C-A
  6
Continuous
 62
     3
370
     9
100
AcDbLine
 10
-611.156329207263
 20
765.884940482475
 30
0.0
 11
-611.156329207263
 21
760.0719216836469
 31
0.0
  0
LINE
  5
184
330
1F
100
AcDbEntity
  8
C-A
  6
Continuous
 62
     3
370
     9
100
AcDbLine
 10
-941.0553007648803
 20
752.0720742715375
 30
0.0
 11
-941.0553007648803
 21
746.2586587441939
 31
0.0
  0
LINE
  5
185
330
1F
100
AcDbEntity
  8
C-A
  6
Continuous
 62
     3
370
     9
100
AcDbLine
 10
-936.1060591266966
 20
752.0720742715375
 30
0.0
 11
-936.1060591266966
 21
746.2586587441939
 31
0.0
  0
LINE
  5
186
330
1F
100
AcDbEntity
  8
C-A
  6
Continuous
 62
     3
370
     9
100
AcDbLine
 10
-931.1563292072631
 20
752.0720742715375
 30
0.0
 11
-931.1563292072631
 21
746.2586587441939
 31
0.0
  0
LINE
  5
187
330
1F
100
AcDbEntity
  8
C-A
  6
Continuous
 62
     3
370
     9
100
AcDbLine
 10
-861.0554228351928
 20
752.0720742715375
 30
0.0
 11
-861.0554228351928
 21
746.2586587441939
 31
0.0
  0
LINE
  5
188
330
1F
100
AcDbEntity
  8
C-A
  6
Continuous
 62
     3
370
     9
100
AcDbLine
 10
-856.1056852863646
 20
752.0720742715375
 30
0.0
 11
-856.1056852863646
 21
746.2586587441939
 31
0.0
  0
LINE
  5
189
330
1F
100
AcDbEntity
  8
C-A
  6
Continuous
 62
     3
370
     9
100
AcDbLine
 10
-851.1559629963256
 20
752.0720742715375
 30
0.0
 11
-851.1559629963256
 21
746.2586587441939
 31
0.0
  0
LINE
  5
18A
330
1F
100
AcDbEntity
  8
C-A
  6
Continuous
 62
     3
370
     9
100
AcDbLine
 10
-781.0555296467162
 20
752.0720742715375
 30
0.0
 11
-781.0555296467162
 21
746.2586587441939
 31
0.0
  0
LINE
  5
18B
330
1F
100
AcDbEntity
  8
C-A
  6
Continuous
 62
     3
370
     9
100
AcDbLine
 10
-776.1058226154661
 20
752.0720742715375
 30
0.0
 11
-776.1058226154661
 21
746.2586587441939
 31
0.0
  0
LINE
  5
18C
330
1F
100
AcDbEntity
  8
C-A
  6
Continuous
 62
     3
370
     9
100
AcDbLine
 10
-771.1555967853881
 20
752.0720742715375
 30
0.0
 11
-771.1555967853881
 21
746.2586587441939
 31
0.0
  0
LINE
  5
18D
330
1F
100
AcDbEntity
  8
C-A
  6
Continuous
 62
     3
370
     9
100
AcDbLine
 10
-701.0556822346068
 20
752.0720742715375
 30
0.0
 11
-701.0556822346068
 21
746.2586587441939
 31
0.0
  0
LINE
  5
18E
330
1F
100
AcDbEntity
  8
C-A
  6
Continuous
 62
     3
370
     9
100
AcDbLine
 10
-696.1059446857786
 20
752.0720742715375
 30
0.0
 11
-696.1059446857786
 21
746.2586587441939
 31
0.0
  0
LINE
  5
18F
330
1F
100
AcDbEntity
  8
C-A
  6
Continuous
 62
     3
370
     9
100
AcDbLine
 10
-691.1562071369506
 20
752.0720742715375
 30
0.0
 11
-691.1562071369506
 21
746.2586587441939
 31
0.0
  0
LINE
  5
190
330
1F
100
AcDbEntity
  8
C-A
  6
Continuous
 62
     3
370
     9
100
AcDbLine
 10
-621.0558043049193
 20
752.0720742715375
 30
0.0
 11
-621.0558043049193
 21
746.2586587441939
 31
0.0
  0
LINE
  5
191
330
1F
100
AcDbEntity
  8
C-A
  6
Continuous
 62
     3
370
     9
100
AcDbLine
 10
-616.1060667560911
 20
752.0720742715375
 30
0.0
 11
-616.1060667560911
 21
746.2586587441939
 31
0.0
  0
LINE
  5
192
330
1F
100
AcDbEntity
  8
C-A
  6
Continuous
 62
     3
370
     9
100
AcDbLine
 10
-611.156329207263
 20
752.0720742715375
 30
0.0
 11
-611.156329207263
 21
746.2586587441939
 31
0.0
  0
LINE
  5
193
330
1F
100
AcDbEntity
  8
C-A
  6
Continuous
 62
     3
370
     9
100
AcDbLine
 10
-941.0553007648803
 20
738.2588418496625
 30
0.0
 11
-941.0553007648803
 21
732.4461282266157
 31
0.0
  0
LINE
  5
194
330
1F
100
AcDbEntity
  8
C-A
  6
Continuous
 62
     3
370
     9
100
AcDbLine
 10
-936.1060591266966
 20
738.2588418496625
 30
0.0
 11
-936.1060591266966
 21
732.4461282266157
 31
0.0
  0
LINE
  5
195
330
1F
100
AcDbEntity
  8
C-A
  6
Continuous
 62
     3
370
     9
100
AcDbLine
 10
-931.1563292072631
 20
738.2588418496625
 30
0.0
 11
-931.1563292072631
 21
732.4461282266157
 31
0.0
  0
LINE
  5
196
330
1F
100
AcDbEntity
  8
C-A
  6
Continuous
 62
     3
370
     9
100
AcDbLine
 10
-861.0554228351928
 20
738.2588418496625
 30
0.0
 11
-861.0554228351928
 21
732.4461282266157
 31
0.0
  0
LINE
  5
197
330
1F
100
AcDbEntity
  8
C-A
  6
Continuous
 62
     3
370
     9
100
AcDbLine
 10
-856.1056852863646
 20
738.2588418496625
 30
0.0
 11
-856.1056852863646
 21
732.4461282266157
 31
0.0
  0
LINE
  5
198
330
1F
100
AcDbEntity
  8
C-A
  6
Continuous
 62
     3
370
     9
100
AcDbLine
 10
-851.1559629963256
 20
738.2588418496625
 30
0.0
 11
-851.1559629963256
 21
732.4461282266157
 31
0.0
  0
LINE
  5
199
330
1F
100
AcDbEntity
  8
C-A
  6
Continuous
 62
     3
370
     9
100
AcDbLine
 10
-781.0555296467162
 20
738.2588418496625
 30
0.0
 11
-781.0555296467162
 21
732.4461282266157
 31
0.0
  0
LINE
  5
19A
330
1F
100
AcDbEntity
  8
C-A
  6
Continuous
 62
     3
370
     9
100
AcDbLine
 10
-776.1058226154661
 20
738.2588418496625
 30
0.0
 11
-776.1058226154661
 21
732.4461282266157
 31
0.0
  0
LINE
  5
19B
330
1F
100
AcDbEntity
  8
C-A
  6
Continuous
 62
     3
370
     9
100
AcDbLine
 10
-771.1555967853881
 20
738.2588418496625
 30
0.0
 11
-771.1555967853881
 21
732.4461282266157
 31
0.0
  0
LINE
  5
19C
330
1F
100
AcDbEntity
  8
C-A
  6
Continuous
 62
     3
370
     9
100
AcDbLine
 10
-701.0556822346068
 20
738.2588418496625
 30
0.0
 11
-701.0556822346068
 21
732.4461282266157
 31
0.0
  0
LINE
  5
19D
330
1F
100
AcDbEntity
  8
C-A
  6
Continuous
 62
     3
370
     9
100
AcDbLine
 10
-696.1059446857786
 20
738.2588418496625
 30
0.0
 11
-696.1059446857786
 21
732.4461282266157
 31
0.0
  0
LINE
  5
19E
330
1F
100
AcDbEntity
  8
C-A
  6
Continuous
 62
     3
370
     9
100
AcDbLine
 10
-691.1562071369506
 20
738.2588418496625
 30
0.0
 11
-691.1562071369506
 21
732.4461282266157
 31
0.0
  0
LINE
  5
19F
330
1F
100
AcDbEntity
  8
C-A
  6
Continuous
 62
     3
370
     9
100
AcDbLine
 10
-621.0558043049193
 20
738.2588418496625
 30
0.0
 11
-621.0558043049193
 21
732.4461282266157
 31
0.0
  0
LINE
  5
1A0
330
1F
100
AcDbEntity
  8
C-A
  6
Continuous
 62
     3
370
     9
100
AcDbLine
 10
-616.1060667560911
 20
738.2588418496625
 30
0.0
 11
-616.1060667560911
 21
732.4461282266157
 31
0.0
  0
LINE
  5
1A1
330
1F
100
AcDbEntity
  8
C-A
  6
Continuous
 62
     3
370
     9
100
AcDbLine
 10
-611.156329207263
 20
738.2588418496625
 30
0.0
 11
-611.156329207263
 21
732.4461282266157
 31
0.0
  0
LINE
  5
1A2
330
1F
100
AcDbEntity
  8
C-A
  6
Continuous
 62
     3
370
     9
100
AcDbLine
 10
-941.0553007648803
 20
724.4462808145063
 30
0.0
 11
-941.0553007648803
 21
718.6328958047407
 31
0.0
  0
LINE
  5
1A3
330
1F
100
AcDbEntity
  8
C-A
  6
Continuous
 62
     3
370
     9
100
AcDbLine
 10
-936.1060591266966
 20
724.4462808145063
 30
0.0
 11
-936.1060591266966
 21
718.6328958047407
 31
0.0
  0
LINE
  5
1A4
330
1F
100
AcDbEntity
  8
C-A
  6
Continuous
 62
     3
370
     9
100
AcDbLine
 10
-931.1563292072631
 20
724.4462808145063
 30
0.0
 11
-931.1563292072631
 21
718.6328958047407
 31
0.0
  0
LINE
  5
1A5
330
1F
100
AcDbEntity
  8
C-A
  6
Continuous
 62
     3
370
     9
100
AcDbLine
 10
-861.0554228351928
 20
724.4462808145063
 30
0.0
 11
-861.0554228351928
 21
718.6328958047407
 31
0.0
  0
LINE
  5
1A6
330
1F
100
AcDbEntity
  8
C-A
  6
Continuous
 62
     3
370
     9
100
AcDbLine
 10
-856.1056852863646
 20
724.4462808145063
 30
0.0
 11
-856.1056852863646
 21
718.6328958047407
 31
0.0
  0
LINE
  5
1A7
330
1F
100
AcDbEntity
  8
C-A
  6
Continuous
 62
     3
370
     9
100
AcDbLine
 10
-851.1559629963256
 20
724.4462808145063
 30
0.0
 11
-851.1559629963256
 21
718.6328958047407
 31
0.0
  0
LINE
  5
1A8
330
1F
100
AcDbEntity
  8
C-A
  6
Continuous
 62
     3
370
     9
100
AcDbLine
 10
-781.0555296467162
 20
724.4462808145063
 30
0.0
 11
-781.0555296467162
 21
718.6328958047407
 31
0.0
  0
LINE
  5
1A9
330
1F
100
AcDbEntity
  8
C-A
  6
Continuous
 62
     3
370
     9
100
AcDbLine
 10
-776.1058226154661
 20
724.4462808145063
 30
0.0
 11
-776.1058226154661
 21
718.6328958047407
 31
0.0
  0
LINE
  5
1AA
330
1F
100
AcDbEntity
  8
C-A
  6
Continuous
 62
     3
370
     9
100
AcDbLine
 10
-771.1555967853881
 20
724.4462808145063
 30
0.0
 11
-771.1555967853881
 21
718.6328958047407
 31
0.0
  0
LINE
  5
1AB
330
1F
100
AcDbEntity
  8
C-A
  6
Continuous
 62
     3
370
     9
100
AcDbLine
 10
-701.0556822346068
 20
724.4462808145063
 30
0.0
 11
-701.0556822346068
 21
718.6328958047407
 31
0.0
  0
LINE
  5
1AC
330
1F
100
AcDbEntity
  8
C-A
  6
Continuous
 62
     3
370
     9
100
AcDbLine
 10
-696.1059446857786
 20
724.4462808145063
 30
0.0
 11
-696.1059446857786
 21
718.6328958047407
 31
0.0
  0
LINE
  5
1AD
330
1F
100
AcDbEntity
  8
C-A
  6
Continuous
 62
     3
370
     9
100
AcDbLine
 10
-691.1562071369506
 20
724.4462808145063
 30
0.0
 11
-691.1562071369506
 21
718.6328958047407
 31
0.0
  0
LINE
  5
1AE
330
1F
100
AcDbEntity
  8
C-A
  6
Continuous
 62
     3
370
     9
100
AcDbLine
 10
-621.0558043049193
 20
724.4462808145063
 30
0.0
 11
-621.0558043049193
 21
718.6328958047407
 31
0.0
  0
LINE
  5
1AF
330
1F
100
AcDbEntity
  8
C-A
  6
Continuous
 62
     3
370
     9
100
AcDbLine
 10
-616.1060667560911
 20
724.4462808145063
 30
0.0
 11
-616.1060667560911
 21
718.6328958047407
 31
0.0
  0
LINE
  5
1B0
330
1F
100
AcDbEntity
  8
C-A
  6
Continuous
 62
     3
370
     9
100
AcDbLine
 10
-611.156329207263
 20
724.4462808145063
 30
0.0
 11
-611.156329207263
 21
718.6328958047407
 31
0.0
  0
LINE
  5
1B1
330
1F
100
AcDbEntity
  8
C-A
  6
Continuous
 62
     3
370
     9
100
AcDbLine
 10
-941.0553007648803
 20
710.6330178750532
 30
0.0
 11
-941.0553007648803
 21
704.8203347695844
 31
0.0
  0
LINE
  5
1B2
330
1F
100
AcDbEntity
  8
C-A
  6
Continuous
 62
     3
370
     9
100
AcDbLine
 10
-936.1060591266966
 20
710.6330178750532
 30
0.0
 11
-936.1060591266966
 21
704.8203347695844
 31
0.0
  0
LINE
  5
1B3
330
1F
100
AcDbEntity
  8
C-A
  6
Continuous
 62
     3
370
     9
100
AcDbLine
 10
-931.1563292072631
 20
710.6330178750532
 30
0.0
 11
-931.1563292072631
 21
704.8203347695844
 31
0.0
  0
LINE
  5
1B4
330
1F
100
AcDbEntity
  8
C-A
  6
Continuous
 62
     3
370
     9
100
AcDbLine
 10
-861.0554228351928
 20
710.6330178750532
 30
0.0
 11
-861.0554228351928
 21
704.8203347695844
 31
0.0
  0
LINE
  5
1B5
330
1F
100
AcDbEntity
  8
C-A
  6
Continuous
 62
     3
370
     9
100
AcDbLine
 10
-856.1056852863646
 20
710.6330178750532
 30
0.0
 11
-856.1056852863646
 21
704.8203347695844
 31
0.0
  0
LINE
  5
1B6
330
1F
100
AcDbEntity
  8
C-A
  6
Continuous
 62
     3
370
     9
100
AcDbLine
 10
-851.1559629963256
 20
710.6330178750532
 30
0.0
 11
-851.1559629963256
 21
704.8203347695844
 31
0.0
  0
LINE
  5
1B7
330
1F
100
AcDbEntity
  8
C-A
  6
Continuous
 62
     3
370
     9
100
AcDbLine
 10
-781.0555296467162
 20
710.6330178750532
 30
0.0
 11
-781.0555296467162
 21
704.8203347695844
 31
0.0
  0
LINE
  5
1B8
330
1F
100
AcDbEntity
  8
C-A
  6
Continuous
 62
     3
370
     9
100
AcDbLine
 10
-776.1058226154661
 20
710.6330178750532
 30
0.0
 11
-776.1058226154661
 21
704.8203347695844
 31
0.0
  0
LINE
  5
1B9
330
1F
100
AcDbEntity
  8
C-A
  6
Continuous
 62
     3
370
     9
100
AcDbLine
 10
-771.1555967853881
 20
710.6330178750532
 30
0.0
 11
-771.1555967853881
 21
704.8203347695844
 31
0.0
  0
LINE
  5
1BA
330
1F
100
AcDbEntity
  8
C-A
  6
Continuous
 62
     3
370
     9
100
AcDbLine
 10
-701.0556822346068
 20
710.6330178750532
 30
0.0
 11
-701.0556822346068
 21
704.8203347695844
 31
0.0
  0
LINE
  5
1BB
330
1F
100
AcDbEntity
  8
C-A
  6
Continuous
 62
     3
370
     9
100
AcDbLine
 10
-696.1059446857786
 20
710.6330178750532
 30
0.0
 11
-696.1059446857786
 21
704.8203347695844
 31
0.0
  0
LINE
  5
1BC
330
1F
100
AcDbEntity
  8
C-A
  6
Continuous
 62
     3
370
     9
100
AcDbLine
 10
-691.1562071369506
 20
710.6330178750532
 30
0.0
 11
-691.1562071369506
 21
704.8203347695844
 31
0.0
  0
LINE
  5
1BD
330
1F
100
AcDbEntity
  8
C-A
  6
Continuous
 62
     3
370
     9
100
AcDbLine
 10
-621.0558043049193
 20
710.6330178750532
 30
0.0
 11
-621.0558043049193
 21
704.8203347695844
 31
0.0
  0
LINE
  5
1BE
330
1F
100
AcDbEntity
  8
C-A
  6
Continuous
 62
     3
370
     9
100
AcDbLine
 10
-616.1060667560911
 20
710.6330178750532
 30
0.0
 11
-616.1060667560911
 21
704.8203347695844
 31
0.0
  0
LINE
  5
1BF
330
1F
100
AcDbEntity
  8
C-A
  6
Continuous
 62
     3
370
     9
100
AcDbLine
 10
-611.156329207263
 20
710.6330178750532
 30
0.0
 11
-611.156329207263
 21
704.8203347695844
 31
0.0
  0
LINE
  5
1C0
330
1F
100
AcDbEntity
  8
C-A
  6
Continuous
 62
     3
370
     9
100
AcDbLine
 10
-941.0553007648803
 20
696.8204568398969
 30
0.0
 11
-941.0553007648803
 21
691.0071023477094
 31
0.0
  0
LINE
  5
1C1
330
1F
100
AcDbEntity
  8
C-A
  6
Continuous
 62
     3
370
     9
100
AcDbLine
 10
-936.1060591266966
 20
696.8204568398969
 30
0.0
 11
-936.1060591266966
 21
691.0071023477094
 31
0.0
  0
LINE
  5
1C2
330
1F
100
AcDbEntity
  8
C-A
  6
Continuous
 62
     3
370
     9
100
AcDbLine
 10
-931.1563292072631
 20
696.8204568398969
 30
0.0
 11
-931.1563292072631
 21
691.0071023477094
 31
0.0
  0
LINE
  5
1C3
330
1F
100
AcDbEntity
  8
C-A
  6
Continuous
 62
     3
370
     9
100
AcDbLine
 10
-861.0554228351928
 20
696.8204568398969
 30
0.0
 11
-861.0554228351928
 21
691.0071023477094
 31
0.0
  0
LINE
  5
1C4
330
1F
100
AcDbEntity
  8
C-A
  6
Continuous
 62
     3
370
     9
100
AcDbLine
 10
-856.1056852863646
 20
696.8204568398969
 30
0.0
 11
-856.1056852863646
 21
691.0071023477094
 31
0.0
  0
LINE
  5
1C5
330
1F
100
AcDbEntity
  8
C-A
  6
Continuous
 62
     3
370
     9
100
AcDbLine
 10
-851.1559629963256
 20
696.8204568398969
 30
0.0
 11
-851.1559629963256
 21
691.0071023477094
 31
0.0
  0
LINE
  5
1C6
330
1F
100
AcDbEntity
  8
C-A
  6
Continuous
 62
     3
370
     9
100
AcDbLine
 10
-781.0555296467162
 20
696.8204568398969
 30
0.0
 11
-781.0555296467162
 21
691.0071023477094
 31
0.0
  0
LINE
  5
1C7
330
1F
100
AcDbEntity
  8
C-A
  6
Continuous
 62
     3
370
     9
100
AcDbLine
 10
-776.1058226154661
 20
696.8204568398969
 30
0.0
 11
-776.1058226154661
 21
691.0071023477094
 31
0.0
  0
LINE
  5
1C8
330
1F
100
AcDbEntity
  8
C-A
  6
Continuous
 62
     3
370
     9
100
AcDbLine
 10
-771.1555967853881
 20
696.8204568398969
 30
0.0
 11
-771.1555967853881
 21
691.0071023477094
 31
0.0
  0
LINE
  5
1C9
330
1F
100
AcDbEntity
  8
C-A
  6
Continuous
 62
     3
370
     9
100
AcDbLine
 10
-701.0556822346068
 20
696.8204568398969
 30
0.0
 11
-701.0556822346068
 21
691.0071023477094
 31
0.0
  0
LINE
  5
1CA
330
1F
100
AcDbEntity
  8
C-A
  6
Continuous
 62
     3
370
     9
100
AcDbLine
 10
-696.1059446857786
 20
696.8204568398969
 30
0.0
 11
-696.1059446857786
 21
691.0071023477094
 31
0.0
  0
LINE
  5
1CB
330
1F
100
AcDbEntity
  8
C-A
  6
Continuous
 62
     3
370
     9
100
AcDbLine
 10
-691.1562071369506
 20
696.8204568398969
 30
0.0
 11
-691.1562071369506
 21
691.0071023477094
 31
0.0
  0
LINE
  5
1CC
330
1F
100
AcDbEntity
  8
C-A
  6
Continuous
 62
     3
370
     9
100
AcDbLine
 10
-941.0553007648803
 20
683.0072244180219
 30
0.0
 11
-941.0553007648803
 21
677.1945413125532
 31
0.0
  0
LINE
  5
1CD
330
1F
100
AcDbEntity
  8
C-A
  6
Continuous
 62
     3
370
     9
100
AcDbLine
 10
-936.1060591266966
 20
683.0072244180219
 30
0.0
 11
-936.1060591266966
 21
677.1945413125532
 31
0.0
  0
LINE
  5
1CE
330
1F
100
AcDbEntity
  8
C-A
  6
Continuous
 62
     3
370
     9
100
AcDbLine
 10
-931.1563292072631
 20
683.0072244180219
 30
0.0
 11
-931.1563292072631
 21
677.1945413125532
 31
0.0
  0
LINE
  5
1CF
330
1F
100
AcDbEntity
  8
C-A
  6
Continuous
 62
     3
370
     9
100
AcDbLine
 10
-861.0554228351928
 20
683.0072244180219
 30
0.0
 11
-861.0554228351928
 21
677.1945413125532
 31
0.0
  0
LINE
  5
1D0
330
1F
100
AcDbEntity
  8
C-A
  6
Continuous
 62
     3
370
     9
100
AcDbLine
 10
-856.1056852863646
 20
683.0072244180219
 30
0.0
 11
-856.1056852863646
 21
677.1945413125532
 31
0.0
  0
LINE
  5
1D1
330
1F
100
AcDbEntity
  8
C-A
  6
Continuous
 62
     3
370
     9
100
AcDbLine
 10
-851.1559629963256
 20
683.0072244180219
 30
0.0
 11
-851.1559629963256
 21
677.1945413125532
 31
0.0
  0
LINE
  5
1D2
330
1F
100
AcDbEntity
  8
C-A
  6
Continuous
 62
     3
370
     9
100
AcDbLine
 10
-781.0555296467162
 20
683.0072244180219
 30
0.0
 11
-781.0555296467162
 21
677.1945413125532
 31
0.0
  0
LINE
  5
1D3
330
1F
100
AcDbEntity
  8
C-A
  6
Continuous
 62
     3
370
     9
100
AcDbLine
 10
-776.1058226154661
 20
683.0072244180219
 30
0.0
 11
-776.1058226154661
 21
677.1945413125532
 31
0.0
  0
LINE
  5
1D4
330
1F
100
AcDbEntity
  8
C-A
  6
Continuous
 62
     3
370
     9
100
AcDbLine
 10
-771.1555967853881
 20
683.0072244180219
 30
0.0
 11
-771.1555967853881
 21
677.1945413125532
 31
0.0
  0
LINE
  5
1D5
330
1F
100
AcDbEntity
  8
C-A
  6
Continuous
 62
     3
370
     9
100
AcDbLine
 10
-701.0556822346068
 20
683.0072244180219
 30
0.0
 11
-701.0556822346068
 21
677.1945413125532
 31
0.0
  0
LINE
  5
1D6
330
1F
100
AcDbEntity
  8
C-A
  6
Continuous
 62
     3
370
     9
100
AcDbLine
 10
-696.1059446857786
 20
683.0072244180219
 30
0.0
 11
-696.1059446857786
 21
677.1945413125532
 31
0.0
  0
LINE
  5
1D7
330
1F
100
AcDbEntity
  8
C-A
  6
Continuous
 62
     3
370
     9
100
AcDbLine
 10
-691.1562071369506
 20
683.0072244180219
 30
0.0
 11
-691.1562071369506
 21
677.1945413125532
 31
0.0
  0
LINE
  5
1D8
330
1F
100
AcDbEntity
  8
C-A
  6
Continuous
 62
     3
370
     9
100
AcDbLine
 10
-941.0553007648803
 20
669.1946633828657
 30
0.0
 11
-941.0553007648803
 21
663.3812783731
 31
0.0
  0
LINE
  5
1D9
330
1F
100
AcDbEntity
  8
C-A
  6
Continuous
 62
     3
370
     9
100
AcDbLine
 10
-936.1060591266966
 20
669.1946633828657
 30
0.0
 11
-936.1060591266966
 21
663.3812783731
 31
0.0
  0
LINE
  5
1DA
330
1F
100
AcDbEntity
  8
C-A
  6
Continuous
 62
     3
370
     9
100
AcDbLine
 10
-931.1563292072631
 20
669.1946633828657
 30
0.0
 11
-931.1563292072631
 21
663.3812783731
 31
0.0
  0
LINE
  5
1DB
330
1F
100
AcDbEntity
  8
C-A
  6
Continuous
 62
     3
370
     9
100
AcDbLine
 10
-861.0554228351928
 20
669.1946633828657
 30
0.0
 11
-861.0554228351928
 21
663.3812783731
 31
0.0
  0
LINE
  5
1DC
330
1F
100
AcDbEntity
  8
C-A
  6
Continuous
 62
     3
370
     9
100
AcDbLine
 10
-856.1056852863646
 20
669.1946633828657
 30
0.0
 11
-856.1056852863646
 21
663.3812783731
 31
0.0
  0
LINE
  5
1DD
330
1F
100
AcDbEntity
  8
C-A
  6
Continuous
 62
     3
370
     9
100
AcDbLine
 10
-851.1559629963256
 20
669.1946633828657
 30
0.0
 11
-851.1559629963256
 21
663.3812783731
 31
0.0
  0
LINE
  5
1DE
330
1F
100
AcDbEntity
  8
C-A
  6
Continuous
 62
     3
370
     9
100
AcDbLine
 10
-781.0555296467162
 20
669.1946633828657
 30
0.0
 11
-781.0555296467162
 21
663.3812783731
 31
0.0
  0
LINE
  5
1DF
330
1F
100
AcDbEntity
  8
C-A
  6
Continuous
 62
     3
370
     9
100
AcDbLine
 10
-776.1058226154661
 20
669.1946633828657
 30
0.0
 11
-776.1058226154661
 21
663.3812783731
 31
0.0
  0
LINE
  5
1E0
330
1F
100
AcDbEntity
  8
C-A
  6
Continuous
 62
     3
370
     9
100
AcDbLine
 10
-771.1555967853881
 20
669.1946633828657
 30
0.0
 11
-771.1555967853881
 21
663.3812783731
 31
0.0
  0
LINE
  5
1E1
330
1F
100
AcDbEntity
  8
C-A
  6
Continuous
 62
     3
370
     9
100
AcDbLine
 10
-701.0556822346068
 20
669.1946633828657
 30
0.0
 11
-701.0556822346068
 21
663.3812783731
 31
0.0
  0
LINE
  5
1E2
330
1F
100
AcDbEntity
  8
C-A
  6
Continuous
 62
     3
370
     9
100
AcDbLine
 10
-696.1059446857786
 20
669.1946633828657
 30
0.0
 11
-696.1059446857786
 21
663.3812783731
 31
0.0
  0
LINE
  5
1E3
330
1F
100
AcDbEntity
  8
C-A
  6
Continuous
 62
     3
370
     9
100
AcDbLine
 10
-691.1562071369506
 20
669.1946633828657
 30
0.0
 11
-691.1562071369506
 21
663.3812783731
 31
0.0
  0
LINE
  5
1E4
330
1F
100
AcDbEntity
  8
C-A
  6
Continuous
 62
     3
370
     9
100
AcDbLine
 10
-941.0553007648803
 20
655.3814004434125
 30
0.0
 11
-941.0553007648803
 21
649.5683816445844
 31
0.0
  0
LINE
  5
1E5
330
1F
100
AcDbEntity
  8
C-A
  6
Continuous
 62
     3
370
     9
100
AcDbLine
 10
-936.1060591266966
 20
655.3814004434125
 30
0.0
 11
-936.1060591266966
 21
649.5683816445844
 31
0.0
  0
LINE
  5
1E6
330
1F
100
AcDbEntity
  8
C-A
  6
Continuous
 62
     3
370
     9
100
AcDbLine
 10
-931.1563292072631
 20
655.3814004434125
 30
0.0
 11
-931.1563292072631
 21
649.5683816445844
 31
0.0
  0
LINE
  5
1E7
330
1F
100
AcDbEntity
  8
C-A
  6
Continuous
 62
     3
370
     9
100
AcDbLine
 10
-861.0554228351928
 20
655.3814004434125
 30
0.0
 11
-861.0554228351928
 21
649.5683816445844
 31
0.0
  0
LINE
  5
1E8
330
1F
100
AcDbEntity
  8
C-A
  6
Continuous
 62
     3
370
     9
100
AcDbLine
 10
-856.1056852863646
 20
655.3814004434125
 30
0.0
 11
-856.1056852863646
 21
649.5683816445844
 31
0.0
  0
LINE
  5
1E9
330
1F
100
AcDbEntity
  8
C-A
  6
Continuous
 62
     3
370
     9
100
AcDbLine
 10
-851.1559629963256
 20
655.3814004434125
 30
0.0
 11
-851.1559629963256
 21
649.5683816445844
 31
0.0
  0
LINE
  5
1EA
330
1F
100
AcDbEntity
  8
C-A
  6
Continuous
 62
     3
370
     9
100
AcDbLine
 10
-781.0555296467162
 20
655.3814004434125
 30
0.0
 11
-781.0555296467162
 21
649.5683816445844
 31
0.0
  0
LINE
  5
1EB
330
1F
100
AcDbEntity
  8
C-A
  6
Continuous
 62
     3
370
     9
100
AcDbLine
 10
-776.1058226154661
 20
655.3814004434125
 30
0.0
 11
-776.1058226154661
 21
649.5683816445844
 31
0.0
  0
LINE
  5
1EC
330
1F
100
AcDbEntity
  8
C-A
  6
Continuous
 62
     3
370
     9
100
AcDbLine
 10
-771.1555967853881
 20
655.3814004434125
 30
0.0
 11
-771.1555967853881
 21
649.5683816445844
 31
0.0
  0
LINE
  5
1ED
330
1F
100
AcDbEntity
  8
C-A
  6
Continuous
 62
     3
370
     9
100
AcDbLine
 10
-701.0556822346068
 20
655.3814004434125
 30
0.0
 11
-701.0556822346068
 21
649.5683816445844
 31
0.0
  0
LINE
  5
1EE
330
1F
100
AcDbEntity
  8
C-A
  6
Continuous
 62
     3
370
     9
100
AcDbLine
 10
-696.1059446857786
 20
655.3814004434125
 30
0.0
 11
-696.1059446857786
 21
649.5683816445844
 31
0.0
  0
LINE
  5
1EF
330
1F
100
AcDbEntity
  8
C-A
  6
Continuous
 62
     3
370
     9
100
AcDbLine
 10
-691.1562071369506
 20
655.3814004434125
 30
0.0
 11
-691.1562071369506
 21
649.5683816445844
 31
0.0
  0
LINE
  5
1F0
330
1F
100
AcDbEntity
  8
C-A
  6
Continuous
 62
     3
370
     9
100
AcDbLine
 10
-941.0553007648803
 20
641.5685037148969
 30
0.0
 11
-941.0553007648803
 21
635.7554849160688
 31
0.0
  0
LINE
  5
1F1
330
1F
100
AcDbEntity
  8
C-A
  6
Continuous
 62
     3
370
     9
100
AcDbLine
 10
-936.1060591266966
 20
641.5685037148969
 30
0.0
 11
-936.1060591266966
 21
635.7554849160688
 31
0.0
  0
LINE
  5
1F2
330
1F
100
AcDbEntity
  8
C-A
  6
Continuous
 62
     3
370
     9
100
AcDbLine
 10
-931.1563292072631
 20
641.5685037148969
 30
0.0
 11
-931.1563292072631
 21
635.7554849160688
 31
0.0
  0
LINE
  5
1F3
330
1F
100
AcDbEntity
  8
C-A
  6
Continuous
 62
     3
370
     9
100
AcDbLine
 10
-861.0554228351928
 20
641.5685037148969
 30
0.0
 11
-861.0554228351928
 21
635.7554849160688
 31
0.0
  0
LINE
  5
1F4
330
1F
100
AcDbEntity
  8
C-A
  6
Continuous
 62
     3
370
     9
100
AcDbLine
 10
-856.1056852863646
 20
641.5685037148969
 30
0.0
 11
-856.1056852863646
 21
635.7554849160688
 31
0.0
  0
LINE
  5
1F5
330
1F
100
AcDbEntity
  8
C-A
  6
Continuous
 62
     3
370
     9
100
AcDbLine
 10
-851.1559629963256
 20
641.5685037148969
 30
0.0
 11
-851.1559629963256
 21
635.7554849160688
 31
0.0
  0
LINE
  5
1F6
330
1F
100
AcDbEntity
  8
C-A
  6
Continuous
 62
     3
370
     9
100
AcDbLine
 10
-781.0555296467162
 20
641.5685037148969
 30
0.0
 11
-781.0555296467162
 21
635.7554849160688
 31
0.0
  0
LINE
  5
1F7
330
1F
100
AcDbEntity
  8
C-A
  6
Continuous
 62
     3
370
     9
100
AcDbLine
 10
-776.1058226154661
 20
641.5685037148969
 30
0.0
 11
-776.1058226154661
 21
635.7554849160688
 31
0.0
  0
LINE
  5
1F8
330
1F
100
AcDbEntity
  8
C-A
  6
Continuous
 62
     3
370
     9
100
AcDbLine
 10
-771.1555967853881
 20
641.5685037148969
 30
0.0
 11
-771.1555967853881
 21
635.7554849160688
 31
0.0
  0
LINE
  5
1F9
330
1F
100
AcDbEntity
  8
C-A
  6
Continuous
 62
     3
370
     9
100
AcDbLine
 10
-701.0556822346068
 20
641.5685037148969
 30
0.0
 11
-701.0556822346068
 21
635.7554849160688
 31
0.0
  0
LINE
  5
1FA
330
1F
100
AcDbEntity
  8
C-A
  6
Continuous
 62
     3
370
     9
100
AcDbLine
 10
-696.1059446857786
 20
641.5685037148969
 30
0.0
 11
-696.1059446857786
 21
635.7554849160688
 31
0.0
  0
LINE
  5
1FB
330
1F
100
AcDbEntity
  8
C-A
  6
Continuous
 62
     3
370
     9
100
AcDbLine
 10
-691.1562071369506
 20
641.5685037148969
 30
0.0
 11
-691.1562071369506
 21
635.7554849160688
 31
0.0
  0
LINE
  5
1FC
330
1F
100
AcDbEntity
  8
C-A
  6
Continuous
 62
     3
370
     9
100
AcDbLine
 10
-941.0553007648803
 20
627.7556069863813
 30
0.0
 11
-941.0553007648803
 21
621.9425881875532
 31
0.0
  0
LINE
  5
1FD
330
1F
100
AcDbEntity
  8
C-A
  6
Continuous
 62
     3
370
     9
100
AcDbLine
 10
-936.1060591266966
 20
627.7556069863813
 30
0.0
 11
-936.1060591266966
 21
621.9425881875532
 31
0.0
  0
LINE
  5
1FE
330
1F
100
AcDbEntity
  8
C-A
  6
Continuous
 62
     3
370
     9
100
AcDbLine
 10
-931.1563292072631
 20
627.7556069863813
 30
0.0
 11
-931.1563292072631
 21
621.9425881875532
 31
0.0
  0
LINE
  5
1FF
330
1F
100
AcDbEntity
  8
C-A
  6
Continuous
 62
     3
370
     9
100
AcDbLine
 10
-861.0554228351928
 20
627.7556069863813
 30
0.0
 11
-861.0554228351928
 21
621.9425881875532
 31
0.0
  0
LINE
  5
200
330
1F
100
AcDbEntity
  8
C-A
  6
Continuous
 62
     3
370
     9
100
AcDbLine
 10
-856.1056852863646
 20
627.7556069863813
 30
0.0
 11
-856.1056852863646
 21
621.9425881875532
 31
0.0
  0
LINE
  5
201
330
1F
100
AcDbEntity
  8
C-A
  6
Continuous
 62
     3
370
     9
100
AcDbLine
 10
-851.1559629963256
 20
627.7556069863813
 30
0.0
 11
-851.1559629963256
 21
621.9425881875532
 31
0.0
  0
LINE
  5
202
330
1F
100
AcDbEntity
  8
C-A
  6
Continuous
 62
     3
370
     9
100
AcDbLine
 10
-781.0555296467162
 20
627.7556069863813
 30
0.0
 11
-781.0555296467162
 21
621.9425881875532
 31
0.0
  0
LINE
  5
203
330
1F
100
AcDbEntity
  8
C-A
  6
Continuous
 62
     3
370
     9
100
AcDbLine
 10
-776.1058226154661
 20
627.7556069863813
 30
0.0
 11
-776.1058226154661
 21
621.9425881875532
 31
0.0
  0
LINE
  5
204
330
1F
100
AcDbEntity
  8
C-A
  6
Continuous
 62
     3
370
     9
100
AcDbLine
 10
-771.1555967853881
 20
627.7556069863813
 30
0.0
 11
-771.1555967853881
 21
621.9425881875532
 31
0.0
  0
LINE
  5
205
330
1F
100
AcDbEntity
  8
C-A
  6
Continuous
 62
     3
370
     9
100
AcDbLine
 10
-701.0556822346068
 20
627.7556069863813
 30
0.0
 11
-701.0556822346068
 21
621.9425881875532
 31
0.0
  0
LINE
  5
206
330
1F
100
AcDbEntity
  8
C-A
  6
Continuous
 62
     3
370
     9
100
AcDbLine
 10
-696.1059446857786
 20
627.7556069863813
 30
0.0
 11
-696.1059446857786
 21
621.9425881875532
 31
0.0
  0
LINE
  5
207
330
1F
100
AcDbEntity
  8
C-A
  6
Continuous
 62
     3
370
     9
100
AcDbLine
 10
-691.1562071369506
 20
627.7556069863813
 30
0.0
 11
-691.1562071369506
 21
621.9425881875532
 31
0.0
  0
LINE
  5
208
330
1F
100
AcDbEntity
  8
C-A
  6
Continuous
 62
     3
370
     9
100
AcDbLine
 10
-941.0553007648803
 20
613.9427102578657
 30
0.0
 11
-941.0553007648803
 21
608.1296914590375
 31
0.0
  0
LINE
  5
209
330
1F
100
AcDbEntity
  8
C-A
  6
Continuous
 62
     3
370
     9
100
AcDbLine
 10
-936.1060591266966
 20
613.9427102578657
 30
0.0
 11
-936.1060591266966
 21
608.1296914590375
 31
0.0
  0
LINE
  5
20A
330
1F
100
AcDbEntity
  8
C-A
  6
Continuous
 62
     3
370
     9
100
AcDbLine
 10
-931.1563292072631
 20
613.9427102578657
 30
0.0
 11
-931.1563292072631
 21
608.1296914590375
 31
0.0
  0
LINE
  5
20B
330
1F
100
AcDbEntity
  8
C-A
  6
Continuous
 62
     3
370
     9
100
AcDbLine
 10
-861.0554228351928
 20
613.9427102578657
 30
0.0
 11
-861.0554228351928
 21
608.1296914590375
 31
0.0
  0
LINE
  5
20C
330
1F
100
AcDbEntity
  8
C-A
  6
Continuous
 62
     3
370
     9
100
AcDbLine
 10
-856.1056852863646
 20
613.9427102578657
 30
0.0
 11
-856.1056852863646
 21
608.1296914590375
 31
0.0
  0
LINE
  5
20D
330
1F
100
AcDbEntity
  8
C-A
  6
Continuous
 62
     3
370
     9
100
AcDbLine
 10
-851.1559629963256
 20
613.9427102578657
 30
0.0
 11
-851.1559629963256
 21
608.1296914590375
 31
0.0
  0
LINE
  5
20E
330
1F
100
AcDbEntity
  8
C-A
  6
Continuous
 62
     3
370
     9
100
AcDbLine
 10
-781.0555296467162
 20
613.9427102578657
 30
0.0
 11
-781.0555296467162
 21
608.1296914590375
 31
0.0
  0
LINE
  5
20F
330
1F
100
AcDbEntity
  8
C-A
  6
Continuous
 62
     3
370
     9
100
AcDbLine
 10
-776.1058226154661
 20
613.9427102578657
 30
0.0
 11
-776.1058226154661
 21
608.1296914590375
 31
0.0
  0
LINE
  5
210
330
1F
100
AcDbEntity
  8
C-A
  6
Continuous
 62
     3
370
     9
100
AcDbLine
 10
-771.1555967853881
 20
613.9427102578657
 30
0.0
 11
-771.1555967853881
 21
608.1296914590375
 31
0.0
  0
LINE
  5
211
330
1F
100
AcDbEntity
  8
C-A
  6
Continuous
 62
     3
370
     9
100
AcDbLine
 10
-701.0556822346068
 20
613.9427102578657
 30
0.0
 11
-701.0556822346068
 21
608.1296914590375
 31
0.0
  0
LINE
  5
212
330
1F
100
AcDbEntity
  8
C-A
  6
Continuous
 62
     3
370
     9
100
AcDbLine
 10
-696.1059446857786
 20
613.9427102578657
 30
0.0
 11
-696.1059446857786
 21
608.1296914590375
 31
0.0
  0
LINE
  5
213
330
1F
100
AcDbEntity
  8
C-A
  6
Continuous
 62
     3
370
     9
100
AcDbLine
 10
-691.1562071369506
 20
613.9427102578657
 30
0.0
 11
-691.1562071369506
 21
608.1296914590375
 31
0.0
  0
LINE
  5
214
330
1F
100
AcDbEntity
  8
C-A
  6
Continuous
 62
     3
370
     9
100
AcDbLine
 10
-941.0553007648803
 20
600.12981352935
 30
0.0
 11
-941.0553007648803
 21
594.3167947305219
 31
0.0
  0
LINE
  5
215
330
1F
100
AcDbEntity
  8
C-A
  6
Continuous
 62
     3
370
     9
100
AcDbLine
 10
-936.1060591266966
 20
600.12981352935
 30
0.0
 11
-936.1060591266966
 21
594.3167947305219
 31
0.0
  0
LINE
  5
216
330
1F
100
AcDbEntity
  8
C-A
  6
Continuous
 62
     3
370
     9
100
AcDbLine
 10
-931.1563292072631
 20
600.12981352935
 30
0.0
 11
-931.1563292072631
 21
594.3167947305219
 31
0.0
  0
LINE
  5
217
330
1F
100
AcDbEntity
  8
C-A
  6
Continuous
 62
     3
370
     9
100
AcDbLine
 10
-861.0554228351928
 20
600.12981352935
 30
0.0
 11
-861.0554228351928
 21
594.3167947305219
 31
0.0
  0
LINE
  5
218
330
1F
100
AcDbEntity
  8
C-A
  6
Continuous
 62
     3
370
     9
100
AcDbLine
 10
-856.1056852863646
 20
600.12981352935
 30
0.0
 11
-856.1056852863646
 21
594.3167947305219
 31
0.0
  0
LINE
  5
219
330
1F
100
AcDbEntity
  8
C-A
  6
Continuous
 62
     3
370
     9
100
AcDbLine
 10
-851.1559629963256
 20
600.12981352935
 30
0.0
 11
-851.1559629963256
 21
594.3167947305219
 31
0.0
  0
LINE
  5
21A
330
1F
100
AcDbEntity
  8
C-A
  6
Continuous
 62
     3
370
     9
100
AcDbLine
 10
-781.0555296467162
 20
600.12981352935
 30
0.0
 11
-781.0555296467162
 21
594.3167947305219
 31
0.0
  0
LINE
  5
21B
330
1F
100
AcDbEntity
  8
C-A
  6
Continuous
 62
     3
370
     9
100
AcDbLine
 10
-776.1058226154661
 20
600.12981352935
 30
0.0
 11
-776.1058226154661
 21
594.3167947305219
 31
0.0
  0
LINE
  5
21C
330
1F
100
AcDbEntity
  8
C-A
  6
Continuous
 62
     3
370
     9
100
AcDbLine
 10
-771.1555967853881
 20
600.12981352935
 30
0.0
 11
-771.1555967853881
 21
594.3167947305219
 31
0.0
  0
LINE
  5
21D
330
1F
100
AcDbEntity
  8
C-A
  6
Continuous
 62
     3
370
     9
100
AcDbLine
 10
-701.0556822346068
 20
600.12981352935
 30
0.0
 11
-701.0556822346068
 21
594.3167947305219
 31
0.0
  0
LINE
  5
21E
330
1F
100
AcDbEntity
  8
C-A
  6
Continuous
 62
     3
370
     9
100
AcDbLine
 10
-696.1059446857786
 20
600.12981352935
 30
0.0
 11
-696.1059446857786
 21
594.3167947305219
 31
0.0
  0
LINE
  5
21F
330
1F
100
AcDbEntity
  8
C-A
  6
Continuous
 62
     3
370
     9
100
AcDbLine
 10
-691.1562071369506
 20
600.12981352935
 30
0.0
 11
-691.1562071369506
 21
594.3167947305219
 31
0.0
  0
LINE
  5
220
330
1F
100
AcDbEntity
  8
C-A
  6
Continuous
 62
     3
370
     9
100
AcDbLine
 10
-941.0553007648803
 20
586.3169168008344
 30
0.0
 11
-941.0553007648803
 21
580.5038674844282
 31
0.0
  0
LINE
  5
221
330
1F
100
AcDbEntity
  8
C-A
  6
Continuous
 62
     3
370
     9
100
AcDbLine
 10
-936.1060591266966
 20
586.3169168008344
 30
0.0
 11
-936.1060591266966
 21
580.5038674844282
 31
0.0
  0
LINE
  5
222
330
1F
100
AcDbEntity
  8
C-A
  6
Continuous
 62
     3
370
     9
100
AcDbLine
 10
-931.1563292072631
 20
586.3169168008344
 30
0.0
 11
-931.1563292072631
 21
580.5038674844282
 31
0.0
  0
LINE
  5
223
330
1F
100
AcDbEntity
  8
C-A
  6
Continuous
 62
     3
370
     9
100
AcDbLine
 10
-861.0554228351928
 20
586.3169168008344
 30
0.0
 11
-861.0554228351928
 21
580.5038674844282
 31
0.0
  0
LINE
  5
224
330
1F
100
AcDbEntity
  8
C-A
  6
Continuous
 62
     3
370
     9
100
AcDbLine
 10
-856.1056852863646
 20
586.3169168008344
 30
0.0
 11
-856.1056852863646
 21
580.5038674844282
 31
0.0
  0
LINE
  5
225
330
1F
100
AcDbEntity
  8
C-A
  6
Continuous
 62
     3
370
     9
100
AcDbLine
 10
-851.1559629963256
 20
586.3169168008344
 30
0.0
 11
-851.1559629963256
 21
580.5038674844282
 31
0.0
  0
LINE
  5
226
330
1F
100
AcDbEntity
  8
C-A
  6
Continuous
 62
     3
370
     9
100
AcDbLine
 10
-781.0555296467162
 20
586.3169168008344
 30
0.0
 11
-781.0555296467162
 21
580.5038674844282
 31
0.0
  0
LINE
  5
227
330
1F
100
AcDbEntity
  8
C-A
  6
Continuous
 62
     3
370
     9
100
AcDbLine
 10
-776.1058226154661
 20
586.3169168008344
 30
0.0
 11
-776.1058226154661
 21
580.5038674844282
 31
0.0
  0
LINE
  5
228
330
1F
100
AcDbEntity
  8
C-A
  6
Continuous
 62
     3
370
     9
100
AcDbLine
 10
-771.1555967853881
 20
586.3169168008344
 30
0.0
 11
-771.1555967853881
 21
580.5038674844282
 31
0.0
  0
LINE
  5
229
330
1F
100
AcDbEntity
  8
C-A
  6
Continuous
 62
     3
370
     9
100
AcDbLine
 10
-701.0556822346068
 20
586.3169168008344
 30
0.0
 11
-701.0556822346068
 21
580.5038674844282
 31
0.0
  0
LINE
  5
22A
330
1F
100
AcDbEntity
  8
C-A
  6
Continuous
 62
     3
370
     9
100
AcDbLine
 10
-696.1059446857786
 20
586.3169168008344
 30
0.0
 11
-696.1059446857786
 21
580.5038674844282
 31
0.0
  0
LINE
  5
22B
330
1F
100
AcDbEntity
  8
C-A
  6
Continuous
 62
     3
370
     9
100
AcDbLine
 10
-691.1562071369506
 20
586.3169168008344
 30
0.0
 11
-691.1562071369506
 21
580.5038674844282
 31
0.0
  0
LINE
  5
22C
330
1F
100
AcDbEntity
  8
C-A
  6
Continuous
 62
     3
370
     9
100
AcDbLine
 10
-941.0553007648803
 20
572.5039895547407
 30
0.0
 11
-941.0553007648803
 21
566.6906198037641
 31
0.0
  0
LINE
  5
22D
330
1F
100
AcDbEntity
  8
C-A
  6
Continuous
 62
     3
370
     9
100
AcDbLine
 10
-936.1060591266966
 20
572.5039895547407
 30
0.0
 11
-936.1060591266966
 21
566.6906198037641
 31
0.0
  0
LINE
  5
22E
330
1F
100
AcDbEntity
  8
C-A
  6
Continuous
 62
     3
370
     9
100
AcDbLine
 10
-931.1563292072631
 20
572.5039895547407
 30
0.0
 11
-931.1563292072631
 21
566.6906198037641
 31
0.0
  0
LINE
  5
22F
330
1F
100
AcDbEntity
  8
C-A
  6
Continuous
 62
     3
370
     9
100
AcDbLine
 10
-861.0554228351928
 20
572.5039895547407
 30
0.0
 11
-861.0554228351928
 21
566.6906198037641
 31
0.0
  0
LINE
  5
230
330
1F
100
AcDbEntity
  8
C-A
  6
Continuous
 62
     3
370
     9
100
AcDbLine
 10
-856.1056852863646
 20
572.5039895547407
 30
0.0
 11
-856.1056852863646
 21
566.6906198037641
 31
0.0
  0
LINE
  5
231
330
1F
100
AcDbEntity
  8
C-A
  6
Continuous
 62
     3
370
     9
100
AcDbLine
 10
-851.1559629963256
 20
572.5039895547407
 30
0.0
 11
-851.1559629963256
 21
566.6906198037641
 31
0.0
  0
LINE
  5
232
330
1F
100
AcDbEntity
  8
C-A
  6
Continuous
 62
     3
370
     9
100
AcDbLine
 10
-781.0555296467162
 20
572.5039895547407
 30
0.0
 11
-781.0555296467162
 21
566.6906198037641
 31
0.0
  0
LINE
  5
233
330
1F
100
AcDbEntity
  8
C-A
  6
Continuous
 62
     3
370
     9
100
AcDbLine
 10
-776.1058226154661
 20
572.5039895547407
 30
0.0
 11
-776.1058226154661
 21
566.6906198037641
 31
0.0
  0
LINE
  5
234
330
1F
100
AcDbEntity
  8
C-A
  6
Continuous
 62
     3
370
     9
100
AcDbLine
 10
-771.1555967853881
 20
572.5039895547407
 30
0.0
 11
-771.1555967853881
 21
566.6906198037641
 31
0.0
  0
LINE
  5
235
330
1F
100
AcDbEntity
  8
C-A
  6
Continuous
 62
     3
370
     9
100
AcDbLine
 10
-701.0556822346068
 20
572.5039895547407
 30
0.0
 11
-701.0556822346068
 21
566.6906198037641
 31
0.0
  0
LINE
  5
236
330
1F
100
AcDbEntity
  8
C-A
  6
Continuous
 62
     3
370
     9
100
AcDbLine
 10
-696.1059446857786
 20
572.5039895547407
 30
0.0
 11
-696.1059446857786
 21
566.6906198037641
 31
0.0
  0
LINE
  5
237
330
1F
100
AcDbEntity
  8
C-A
  6
Continuous
 62
     3
370
     9
100
AcDbLine
 10
-691.1562071369506
 20
572.5039895547407
 30
0.0
 11
-691.1562071369506
 21
566.6906198037641
 31
0.0
  0
LINE
  5
238
330
1F
100
AcDbEntity
  8
C-A
  6
Continuous
 62
     3
370
     9
100
AcDbLine
 10
-941.0553007648803
 20
558.6907571328657
 30
0.0
 11
-941.0553007648803
 21
552.8780740273969
 31
0.0
  0
LINE
  5
239
330
1F
100
AcDbEntity
  8
C-A
  6
Continuous
 62
     3
370
     9
100
AcDbLine
 10
-936.1060591266966
 20
558.6907571328657
 30
0.0
 11
-936.1060591266966
 21
552.8780740273969
 31
0.0
  0
LINE
  5
23A
330
1F
100
AcDbEntity
  8
C-A
  6
Continuous
 62
     3
370
     9
100
AcDbLine
 10
-931.1563292072631
 20
558.6907571328657
 30
0.0
 11
-931.1563292072631
 21
552.8780740273969
 31
0.0
  0
LINE
  5
23B
330
1F
100
AcDbEntity
  8
C-A
  6
Continuous
 62
     3
370
     9
100
AcDbLine
 10
-861.0554228351928
 20
558.6907571328657
 30
0.0
 11
-861.0554228351928
 21
552.8780740273969
 31
0.0
  0
LINE
  5
23C
330
1F
100
AcDbEntity
  8
C-A
  6
Continuous
 62
     3
370
     9
100
AcDbLine
 10
-856.1056852863646
 20
558.6907571328657
 30
0.0
 11
-856.1056852863646
 21
552.8780740273969
 31
0.0
  0
LINE
  5
23D
330
1F
100
AcDbEntity
  8
C-A
  6
Continuous
 62
     3
370
     9
100
AcDbLine
 10
-851.1559629963256
 20
558.6907571328657
 30
0.0
 11
-851.1559629963256
 21
552.8780740273969
 31
0.0
  0
LINE
  5
23E
330
1F
100
AcDbEntity
  8
C-A
  6
Continuous
 62
     3
370
     9
100
AcDbLine
 10
-781.0555296467162
 20
558.6907571328657
 30
0.0
 11
-781.0555296467162
 21
552.8780740273969
 31
0.0
  0
LINE
  5
23F
330
1F
100
AcDbEntity
  8
C-A
  6
Continuous
 62
     3
370
     9
100
AcDbLine
 10
-776.1058226154661
 20
558.6907571328657
 30
0.0
 11
-776.1058226154661
 21
552.8780740273969
 31
0.0
  0
LINE
  5
240
330
1F
100
AcDbEntity
  8
C-A
  6
Continuous
 62
     3
370
     9
100
AcDbLine
 10
-771.1555967853881
 20
558.6907571328657
 30
0.0
 11
-771.1555967853881
 21
552.8780740273969
 31
0.0
  0
LINE
  5
241
330
1F
100
AcDbEntity
  8
C-A
  6
Continuous
 62
     3
370
     9
100
AcDbLine
 10
-701.0556822346068
 20
558.6907571328657
 30
0.0
 11
-701.0556822346068
 21
552.8780740273969
 31
0.0
  0
LWPOLYLINE
  5
242
330
1F
100
AcDbEntity
  8
C-4
  6
Continuous
 62
     7
370
     9
100
AcDbPolyline
 90
        4
 70
     1
 43
1.0
 10
-975.6057539509153
 20
1094.891227103569
 42
0.4142135623731
 10
-976.1057539509153
 20
1095.391227103569
 42
0.4142135623731
 10
-976.6057539509153
 20
1094.891227103569
 42
0.4142135623731
 10
-976.1057539509153
 20
1094.391227103569
 42
0.4142135623731
  0
LWPOLYLINE
  5
243
330
1F
100
AcDbEntity
  8
C-4
  6
Continuous
 62
     7
370
     9
100
AcDbPolyline
 90
        4
 70
     1
 43
1.0
 10
-1000.605620436511
 20
1094.891227103569
 42
0.4142135623731
 10
-1001.105620436511
 20
1095.391227103569
 42
0.4142135623731
 10
-1001.605620436511
 20
1094.891227103569
 42
0.4142135623731
 10
-1001.105620436511
 20
1094.391227103569
 42
0.4142135623731
  0
LWPOLYLINE
  5
244
330
1F
100
AcDbEntity
  8
C-4
  6
Continuous
 62
     7
370
     9
100
AcDbPolyline
 90
        4
 70
     1
 43
1.0
 10
-1000.605620436511
 20
1169.891227103569
 42
0.4142135623731
 10
-1001.105620436511
 20
1170.391227103569
 42
0.4142135623731
 10
-1001.605620436511
 20
1169.891227103569
 42
0.4142135623731
 10
-1001.105620436511
 20
1169.391227103569
 42
0.4142135623731
  0
LWPOLYLINE
  5
245
330
1F
100
AcDbEntity
  8
C-4
  6
Continuous
 62
     7
370
     9
100
AcDbPolyline
 90
        4
 70
     1
 43
1.0
 10
-1001.60597138866
 20
1169.891227103569
 42
0.4142135623731
 10
-1002.10597138866
 20
1170.391227103569
 42
0.4142135623731
 10
-1002.605971388659
 20
1169.891227103569
 42
0.4142135623731
 10
-1002.10597138866
 20
1169.391227103569
 42
0.4142135623731
  0
LWPOLYLINE
  5
246
330
1F
100
AcDbEntity
  8
C-4
  6
Continuous
 62
     7
370
     9
100
AcDbPolyline
 90
        4
 70
     1
 43
1.0
 10
-550.6059752033568
 20
1094.891227103569
 42
0.4142135623731
 10
-551.1059752033567
 20
1095.391227103569
 42
0.4142135623731
 10
-551.6059752033567
 20
1094.891227103569
 42
0.4142135623731
 10
-551.1059752033567
 20
1094.391227103569
 42
0.4142135623731
  0
LWPOLYLINE
  5
247
330
1F
100
AcDbEntity
  8
C-4
  6
Continuous
 62
     7
370
     9
100
AcDbPolyline
 90
        4
 70
     1
 43
1.0
 10
-575.6058836506224
 20
1094.891227103569
 42
0.4142135623731
 10
-576.1058836506224
 20
1095.391227103569
 42
0.4142135623731
 10
-576.6058836506224
 20
1094.891227103569
 42
0.4142135623731
 10
-576.1058836506224
 20
1094.391227103569
 42
0.4142135623731
  0
LWPOLYLINE
  5
248
330
1F
100
AcDbEntity
  8
C-4
  6
Continuous
 62
     7
370
     9
100
AcDbPolyline
 90
        4
 70
     1
 43
1.0
 10
-549.6056700275756
 20
1169.891227103569
 42
0.4142135623731
 10
-550.1056700275756
 20
1170.391227103569
 42
0.4142135623731
 10
-550.6056700275756
 20
1169.891227103569
 42
0.4142135623731
 10
-550.1056700275756
 20
1169.391227103569
 42
0.4142135623731
  0
LWPOLYLINE
  5
249
330
1F
100
AcDbEntity
  8
C-4
  6
Continuous
 62
     7
370
     9
100
AcDbPolyline
 90
        4
 70
     1
 43
1.0
 10
-550.6059752033568
 20
1169.891227103569
 42
0.4142135623731
 10
-551.1059752033567
 20
1170.391227103569
 42
0.4142135623731
 10
-551.6059752033567
 20
1169.891227103569
 42
0.4142135623731
 10
-551.1059752033567
 20
1169.391227103569
 42
0.4142135623731
  0
TEXT
  5
24A
330
1F
100
AcDbEntity
  8
C-5
  6
Continuous
 62
     2
370
     9
100
AcDbText
 10
-1043.60594277843
 20
390.0314626611249
 30
0.0
 40
30.48
  1
平面詳細図　Ｓ＝１：１０
 41
1.114583333333333
  7
ＭＳ ゴシック
100
AcDbText
  0
TEXT
  5
24B
330
1F
100
AcDbEntity
  8
C-4
  6
Continuous
 62
     2
370
     9
100
AcDbText
 10
-987.2364607380248
 20
1105.531227103569
 30
0.0
 40
30.48
  1
25
 41
1.0625
  7
ＭＳ ゴシック
100
AcDbText
  0
TEXT
  5
24C
330
1F
100
AcDbEntity
  8
C-4
  6
Continuous
 62
     2
370
     9
100
AcDbText
 10
-989.5998411701537
 20
1180.531227103569
 30
0.0
 40
30.48
  1
1
 41
0.9999999999999998
  7
ＭＳ ゴシック
100
AcDbText
  0
TEXT
  5
24D
330
1F
100
AcDbEntity
  8
C-4
  6
Continuous
 62
     2
370
     9
100
AcDbText
 10
-611.0795164631223
 20
1105.531227103569
 30
0.0
 40
30.48
  1
25
 41
1.0625
  7
ＭＳ ゴシック
100
AcDbText
  0
TEXT
  5
24E
330
1F
100
AcDbEntity
  8
C-4
  6
Continuous
 62
     2
370
     9
100
AcDbText
 10
-585.3647032307005
 20
1180.531227103569
 30
0.0
 40
30.48
  1
1
 41
0.9999999999999998
  7
ＭＳ ゴシック
100
AcDbText
  0
TEXT
  5
24F
330
1F
100
AcDbEntity
  8
C-4
  6
Continuous
 62
     2
370
     9
100
AcDbText
 10
-808.6055937336301
 20
1105.531227103569
 30
0.0
 40
30.48
  1
400
 41
1.083333333333333
  7
ＭＳ ゴシック
100
AcDbText
  0
TEXT
  5
250
330
1F
100
AcDbEntity
  8
C-4
  6
Continuous
 62
     2
370
     9
100
AcDbText
 10
-808.6055937336301
 20
1180.531227103569
 30
0.0
 40
30.48
  1
450
 41
1.083333333333333
  7
ＭＳ ゴシック
100
AcDbText
  0
LINE
  5
251
330
1F
100
AcDbEntity
  8
C-4
  6
Continuous
 62
     7
370
     9
100
AcDbLine
 10
-1007.10595612987
 20
1247.891227103569
 30
0.0
 11
-1007.10595612987
 21
1032.891349173881
 31
0.0
  0
LWPOLYLINE
  5
252
330
1F
100
AcDbEntity
  8
C-4
  6
Continuous
 62
     7
370
     9
100
AcDbPolyline
 90
        4
 70
     1
 43
1.0
 10
-1006.60595612987
 20
1244.891288138725
 42
0.4142135623731
 10
-1007.10595612987
 20
1245.391288138725
 42
0.4142135623731
 10
-1007.60595612987
 20
1244.891288138725
 42
0.4142135623731
 10
-1007.10595612987
 20
1244.391288138725
 42
0.4142135623731
  0
LWPOLYLINE
  5
253
330
1F
100
AcDbEntity
  8
C-4
  6
Continuous
 62
     7
370
     9
100
AcDbPolyline
 90
        4
 70
     1
 43
1.0
 10
-1006.60595612987
 20
1169.891227103569
 42
0.4142135623731
 10
-1007.10595612987
 20
1170.391227103569
 42
0.4142135623731
 10
-1007.60595612987
 20
1169.891227103569
 42
0.4142135623731
 10
-1007.10595612987
 20
1169.391227103569
 42
0.4142135623731
  0
LINE
  5
254
330
1F
100
AcDbEntity
  8
C-4
  6
Continuous
 62
     7
370
     9
100
AcDbLine
 10
-550.1056700275756
 20
1169.891227103569
 30
0.0
 11
-500.6303892658568
 21
1169.891227103569
 31
0.0
  0
LINE
  5
255
330
1F
100
AcDbEntity
  8
C-4
  6
Continuous
 62
     7
370
     9
100
AcDbLine
 10
-545.1056700275756
 20
1247.891227103569
 30
0.0
 11
-545.1056700275756
 21
1032.891349173881
 31
0.0
  0
LWPOLYLINE
  5
256
330
1F
100
AcDbEntity
  8
C-4
  6
Continuous
 62
     7
370
     9
100
AcDbPolyline
 90
        4
 70
     1
 43
1.0
 10
-544.6056700275756
 20
1244.891288138725
 42
0.4142135623731
 10
-545.1056700275756
 20
1245.391288138725
 42
0.4142135623731
 10
-545.6056700275756
 20
1244.891288138725
 42
0.4142135623731
 10
-545.1056700275756
 20
1244.391288138725
 42
0.4142135623731
  0
LWPOLYLINE
  5
257
330
1F
100
AcDbEntity
  8
C-4
  6
Continuous
 62
     7
370
     9
100
AcDbPolyline
 90
        4
 70
     1
 43
1.0
 10
-544.6056700275756
 20
1169.891227103569
 42
0.4142135623731
 10
-545.1056700275756
 20
1170.391227103569
 42
0.4142135623731
 10
-545.6056700275756
 20
1169.891227103569
 42
0.4142135623731
 10
-545.1056700275756
 20
1169.391227103569
 42
0.4142135623731
  0
LINE
  5
258
330
1F
100
AcDbEntity
  8
C-4
  6
Continuous
 62
     7
370
     9
100
AcDbLine
 10
-1050.717614226184
 20
1169.891227103569
 30
0.0
 11
-500.6303892658568
 21
1169.891227103569
 31
0.0
  0
LINE
  5
259
330
1F
100
AcDbEntity
  8
C-4
  6
Continuous
 62
     7
370
     9
100
AcDbLine
 10
-1007.10595612987
 20
1244.891288138725
 30
0.0
 11
-545.1056700275756
 21
1244.891288138725
 31
0.0
  0
LINE
  5
25A
330
1F
100
AcDbEntity
  8
C-1
  6
Continuous
 62
     2
370
     9
100
AcDbLine
 10
-1007.10595612987
 20
1000.891349173881
 30
0.0
 11
-545.1056700275756
 21
1000.891349173881
 31
0.0
  0
LINE
  5
25B
330
1F
100
AcDbEntity
  8
C-1
  6
Continuous
 62
     2
370
     9
100
AcDbLine
 10
-1007.10595612987
 20
538.8918069375532
 30
0.0
 11
-545.1056700275756
 21
538.8918069375532
 31
0.0
  0
LINE
  5
25C
330
1F
100
AcDbEntity
  8
C-1
  6
Continuous
 62
     2
370
     9
100
AcDbLine
 10
-1007.10595612987
 20
1000.891349173881
 30
0.0
 11
-1007.10595612987
 21
538.8918069375532
 31
0.0
  0
LINE
  5
25D
330
1F
100
AcDbEntity
  8
C-1
  6
Continuous
 62
     2
370
     9
100
AcDbLine
 10
-545.1056700275756
 20
538.8918069375532
 30
0.0
 11
-545.1056700275756
 21
1000.891349173881
 31
0.0
  0
TEXT
  5
25E
330
1F
100
AcDbEntity
  8
C-4
  6
Continuous
 62
     2
370
     9
100
AcDbText
 10
-1042.025373085047
 20
1180.531227103569
 30
0.0
 40
30.48
  1
5
 41
0.9999999999999998
  7
ＭＳ ゴシック
100
AcDbText
  0
TEXT
  5
25F
330
1F
100
AcDbEntity
  8
C-4
  6
Continuous
 62
     2
370
     9
100
AcDbText
 10
-532.7487773403665
 20
1180.531227103569
 30
0.0
 40
30.48
  1
5
 41
0.9999999999999998
  7
ＭＳ ゴシック
100
AcDbText
  0
TEXT
  5
260
330
1F
100
AcDbEntity
  8
C-4
  6
Continuous
 62
     2
370
     9
100
AcDbText
 10
-808.6055937336301
 20
1254.176617174491
 30
0.0
 40
30.48
  1
462
 41
1.083333333333333
  7
ＭＳ ゴシック
100
AcDbText
  0
LINE
  5
261
330
1F
100
AcDbEntity
  8
C-4
  6
Continuous
 62
     7
370
     9
100
AcDbLine
 10
-1187.230141033494
 20
543.8917916787642
 30
0.0
 11
-1187.230141033494
 21
544.8921426309125
 31
0.0
  0
LINE
  5
262
330
1F
100
AcDbEntity
  8
C-4
  6
Continuous
 62
     7
370
     9
100
AcDbLine
 10
-1112.230141033494
 20
969.8918794168012
 30
0.0
 11
-1112.230141033494
 21
994.8917878640668
 31
0.0
  0
LINE
  5
263
330
1F
100
AcDbEntity
  8
C-4
  6
Continuous
 62
     7
370
     9
100
AcDbLine
 10
-1187.230141033494
 20
994.8917878640668
 30
0.0
 11
-1187.230141033494
 21
995.8920930398481
 31
0.0
  0
LINE
  5
264
330
1F
100
AcDbEntity
  8
C-4
  6
Continuous
 62
     7
370
     9
100
AcDbLine
 10
-1187.230141033494
 20
544.8921426309125
 30
0.0
 11
-1187.230141033494
 21
994.8917878640668
 31
0.0
  0
LINE
  5
265
330
1F
100
AcDbEntity
  8
C-4
  6
Continuous
 62
     7
370
     9
100
AcDbLine
 10
-1112.230141033494
 20
569.8920091165082
 30
0.0
 11
-1112.230141033494
 21
969.8918794168012
 31
0.0
  0
LINE
  5
266
330
1F
100
AcDbEntity
  8
C-4
  6
Continuous
 62
     7
370
     9
100
AcDbLine
 10
-1112.230141033494
 20
544.8921426309125
 30
0.0
 11
-1112.230141033494
 21
994.8917878640668
 31
0.0
  0
LINE
  5
267
330
1F
100
AcDbEntity
  8
C-4
  6
Continuous
 62
     7
370
     9
100
AcDbLine
 10
-1190.23020206865
 20
544.8921426309125
 30
0.0
 11
-1050.230263103806
 21
544.8921426309125
 31
0.0
  0
LINE
  5
268
330
1F
100
AcDbEntity
  8
C-4
  6
Continuous
 62
     7
370
     9
100
AcDbLine
 10
-1190.23020206865
 20
543.8917916787641
 30
0.0
 11
-1050.230263103806
 21
543.8917916787641
 31
0.0
  0
LINE
  5
269
330
1F
100
AcDbEntity
  8
C-4
  6
Continuous
 62
     7
370
     9
100
AcDbLine
 10
-1115.230079998338
 20
569.8920091165082
 30
0.0
 11
-1050.230263103806
 21
569.8920091165082
 31
0.0
  0
LINE
  5
26A
330
1F
100
AcDbEntity
  8
C-4
  6
Continuous
 62
     7
370
     9
100
AcDbLine
 10
-1190.23020206865
 20
995.8920930398481
 30
0.0
 11
-1050.230263103806
 21
995.8920930398481
 31
0.0
  0
LINE
  5
26B
330
1F
100
AcDbEntity
  8
C-4
  6
Continuous
 62
     7
370
     9
100
AcDbLine
 10
-1190.23020206865
 20
994.8917878640668
 30
0.0
 11
-1050.230263103806
 21
994.8917878640668
 31
0.0
  0
LINE
  5
26C
330
1F
100
AcDbEntity
  8
C-4
  6
Continuous
 62
     7
370
     9
100
AcDbLine
 10
-1115.230079998338
 20
969.8918794168012
 30
0.0
 11
-1050.230263103806
 21
969.8918794168012
 31
0.0
  0
LWPOLYLINE
  5
26D
330
1F
100
AcDbEntity
  8
C-4
  6
Continuous
 62
     7
370
     9
100
AcDbPolyline
 90
        4
 70
     1
 43
1.0
 10
-1111.730141033494
 20
569.8920091165082
 42
0.4142135623731
 10
-1112.230141033494
 20
570.3920091165082
 42
0.4142135623731
 10
-1112.730141033494
 20
569.8920091165082
 42
0.4142135623731
 10
-1112.230141033494
 20
569.3920091165082
 42
0.4142135623731
  0
LWPOLYLINE
  5
26E
330
1F
100
AcDbEntity
  8
C-4
  6
Continuous
 62
     7
370
     9
100
AcDbPolyline
 90
        4
 70
     1
 43
1.0
 10
-1111.730141033494
 20
544.8921426309125
 42
0.4142135623731
 10
-1112.230141033494
 20
545.3921426309125
 42
0.4142135623731
 10
-1112.730141033494
 20
544.8921426309125
 42
0.4142135623731
 10
-1112.230141033494
 20
544.3921426309125
 42
0.4142135623731
  0
LWPOLYLINE
  5
26F
330
1F
100
AcDbEntity
  8
C-4
  6
Continuous
 62
     7
370
     9
100
AcDbPolyline
 90
        4
 70
     1
 43
1.0
 10
-1186.730141033494
 20
544.8921426309125
 42
0.4142135623731
 10
-1187.230141033494
 20
545.3921426309125
 42
0.4142135623731
 10
-1187.730141033494
 20
544.8921426309125
 42
0.4142135623731
 10
-1187.230141033494
 20
544.3921426309125
 42
0.4142135623731
  0
LWPOLYLINE
  5
270
330
1F
100
AcDbEntity
  8
C-4
  6
Continuous
 62
     7
370
     9
100
AcDbPolyline
 90
        4
 70
     1
 43
1.0
 10
-1186.730141033494
 20
543.8917916787641
 42
0.4142135623731
 10
-1187.230141033494
 20
544.3917916787641
 42
0.4142135623731
 10
-1187.730141033494
 20
543.8917916787641
 42
0.4142135623731
 10
-1187.230141033494
 20
543.3917916787641
 42
0.4142135623731
  0
LWPOLYLINE
  5
271
330
1F
100
AcDbEntity
  8
C-4
  6
Continuous
 62
     7
370
     9
100
AcDbPolyline
 90
        4
 70
     1
 43
1.0
 10
-1111.730141033494
 20
994.8917878640668
 42
0.4142135623731
 10
-1112.230141033494
 20
995.3917878640668
 42
0.4142135623731
 10
-1112.730141033494
 20
994.8917878640668
 42
0.4142135623731
 10
-1112.230141033494
 20
994.3917878640668
 42
0.4142135623731
  0
LWPOLYLINE
  5
272
330
1F
100
AcDbEntity
  8
C-4
  6
Continuous
 62
     7
370
     9
100
AcDbPolyline
 90
        4
 70
     1
 43
1.0
 10
-1111.730141033494
 20
969.8918794168012
 42
0.4142135623731
 10
-1112.230141033494
 20
970.3918794168011
 42
0.4142135623731
 10
-1112.730141033494
 20
969.8918794168012
 42
0.4142135623731
 10
-1112.230141033494
 20
969.3918794168012
 42
0.4142135623731
  0
LWPOLYLINE
  5
273
330
1F
100
AcDbEntity
  8
C-4
  6
Continuous
 62
     7
370
     9
100
AcDbPolyline
 90
        4
 70
     1
 43
1.0
 10
-1186.730141033494
 20
995.8920930398481
 42
0.4142135623731
 10
-1187.230141033494
 20
996.392093039848
 42
0.4142135623731
 10
-1187.730141033494
 20
995.8920930398481
 42
0.4142135623731
 10
-1187.230141033494
 20
995.3920930398481
 42
0.4142135623731
  0
LWPOLYLINE
  5
274
330
1F
100
AcDbEntity
  8
C-4
  6
Continuous
 62
     7
370
     9
100
AcDbPolyline
 90
        4
 70
     1
 43
1.0
 10
-1186.730141033494
 20
994.8917878640668
 42
0.4142135623731
 10
-1187.230141033494
 20
995.3917878640668
 42
0.4142135623731
 10
-1187.730141033494
 20
994.8917878640668
 42
0.4142135623731
 10
-1187.230141033494
 20
994.3917878640668
 42
0.4142135623731
  0
TEXT
  5
275
330
1F
100
AcDbEntity
  8
C-4
  6
Continuous
 62
     2
370
     9
100
AcDbText
 10
-1122.870141033494
 20
558.7613023293989
 30
0.0
 40
30.48
  1
25
 50
90.0
 41
1.0625
  7
ＭＳ ゴシック
100
AcDbText
  0
TEXT
  5
276
330
1F
100
AcDbEntity
  8
C-4
  6
Continuous
 62
     2
370
     9
100
AcDbText
 10
-1197.870141033494
 20
556.3979218972701
 30
0.0
 40
30.48
  1
1
 50
90.0
 41
0.9999999999999998
  7
ＭＳ ゴシック
100
AcDbText
  0
TEXT
  5
277
330
1F
100
AcDbEntity
  8
C-4
  6
Continuous
 62
     2
370
     9
100
AcDbText
 10
-1122.870141033494
 20
934.9182466043012
 30
0.0
 40
30.48
  1
25
 50
90.0
 41
1.0625
  7
ＭＳ ゴシック
100
AcDbText
  0
TEXT
  5
278
330
1F
100
AcDbEntity
  8
C-4
  6
Continuous
 62
     2
370
     9
100
AcDbText
 10
-1197.870141033494
 20
960.6330598367231
 30
0.0
 40
30.48
  1
1
 50
90.0
 41
0.9999999999999998
  7
ＭＳ ゴシック
100
AcDbText
  0
TEXT
  5
279
330
1F
100
AcDbEntity
  8
C-4
  6
Continuous
 62
     2
370
     9
100
AcDbText
 10
-1122.870141033494
 20
737.3921693337934
 30
0.0
 40
30.48
  1
400
 50
90.0
 41
1.083333333333333
  7
ＭＳ ゴシック
100
AcDbText
  0
TEXT
  5
27A
330
1F
100
AcDbEntity
  8
C-4
  6
Continuous
 62
     2
370
     9
100
AcDbText
 10
-1197.870141033494
 20
737.3921693337934
 30
0.0
 40
30.48
  1
450
 50
90.0
 41
1.083333333333333
  7
ＭＳ ゴシック
100
AcDbText
  0
LINE
  5
27B
330
1F
100
AcDbEntity
  8
C-4
  6
Continuous
 62
     7
370
     9
100
AcDbLine
 10
-1265.230141033494
 20
538.8918069375532
 30
0.0
 11
-1050.230263103806
 21
538.8918069375532
 31
0.0
  0
LWPOLYLINE
  5
27C
330
1F
100
AcDbEntity
  8
C-4
  6
Continuous
 62
     7
370
     9
100
AcDbPolyline
 90
        4
 70
     1
 43
1.0
 10
-1261.73020206865
 20
538.8918069375532
 42
0.4142135623731
 10
-1262.23020206865
 20
539.3918069375532
 42
0.4142135623731
 10
-1262.73020206865
 20
538.8918069375532
 42
0.4142135623731
 10
-1262.23020206865
 20
538.3918069375533
 42
0.4142135623731
  0
LWPOLYLINE
  5
27D
330
1F
100
AcDbEntity
  8
C-4
  6
Continuous
 62
     7
370
     9
100
AcDbPolyline
 90
        4
 70
     1
 43
1.0
 10
-1186.730141033494
 20
538.8918069375532
 42
0.4142135623731
 10
-1187.230141033494
 20
539.3918069375532
 42
0.4142135623731
 10
-1187.730141033494
 20
538.8918069375532
 42
0.4142135623731
 10
-1187.230141033494
 20
538.3918069375533
 42
0.4142135623731
  0
LINE
  5
27E
330
1F
100
AcDbEntity
  8
C-4
  6
Continuous
 62
     7
370
     9
100
AcDbLine
 10
-1187.230141033494
 20
995.8920930398481
 30
0.0
 11
-1187.230141033494
 21
1045.367373801567
 31
0.0
  0
LINE
  5
27F
330
1F
100
AcDbEntity
  8
C-4
  6
Continuous
 62
     7
370
     9
100
AcDbLine
 10
-1265.230141033494
 20
1000.892093039848
 30
0.0
 11
-1050.230263103806
 21
1000.892093039848
 31
0.0
  0
LWPOLYLINE
  5
280
330
1F
100
AcDbEntity
  8
C-4
  6
Continuous
 62
     7
370
     9
100
AcDbPolyline
 90
        4
 70
     1
 43
1.0
 10
-1261.73020206865
 20
1000.892093039848
 42
0.4142135623731
 10
-1262.23020206865
 20
1001.392093039848
 42
0.4142135623731
 10
-1262.73020206865
 20
1000.892093039848
 42
0.4142135623731
 10
-1262.23020206865
 20
1000.392093039848
 42
0.4142135623731
  0
LWPOLYLINE
  5
281
330
1F
100
AcDbEntity
  8
C-4
  6
Continuous
 62
     7
370
     9
100
AcDbPolyline
 90
        4
 70
     1
 43
1.0
 10
-1186.730141033494
 20
1000.892093039848
 42
0.4142135623731
 10
-1187.230141033494
 20
1001.392093039848
 42
0.4142135623731
 10
-1187.730141033494
 20
1000.892093039848
 42
0.4142135623731
 10
-1187.230141033494
 20
1000.392093039848
 42
0.4142135623731
  0
LINE
  5
282
330
1F
100
AcDbEntity
  8
C-4
  6
Continuous
 62
     7
370
     9
100
AcDbLine
 10
-1187.230141033494
 20
495.2801488412398
 30
0.0
 11
-1187.230141033494
 21
1045.367373801567
 31
0.0
  0
LINE
  5
283
330
1F
100
AcDbEntity
  8
C-4
  6
Continuous
 62
     7
370
     9
100
AcDbLine
 10
-1262.23020206865
 20
538.8918069375532
 30
0.0
 11
-1262.23020206865
 21
1000.892093039848
 31
0.0
  0
TEXT
  5
284
330
1F
100
AcDbEntity
  8
C-4
  6
Continuous
 62
     2
370
     9
100
AcDbText
 10
-1197.870141033494
 20
503.9723899823765
 30
0.0
 40
30.48
  1
5
 50
90.0
 41
0.9999999999999998
  7
ＭＳ ゴシック
100
AcDbText
  0
TEXT
  5
285
330
1F
100
AcDbEntity
  8
C-4
  6
Continuous
 62
     2
370
     9
100
AcDbText
 10
-1197.870141033494
 20
1013.248985727057
 30
0.0
 40
30.48
  1
5
 50
90.0
 41
0.9999999999999998
  7
ＭＳ ゴシック
100
AcDbText
  0
TEXT
  5
286
330
1F
100
AcDbEntity
  8
C-4
  6
Continuous
 62
     2
370
     9
100
AcDbText
 10
-1271.515531104416
 20
737.3921693337934
 30
0.0
 40
30.48
  1
462
 50
90.0
 41
1.083333333333333
  7
ＭＳ ゴシック
100
AcDbText
  0
LINE
  5
287
330
1F
100
AcDbEntity
  8
C-A
  6
Continuous
 62
     3
370
     9
100
AcDbLine
 10
-554.1060667560912
 20
544.8916390908735
 30
0.0
 11
-554.1060667560912
 21
994.8916543496625
 31
0.0
  0
LINE
  5
288
330
1F
100
AcDbEntity
  8
C-A
  6
Continuous
 62
     3
370
     9
100
AcDbLine
 10
-554.1060667560912
 20
807.3229592813033
 30
0.0
 11
-998.1055555866576
 21
807.3229592813033
 31
0.0
  0
LINE
  5
289
330
1F
100
AcDbEntity
  8
C-A
  6
Continuous
 62
     3
370
     9
100
AcDbLine
 10
-554.1060667560912
 20
801.5095742715375
 30
0.0
 11
-998.1055555866576
 21
801.5095742715375
 31
0.0
  0
LINE
  5
28A
330
1F
100
AcDbEntity
  8
C-A
  6
Continuous
 62
     3
370
     9
100
AcDbLine
 10
-554.1060667560912
 20
793.5097268594282
 30
0.0
 11
-998.1055555866576
 21
793.5097268594282
 31
0.0
  0
LINE
  5
28B
330
1F
100
AcDbEntity
  8
C-A
  6
Continuous
 62
     3
370
     9
100
AcDbLine
 10
-554.1060667560912
 20
787.6967080606
 30
0.0
 11
-998.1055555866576
 21
787.6967080606
 31
0.0
  0
LINE
  5
28C
330
1F
100
AcDbEntity
  8
C-A
  6
Continuous
 62
     3
370
     9
100
AcDbLine
 10
-554.1060667560912
 20
779.6967996133344
 30
0.0
 11
-998.1055555866576
 21
779.6967996133344
 31
0.0
  0
LINE
  5
28D
330
1F
100
AcDbEntity
  8
C-A
  6
Continuous
 62
     3
370
     9
100
AcDbLine
 10
-554.1060667560912
 20
773.8834146035688
 30
0.0
 11
-998.1055555866576
 21
773.8834146035688
 31
0.0
  0
LINE
  5
28E
330
1F
100
AcDbEntity
  8
C-A
  6
Continuous
 62
     3
370
     9
100
AcDbLine
 10
-554.1060667560912
 20
765.8838723672407
 30
0.0
 11
-998.1055555866576
 21
765.8838723672407
 31
0.0
  0
LINE
  5
28F
330
1F
100
AcDbEntity
  8
C-A
  6
Continuous
 62
     3
370
     9
100
AcDbLine
 10
-554.1060667560912
 20
760.0705483926313
 30
0.0
 11
-998.1055555866576
 21
760.0705483926313
 31
0.0
  0
LINE
  5
290
330
1F
100
AcDbEntity
  8
C-A
  6
Continuous
 62
     3
370
     9
100
AcDbLine
 10
-554.1060667560912
 20
752.0706399453657
 30
0.0
 11
-998.1055555866576
 21
752.0706399453657
 31
0.0
  0
LINE
  5
291
330
1F
100
AcDbEntity
  8
C-A
  6
Continuous
 62
     3
370
     9
100
AcDbLine
 10
-554.1060667560912
 20
746.2576211465375
 30
0.0
 11
-998.1055555866576
 21
746.2576211465375
 31
0.0
  0
LINE
  5
292
330
1F
100
AcDbEntity
  8
C-A
  6
Continuous
 62
     3
370
     9
100
AcDbLine
 10
-554.1060667560912
 20
738.2577737344282
 30
0.0
 11
-998.1055555866576
 21
738.2577737344282
 31
0.0
  0
LINE
  5
293
330
1F
100
AcDbEntity
  8
C-A
  6
Continuous
 62
     3
370
     9
100
AcDbLine
 10
-554.1060667560912
 20
732.4447549356
 30
0.0
 11
-998.1055555866576
 21
732.4447549356
 31
0.0
  0
LINE
  5
294
330
1F
100
AcDbEntity
  8
C-A
  6
Continuous
 62
     3
370
     9
100
AcDbLine
 10
-554.1060667560912
 20
724.4448464883345
 30
0.0
 11
-998.1055555866576
 21
724.4448464883345
 31
0.0
  0
LINE
  5
295
330
1F
100
AcDbEntity
  8
C-A
  6
Continuous
 62
     3
370
     9
100
AcDbLine
 10
-554.1060667560912
 20
718.6314614785688
 30
0.0
 11
-998.1055555866576
 21
718.6314614785688
 31
0.0
  0
LINE
  5
296
330
1F
100
AcDbEntity
  8
C-A
  6
Continuous
 62
     3
370
     9
100
AcDbLine
 10
-554.1060667560912
 20
710.6316140664594
 30
0.0
 11
-998.1055555866576
 21
710.6316140664594
 31
0.0
  0
LINE
  5
297
330
1F
100
AcDbEntity
  8
C-A
  6
Continuous
 62
     3
370
     9
100
AcDbLine
 10
-554.1060667560912
 20
704.8185952676313
 30
0.0
 11
-998.1055555866576
 21
704.8185952676313
 31
0.0
  0
LINE
  5
298
330
1F
100
AcDbEntity
  8
C-A
  6
Continuous
 62
     3
370
     9
100
AcDbLine
 10
-554.1060667560912
 20
696.8187173379438
 30
0.0
 11
-998.1055555866576
 21
696.8187173379438
 31
0.0
  0
LINE
  5
299
330
1F
100
AcDbEntity
  8
C-A
  6
Continuous
 62
     3
370
     9
100
AcDbLine
 10
-554.1060667560912
 20
691.0056680215375
 30
0.0
 11
-998.1055555866576
 21
691.0056680215375
 31
0.0
  0
LINE
  5
29A
330
1F
100
AcDbEntity
  8
C-A
  6
Continuous
 62
     3
370
     9
100
AcDbLine
 10
-554.1060667560912
 20
683.00579009185
 30
0.0
 11
-998.1055555866576
 21
683.00579009185
 31
0.0
  0
LINE
  5
29B
330
1F
100
AcDbEntity
  8
C-A
  6
Continuous
 62
     3
370
     9
100
AcDbLine
 10
-554.1060667560912
 20
677.1924355996625
 30
0.0
 11
-998.1055555866576
 21
677.1924355996625
 31
0.0
  0
LINE
  5
29C
330
1F
100
AcDbEntity
  8
C-A
  6
Continuous
 62
     3
370
     9
100
AcDbLine
 10
-554.1060667560912
 20
669.192557669975
 30
0.0
 11
-998.1055555866576
 21
669.192557669975
 31
0.0
  0
LINE
  5
29D
330
1F
100
AcDbEntity
  8
C-A
  6
Continuous
 62
     3
370
     9
100
AcDbLine
 10
-554.1060667560912
 20
663.3795388711469
 30
0.0
 11
-998.1055555866576
 21
663.3795388711469
 31
0.0
  0
LINE
  5
29E
330
1F
100
AcDbEntity
  8
C-A
  6
Continuous
 62
     3
370
     9
100
AcDbLine
 10
-554.1060667560912
 20
655.3799966348188
 30
0.0
 11
-998.1055555866576
 21
655.3799966348188
 31
0.0
  0
LINE
  5
29F
330
1F
100
AcDbEntity
  8
C-A
  6
Continuous
 62
     3
370
     9
100
AcDbLine
 10
-554.1060667560912
 20
649.5666421426313
 30
0.0
 11
-998.1055555866576
 21
649.5666421426313
 31
0.0
  0
LINE
  5
2A0
330
1F
100
AcDbEntity
  8
C-A
  6
Continuous
 62
     3
370
     9
100
AcDbLine
 10
-554.1060667560912
 20
641.5667642129438
 30
0.0
 11
-998.1055555866576
 21
641.5667642129438
 31
0.0
  0
LINE
  5
2A1
330
1F
100
AcDbEntity
  8
C-A
  6
Continuous
 62
     3
370
     9
100
AcDbLine
 10
-554.1060667560912
 20
635.7537454141157
 30
0.0
 11
-998.1055555866576
 21
635.7537454141157
 31
0.0
  0
LINE
  5
2A2
330
1F
100
AcDbEntity
  8
C-A
  6
Continuous
 62
     3
370
     9
100
AcDbLine
 10
-554.1060667560912
 20
627.7538674844282
 30
0.0
 11
-998.1055555866576
 21
627.7538674844282
 31
0.0
  0
LINE
  5
2A3
330
1F
100
AcDbEntity
  8
C-A
  6
Continuous
 62
     3
370
     9
100
AcDbLine
 10
-554.1060667560912
 20
621.9408181680219
 30
0.0
 11
-998.1055555866576
 21
621.9408181680219
 31
0.0
  0
LINE
  5
2A4
330
1F
100
AcDbEntity
  8
C-A
  6
Continuous
 62
     3
370
     9
100
AcDbLine
 10
-554.1060667560912
 20
613.9409402383344
 30
0.0
 11
-998.1055555866576
 21
613.9409402383344
 31
0.0
  0
LINE
  5
2A5
330
1F
100
AcDbEntity
  8
C-A
  6
Continuous
 62
     3
370
     9
100
AcDbLine
 10
-554.1060667560912
 20
608.1275857461469
 30
0.0
 11
-998.1055555866576
 21
608.1275857461469
 31
0.0
  0
LINE
  5
2A6
330
1F
100
AcDbEntity
  8
C-A
  6
Continuous
 62
     3
370
     9
100
AcDbLine
 10
-554.1060667560912
 20
600.1277078164594
 30
0.0
 11
-998.1055555866576
 21
600.1277078164594
 31
0.0
  0
LINE
  5
2A7
330
1F
100
AcDbEntity
  8
C-A
  6
Continuous
 62
     3
370
     9
100
AcDbLine
 10
-554.1060667560912
 20
594.3146890176313
 30
0.0
 11
-998.1055555866576
 21
594.3146890176313
 31
0.0
  0
LINE
  5
2A8
330
1F
100
AcDbEntity
  8
C-A
  6
Continuous
 62
     3
370
     9
100
AcDbLine
 10
-554.1060667560912
 20
586.3148110879438
 30
0.0
 11
-998.1055555866576
 21
586.3148110879438
 31
0.0
  0
LINE
  5
2A9
330
1F
100
AcDbEntity
  8
C-A
  6
Continuous
 62
     3
370
     9
100
AcDbLine
 10
-554.1060667560912
 20
580.5017922891157
 30
0.0
 11
-998.1055555866576
 21
580.5017922891157
 31
0.0
  0
LINE
  5
2AA
330
1F
100
AcDbEntity
  8
C-A
  6
Continuous
 62
     3
370
     9
100
AcDbLine
 10
-554.1060667560912
 20
572.5019143594282
 30
0.0
 11
-998.1055555866576
 21
572.5019143594282
 31
0.0
  0
LINE
  5
2AB
330
1F
100
AcDbEntity
  8
C-A
  6
Continuous
 62
     3
370
     9
100
AcDbLine
 10
-554.1060667560912
 20
566.6885140908735
 30
0.0
 11
-998.1055555866576
 21
566.6885140908735
 31
0.0
  0
LINE
  5
2AC
330
1F
100
AcDbEntity
  8
C-A
  6
Continuous
 62
     3
370
     9
100
AcDbLine
 10
-554.1060667560912
 20
558.688651419975
 30
0.0
 11
-998.1055555866576
 21
558.688651419975
 31
0.0
  0
LINE
  5
2AD
330
1F
100
AcDbEntity
  8
C-A
  6
Continuous
 62
     3
370
     9
100
AcDbLine
 10
-696.1059446857786
 20
558.6907571328657
 30
0.0
 11
-696.1059446857786
 21
552.8756326211469
 31
0.0
  0
LINE
  5
2AE
330
1F
100
AcDbEntity
  8
C-A
  6
Continuous
 62
     3
370
     9
100
AcDbLine
 10
-554.1060667560912
 20
552.8756326211469
 30
0.0
 11
-998.1055555866576
 21
552.8756326211469
 31
0.0
  0
LINE
  5
2AF
330
1F
100
AcDbEntity
  8
C-A
  6
Continuous
 62
     3
370
     9
100
AcDbLine
 10
-691.1562071369506
 20
558.6907266152875
 30
0.0
 11
-691.1562071369506
 21
552.877356864311
 31
0.0
  0
LINE
  5
2B0
330
1F
100
AcDbEntity
  8
C-A
  6
Continuous
 62
     3
370
     9
100
AcDbLine
 10
-621.0558043049193
 20
696.8204568398969
 30
0.0
 11
-621.0558043049193
 21
691.0071023477094
 31
0.0
  0
LINE
  5
2B1
330
1F
100
AcDbEntity
  8
C-A
  6
Continuous
 62
     3
370
     9
100
AcDbLine
 10
-616.1060667560911
 20
696.8204568398969
 30
0.0
 11
-616.1060667560911
 21
691.0071023477094
 31
0.0
  0
LINE
  5
2B2
330
1F
100
AcDbEntity
  8
C-A
  6
Continuous
 62
     3
370
     9
100
AcDbLine
 10
-611.156329207263
 20
696.8204568398969
 30
0.0
 11
-611.156329207263
 21
691.0071023477094
 31
0.0
  0
LINE
  5
2B3
330
1F
100
AcDbEntity
  8
C-A
  6
Continuous
 62
     3
370
     9
100
AcDbLine
 10
-621.0558043049193
 20
683.0072244180219
 30
0.0
 11
-621.0558043049193
 21
677.1945413125532
 31
0.0
  0
LINE
  5
2B4
330
1F
100
AcDbEntity
  8
C-A
  6
Continuous
 62
     3
370
     9
100
AcDbLine
 10
-616.1060667560911
 20
683.0072244180219
 30
0.0
 11
-616.1060667560911
 21
677.1945413125532
 31
0.0
  0
LINE
  5
2B5
330
1F
100
AcDbEntity
  8
C-A
  6
Continuous
 62
     3
370
     9
100
AcDbLine
 10
-611.156329207263
 20
683.0072244180219
 30
0.0
 11
-611.156329207263
 21
677.1945413125532
 31
0.0
  0
LINE
  5
2B6
330
1F
100
AcDbEntity
  8
C-A
  6
Continuous
 62
     3
370
     9
100
AcDbLine
 10
-621.0558043049193
 20
669.1946633828657
 30
0.0
 11
-621.0558043049193
 21
663.3812783731
 31
0.0
  0
LINE
  5
2B7
330
1F
100
AcDbEntity
  8
C-A
  6
Continuous
 62
     3
370
     9
100
AcDbLine
 10
-616.1060667560911
 20
669.1946633828657
 30
0.0
 11
-616.1060667560911
 21
663.3812783731
 31
0.0
  0
LINE
  5
2B8
330
1F
100
AcDbEntity
  8
C-A
  6
Continuous
 62
     3
370
     9
100
AcDbLine
 10
-611.156329207263
 20
669.1946633828657
 30
0.0
 11
-611.156329207263
 21
663.3812783731
 31
0.0
  0
LINE
  5
2B9
330
1F
100
AcDbEntity
  8
C-A
  6
Continuous
 62
     3
370
     9
100
AcDbLine
 10
-621.0558043049193
 20
655.3814004434125
 30
0.0
 11
-621.0558043049193
 21
649.5683816445844
 31
0.0
  0
LINE
  5
2BA
330
1F
100
AcDbEntity
  8
C-A
  6
Continuous
 62
     3
370
     9
100
AcDbLine
 10
-616.1060667560911
 20
655.3814004434125
 30
0.0
 11
-616.1060667560911
 21
649.5683816445844
 31
0.0
  0
LINE
  5
2BB
330
1F
100
AcDbEntity
  8
C-A
  6
Continuous
 62
     3
370
     9
100
AcDbLine
 10
-611.156329207263
 20
655.3814004434125
 30
0.0
 11
-611.156329207263
 21
649.5683816445844
 31
0.0
  0
LINE
  5
2BC
330
1F
100
AcDbEntity
  8
C-A
  6
Continuous
 62
     3
370
     9
100
AcDbLine
 10
-621.0558043049193
 20
641.5685037148969
 30
0.0
 11
-621.0558043049193
 21
635.7554849160688
 31
0.0
  0
LINE
  5
2BD
330
1F
100
AcDbEntity
  8
C-A
  6
Continuous
 62
     3
370
     9
100
AcDbLine
 10
-616.1060667560911
 20
641.5685037148969
 30
0.0
 11
-616.1060667560911
 21
635.7554849160688
 31
0.0
  0
LINE
  5
2BE
330
1F
100
AcDbEntity
  8
C-A
  6
Continuous
 62
     3
370
     9
100
AcDbLine
 10
-611.156329207263
 20
641.5685037148969
 30
0.0
 11
-611.156329207263
 21
635.7554849160688
 31
0.0
  0
LINE
  5
2BF
330
1F
100
AcDbEntity
  8
C-A
  6
Continuous
 62
     3
370
     9
100
AcDbLine
 10
-621.0558043049193
 20
627.7556069863813
 30
0.0
 11
-621.0558043049193
 21
621.9425881875532
 31
0.0
  0
LINE
  5
2C0
330
1F
100
AcDbEntity
  8
C-A
  6
Continuous
 62
     3
370
     9
100
AcDbLine
 10
-616.1060667560911
 20
627.7556069863813
 30
0.0
 11
-616.1060667560911
 21
621.9425881875532
 31
0.0
  0
LINE
  5
2C1
330
1F
100
AcDbEntity
  8
C-A
  6
Continuous
 62
     3
370
     9
100
AcDbLine
 10
-611.156329207263
 20
627.7556069863813
 30
0.0
 11
-611.156329207263
 21
621.9425881875532
 31
0.0
  0
LINE
  5
2C2
330
1F
100
AcDbEntity
  8
C-A
  6
Continuous
 62
     3
370
     9
100
AcDbLine
 10
-621.0558043049193
 20
613.9427102578657
 30
0.0
 11
-621.0558043049193
 21
608.1296914590375
 31
0.0
  0
LINE
  5
2C3
330
1F
100
AcDbEntity
  8
C-A
  6
Continuous
 62
     3
370
     9
100
AcDbLine
 10
-616.1060667560911
 20
613.9427102578657
 30
0.0
 11
-616.1060667560911
 21
608.1296914590375
 31
0.0
  0
LINE
  5
2C4
330
1F
100
AcDbEntity
  8
C-A
  6
Continuous
 62
     3
370
     9
100
AcDbLine
 10
-611.156329207263
 20
613.9427102578657
 30
0.0
 11
-611.156329207263
 21
608.1296914590375
 31
0.0
  0
LINE
  5
2C5
330
1F
100
AcDbEntity
  8
C-A
  6
Continuous
 62
     3
370
     9
100
AcDbLine
 10
-621.0558043049193
 20
600.12981352935
 30
0.0
 11
-621.0558043049193
 21
594.3167947305219
 31
0.0
  0
LINE
  5
2C6
330
1F
100
AcDbEntity
  8
C-A
  6
Continuous
 62
     3
370
     9
100
AcDbLine
 10
-616.1060667560911
 20
600.12981352935
 30
0.0
 11
-616.1060667560911
 21
594.3167947305219
 31
0.0
  0
LINE
  5
2C7
330
1F
100
AcDbEntity
  8
C-A
  6
Continuous
 62
     3
370
     9
100
AcDbLine
 10
-611.156329207263
 20
600.12981352935
 30
0.0
 11
-611.156329207263
 21
594.3167947305219
 31
0.0
  0
LINE
  5
2C8
330
1F
100
AcDbEntity
  8
C-A
  6
Continuous
 62
     3
370
     9
100
AcDbLine
 10
-621.0558043049193
 20
586.3169168008344
 30
0.0
 11
-621.0558043049193
 21
580.5038674844282
 31
0.0
  0
LINE
  5
2C9
330
1F
100
AcDbEntity
  8
C-A
  6
Continuous
 62
     3
370
     9
100
AcDbLine
 10
-616.1060667560911
 20
586.3169168008344
 30
0.0
 11
-616.1060667560911
 21
580.5038674844282
 31
0.0
  0
LINE
  5
2CA
330
1F
100
AcDbEntity
  8
C-A
  6
Continuous
 62
     3
370
     9
100
AcDbLine
 10
-611.156329207263
 20
586.3169168008344
 30
0.0
 11
-611.156329207263
 21
580.5038674844282
 31
0.0
  0
LINE
  5
2CB
330
1F
100
AcDbEntity
  8
C-A
  6
Continuous
 62
     3
370
     9
100
AcDbLine
 10
-621.0558043049193
 20
572.5039895547407
 30
0.0
 11
-621.0558043049193
 21
566.6906198037641
 31
0.0
  0
LINE
  5
2CC
330
1F
100
AcDbEntity
  8
C-A
  6
Continuous
 62
     3
370
     9
100
AcDbLine
 10
-616.1060667560911
 20
572.5039895547407
 30
0.0
 11
-616.1060667560911
 21
566.6906198037641
 31
0.0
  0
LINE
  5
2CD
330
1F
100
AcDbEntity
  8
C-A
  6
Continuous
 62
     3
370
     9
100
AcDbLine
 10
-611.156329207263
 20
572.5039895547407
 30
0.0
 11
-611.156329207263
 21
566.6906198037641
 31
0.0
  0
LINE
  5
2CE
330
1F
100
AcDbEntity
  8
C-A
  6
Continuous
 62
     3
370
     9
100
AcDbLine
 10
-621.0558043049193
 20
558.6907571328657
 30
0.0
 11
-621.0558043049193
 21
552.8780740273969
 31
0.0
  0
LINE
  5
2CF
330
1F
100
AcDbEntity
  8
C-A
  6
Continuous
 62
     3
370
     9
100
AcDbLine
 10
-616.1060667560911
 20
558.6907571328657
 30
0.0
 11
-616.1060667560911
 21
552.8756326211469
 31
0.0
  0
LINE
  5
2D0
330
1F
100
AcDbEntity
  8
C-A
  6
Continuous
 62
     3
370
     9
100
AcDbLine
 10
-611.156329207263
 20
558.6907266152875
 30
0.0
 11
-611.156329207263
 21
552.877356864311
 31
0.0
  0
ARC
  5
2D1
330
1F
100
AcDbEntity
  8
D-2
  6
Continuous
 62
     3
370
     9
100
AcDbCircle
 10
-1057.407132439173
 20
-269.1087444054108
 30
0.0
 40
5.0
100
AcDbArc
 50
0.0
 51
90.00000000000001
  0
LINE
  5
2D2
330
1F
100
AcDbEntity
  8
D-2
  6
Continuous
 62
     3
370
     9
100
AcDbLine
 10
-818.9065754933716
 20
-333.1088595615847
 30
0.0
 11
-818.9065754933716
 21
-258.1087612139208
 31
0.0
  0
LINE
  5
2D3
330
1F
100
AcDbEntity
  8
D-2
  6
Continuous
 62
     3
370
     9
100
AcDbLine
 10
-1493.906499199426
 20
-333.1088595615847
 30
0.0
 11
-818.9065754933716
 21
-333.1088595615847
 31
0.0
  0
LINE
  5
2D4
330
1F
100
AcDbEntity
  8
D-2
  6
Continuous
 62
     3
370
     9
100
AcDbLine
 10
-818.9065754933716
 20
-258.1087612139208
 30
0.0
 11
-1493.906499199426
 21
-258.1087612139208
 31
0.0
  0
LINE
  5
2D5
330
1F
100
AcDbEntity
  8
D-2
  6
Continuous
 62
     3
370
     9
100
AcDbLine
 10
-1448.906537346399
 20
-264.1087444054108
 30
0.0
 11
-1448.906537346399
 21
-258.1087612139208
 31
0.0
  0
LINE
  5
2D6
330
1F
100
AcDbEntity
  8
D-2
  6
Continuous
 62
     3
370
     9
100
AcDbLine
 10
-1488.907185844934
 20
-264.1087444054108
 30
0.0
 11
-1488.907185844934
 21
-258.1087612139208
 31
0.0
  0
LINE
  5
2D7
330
1F
100
AcDbEntity
  8
D-2
  6
Continuous
 62
     3
370
     9
100
AcDbLine
 10
-1392.907162956751
 20
-264.1087444054108
 30
0.0
 11
-1381.40684252218
 21
-264.1087444054108
 31
0.0
  0
LINE
  5
2D8
330
1F
100
AcDbEntity
  8
D-2
  6
Continuous
 62
     3
370
     9
100
AcDbLine
 10
-1418.907376579798
 20
-264.1087444054108
 30
0.0
 11
-1378.906728081262
 21
-264.1087444054108
 31
0.0
  0
LINE
  5
2D9
330
1F
100
AcDbEntity
  8
D-2
  6
Continuous
 62
     3
370
     9
100
AcDbLine
 10
-1378.906728081262
 20
-264.1087444054108
 30
0.0
 11
-1378.906728081262
 21
-258.1087612139208
 31
0.0
  0
LINE
  5
2DA
330
1F
100
AcDbEntity
  8
D-2
  6
Continuous
 62
     3
370
     9
100
AcDbLine
 10
-1418.907376579798
 20
-264.1087444054108
 30
0.0
 11
-1418.907376579798
 21
-258.1087612139208
 31
0.0
  0
LINE
  5
2DB
330
1F
100
AcDbEntity
  8
D-2
  6
Continuous
 62
     3
370
     9
100
AcDbLine
 10
-1322.907315544641
 20
-264.1087444054108
 30
0.0
 11
-1311.406995110071
 21
-264.1087444054108
 31
0.0
  0
LINE
  5
2DC
330
1F
100
AcDbEntity
  8
D-2
  6
Continuous
 62
     3
370
     9
100
AcDbLine
 10
-1348.907529167688
 20
-264.1087444054108
 30
0.0
 11
-1308.906880669153
 21
-264.1087444054108
 31
0.0
  0
LINE
  5
2DD
330
1F
100
AcDbEntity
  8
D-2
  6
Continuous
 62
     3
370
     9
100
AcDbLine
 10
-1308.906880669153
 20
-264.1087444054108
 30
0.0
 11
-1308.906880669153
 21
-258.1087612139208
 31
0.0
  0
LINE
  5
2DE
330
1F
100
AcDbEntity
  8
D-2
  6
Continuous
 62
     3
370
     9
100
AcDbLine
 10
-1348.907529167688
 20
-264.1087444054108
 30
0.0
 11
-1348.907529167688
 21
-258.1087612139208
 31
0.0
  0
LINE
  5
2DF
330
1F
100
AcDbEntity
  8
D-2
  6
Continuous
 62
     3
370
     9
100
AcDbLine
 10
-1252.90701036886
 20
-264.1087444054108
 30
0.0
 11
-1241.40668993429
 21
-264.1087444054108
 31
0.0
  0
LINE
  5
2E0
330
1F
100
AcDbEntity
  8
D-2
  6
Continuous
 62
     3
370
     9
100
AcDbLine
 10
-1278.907223991907
 20
-264.1087444054108
 30
0.0
 11
-1238.906575493372
 21
-264.1087444054108
 31
0.0
  0
LINE
  5
2E1
330
1F
100
AcDbEntity
  8
D-2
  6
Continuous
 62
     3
370
     9
100
AcDbLine
 10
-1238.906575493372
 20
-264.1087444054108
 30
0.0
 11
-1238.906575493372
 21
-258.1087612139208
 31
0.0
  0
LINE
  5
2E2
330
1F
100
AcDbEntity
  8
D-2
  6
Continuous
 62
     3
370
     9
100
AcDbLine
 10
-1278.907223991907
 20
-264.1087444054108
 30
0.0
 11
-1278.907223991907
 21
-258.1087612139208
 31
0.0
  0
LINE
  5
2E3
330
1F
100
AcDbEntity
  8
D-2
  6
Continuous
 62
     3
370
     9
100
AcDbLine
 10
-1182.907162956751
 20
-264.1087444054108
 30
0.0
 11
-1171.40684252218
 21
-264.1087444054108
 31
0.0
  0
LINE
  5
2E4
330
1F
100
AcDbEntity
  8
D-2
  6
Continuous
 62
     3
370
     9
100
AcDbLine
 10
-1208.907376579798
 20
-264.1087444054108
 30
0.0
 11
-1168.906728081262
 21
-264.1087444054108
 31
0.0
  0
LINE
  5
2E5
330
1F
100
AcDbEntity
  8
D-2
  6
Continuous
 62
     3
370
     9
100
AcDbLine
 10
-1168.906728081262
 20
-264.1087444054108
 30
0.0
 11
-1168.906728081262
 21
-258.1087612139208
 31
0.0
  0
LINE
  5
2E6
330
1F
100
AcDbEntity
  8
D-2
  6
Continuous
 62
     3
370
     9
100
AcDbLine
 10
-1208.907376579798
 20
-264.1087444054108
 30
0.0
 11
-1208.907376579798
 21
-258.1087612139208
 31
0.0
  0
LINE
  5
2E7
330
1F
100
AcDbEntity
  8
D-2
  6
Continuous
 62
     3
370
     9
100
AcDbLine
 10
-1112.907334618128
 20
-264.1087444054108
 30
0.0
 11
-1101.407014183557
 21
-264.1087444054108
 31
0.0
  0
LINE
  5
2E8
330
1F
100
AcDbEntity
  8
D-2
  6
Continuous
 62
     3
370
     9
100
AcDbLine
 10
-1138.907548241174
 20
-264.1087444054108
 30
0.0
 11
-1098.906899742639
 21
-264.1087444054108
 31
0.0
  0
LINE
  5
2E9
330
1F
100
AcDbEntity
  8
D-2
  6
Continuous
 62
     3
370
     9
100
AcDbLine
 10
-1098.906899742639
 20
-264.1087444054108
 30
0.0
 11
-1098.906899742639
 21
-258.1087612139208
 31
0.0
  0
LINE
  5
2EA
330
1F
100
AcDbEntity
  8
D-2
  6
Continuous
 62
     3
370
     9
100
AcDbLine
 10
-1138.907548241174
 20
-264.1087444054108
 30
0.0
 11
-1138.907548241174
 21
-258.1087612139208
 31
0.0
  0
LINE
  5
2EB
330
1F
100
AcDbEntity
  8
D-2
  6
Continuous
 62
     3
370
     9
100
AcDbLine
 10
-1042.90701036886
 20
-264.1087444054108
 30
0.0
 11
-1031.40668993429
 21
-264.1087444054108
 31
0.0
  0
LINE
  5
2EC
330
1F
100
AcDbEntity
  8
D-2
  6
Continuous
 62
     3
370
     9
100
AcDbLine
 10
-1068.907223991907
 20
-264.1087444054108
 30
0.0
 11
-1028.906575493372
 21
-264.1087444054108
 31
0.0
  0
LINE
  5
2ED
330
1F
100
AcDbEntity
  8
D-2
  6
Continuous
 62
     3
370
     9
100
AcDbLine
 10
-1028.906575493372
 20
-264.1087444054108
 30
0.0
 11
-1028.906575493372
 21
-258.1087612139208
 31
0.0
  0
LINE
  5
2EE
330
1F
100
AcDbEntity
  8
D-2
  6
Continuous
 62
     3
370
     9
100
AcDbLine
 10
-1068.907223991907
 20
-264.1087444054108
 30
0.0
 11
-1068.907223991907
 21
-258.1087612139208
 31
0.0
  0
LINE
  5
2EF
330
1F
100
AcDbEntity
  8
D-2
  6
Continuous
 62
     3
370
     9
100
AcDbLine
 10
-972.9071820302369
 20
-264.1087444054108
 30
0.0
 11
-961.4068615956666
 21
-264.1087444054108
 31
0.0
  0
LINE
  5
2F0
330
1F
100
AcDbEntity
  8
D-2
  6
Continuous
 62
     3
370
     9
100
AcDbLine
 10
-998.9073956532837
 20
-264.1087444054108
 30
0.0
 11
-958.9067471547486
 21
-264.1087444054108
 31
0.0
  0
LINE
  5
2F1
330
1F
100
AcDbEntity
  8
D-2
  6
Continuous
 62
     3
370
     9
100
AcDbLine
 10
-958.9067471547486
 20
-264.1087444054108
 30
0.0
 11
-958.9067471547486
 21
-258.1087612139208
 31
0.0
  0
LINE
  5
2F2
330
1F
100
AcDbEntity
  8
D-2
  6
Continuous
 62
     3
370
     9
100
AcDbLine
 10
-998.9073956532837
 20
-264.1087444054108
 30
0.0
 11
-998.9073956532837
 21
-258.1087612139208
 31
0.0
  0
LINE
  5
2F3
330
1F
100
AcDbEntity
  8
D-2
  6
Continuous
 62
     3
370
     9
100
AcDbLine
 10
-902.9073536916138
 20
-264.1087444054108
 30
0.0
 11
-891.4070332570435
 21
-264.1087444054108
 31
0.0
  0
LINE
  5
2F4
330
1F
100
AcDbEntity
  8
D-2
  6
Continuous
 62
     3
370
     9
100
AcDbLine
 10
-928.9075673146607
 20
-264.1087444054108
 30
0.0
 11
-888.9069188161255
 21
-264.1087444054108
 31
0.0
  0
LINE
  5
2F5
330
1F
100
AcDbEntity
  8
D-2
  6
Continuous
 62
     3
370
     9
100
AcDbLine
 10
-888.9069188161255
 20
-264.1087444054108
 30
0.0
 11
-888.9069188161255
 21
-258.1087612139208
 31
0.0
  0
LINE
  5
2F6
330
1F
100
AcDbEntity
  8
D-2
  6
Continuous
 62
     3
370
     9
100
AcDbLine
 10
-928.9075673146607
 20
-264.1087444054108
 30
0.0
 11
-928.9075673146607
 21
-258.1087612139208
 31
0.0
  0
LINE
  5
2F7
330
1F
100
AcDbEntity
  8
D-2
  6
Continuous
 62
     3
370
     9
100
AcDbLine
 10
-832.9065383000733
 20
-264.1087444054108
 30
0.0
 11
-821.406217865503
 21
-264.1087444054108
 31
0.0
  0
LINE
  5
2F8
330
1F
100
AcDbEntity
  8
D-2
  6
Continuous
 62
     3
370
     9
100
AcDbLine
 10
-858.9067519231202
 20
-264.1087444054108
 30
0.0
 11
-818.906103424585
 21
-264.1087444054108
 31
0.0
  0
LINE
  5
2F9
330
1F
100
AcDbEntity
  8
D-2
  6
Continuous
 62
     3
370
     9
100
AcDbLine
 10
-818.906103424585
 20
-264.1087444054108
 30
0.0
 11
-818.906103424585
 21
-258.1087612139208
 31
0.0
  0
LINE
  5
2FA
330
1F
100
AcDbEntity
  8
D-2
  6
Continuous
 62
     3
370
     9
100
AcDbLine
 10
-858.9067519231202
 20
-264.1087444054108
 30
0.0
 11
-858.9067519231202
 21
-258.1087612139208
 31
0.0
  0
LINE
  5
2FB
330
1F
100
AcDbEntity
  8
D-2
  6
Continuous
 62
     3
370
     9
100
AcDbLine
 10
-1472.4070942922
 20
-269.1087444054108
 30
0.0
 11
-1472.4070942922
 21
-333.1088595615847
 31
0.0
  0
ARC
  5
2FC
330
1F
100
AcDbEntity
  8
D-2
  6
Continuous
 62
     3
370
     9
100
AcDbCircle
 10
-1477.4070942922
 20
-269.1087444054108
 30
0.0
 40
5.0
100
AcDbArc
 50
0.0
 51
90.00000000000001
  0
LINE
  5
2FD
330
1F
100
AcDbEntity
  8
D-2
  6
Continuous
 62
     3
370
     9
100
AcDbLine
 10
-1465.407124809778
 20
-269.1087444054108
 30
0.0
 11
-1465.407124809778
 21
-333.1088595615847
 31
0.0
  0
ARC
  5
2FE
330
1F
100
AcDbEntity
  8
D-2
  6
Continuous
 62
     3
370
     9
100
AcDbCircle
 10
-1460.407124809778
 20
-269.1087444054108
 30
0.0
 40
5.0
100
AcDbArc
 50
90.0
 51
180.0
  0
LINE
  5
2FF
330
1F
100
AcDbEntity
  8
D-2
  6
Continuous
 62
     3
370
     9
100
AcDbLine
 10
-1488.907185844934
 20
-264.1087444054108
 30
0.0
 11
-1448.906537346399
 21
-264.1087444054108
 31
0.0
  0
ARC
  5
300
330
1F
100
AcDbEntity
  8
D-2
  6
Continuous
 62
     3
370
     9
100
AcDbCircle
 10
-1407.407285027063
 20
-269.1087444054108
 30
0.0
 40
5.0
100
AcDbArc
 50
0.0
 51
90.00000000000001
  0
ARC
  5
301
330
1F
100
AcDbEntity
  8
D-2
  6
Continuous
 62
     3
370
     9
100
AcDbCircle
 10
-1390.407315544641
 20
-269.1087444054108
 30
0.0
 40
5.0
100
AcDbArc
 50
90.0
 51
180.0
  0
ARC
  5
302
330
1F
100
AcDbEntity
  8
D-2
  6
Continuous
 62
     3
370
     9
100
AcDbCircle
 10
-1337.407437614954
 20
-269.1087444054108
 30
0.0
 40
5.0
100
AcDbArc
 50
0.0
 51
90.00000000000001
  0
ARC
  5
303
330
1F
100
AcDbEntity
  8
D-2
  6
Continuous
 62
     3
370
     9
100
AcDbCircle
 10
-1320.407468132532
 20
-269.1087444054108
 30
0.0
 40
5.0
100
AcDbArc
 50
90.0
 51
180.0
  0
ARC
  5
304
330
1F
100
AcDbEntity
  8
D-2
  6
Continuous
 62
     3
370
     9
100
AcDbCircle
 10
-1267.407132439173
 20
-269.1087444054108
 30
0.0
 40
5.0
100
AcDbArc
 50
0.0
 51
90.00000000000001
  0
ARC
  5
305
330
1F
100
AcDbEntity
  8
D-2
  6
Continuous
 62
     3
370
     9
100
AcDbCircle
 10
-1250.407162956751
 20
-269.1087444054108
 30
0.0
 40
5.0
100
AcDbArc
 50
90.0
 51
180.0
  0
ARC
  5
306
330
1F
100
AcDbEntity
  8
D-2
  6
Continuous
 62
     3
370
     9
100
AcDbCircle
 10
-1197.407285027063
 20
-269.1087444054108
 30
0.0
 40
5.0
100
AcDbArc
 50
0.0
 51
90.00000000000001
  0
ARC
  5
307
330
1F
100
AcDbEntity
  8
D-2
  6
Continuous
 62
     3
370
     9
100
AcDbCircle
 10
-1180.407315544641
 20
-269.1087444054108
 30
0.0
 40
5.0
100
AcDbArc
 50
90.0
 51
180.0
  0
ARC
  5
308
330
1F
100
AcDbEntity
  8
D-2
  6
Continuous
 62
     3
370
     9
100
AcDbCircle
 10
-1127.40745668844
 20
-269.1087444054108
 30
0.0
 40
5.0
100
AcDbArc
 50
0.0
 51
90.00000000000001
  0
ARC
  5
309
330
1F
100
AcDbEntity
  8
D-2
  6
Continuous
 62
     3
370
     9
100
AcDbCircle
 10
-1110.407487206018
 20
-269.1087444054108
 30
0.0
 40
5.0
100
AcDbArc
 50
90.0
 51
180.0
  0
ARC
  5
30A
330
1F
100
AcDbEntity
  8
D-2
  6
Continuous
 62
     3
370
     9
100
AcDbCircle
 10
-1040.407162956751
 20
-269.1087444054108
 30
0.0
 40
5.0
100
AcDbArc
 50
90.0
 51
180.0
  0
ARC
  5
30B
330
1F
100
AcDbEntity
  8
D-2
  6
Continuous
 62
     3
370
     9
100
AcDbCircle
 10
-987.4073041005494
 20
-269.1087444054108
 30
0.0
 40
5.0
100
AcDbArc
 50
0.0
 51
90.00000000000001
  0
ARC
  5
30C
330
1F
100
AcDbEntity
  8
D-2
  6
Continuous
 62
     3
370
     9
100
AcDbCircle
 10
-970.4073346181275
 20
-269.1087444054108
 30
0.0
 40
5.0
100
AcDbArc
 50
90.0
 51
180.0
  0
ARC
  5
30D
330
1F
100
AcDbEntity
  8
D-2
  6
Continuous
 62
     3
370
     9
100
AcDbCircle
 10
-917.4074757619263
 20
-269.1087444054108
 30
0.0
 40
5.0
100
AcDbArc
 50
0.0
 51
90.00000000000001
  0
ARC
  5
30E
330
1F
100
AcDbEntity
  8
D-2
  6
Continuous
 62
     3
370
     9
100
AcDbCircle
 10
-900.4075062795044
 20
-269.1087444054108
 30
0.0
 40
5.0
100
AcDbArc
 50
90.0
 51
180.0
  0
ARC
  5
30F
330
1F
100
AcDbEntity
  8
D-2
  6
Continuous
 62
     3
370
     9
100
AcDbCircle
 10
-847.4066603703858
 20
-269.1087444054108
 30
0.0
 40
5.0
100
AcDbArc
 50
0.0
 51
90.00000000000001
  0
ARC
  5
310
330
1F
100
AcDbEntity
  8
D-2
  6
Continuous
 62
     3
370
     9
100
AcDbCircle
 10
-830.4066908879639
 20
-269.1087444054108
 30
0.0
 40
5.0
100
AcDbArc
 50
90.0
 51
180.0
  0
LINE
  5
311
330
1F
100
AcDbEntity
  8
D-2
  6
Continuous
 62
     3
370
     9
100
AcDbLine
 10
-842.4066603703858
 20
-333.1088595615847
 30
0.0
 11
-842.4066603703858
 21
-269.1087444054108
 31
0.0
  0
LINE
  5
312
330
1F
100
AcDbEntity
  8
D-2
  6
Continuous
 62
     3
370
     9
100
AcDbLine
 10
-835.4066908879639
 20
-269.1087444054108
 30
0.0
 11
-835.4066908879639
 21
-333.1088595615847
 31
0.0
  0
LINE
  5
313
330
1F
100
AcDbEntity
  8
D-2
  6
Continuous
 62
     3
370
     9
100
AcDbLine
 10
-912.4074757619263
 20
-333.1088595615847
 30
0.0
 11
-912.4074757619263
 21
-269.1087444054108
 31
0.0
  0
LINE
  5
314
330
1F
100
AcDbEntity
  8
D-2
  6
Continuous
 62
     3
370
     9
100
AcDbLine
 10
-905.4075062795044
 20
-269.1087444054108
 30
0.0
 11
-905.4075062795044
 21
-333.1088595615847
 31
0.0
  0
LINE
  5
315
330
1F
100
AcDbEntity
  8
D-2
  6
Continuous
 62
     3
370
     9
100
AcDbLine
 10
-982.4073041005494
 20
-333.1088595615847
 30
0.0
 11
-982.4073041005494
 21
-269.1087444054108
 31
0.0
  0
LINE
  5
316
330
1F
100
AcDbEntity
  8
D-2
  6
Continuous
 62
     3
370
     9
100
AcDbLine
 10
-975.4073346181275
 20
-269.1087444054108
 30
0.0
 11
-975.4073346181275
 21
-333.1088595615847
 31
0.0
  0
LINE
  5
317
330
1F
100
AcDbEntity
  8
D-2
  6
Continuous
 62
     3
370
     9
100
AcDbLine
 10
-1052.407132439173
 20
-333.1088595615847
 30
0.0
 11
-1052.407132439173
 21
-269.1087444054108
 31
0.0
  0
LINE
  5
318
330
1F
100
AcDbEntity
  8
D-2
  6
Continuous
 62
     3
370
     9
100
AcDbLine
 10
-1045.407162956751
 20
-269.1087444054108
 30
0.0
 11
-1045.407162956751
 21
-333.1088595615847
 31
0.0
  0
LINE
  5
319
330
1F
100
AcDbEntity
  8
D-2
  6
Continuous
 62
     3
370
     9
100
AcDbLine
 10
-1122.40745668844
 20
-333.1088595615847
 30
0.0
 11
-1122.40745668844
 21
-269.1087444054108
 31
0.0
  0
LINE
  5
31A
330
1F
100
AcDbEntity
  8
D-2
  6
Continuous
 62
     3
370
     9
100
AcDbLine
 10
-1115.407487206018
 20
-269.1087444054108
 30
0.0
 11
-1115.407487206018
 21
-333.1088595615847
 31
0.0
  0
LINE
  5
31B
330
1F
100
AcDbEntity
  8
D-2
  6
Continuous
 62
     3
370
     9
100
AcDbLine
 10
-1192.407285027063
 20
-333.1088595615847
 30
0.0
 11
-1192.407285027063
 21
-269.1087444054108
 31
0.0
  0
LINE
  5
31C
330
1F
100
AcDbEntity
  8
D-2
  6
Continuous
 62
     3
370
     9
100
AcDbLine
 10
-1185.407315544641
 20
-269.1087444054108
 30
0.0
 11
-1185.407315544641
 21
-333.1088595615847
 31
0.0
  0
LINE
  5
31D
330
1F
100
AcDbEntity
  8
D-2
  6
Continuous
 62
     3
370
     9
100
AcDbLine
 10
-1262.407132439173
 20
-333.1088595615847
 30
0.0
 11
-1262.407132439173
 21
-269.1087444054108
 31
0.0
  0
LINE
  5
31E
330
1F
100
AcDbEntity
  8
D-2
  6
Continuous
 62
     3
370
     9
100
AcDbLine
 10
-1255.407162956751
 20
-269.1087444054108
 30
0.0
 11
-1255.407162956751
 21
-333.1088595615847
 31
0.0
  0
LINE
  5
31F
330
1F
100
AcDbEntity
  8
D-2
  6
Continuous
 62
     3
370
     9
100
AcDbLine
 10
-1332.407437614954
 20
-333.1088595615847
 30
0.0
 11
-1332.407437614954
 21
-269.1087444054108
 31
0.0
  0
LINE
  5
320
330
1F
100
AcDbEntity
  8
D-2
  6
Continuous
 62
     3
370
     9
100
AcDbLine
 10
-1325.407468132532
 20
-269.1087444054108
 30
0.0
 11
-1325.407468132532
 21
-333.1088595615847
 31
0.0
  0
LINE
  5
321
330
1F
100
AcDbEntity
  8
D-2
  6
Continuous
 62
     3
370
     9
100
AcDbLine
 10
-1402.407285027063
 20
-333.1088595615847
 30
0.0
 11
-1402.407285027063
 21
-269.1087444054108
 31
0.0
  0
LINE
  5
322
330
1F
100
AcDbEntity
  8
D-2
  6
Continuous
 62
     3
370
     9
100
AcDbLine
 10
-1395.407315544641
 20
-269.1087444054108
 30
0.0
 11
-1395.407315544641
 21
-333.1088595615847
 31
0.0
  0
LINE
  5
323
330
1F
100
AcDbEntity
  8
D-4
  6
Continuous
 62
     7
370
     9
100
AcDbLine
 10
-1516.574193291223
 20
-134.6896099077685
 30
0.0
 11
-943.9064133687378
 21
-134.6896099077685
 31
0.0
  0
LINE
  5
324
330
1F
100
AcDbEntity
  8
D-4
  6
Continuous
 62
     7
370
     9
100
AcDbLine
 10
-943.9064133687378
 20
-240.1531087385638
 30
0.0
 11
-943.9064133687378
 21
-131.6890453325732
 31
0.0
  0
LINE
  5
325
330
1F
100
AcDbEntity
  8
D-4
  6
Continuous
 62
     7
370
     9
100
AcDbLine
 10
-943.9064133687378
 20
-134.6896099077685
 30
0.0
 11
-818.9065754933716
 21
-134.6896099077685
 31
0.0
  0
LINE
  5
326
330
1F
100
AcDbEntity
  8
D-4
  6
Continuous
 62
     7
370
     9
100
AcDbLine
 10
-818.9065754933716
 20
-240.1531087385638
 30
0.0
 11
-818.9065754933716
 21
-22.93761482109858
 31
0.0
  0
LINE
  5
327
330
1F
100
AcDbEntity
  8
D-4
  6
Continuous
 62
     7
370
     9
100
AcDbLine
 10
-813.9063048882844
 20
-240.1531087385638
 30
0.0
 11
-813.9063048882844
 21
-22.93761482109858
 31
0.0
  0
LINE
  5
328
330
1F
100
AcDbEntity
  8
D-4
  6
Continuous
 62
     7
370
     9
100
AcDbLine
 10
-788.907426647699
 20
-240.1531087385638
 30
0.0
 11
-788.907426647699
 21
87.75904426703619
 31
0.0
  0
LINE
  5
329
330
1F
100
AcDbEntity
  8
D-4
  6
Continuous
 62
     7
370
     9
100
AcDbLine
 10
-943.9064133687378
 20
-661.2272380815966
 30
0.0
 11
-793.9072025342347
 21
-661.2272380815966
 31
0.0
  0
LINE
  5
32A
330
1F
100
AcDbEntity
  8
D-4
  6
Continuous
 62
     7
370
     9
100
AcDbLine
 10
-272.2212040944459
 20
-505.6084369646533
 30
0.0
 11
-272.2212040944459
 21
-255.6087612139208
 31
0.0
  0
LINE
  5
32B
330
1F
100
AcDbEntity
  8
D-4
  6
Continuous
 62
     7
370
     9
100
AcDbLine
 10
-367.8763783498169
 20
-255.6087612139208
 30
0.0
 11
-269.2216313405396
 21
-255.6087612139208
 31
0.0
  0
LINE
  5
32C
330
1F
100
AcDbEntity
  8
D-6
  6
Continuous
 62
     6
370
     9
100
AcDbLine
 10
-793.9072025342347
 20
-505.6084369646533
 30
0.0
 11
-793.9072025342347
 21
-755.6081127153857
 31
0.0
  0
LINE
  5
32D
330
1F
100
AcDbEntity
  8
D-6
  6
JWW_DASHED3
 62
     6
370
     9
100
AcDbLine
 10
-700.4053128285767
 20
-633.1084178911669
 30
0.0
 11
-700.4053128285767
 21
-505.6084369646533
 31
0.0
  0
LINE
  5
32E
330
1F
100
AcDbEntity
  8
D-6
  6
JWW_DASHED3
 62
     6
370
     9
100
AcDbLine
 10
-655.4048550649048
 20
-505.6084369646533
 30
0.0
 11
-655.4048550649048
 21
-633.1084178911669
 31
0.0
  0
LINE
  5
32F
330
1F
100
AcDbEntity
  8
D-6
  6
Continuous
 62
     6
370
     9
100
AcDbLine
 10
-543.906537346399
 20
-405.6089614855273
 30
0.0
 11
-378.9055455251099
 21
-405.6089614855273
 31
0.0
  0
LINE
  5
330
330
1F
100
AcDbEntity
  8
D-6
  6
Continuous
 62
     6
370
     9
100
AcDbLine
 10
-543.906537346399
 20
-405.6089614855273
 30
0.0
 11
-543.906537346399
 21
-505.6084369646533
 31
0.0
  0
LINE
  5
331
330
1F
100
AcDbEntity
  8
D-4
  6
Continuous
 62
     7
370
     9
100
AcDbLine
 10
-488.1276524587037
 20
-505.6084369646533
 30
0.0
 11
-269.2216313405396
 21
-505.6084369646533
 31
0.0
  0
LINE
  5
332
330
1F
100
AcDbEntity
  8
D-6
  6
Continuous
 62
     6
370
     9
100
AcDbLine
 10
-793.9072025342347
 20
-505.6084369646533
 30
0.0
 11
-543.906537346399
 21
-505.6084369646533
 31
0.0
  0
LINE
  5
333
330
1F
100
AcDbEntity
  8
D-6
  6
Continuous
 62
     6
370
     9
100
AcDbLine
 10
-700.4053128285767
 20
-308.1086324678881
 30
0.0
 11
-655.4048550649048
 21
-308.1086324678881
 31
0.0
  0
LINE
  5
334
330
1F
100
AcDbEntity
  8
D-6
  6
JWW_CENTER2
 62
     6
370
     9
100
AcDbLine
 10
-677.9050839467408
 20
-304.0294383989794
 30
0.0
 11
-677.9050839467408
 21
-633.1084178911669
 31
0.0
  0
LINE
  5
335
330
1F
100
AcDbEntity
  8
D-4
  6
Continuous
 62
     7
370
     9
100
AcDbLine
 10
-788.907426647699
 20
-393.5760044085009
 30
0.0
 11
-788.907426647699
 21
-464.918548964165
 31
0.0
  0
LINE
  5
336
330
1F
100
AcDbEntity
  8
D-6
  6
Continuous
 62
     6
370
     9
100
AcDbLine
 10
-700.4053128285767
 20
-340.6084083544238
 30
0.0
 11
-700.4053128285767
 21
-308.1086324678881
 31
0.0
  0
LINE
  5
337
330
1F
100
AcDbEntity
  8
D-6
  6
Continuous
 62
     6
370
     9
100
AcDbLine
 10
-655.4048550649048
 20
-340.6084083544238
 30
0.0
 11
-655.4048550649048
 21
-308.1086324678881
 31
0.0
  0
LINE
  5
338
330
1F
100
AcDbEntity
  8
D-6
  6
Continuous
 62
     6
370
     9
100
AcDbLine
 10
-700.4053128285767
 20
-505.6084369646533
 30
0.0
 11
-700.4053128285767
 21
-390.6081508623583
 31
0.0
  0
LINE
  5
339
330
1F
100
AcDbEntity
  8
D-6
  6
Continuous
 62
     6
370
     9
100
AcDbLine
 10
-655.4048550649048
 20
-505.6084369646533
 30
0.0
 11
-655.4048550649048
 21
-390.6081508623583
 31
0.0
  0
LINE
  5
33A
330
1F
100
AcDbEntity
  8
D-4
  6
Continuous
 62
     7
370
     9
100
AcDbLine
 10
-817.0515403671624
 20
-255.6087612139208
 30
0.0
 11
-1092.389489464319
 21
-255.6087612139208
 31
0.0
  0
LINE
  5
33B
330
1F
100
AcDbEntity
  8
D-4
  6
Continuous
 62
     7
370
     9
100
AcDbLine
 10
-1516.574193291223
 20
84.75847969184088
 30
0.0
 11
-788.907426647699
 21
84.75847969184088
 31
0.0
  0
LINE
  5
33C
330
1F
100
AcDbEntity
  8
D-4
  6
Continuous
 62
     7
370
     9
100
AcDbLine
 10
-1516.574193291223
 20
-25.93718757500483
 30
0.0
 11
-752.8209507985474
 21
-25.93718757500483
 31
0.0
  0
LINE
  5
33D
330
1F
100
AcDbEntity
  8
D-4
  6
Continuous
 62
     7
370
     9
100
AcDbLine
 10
-788.907426647699
 20
-461.918003462456
 30
0.0
 11
-643.9069951100709
 21
-461.918003462456
 31
0.0
  0
LINE
  5
33E
330
1F
100
AcDbEntity
  8
D-6
  6
Continuous
 62
     6
370
     9
100
AcDbLine
 10
-543.906537346399
 20
-452.9485248552783
 30
0.0
 11
-496.5664876027466
 21
-405.6084655748828
 31
0.0
  0
LINE
  5
33F
330
1F
100
AcDbEntity
  8
D-6
  6
Continuous
 62
     6
370
     9
100
AcDbLine
 10
-793.9062130971314
 20
-702.9462169634326
 30
0.0
 11
-596.5669453664185
 21
-505.6084369646533
 31
0.0
  0
LINE
  5
340
330
1F
100
AcDbEntity
  8
D-6
  6
Continuous
 62
     6
370
     9
100
AcDbLine
 10
-793.9062130971314
 20
-717.0868801104052
 30
0.0
 11
-582.4262631459595
 21
-505.6084369646533
 31
0.0
  0
LINE
  5
341
330
1F
100
AcDbEntity
  8
D-6
  6
Continuous
 62
     6
370
     9
100
AcDbLine
 10
-543.906537346399
 20
-467.0892070757372
 30
0.0
 11
-482.4257863088013
 21
-405.6084655748828
 31
0.0
  0
LINE
  5
342
330
1F
100
AcDbEntity
  8
D-6
  6
Continuous
 62
     6
370
     9
100
AcDbLine
 10
-793.9062130971314
 20
-731.2275814043505
 30
0.0
 11
-568.2855809255005
 21
-505.6084369646533
 31
0.0
  0
LINE
  5
343
330
1F
100
AcDbEntity
  8
D-6
  6
Continuous
 62
     6
370
     9
100
AcDbLine
 10
-543.906537346399
 20
-481.2298892961962
 30
0.0
 11
-468.2851231618287
 21
-405.6084655748828
 31
0.0
  0
LINE
  5
344
330
1F
100
AcDbEntity
  8
D-6
  6
Continuous
 62
     6
370
     9
100
AcDbLine
 10
-454.734059624231
 20
-755.6081127153857
 30
0.0
 11
-378.9055455251099
 21
-679.7800945269091
 31
0.0
  0
LINE
  5
345
330
1F
100
AcDbEntity
  8
D-6
  6
Continuous
 62
     6
370
     9
100
AcDbLine
 10
-468.8747227712037
 20
-755.6081127153857
 30
0.0
 11
-378.9055455251099
 21
-665.6393932329638
 31
0.0
  0
LINE
  5
346
330
1F
100
AcDbEntity
  8
D-6
  6
Continuous
 62
     6
370
     9
100
AcDbLine
 10
-440.5933583302857
 20
-755.6081127153857
 30
0.0
 11
-378.9055455251099
 21
-693.9207576738818
 31
0.0
  0
LINE
  5
347
330
1F
100
AcDbEntity
  8
D-0
  6
Continuous
 62
     7
370
     9
100
AcDbLine
 10
-517.0610440297486
 20
-276.5581726061328
 30
0.0
 11
-517.0610440297486
 21
-275.0578927027209
 31
0.0
  0
LINE
  5
348
330
1F
100
AcDbEntity
  8
D-0
  6
Continuous
 62
     7
370
     9
100
AcDbLine
 10
-517.0610440297486
 20
-275.0578927027209
 30
0.0
 11
-515.5612767262818
 21
-275.0578927027209
 31
0.0
  0
LINE
  5
349
330
1F
100
AcDbEntity
  8
D-0
  6
Continuous
 62
     7
370
     9
100
AcDbLine
 10
-515.5612767262818
 20
-275.0578927027209
 30
0.0
 11
-515.5612767262818
 21
-276.5581726061328
 31
0.0
  0
LINE
  5
34A
330
1F
100
AcDbEntity
  8
D-0
  6
Continuous
 62
     7
370
     9
100
AcDbLine
 10
-515.5612767262818
 20
-276.5581726061328
 30
0.0
 11
-517.0610440297486
 21
-276.5581726061328
 31
0.0
  0
LINE
  5
34B
330
1F
100
AcDbEntity
  8
D-0
  6
Continuous
 62
     7
370
     9
100
AcDbLine
 10
-466.305218987024
 20
-279.2654131876452
 30
0.0
 11
-466.305218987024
 21
-277.7651332842333
 31
0.0
  0
LINE
  5
34C
330
1F
100
AcDbEntity
  8
D-0
  6
Continuous
 62
     7
370
     9
100
AcDbLine
 10
-466.305218987024
 20
-277.7651332842333
 30
0.0
 11
-464.8049366994263
 21
-277.7651332842333
 31
0.0
  0
LINE
  5
34D
330
1F
100
AcDbEntity
  8
D-0
  6
Continuous
 62
     7
370
     9
100
AcDbLine
 10
-464.8049366994263
 20
-277.7651332842333
 30
0.0
 11
-464.8049366994263
 21
-279.2654131876452
 31
0.0
  0
LINE
  5
34E
330
1F
100
AcDbEntity
  8
D-0
  6
Continuous
 62
     7
370
     9
100
AcDbLine
 10
-464.8049366994263
 20
-279.2654131876452
 30
0.0
 11
-466.305218987024
 21
-279.2654131876452
 31
0.0
  0
LINE
  5
34F
330
1F
100
AcDbEntity
  8
D-0
  6
Continuous
 62
     7
370
     9
100
AcDbLine
 10
-401.3373768849732
 20
-277.2349833475573
 30
0.0
 11
-401.3373768849732
 21
-275.7347034441455
 31
0.0
  0
LINE
  5
350
330
1F
100
AcDbEntity
  8
D-0
  6
Continuous
 62
     7
370
     9
100
AcDbLine
 10
-401.3373768849732
 20
-275.7347034441455
 30
0.0
 11
-399.8375905080201
 21
-275.7347034441455
 31
0.0
  0
LINE
  5
351
330
1F
100
AcDbEntity
  8
D-0
  6
Continuous
 62
     7
370
     9
100
AcDbLine
 10
-399.8375905080201
 20
-275.7347034441455
 30
0.0
 11
-399.8375905080201
 21
-277.2349833475573
 31
0.0
  0
LINE
  5
352
330
1F
100
AcDbEntity
  8
D-0
  6
Continuous
 62
     7
370
     9
100
AcDbLine
 10
-399.8375905080201
 20
-277.2349833475573
 30
0.0
 11
-401.3373768849732
 21
-277.2349833475573
 31
0.0
  0
LINE
  5
353
330
1F
100
AcDbEntity
  8
D-0
  6
Continuous
 62
     7
370
     9
100
AcDbLine
 10
-425.7005894704224
 20
-309.7189067827685
 30
0.0
 11
-425.7005894704224
 21
-308.2186244951708
 31
0.0
  0
LINE
  5
354
330
1F
100
AcDbEntity
  8
D-0
  6
Continuous
 62
     7
370
     9
100
AcDbLine
 10
-425.7005894704224
 20
-308.2186244951708
 30
0.0
 11
-424.2003071828248
 21
-308.2186244951708
 31
0.0
  0
LINE
  5
355
330
1F
100
AcDbEntity
  8
D-0
  6
Continuous
 62
     7
370
     9
100
AcDbLine
 10
-424.2003071828248
 20
-308.2186244951708
 30
0.0
 11
-424.2003071828248
 21
-309.7189067827685
 31
0.0
  0
LINE
  5
356
330
1F
100
AcDbEntity
  8
D-0
  6
Continuous
 62
     7
370
     9
100
AcDbLine
 10
-424.2003071828248
 20
-309.7189067827685
 30
0.0
 11
-425.7005894704224
 21
-309.7189067827685
 31
0.0
  0
LINE
  5
357
330
1F
100
AcDbEntity
  8
D-0
  6
Continuous
 62
     7
370
     9
100
AcDbLine
 10
-476.2656224294068
 20
-313.6499570833666
 30
0.0
 11
-476.2656224294068
 21
-312.149674795769
 31
0.0
  0
LINE
  5
358
330
1F
100
AcDbEntity
  8
D-0
  6
Continuous
 62
     7
370
     9
100
AcDbLine
 10
-476.2656224294068
 20
-312.149674795769
 30
0.0
 11
-474.7658741994263
 21
-312.149674795769
 31
0.0
  0
LINE
  5
359
330
1F
100
AcDbEntity
  8
D-0
  6
Continuous
 62
     7
370
     9
100
AcDbLine
 10
-474.7658741994263
 20
-312.149674795769
 30
0.0
 11
-474.7658741994263
 21
-313.6499570833666
 31
0.0
  0
LINE
  5
35A
330
1F
100
AcDbEntity
  8
D-0
  6
Continuous
 62
     7
370
     9
100
AcDbLine
 10
-474.7658741994263
 20
-313.6499570833666
 30
0.0
 11
-476.2656224294068
 21
-313.6499570833666
 31
0.0
  0
LINE
  5
35B
330
1F
100
AcDbEntity
  8
D-0
  6
Continuous
 62
     7
370
     9
100
AcDbLine
 10
-493.3751500172974
 20
-347.6168178545458
 30
0.0
 11
-493.3751500172974
 21
-346.1165355669482
 31
0.0
  0
LINE
  5
35C
330
1F
100
AcDbEntity
  8
D-0
  6
Continuous
 62
     7
370
     9
100
AcDbLine
 10
-493.3751500172974
 20
-346.1165355669482
 30
0.0
 11
-491.8749058766724
 21
-346.1165355669482
 31
0.0
  0
LINE
  5
35D
330
1F
100
AcDbEntity
  8
D-0
  6
Continuous
 62
     7
370
     9
100
AcDbLine
 10
-491.8749058766724
 20
-346.1165355669482
 30
0.0
 11
-491.8749058766724
 21
-347.6168178545458
 31
0.0
  0
LINE
  5
35E
330
1F
100
AcDbEntity
  8
D-0
  6
Continuous
 62
     7
370
     9
100
AcDbLine
 10
-491.8749058766724
 20
-347.6168178545458
 30
0.0
 11
-493.3751500172974
 21
-347.6168178545458
 31
0.0
  0
LINE
  5
35F
330
1F
100
AcDbEntity
  8
D-0
  6
Continuous
 62
     7
370
     9
100
AcDbLine
 10
-524.7314084096314
 20
-333.0450796114428
 30
0.0
 11
-524.7314084096314
 21
-331.5448020922167
 31
0.0
  0
LINE
  5
360
330
1F
100
AcDbEntity
  8
D-0
  6
Continuous
 62
     7
370
     9
100
AcDbLine
 10
-524.7314084096314
 20
-331.5448020922167
 30
0.0
 11
-523.2316220326783
 21
-331.5448020922167
 31
0.0
  0
LINE
  5
361
330
1F
100
AcDbEntity
  8
D-0
  6
Continuous
 62
     7
370
     9
100
AcDbLine
 10
-523.2316220326783
 20
-331.5448020922167
 30
0.0
 11
-523.2316220326783
 21
-333.0450796114428
 31
0.0
  0
LINE
  5
362
330
1F
100
AcDbEntity
  8
D-0
  6
Continuous
 62
     7
370
     9
100
AcDbLine
 10
-523.2316220326783
 20
-333.0450796114428
 30
0.0
 11
-524.7314084096314
 21
-333.0450796114428
 31
0.0
  0
LINE
  5
363
330
1F
100
AcDbEntity
  8
D-0
  6
Continuous
 62
     7
370
     9
100
AcDbLine
 10
-535.4558194203736
 20
-374.2651103960497
 30
0.0
 11
-535.4558194203736
 21
-372.7648281084521
 31
0.0
  0
LINE
  5
364
330
1F
100
AcDbEntity
  8
D-0
  6
Continuous
 62
     7
370
     9
100
AcDbLine
 10
-535.4558194203736
 20
-372.7648281084521
 30
0.0
 11
-533.9555371327759
 21
-372.7648281084521
 31
0.0
  0
LINE
  5
365
330
1F
100
AcDbEntity
  8
D-0
  6
Continuous
 62
     7
370
     9
100
AcDbLine
 10
-533.9555371327759
 20
-372.7648281084521
 30
0.0
 11
-533.9555371327759
 21
-374.2651103960497
 31
0.0
  0
LINE
  5
366
330
1F
100
AcDbEntity
  8
D-0
  6
Continuous
 62
     7
370
     9
100
AcDbLine
 10
-533.9555371327759
 20
-374.2651103960497
 30
0.0
 11
-535.4558194203736
 21
-374.2651103960497
 31
0.0
  0
LINE
  5
367
330
1F
100
AcDbEntity
  8
D-0
  6
Continuous
 62
     7
370
     9
100
AcDbLine
 10
-498.1123555226685
 20
-382.8074859606249
 30
0.0
 11
-498.1123555226685
 21
-381.3072036730273
 31
0.0
  0
LINE
  5
368
330
1F
100
AcDbEntity
  8
D-0
  6
Continuous
 62
     7
370
     9
100
AcDbLine
 10
-498.1123555226685
 20
-381.3072036730273
 30
0.0
 11
-496.6120732350709
 21
-381.3072036730273
 31
0.0
  0
LINE
  5
369
330
1F
100
AcDbEntity
  8
D-0
  6
Continuous
 62
     7
370
     9
100
AcDbLine
 10
-496.6120732350709
 20
-381.3072036730273
 30
0.0
 11
-496.6120732350709
 21
-382.8074859606249
 31
0.0
  0
LINE
  5
36A
330
1F
100
AcDbEntity
  8
D-0
  6
Continuous
 62
     7
370
     9
100
AcDbLine
 10
-496.6120732350709
 20
-382.8074859606249
 30
0.0
 11
-498.1123555226685
 21
-382.8074859606249
 31
0.0
  0
LINE
  5
36B
330
1F
100
AcDbEntity
  8
D-0
  6
Continuous
 62
     7
370
     9
100
AcDbLine
 10
-445.907269768274
 20
-387.5322746263964
 30
0.0
 11
-445.907269768274
 21
-386.0320018755419
 31
0.0
  0
LINE
  5
36C
330
1F
100
AcDbEntity
  8
D-0
  6
Continuous
 62
     7
370
     9
100
AcDbLine
 10
-445.907269768274
 20
-386.0320018755419
 30
0.0
 11
-444.4074833913209
 21
-386.0320018755419
 31
0.0
  0
LINE
  5
36D
330
1F
100
AcDbEntity
  8
D-0
  6
Continuous
 62
     7
370
     9
100
AcDbLine
 10
-444.4074833913209
 20
-386.0320018755419
 30
0.0
 11
-444.4074833913209
 21
-387.5322746263964
 31
0.0
  0
LINE
  5
36E
330
1F
100
AcDbEntity
  8
D-0
  6
Continuous
 62
     7
370
     9
100
AcDbLine
 10
-444.4074833913209
 20
-387.5322746263964
 30
0.0
 11
-445.907269768274
 21
-387.5322746263964
 31
0.0
  0
LINE
  5
36F
330
1F
100
AcDbEntity
  8
D-0
  6
Continuous
 62
     7
370
     9
100
AcDbLine
 10
-391.1862004323365
 20
-380.7770561205371
 30
0.0
 11
-391.1862004323365
 21
-379.2767738329394
 31
0.0
  0
LINE
  5
370
330
1F
100
AcDbEntity
  8
D-0
  6
Continuous
 62
     7
370
     9
100
AcDbLine
 10
-391.1862004323365
 20
-379.2767738329394
 30
0.0
 11
-389.686452202356
 21
-379.2767738329394
 31
0.0
  0
LINE
  5
371
330
1F
100
AcDbEntity
  8
D-0
  6
Continuous
 62
     7
370
     9
100
AcDbLine
 10
-389.686452202356
 20
-379.2767738329394
 30
0.0
 11
-389.686452202356
 21
-380.7770561205371
 31
0.0
  0
LINE
  5
372
330
1F
100
AcDbEntity
  8
D-0
  6
Continuous
 62
     7
370
     9
100
AcDbLine
 10
-389.686452202356
 20
-380.7770561205371
 30
0.0
 11
-391.1862004323365
 21
-380.7770561205371
 31
0.0
  0
LINE
  5
373
330
1F
100
AcDbEntity
  8
D-0
  6
Continuous
 62
     7
370
     9
100
AcDbLine
 10
-403.3678257985474
 20
-340.8492111193164
 30
0.0
 11
-403.3678257985474
 21
-339.3489288317187
 31
0.0
  0
LINE
  5
374
330
1F
100
AcDbEntity
  8
D-0
  6
Continuous
 62
     7
370
     9
100
AcDbLine
 10
-403.3678257985474
 20
-339.3489288317187
 30
0.0
 11
-401.8675435109498
 21
-339.3489288317187
 31
0.0
  0
LINE
  5
375
330
1F
100
AcDbEntity
  8
D-0
  6
Continuous
 62
     7
370
     9
100
AcDbLine
 10
-401.8675435109498
 20
-339.3489288317187
 30
0.0
 11
-401.8675435109498
 21
-340.8492111193164
 31
0.0
  0
LINE
  5
376
330
1F
100
AcDbEntity
  8
D-0
  6
Continuous
 62
     7
370
     9
100
AcDbLine
 10
-401.8675435109498
 20
-340.8492111193164
 30
0.0
 11
-403.3678257985474
 21
-340.8492111193164
 31
0.0
  0
LINE
  5
377
330
1F
100
AcDbEntity
  8
D-0
  6
Continuous
 62
     7
370
     9
100
AcDbLine
 10
-444.3965733571412
 20
-349.9668239580615
 30
0.0
 11
-444.3965733571412
 21
-348.4665416704638
 31
0.0
  0
LINE
  5
378
330
1F
100
AcDbEntity
  8
D-0
  6
Continuous
 62
     7
370
     9
100
AcDbLine
 10
-444.3965733571412
 20
-348.4665416704638
 30
0.0
 11
-442.8968251271607
 21
-348.4665416704638
 31
0.0
  0
LINE
  5
379
330
1F
100
AcDbEntity
  8
D-0
  6
Continuous
 62
     7
370
     9
100
AcDbLine
 10
-442.8968251271607
 20
-348.4665416704638
 30
0.0
 11
-442.8968251271607
 21
-349.9668239580615
 31
0.0
  0
LINE
  5
37A
330
1F
100
AcDbEntity
  8
D-0
  6
Continuous
 62
     7
370
     9
100
AcDbLine
 10
-442.8968251271607
 20
-349.9668239580615
 30
0.0
 11
-444.3965733571412
 21
-349.9668239580615
 31
0.0
  0
LINE
  5
37B
330
1F
100
AcDbEntity
  8
D-0
  6
Continuous
 62
     7
370
     9
100
AcDbLine
 10
-383.9117634816529
 20
-310.4784606920703
 30
0.0
 11
-383.9117634816529
 21
-308.9781784044726
 31
0.0
  0
LINE
  5
37C
330
1F
100
AcDbEntity
  8
D-0
  6
Continuous
 62
     7
370
     9
100
AcDbLine
 10
-383.9117634816529
 20
-308.9781784044726
 30
0.0
 11
-382.4114811940552
 21
-308.9781784044726
 31
0.0
  0
LINE
  5
37D
330
1F
100
AcDbEntity
  8
D-0
  6
Continuous
 62
     7
370
     9
100
AcDbLine
 10
-382.4114811940552
 20
-308.9781784044726
 30
0.0
 11
-382.4114811940552
 21
-310.4784606920703
 31
0.0
  0
LINE
  5
37E
330
1F
100
AcDbEntity
  8
D-0
  6
Continuous
 62
     7
370
     9
100
AcDbLine
 10
-382.4114811940552
 20
-310.4784606920703
 30
0.0
 11
-383.9117634816529
 21
-310.4784606920703
 31
0.0
  0
LINE
  5
37F
330
1F
100
AcDbEntity
  8
D-0
  6
Continuous
 62
     7
370
     9
100
AcDbLine
 10
-537.9123509450318
 20
-299.5855783449633
 30
0.0
 11
-537.9123509450318
 21
-298.0853008257372
 31
0.0
  0
LINE
  5
380
330
1F
100
AcDbEntity
  8
D-0
  6
Continuous
 62
     7
370
     9
100
AcDbLine
 10
-537.9123509450318
 20
-298.0853008257372
 30
0.0
 11
-536.4120877309205
 21
-298.0853008257372
 31
0.0
  0
LINE
  5
381
330
1F
100
AcDbEntity
  8
D-0
  6
Continuous
 62
     7
370
     9
100
AcDbLine
 10
-536.4120877309205
 20
-298.0853008257372
 30
0.0
 11
-536.4120877309205
 21
-299.5855783449633
 31
0.0
  0
LINE
  5
382
330
1F
100
AcDbEntity
  8
D-0
  6
Continuous
 62
     7
370
     9
100
AcDbLine
 10
-536.4120877309205
 20
-299.5855783449633
 30
0.0
 11
-537.9123509450318
 21
-299.5855783449633
 31
0.0
  0
LINE
  5
383
330
1F
100
AcDbEntity
  8
D-0
  6
Continuous
 62
     7
370
     9
100
AcDbLine
 10
-621.2620938344361
 20
-422.835914991997
 30
0.0
 11
-621.2620938344361
 21
-421.3356327043994
 31
0.0
  0
LINE
  5
384
330
1F
100
AcDbEntity
  8
D-0
  6
Continuous
 62
     7
370
     9
100
AcDbLine
 10
-621.2620938344361
 20
-421.3356327043994
 30
0.0
 11
-619.7618115468384
 21
-421.3356327043994
 31
0.0
  0
LINE
  5
385
330
1F
100
AcDbEntity
  8
D-0
  6
Continuous
 62
     7
370
     9
100
AcDbLine
 10
-619.7618115468384
 20
-421.3356327043994
 30
0.0
 11
-619.7618115468384
 21
-422.835914991997
 31
0.0
  0
LINE
  5
386
330
1F
100
AcDbEntity
  8
D-0
  6
Continuous
 62
     7
370
     9
100
AcDbLine
 10
-619.7618115468384
 20
-422.835914991997
 30
0.0
 11
-621.2620938344361
 21
-422.835914991997
 31
0.0
  0
LINE
  5
387
330
1F
100
AcDbEntity
  8
D-0
  6
Continuous
 62
     7
370
     9
100
AcDbLine
 10
-571.8975461049439
 20
-430.7341884600146
 30
0.0
 11
-571.8975461049439
 21
-429.2339061724169
 31
0.0
  0
LINE
  5
388
330
1F
100
AcDbEntity
  8
D-0
  6
Continuous
 62
     7
370
     9
100
AcDbLine
 10
-571.8975461049439
 20
-429.2339061724169
 30
0.0
 11
-570.3972828908326
 21
-429.2339061724169
 31
0.0
  0
LINE
  5
389
330
1F
100
AcDbEntity
  8
D-0
  6
Continuous
 62
     7
370
     9
100
AcDbLine
 10
-570.3972828908326
 20
-429.2339061724169
 30
0.0
 11
-570.3972828908326
 21
-430.7341884600146
 31
0.0
  0
LINE
  5
38A
330
1F
100
AcDbEntity
  8
D-0
  6
Continuous
 62
     7
370
     9
100
AcDbLine
 10
-570.3972828908326
 20
-430.7341884600146
 30
0.0
 11
-571.8975461049439
 21
-430.7341884600146
 31
0.0
  0
LINE
  5
38B
330
1F
100
AcDbEntity
  8
D-0
  6
Continuous
 62
     7
370
     9
100
AcDbLine
 10
-588.7786686940552
 20
-451.3149570452197
 30
0.0
 11
-588.7786686940552
 21
-449.8146938311083
 31
0.0
  0
LINE
  5
38C
330
1F
100
AcDbEntity
  8
D-0
  6
Continuous
 62
     7
370
     9
100
AcDbLine
 10
-588.7786686940552
 20
-449.8146938311083
 30
0.0
 11
-587.2788823171021
 21
-449.8146938311083
 31
0.0
  0
LINE
  5
38D
330
1F
100
AcDbEntity
  8
D-0
  6
Continuous
 62
     7
370
     9
100
AcDbLine
 10
-587.2788823171021
 20
-449.8146938311083
 30
0.0
 11
-587.2788823171021
 21
-451.3149570452197
 31
0.0
  0
LINE
  5
38E
330
1F
100
AcDbEntity
  8
D-0
  6
Continuous
 62
     7
370
     9
100
AcDbLine
 10
-587.2788823171021
 20
-451.3149570452197
 30
0.0
 11
-588.7786686940552
 21
-451.3149570452197
 31
0.0
  0
LINE
  5
38F
330
1F
100
AcDbEntity
  8
D-0
  6
Continuous
 62
     7
370
     9
100
AcDbLine
 10
-637.0586407704712
 20
-486.023056410454
 30
0.0
 11
-637.0586407704712
 21
-484.5227741228564
 31
0.0
  0
LINE
  5
390
330
1F
100
AcDbEntity
  8
D-0
  6
Continuous
 62
     7
370
     9
100
AcDbLine
 10
-637.0586407704712
 20
-484.5227741228564
 30
0.0
 11
-635.5588543935181
 21
-484.5227741228564
 31
0.0
  0
LINE
  5
391
330
1F
100
AcDbEntity
  8
D-0
  6
Continuous
 62
     7
370
     9
100
AcDbLine
 10
-635.5588543935181
 20
-484.5227741228564
 30
0.0
 11
-635.5588543935181
 21
-486.023056410454
 31
0.0
  0
LINE
  5
392
330
1F
100
AcDbEntity
  8
D-0
  6
Continuous
 62
     7
370
     9
100
AcDbLine
 10
-635.5588543935181
 20
-486.023056410454
 30
0.0
 11
-637.0586407704712
 21
-486.023056410454
 31
0.0
  0
LINE
  5
393
330
1F
100
AcDbEntity
  8
D-0
  6
Continuous
 62
     7
370
     9
100
AcDbLine
 10
-565.9737217946412
 20
-484.0481113420947
 30
0.0
 11
-565.9737217946412
 21
-482.547829054497
 31
0.0
  0
LINE
  5
394
330
1F
100
AcDbEntity
  8
D-0
  6
Continuous
 62
     7
370
     9
100
AcDbLine
 10
-565.9737217946412
 20
-482.547829054497
 30
0.0
 11
-564.4734585805298
 21
-482.547829054497
 31
0.0
  0
LINE
  5
395
330
1F
100
AcDbEntity
  8
D-0
  6
Continuous
 62
     7
370
     9
100
AcDbLine
 10
-564.4734585805298
 20
-482.547829054497
 30
0.0
 11
-564.4734585805298
 21
-484.0481113420947
 31
0.0
  0
LINE
  5
396
330
1F
100
AcDbEntity
  8
D-0
  6
Continuous
 62
     7
370
     9
100
AcDbLine
 10
-564.4734585805298
 20
-484.0481113420947
 30
0.0
 11
-565.9737217946412
 21
-484.0481113420947
 31
0.0
  0
LINE
  5
397
330
1F
100
AcDbEntity
  8
D-0
  6
Continuous
 62
     7
370
     9
100
AcDbLine
 10
-623.2365429921509
 20
-452.4550365435107
 30
0.0
 11
-623.2365429921509
 21
-450.954754255913
 31
0.0
  0
LINE
  5
398
330
1F
100
AcDbEntity
  8
D-0
  6
Continuous
 62
     7
370
     9
100
AcDbLine
 10
-623.2365429921509
 20
-450.954754255913
 30
0.0
 11
-621.7367566151978
 21
-450.954754255913
 31
0.0
  0
LINE
  5
399
330
1F
100
AcDbEntity
  8
D-0
  6
Continuous
 62
     7
370
     9
100
AcDbLine
 10
-621.7367566151978
 20
-450.954754255913
 30
0.0
 11
-621.7367566151978
 21
-452.4550365435107
 31
0.0
  0
LINE
  5
39A
330
1F
100
AcDbEntity
  8
D-0
  6
Continuous
 62
     7
370
     9
100
AcDbLine
 10
-621.7367566151978
 20
-452.4550365435107
 30
0.0
 11
-623.2365429921509
 21
-452.4550365435107
 31
0.0
  0
LINE
  5
39B
330
1F
100
AcDbEntity
  8
D-0
  6
Continuous
 62
     7
370
     9
100
AcDbLine
 10
-591.3694775624634
 20
-408.5763191210253
 30
0.0
 11
-591.3694775624634
 21
-407.0760463701708
 31
0.0
  0
LINE
  5
39C
330
1F
100
AcDbEntity
  8
D-0
  6
Continuous
 62
     7
370
     9
100
AcDbLine
 10
-591.3694775624634
 20
-407.0760463701708
 30
0.0
 11
-589.8691952748658
 21
-407.0760463701708
 31
0.0
  0
LINE
  5
39D
330
1F
100
AcDbEntity
  8
D-0
  6
Continuous
 62
     7
370
     9
100
AcDbLine
 10
-589.8691952748658
 20
-407.0760463701708
 30
0.0
 11
-589.8691952748658
 21
-408.5763191210253
 31
0.0
  0
LINE
  5
39E
330
1F
100
AcDbEntity
  8
D-0
  6
Continuous
 62
     7
370
     9
100
AcDbLine
 10
-589.8691952748658
 20
-408.5763191210253
 30
0.0
 11
-591.3694775624634
 21
-408.5763191210253
 31
0.0
  0
LINE
  5
39F
330
1F
100
AcDbEntity
  8
D-0
  6
Continuous
 62
     7
370
     9
100
AcDbLine
 10
-600.653077415979
 20
-480.015976332329
 30
0.0
 11
-600.653077415979
 21
-478.5157131182177
 31
0.0
  0
LINE
  5
3A0
330
1F
100
AcDbEntity
  8
D-0
  6
Continuous
 62
     7
370
     9
100
AcDbLine
 10
-600.653077415979
 20
-478.5157131182177
 30
0.0
 11
-599.1527951283814
 21
-478.5157131182177
 31
0.0
  0
LINE
  5
3A1
330
1F
100
AcDbEntity
  8
D-0
  6
Continuous
 62
     7
370
     9
100
AcDbLine
 10
-599.1527951283814
 20
-478.5157131182177
 30
0.0
 11
-599.1527951283814
 21
-480.015976332329
 31
0.0
  0
LINE
  5
3A2
330
1F
100
AcDbEntity
  8
D-0
  6
Continuous
 62
     7
370
     9
100
AcDbLine
 10
-599.1527951283814
 20
-480.015976332329
 30
0.0
 11
-600.653077415979
 21
-480.015976332329
 31
0.0
  0
LINE
  5
3A3
330
1F
100
AcDbEntity
  8
D-0
  6
Continuous
 62
     7
370
     9
100
AcDbLine
 10
-763.7787354512574
 20
-270.1398693548663
 30
0.0
 11
-763.7787354512574
 21
-268.6395894514544
 31
0.0
  0
LINE
  5
3A4
330
1F
100
AcDbEntity
  8
D-0
  6
Continuous
 62
     7
370
     9
100
AcDbLine
 10
-763.7787354512574
 20
-268.6395894514544
 30
0.0
 11
-762.2784579320313
 21
-268.6395894514544
 31
0.0
  0
LINE
  5
3A5
330
1F
100
AcDbEntity
  8
D-0
  6
Continuous
 62
     7
370
     9
100
AcDbLine
 10
-762.2784579320313
 20
-268.6395894514544
 30
0.0
 11
-762.2784579320313
 21
-270.1398693548663
 31
0.0
  0
LINE
  5
3A6
330
1F
100
AcDbEntity
  8
D-0
  6
Continuous
 62
     7
370
     9
100
AcDbLine
 10
-762.2784579320313
 20
-270.1398693548663
 30
0.0
 11
-763.7787354512574
 21
-270.1398693548663
 31
0.0
  0
LINE
  5
3A7
330
1F
100
AcDbEntity
  8
D-0
  6
Continuous
 62
     7
370
     9
100
AcDbLine
 10
-742.5340283437134
 20
-285.9383868204577
 30
0.0
 11
-742.5340283437134
 21
-284.4381069170458
 31
0.0
  0
LINE
  5
3A8
330
1F
100
AcDbEntity
  8
D-0
  6
Continuous
 62
     7
370
     9
100
AcDbLine
 10
-742.5340283437134
 20
-284.4381069170458
 30
0.0
 11
-741.0337460561158
 21
-284.4381069170458
 31
0.0
  0
LINE
  5
3A9
330
1F
100
AcDbEntity
  8
D-0
  6
Continuous
 62
     7
370
     9
100
AcDbLine
 10
-741.0337460561158
 20
-284.4381069170458
 30
0.0
 11
-741.0337460561158
 21
-285.9383868204577
 31
0.0
  0
LINE
  5
3AA
330
1F
100
AcDbEntity
  8
D-0
  6
Continuous
 62
     7
370
     9
100
AcDbLine
 10
-741.0337460561158
 20
-285.9383868204577
 30
0.0
 11
-742.5340283437134
 21
-285.9383868204577
 31
0.0
  0
LINE
  5
3AB
330
1F
100
AcDbEntity
  8
D-0
  6
Continuous
 62
     7
370
     9
100
AcDbLine
 10
-718.6677945180298
 20
-327.0186923967822
 30
0.0
 11
-718.6677945180298
 21
-325.5184148775561
 31
0.0
  0
LINE
  5
3AC
330
1F
100
AcDbEntity
  8
D-0
  6
Continuous
 62
     7
370
     9
100
AcDbLine
 10
-718.6677945180298
 20
-325.5184148775561
 30
0.0
 11
-717.1680081410767
 21
-325.5184148775561
 31
0.0
  0
LINE
  5
3AD
330
1F
100
AcDbEntity
  8
D-0
  6
Continuous
 62
     7
370
     9
100
AcDbLine
 10
-717.1680081410767
 20
-325.5184148775561
 30
0.0
 11
-717.1680081410767
 21
-327.0186923967822
 31
0.0
  0
LINE
  5
3AE
330
1F
100
AcDbEntity
  8
D-0
  6
Continuous
 62
     7
370
     9
100
AcDbLine
 10
-717.1680081410767
 20
-327.0186923967822
 30
0.0
 11
-718.6677945180298
 21
-327.0186923967822
 31
0.0
  0
LINE
  5
3AF
330
1F
100
AcDbEntity
  8
D-0
  6
Continuous
 62
     7
370
     9
100
AcDbLine
 10
-672.9033196492554
 20
-274.0624963270648
 30
0.0
 11
-672.9033196492554
 21
-272.5622164236529
 31
0.0
  0
LINE
  5
3B0
330
1F
100
AcDbEntity
  8
D-0
  6
Continuous
 62
     7
370
     9
100
AcDbLine
 10
-672.9033196492554
 20
-272.5622164236529
 30
0.0
 11
-671.4035428090455
 21
-272.5622164236529
 31
0.0
  0
LINE
  5
3B1
330
1F
100
AcDbEntity
  8
D-0
  6
Continuous
 62
     7
370
     9
100
AcDbLine
 10
-671.4035428090455
 20
-272.5622164236529
 30
0.0
 11
-671.4035428090455
 21
-274.0624963270648
 31
0.0
  0
LINE
  5
3B2
330
1F
100
AcDbEntity
  8
D-0
  6
Continuous
 62
     7
370
     9
100
AcDbLine
 10
-671.4035428090455
 20
-274.0624963270648
 30
0.0
 11
-672.9033196492554
 21
-274.0624963270648
 31
0.0
  0
LINE
  5
3B3
330
1F
100
AcDbEntity
  8
D-0
  6
Continuous
 62
     7
370
     9
100
AcDbLine
 10
-625.3452504201294
 20
-268.6643635260089
 30
0.0
 11
-625.3452504201294
 21
-267.164083622597
 31
0.0
  0
LINE
  5
3B4
330
1F
100
AcDbEntity
  8
D-0
  6
Continuous
 62
     7
370
     9
100
AcDbLine
 10
-625.3452504201294
 20
-267.164083622597
 30
0.0
 11
-623.8454640431763
 21
-267.164083622597
 31
0.0
  0
LINE
  5
3B5
330
1F
100
AcDbEntity
  8
D-0
  6
Continuous
 62
     7
370
     9
100
AcDbLine
 10
-623.8454640431763
 20
-267.164083622597
 30
0.0
 11
-623.8454640431763
 21
-268.6643635260089
 31
0.0
  0
LINE
  5
3B6
330
1F
100
AcDbEntity
  8
D-0
  6
Continuous
 62
     7
370
     9
100
AcDbLine
 10
-623.8454640431763
 20
-268.6643635260089
 30
0.0
 11
-625.3452504201294
 21
-268.6643635260089
 31
0.0
  0
LINE
  5
3B7
330
1F
100
AcDbEntity
  8
D-0
  6
Continuous
 62
     7
370
     9
100
AcDbLine
 10
-644.9588788075806
 20
-290.2390550600512
 30
0.0
 11
-644.9588788075806
 21
-288.7387775408251
 31
0.0
  0
LINE
  5
3B8
330
1F
100
AcDbEntity
  8
D-0
  6
Continuous
 62
     7
370
     9
100
AcDbLine
 10
-644.9588788075806
 20
-288.7387775408251
 30
0.0
 11
-643.458596519983
 21
-288.7387775408251
 31
0.0
  0
LINE
  5
3B9
330
1F
100
AcDbEntity
  8
D-0
  6
Continuous
 62
     7
370
     9
100
AcDbLine
 10
-643.458596519983
 20
-288.7387775408251
 30
0.0
 11
-643.458596519983
 21
-290.2390550600512
 31
0.0
  0
LINE
  5
3BA
330
1F
100
AcDbEntity
  8
D-0
  6
Continuous
 62
     7
370
     9
100
AcDbLine
 10
-643.458596519983
 20
-290.2390550600512
 30
0.0
 11
-644.9588788075806
 21
-290.2390550600512
 31
0.0
  0
LINE
  5
3BB
330
1F
100
AcDbEntity
  8
D-0
  6
Continuous
 62
     7
370
     9
100
AcDbLine
 10
-620.6011403127076
 20
-326.36517276635
 30
0.0
 11
-620.6011403127076
 21
-324.8648904787524
 31
0.0
  0
LINE
  5
3BC
330
1F
100
AcDbEntity
  8
D-0
  6
Continuous
 62
     7
370
     9
100
AcDbLine
 10
-620.6011403127076
 20
-324.8648904787524
 30
0.0
 11
-619.1008580251099
 21
-324.8648904787524
 31
0.0
  0
LINE
  5
3BD
330
1F
100
AcDbEntity
  8
D-0
  6
Continuous
 62
     7
370
     9
100
AcDbLine
 10
-619.1008580251099
 20
-324.8648904787524
 30
0.0
 11
-619.1008580251099
 21
-326.36517276635
 31
0.0
  0
LINE
  5
3BE
330
1F
100
AcDbEntity
  8
D-0
  6
Continuous
 62
     7
370
     9
100
AcDbLine
 10
-619.1008580251099
 20
-326.36517276635
 30
0.0
 11
-620.6011403127076
 21
-326.36517276635
 31
0.0
  0
LINE
  5
3BF
330
1F
100
AcDbEntity
  8
D-0
  6
Continuous
 62
     7
370
     9
100
AcDbLine
 10
-616.6780293507935
 20
-364.937908552788
 30
0.0
 11
-616.6780293507935
 21
-363.4376262651904
 31
0.0
  0
LINE
  5
3C0
330
1F
100
AcDbEntity
  8
D-0
  6
Continuous
 62
     7
370
     9
100
AcDbLine
 10
-616.6780293507935
 20
-363.4376262651904
 30
0.0
 11
-615.1782429738404
 21
-363.4376262651904
 31
0.0
  0
LINE
  5
3C1
330
1F
100
AcDbEntity
  8
D-0
  6
Continuous
 62
     7
370
     9
100
AcDbLine
 10
-615.1782429738404
 20
-363.4376262651904
 30
0.0
 11
-615.1782429738404
 21
-364.937908552788
 31
0.0
  0
LINE
  5
3C2
330
1F
100
AcDbEntity
  8
D-0
  6
Continuous
 62
     7
370
     9
100
AcDbLine
 10
-615.1782429738404
 20
-364.937908552788
 30
0.0
 11
-616.6780293507935
 21
-364.937908552788
 31
0.0
  0
LINE
  5
3C3
330
1F
100
AcDbEntity
  8
D-0
  6
Continuous
 62
     7
370
     9
100
AcDbLine
 10
-692.347003273523
 20
-288.563876055382
 30
0.0
 11
-692.347003273523
 21
-287.0635961519702
 31
0.0
  0
LINE
  5
3C4
330
1F
100
AcDbEntity
  8
D-0
  6
Continuous
 62
     7
370
     9
100
AcDbLine
 10
-692.347003273523
 20
-287.0635961519702
 30
0.0
 11
-690.8467209859253
 21
-287.0635961519702
 31
0.0
  0
LINE
  5
3C5
330
1F
100
AcDbEntity
  8
D-0
  6
Continuous
 62
     7
370
     9
100
AcDbLine
 10
-690.8467209859253
 20
-287.0635961519702
 30
0.0
 11
-690.8467209859253
 21
-288.563876055382
 31
0.0
  0
LINE
  5
3C6
330
1F
100
AcDbEntity
  8
D-0
  6
Continuous
 62
     7
370
     9
100
AcDbLine
 10
-690.8467209859253
 20
-288.563876055382
 30
0.0
 11
-692.347003273523
 21
-288.563876055382
 31
0.0
  0
LINE
  5
3C7
330
1F
100
AcDbEntity
  8
D-0
  6
Continuous
 62
     7
370
     9
100
AcDbLine
 10
-770.6290877385499
 20
-416.0028957354052
 30
0.0
 11
-770.6290877385499
 21
-414.5026229845507
 31
0.0
  0
LINE
  5
3C8
330
1F
100
AcDbEntity
  8
D-0
  6
Continuous
 62
     7
370
     9
100
AcDbLine
 10
-770.6290877385499
 20
-414.5026229845507
 30
0.0
 11
-769.1288102193238
 21
-414.5026229845507
 31
0.0
  0
LINE
  5
3C9
330
1F
100
AcDbEntity
  8
D-0
  6
Continuous
 62
     7
370
     9
100
AcDbLine
 10
-769.1288102193238
 20
-414.5026229845507
 30
0.0
 11
-769.1288102193238
 21
-416.0028957354052
 31
0.0
  0
LINE
  5
3CA
330
1F
100
AcDbEntity
  8
D-0
  6
Continuous
 62
     7
370
     9
100
AcDbLine
 10
-769.1288102193238
 20
-416.0028957354052
 30
0.0
 11
-770.6290877385499
 21
-416.0028957354052
 31
0.0
  0
LINE
  5
3CB
330
1F
100
AcDbEntity
  8
D-0
  6
Continuous
 62
     7
370
     9
100
AcDbLine
 10
-921.4002335591675
 20
-405.0644420610888
 30
0.0
 11
-921.4002335591675
 21
-403.5641597734912
 31
0.0
  0
LINE
  5
3CC
330
1F
100
AcDbEntity
  8
D-0
  6
Continuous
 62
     7
370
     9
100
AcDbLine
 10
-921.4002335591675
 20
-403.5641597734912
 30
0.0
 11
-919.899960808313
 21
-403.5641597734912
 31
0.0
  0
LINE
  5
3CD
330
1F
100
AcDbEntity
  8
D-0
  6
Continuous
 62
     7
370
     9
100
AcDbLine
 10
-919.899960808313
 20
-403.5641597734912
 30
0.0
 11
-919.899960808313
 21
-405.0644420610888
 31
0.0
  0
LINE
  5
3CE
330
1F
100
AcDbEntity
  8
D-0
  6
Continuous
 62
     7
370
     9
100
AcDbLine
 10
-919.899960808313
 20
-405.0644420610888
 30
0.0
 11
-921.4002335591675
 21
-405.0644420610888
 31
0.0
  0
LINE
  5
3CF
330
1F
100
AcDbEntity
  8
D-0
  6
Continuous
 62
     7
370
     9
100
AcDbLine
 10
-862.1619904561402
 20
-509.7178577410205
 30
0.0
 11
-862.1619904561402
 21
-508.2175754534228
 31
0.0
  0
LINE
  5
3D0
330
1F
100
AcDbEntity
  8
D-0
  6
Continuous
 62
     7
370
     9
100
AcDbLine
 10
-862.1619904561402
 20
-508.2175754534228
 30
0.0
 11
-860.6622088475586
 21
-508.2175754534228
 31
0.0
  0
LINE
  5
3D1
330
1F
100
AcDbEntity
  8
D-0
  6
Continuous
 62
     7
370
     9
100
AcDbLine
 10
-860.6622088475586
 20
-508.2175754534228
 30
0.0
 11
-860.6622088475586
 21
-509.7178577410205
 31
0.0
  0
LINE
  5
3D2
330
1F
100
AcDbEntity
  8
D-0
  6
Continuous
 62
     7
370
     9
100
AcDbLine
 10
-860.6622088475586
 20
-509.7178577410205
 30
0.0
 11
-862.1619904561402
 21
-509.7178577410205
 31
0.0
  0
LINE
  5
3D3
330
1F
100
AcDbEntity
  8
D-0
  6
Continuous
 62
     7
370
     9
100
AcDbLine
 10
-875.9845793767334
 20
-568.9556049334033
 30
0.0
 11
-875.9845793767334
 21
-567.4553226458056
 31
0.0
  0
LINE
  5
3D4
330
1F
100
AcDbEntity
  8
D-0
  6
Continuous
 62
     7
370
     9
100
AcDbLine
 10
-875.9845793767334
 20
-567.4553226458056
 30
0.0
 11
-874.4842970891358
 21
-567.4553226458056
 31
0.0
  0
LINE
  5
3D5
330
1F
100
AcDbEntity
  8
D-0
  6
Continuous
 62
     7
370
     9
100
AcDbLine
 10
-874.4842970891358
 20
-567.4553226458056
 30
0.0
 11
-874.4842970891358
 21
-568.9556049334033
 31
0.0
  0
LINE
  5
3D6
330
1F
100
AcDbEntity
  8
D-0
  6
Continuous
 62
     7
370
     9
100
AcDbLine
 10
-874.4842970891358
 20
-568.9556049334033
 30
0.0
 11
-875.9845793767334
 21
-568.9556049334033
 31
0.0
  0
LINE
  5
3D7
330
1F
100
AcDbEntity
  8
D-0
  6
Continuous
 62
     7
370
     9
100
AcDbLine
 10
-906.5906727834107
 20
-579.8158000933154
 30
0.0
 11
-906.5906727834107
 21
-578.3155178057177
 31
0.0
  0
LINE
  5
3D8
330
1F
100
AcDbEntity
  8
D-0
  6
Continuous
 62
     7
370
     9
100
AcDbLine
 10
-906.5906727834107
 20
-578.3155178057177
 30
0.0
 11
-905.0904000325562
 21
-578.3155178057177
 31
0.0
  0
LINE
  5
3D9
330
1F
100
AcDbEntity
  8
D-0
  6
Continuous
 62
     7
370
     9
100
AcDbLine
 10
-905.0904000325562
 20
-578.3155178057177
 30
0.0
 11
-905.0904000325562
 21
-579.8158000933154
 31
0.0
  0
LINE
  5
3DA
330
1F
100
AcDbEntity
  8
D-0
  6
Continuous
 62
     7
370
     9
100
AcDbLine
 10
-905.0904000325562
 20
-579.8158000933154
 30
0.0
 11
-906.5906727834107
 21
-579.8158000933154
 31
0.0
  0
LINE
  5
3DB
330
1F
100
AcDbEntity
  8
D-0
  6
Continuous
 62
     7
370
     9
100
AcDbLine
 10
-929.444171242273
 20
-513.6672328936083
 30
0.0
 11
-929.444171242273
 21
-512.1669506060107
 31
0.0
  0
LINE
  5
3DC
330
1F
100
AcDbEntity
  8
D-0
  6
Continuous
 62
     7
370
     9
100
AcDbLine
 10
-929.444171242273
 20
-512.1669506060107
 30
0.0
 11
-927.9443848653199
 21
-512.1669506060107
 31
0.0
  0
LINE
  5
3DD
330
1F
100
AcDbEntity
  8
D-0
  6
Continuous
 62
     7
370
     9
100
AcDbLine
 10
-927.9443848653199
 20
-512.1669506060107
 30
0.0
 11
-927.9443848653199
 21
-513.6672328936083
 31
0.0
  0
LINE
  5
3DE
330
1F
100
AcDbEntity
  8
D-0
  6
Continuous
 62
     7
370
     9
100
AcDbLine
 10
-927.9443848653199
 20
-513.6672328936083
 30
0.0
 11
-929.444171242273
 21
-513.6672328936083
 31
0.0
  0
LINE
  5
3DF
330
1F
100
AcDbEntity
  8
D-0
  6
Continuous
 62
     7
370
     9
100
AcDbLine
 10
-903.6287606282593
 20
-491.9468807207568
 30
0.0
 11
-903.6287606282593
 21
-490.4465984331591
 31
0.0
  0
LINE
  5
3E0
330
1F
100
AcDbEntity
  8
D-0
  6
Continuous
 62
     7
370
     9
100
AcDbLine
 10
-903.6287606282593
 20
-490.4465984331591
 30
0.0
 11
-902.1284878774048
 21
-490.4465984331591
 31
0.0
  0
LINE
  5
3E1
330
1F
100
AcDbEntity
  8
D-0
  6
Continuous
 62
     7
370
     9
100
AcDbLine
 10
-902.1284878774048
 20
-490.4465984331591
 30
0.0
 11
-902.1284878774048
 21
-491.9468807207568
 31
0.0
  0
LINE
  5
3E2
330
1F
100
AcDbEntity
  8
D-0
  6
Continuous
 62
     7
370
     9
100
AcDbLine
 10
-902.1284878774048
 20
-491.9468807207568
 30
0.0
 11
-903.6287606282593
 21
-491.9468807207568
 31
0.0
  0
LINE
  5
3E3
330
1F
100
AcDbEntity
  8
D-0
  6
Continuous
 62
     7
370
     9
100
AcDbLine
 10
-840.4416311307313
 20
-544.439804457329
 30
0.0
 11
-840.4416311307313
 21
-542.9395221697314
 31
0.0
  0
LINE
  5
3E4
330
1F
100
AcDbEntity
  8
D-0
  6
Continuous
 62
     7
370
     9
100
AcDbLine
 10
-840.4416311307313
 20
-542.9395221697314
 30
0.0
 11
-838.9418471379639
 21
-542.9395221697314
 31
0.0
  0
LINE
  5
3E5
330
1F
100
AcDbEntity
  8
D-0
  6
Continuous
 62
     7
370
     9
100
AcDbLine
 10
-838.9418471379639
 20
-542.9395221697314
 30
0.0
 11
-838.9418471379639
 21
-544.439804457329
 31
0.0
  0
LINE
  5
3E6
330
1F
100
AcDbEntity
  8
D-0
  6
Continuous
 62
     7
370
     9
100
AcDbLine
 10
-838.9418471379639
 20
-544.439804457329
 30
0.0
 11
-840.4416311307313
 21
-544.439804457329
 31
0.0
  0
LINE
  5
3E7
330
1F
100
AcDbEntity
  8
D-0
  6
Continuous
 62
     7
370
     9
100
AcDbLine
 10
-917.4508584065796
 20
-682.3188518511279
 30
0.0
 11
-917.4508584065796
 21
-680.8185695635302
 31
0.0
  0
LINE
  5
3E8
330
1F
100
AcDbEntity
  8
D-0
  6
Continuous
 62
     7
370
     9
100
AcDbLine
 10
-917.4508584065796
 20
-680.8185695635302
 30
0.0
 11
-915.9510720296265
 21
-680.8185695635302
 31
0.0
  0
LINE
  5
3E9
330
1F
100
AcDbEntity
  8
D-0
  6
Continuous
 62
     7
370
     9
100
AcDbLine
 10
-915.9510720296265
 20
-680.8185695635302
 30
0.0
 11
-915.9510720296265
 21
-682.3188518511279
 31
0.0
  0
LINE
  5
3EA
330
1F
100
AcDbEntity
  8
D-0
  6
Continuous
 62
     7
370
     9
100
AcDbLine
 10
-915.9510720296265
 20
-682.3188518511279
 30
0.0
 11
-917.4508584065796
 21
-682.3188518511279
 31
0.0
  0
LINE
  5
3EB
330
1F
100
AcDbEntity
  8
D-0
  6
Continuous
 62
     7
370
     9
100
AcDbLine
 10
-847.0605981870057
 20
-686.0308956133349
 30
0.0
 11
-847.0605981870057
 21
-684.5306133257372
 31
0.0
  0
LINE
  5
3EC
330
1F
100
AcDbEntity
  8
D-0
  6
Continuous
 62
     7
370
     9
100
AcDbLine
 10
-847.0605981870057
 20
-684.5306133257372
 30
0.0
 11
-845.5608141942383
 21
-684.5306133257372
 31
0.0
  0
LINE
  5
3ED
330
1F
100
AcDbEntity
  8
D-0
  6
Continuous
 62
     7
370
     9
100
AcDbLine
 10
-845.5608141942383
 20
-684.5306133257372
 30
0.0
 11
-845.5608141942383
 21
-686.0308956133349
 31
0.0
  0
LINE
  5
3EE
330
1F
100
AcDbEntity
  8
D-0
  6
Continuous
 62
     7
370
     9
100
AcDbLine
 10
-845.5608141942383
 20
-686.0308956133349
 30
0.0
 11
-847.0605981870057
 21
-686.0308956133349
 31
0.0
  0
LINE
  5
3EF
330
1F
100
AcDbEntity
  8
D-0
  6
Continuous
 62
     7
370
     9
100
AcDbLine
 10
-822.6701564116837
 20
-711.9374965654833
 30
0.0
 11
-822.6701564116837
 21
-710.4372142778857
 31
0.0
  0
LINE
  5
3F0
330
1F
100
AcDbEntity
  8
D-0
  6
Continuous
 62
     7
370
     9
100
AcDbLine
 10
-822.6701564116837
 20
-710.4372142778857
 30
0.0
 11
-821.1703722699048
 21
-710.4372142778857
 31
0.0
  0
LINE
  5
3F1
330
1F
100
AcDbEntity
  8
D-0
  6
Continuous
 62
     7
370
     9
100
AcDbLine
 10
-821.1703722699048
 20
-710.4372142778857
 30
0.0
 11
-821.1703722699048
 21
-711.9374965654833
 31
0.0
  0
LINE
  5
3F2
330
1F
100
AcDbEntity
  8
D-0
  6
Continuous
 62
     7
370
     9
100
AcDbLine
 10
-821.1703722699048
 20
-711.9374965654833
 30
0.0
 11
-822.6701564116837
 21
-711.9374965654833
 31
0.0
  0
LINE
  5
3F3
330
1F
100
AcDbEntity
  8
D-0
  6
Continuous
 62
     7
370
     9
100
AcDbLine
 10
-816.3915759845139
 20
-750.1495098101122
 30
0.0
 11
-816.3915759845139
 21
-748.6492275225146
 31
0.0
  0
LINE
  5
3F4
330
1F
100
AcDbEntity
  8
D-0
  6
Continuous
 62
     7
370
     9
100
AcDbLine
 10
-816.3915759845139
 20
-748.6492275225146
 30
0.0
 11
-814.8912966771485
 21
-748.6492275225146
 31
0.0
  0
LINE
  5
3F5
330
1F
100
AcDbEntity
  8
D-0
  6
Continuous
 62
     7
370
     9
100
AcDbLine
 10
-814.8912966771485
 20
-748.6492275225146
 30
0.0
 11
-814.8912966771485
 21
-750.1495098101122
 31
0.0
  0
LINE
  5
3F6
330
1F
100
AcDbEntity
  8
D-0
  6
Continuous
 62
     7
370
     9
100
AcDbLine
 10
-814.8912966771485
 20
-750.1495098101122
 30
0.0
 11
-816.3915759845139
 21
-750.1495098101122
 31
0.0
  0
LINE
  5
3F7
330
1F
100
AcDbEntity
  8
D-0
  6
Continuous
 62
     7
370
     9
100
AcDbLine
 10
-890.620232872522
 20
-755.6081127153857
 30
0.0
 11
-890.620232872522
 21
-754.107830427788
 31
0.0
  0
LINE
  5
3F8
330
1F
100
AcDbEntity
  8
D-0
  6
Continuous
 62
     7
370
     9
100
AcDbLine
 10
-890.620232872522
 20
-754.107830427788
 30
0.0
 11
-889.1199505849244
 21
-754.107830427788
 31
0.0
  0
LINE
  5
3F9
330
1F
100
AcDbEntity
  8
D-0
  6
Continuous
 62
     7
370
     9
100
AcDbLine
 10
-889.1199505849244
 20
-754.107830427788
 30
0.0
 11
-889.1199505849244
 21
-755.6081127153857
 31
0.0
  0
LINE
  5
3FA
330
1F
100
AcDbEntity
  8
D-0
  6
Continuous
 62
     7
370
     9
100
AcDbLine
 10
-889.1199505849244
 20
-755.6081127153857
 30
0.0
 11
-890.620232872522
 21
-755.6081127153857
 31
0.0
  0
LINE
  5
3FB
330
1F
100
AcDbEntity
  8
D-0
  6
Continuous
 62
     7
370
     9
100
AcDbLine
 10
-925.349122337854
 20
-746.3116191851122
 30
0.0
 11
-925.349122337854
 21
-744.8113368975146
 31
0.0
  0
LINE
  5
3FC
330
1F
100
AcDbEntity
  8
D-0
  6
Continuous
 62
     7
370
     9
100
AcDbLine
 10
-925.349122337854
 20
-744.8113368975146
 30
0.0
 11
-923.8488400502564
 21
-744.8113368975146
 31
0.0
  0
LINE
  5
3FD
330
1F
100
AcDbEntity
  8
D-0
  6
Continuous
 62
     7
370
     9
100
AcDbLine
 10
-923.8488400502564
 20
-744.8113368975146
 30
0.0
 11
-923.8488400502564
 21
-746.3116191851122
 31
0.0
  0
LINE
  5
3FE
330
1F
100
AcDbEntity
  8
D-0
  6
Continuous
 62
     7
370
     9
100
AcDbLine
 10
-923.8488400502564
 20
-746.3116191851122
 30
0.0
 11
-925.349122337854
 21
-746.3116191851122
 31
0.0
  0
LINE
  5
3FF
330
1F
100
AcDbEntity
  8
D-0
  6
Continuous
 62
     7
370
     9
100
AcDbLine
 10
-927.5603974385621
 20
-706.0136531816943
 30
0.0
 11
-927.5603974385621
 21
-704.5133708940966
 31
0.0
  0
LINE
  5
400
330
1F
100
AcDbEntity
  8
D-0
  6
Continuous
 62
     7
370
     9
100
AcDbLine
 10
-927.5603974385621
 20
-704.5133708940966
 30
0.0
 11
-926.0606205983521
 21
-704.5133708940966
 31
0.0
  0
LINE
  5
401
330
1F
100
AcDbEntity
  8
D-0
  6
Continuous
 62
     7
370
     9
100
AcDbLine
 10
-926.0606205983521
 20
-704.5133708940966
 30
0.0
 11
-926.0606205983521
 21
-706.0136531816943
 31
0.0
  0
LINE
  5
402
330
1F
100
AcDbEntity
  8
D-0
  6
Continuous
 62
     7
370
     9
100
AcDbLine
 10
-926.0606205983521
 20
-706.0136531816943
 30
0.0
 11
-927.5603974385621
 21
-706.0136531816943
 31
0.0
  0
LINE
  5
403
330
1F
100
AcDbEntity
  8
D-0
  6
Continuous
 62
     7
370
     9
100
AcDbLine
 10
-870.0607550664307
 20
-725.7595943438037
 30
0.0
 11
-870.0607550664307
 21
-724.259312056206
 31
0.0
  0
LINE
  5
404
330
1F
100
AcDbEntity
  8
D-0
  6
Continuous
 62
     7
370
     9
100
AcDbLine
 10
-870.0607550664307
 20
-724.259312056206
 30
0.0
 11
-868.5604727788331
 21
-724.259312056206
 31
0.0
  0
LINE
  5
405
330
1F
100
AcDbEntity
  8
D-0
  6
Continuous
 62
     7
370
     9
100
AcDbLine
 10
-868.5604727788331
 20
-724.259312056206
 30
0.0
 11
-868.5604727788331
 21
-725.7595943438037
 31
0.0
  0
LINE
  5
406
330
1F
100
AcDbEntity
  8
D-0
  6
Continuous
 62
     7
370
     9
100
AcDbLine
 10
-868.5604727788331
 20
-725.7595943438037
 30
0.0
 11
-870.0607550664307
 21
-725.7595943438037
 31
0.0
  0
LINE
  5
407
330
1F
100
AcDbEntity
  8
D-0
  6
Continuous
 62
     7
370
     9
100
AcDbLine
 10
-881.9084036870362
 20
-692.191555403374
 30
0.0
 11
-881.9084036870362
 21
-690.6912731157763
 31
0.0
  0
LINE
  5
408
330
1F
100
AcDbEntity
  8
D-0
  6
Continuous
 62
     7
370
     9
100
AcDbLine
 10
-881.9084036870362
 20
-690.6912731157763
 30
0.0
 11
-880.4081213994385
 21
-690.6912731157763
 31
0.0
  0
LINE
  5
409
330
1F
100
AcDbEntity
  8
D-0
  6
Continuous
 62
     7
370
     9
100
AcDbLine
 10
-880.4081213994385
 20
-690.6912731157763
 30
0.0
 11
-880.4081213994385
 21
-692.191555403374
 31
0.0
  0
LINE
  5
40A
330
1F
100
AcDbEntity
  8
D-0
  6
Continuous
 62
     7
370
     9
100
AcDbLine
 10
-880.4081213994385
 20
-692.191555403374
 30
0.0
 11
-881.9084036870362
 21
-692.191555403374
 31
0.0
  0
LINE
  5
40B
330
1F
100
AcDbEntity
  8
D-0
  6
Continuous
 62
     7
370
     9
100
AcDbLine
 10
-826.6195381207825
 20
-578.0078243242724
 30
0.0
 11
-826.6195381207825
 21
-576.5075420366747
 31
0.0
  0
LINE
  5
40C
330
1F
100
AcDbEntity
  8
D-0
  6
Continuous
 62
     7
370
     9
100
AcDbLine
 10
-826.6195381207825
 20
-576.5075420366747
 30
0.0
 11
-825.1197541280152
 21
-576.5075420366747
 31
0.0
  0
LINE
  5
40D
330
1F
100
AcDbEntity
  8
D-0
  6
Continuous
 62
     7
370
     9
100
AcDbLine
 10
-825.1197541280152
 20
-576.5075420366747
 30
0.0
 11
-825.1197541280152
 21
-578.0078243242724
 31
0.0
  0
LINE
  5
40E
330
1F
100
AcDbEntity
  8
D-0
  6
Continuous
 62
     7
370
     9
100
AcDbLine
 10
-825.1197541280152
 20
-578.0078243242724
 30
0.0
 11
-826.6195381207825
 21
-578.0078243242724
 31
0.0
  0
LINE
  5
40F
330
1F
100
AcDbEntity
  8
D-0
  6
Continuous
 62
     7
370
     9
100
AcDbLine
 10
-814.7723839207055
 20
-478.1242870317919
 30
0.0
 11
-814.7723839207055
 21
-476.6240047441943
 31
0.0
  0
LINE
  5
410
330
1F
100
AcDbEntity
  8
D-0
  6
Continuous
 62
     7
370
     9
100
AcDbLine
 10
-814.7723839207055
 20
-476.6240047441943
 30
0.0
 11
-813.2721043153168
 21
-476.6240047441943
 31
0.0
  0
LINE
  5
411
330
1F
100
AcDbEntity
  8
D-0
  6
Continuous
 62
     7
370
     9
100
AcDbLine
 10
-813.2721043153168
 20
-476.6240047441943
 30
0.0
 11
-813.2721043153168
 21
-478.1242870317919
 31
0.0
  0
LINE
  5
412
330
1F
100
AcDbEntity
  8
D-0
  6
Continuous
 62
     7
370
     9
100
AcDbLine
 10
-813.2721043153168
 20
-478.1242870317919
 30
0.0
 11
-814.7723839207055
 21
-478.1242870317919
 31
0.0
  0
LINE
  5
413
330
1F
100
AcDbEntity
  8
D-0
  6
Continuous
 62
     7
370
     9
100
AcDbLine
 10
-718.6613476796509
 20
-489.3486331926806
 30
0.0
 11
-718.6613476796509
 21
-487.848350905083
 31
0.0
  0
LINE
  5
414
330
1F
100
AcDbEntity
  8
D-0
  6
Continuous
 62
     7
370
     9
100
AcDbLine
 10
-718.6613476796509
 20
-487.848350905083
 30
0.0
 11
-717.161570839441
 21
-487.848350905083
 31
0.0
  0
LINE
  5
415
330
1F
100
AcDbEntity
  8
D-0
  6
Continuous
 62
     7
370
     9
100
AcDbLine
 10
-717.161570839441
 20
-487.848350905083
 30
0.0
 11
-717.161570839441
 21
-489.3486331926806
 31
0.0
  0
LINE
  5
416
330
1F
100
AcDbEntity
  8
D-0
  6
Continuous
 62
     7
370
     9
100
AcDbLine
 10
-717.161570839441
 20
-489.3486331926806
 30
0.0
 11
-718.6613476796509
 21
-489.3486331926806
 31
0.0
  0
LINE
  5
417
330
1F
100
AcDbEntity
  8
D-0
  6
Continuous
 62
     7
370
     9
100
AcDbLine
 10
-771.1959040685059
 20
-480.7235073076708
 30
0.0
 11
-771.1959040685059
 21
-479.2232250200732
 31
0.0
  0
LINE
  5
418
330
1F
100
AcDbEntity
  8
D-0
  6
Continuous
 62
     7
370
     9
100
AcDbLine
 10
-771.1959040685059
 20
-479.2232250200732
 30
0.0
 11
-769.6961224599244
 21
-479.2232250200732
 31
0.0
  0
LINE
  5
419
330
1F
100
AcDbEntity
  8
D-0
  6
Continuous
 62
     7
370
     9
100
AcDbLine
 10
-769.6961224599244
 20
-479.2232250200732
 30
0.0
 11
-769.6961224599244
 21
-480.7235073076708
 31
0.0
  0
LINE
  5
41A
330
1F
100
AcDbEntity
  8
D-0
  6
Continuous
 62
     7
370
     9
100
AcDbLine
 10
-769.6961224599244
 20
-480.7235073076708
 30
0.0
 11
-771.1959040685059
 21
-480.7235073076708
 31
0.0
  0
LINE
  5
41B
330
1F
100
AcDbEntity
  8
D-0
  6
Continuous
 62
     7
370
     9
100
AcDbLine
 10
-907.5776494069459
 20
-541.3114093767626
 30
0.0
 11
-907.5776494069459
 21
-539.8111461626513
 31
0.0
  0
LINE
  5
41C
330
1F
100
AcDbEntity
  8
D-0
  6
Continuous
 62
     7
370
     9
100
AcDbLine
 10
-907.5776494069459
 20
-539.8111461626513
 30
0.0
 11
-906.0778630299927
 21
-539.8111461626513
 31
0.0
  0
LINE
  5
41D
330
1F
100
AcDbEntity
  8
D-0
  6
Continuous
 62
     7
370
     9
100
AcDbLine
 10
-906.0778630299927
 20
-539.8111461626513
 30
0.0
 11
-906.0778630299927
 21
-541.3114093767626
 31
0.0
  0
LINE
  5
41E
330
1F
100
AcDbEntity
  8
D-0
  6
Continuous
 62
     7
370
     9
100
AcDbLine
 10
-906.0778630299927
 20
-541.3114093767626
 30
0.0
 11
-907.5776494069459
 21
-541.3114093767626
 31
0.0
  0
LINE
  5
41F
330
1F
100
AcDbEntity
  8
D-0
  6
Continuous
 62
     7
370
     9
100
AcDbLine
 10
-876.4572537465455
 20
-399.5404552446826
 30
0.0
 11
-876.4572537465455
 21
-398.0401824938281
 31
0.0
  0
LINE
  5
420
330
1F
100
AcDbEntity
  8
D-0
  6
Continuous
 62
     7
370
     9
100
AcDbLine
 10
-876.4572537465455
 20
-398.0401824938281
 30
0.0
 11
-874.9569762273194
 21
-398.0401824938281
 31
0.0
  0
LINE
  5
421
330
1F
100
AcDbEntity
  8
D-0
  6
Continuous
 62
     7
370
     9
100
AcDbLine
 10
-874.9569762273194
 20
-398.0401824938281
 30
0.0
 11
-874.9569762273194
 21
-399.5404552446826
 31
0.0
  0
LINE
  5
422
330
1F
100
AcDbEntity
  8
D-0
  6
Continuous
 62
     7
370
     9
100
AcDbLine
 10
-874.9569762273194
 20
-399.5404552446826
 30
0.0
 11
-876.4572537465455
 21
-399.5404552446826
 31
0.0
  0
LINE
  5
423
330
1F
100
AcDbEntity
  8
D-0
  6
Continuous
 62
     7
370
     9
100
AcDbLine
 10
-820.696208678043
 20
-510.871803663872
 30
0.0
 11
-820.696208678043
 21
-509.3715213762744
 31
0.0
  0
LINE
  5
424
330
1F
100
AcDbEntity
  8
D-0
  6
Continuous
 62
     7
370
     9
100
AcDbLine
 10
-820.696208678043
 20
-509.3715213762744
 30
0.0
 11
-819.1959292589189
 21
-509.3715213762744
 31
0.0
  0
LINE
  5
425
330
1F
100
AcDbEntity
  8
D-0
  6
Continuous
 62
     7
370
     9
100
AcDbLine
 10
-819.1959292589189
 20
-509.3715213762744
 30
0.0
 11
-819.1959292589189
 21
-510.871803663872
 31
0.0
  0
LINE
  5
426
330
1F
100
AcDbEntity
  8
D-0
  6
Continuous
 62
     7
370
     9
100
AcDbLine
 10
-819.1959292589189
 20
-510.871803663872
 30
0.0
 11
-820.696208678043
 21
-510.871803663872
 31
0.0
  0
LINE
  5
427
330
1F
100
AcDbEntity
  8
D-0
  6
Continuous
 62
     7
370
     9
100
AcDbLine
 10
-879.9334633870484
 20
-533.4131549822314
 30
0.0
 11
-879.9334633870484
 21
-531.9128726946337
 31
0.0
  0
LINE
  5
428
330
1F
100
AcDbEntity
  8
D-0
  6
Continuous
 62
     7
370
     9
100
AcDbLine
 10
-879.9334633870484
 20
-531.9128726946337
 30
0.0
 11
-878.4336817784668
 21
-531.9128726946337
 31
0.0
  0
LINE
  5
429
330
1F
100
AcDbEntity
  8
D-0
  6
Continuous
 62
     7
370
     9
100
AcDbLine
 10
-878.4336817784668
 20
-531.9128726946337
 30
0.0
 11
-878.4336817784668
 21
-533.4131549822314
 31
0.0
  0
LINE
  5
42A
330
1F
100
AcDbEntity
  8
D-0
  6
Continuous
 62
     7
370
     9
100
AcDbLine
 10
-878.4336817784668
 20
-533.4131549822314
 30
0.0
 11
-879.9334633870484
 21
-533.4131549822314
 31
0.0
  0
LINE
  5
42B
330
1F
100
AcDbEntity
  8
D-0
  6
Continuous
 62
     7
370
     9
100
AcDbLine
 10
-868.0858147664429
 20
-606.4729808794482
 30
0.0
 11
-868.0858147664429
 21
-604.9726985918505
 31
0.0
  0
LINE
  5
42C
330
1F
100
AcDbEntity
  8
D-0
  6
Continuous
 62
     7
370
     9
100
AcDbLine
 10
-868.0858147664429
 20
-604.9726985918505
 30
0.0
 11
-866.5860331578614
 21
-604.9726985918505
 31
0.0
  0
LINE
  5
42D
330
1F
100
AcDbEntity
  8
D-0
  6
Continuous
 62
     7
370
     9
100
AcDbLine
 10
-866.5860331578614
 20
-604.9726985918505
 30
0.0
 11
-866.5860331578614
 21
-606.4729808794482
 31
0.0
  0
LINE
  5
42E
330
1F
100
AcDbEntity
  8
D-0
  6
Continuous
 62
     7
370
     9
100
AcDbLine
 10
-866.5860331578614
 20
-606.4729808794482
 30
0.0
 11
-868.0858147664429
 21
-606.4729808794482
 31
0.0
  0
LINE
  5
42F
330
1F
100
AcDbEntity
  8
D-0
  6
Continuous
 62
     7
370
     9
100
AcDbLine
 10
-916.4633858724
 20
-605.4855083452685
 30
0.0
 11
-916.4633858724
 21
-603.9852260576708
 31
0.0
  0
LINE
  5
430
330
1F
100
AcDbEntity
  8
D-0
  6
Continuous
 62
     7
370
     9
100
AcDbLine
 10
-916.4633858724
 20
-603.9852260576708
 30
0.0
 11
-914.9631035848023
 21
-603.9852260576708
 31
0.0
  0
LINE
  5
431
330
1F
100
AcDbEntity
  8
D-0
  6
Continuous
 62
     7
370
     9
100
AcDbLine
 10
-914.9631035848023
 20
-603.9852260576708
 30
0.0
 11
-914.9631035848023
 21
-605.4855083452685
 31
0.0
  0
LINE
  5
432
330
1F
100
AcDbEntity
  8
D-0
  6
Continuous
 62
     7
370
     9
100
AcDbLine
 10
-914.9631035848023
 20
-605.4855083452685
 30
0.0
 11
-916.4633858724
 21
-605.4855083452685
 31
0.0
  0
LINE
  5
433
330
1F
100
AcDbEntity
  8
D-0
  6
Continuous
 62
     7
370
     9
100
AcDbLine
 10
-903.5103428883912
 20
-724.5912670122607
 30
0.0
 11
-903.5103428883912
 21
-723.090984724663
 31
0.0
  0
LINE
  5
434
330
1F
100
AcDbEntity
  8
D-0
  6
Continuous
 62
     7
370
     9
100
AcDbLine
 10
-903.5103428883912
 20
-723.090984724663
 30
0.0
 11
-902.0105660481812
 21
-723.090984724663
 31
0.0
  0
LINE
  5
435
330
1F
100
AcDbEntity
  8
D-0
  6
Continuous
 62
     7
370
     9
100
AcDbLine
 10
-902.0105660481812
 20
-723.090984724663
 30
0.0
 11
-902.0105660481812
 21
-724.5912670122607
 31
0.0
  0
LINE
  5
436
330
1F
100
AcDbEntity
  8
D-0
  6
Continuous
 62
     7
370
     9
100
AcDbLine
 10
-902.0105660481812
 20
-724.5912670122607
 30
0.0
 11
-903.5103428883912
 21
-724.5912670122607
 31
0.0
  0
LINE
  5
437
330
1F
100
AcDbEntity
  8
D-0
  6
Continuous
 62
     7
370
     9
100
AcDbLine
 10
-852.9844224973084
 20
-754.0989040361865
 30
0.0
 11
-852.9844224973084
 21
-752.5986217485888
 31
0.0
  0
LINE
  5
438
330
1F
100
AcDbEntity
  8
D-0
  6
Continuous
 62
     7
370
     9
100
AcDbLine
 10
-852.9844224973084
 20
-752.5986217485888
 30
0.0
 11
-851.4846385045411
 21
-752.5986217485888
 31
0.0
  0
LINE
  5
439
330
1F
100
AcDbEntity
  8
D-0
  6
Continuous
 62
     7
370
     9
100
AcDbLine
 10
-851.4846385045411
 20
-752.5986217485888
 30
0.0
 11
-851.4846385045411
 21
-754.0989040361865
 31
0.0
  0
LINE
  5
43A
330
1F
100
AcDbEntity
  8
D-0
  6
Continuous
 62
     7
370
     9
100
AcDbLine
 10
-851.4846385045411
 20
-754.0989040361865
 30
0.0
 11
-852.9844224973084
 21
-754.0989040361865
 31
0.0
  0
LINE
  5
43B
330
1F
100
AcDbEntity
  8
D-0
  6
Continuous
 62
     7
370
     9
100
AcDbLine
 10
-816.7468271179558
 20
-678.3694576250537
 30
0.0
 11
-816.7468271179558
 21
-676.8692134844287
 31
0.0
  0
LINE
  5
43C
330
1F
100
AcDbEntity
  8
D-0
  6
Continuous
 62
     7
370
     9
100
AcDbLine
 10
-816.7468271179558
 20
-676.8692134844287
 30
0.0
 11
-815.2465475125672
 21
-676.8692134844287
 31
0.0
  0
LINE
  5
43D
330
1F
100
AcDbEntity
  8
D-0
  6
Continuous
 62
     7
370
     9
100
AcDbLine
 10
-815.2465475125672
 20
-676.8692134844287
 30
0.0
 11
-815.2465475125672
 21
-678.3694576250537
 31
0.0
  0
LINE
  5
43E
330
1F
100
AcDbEntity
  8
D-0
  6
Continuous
 62
     7
370
     9
100
AcDbLine
 10
-815.2465475125672
 20
-678.3694576250537
 30
0.0
 11
-816.7468271179558
 21
-678.3694576250537
 31
0.0
  0
LINE
  5
43F
330
1F
100
AcDbEntity
  8
D-0
  6
Continuous
 62
     7
370
     9
100
AcDbLine
 10
-933.77952700094
 20
-560.3061985002978
 30
0.0
 11
-933.77952700094
 21
-558.8059162127001
 31
0.0
  0
LINE
  5
440
330
1F
100
AcDbEntity
  8
D-0
  6
Continuous
 62
     7
370
     9
100
AcDbLine
 10
-933.77952700094
 20
-558.8059162127001
 30
0.0
 11
-932.2792447133423
 21
-558.8059162127001
 31
0.0
  0
LINE
  5
441
330
1F
100
AcDbEntity
  8
D-0
  6
Continuous
 62
     7
370
     9
100
AcDbLine
 10
-932.2792447133423
 20
-558.8059162127001
 30
0.0
 11
-932.2792447133423
 21
-560.3061985002978
 31
0.0
  0
LINE
  5
442
330
1F
100
AcDbEntity
  8
D-0
  6
Continuous
 62
     7
370
     9
100
AcDbLine
 10
-932.2792447133423
 20
-560.3061985002978
 30
0.0
 11
-933.77952700094
 21
-560.3061985002978
 31
0.0
  0
LINE
  5
443
330
1F
100
AcDbEntity
  8
D-0
  6
Continuous
 62
     7
370
     9
100
AcDbLine
 10
-816.8578121586205
 20
-604.0402339922412
 30
0.0
 11
-816.8578121586205
 21
-602.5399517046435
 31
0.0
  0
LINE
  5
444
330
1F
100
AcDbEntity
  8
D-0
  6
Continuous
 62
     7
370
     9
100
AcDbLine
 10
-816.8578121586205
 20
-602.5399517046435
 30
0.0
 11
-815.3575325532319
 21
-602.5399517046435
 31
0.0
  0
LINE
  5
445
330
1F
100
AcDbEntity
  8
D-0
  6
Continuous
 62
     7
370
     9
100
AcDbLine
 10
-815.3575325532319
 20
-602.5399517046435
 30
0.0
 11
-815.3575325532319
 21
-604.0402339922412
 31
0.0
  0
LINE
  5
446
330
1F
100
AcDbEntity
  8
D-0
  6
Continuous
 62
     7
370
     9
100
AcDbLine
 10
-815.3575325532319
 20
-604.0402339922412
 30
0.0
 11
-816.8578121586205
 21
-604.0402339922412
 31
0.0
  0
LINE
  5
447
330
1F
100
AcDbEntity
  8
D-0
  6
Continuous
 62
     7
370
     9
100
AcDbLine
 10
-841.5881455464722
 20
-727.3862194048388
 30
0.0
 11
-841.5881455464722
 21
-725.8859371172412
 31
0.0
  0
LINE
  5
448
330
1F
100
AcDbEntity
  8
D-0
  6
Continuous
 62
     7
370
     9
100
AcDbLine
 10
-841.5881455464722
 20
-725.8859371172412
 30
0.0
 11
-840.0878656430604
 21
-725.8859371172412
 31
0.0
  0
LINE
  5
449
330
1F
100
AcDbEntity
  8
D-0
  6
Continuous
 62
     7
370
     9
100
AcDbLine
 10
-840.0878656430604
 20
-725.8859371172412
 30
0.0
 11
-840.0878656430604
 21
-727.3862194048388
 31
0.0
  0
LINE
  5
44A
330
1F
100
AcDbEntity
  8
D-0
  6
Continuous
 62
     7
370
     9
100
AcDbLine
 10
-840.0878656430604
 20
-727.3862194048388
 30
0.0
 11
-841.5881455464722
 21
-727.3862194048388
 31
0.0
  0
LINE
  5
44B
330
1F
100
AcDbEntity
  8
D-0
  6
Continuous
 62
     7
370
     9
100
AcDbLine
 10
-809.744367055452
 20
-414.9242710100634
 30
0.0
 11
-809.744367055452
 21
-413.4239887224658
 31
0.0
  0
LINE
  5
44C
330
1F
100
AcDbEntity
  8
D-0
  6
Continuous
 62
     7
370
     9
100
AcDbLine
 10
-809.744367055452
 20
-413.4239887224658
 30
0.0
 11
-808.2440877480866
 21
-413.4239887224658
 31
0.0
  0
LINE
  5
44D
330
1F
100
AcDbEntity
  8
D-0
  6
Continuous
 62
     7
370
     9
100
AcDbLine
 10
-808.2440877480866
 20
-413.4239887224658
 30
0.0
 11
-808.2440877480866
 21
-414.9242710100634
 31
0.0
  0
LINE
  5
44E
330
1F
100
AcDbEntity
  8
D-0
  6
Continuous
 62
     7
370
     9
100
AcDbLine
 10
-808.2440877480866
 20
-414.9242710100634
 30
0.0
 11
-809.744367055452
 21
-414.9242710100634
 31
0.0
  0
LINE
  5
44F
330
1F
100
AcDbEntity
  8
D-4
  6
Continuous
 62
     7
370
     9
100
AcDbLine
 10
-643.9069951100709
 20
-402.4349903093798
 30
0.0
 11
-643.9069951100709
 21
-464.918548964165
 31
0.0
  0
LINE
  5
450
330
1F
100
AcDbEntity
  8
D-4
  6
Continuous
 62
     7
370
     9
100
AcDbLine
 10
-632.0801556630494
 20
-390.6091426836474
 30
0.0
 11
-542.333108238733
 21
-390.6091426836474
 31
0.0
  0
LINE
  5
451
330
1F
100
AcDbEntity
  8
D-4
  6
Continuous
 62
     7
370
     9
100
AcDbLine
 10
-632.0801556630494
 20
-340.6089042650683
 30
0.0
 11
-542.333108238733
 21
-340.6089042650683
 31
0.0
  0
LINE
  5
452
330
1F
100
AcDbEntity
  8
D-4
  6
Continuous
 62
     7
370
     9
100
AcDbLine
 10
-545.333653740442
 20
-340.6089042650683
 30
0.0
 11
-545.333653740442
 21
-255.6087612139208
 31
0.0
  0
LINE
  5
453
330
1F
100
AcDbEntity
  8
D-4
  6
Continuous
 62
     7
370
     9
100
AcDbLine
 10
-545.333653740442
 20
-390.6091426836474
 30
0.0
 11
-545.333653740442
 21
-340.6089042650683
 31
0.0
  0
LINE
  5
454
330
1F
100
AcDbEntity
  8
D-4
  6
Continuous
 62
     7
370
     9
100
AcDbLine
 10
-788.907426647699
 20
-461.918003462456
 30
0.0
 11
-943.9064133687378
 21
-461.918003462456
 31
0.0
  0
LINE
  5
455
330
1F
100
AcDbEntity
  8
D-9
  6
Continuous
 62
     4
370
     9
100
AcDbLine
 10
-928.9070523305298
 20
-333.1094287859423
 30
0.0
 11
-813.9072955174805
 21
-333.1094287859423
 31
0.0
  0
LINE
  5
456
330
1F
100
AcDbEntity
  8
D-1
  6
Continuous
 62
     2
370
     9
100
AcDbLine
 10
-788.9074600263001
 20
-258.6087613331301
 30
0.0
 11
-788.9074600263001
 21
-283.1086443888171
 31
0.0
  0
LINE
  5
457
330
1F
100
AcDbEntity
  8
D-1
  6
Continuous
 62
     2
370
     9
100
AcDbLine
 10
-788.9074600263001
 20
-377.6083873735888
 30
0.0
 11
-788.9074600263001
 21
-353.1085037218554
 31
0.0
  0
LINE
  5
458
330
1F
100
AcDbEntity
  8
D-1
  6
Continuous
 62
     2
370
     9
100
AcDbLine
 10
-810.9072113557221
 20
-255.6091720027007
 30
0.0
 11
-791.9069254918458
 21
-255.6091720027007
 31
0.0
  0
LINE
  5
459
330
1F
100
AcDbEntity
  8
D-1
  6
Continuous
 62
     2
370
     9
100
AcDbLine
 10
-938.9070904775025
 20
-350.6086849199755
 30
0.0
 11
-938.9070904775025
 21
-343.1087802874072
 31
0.0
  0
LINE
  5
45A
330
1F
100
AcDbEntity
  8
D-1
  6
Continuous
 62
     2
370
     9
100
AcDbLine
 10
-943.9074814839722
 20
-350.6086849199755
 30
0.0
 11
-943.9074814839722
 21
-343.1087802874072
 31
0.0
  0
LINE
  5
45B
330
1F
100
AcDbEntity
  8
D-1
  6
Continuous
 62
     2
370
     9
100
AcDbLine
 10
-808.9075261874558
 20
-375.6087039934619
 30
0.0
 11
-793.9072287602784
 21
-375.6087039934619
 31
0.0
  0
LINE
  5
45C
330
1F
100
AcDbEntity
  8
D-1
  6
Continuous
 62
     2
370
     9
100
AcDbLine
 10
-808.90727882818
 20
-380.6089614855273
 30
0.0
 11
-791.9069254918458
 21
-380.6089614855273
 31
0.0
  0
LINE
  5
45D
330
1F
100
AcDbEntity
  8
D-1
  6
Continuous
 62
     2
370
     9
100
AcDbLine
 10
-813.9072955174805
 20
-345.6084178911669
 30
0.0
 11
-813.9072955174805
 21
-258.6087613331301
 31
0.0
  0
LINE
  5
45E
330
1F
100
AcDbEntity
  8
D-1
  6
Continuous
 62
     2
370
     9
100
AcDbLine
 10
-813.9072955174805
 20
-345.6084178911669
 30
0.0
 11
-863.9069664998414
 21
-345.6084178911669
 31
0.0
  0
LINE
  5
45F
330
1F
100
AcDbEntity
  8
D-1
  6
Continuous
 62
     2
370
     9
100
AcDbLine
 10
-938.9070904775025
 20
-355.608942412041
 30
0.0
 11
-813.9072955174805
 21
-355.608942412041
 31
0.0
  0
LINE
  5
460
330
1F
100
AcDbEntity
  8
D-1
  6
Continuous
 62
     2
370
     9
100
AcDbLine
 10
-813.9072955174805
 20
-375.6089519487841
 30
0.0
 11
-813.9072955174805
 21
-355.608942412041
 31
0.0
  0
LINE
  5
461
330
1F
100
AcDbEntity
  8
D-1
  6
Continuous
 62
     2
370
     9
100
AcDbLine
 10
-808.9075261874558
 20
-355.6086944567187
 30
0.0
 11
-808.9075261874558
 21
-375.6087039934619
 31
0.0
  0
LINE
  5
462
330
1F
100
AcDbEntity
  8
D-1
  6
Continuous
 62
     2
370
     9
100
AcDbLine
 10
-813.9075428767563
 20
-350.6086849199755
 30
0.0
 11
-938.9070904775025
 21
-350.6086849199755
 31
0.0
  0
LINE
  5
463
330
1F
100
AcDbEntity
  8
D-1
  6
Continuous
 62
     2
370
     9
100
AcDbLine
 10
-808.9075261874558
 20
-345.6086658464892
 30
0.0
 11
-808.9075261874558
 21
-260.6084462033732
 31
0.0
  0
LINE
  5
464
330
1F
100
AcDbEntity
  8
D-9
  6
Continuous
 62
     4
370
     9
100
AcDbLine
 10
-813.9072955174805
 20
-338.6998390184863
 30
0.0
 11
-820.8158772213818
 21
-345.6084178911669
 31
0.0
  0
LINE
  5
465
330
1F
100
AcDbEntity
  8
D-9
  6
Continuous
 62
     4
370
     9
100
AcDbLine
 10
-815.387232951677
 20
-333.1094287859423
 30
0.0
 11
-827.8864080233933
 21
-345.6084178911669
 31
0.0
  0
LINE
  5
466
330
1F
100
AcDbEntity
  8
D-9
  6
Continuous
 62
     4
370
     9
100
AcDbLine
 10
-822.4585682673813
 20
-333.1094287859423
 30
0.0
 11
-834.9577439351441
 21
-345.6084178911669
 31
0.0
  0
LINE
  5
467
330
1F
100
AcDbEntity
  8
D-9
  6
Continuous
 62
     4
370
     9
100
AcDbLine
 10
-829.5294082684876
 20
-333.1094287859423
 30
0.0
 11
-842.0285833402039
 21
-345.6084178911669
 31
0.0
  0
LINE
  5
468
330
1F
100
AcDbEntity
  8
D-9
  6
Continuous
 62
     4
370
     9
100
AcDbLine
 10
-836.600743584192
 20
-333.1094287859423
 30
0.0
 11
-849.0999186559083
 21
-345.6084178911669
 31
0.0
  0
LINE
  5
469
330
1F
100
AcDbEntity
  8
D-9
  6
Continuous
 62
     4
370
     9
100
AcDbLine
 10
-843.6715853734376
 20
-333.1094287859423
 30
0.0
 11
-856.1709440274598
 21
-345.6084178911669
 31
0.0
  0
LINE
  5
46A
330
1F
100
AcDbEntity
  8
D-9
  6
Continuous
 62
     4
370
     9
100
AcDbLine
 10
-850.7429206891419
 20
-333.1094287859423
 30
0.0
 11
-863.2422793431641
 21
-345.6084178911669
 31
0.0
  0
LINE
  5
46B
330
1F
100
AcDbEntity
  8
D-9
  6
Continuous
 62
     4
370
     9
100
AcDbLine
 10
-886.0986054463746
 20
-333.1094287859423
 30
0.0
 11
-891.0976946874024
 21
-338.1085132585986
 31
0.0
  0
LINE
  5
46C
330
1F
100
AcDbEntity
  8
D-9
  6
Continuous
 62
     4
370
     9
100
AcDbLine
 10
-893.1694472356202
 20
-333.1094287859423
 30
0.0
 11
-898.1685984654786
 21
-338.1085132585986
 31
0.0
  0
LINE
  5
46D
330
1F
100
AcDbEntity
  8
D-9
  6
Continuous
 62
     4
370
     9
100
AcDbLine
 10
-928.5251343770386
 20
-333.1094287859423
 30
0.0
 11
-933.5245907826783
 21
-338.1085132585986
 31
0.0
  0
LINE
  5
46E
330
1F
100
AcDbEntity
  8
D-9
  6
Continuous
 62
     4
370
     9
100
AcDbLine
 10
-879.027272514856
 20
-333.1094287859423
 30
0.0
 11
-884.0265381856324
 21
-338.1085132585986
 31
0.0
  0
LINE
  5
46F
330
1F
100
AcDbEntity
  8
D-9
  6
Continuous
 62
     4
370
     9
100
AcDbLine
 10
-864.8850930257203
 20
-333.1094287859423
 30
0.0
 11
-869.8842871709229
 21
-338.1085132585986
 31
0.0
  0
LINE
  5
470
330
1F
100
AcDbEntity
  8
D-9
  6
Continuous
 62
     4
370
     9
100
AcDbLine
 10
-871.9564307256104
 20
-333.1094287859423
 30
0.0
 11
-876.9556057973267
 21
-338.1085132585986
 31
0.0
  0
LINE
  5
471
330
1F
100
AcDbEntity
  8
D-9
  6
Continuous
 62
     4
370
     9
100
AcDbLine
 10
-900.2407849355103
 20
-333.1094287859423
 30
0.0
 11
-905.2398694081666
 21
-338.1085132585986
 31
0.0
  0
LINE
  5
472
330
1F
100
AcDbEntity
  8
D-9
  6
Continuous
 62
     4
370
     9
100
AcDbLine
 10
-907.3116219563843
 20
-333.1094287859423
 30
0.0
 11
-912.3108017964722
 21
-338.1085132585986
 31
0.0
  0
LINE
  5
473
330
1F
100
AcDbEntity
  8
D-9
  6
Continuous
 62
     4
370
     9
100
AcDbLine
 10
-914.3824589772584
 20
-333.1094287859423
 30
0.0
 11
-919.3816674275757
 21
-338.1085132585986
 31
0.0
  0
LINE
  5
474
330
1F
100
AcDbEntity
  8
D-9
  6
Continuous
 62
     4
370
     9
100
AcDbLine
 10
-921.4538014455201
 20
-333.1094287859423
 30
0.0
 11
-926.4530671162964
 21
-338.1085132585986
 31
0.0
  0
LINE
  5
475
330
1F
100
AcDbEntity
  8
D-1
  6
Continuous
 62
     2
370
     9
100
AcDbLine
 10
-868.9072955174805
 20
-343.1087802874072
 30
0.0
 11
-938.9070904775025
 21
-343.1087802874072
 31
0.0
  0
LINE
  5
476
330
1F
100
AcDbEntity
  8
D-1
  6
Continuous
 62
     2
370
     9
100
AcDbLine
 10
-868.9072955174805
 20
-345.6086849199755
 30
0.0
 11
-868.9072955174805
 21
-343.1087802874072
 31
0.0
  0
LINE
  5
477
330
1F
100
AcDbEntity
  8
D-1
  6
Continuous
 62
     2
370
     9
100
AcDbLine
 10
-868.9072955174805
 20
-338.1085132585986
 30
0.0
 11
-938.9070904775025
 21
-338.1085132585986
 31
0.0
  0
LINE
  5
478
330
1F
100
AcDbEntity
  8
D-1
  6
Continuous
 62
     2
370
     9
100
AcDbLine
 10
-863.9072955174805
 20
-343.1085132585986
 30
0.0
 11
-863.9072955174805
 21
-345.6084178911669
 31
0.0
  0
LINE
  5
479
330
1F
100
AcDbEntity
  8
D-9
  6
Continuous
 62
     4
370
     9
100
AcDbLine
 10
-857.8142560048462
 20
-333.1094287859423
 30
0.0
 11
-864.8673546834351
 21
-340.1625274645312
 31
0.0
  0
LINE
  5
47A
330
1F
100
AcDbEntity
  8
D-3
  6
Continuous
 62
     3
370
     9
100
AcDbLine
 10
-805.4072428269745
 20
-260.6084462033732
 30
0.0
 11
-805.4072428269745
 21
-373.1084465013964
 31
0.0
  0
LINE
  5
47B
330
1F
100
AcDbEntity
  8
D-3
  6
Continuous
 62
     3
370
     9
100
AcDbLine
 10
-643.9073575063111
 20
-350.6083702074511
 30
0.0
 11
-643.9073575063111
 21
-390.6083797441943
 31
0.0
  0
LINE
  5
47C
330
1F
100
AcDbEntity
  8
D-3
  6
Continuous
 62
     3
370
     9
100
AcDbLine
 10
-768.9072716756226
 20
-372.4281143175585
 30
0.0
 11
-768.9072716756226
 21
-390.6083797441943
 31
0.0
  0
LINE
  5
47D
330
1F
100
AcDbEntity
  8
D-3
  6
Continuous
 62
     3
370
     9
100
AcDbLine
 10
-771.8362153096558
 20
-365.3570198046191
 30
0.0
 11
-793.9072287602784
 21
-343.2860111223681
 31
0.0
  0
LINE
  5
47E
330
1F
100
AcDbEntity
  8
D-3
  6
JWW_CENTER1
 62
     3
370
     9
100
AcDbLine
 10
-743.9688027425171
 20
-312.1083425508959
 30
0.0
 11
-812.6397848649384
 21
-312.1083425508959
 31
0.0
  0
LINE
  5
47F
330
1F
100
AcDbEntity
  8
D-3
  6
Continuous
 62
     3
370
     9
100
AcDbLine
 10
-751.2296736760499
 20
-333.285977743767
 30
0.0
 11
-754.4070494695069
 21
-330.10860195031
 31
0.0
  0
LINE
  5
480
330
1F
100
AcDbEntity
  8
D-3
  6
Continuous
 62
     3
370
     9
100
AcDbLine
 10
-782.4077117963196
 20
-302.1078180300219
 30
0.0
 11
-793.9072287602784
 21
-290.6082986818774
 31
0.0
  0
LINE
  5
481
330
1F
100
AcDbEntity
  8
D-A
  6
Continuous
 62
     7
370
     9
100
AcDbLine
 10
-807.6579559369446
 20
-322.1078800188525
 30
0.0
 11
-807.6579559369446
 21
-302.1078180300219
 31
0.0
  0
LINE
  5
482
330
1F
100
AcDbEntity
  8
D-A
  6
Continuous
 62
     7
370
     9
100
AcDbLine
 10
-807.6579559369446
 20
-302.1078180300219
 30
0.0
 11
-808.9075261874558
 21
-303.3578800188525
 31
0.0
  0
LINE
  5
483
330
1F
100
AcDbEntity
  8
D-A
  6
Continuous
 62
     7
370
     9
100
AcDbLine
 10
-807.6579559369446
 20
-322.1078800188525
 30
0.0
 11
-808.9075261874558
 21
-320.8583091722949
 31
0.0
  0
LINE
  5
484
330
1F
100
AcDbEntity
  8
D-A
  6
Continuous
 62
     7
370
     9
100
AcDbLine
 10
-745.9074938817383
 20
-323.6086057650073
 30
0.0
 11
-745.9074938817383
 21
-300.6080841051562
 31
0.0
  0
LINE
  5
485
330
1F
100
AcDbEntity
  8
D-A
  6
Continuous
 62
     7
370
     9
100
AcDbLine
 10
-752.4074900670411
 20
-330.10860195031
 30
0.0
 11
-758.9074862523438
 21
-330.10860195031
 31
0.0
  0
LINE
  5
486
330
1F
100
AcDbEntity
  8
D-A
  6
Continuous
 62
     7
370
     9
100
AcDbLine
 10
-752.4074900670411
 20
-294.1080855356677
 30
0.0
 11
-758.9074862523438
 21
-294.1080855356677
 31
0.0
  0
LINE
  5
487
330
1F
100
AcDbEntity
  8
D-A
  6
Continuous
 62
     7
370
     9
100
AcDbLine
 10
-758.9074862523438
 20
-294.1080855356677
 30
0.0
 11
-758.9074862523438
 21
-330.10860195031
 31
0.0
  0
LINE
  5
488
330
1F
100
AcDbEntity
  8
D-A
  6
Continuous
 62
     7
370
     9
100
AcDbLine
 10
-758.9074862523438
 20
-302.1078180300219
 30
0.0
 11
-793.9072287602784
 21
-302.1078180300219
 31
0.0
  0
LINE
  5
489
330
1F
100
AcDbEntity
  8
D-A
  6
Continuous
 62
     7
370
     9
100
AcDbLine
 10
-758.9074862523438
 20
-303.3578800188525
 30
0.0
 11
-793.9072287602784
 21
-303.3578800188525
 31
0.0
  0
LINE
  5
48A
330
1F
100
AcDbEntity
  8
D-A
  6
Continuous
 62
     7
370
     9
100
AcDbLine
 10
-758.9074862523438
 20
-320.8583091722949
 30
0.0
 11
-793.9072287602784
 21
-320.8583091722949
 31
0.0
  0
LINE
  5
48B
330
1F
100
AcDbEntity
  8
D-A
  6
Continuous
 62
     7
370
     9
100
AcDbLine
 10
-758.9074862523438
 20
-322.1078800188525
 30
0.0
 11
-793.9072287602784
 21
-322.1078800188525
 31
0.0
  0
LINE
  5
48C
330
1F
100
AcDbEntity
  8
D-A
  6
Continuous
 62
     7
370
     9
100
AcDbLine
 10
-805.4072428269745
 20
-320.8583091722949
 30
0.0
 11
-808.9075261874558
 21
-320.8583091722949
 31
0.0
  0
LINE
  5
48D
330
1F
100
AcDbEntity
  8
D-A
  6
Continuous
 62
     7
370
     9
100
AcDbLine
 10
-805.4072428269745
 20
-322.1078800188525
 30
0.0
 11
-807.6579559369446
 21
-322.1078800188525
 31
0.0
  0
LINE
  5
48E
330
1F
100
AcDbEntity
  8
D-A
  6
Continuous
 62
     7
370
     9
100
AcDbLine
 10
-805.4072428269745
 20
-303.3578800188525
 30
0.0
 11
-808.9075261874558
 21
-303.3578800188525
 31
0.0
  0
LINE
  5
48F
330
1F
100
AcDbEntity
  8
D-A
  6
Continuous
 62
     7
370
     9
100
AcDbLine
 10
-805.4072428269745
 20
-302.1078180300219
 30
0.0
 11
-807.6579559369446
 21
-302.1078180300219
 31
0.0
  0
LINE
  5
490
330
1F
100
AcDbEntity
  8
D-3
  6
JWW_DASHED2
 62
     3
370
     9
100
AcDbLine
 10
-768.9072716756226
 20
-379.1083644854052
 30
0.0
 11
-643.9073575063111
 21
-379.1083644854052
 31
0.0
  0
LINE
  5
491
330
1F
100
AcDbEntity
  8
D-3
  6
Continuous
 62
     3
370
     9
100
AcDbLine
 10
-653.9072621388794
 20
-340.6084655748828
 30
0.0
 11
-733.551951698816
 21
-340.6084655748828
 31
0.0
  0
LINE
  5
492
330
1F
100
AcDbEntity
  8
D-3
  6
Continuous
 62
     3
370
     9
100
AcDbLine
 10
-768.9072716756226
 20
-390.6083797441943
 30
0.0
 11
-643.9073575063111
 21
-390.6083797441943
 31
0.0
  0
LINE
  5
493
330
1F
100
AcDbEntity
  8
D-1
  6
Continuous
 62
     2
370
     9
100
AcDbLine
 10
-808.9075261874558
 20
-260.6084462033732
 30
0.0
 11
-793.9072287602784
 21
-260.6084462033732
 31
0.0
  0
LINE
  5
494
330
1F
100
AcDbEntity
  8
D-1
  6
Continuous
 62
     2
370
     9
100
AcDbLine
 10
-788.9074600263001
 20
-283.1086443888171
 30
0.0
 11
-793.9072287602784
 21
-283.1086443888171
 31
0.0
  0
LINE
  5
495
330
1F
100
AcDbEntity
  8
D-1
  6
Continuous
 62
     2
370
     9
100
AcDbLine
 10
-793.9072287602784
 20
-283.1086443888171
 30
0.0
 11
-793.9072287602784
 21
-260.6084462033732
 31
0.0
  0
LINE
  5
496
330
1F
100
AcDbEntity
  8
D-3
  6
Continuous
 62
     3
370
     9
100
AcDbLine
 10
-805.4072428269745
 20
-260.6084462033732
 30
0.0
 11
-793.9072287602784
 21
-260.6084462033732
 31
0.0
  0
LINE
  5
497
330
1F
100
AcDbEntity
  8
D-1
  6
Continuous
 62
     2
370
     9
100
AcDbLine
 10
-788.9074600263001
 20
-353.1085037218554
 30
0.0
 11
-793.9072287602784
 21
-353.1085037218554
 31
0.0
  0
LINE
  5
498
330
1F
100
AcDbEntity
  8
D-1
  6
Continuous
 62
     2
370
     9
100
AcDbLine
 10
-793.9072287602784
 20
-375.6087039934619
 30
0.0
 11
-793.9072287602784
 21
-353.1085037218554
 31
0.0
  0
LINE
  5
499
330
1F
100
AcDbEntity
  8
D-3
  6
Continuous
 62
     3
370
     9
100
AcDbLine
 10
-805.4072428269745
 20
-373.1084465013964
 30
0.0
 11
-793.9072287602784
 21
-373.1084465013964
 31
0.0
  0
LINE
  5
49A
330
1F
100
AcDbEntity
  8
D-3
  6
Continuous
 62
     3
370
     9
100
AcDbLine
 10
-793.9072287602784
 20
-260.6084462033732
 30
0.0
 11
-793.9072287602784
 21
-373.1084465013964
 31
0.0
  0
LINE
  5
49B
330
1F
100
AcDbEntity
  8
D-6
  6
Continuous
 62
     6
370
     9
100
AcDbLine
 10
-791.9069254918458
 20
-255.6087612139208
 30
0.0
 11
-378.9055455251099
 21
-255.6087612139208
 31
0.0
  0
LINE
  5
49C
330
1F
100
AcDbEntity
  8
D-6
  6
Continuous
 62
     6
370
     9
100
AcDbLine
 10
-943.9064133687378
 20
-350.6086849199755
 30
0.0
 11
-943.9064133687378
 21
-755.6081127153857
 31
0.0
  0
LINE
  5
49D
330
1F
100
AcDbEntity
  8
D-4
  6
Continuous
 62
     7
370
     9
100
AcDbLine
 10
-860.7612908406617
 20
-380.6085990892871
 30
0.0
 11
-1092.389489464319
 21
-380.6085990892871
 31
0.0
  0
ARC
  5
49E
330
1F
100
AcDbEntity
  8
D-9
  6
Continuous
 62
     4
370
     9
100
AcDbCircle
 10
-928.9070523305298
 20
-338.1087039934619
 30
0.0
 40
5.0
100
AcDbArc
 50
90.0
 51
180.0
  0
ARC
  5
49F
330
1F
100
AcDbEntity
  8
D-1
  6
Continuous
 62
     2
370
     9
100
AcDbCircle
 10
-938.9070904775025
 20
-343.1087802874072
 30
0.0
 40
5.0
100
AcDbArc
 50
90.0
 51
180.0
  0
ARC
  5
4A0
330
1F
100
AcDbEntity
  8
D-1
  6
Continuous
 62
     2
370
     9
100
AcDbCircle
 10
-791.9069254918458
 20
-258.6087613331301
 30
0.0
 40
3.00000011920929
100
AcDbArc
 50
0.0
 51
90.0
  0
ARC
  5
4A1
330
1F
100
AcDbEntity
  8
D-1
  6
Continuous
 62
     2
370
     9
100
AcDbCircle
 10
-810.9072113557221
 20
-258.6087613331301
 30
0.0
 40
3.00000011920929
100
AcDbArc
 50
90.0
 51
180.0
  0
ARC
  5
4A2
330
1F
100
AcDbEntity
  8
D-1
  6
Continuous
 62
     2
370
     9
100
AcDbCircle
 10
-791.9069254918458
 20
-377.6083873735888
 30
0.0
 40
3.00000011920929
100
AcDbArc
 50
270.0
 51
0.0
  0
ARC
  5
4A3
330
1F
100
AcDbEntity
  8
D-1
  6
Continuous
 62
     2
370
     9
100
AcDbCircle
 10
-938.9070904775025
 20
-350.6086849199755
 30
0.0
 40
5.0
100
AcDbArc
 50
180.0
 51
270.0
  0
ARC
  5
4A4
330
1F
100
AcDbEntity
  8
D-1
  6
Continuous
 62
     2
370
     9
100
AcDbCircle
 10
-808.90727882818
 20
-375.6089519487841
 30
0.0
 40
5.0
100
AcDbArc
 50
180.0
 51
270.0
  0
ARC
  5
4A5
330
1F
100
AcDbEntity
  8
D-1
  6
Continuous
 62
     2
370
     9
100
AcDbCircle
 10
-813.9075428767563
 20
-355.6086944567187
 30
0.0
 40
5.0
100
AcDbArc
 50
0.0
 51
90.0
  0
ARC
  5
4A6
330
1F
100
AcDbEntity
  8
D-1
  6
Continuous
 62
     2
370
     9
100
AcDbCircle
 10
-813.9075428767563
 20
-345.6086658464892
 30
0.0
 40
5.0
100
AcDbArc
 50
270.0
 51
0.0
  0
ARC
  5
4A7
330
1F
100
AcDbEntity
  8
D-1
  6
Continuous
 62
     2
370
     9
100
AcDbCircle
 10
-863.9072955174805
 20
-345.6086849199755
 30
0.0
 40
5.0
100
AcDbArc
 50
180.0
 51
270.0
  0
ARC
  5
4A8
330
1F
100
AcDbEntity
  8
D-1
  6
Continuous
 62
     2
370
     9
100
AcDbCircle
 10
-868.9072955174805
 20
-343.1085132585986
 30
0.0
 40
5.0
100
AcDbArc
 50
0.0
 51
90.0
  0
ARC
  5
4A9
330
1F
100
AcDbEntity
  8
D-3
  6
Continuous
 62
     3
370
     9
100
AcDbCircle
 10
-733.551951698816
 20
-315.6083797441943
 30
0.0
 40
25.0
100
AcDbArc
 50
225.0
 51
270.0
  0
ARC
  5
4AA
330
1F
100
AcDbEntity
  8
D-3
  6
Continuous
 62
     3
370
     9
100
AcDbCircle
 10
-653.9072621388794
 20
-350.6083702074511
 30
0.0
 40
10.0
100
AcDbArc
 50
0.0
 51
90.0
  0
ARC
  5
4AB
330
1F
100
AcDbEntity
  8
D-3
  6
Continuous
 62
     3
370
     9
100
AcDbCircle
 10
-778.9073026700379
 20
-372.4281143175585
 30
0.0
 40
10.0
100
AcDbArc
 50
0.0
 51
45.000244140625
  0
ARC
  5
4AC
330
1F
100
AcDbEntity
  8
D-A
  6
Continuous
 62
     7
370
     9
100
AcDbCircle
 10
-752.4074900670411
 20
-300.6080841051562
 30
0.0
 40
6.499999761581421
100
AcDbArc
 50
0.0
 51
90.0
  0
ARC
  5
4AD
330
1F
100
AcDbEntity
  8
D-A
  6
Continuous
 62
     7
370
     9
100
AcDbCircle
 10
-752.4074900670411
 20
-323.6086057650073
 30
0.0
 40
6.499999761581421
100
AcDbArc
 50
270.0
 51
0.0
  0
LWPOLYLINE
  5
4AE
330
1F
100
AcDbEntity
  8
D-4
  6
Continuous
 62
     7
370
     9
100
AcDbPolyline
 90
        4
 70
     1
 43
1.0
 10
-788.407426647699
 20
84.75847969184088
 42
0.4142135623731
 10
-788.907426647699
 20
85.25847969184088
 42
0.4142135623731
 10
-789.407426647699
 20
84.75847969184088
 42
0.4142135623731
 10
-788.907426647699
 20
84.25847969184088
 42
0.4142135623731
  0
LWPOLYLINE
  5
4AF
330
1F
100
AcDbEntity
  8
D-4
  6
Continuous
 62
     7
370
     9
100
AcDbPolyline
 90
        4
 70
     1
 43
1.0
 10
-943.4064133687378
 20
-134.6896099077685
 42
0.4142135623731
 10
-943.9064133687378
 20
-134.1896099077685
 42
0.4142135623731
 10
-944.4064133687378
 20
-134.6896099077685
 42
0.4142135623731
 10
-943.9064133687378
 20
-135.1896099077685
 42
0.4142135623731
  0
LWPOLYLINE
  5
4B0
330
1F
100
AcDbEntity
  8
D-4
  6
Continuous
 62
     7
370
     9
100
AcDbPolyline
 90
        4
 70
     1
 43
1.0
 10
-818.4065754933716
 20
-134.6896099077685
 42
0.4142135623731
 10
-818.9065754933716
 20
-134.1896099077685
 42
0.4142135623731
 10
-819.4065754933716
 20
-134.6896099077685
 42
0.4142135623731
 10
-818.9065754933716
 20
-135.1896099077685
 42
0.4142135623731
  0
LWPOLYLINE
  5
4B1
330
1F
100
AcDbEntity
  8
D-4
  6
Continuous
 62
     7
370
     9
100
AcDbPolyline
 90
        4
 70
     1
 43
1.0
 10
-818.4065754933716
 20
-25.93718757500483
 42
0.4142135623731
 10
-818.9065754933716
 20
-25.43718757500483
 42
0.4142135623731
 10
-819.4065754933716
 20
-25.93718757500483
 42
0.4142135623731
 10
-818.9065754933716
 20
-26.43718757500483
 42
0.4142135623731
  0
LWPOLYLINE
  5
4B2
330
1F
100
AcDbEntity
  8
D-4
  6
Continuous
 62
     7
370
     9
100
AcDbPolyline
 90
        4
 70
     1
 43
1.0
 10
-813.4063048882844
 20
-25.93718757500483
 42
0.4142135623731
 10
-813.9063048882844
 20
-25.43718757500483
 42
0.4142135623731
 10
-814.4063048882844
 20
-25.93718757500483
 42
0.4142135623731
 10
-813.9063048882844
 20
-26.43718757500483
 42
0.4142135623731
  0
LWPOLYLINE
  5
4B3
330
1F
100
AcDbEntity
  8
D-4
  6
Continuous
 62
     7
370
     9
100
AcDbPolyline
 90
        4
 70
     1
 43
1.0
 10
-788.407426647699
 20
-25.93718757500483
 42
0.4142135623731
 10
-788.907426647699
 20
-25.43718757500483
 42
0.4142135623731
 10
-789.407426647699
 20
-25.93718757500483
 42
0.4142135623731
 10
-788.907426647699
 20
-26.43718757500483
 42
0.4142135623731
  0
LWPOLYLINE
  5
4B4
330
1F
100
AcDbEntity
  8
D-4
  6
Continuous
 62
     7
370
     9
100
AcDbPolyline
 90
        4
 70
     1
 43
1.0
 10
-1088.888924889124
 20
-380.6085990892871
 42
0.4142135623731
 10
-1089.388924889124
 20
-380.1085990892871
 42
0.4142135623731
 10
-1089.888924889123
 20
-380.6085990892871
 42
0.4142135623731
 10
-1089.388924889124
 20
-381.1085990892871
 42
0.4142135623731
  0
LWPOLYLINE
  5
4B5
330
1F
100
AcDbEntity
  8
D-4
  6
Continuous
 62
     7
370
     9
100
AcDbPolyline
 90
        4
 70
     1
 43
1.0
 10
-1088.888924889124
 20
-255.6087612139208
 42
0.4142135623731
 10
-1089.388924889124
 20
-255.1087612139208
 42
0.4142135623731
 10
-1089.888924889123
 20
-255.6087612139208
 42
0.4142135623731
 10
-1089.388924889124
 20
-256.1087612139208
 42
0.4142135623731
  0
LWPOLYLINE
  5
4B6
330
1F
100
AcDbEntity
  8
D-4
  6
Continuous
 62
     7
370
     9
100
AcDbPolyline
 90
        4
 70
     1
 43
1.0
 10
-788.407426647699
 20
-461.918003462456
 42
0.4142135623731
 10
-788.907426647699
 20
-461.418003462456
 42
0.4142135623731
 10
-789.407426647699
 20
-461.918003462456
 42
0.4142135623731
 10
-788.907426647699
 20
-462.418003462456
 42
0.4142135623731
  0
LWPOLYLINE
  5
4B7
330
1F
100
AcDbEntity
  8
D-4
  6
Continuous
 62
     7
370
     9
100
AcDbPolyline
 90
        4
 70
     1
 43
1.0
 10
-643.4069951100709
 20
-461.918003462456
 42
0.4142135623731
 10
-643.9069951100709
 20
-461.418003462456
 42
0.4142135623731
 10
-644.4069951100709
 20
-461.918003462456
 42
0.4142135623731
 10
-643.9069951100709
 20
-462.418003462456
 42
0.4142135623731
  0
LWPOLYLINE
  5
4B8
330
1F
100
AcDbEntity
  8
D-4
  6
Continuous
 62
     7
370
     9
100
AcDbPolyline
 90
        4
 70
     1
 43
1.0
 10
-943.4064133687378
 20
-661.2272380815966
 42
0.4142135623731
 10
-943.9064133687378
 20
-660.7272380815966
 42
0.4142135623731
 10
-944.4064133687378
 20
-661.2272380815966
 42
0.4142135623731
 10
-943.9064133687378
 20
-661.7272380815966
 42
0.4142135623731
  0
LWPOLYLINE
  5
4B9
330
1F
100
AcDbEntity
  8
D-4
  6
Continuous
 62
     7
370
     9
100
AcDbPolyline
 90
        4
 70
     1
 43
1.0
 10
-793.4072025342347
 20
-661.2272380815966
 42
0.4142135623731
 10
-793.9072025342347
 20
-660.7272380815966
 42
0.4142135623731
 10
-794.4072025342347
 20
-661.2272380815966
 42
0.4142135623731
 10
-793.9072025342347
 20
-661.7272380815966
 42
0.4142135623731
  0
LWPOLYLINE
  5
4BA
330
1F
100
AcDbEntity
  8
D-4
  6
Continuous
 62
     7
370
     9
100
AcDbPolyline
 90
        4
 70
     1
 43
1.0
 10
-271.7212040944459
 20
-255.6087612139208
 42
0.4142135623731
 10
-272.2212040944459
 20
-255.1087612139208
 42
0.4142135623731
 10
-272.7212040944459
 20
-255.6087612139208
 42
0.4142135623731
 10
-272.2212040944459
 20
-256.1087612139208
 42
0.4142135623731
  0
LWPOLYLINE
  5
4BB
330
1F
100
AcDbEntity
  8
D-4
  6
Continuous
 62
     7
370
     9
100
AcDbPolyline
 90
        4
 70
     1
 43
1.0
 10
-271.7212040944459
 20
-505.6084369646533
 42
0.4142135623731
 10
-272.2212040944459
 20
-505.1084369646533
 42
0.4142135623731
 10
-272.7212040944459
 20
-505.6084369646533
 42
0.4142135623731
 10
-272.2212040944459
 20
-506.1084369646533
 42
0.4142135623731
  0
LWPOLYLINE
  5
4BC
330
1F
100
AcDbEntity
  8
D-4
  6
Continuous
 62
     7
370
     9
100
AcDbPolyline
 90
        4
 70
     1
 43
1.0
 10
-544.833653740442
 20
-255.6087612139208
 42
0.4142135623731
 10
-545.333653740442
 20
-255.1087612139208
 42
0.4142135623731
 10
-545.833653740442
 20
-255.6087612139208
 42
0.4142135623731
 10
-545.333653740442
 20
-256.1087612139208
 42
0.4142135623731
  0
LWPOLYLINE
  5
4BD
330
1F
100
AcDbEntity
  8
D-4
  6
Continuous
 62
     7
370
     9
100
AcDbPolyline
 90
        4
 70
     1
 43
1.0
 10
-544.833653740442
 20
-340.6089042650683
 42
0.4142135623731
 10
-545.333653740442
 20
-340.1089042650683
 42
0.4142135623731
 10
-545.833653740442
 20
-340.6089042650683
 42
0.4142135623731
 10
-545.333653740442
 20
-341.1089042650683
 42
0.4142135623731
  0
LWPOLYLINE
  5
4BE
330
1F
100
AcDbEntity
  8
D-4
  6
Continuous
 62
     7
370
     9
100
AcDbPolyline
 90
        4
 70
     1
 43
1.0
 10
-544.833653740442
 20
-390.6091426836474
 42
0.4142135623731
 10
-545.333653740442
 20
-390.1091426836474
 42
0.4142135623731
 10
-545.833653740442
 20
-390.6091426836474
 42
0.4142135623731
 10
-545.333653740442
 20
-391.1091426836474
 42
0.4142135623731
  0
LWPOLYLINE
  5
4BF
330
1F
100
AcDbEntity
  8
D-4
  6
Continuous
 62
     7
370
     9
100
AcDbPolyline
 90
        4
 70
     1
 43
1.0
 10
-788.407426647699
 20
-461.918003462456
 42
0.4142135623731
 10
-788.907426647699
 20
-461.418003462456
 42
0.4142135623731
 10
-789.407426647699
 20
-461.918003462456
 42
0.4142135623731
 10
-788.907426647699
 20
-462.418003462456
 42
0.4142135623731
  0
LWPOLYLINE
  5
4C0
330
1F
100
AcDbEntity
  8
D-4
  6
Continuous
 62
     7
370
     9
100
AcDbPolyline
 90
        4
 70
     1
 43
1.0
 10
-943.4064133687378
 20
-461.918003462456
 42
0.4142135623731
 10
-943.9064133687378
 20
-461.418003462456
 42
0.4142135623731
 10
-944.4064133687378
 20
-461.918003462456
 42
0.4142135623731
 10
-943.9064133687378
 20
-462.418003462456
 42
0.4142135623731
  0
TEXT
  5
4C1
330
1F
100
AcDbEntity
  8
D-4
  6
Continuous
 62
     2
370
     9
100
AcDbText
 10
-902.6556599660279
 20
-124.0493333422167
 30
0.0
 40
30.48
  1
25
 41
1.0625
  7
ＭＳ ゴシック
100
AcDbText
  0
TEXT
  5
4C2
330
1F
100
AcDbEntity
  8
D-4
  6
Continuous
 62
     2
370
     9
100
AcDbText
 10
-935.1564324422242
 20
-650.5879628740771
 30
0.0
 40
30.48
  1
25～30
 41
1.104166666666667
  7
ＭＳ ゴシック
100
AcDbText
  0
TEXT
  5
4C3
330
1F
100
AcDbEntity
  8
D-4
  6
Continuous
 62
     2
370
     9
100
AcDbText
 10
-282.8604793019654
 20
-446.8587233134804
 30
0.0
 40
30.48
  1
40～50
 50
90.00000250447816
 41
1.104166666666666
  7
ＭＳ ゴシック
100
AcDbText
  0
TEXT
  5
4C4
330
1F
100
AcDbEntity
  8
D-4
  6
Continuous
 62
     2
370
     9
100
AcDbText
 10
-753.3234217754342
 20
-451.2787091818341
 30
0.0
 40
30.48
  1
29
 50
0.0006685549992706
 41
1.062499999999998
  7
ＭＳ ゴシック
100
AcDbText
  0
TEXT
  5
4C5
330
1F
100
AcDbEntity
  8
D-4
  6
Continuous
 62
     2
370
     9
100
AcDbText
 10
-555.9739398427369
 20
-386.8584372111855
 30
0.0
 40
30.48
  1
10
 50
90.00000250447819
 41
1.062500000000001
  7
ＭＳ ゴシック
100
AcDbText
  0
TEXT
  5
4C6
330
1F
100
AcDbEntity
  8
D-4
  6
Continuous
 62
     2
370
     9
100
AcDbText
 10
-555.9739398427369
 20
-319.3587471553383
 30
0.0
 40
30.48
  1
17
 50
90.00000250447819
 41
1.0625
  7
ＭＳ ゴシック
100
AcDbText
  0
TEXT
  5
4C7
330
1F
100
AcDbEntity
  8
D-4
  6
Continuous
 62
     2
370
     9
100
AcDbText
 10
-887.6569188161255
 20
-450.2779996477587
 30
0.0
 40
30.48
  1
31
 41
1.0625
  7
ＭＳ ゴシック
100
AcDbText
  0
TEXT
  5
4C8
330
1F
100
AcDbEntity
  8
D-4
  6
Continuous
 62
     2
370
     9
100
AcDbText
 10
-1506.574193291223
 20
-124.0496099077685
 30
0.0
 40
30.48
  1
□400
 41
1.1
  7
ＭＳ ゴシック
100
AcDbText
  0
TEXT
  5
4C9
330
1F
100
AcDbEntity
  8
D-4
  6
Continuous
 62
     2
370
     9
100
AcDbText
 10
-1506.574193291223
 20
-15.24960990776849
 30
0.0
 40
30.48
  1
□450
 41
1.1
  7
ＭＳ ゴシック
100
AcDbText
  0
TEXT
  5
4CA
330
1F
100
AcDbEntity
  8
D-4
  6
Continuous
 62
     2
370
     9
100
AcDbText
 10
-1506.574193291223
 20
95.4503900922315
 30
0.0
 40
30.48
  1
□462
 41
1.1
  7
ＭＳ ゴシック
100
AcDbText
  0
TEXT
  5
4CB
330
1F
100
AcDbEntity
  8
D-4
  6
Continuous
 62
     2
370
     9
100
AcDbText
 10
-1100.029191917932
 20
-430.8767924198394
 30
0.0
 40
30.48
  1
25
 50
90.0000025
 41
1.062499999999999
  7
ＭＳ ゴシック
100
AcDbText
  0
LINE
  5
4CC
330
1F
100
AcDbEntity
  8
D-4
  6
Continuous
 62
     7
370
     9
100
AcDbLine
 10
-1089.388924889124
 20
-440.71818754302
 30
0.0
 11
-1089.388924889124
 21
-255.6087612139208
 31
0.0
  0
LINE
  5
4CD
330
1F
100
AcDbEntity
  8
D-4
  6
Continuous
 62
     7
370
     9
100
AcDbLine
 10
-943.9064133687378
 20
-862.1145343995952
 30
0.0
 11
-543.9055455251099
 21
-862.1145343995952
 31
0.0
  0
LINE
  5
4CE
330
1F
100
AcDbEntity
  8
D-4
  6
Continuous
 62
     7
370
     9
100
AcDbLine
 10
-543.9055455251099
 20
-575.4824184404833
 30
0.0
 11
-543.9055455251099
 21
-865.1141071535014
 31
0.0
  0
LINE
  5
4CF
330
1F
100
AcDbEntity
  8
D-4
  6
Continuous
 62
     7
370
     9
100
AcDbLine
 10
-943.9064133687378
 20
-780.6084560381396
 30
0.0
 11
-943.9064133687378
 21
-865.1141071535014
 31
0.0
  0
LWPOLYLINE
  5
4D0
330
1F
100
AcDbEntity
  8
D-4
  6
Continuous
 62
     7
370
     9
100
AcDbPolyline
 90
        4
 70
     1
 43
1.0
 10
-943.4064133687378
 20
-862.1145343995952
 42
0.4142135623731
 10
-943.9064133687378
 20
-861.6145343995952
 42
0.4142135623731
 10
-944.4064133687378
 20
-862.1145343995952
 42
0.4142135623731
 10
-943.9064133687378
 20
-862.6145343995951
 42
0.4142135623731
  0
LWPOLYLINE
  5
4D1
330
1F
100
AcDbEntity
  8
D-4
  6
Continuous
 62
     7
370
     9
100
AcDbPolyline
 90
        4
 70
     1
 43
1.0
 10
-543.4055455251099
 20
-862.1145343995952
 42
0.4142135623731
 10
-543.9055455251099
 20
-861.6145343995952
 42
0.4142135623731
 10
-544.4055455251099
 20
-862.1145343995952
 42
0.4142135623731
 10
-543.9055455251099
 20
-862.6145343995951
 42
0.4142135623731
  0
TEXT
  5
4D2
330
1F
100
AcDbEntity
  8
D-4
  6
Continuous
 62
     2
370
     9
100
AcDbText
 10
-811.7747769786813
 20
-851.474267370826
 30
0.0
 40
30.48
  1
75～80
 50
359.9997855578312
 41
1.104166666666667
  7
ＭＳ ゴシック
100
AcDbText
  0
TEXT
  5
4D3
330
1F
100
AcDbEntity
  8
D-5
  6
Continuous
 62
     2
370
     9
100
AcDbText
 10
-1243.400444094645
 20
-979.8341382814317
 30
0.0
 40
30.48
  1
A断面詳細図　Ｓ＝１：２
 50
0.00002676319048
 41
1.114130434782608
  7
ＭＳ ゴシック
100
AcDbText
  0
TEXT
  5
4D4
330
1F
100
AcDbEntity
  8
D-4
  6
Continuous
 62
     2
370
     9
100
AcDbText
 10
-775.5423534191314
 20
-15.2979123674853
 30
0.0
 40
30.48
  1
5
 41
0.9999999999999998
  7
ＭＳ ゴシック
100
AcDbText
  0
TEXT
  5
4D5
330
1F
100
AcDbEntity
  8
D-4
  6
Continuous
 62
     2
370
     9
100
AcDbText
 10
-824.552502358106
 20
-15.2979123674853
 30
0.0
 40
30.48
  1
1
 41
0.9999999999999998
  7
ＭＳ ゴシック
100
AcDbText
  0
TEXT
  5
4D6
330
1F
100
AcDbEntity
  8
F-5ﾚｲﾔ
  6
Continuous
 62
     2
370
     9
100
AcDbText
 10
-845.3997081828237
 20
-1330.761336706767
 30
0.0
 40
30.48
  1
ステンレス製　縦目タイプ　細目プレーンタイプ　グレーチング（すきま6mm）
 41
0.7742957746478872
  7
ＭＳ ゴシック
100
AcDbText
  0
TEXT
  5
4D7
330
1F
100
AcDbEntity
  8
F-4ﾚｲﾔ
  6
Continuous
 62
     2
370
     9
100
AcDbText
 10
-845.9896769380546
 20
-1379.05859205821
 30
0.0
 40
30.48
  1
ＹＲ－Ｈ－Ａ－１５　４５０×４５０×１５　ステンレス製受枠ＳＦ１５Ｂ（四方枠）
 41
0.7743589743589743
  7
ＭＳ ゴシック
100
AcDbText
  0
LINE
  5
4D8
330
1F
100
AcDbEntity
  8
D-5
  6
Continuous
 62
     7
370
     9
100
AcDbLine
 10
520.0023139220838
 20
188.4454864743068
 30
0.0
 11
716.9224356364128
 21
188.4454864743068
 31
0.0
  0
TEXT
  5
4D9
330
1F
100
AcDbEntity
  8
D-5
  6
Continuous
 62
     2
370
     9
100
AcDbText
 10
673.1582199565253
 20
85.68825065356513
 30
0.0
 40
30.48
  1
メインバー詳細図　Ｓ＝１：２
 41
1.116071428571426
  7
ＭＳ ゴシック
100
AcDbText
  0
LINE
  5
4DA
330
1F
100
AcDbEntity
  8
D-5
  6
Continuous
 62
     7
370
     9
100
AcDbLine
 10
673.6090791718215
 20
65.04825065356513
 30
0.0
 11
1294.965631126228
 21
65.04825065356513
 31
0.0
  0
LINE
  5
4DB
330
1F
100
AcDbEntity
  8
D-4
  6
Continuous
 62
     7
370
     9
100
AcDbLine
 10
-26.26087118125085
 20
352.8417767618209
 30
0.0
 11
42.65731130907298
 21
421.7599592521444
 31
0.0
  0
LINE
  5
4DC
330
1F
100
AcDbEntity
  8
D-4
  6
Continuous
 62
     7
370
     9
100
AcDbLine
 10
42.65731130907298
 20
421.7599592521444
 30
0.0
 11
27.4382755838549
 21
401.9261257448635
 31
0.0
  0
LINE
  5
4DD
330
1F
100
AcDbEntity
  8
D-4
  6
Continuous
 62
     7
370
     9
100
AcDbLine
 10
42.65731130907298
 20
421.7599592521444
 30
0.0
 11
22.82347780179194
 21
406.5409235269263
 31
0.0
  0
LINE
  5
4DE
330
1F
100
AcDbEntity
  8
D-4
  6
Continuous
 62
     7
370
     9
100
AcDbLine
 10
-197.9770207070401
 20
352.8417767618209
 30
0.0
 11
-26.26087118125085
 21
352.8417767618209
 31
0.0
  0
TEXT
  5
4DF
330
1F
100
AcDbEntity
  8
D-5
  6
Continuous
 62
     7
370
     9
100
AcDbText
 10
-197.9770207070401
 20
362.071776761821
 30
0.0
 40
22.86
  1
サイドバー
 41
1.133333333333333
  7
ＭＳ ゴシック
100
AcDbText
  0
LINE
  5
4E0
330
1F
100
AcDbEntity
  8
D-0
  6
Continuous
 62
     3
370
     9
100
AcDbLine
 10
57.657360797037
 20
384.2600211120999
 30
0.0
 11
42.65731130907298
 21
384.2600211120999
 31
0.0
  0
LINE
  5
4E1
330
1F
100
AcDbEntity
  8
D-0
  6
Continuous
 62
     3
370
     9
100
AcDbLine
 10
57.657360797037
 20
459.2598973921886
 30
0.0
 11
42.65731130907298
 21
459.2598973921886
 31
0.0
  0
LINE
  5
4E2
330
1F
100
AcDbEntity
  8
D-0
  6
Continuous
 62
     3
370
     9
100
AcDbLine
 10
42.65731130907298
 20
459.2598973921886
 30
0.0
 11
42.65731130907298
 21
384.2600211120999
 31
0.0
  0
LINE
  5
4E3
330
1F
100
AcDbEntity
  8
D-0
  6
Continuous
 62
     3
370
     9
100
AcDbLine
 10
57.657360797037
 20
459.2598973921886
 30
0.0
 11
57.657360797037
 21
384.2600211120999
 31
0.0
  0
LWPOLYLINE
  5
4E4
330
1F
100
AcDbEntity
  8
D-4
  6
Continuous
 62
     7
370
     9
100
AcDbPolyline
 90
        4
 70
     1
 43
1.0
 10
-73.3290952307652
 20
929.6398305560011
 42
0.4142135623731
 10
-73.8290952307652
 20
930.139830556001
 42
0.4142135623731
 10
-74.3290952307652
 20
929.6398305560011
 42
0.4142135623731
 10
-73.8290952307652
 20
929.1398305560011
 42
0.4142135623731
  0
LWPOLYLINE
  5
4E5
330
1F
100
AcDbEntity
  8
D-4
  6
Continuous
 62
     7
370
     9
100
AcDbPolyline
 90
        4
 70
     1
 43
1.0
 10
-73.3290952307652
 20
859.6400938051953
 42
0.4142135623731
 10
-73.8290952307652
 20
860.1400938051952
 42
0.4142135623731
 10
-74.3290952307652
 20
859.6400938051953
 42
0.4142135623731
 10
-73.8290952307652
 20
859.1400938051953
 42
0.4142135623731
  0
LWPOLYLINE
  5
4E6
330
1F
100
AcDbEntity
  8
D-4
  6
Continuous
 62
     7
370
     9
100
AcDbPolyline
 90
        4
 70
     1
 43
1.0
 10
-73.3290952307652
 20
789.6401548403513
 42
0.4142135623731
 10
-73.8290952307652
 20
790.1401548403512
 42
0.4142135623731
 10
-74.3290952307652
 20
789.6401548403513
 42
0.4142135623731
 10
-73.8290952307652
 20
789.1401548403513
 42
0.4142135623731
  0
LINE
  5
4E7
330
1F
100
AcDbEntity
  8
D-4
  6
Continuous
 62
     7
370
     9
100
AcDbLine
 10
-73.8290952307652
 20
859.6400938051953
 30
0.0
 11
-73.8290952307652
 21
929.6398305560011
 31
0.0
  0
TEXT
  5
4E8
330
1F
100
AcDbEntity
  8
D-4
  6
Continuous
 62
     2
370
   211
100
AcDbText
 10
-89.4690952307652
 20
873.3899621805982
 30
0.0
 40
30.48
  1
14
 50
90.0
 41
1.0625
  7
ＭＳ ゴシック
100
AcDbText
  0
LINE
  5
4E9
330
1F
100
AcDbEntity
  8
D-4
  6
Continuous
 62
     7
370
     9
100
AcDbLine
 10
-73.8290952307652
 20
789.6401548403513
 30
0.0
 11
-73.8290952307652
 21
859.6400938051953
 31
0.0
  0
TEXT
  5
4EA
330
1F
100
AcDbEntity
  8
D-4
  6
Continuous
 62
     2
370
   211
100
AcDbText
 10
-89.4690952307652
 20
803.3901243227733
 30
0.0
 40
30.48
  1
14
 50
90.0
 41
1.0625
  7
ＭＳ ゴシック
100
AcDbText
  0
LINE
  5
4EB
330
1F
100
AcDbEntity
  8
D-4
  6
Continuous
 62
     7
370
     9
100
AcDbLine
 10
-76.82909523076475
 20
929.6398305560011
 30
0.0
 11
27.65731130907298
 21
929.6398305560011
 31
0.0
  0
LINE
  5
4EC
330
1F
100
AcDbEntity
  8
D-4
  6
Continuous
 62
     7
370
     9
100
AcDbLine
 10
-76.82909523076475
 20
859.6400938051953
 30
0.0
 11
27.65731130907298
 21
859.6400938051953
 31
0.0
  0
LINE
  5
4ED
330
1F
100
AcDbEntity
  8
D-A
  6
Continuous
 62
     3
370
     9
100
AcDbLine
 10
57.65731130907298
 20
732.9174081482954
 30
0.0
 11
57.65731130907298
 21
986.8142165056377
 31
0.0
  0
LINE
  5
4EE
330
1F
100
AcDbEntity
  8
D-A
  6
Continuous
 62
     3
370
     9
100
AcDbLine
 10
42.65731130907298
 20
732.9174081482954
 30
0.0
 11
42.65731130907298
 21
986.8142165056377
 31
0.0
  0
LINE
  5
4EF
330
1F
100
AcDbEntity
  8
D-5
  6
Continuous
 62
     4
370
     9
100
AcDbLine
 10
-261.3322567189111
 20
814.9740345250614
 30
0.0
 11
-261.3322567189111
 21
765.7246418421197
 31
0.0
  0
LINE
  5
4F0
330
1F
100
AcDbEntity
  8
D-5
  6
Continuous
 62
     4
370
     9
100
AcDbLine
 10
-261.3322567189111
 20
814.9740345250614
 30
0.0
 11
-258.0691019134098
 21
790.1879129907162
 31
0.0
  0
LINE
  5
4F1
330
1F
100
AcDbEntity
  8
D-5
  6
JWW_CENTER1
 62
     4
370
     9
100
AcDbLine
 10
-240.3512598454374
 20
824.6401243227733
 30
0.0
 11
-140.3512598454374
 21
824.6401243227733
 31
0.0
  0
LINE
  5
4F2
330
1F
100
AcDbEntity
  8
D-4
  6
Continuous
 62
     7
370
     9
100
AcDbLine
 10
-76.82909523076475
 20
789.6401548403513
 30
0.0
 11
27.65731130907298
 21
789.6401548403513
 31
0.0
  0
TEXT
  5
4F3
330
1F
100
AcDbEntity
  8
D-5
  6
Continuous
 62
     2
370
     9
100
AcDbText
 10
522.3502201588205
 20
209.0854864743068
 30
0.0
 40
30.48
  1
B-B断面図
 41
1.097222222222222
  7
ＭＳ ゴシック
100
AcDbText
  0
TEXT
  5
4F4
330
1F
100
AcDbEntity
  8
D-5
  6
Continuous
 62
     2
370
     9
100
AcDbText
 10
-271.3322567189111
 20
725.3985420047072
 30
0.0
 40
30.48
  1
B
 41
0.9999999999999998
  7
ＭＳ ゴシック
100
AcDbText
  0
LINE
  5
4F5
330
1F
100
AcDbEntity
  8
D-5
  6
Continuous
 62
     4
370
     9
100
AcDbLine
 10
-261.3322567189111
 20
814.9740345250614
 30
0.0
 11
-264.5954115244125
 21
790.1879129907162
 31
0.0
  0
SOLID
  5
4F6
330
1F
100
AcDbEntity
  8
D-5
  6
Continuous
 62
     4
370
     9
100
AcDbTrace
 10
-240.3512598454374
 20
822.6401243227734
 30
0.0
 11
-280.3512598454374
 21
822.6401243227734
 31
0.0
 12
-240.3512598454374
 22
826.6401243227732
 32
0.0
 13
-280.3512598454374
 23
826.6401243227732
 33
0.0
  0
TEXT
  5
4F7
330
1F
100
AcDbEntity
  8
D-5
  6
Continuous
 62
     7
370
     9
100
AcDbText
 10
49.96946528125775
 20
286.9025243799252
 30
0.0
 40
22.86
  1
クロスバー
 41
1.13333333333333
  7
ＭＳ ゴシック
100
AcDbText
  0
LINE
  5
4F8
330
1F
100
AcDbEntity
  8
D-4
  6
Continuous
 62
     7
370
     9
100
AcDbLine
 10
49.96946528125775
 20
277.6725243799252
 30
0.0
 11
226.6080588082015
 21
277.6725243799252
 31
0.0
  0
LINE
  5
4F9
330
1F
100
AcDbEntity
  8
D-4
  6
Continuous
 62
     7
370
     9
100
AcDbLine
 10
355.4463770405881
 20
406.5108426123115
 30
0.0
 11
226.6080588082015
 21
277.6725243799252
 31
0.0
  0
LINE
  5
4FA
330
1F
100
AcDbEntity
  8
D-0
  6
JWW_CENTER1
 62
     3
370
     9
100
AcDbLine
 10
767.6572700691021
 20
388.5797859452925
 30
0.0
 11
767.6572700691021
 21
448.9403799988187
 31
0.0
  0
LINE
  5
4FB
330
1F
100
AcDbEntity
  8
D-0
  6
Continuous
 62
     3
370
     9
100
AcDbLine
 10
750.1572741930989
 20
426.0086469962852
 30
0.0
 11
750.1572741930989
 21
436.2600788480586
 31
0.0
  0
LINE
  5
4FC
330
1F
100
AcDbEntity
  8
D-0
  6
Continuous
 62
     3
370
     9
100
AcDbLine
 10
750.1572741930989
 20
401.2597159363187
 30
0.0
 11
750.1572741930989
 21
411.5111477880926
 31
0.0
  0
LINE
  5
4FD
330
1F
100
AcDbEntity
  8
D-0
  6
Continuous
 62
     3
370
     9
100
AcDbLine
 10
760.4085204650063
 20
401.2597159363187
 30
0.0
 11
750.1572741930989
 21
401.2597159363187
 31
0.0
  0
LINE
  5
4FE
330
1F
100
AcDbEntity
  8
D-0
  6
Continuous
 62
     3
370
     9
100
AcDbLine
 10
785.1572659451052
 20
401.2597159363187
 30
0.0
 11
774.906019673199
 21
401.2597159363187
 31
0.0
  0
LINE
  5
4FF
330
1F
100
AcDbEntity
  8
D-0
  6
Continuous
 62
     3
370
     9
100
AcDbLine
 10
785.1572659451052
 20
411.5111477880926
 30
0.0
 11
785.1572659451052
 21
401.2597159363187
 31
0.0
  0
LINE
  5
500
330
1F
100
AcDbEntity
  8
D-0
  6
Continuous
 62
     3
370
     9
100
AcDbLine
 10
785.1572659451052
 20
436.2600788480586
 30
0.0
 11
785.1572659451052
 21
426.0086469962852
 31
0.0
  0
LINE
  5
501
330
1F
100
AcDbEntity
  8
D-0
  6
Continuous
 62
     3
370
     9
100
AcDbLine
 10
774.906019673199
 20
436.2600788480586
 30
0.0
 11
785.1572659451052
 21
436.2600788480586
 31
0.0
  0
LINE
  5
502
330
1F
100
AcDbEntity
  8
D-0
  6
Continuous
 62
     3
370
     9
100
AcDbLine
 10
750.1572741930989
 20
436.2600788480586
 30
0.0
 11
760.4085204650063
 21
436.2600788480586
 31
0.0
  0
LINE
  5
503
330
1F
100
AcDbEntity
  8
D-0
  6
Continuous
 62
     3
370
     9
100
AcDbLine
 10
792.406015549201
 20
418.7598973921887
 30
0.0
 11
767.6572700691021
 21
394.0109663322227
 31
0.0
  0
LINE
  5
504
330
1F
100
AcDbEntity
  8
D-0
  6
Continuous
 62
     3
370
     9
100
AcDbLine
 10
767.6572700691021
 20
443.5088284521551
 30
0.0
 11
792.406015549201
 21
418.7598973921887
 31
0.0
  0
LINE
  5
505
330
1F
100
AcDbEntity
  8
D-0
  6
Continuous
 62
     3
370
     9
100
AcDbLine
 10
742.9085245890032
 20
418.7598973921887
 30
0.0
 11
767.6572700691021
 21
443.5088284521551
 31
0.0
  0
LINE
  5
506
330
1F
100
AcDbEntity
  8
D-0
  6
Continuous
 62
     3
370
     9
100
AcDbLine
 10
767.6572700691021
 20
394.0109663322227
 30
0.0
 11
742.9085245890032
 21
418.7598973921887
 31
0.0
  0
LINE
  5
507
330
1F
100
AcDbEntity
  8
D-0
  6
JWW_CENTER1
 62
     3
370
     9
100
AcDbLine
 10
367.657311309073
 20
388.5797859452925
 30
0.0
 11
367.657311309073
 21
448.9403799988187
 31
0.0
  0
LINE
  5
508
330
1F
100
AcDbEntity
  8
D-0
  6
JWW_CENTER1
 62
     3
370
     9
100
AcDbLine
 10
337.477199862176
 20
418.7598973921887
 30
0.0
 11
397.8376083358354
 21
418.7598973921887
 31
0.0
  0
LINE
  5
509
330
1F
100
AcDbEntity
  8
D-0
  6
Continuous
 62
     3
370
     9
100
AcDbLine
 10
350.1573154330698
 20
426.0086469962852
 30
0.0
 11
350.1573154330698
 21
436.2600788480586
 31
0.0
  0
LINE
  5
50A
330
1F
100
AcDbEntity
  8
D-0
  6
Continuous
 62
     3
370
     9
100
AcDbLine
 10
350.1573154330698
 20
401.2597159363187
 30
0.0
 11
350.1573154330698
 21
411.5111477880926
 31
0.0
  0
LINE
  5
50B
330
1F
100
AcDbEntity
  8
D-0
  6
Continuous
 62
     3
370
     9
100
AcDbLine
 10
360.408561704976
 20
401.2597159363187
 30
0.0
 11
350.1573154330698
 21
401.2597159363187
 31
0.0
  0
LINE
  5
50C
330
1F
100
AcDbEntity
  8
D-0
  6
Continuous
 62
     3
370
     9
100
AcDbLine
 10
385.1573071850761
 20
401.2597159363187
 30
0.0
 11
374.9060609131687
 21
401.2597159363187
 31
0.0
  0
LINE
  5
50D
330
1F
100
AcDbEntity
  8
D-0
  6
Continuous
 62
     3
370
     9
100
AcDbLine
 10
385.1573071850761
 20
411.5111477880926
 30
0.0
 11
385.1573071850761
 21
401.2597159363187
 31
0.0
  0
LINE
  5
50E
330
1F
100
AcDbEntity
  8
D-0
  6
Continuous
 62
     3
370
     9
100
AcDbLine
 10
385.1573071850761
 20
436.2600788480586
 30
0.0
 11
385.1573071850761
 21
426.0086469962852
 31
0.0
  0
LINE
  5
50F
330
1F
100
AcDbEntity
  8
D-0
  6
Continuous
 62
     3
370
     9
100
AcDbLine
 10
374.9060609131687
 20
436.2600788480586
 30
0.0
 11
385.1573071850761
 21
436.2600788480586
 31
0.0
  0
LINE
  5
510
330
1F
100
AcDbEntity
  8
D-0
  6
Continuous
 62
     3
370
     9
100
AcDbLine
 10
350.1573154330698
 20
436.2600788480586
 30
0.0
 11
360.408561704976
 21
436.2600788480586
 31
0.0
  0
LINE
  5
511
330
1F
100
AcDbEntity
  8
D-0
  6
Continuous
 62
     3
370
     9
100
AcDbLine
 10
392.4060567891719
 20
418.7598973921887
 30
0.0
 11
367.657311309073
 21
394.0109663322227
 31
0.0
  0
LINE
  5
512
330
1F
100
AcDbEntity
  8
D-0
  6
Continuous
 62
     3
370
     9
100
AcDbLine
 10
367.657311309073
 20
443.5088284521551
 30
0.0
 11
392.4060567891719
 21
418.7598973921887
 31
0.0
  0
LINE
  5
513
330
1F
100
AcDbEntity
  8
D-0
  6
Continuous
 62
     3
370
     9
100
AcDbLine
 10
342.9085658289729
 20
418.7598973921887
 30
0.0
 11
367.657311309073
 21
443.5088284521551
 31
0.0
  0
LINE
  5
514
330
1F
100
AcDbEntity
  8
D-0
  6
Continuous
 62
     3
370
     9
100
AcDbLine
 10
367.657311309073
 20
394.0109663322227
 30
0.0
 11
342.9085658289729
 21
418.7598973921887
 31
0.0
  0
LINE
  5
515
330
1F
100
AcDbEntity
  8
D-0
  6
Continuous
 62
     7
370
     9
100
AcDbLine
 10
355.4463770405881
 20
406.5108426123115
 30
0.0
 11
340.2273413153695
 21
386.6770091050306
 31
0.0
  0
LINE
  5
516
330
1F
100
AcDbEntity
  8
D-0
  6
Continuous
 62
     7
370
     9
100
AcDbLine
 10
355.4463770405881
 20
406.5108426123115
 30
0.0
 11
335.6125435333071
 21
391.2918068870934
 31
0.0
  0
TEXT
  5
517
330
1F
100
AcDbEntity
  8
D-4
  6
Continuous
 62
     2
370
   211
100
AcDbText
 10
551.4072906890875
 20
544.8998973921886
 30
0.0
 40
30.48
  1
80
 41
1.0625
  7
ＭＳ ゴシック
100
AcDbText
  0
LINE
  5
518
330
1F
100
AcDbEntity
  8
D-4
  6
Continuous
 62
     7
370
     9
100
AcDbLine
 10
367.657311309073
 20
529.2598973921886
 30
0.0
 11
767.6572700691021
 21
529.2598973921886
 31
0.0
  0
LWPOLYLINE
  5
519
330
1F
100
AcDbEntity
  8
D-4
  6
Continuous
 62
     7
370
     9
100
AcDbPolyline
 90
        4
 70
     1
 43
1.0
 10
368.157311309073
 20
529.2598973921886
 42
0.4142135623731
 10
367.657311309073
 20
529.7598973921886
 42
0.4142135623731
 10
367.157311309073
 20
529.2598973921886
 42
0.4142135623731
 10
367.657311309073
 20
528.7598973921887
 42
0.4142135623731
  0
LWPOLYLINE
  5
51A
330
1F
100
AcDbEntity
  8
D-4
  6
Continuous
 62
     7
370
     9
100
AcDbPolyline
 90
        4
 70
     1
 43
1.0
 10
768.1572700691021
 20
529.2598973921886
 42
0.4142135623731
 10
767.6572700691021
 20
529.7598973921886
 42
0.4142135623731
 10
767.1572700691022
 20
529.2598973921886
 42
0.4142135623731
 10
767.6572700691021
 20
528.7598973921887
 42
0.4142135623731
  0
LINE
  5
51B
330
1F
100
AcDbEntity
  8
D-4
  6
Continuous
 62
     7
370
     9
100
AcDbLine
 10
367.657311309073
 20
532.2598973921886
 30
0.0
 11
367.657311309073
 21
484.2598973921886
 31
0.0
  0
LINE
  5
51C
330
1F
100
AcDbEntity
  8
D-4
  6
Continuous
 62
     7
370
     9
100
AcDbLine
 10
767.6572700691021
 20
532.2598973921886
 30
0.0
 11
767.6572700691021
 21
484.2598973921886
 31
0.0
  0
LINE
  5
51D
330
1F
100
AcDbEntity
  8
D-4
  6
Continuous
 62
     7
370
     9
100
AcDbLine
 10
825.7727195266831
 20
459.2598973921886
 30
0.0
 11
845.6065530339641
 21
474.4789331174067
 31
0.0
  0
LINE
  5
51E
330
1F
100
AcDbEntity
  8
D-4
  6
Continuous
 62
     7
370
     9
100
AcDbLine
 10
825.7727195266831
 20
459.2598973921886
 30
0.0
 11
840.9917552519017
 21
479.0937308994695
 31
0.0
  0
LINE
  5
51F
330
1F
100
AcDbEntity
  8
D-4
  6
Continuous
 62
     7
370
     9
100
AcDbLine
 10
825.7727195266831
 20
459.2598973921886
 30
0.0
 11
880.9449420194211
 21
514.4321198849262
 31
0.0
  0
LINE
  5
520
330
1F
100
AcDbEntity
  8
D-0
  6
JWW_CENTER1
 62
     3
370
     9
100
AcDbLine
 10
737.4771586222063
 20
418.7598973921887
 30
0.0
 11
797.8375670958657
 21
418.7598973921887
 31
0.0
  0
LINE
  5
521
330
1F
100
AcDbEntity
  8
D-4
  6
Continuous
 62
     7
370
     9
100
AcDbLine
 10
880.9449420194211
 20
514.4321198849262
 30
0.0
 11
1050.24261078133
 21
514.4321198849262
 31
0.0
  0
TEXT
  5
522
330
1F
100
AcDbEntity
  8
D-5
  6
Continuous
 62
     7
370
     9
100
AcDbText
 10
880.9449420194217
 20
523.6621198849263
 30
0.0
 40
22.86
  1
メインバー
 41
1.133333333333327
  7
ＭＳ ゴシック
100
AcDbText
  0
LINE
  5
523
330
1F
100
AcDbEntity
  8
D-5
  6
JWW_CENTER1
 62
     4
370
     9
100
AcDbLine
 10
536.9189171014098
 20
1014.639800038423
 30
0.0
 11
536.9189171014098
 21
964.6398000384231
 31
0.0
  0
TEXT
  5
524
330
1F
100
AcDbEntity
  8
D-5
  6
Continuous
 62
     2
370
     9
100
AcDbText
 10
603.5451707160139
 20
1023.415614891693
 30
0.0
 40
30.48
  1
C
 41
0.9999999999999998
  7
ＭＳ ゴシック
100
AcDbText
  0
SOLID
  5
525
330
1F
100
AcDbEntity
  8
D-5
  6
Continuous
 62
     4
370
     9
100
AcDbTrace
 10
538.9189171014096
 20
704.6401853579293
 30
0.0
 11
538.9189171014096
 21
664.6401853579293
 31
0.0
 12
534.9189171014099
 22
704.6401853579293
 32
0.0
 13
534.9189171014099
 23
664.6401853579293
 33
0.0
  0
LINE
  5
526
330
1F
100
AcDbEntity
  8
D-5
  6
Continuous
 62
     4
370
     9
100
AcDbLine
 10
546.5850068991217
 20
683.6591884844556
 30
0.0
 11
595.8343995820634
 21
683.6591884844556
 31
0.0
  0
LINE
  5
527
330
1F
100
AcDbEntity
  8
D-5
  6
Continuous
 62
     4
370
     9
100
AcDbLine
 10
546.5850068991217
 20
683.6591884844556
 30
0.0
 11
571.3711284334671
 21
686.922343289957
 31
0.0
  0
LINE
  5
528
330
1F
100
AcDbEntity
  8
D-5
  6
Continuous
 62
     4
370
     9
100
AcDbLine
 10
546.5850068991217
 20
683.6591884844556
 30
0.0
 11
571.3711284334671
 21
680.3960336789543
 31
0.0
  0
LINE
  5
529
330
1F
100
AcDbEntity
  8
D-5
  6
JWW_CENTER1
 62
     4
370
     9
100
AcDbLine
 10
536.9189171014098
 20
704.6401853579293
 30
0.0
 11
536.9189171014098
 21
754.6401853579293
 31
0.0
  0
TEXT
  5
52A
330
1F
100
AcDbEntity
  8
D-5
  6
Continuous
 62
     2
370
     9
100
AcDbText
 10
603.5451707160139
 20
671.454006464252
 30
0.0
 40
30.48
  1
C
 41
0.9999999999999998
  7
ＭＳ ゴシック
100
AcDbText
  0
LINE
  5
52B
330
1F
100
AcDbEntity
  8
D-A
  6
Continuous
 62
     3
370
     9
100
AcDbLine
 10
367.657311309073
 20
949.6398000384231
 30
0.0
 11
367.657311309073
 21
986.8142165056377
 31
0.0
  0
LINE
  5
52C
330
1F
100
AcDbEntity
  8
D-A
  6
Continuous
 62
     3
370
     9
100
AcDbLine
 10
392.4062423690385
 20
949.6398000384231
 30
0.0
 11
392.4062423690385
 21
986.8142165056377
 31
0.0
  0
LINE
  5
52D
330
1F
100
AcDbEntity
  8
D-A
  6
Continuous
 62
     3
370
     9
100
AcDbLine
 10
342.9083802491062
 20
949.6398000384231
 30
0.0
 11
342.9083802491062
 21
986.8142165056377
 31
0.0
  0
LINE
  5
52E
330
1F
100
AcDbEntity
  8
D-A
  6
Continuous
 62
     3
370
     9
100
AcDbLine
 10
767.657311309073
 20
949.6398000384231
 30
0.0
 11
767.657311309073
 21
986.8142165056377
 31
0.0
  0
LINE
  5
52F
330
1F
100
AcDbEntity
  8
D-A
  6
Continuous
 62
     3
370
     9
100
AcDbLine
 10
792.4062423690385
 20
949.6398000384231
 30
0.0
 11
792.4062423690385
 21
986.8142165056377
 31
0.0
  0
LINE
  5
530
330
1F
100
AcDbEntity
  8
D-A
  6
Continuous
 62
     3
370
     9
100
AcDbLine
 10
742.9083802491062
 20
949.6398000384231
 30
0.0
 11
742.9083802491062
 21
986.8142165056377
 31
0.0
  0
LINE
  5
531
330
1F
100
AcDbEntity
  8
D-A
  6
Continuous
 62
     3
370
     9
100
AcDbLine
 10
367.657311309073
 20
879.640063287617
 30
0.0
 11
367.657311309073
 21
909.6398610735791
 31
0.0
  0
LINE
  5
532
330
1F
100
AcDbEntity
  8
D-A
  6
Continuous
 62
     3
370
     9
100
AcDbLine
 10
392.4062423690385
 20
879.640063287617
 30
0.0
 11
392.4062423690385
 21
909.6398610735791
 31
0.0
  0
LINE
  5
533
330
1F
100
AcDbEntity
  8
D-A
  6
Continuous
 62
     3
370
     9
100
AcDbLine
 10
342.9083802491062
 20
879.640063287617
 30
0.0
 11
342.9083802491062
 21
909.6398610735791
 31
0.0
  0
LINE
  5
534
330
1F
100
AcDbEntity
  8
D-A
  6
Continuous
 62
     3
370
     9
100
AcDbLine
 10
767.657311309073
 20
879.640063287617
 30
0.0
 11
767.657311309073
 21
909.6398610735791
 31
0.0
  0
LINE
  5
535
330
1F
100
AcDbEntity
  8
D-A
  6
Continuous
 62
     3
370
     9
100
AcDbLine
 10
792.4062423690385
 20
879.640063287617
 30
0.0
 11
792.4062423690385
 21
909.6398610735791
 31
0.0
  0
LINE
  5
536
330
1F
100
AcDbEntity
  8
D-A
  6
Continuous
 62
     3
370
     9
100
AcDbLine
 10
742.9083802491062
 20
879.640063287617
 30
0.0
 11
742.9083802491062
 21
909.6398610735791
 31
0.0
  0
LINE
  5
537
330
1F
100
AcDbEntity
  8
D-A
  6
Continuous
 62
     3
370
     9
100
AcDbLine
 10
367.657311309073
 20
809.6401243227733
 30
0.0
 11
367.657311309073
 21
839.6401243227733
 31
0.0
  0
LINE
  5
538
330
1F
100
AcDbEntity
  8
D-A
  6
Continuous
 62
     3
370
     9
100
AcDbLine
 10
367.657311309073
 20
732.9174081482954
 30
0.0
 11
367.657311309073
 21
769.6401853579293
 31
0.0
  0
LINE
  5
539
330
1F
100
AcDbEntity
  8
D-A
  6
Continuous
 62
     3
370
     9
100
AcDbLine
 10
392.4062423690385
 20
809.6401243227733
 30
0.0
 11
392.4062423690385
 21
839.6401243227733
 31
0.0
  0
LINE
  5
53A
330
1F
100
AcDbEntity
  8
D-A
  6
Continuous
 62
     3
370
     9
100
AcDbLine
 10
392.4062423690385
 20
732.9174081482954
 30
0.0
 11
392.4062423690385
 21
769.6401853579293
 31
0.0
  0
LINE
  5
53B
330
1F
100
AcDbEntity
  8
D-A
  6
Continuous
 62
     3
370
     9
100
AcDbLine
 10
342.9083802491062
 20
809.6401243227733
 30
0.0
 11
342.9083802491062
 21
839.6401243227733
 31
0.0
  0
LINE
  5
53C
330
1F
100
AcDbEntity
  8
D-A
  6
Continuous
 62
     3
370
     9
100
AcDbLine
 10
342.9083802491062
 20
732.9174081482954
 30
0.0
 11
342.9083802491062
 21
769.6401853579293
 31
0.0
  0
LINE
  5
53D
330
1F
100
AcDbEntity
  8
D-A
  6
Continuous
 62
     3
370
     9
100
AcDbLine
 10
767.657311309073
 20
809.6401243227733
 30
0.0
 11
767.657311309073
 21
839.6401243227733
 31
0.0
  0
LINE
  5
53E
330
1F
100
AcDbEntity
  8
D-A
  6
Continuous
 62
     3
370
     9
100
AcDbLine
 10
767.657311309073
 20
732.9174081482954
 30
0.0
 11
767.657311309073
 21
769.6401853579293
 31
0.0
  0
LINE
  5
53F
330
1F
100
AcDbEntity
  8
D-A
  6
Continuous
 62
     3
370
     9
100
AcDbLine
 10
792.4062423690385
 20
809.6401243227733
 30
0.0
 11
792.4062423690385
 21
839.6401243227733
 31
0.0
  0
LINE
  5
540
330
1F
100
AcDbEntity
  8
D-A
  6
Continuous
 62
     3
370
     9
100
AcDbLine
 10
792.4062423690385
 20
732.9174081482954
 30
0.0
 11
792.4062423690385
 21
769.6401853579293
 31
0.0
  0
LINE
  5
541
330
1F
100
AcDbEntity
  8
D-A
  6
Continuous
 62
     3
370
     9
100
AcDbLine
 10
742.9083802491062
 20
809.6401243227733
 30
0.0
 11
742.9083802491062
 21
839.6401243227733
 31
0.0
  0
LINE
  5
542
330
1F
100
AcDbEntity
  8
D-A
  6
Continuous
 62
     3
370
     9
100
AcDbLine
 10
742.9083802491062
 20
732.9174081482954
 30
0.0
 11
742.9083802491062
 21
769.6401853579293
 31
0.0
  0
SOLID
  5
543
330
1F
100
AcDbEntity
  8
D-5
  6
Continuous
 62
     4
370
     9
100
AcDbTrace
 10
538.9189171014096
 20
1014.639800038423
 30
0.0
 11
538.9189171014096
 21
1054.639800038423
 31
0.0
 12
534.9189171014099
 22
1014.639800038423
 32
0.0
 13
534.9189171014099
 23
1054.639800038423
 33
0.0
  0
LINE
  5
544
330
1F
100
AcDbEntity
  8
D-5
  6
Continuous
 62
     4
370
     9
100
AcDbLine
 10
546.5850068991217
 20
1035.620796911897
 30
0.0
 11
595.8343995820634
 21
1035.620796911897
 31
0.0
  0
LINE
  5
545
330
1F
100
AcDbEntity
  8
D-5
  6
Continuous
 62
     4
370
     9
100
AcDbLine
 10
546.5850068991217
 20
1035.620796911897
 30
0.0
 11
571.3711284334671
 21
1032.357642106396
 31
0.0
  0
LINE
  5
546
330
1F
100
AcDbEntity
  8
D-5
  6
Continuous
 62
     4
370
     9
100
AcDbLine
 10
546.5850068991217
 20
1035.620796911897
 30
0.0
 11
571.3711284334671
 21
1038.883951717399
 31
0.0
  0
SOLID
  5
547
330
1F
100
AcDbEntity
  8
D-5
  6
Continuous
 62
     4
370
     9
100
AcDbTrace
 10
1136.679292203081
 20
826.6401243227732
 30
0.0
 11
1176.679292203081
 21
826.6401243227732
 31
0.0
 12
1136.679292203081
 22
822.6401243227734
 32
0.0
 13
1176.679292203081
 23
822.6401243227734
 33
0.0
  0
LINE
  5
548
330
1F
100
AcDbEntity
  8
D-5
  6
Continuous
 62
     4
370
     9
100
AcDbLine
 10
1154.7234380263
 20
817.9828064836629
 30
0.0
 11
1154.7234380263
 21
768.7334138007209
 31
0.0
  0
LINE
  5
549
330
1F
100
AcDbEntity
  8
D-5
  6
Continuous
 62
     4
370
     9
100
AcDbLine
 10
1154.7234380263
 20
817.9828064836629
 30
0.0
 11
1157.986592831801
 21
793.1966849493175
 31
0.0
  0
LINE
  5
54A
330
1F
100
AcDbEntity
  8
D-5
  6
Continuous
 62
     4
370
     9
100
AcDbLine
 10
1154.7234380263
 20
817.9828064836629
 30
0.0
 11
1151.460283220799
 21
793.1966849493175
 31
0.0
  0
TEXT
  5
54B
330
1F
100
AcDbEntity
  8
D-5
  6
Continuous
 62
     2
370
     9
100
AcDbText
 10
1144.7234380263
 20
727.6881067494201
 30
0.0
 40
30.48
  1
B
 41
1.000000000000014
  7
ＭＳ ゴシック
100
AcDbText
  0
LINE
  5
54C
330
1F
100
AcDbEntity
  8
D-5
  6
JWW_CENTER1
 62
     4
370
     9
100
AcDbLine
 10
1136.679292203081
 20
824.6401243227733
 30
0.0
 11
986.2958446012111
 21
824.6401243227733
 31
0.0
  0
LINE
  5
54D
330
1F
100
AcDbEntity
  8
D-A
  6
Continuous
 62
     3
370
     9
100
AcDbLine
 10
1048.523192693154
 20
769.6401853579293
 30
0.0
 11
57.65731130907298
 21
769.6401853579293
 31
0.0
  0
LINE
  5
54E
330
1F
100
AcDbEntity
  8
D-A
  6
Continuous
 62
     3
370
     9
100
AcDbLine
 10
1048.523192693154
 20
839.6401243227733
 30
0.0
 11
57.65731130907298
 21
839.6401243227733
 31
0.0
  0
LINE
  5
54F
330
1F
100
AcDbEntity
  8
D-A
  6
Continuous
 62
     3
370
     9
100
AcDbLine
 10
1048.523192693154
 20
809.6401243227733
 30
0.0
 11
57.65731130907298
 21
809.6401243227733
 31
0.0
  0
LINE
  5
550
330
1F
100
AcDbEntity
  8
D-A
  6
Continuous
 62
     3
370
     9
100
AcDbLine
 10
1048.523192693154
 20
879.640063287617
 30
0.0
 11
57.65731130907298
 21
879.640063287617
 31
0.0
  0
LINE
  5
551
330
1F
100
AcDbEntity
  8
D-A
  6
Continuous
 62
     3
370
     9
100
AcDbLine
 10
1048.523192693154
 20
949.6398000384231
 30
0.0
 11
57.65731130907298
 21
949.6398000384231
 31
0.0
  0
LINE
  5
552
330
1F
100
AcDbEntity
  8
D-A
  6
Continuous
 62
     3
370
     9
100
AcDbLine
 10
1048.523192693154
 20
909.6398610735791
 30
0.0
 11
57.65731130907298
 21
909.6398610735791
 31
0.0
  0
LINE
  5
553
330
1F
100
AcDbEntity
  8
D-0
  6
Continuous
 62
     3
370
     9
100
AcDbLine
 10
1063.524047185341
 20
429.2605380551296
 30
0.0
 11
1048.523192693154
 21
429.2605380551296
 31
0.0
  0
LINE
  5
554
330
1F
100
AcDbEntity
  8
D-0
  6
Continuous
 62
     3
370
     9
100
AcDbLine
 10
1063.524047185341
 20
429.2605380551296
 30
0.0
 11
1033.52307062284
 21
409.2594546811059
 31
0.0
  0
LINE
  5
555
330
1F
100
AcDbEntity
  8
D-0
  6
Continuous
 62
     3
370
     9
100
AcDbLine
 10
1048.523192693154
 20
409.2594546811059
 30
0.0
 11
1033.52307062284
 21
409.2594546811059
 31
0.0
  0
LINE
  5
556
330
1F
100
AcDbEntity
  8
D-0
  6
Continuous
 62
     3
370
     9
100
AcDbLine
 10
1048.523192693154
 20
429.2605380551296
 30
0.0
 11
1048.523192693154
 21
491.3516104069714
 31
0.0
  0
LINE
  5
557
330
1F
100
AcDbEntity
  8
D-0
  6
Continuous
 62
     3
370
     9
100
AcDbLine
 10
1048.523192693154
 20
352.1679369375835
 30
0.0
 11
1048.523192693154
 21
409.2594546811059
 31
0.0
  0
LINE
  5
558
330
1F
100
AcDbEntity
  8
D-0
  6
Continuous
 62
     3
370
     9
100
AcDbLine
 10
57.657360797037
 20
459.2598973921886
 30
0.0
 11
1048.523192693154
 21
459.2598973921886
 31
0.0
  0
LINE
  5
559
330
1F
100
AcDbEntity
  8
D-0
  6
Continuous
 62
     3
370
     9
100
AcDbLine
 10
57.657360797037
 20
452.259824809841
 30
0.0
 11
1048.523192693154
 21
452.259824809841
 31
0.0
  0
LINE
  5
55A
330
1F
100
AcDbEntity
  8
D-0
  6
Continuous
 62
     3
370
     9
100
AcDbLine
 10
57.657360797037
 20
384.2600211120999
 30
0.0
 11
1048.523192693154
 21
384.2600211120999
 31
0.0
  0
LINE
  5
55B
330
1F
100
AcDbEntity
  8
D-2
  6
Continuous
 62
     3
370
     9
100
AcDbLine
 10
1569.241887166952
 20
384.2600211120995
 30
0.0
 11
1300.442744958328
 21
384.2600211120995
 31
0.0
  0
LINE
  5
55C
330
1F
100
AcDbEntity
  8
D-2
  6
Continuous
 62
     3
370
     9
100
AcDbLine
 10
1569.241887166952
 20
459.2598973921886
 30
0.0
 11
1300.442744958328
 21
459.2598973921886
 31
0.0
  0
LINE
  5
55D
330
1F
100
AcDbEntity
  8
D-5
  6
Continuous
 62
     7
370
     9
100
AcDbLine
 10
1336.382255205475
 20
188.4454864743068
 30
0.0
 11
1533.302376919805
 21
188.4454864743068
 31
0.0
  0
TEXT
  5
55E
330
1F
100
AcDbEntity
  8
D-5
  6
Continuous
 62
     2
370
     9
100
AcDbText
 10
1338.619369638366
 20
209.0854864743068
 30
0.0
 40
30.48
  1
C-C断面図
 41
1.097222222222225
  7
ＭＳ ゴシック
100
AcDbText
  0
LWPOLYLINE
  5
55F
330
1F
100
AcDbEntity
  8
D-4
  6
Continuous
 62
     7
370
     9
100
AcDbPolyline
 90
        4
 70
     1
 43
1.0
 10
1337.64306234114
 20
529.2598973921886
 42
0.4142135623731
 10
1337.14306234114
 20
529.7598973921886
 42
0.4142135623731
 10
1336.64306234114
 20
529.2598973921886
 42
0.4142135623731
 10
1337.14306234114
 20
528.7598973921887
 42
0.4142135623731
  0
LWPOLYLINE
  5
560
330
1F
100
AcDbEntity
  8
D-4
  6
Continuous
 62
     7
370
     9
100
AcDbPolyline
 90
        4
 70
     1
 43
1.0
 10
1377.642204549756
 20
529.2598973921886
 42
0.4142135623731
 10
1377.142204549756
 20
529.7598973921886
 42
0.4142135623731
 10
1376.642204549756
 20
529.2598973921886
 42
0.4142135623731
 10
1377.142204549756
 20
528.7598973921887
 42
0.4142135623731
  0
LINE
  5
561
330
1F
100
AcDbEntity
  8
D-4
  6
Continuous
 62
     7
370
     9
100
AcDbLine
 10
1337.14306234114
 20
532.2598973921886
 30
0.0
 11
1337.14306234114
 21
479.2598973921886
 31
0.0
  0
LINE
  5
562
330
1F
100
AcDbEntity
  8
D-4
  6
Continuous
 62
     7
370
     9
100
AcDbLine
 10
1377.142204549756
 20
532.2598973921886
 30
0.0
 11
1377.142204549756
 21
479.2598973921886
 31
0.0
  0
LINE
  5
563
330
1F
100
AcDbEntity
  8
D-2
  6
Continuous
 62
     3
370
     9
100
AcDbLine
 10
1377.142204549755
 20
459.2598973921886
 30
0.0
 11
1377.142204549755
 21
452.2598248098402
 31
0.0
  0
LINE
  5
564
330
1F
100
AcDbEntity
  8
D-2
  6
Continuous
 62
     3
370
     9
100
AcDbLine
 10
1377.142204549755
 20
459.2598973921886
 30
0.0
 11
1337.14306234114
 21
459.2598973921886
 31
0.0
  0
LINE
  5
565
330
1F
100
AcDbEntity
  8
D-2
  6
Continuous
 62
     3
370
     9
100
AcDbLine
 10
1337.14306234114
 20
459.2598973921886
 30
0.0
 11
1337.14306234114
 21
452.2598248098402
 31
0.0
  0
LINE
  5
566
330
1F
100
AcDbEntity
  8
D-2
  6
Continuous
 62
     3
370
     9
100
AcDbLine
 10
1377.142204549755
 20
452.2598248098402
 30
0.0
 11
1337.14306234114
 21
452.2598248098402
 31
0.0
  0
ARC
  5
567
330
1F
100
AcDbEntity
  8
D-2
  6
Continuous
 62
     3
370
     9
100
AcDbCircle
 10
1365.642562512699
 20
447.2599320337636
 30
0.0
 40
5.000000064437454
100
AcDbArc
 50
90.0
 51
180.0
  0
ARC
  5
568
330
1F
100
AcDbEntity
  8
D-2
  6
Continuous
 62
     3
370
     9
100
AcDbCircle
 10
1348.642704378196
 20
447.2599320337636
 30
0.0
 40
5.000000064437454
100
AcDbArc
 50
0.0
 51
90.0
  0
LINE
  5
569
330
1F
100
AcDbEntity
  8
D-2
  6
Continuous
 62
     3
370
     9
100
AcDbLine
 10
1353.642597154274
 20
452.2598248098402
 30
0.0
 11
1353.642597154274
 21
384.2600211120995
 31
0.0
  0
LINE
  5
56A
330
1F
100
AcDbEntity
  8
D-2
  6
Continuous
 62
     3
370
     9
100
AcDbLine
 10
1360.642669736621
 20
452.2598248098402
 30
0.0
 11
1360.642669736621
 21
384.2600211120995
 31
0.0
  0
LINE
  5
56B
330
1F
100
AcDbEntity
  8
D-2
  6
Continuous
 62
     3
370
     9
100
AcDbLine
 10
1353.39243549359
 20
443.5084572924216
 30
0.0
 11
1300.442744958328
 21
443.5084572924216
 31
0.0
  0
LINE
  5
56C
330
1F
100
AcDbEntity
  8
D-2
  6
Continuous
 62
     3
370
     9
100
AcDbLine
 10
1353.39243549359
 20
418.7598973921887
 30
0.0
 11
1300.442744958328
 21
418.7598973921887
 31
0.0
  0
LINE
  5
56D
330
1F
100
AcDbEntity
  8
D-2
  6
Continuous
 62
     3
370
     9
100
AcDbLine
 10
1353.39243549359
 20
394.011337491957
 30
0.0
 11
1300.442744958328
 21
394.011337491957
 31
0.0
  0
LINE
  5
56E
330
1F
100
AcDbEntity
  8
D-4
  6
Continuous
 62
     7
370
     9
100
AcDbLine
 10
1337.14306234114
 20
529.2598973921886
 30
0.0
 11
1377.142204549756
 21
529.2598973921886
 31
0.0
  0
TEXT
  5
56F
330
1F
100
AcDbEntity
  8
D-4
  6
Continuous
 62
     2
370
   211
100
AcDbText
 10
1347.142633445447
 20
544.8998973921886
 30
0.0
 40
30.48
  1
8
 41
0.9999999999999998
  7
ＭＳ ゴシック
100
AcDbText
  0
TEXT
  5
570
330
1F
100
AcDbEntity
  8
D-4
  6
Continuous
 62
     2
370
   211
100
AcDbText
 10
1417.742130317806
 20
544.8998973921886
 30
0.0
 40
30.48
  1
8
 41
0.9999999999999998
  7
ＭＳ ゴシック
100
AcDbText
  0
LINE
  5
571
330
1F
100
AcDbEntity
  8
D-2
  6
Continuous
 62
     3
370
     9
100
AcDbLine
 10
1447.142559213501
 20
459.2598973921886
 30
0.0
 11
1447.142559213501
 21
452.2598248098402
 31
0.0
  0
LINE
  5
572
330
1F
100
AcDbEntity
  8
D-2
  6
Continuous
 62
     3
370
     9
100
AcDbLine
 10
1447.142559213501
 20
459.2598973921886
 30
0.0
 11
1407.143417004886
 21
459.2598973921886
 31
0.0
  0
LINE
  5
573
330
1F
100
AcDbEntity
  8
D-2
  6
Continuous
 62
     3
370
     9
100
AcDbLine
 10
1407.143417004886
 20
459.2598973921886
 30
0.0
 11
1407.143417004886
 21
452.2598248098402
 31
0.0
  0
LINE
  5
574
330
1F
100
AcDbEntity
  8
D-2
  6
Continuous
 62
     3
370
     9
100
AcDbLine
 10
1447.142559213501
 20
452.2598248098402
 30
0.0
 11
1407.143417004886
 21
452.2598248098402
 31
0.0
  0
ARC
  5
575
330
1F
100
AcDbEntity
  8
D-2
  6
Continuous
 62
     3
370
     9
100
AcDbCircle
 10
1435.642917176445
 20
447.2599320337636
 30
0.0
 40
5.000000064437454
100
AcDbArc
 50
90.0
 51
180.0
  0
ARC
  5
576
330
1F
100
AcDbEntity
  8
D-2
  6
Continuous
 62
     3
370
     9
100
AcDbCircle
 10
1418.643059041943
 20
447.2599320337636
 30
0.0
 40
5.000000064437454
100
AcDbArc
 50
0.0
 51
90.0
  0
LINE
  5
577
330
1F
100
AcDbEntity
  8
D-2
  6
Continuous
 62
     3
370
     9
100
AcDbLine
 10
1423.64295181802
 20
452.2598248098402
 30
0.0
 11
1423.64295181802
 21
384.2600211120995
 31
0.0
  0
LINE
  5
578
330
1F
100
AcDbEntity
  8
D-2
  6
Continuous
 62
     3
370
     9
100
AcDbLine
 10
1430.643024400368
 20
452.2598248098402
 30
0.0
 11
1430.643024400368
 21
384.2600211120995
 31
0.0
  0
LINE
  5
579
330
1F
100
AcDbEntity
  8
D-2
  6
Continuous
 62
     3
370
     9
100
AcDbLine
 10
1423.392790157337
 20
443.5084572924216
 30
0.0
 11
1360.642669736621
 21
443.5084572924216
 31
0.0
  0
LINE
  5
57A
330
1F
100
AcDbEntity
  8
D-2
  6
Continuous
 62
     3
370
     9
100
AcDbLine
 10
1423.392790157337
 20
418.7598973921887
 30
0.0
 11
1360.642669736621
 21
418.7598973921887
 31
0.0
  0
LINE
  5
57B
330
1F
100
AcDbEntity
  8
D-2
  6
Continuous
 62
     3
370
     9
100
AcDbLine
 10
1423.392790157337
 20
394.011337491957
 30
0.0
 11
1360.642669736621
 21
394.011337491957
 31
0.0
  0
TEXT
  5
57C
330
1F
100
AcDbEntity
  8
D-4
  6
Continuous
 62
     2
370
   211
100
AcDbText
 10
1488.341627190163
 20
544.8998973921886
 30
0.0
 40
30.48
  1
8
 41
0.9999999999999998
  7
ＭＳ ゴシック
100
AcDbText
  0
LINE
  5
57D
330
1F
100
AcDbEntity
  8
D-2
  6
Continuous
 62
     3
370
     9
100
AcDbLine
 10
1517.142913877248
 20
459.2598973921886
 30
0.0
 11
1517.142913877248
 21
452.2598248098402
 31
0.0
  0
LINE
  5
57E
330
1F
100
AcDbEntity
  8
D-2
  6
Continuous
 62
     3
370
     9
100
AcDbLine
 10
1517.142913877248
 20
459.2598973921886
 30
0.0
 11
1477.143771668633
 21
459.2598973921886
 31
0.0
  0
LINE
  5
57F
330
1F
100
AcDbEntity
  8
D-2
  6
Continuous
 62
     3
370
     9
100
AcDbLine
 10
1477.143771668633
 20
459.2598973921886
 30
0.0
 11
1477.143771668633
 21
452.2598248098402
 31
0.0
  0
LINE
  5
580
330
1F
100
AcDbEntity
  8
D-2
  6
Continuous
 62
     3
370
     9
100
AcDbLine
 10
1517.142913877248
 20
452.2598248098402
 30
0.0
 11
1477.143771668633
 21
452.2598248098402
 31
0.0
  0
ARC
  5
581
330
1F
100
AcDbEntity
  8
D-2
  6
Continuous
 62
     3
370
     9
100
AcDbCircle
 10
1505.643271840191
 20
447.2599320337636
 30
0.0
 40
5.000000064437454
100
AcDbArc
 50
90.0
 51
180.0
  0
ARC
  5
582
330
1F
100
AcDbEntity
  8
D-2
  6
Continuous
 62
     3
370
     9
100
AcDbCircle
 10
1488.643413705689
 20
447.2599320337636
 30
0.0
 40
5.000000064437454
100
AcDbArc
 50
0.0
 51
90.0
  0
LINE
  5
583
330
1F
100
AcDbEntity
  8
D-2
  6
Continuous
 62
     3
370
     9
100
AcDbLine
 10
1493.643306481766
 20
452.2598248098402
 30
0.0
 11
1493.643306481766
 21
384.2600211120995
 31
0.0
  0
LINE
  5
584
330
1F
100
AcDbEntity
  8
D-2
  6
Continuous
 62
     3
370
     9
100
AcDbLine
 10
1500.643379064114
 20
452.2598248098402
 30
0.0
 11
1500.643379064114
 21
384.2600211120995
 31
0.0
  0
LINE
  5
585
330
1F
100
AcDbEntity
  8
D-2
  6
Continuous
 62
     3
370
     9
100
AcDbLine
 10
1569.241887166952
 20
443.5084572924216
 30
0.0
 11
1500.643379064114
 21
443.5084572924216
 31
0.0
  0
LINE
  5
586
330
1F
100
AcDbEntity
  8
D-2
  6
Continuous
 62
     3
370
     9
100
AcDbLine
 10
1569.241887166952
 20
418.7598973921887
 30
0.0
 11
1500.643379064114
 21
418.7598973921887
 31
0.0
  0
LINE
  5
587
330
1F
100
AcDbEntity
  8
D-2
  6
Continuous
 62
     3
370
     9
100
AcDbLine
 10
1569.241887166952
 20
394.011337491957
 30
0.0
 11
1500.643379064114
 21
394.011337491957
 31
0.0
  0
LINE
  5
588
330
1F
100
AcDbEntity
  8
D-2
  6
Continuous
 62
     3
370
     9
100
AcDbLine
 10
1493.393144821082
 20
443.5084572924216
 30
0.0
 11
1430.643024400368
 21
443.5084572924216
 31
0.0
  0
LINE
  5
589
330
1F
100
AcDbEntity
  8
D-2
  6
Continuous
 62
     3
370
     9
100
AcDbLine
 10
1493.393144821082
 20
418.7598973921887
 30
0.0
 11
1430.643024400368
 21
418.7598973921887
 31
0.0
  0
LINE
  5
58A
330
1F
100
AcDbEntity
  8
D-2
  6
Continuous
 62
     3
370
     9
100
AcDbLine
 10
1493.393144821082
 20
394.011337491957
 30
0.0
 11
1430.643024400368
 21
394.011337491957
 31
0.0
  0
LWPOLYLINE
  5
58B
330
1F
100
AcDbEntity
  8
D-4
  6
Continuous
 62
     7
370
     9
100
AcDbPolyline
 90
        4
 70
     1
 43
1.0
 10
1447.642559213501
 20
529.2598973921886
 42
0.4142135623731
 10
1447.142559213501
 20
529.7598973921886
 42
0.4142135623731
 10
1446.642559213501
 20
529.2598973921886
 42
0.4142135623731
 10
1447.142559213501
 20
528.7598973921887
 42
0.4142135623731
  0
LINE
  5
58C
330
1F
100
AcDbEntity
  8
D-4
  6
Continuous
 62
     7
370
     9
100
AcDbLine
 10
1447.142559213501
 20
532.2598973921886
 30
0.0
 11
1447.142559213501
 21
479.2598973921886
 31
0.0
  0
LINE
  5
58D
330
1F
100
AcDbEntity
  8
D-4
  6
Continuous
 62
     7
370
     9
100
AcDbLine
 10
1407.143417004886
 20
529.2598973921886
 30
0.0
 11
1447.142559213501
 21
529.2598973921886
 31
0.0
  0
LWPOLYLINE
  5
58E
330
1F
100
AcDbEntity
  8
D-4
  6
Continuous
 62
     7
370
     9
100
AcDbPolyline
 90
        4
 70
     1
 43
1.0
 10
1407.643417004886
 20
529.2598973921886
 42
0.4142135623731
 10
1407.143417004886
 20
529.7598973921886
 42
0.4142135623731
 10
1406.643417004886
 20
529.2598973921886
 42
0.4142135623731
 10
1407.143417004886
 20
528.7598973921887
 42
0.4142135623731
  0
LINE
  5
58F
330
1F
100
AcDbEntity
  8
D-4
  6
Continuous
 62
     7
370
     9
100
AcDbLine
 10
1407.143417004886
 20
532.2598973921886
 30
0.0
 11
1407.143417004886
 21
479.2598973921886
 31
0.0
  0
LWPOLYLINE
  5
590
330
1F
100
AcDbEntity
  8
D-4
  6
Continuous
 62
     7
370
     9
100
AcDbPolyline
 90
        4
 70
     1
 43
1.0
 10
1477.643771668633
 20
529.2598973921886
 42
0.4142135623731
 10
1477.143771668633
 20
529.7598973921886
 42
0.4142135623731
 10
1476.643771668633
 20
529.2598973921886
 42
0.4142135623731
 10
1477.143771668633
 20
528.7598973921887
 42
0.4142135623731
  0
LINE
  5
591
330
1F
100
AcDbEntity
  8
D-4
  6
Continuous
 62
     7
370
     9
100
AcDbLine
 10
1477.143771668633
 20
532.2598973921886
 30
0.0
 11
1477.143771668633
 21
479.2598973921886
 31
0.0
  0
LWPOLYLINE
  5
592
330
1F
100
AcDbEntity
  8
D-4
  6
Continuous
 62
     7
370
     9
100
AcDbPolyline
 90
        4
 70
     1
 43
1.0
 10
1517.642913877248
 20
529.2598973921886
 42
0.4142135623731
 10
1517.142913877248
 20
529.7598973921886
 42
0.4142135623731
 10
1516.642913877247
 20
529.2598973921886
 42
0.4142135623731
 10
1517.142913877248
 20
528.7598973921887
 42
0.4142135623731
  0
LINE
  5
593
330
1F
100
AcDbEntity
  8
D-4
  6
Continuous
 62
     7
370
     9
100
AcDbLine
 10
1517.142913877248
 20
532.2598973921886
 30
0.0
 11
1517.142913877248
 21
479.2598973921886
 31
0.0
  0
LINE
  5
594
330
1F
100
AcDbEntity
  8
D-4
  6
Continuous
 62
     7
370
     9
100
AcDbLine
 10
1477.143771668633
 20
529.2598973921886
 30
0.0
 11
1517.142913877248
 21
529.2598973921886
 31
0.0
  0
LINE
  5
595
330
1F
100
AcDbEntity
  8
D-4
  6
Continuous
 62
     7
370
     9
100
AcDbLine
 10
1447.142559213501
 20
529.2598973921886
 30
0.0
 11
1477.143771668633
 21
529.2598973921886
 31
0.0
  0
TEXT
  5
596
330
1F
100
AcDbEntity
  8
D-4
  6
Continuous
 62
     2
370
   211
100
AcDbText
 10
1452.143165441067
 20
544.8998973921886
 30
0.0
 40
30.48
  1
6
 41
0.9999999999999998
  7
ＭＳ ゴシック
100
AcDbText
  0
LINE
  5
597
330
1F
100
AcDbEntity
  8
D-4
  6
Continuous
 62
     7
370
     9
100
AcDbLine
 10
1377.142204549756
 20
529.2598973921886
 30
0.0
 11
1407.143417004886
 21
529.2598973921886
 31
0.0
  0
TEXT
  5
598
330
1F
100
AcDbEntity
  8
D-4
  6
Continuous
 62
     2
370
   211
100
AcDbText
 10
1382.142810777321
 20
544.8998973921886
 30
0.0
 40
30.48
  1
6
 41
0.9999999999999998
  7
ＭＳ ゴシック
100
AcDbText
  0
LINE
  5
599
330
1F
100
AcDbEntity
  8
D-4
  6
Continuous
 62
     7
370
     9
100
AcDbLine
 10
1692.241887166952
 20
459.2598973921886
 30
0.0
 11
1589.241887166952
 21
459.2598973921886
 31
0.0
  0
LWPOLYLINE
  5
59A
330
1F
100
AcDbEntity
  8
D-4
  6
Continuous
 62
     7
370
     9
100
AcDbPolyline
 90
        4
 70
     1
 43
1.0
 10
1689.741887166952
 20
459.2598973921886
 42
0.4142135623731
 10
1689.241887166952
 20
459.7598973921886
 42
0.4142135623731
 10
1688.741887166951
 20
459.2598973921886
 42
0.4142135623731
 10
1689.241887166952
 20
458.7598973921887
 42
0.4142135623731
  0
LINE
  5
59B
330
1F
100
AcDbEntity
  8
D-4
  6
Continuous
 62
     7
370
     9
100
AcDbLine
 10
1689.241887166952
 20
459.2598973921886
 30
0.0
 11
1689.241887166952
 21
384.2600211120995
 31
0.0
  0
TEXT
  5
59C
330
1F
100
AcDbEntity
  8
D-4
  6
Continuous
 62
     2
370
   211
100
AcDbText
 10
1673.601887166951
 20
400.5099592521441
 30
0.0
 40
30.48
  1
15
 50
90.0
 41
1.0625
  7
ＭＳ ゴシック
100
AcDbText
  0
LINE
  5
59D
330
1F
100
AcDbEntity
  8
D-4
  6
Continuous
 62
     7
370
     9
100
AcDbLine
 10
1692.241887166952
 20
384.2600211120995
 30
0.0
 11
1589.241887166952
 21
384.2600211120995
 31
0.0
  0
LWPOLYLINE
  5
59E
330
1F
100
AcDbEntity
  8
D-4
  6
Continuous
 62
     7
370
     9
100
AcDbPolyline
 90
        4
 70
     1
 43
1.0
 10
1689.741887166952
 20
384.2600211120995
 42
0.4142135623731
 10
1689.241887166952
 20
384.7600211120995
 42
0.4142135623731
 10
1688.741887166951
 20
384.2600211120995
 42
0.4142135623731
 10
1689.241887166952
 20
383.7600211120996
 42
0.4142135623731
  0
LINE
  5
59F
330
1F
100
AcDbEntity
  8
D-2
  6
Continuous
 62
     3
370
     9
100
AcDbLine
 10
-818.9065516515137
 20
-283.6081094290754
 30
0.0
 11
-826.4069475552304
 21
-273.8595990168077
 31
0.0
  0
LINE
  5
5A0
330
1F
100
AcDbEntity
  8
D-2
  6
Continuous
 62
     3
370
     9
100
AcDbLine
 10
-818.9065516515137
 20
-313.6082084050046
 30
0.0
 11
-826.4069475552304
 21
-323.3567188172724
 31
0.0
  0
ARC
  5
5A1
330
1F
100
AcDbEntity
  8
D-2
  6
Continuous
 62
     3
370
     9
100
AcDbCircle
 10
-836.3955983153647
 20
-287.417692938366
 30
0.0
 40
15.00000019331236
100
AcDbArc
 50
311.7518768310547
 51
357.7665100097656
  0
ARC
  5
5A2
330
1F
100
AcDbEntity
  8
D-2
  6
Continuous
 62
     3
370
     9
100
AcDbCircle
 10
-846.3916722701794
 20
-288.88006229014
 30
0.0
 40
25.00000322187269
100
AcDbArc
 50
2.014007568359375
 51
36.92071533203126
  0
ARC
  5
5A3
330
1F
100
AcDbEntity
  8
D-2
  6
Continuous
 62
     3
370
     9
100
AcDbCircle
 10
-836.3955983153647
 20
-309.7986248957139
 30
0.0
 40
15.00000019331236
100
AcDbArc
 50
2.233489990234375
 51
48.24812316894532
  0
ARC
  5
5A4
330
1F
100
AcDbEntity
  8
D-2
  6
Continuous
 62
     3
370
     9
100
AcDbCircle
 10
-846.3916722701794
 20
-308.3362555439405
 30
0.0
 40
25.00000322187269
100
AcDbArc
 50
323.0792846679688
 51
357.9859924316406
  0
LINE
  5
5A5
330
1F
100
AcDbEntity
  8
D-2
  6
Continuous
 62
     3
370
     9
100
AcDbLine
 10
-818.9065516515137
 20
-283.6081094290754
 30
0.0
 11
-818.9065516515137
 21
-313.6082084050046
 31
0.0
  0
LINE
  5
5A6
330
1F
100
AcDbEntity
  8
D-2
  6
Continuous
 62
     3
370
     9
100
AcDbLine
 10
-826.4069475552304
 20
-273.8595990168078
 30
0.0
 11
-835.406667046106
 21
-273.8595990168078
 31
0.0
  0
LINE
  5
5A7
330
1F
100
AcDbEntity
  8
D-2
  6
Continuous
 62
     3
370
     9
100
AcDbLine
 10
-826.4069308877487
 20
-298.6081589170407
 30
0.0
 11
-835.406667046106
 21
-298.6081589170407
 31
0.0
  0
LINE
  5
5A8
330
1F
100
AcDbEntity
  8
D-2
  6
Continuous
 62
     3
370
     9
100
AcDbLine
 10
-826.4049815983384
 20
-323.3567188172724
 30
0.0
 11
-835.406667046106
 21
-323.3567188172724
 31
0.0
  0
LINE
  5
5A9
330
1F
100
AcDbEntity
  8
D-2
  6
Continuous
 62
     3
370
     9
100
AcDbLine
 10
-842.4066365285279
 20
-323.3574251162036
 30
0.0
 11
-905.4074824376465
 21
-323.3574251162036
 31
0.0
  0
LINE
  5
5AA
330
1F
100
AcDbEntity
  8
D-2
  6
Continuous
 62
     3
370
     9
100
AcDbLine
 10
-842.4066365285279
 20
-273.8595990168078
 30
0.0
 11
-905.4074824376465
 21
-273.8595990168078
 31
0.0
  0
LINE
  5
5AB
330
1F
100
AcDbEntity
  8
D-2
  6
Continuous
 62
     3
370
     9
100
AcDbLine
 10
-842.4066365285279
 20
-298.6087612139208
 30
0.0
 11
-905.4074824376465
 21
-298.6087612139208
 31
0.0
  0
LINE
  5
5AC
330
1F
100
AcDbEntity
  8
D-2
  6
Continuous
 62
     3
370
     9
100
AcDbLine
 10
-912.4074519200684
 20
-323.3574251162036
 30
0.0
 11
-975.4073107762696
 21
-323.3574251162036
 31
0.0
  0
LINE
  5
5AD
330
1F
100
AcDbEntity
  8
D-2
  6
Continuous
 62
     3
370
     9
100
AcDbLine
 10
-912.4074519200684
 20
-273.8595990168078
 30
0.0
 11
-975.4073107762696
 21
-273.8595990168078
 31
0.0
  0
LINE
  5
5AE
330
1F
100
AcDbEntity
  8
D-2
  6
Continuous
 62
     3
370
     9
100
AcDbLine
 10
-912.4074519200684
 20
-298.6087612139208
 30
0.0
 11
-975.4073107762696
 21
-298.6087612139208
 31
0.0
  0
LINE
  5
5AF
330
1F
100
AcDbEntity
  8
D-2
  6
Continuous
 62
     3
370
     9
100
AcDbLine
 10
-982.4072802586915
 20
-323.3574251162036
 30
0.0
 11
-1045.407139114893
 21
-323.3574251162036
 31
0.0
  0
LINE
  5
5B0
330
1F
100
AcDbEntity
  8
D-2
  6
Continuous
 62
     3
370
     9
100
AcDbLine
 10
-982.4072802586915
 20
-273.8595990168078
 30
0.0
 11
-1045.407139114893
 21
-273.8595990168078
 31
0.0
  0
LINE
  5
5B1
330
1F
100
AcDbEntity
  8
D-2
  6
Continuous
 62
     3
370
     9
100
AcDbLine
 10
-982.4072802586915
 20
-298.6087612139208
 30
0.0
 11
-1045.407139114893
 21
-298.6087612139208
 31
0.0
  0
LINE
  5
5B2
330
1F
100
AcDbEntity
  8
D-2
  6
Continuous
 62
     3
370
     9
100
AcDbLine
 10
-1052.407108597315
 20
-323.3574251162036
 30
0.0
 11
-1115.40746336416
 21
-323.3574251162036
 31
0.0
  0
LINE
  5
5B3
330
1F
100
AcDbEntity
  8
D-2
  6
Continuous
 62
     3
370
     9
100
AcDbLine
 10
-1052.407108597315
 20
-273.8595990168078
 30
0.0
 11
-1115.40746336416
 21
-273.8595990168078
 31
0.0
  0
LINE
  5
5B4
330
1F
100
AcDbEntity
  8
D-2
  6
Continuous
 62
     3
370
     9
100
AcDbLine
 10
-1052.407108597315
 20
-298.6087612139208
 30
0.0
 11
-1115.40746336416
 21
-298.6087612139208
 31
0.0
  0
LINE
  5
5B5
330
1F
100
AcDbEntity
  8
D-2
  6
Continuous
 62
     3
370
     9
100
AcDbLine
 10
-1122.407432846582
 20
-323.3574251162036
 30
0.0
 11
-1185.407291702783
 21
-323.3574251162036
 31
0.0
  0
LINE
  5
5B6
330
1F
100
AcDbEntity
  8
D-2
  6
Continuous
 62
     3
370
     9
100
AcDbLine
 10
-1122.407432846582
 20
-273.8595990168078
 30
0.0
 11
-1185.407291702783
 21
-273.8595990168078
 31
0.0
  0
LINE
  5
5B7
330
1F
100
AcDbEntity
  8
D-2
  6
Continuous
 62
     3
370
     9
100
AcDbLine
 10
-1122.407432846582
 20
-298.6087612139208
 30
0.0
 11
-1185.407291702783
 21
-298.6087612139208
 31
0.0
  0
LINE
  5
5B8
330
1F
100
AcDbEntity
  8
D-2
  6
Continuous
 62
     3
370
     9
100
AcDbLine
 10
-1192.407261185205
 20
-323.3574251162036
 30
0.0
 11
-1255.407139114893
 21
-323.3574251162036
 31
0.0
  0
LINE
  5
5B9
330
1F
100
AcDbEntity
  8
D-2
  6
Continuous
 62
     3
370
     9
100
AcDbLine
 10
-1192.407261185205
 20
-273.8595990168078
 30
0.0
 11
-1255.407139114893
 21
-273.8595990168078
 31
0.0
  0
LINE
  5
5BA
330
1F
100
AcDbEntity
  8
D-2
  6
Continuous
 62
     3
370
     9
100
AcDbLine
 10
-1192.407261185205
 20
-298.6087612139208
 30
0.0
 11
-1255.407139114893
 21
-298.6087612139208
 31
0.0
  0
LINE
  5
5BB
330
1F
100
AcDbEntity
  8
D-2
  6
Continuous
 62
     3
370
     9
100
AcDbLine
 10
-1262.407108597315
 20
-323.3574251162036
 30
0.0
 11
-1325.407444290674
 21
-323.3574251162036
 31
0.0
  0
LINE
  5
5BC
330
1F
100
AcDbEntity
  8
D-2
  6
Continuous
 62
     3
370
     9
100
AcDbLine
 10
-1262.407108597315
 20
-273.8595990168078
 30
0.0
 11
-1325.407444290674
 21
-273.8595990168078
 31
0.0
  0
LINE
  5
5BD
330
1F
100
AcDbEntity
  8
D-2
  6
Continuous
 62
     3
370
     9
100
AcDbLine
 10
-1262.407108597315
 20
-298.6087612139208
 30
0.0
 11
-1325.407444290674
 21
-298.6087612139208
 31
0.0
  0
LINE
  5
5BE
330
1F
100
AcDbEntity
  8
D-2
  6
Continuous
 62
     3
370
     9
100
AcDbLine
 10
-1332.407413773096
 20
-323.3574251162036
 30
0.0
 11
-1395.407291702783
 21
-323.3574251162036
 31
0.0
  0
LINE
  5
5BF
330
1F
100
AcDbEntity
  8
D-2
  6
Continuous
 62
     3
370
     9
100
AcDbLine
 10
-1332.407413773096
 20
-273.8595990168078
 30
0.0
 11
-1395.407291702783
 21
-273.8595990168078
 31
0.0
  0
LINE
  5
5C0
330
1F
100
AcDbEntity
  8
D-2
  6
Continuous
 62
     3
370
     9
100
AcDbLine
 10
-1332.407413773096
 20
-298.6087612139208
 30
0.0
 11
-1395.407291702783
 21
-298.6087612139208
 31
0.0
  0
LINE
  5
5C1
330
1F
100
AcDbEntity
  8
D-2
  6
Continuous
 62
     3
370
     9
100
AcDbLine
 10
-1402.407261185205
 20
-323.3574251162036
 30
0.0
 11
-1465.408111862695
 21
-323.3574251162036
 31
0.0
  0
LINE
  5
5C2
330
1F
100
AcDbEntity
  8
D-2
  6
Continuous
 62
     3
370
     9
100
AcDbLine
 10
-1402.407261185205
 20
-298.6087612139208
 30
0.0
 11
-1465.408111862695
 21
-298.6087612139208
 31
0.0
  0
LINE
  5
5C3
330
1F
100
AcDbEntity
  8
D-2
  6
Continuous
 62
     3
370
     9
100
AcDbLine
 10
-1402.407261185205
 20
-273.8595990168078
 30
0.0
 11
-1465.408111862695
 21
-273.8595990168078
 31
0.0
  0
LINE
  5
5C4
330
1F
100
AcDbEntity
  8
D-2
  6
Continuous
 62
     3
370
     9
100
AcDbLine
 10
-1493.906499199426
 20
-281.1532110253487
 30
0.0
 11
-1473.906244886275
 21
-281.1532110253487
 31
0.0
  0
LINE
  5
5C5
330
1F
100
AcDbEntity
  8
D-2
  6
Continuous
 62
     3
370
     9
100
AcDbLine
 10
-1493.906499199426
 20
-323.3574251162034
 30
0.0
 11
-1472.4070942922
 21
-323.3574251162034
 31
0.0
  0
LINE
  5
5C6
330
1F
100
AcDbEntity
  8
D-2
  6
Continuous
 62
     3
370
     9
100
AcDbLine
 10
-1497.179921165231
 20
-298.6087612139208
 30
0.0
 11
-1472.4070942922
 21
-298.6087612139208
 31
0.0
  0
LINE
  5
5C7
330
1F
100
AcDbEntity
  8
D-2
  6
Continuous
 62
     3
370
     9
100
AcDbLine
 10
-1493.906499199426
 20
-273.8595990168078
 30
0.0
 11
-1472.4070942922
 21
-273.8595990168078
 31
0.0
  0
LINE
  5
5C8
330
1F
100
AcDbEntity
  8
D-2
  6
Continuous
 62
     3
370
     9
100
AcDbLine
 10
-1493.906499199426
 20
-357.0178078036483
 30
0.0
 11
-1493.906499199426
 21
-311.1538518944892
 31
0.0
  0
LINE
  5
5C9
330
1F
100
AcDbEntity
  8
D-2
  6
Continuous
 62
     3
370
     9
100
AcDbLine
 10
-1513.906427991744
 20
-311.1538518944892
 30
0.0
 11
-1493.906499199426
 21
-311.1538518944892
 31
0.0
  0
LINE
  5
5CA
330
1F
100
AcDbEntity
  8
D-2
  6
Continuous
 62
     3
370
     9
100
AcDbLine
 10
-1513.906427991744
 20
-311.1538518944892
 30
0.0
 11
-1473.906244886275
 21
-281.1532110253487
 31
0.0
  0
LINE
  5
5CB
330
1F
100
AcDbEntity
  8
D-2
  6
Continuous
 62
     3
370
     9
100
AcDbLine
 10
-1493.906499199426
 20
-281.1532110253487
 30
0.0
 11
-1493.906499199426
 21
-232.0179315235588
 31
0.0
  0
LINE
  5
5CC
330
1F
100
AcDbEntity
  8
D-5
  6
Continuous
 62
     7
370
     9
100
AcDbLine
 10
-625.6726970370852
 20
15.62637685547315
 30
0.0
 11
145.9472492662172
 21
15.62637685547315
 31
0.0
  0
LINE
  5
5CD
330
1F
100
AcDbEntity
  8
D-5
  6
Continuous
 62
     7
370
     9
100
AcDbLine
 10
-532.160950951135
 20
-200.7282089220507
 30
0.0
 11
-145.4574788136838
 21
-200.7282089220507
 31
0.0
  0
LINE
  5
5CE
330
1F
100
AcDbEntity
  8
D-5
  6
Continuous
 62
     7
370
     9
100
AcDbLine
 10
-625.6726970370852
 20
15.62637685547315
 30
0.0
 11
-863.9230654694285
 21
-258.1095525058527
 31
0.0
  0
LINE
  5
5CF
330
1F
100
AcDbEntity
  8
D-5
  6
Continuous
 62
     7
370
     9
100
AcDbLine
 10
-620.9521804895866
 20
-54.66189780641706
 30
0.0
 11
-795.8494413419129
 21
-255.6087612139208
 31
0.0
  0
LINE
  5
5D0
330
1F
100
AcDbEntity
  8
D-5
  6
Continuous
 62
     7
370
     9
100
AcDbLine
 10
-571.4568267908564
 20
-109.5241681616417
 30
0.0
 11
-819.3901530055763
 21
-394.3855976091845
 31
0.0
  0
LINE
  5
5D1
330
1F
100
AcDbEntity
  8
D-5
  6
Continuous
 62
     7
370
     9
100
AcDbLine
 10
-620.9521804895866
 20
-54.66189780641706
 30
0.0
 11
-170.161813363122
 21
-54.66189780641706
 31
0.0
  0
TEXT
  5
5D2
330
1F
100
AcDbEntity
  8
D-5
  6
Continuous
 62
     7
370
     9
100
AcDbText
 10
-621.3128791895377
 20
-45.6734253637901
 30
0.0
 40
22.86
  1
ステンレス製受枠ＳＦ１５Ｂ
 41
1.153846153846153
  7
ＭＳ ゴシック
100
AcDbText
  0
TEXT
  5
5D3
330
1F
100
AcDbEntity
  8
D-5
  6
Continuous
 62
     7
370
     9
100
AcDbText
 10
-561.8249069301651
 20
-101.7723728888146
 30
0.0
 40
22.86
  1
クッション材
 50
0.0000000020107312
 41
1.138888888888889
  7
ＭＳ ゴシック
100
AcDbText
  0
TEXT
  5
5D4
330
1F
100
AcDbEntity
  8
D-5
  6
Continuous
 62
     7
370
     9
100
AcDbText
 10
-589.7983489162884
 20
-140.4018117676367
 30
0.0
 40
22.86
  1
（軟質塩化ビニル）
 50
0.0000000020106818
 41
1.148148148148146
  7
ＭＳ ゴシック
100
AcDbText
  0
LINE
  5
5D5
330
1F
100
AcDbEntity
  8
D-5
  6
Continuous
 62
     7
370
     9
100
AcDbLine
 10
-571.4568267908564
 20
-109.5241681616417
 30
0.0
 11
-291.1248795283851
 21
-109.5241681616417
 31
0.0
  0
LINE
  5
5D6
330
1F
100
AcDbEntity
  8
D-5
  6
Continuous
 62
     7
370
     9
100
AcDbLine
 10
-653.9075482411744
 20
-340.6089519487841
 30
0.0
 11
-532.160950951135
 21
-200.7282089220507
 31
0.0
  0
TEXT
  5
5D7
330
1F
100
AcDbEntity
  8
D-5
  6
Continuous
 62
     7
370
     9
100
AcDbText
 10
-625.6726970370852
 20
60.48847219238722
 30
0.0
 40
22.86
  1
ステンレス製　縦目タイプ　細目プレーンタイプ
 41
1.159090909090909
  7
ＭＳ ゴシック
100
AcDbText
  0
TEXT
  5
5D8
330
1F
100
AcDbEntity
  8
D-5
  6
Continuous
 62
     7
370
     9
100
AcDbText
 10
-625.6726997791793
 20
27.78335592041367
 30
0.0
 40
22.86
  1
グレーチング（すきま6mm）ＹＲーＨ－Ａ－１５
 50
0.0000371419447595
 41
1.15891472868217
  7
ＭＳ ゴシック
100
AcDbText
  0
TEXT
  5
5D9
330
1F
100
AcDbEntity
  8
D-5
  6
Continuous
 62
     7
370
     9
100
AcDbText
 10
-531.718999199426
 20
-230.2579650103076
 30
0.0
 40
22.86
  1
ｔ＝２．３（ＳＰＨＣ）
 41
1.151515151515152
  7
ＭＳ ゴシック
100
AcDbText
  0
LINE
  5
5DA
330
1F
100
AcDbEntity
  8
D-5
  6
Continuous
 62
     7
370
     9
100
AcDbLine
 10
-863.9230654694285
 20
-258.1095525058527
 30
0.0
 11
-845.1893899895396
 21
-241.555444839837
 31
0.0
  0
LINE
  5
5DB
330
1F
100
AcDbEntity
  8
D-5
  6
Continuous
 62
     7
370
     9
100
AcDbLine
 10
-863.9230654694285
 20
-258.1095525058527
 30
0.0
 11
-850.1123688675608
 21
-237.2711273463983
 31
0.0
  0
LINE
  5
5DC
330
1F
100
AcDbEntity
  8
D-5
  6
Continuous
 62
     7
370
     9
100
AcDbLine
 10
-819.3901530055763
 20
-394.3855976091845
 30
0.0
 11
-884.4386446996094
 21
-337.7685951220019
 31
0.0
  0
LINE
  5
5DD
330
1F
100
AcDbEntity
  8
D-5
  6
Continuous
 62
     7
370
     9
100
AcDbLine
 10
-884.4386446996094
 20
-337.7685951220019
 30
0.0
 11
-863.6002219243409
 21
-351.5802883135302
 31
0.0
  0
LINE
  5
5DE
330
1F
100
AcDbEntity
  8
D-5
  6
Continuous
 62
     7
370
     9
100
AcDbLine
 10
-884.4386446996094
 20
-337.7685951220019
 30
0.0
 11
-867.8850329442383
 21
-356.5027641283496
 31
0.0
  0
LINE
  5
5DF
330
1F
100
AcDbEntity
  8
D-5
  6
Continuous
 62
     7
370
     9
100
AcDbLine
 10
-655.4048550649048
 20
-420.4655082297219
 30
0.0
 11
-641.5931714101197
 21
-441.3049228262796
 31
0.0
  0
LINE
  5
5E0
330
1F
100
AcDbEntity
  8
D-5
  6
Continuous
 62
     7
370
     9
100
AcDbLine
 10
-655.4048550649048
 20
-420.4655082297219
 30
0.0
 11
-533.6582577748654
 21
-560.3462512564554
 31
0.0
  0
LINE
  5
5E1
330
1F
100
AcDbEntity
  8
D-5
  6
Continuous
 62
     7
370
     9
100
AcDbLine
 10
-655.4048550649048
 20
-420.4655082297219
 30
0.0
 11
-636.6701901479126
 21
-437.019611127366
 31
0.0
  0
LINE
  5
5E2
330
1F
100
AcDbEntity
  8
D-5
  6
Continuous
 62
     7
370
     9
100
AcDbLine
 10
-533.6582577748654
 20
-560.3462512564554
 30
0.0
 11
-337.2649063705396
 21
-560.3462512564554
 31
0.0
  0
TEXT
  5
5E3
330
1F
100
AcDbEntity
  8
D-5
  6
Continuous
 62
     7
370
     9
100
AcDbText
 10
-533.2163060231564
 20
-548.6525099539651
 30
0.0
 40
22.86
  1
差筋φ9程度
 41
1.136363636363636
  7
ＭＳ ゴシック
100
AcDbText
  0
LINE
  5
5E4
330
1F
100
AcDbEntity
  8
D-5
  6
Continuous
 62
     7
370
     9
100
AcDbLine
 10
-795.8494413419129
 20
-255.6087612139208
 30
0.0
 11
-777.115765862024
 21
-239.0546535479052
 31
0.0
  0
LINE
  5
5E5
330
1F
100
AcDbEntity
  8
D-5
  6
Continuous
 62
     7
370
     9
100
AcDbLine
 10
-795.8494413419129
 20
-255.6087612139208
 30
0.0
 11
-782.0387447400452
 21
-234.7703360544665
 31
0.0
  0
LINE
  5
5E6
330
1F
100
AcDbEntity
  8
D-5
  6
Continuous
 62
     7
370
     9
100
AcDbLine
 10
-653.9075482411744
 20
-340.6089519487841
 30
0.0
 11
-635.1738727612855
 21
-324.0548442827685
 31
0.0
  0
LINE
  5
5E7
330
1F
100
AcDbEntity
  8
D-5
  6
Continuous
 62
     7
370
     9
100
AcDbLine
 10
-653.9075482411744
 20
-340.6089519487841
 30
0.0
 11
-640.0968516393067
 21
-319.7705267893298
 31
0.0
  0
LINE
  5
5E8
330
1F
100
AcDbEntity
  8
D-5
  6
Continuous
 62
     2
370
     9
100
AcDbLine
 10
295.7196308878574
 20
-466.0380742488651
 30
0.0
 11
70.72031753336525
 21
-466.0380742488651
 31
0.0
  0
LINE
  5
5E9
330
1F
100
AcDbEntity
  8
D-5
  6
Continuous
 62
     2
370
     9
100
AcDbLine
 10
295.7196308878574
 20
-416.0378405986576
 30
0.0
 11
295.7196308878574
 21
-466.0380742488651
 31
0.0
  0
LINE
  5
5EA
330
1F
100
AcDbEntity
  8
D-5
  6
Continuous
 62
     2
370
     9
100
AcDbLine
 10
70.72031753336525
 20
-416.0378405986576
 30
0.0
 11
295.7196308878574
 21
-416.0378405986576
 31
0.0
  0
LINE
  5
5EB
330
1F
100
AcDbEntity
  8
D-5
  6
Continuous
 62
     2
370
     9
100
AcDbLine
 10
70.72031753336525
 20
-466.0380742488651
 30
0.0
 11
70.72031753336525
 21
-416.0378405986576
 31
0.0
  0
TEXT
  5
5EC
330
1F
100
AcDbEntity
  8
D-5
  6
Continuous
 62
     2
370
     9
100
AcDbText
 10
232.521541288248
 20
-778.3180962596686
 30
0.0
 40
30.48
  1
　　　サイドバー　ＳＵＳ３０４
 41
1.116666666666666
  7
ＭＳ ゴシック
100
AcDbText
  0
TEXT
  5
5ED
330
1F
100
AcDbEntity
  8
D-5
  6
Continuous
 62
     2
370
     9
100
AcDbText
 10
232.521541288248
 20
-713.3185349498541
 30
0.0
 40
30.48
  1
　　　クロスバー　ＳＵＳ３０４　＠８０
 41
1.118421052631579
  7
ＭＳ ゴシック
100
AcDbText
  0
TEXT
  5
5EE
330
1F
100
AcDbEntity
  8
D-5
  6
Continuous
 62
     2
370
     9
100
AcDbText
 10
232.521541288248
 20
-648.3184777293951
 30
0.0
 40
30.48
  1
材質：メインバー　ＳＵＳ３０４　＠１４
 41
1.118421052631579
  7
ＭＳ ゴシック
100
AcDbText
  0
TEXT
  5
5EF
330
1F
100
AcDbEntity
  8
D-5
  6
Continuous
 62
     2
370
     9
100
AcDbText
 10
118.2198597696934
 20
-455.3978024516849
 30
0.0
 40
30.48
  1
仕　様
 41
1.083333333333333
  7
ＭＳ ゴシック
100
AcDbText
  0
TEXT
  5
5F0
330
1F
100
AcDbEntity
  8
D-5
  6
Continuous
 62
     2
370
     9
100
AcDbText
 10
232.521541288248
 20
-914.5280856070249
 30
0.0
 40
30.48
  1
材質：冷間圧延ステンレス鋼板（ＳＵＳ３０４－２Ｂ）
 41
1.12
  7
ＭＳ ゴシック
100
AcDbText
  0
TEXT
  5
5F1
330
1F
100
AcDbEntity
  8
D-5
  6
Continuous
 62
     2
370
     9
100
AcDbText
 10
172.809627225748
 20
-849.5285433706968
 30
0.0
 40
30.48
  1
ステンレス製受枠　ＳＦ１５Ｂ（四方枠）
 41
1.118421052631579
  7
ＭＳ ゴシック
100
AcDbText
  0
TEXT
  5
5F2
330
1F
100
AcDbEntity
  8
D-5
  6
Continuous
 62
     2
370
     9
100
AcDbText
 10
172.809627225748
 20
-518.3183728252201
 30
0.0
 40
30.48
  1
ステンレス製　縦目タイプ　細目プレーンタイプ
 41
1.119318181818182
  7
ＭＳ ゴシック
100
AcDbText
  0
LINE
  5
5F3
330
1F
100
AcDbEntity
  8
D-4
  6
Continuous
 62
     7
370
     9
100
AcDbLine
 10
-1607.431201962018
 20
-333.1088595615847
 30
0.0
 11
-1607.431201962018
 21
-258.1087612139208
 31
0.0
  0
LINE
  5
5F4
330
1F
100
AcDbEntity
  8
D-4
  6
Continuous
 62
     7
370
     9
100
AcDbLine
 10
-1513.79511003927
 20
-333.1088595615847
 30
0.0
 11
-1610.431308773541
 21
-333.1088595615847
 31
0.0
  0
LINE
  5
5F5
330
1F
100
AcDbEntity
  8
D-4
  6
Continuous
 62
     7
370
     9
100
AcDbLine
 10
-1513.79511003927
 20
-258.1087612139208
 30
0.0
 11
-1610.431308773541
 21
-258.1087612139208
 31
0.0
  0
LWPOLYLINE
  5
5F6
330
1F
100
AcDbEntity
  8
D-4
  6
Continuous
 62
     7
370
     9
100
AcDbPolyline
 90
        4
 70
     1
 43
1.0
 10
-1606.931201962018
 20
-333.1088595615847
 42
0.4142135623731
 10
-1607.431201962018
 20
-332.6088595615847
 42
0.4142135623731
 10
-1607.931201962018
 20
-333.1088595615847
 42
0.4142135623731
 10
-1607.431201962018
 20
-333.6088595615847
 42
0.4142135623731
  0
LWPOLYLINE
  5
5F7
330
1F
100
AcDbEntity
  8
D-4
  6
Continuous
 62
     7
370
     9
100
AcDbPolyline
 90
        4
 70
     1
 43
1.0
 10
-1606.931201962018
 20
-258.1087612139208
 42
0.4142135623731
 10
-1607.431201962018
 20
-257.6087612139208
 42
0.4142135623731
 10
-1607.931201962018
 20
-258.1087612139208
 42
0.4142135623731
 10
-1607.431201962018
 20
-258.6087612139208
 42
0.4142135623731
  0
TEXT
  5
5F8
330
1F
100
AcDbEntity
  8
D-4
  6
Continuous
 62
     2
370
     9
100
AcDbText
 10
-1623.071278255963
 20
-316.8589694806633
 30
0.0
 40
30.48
  1
15
 50
90.00000250447827
 41
1.062500000000001
  7
ＭＳ ゴシック
100
AcDbText
  0
LINE
  5
5F9
330
1F
100
AcDbEntity
  8
D-5
  6
Continuous
 62
     7
370
     9
100
AcDbLine
 10
-710.4043159042436
 20
-995.0255258781724
 30
0.0
 11
-1285.404743150337
 21
-995.0255258781724
 31
0.0
  0
SOLID
  5
5FA
330
1F
100
AcDbEntity
  8
C-5
  6
Continuous
 62
     4
370
     9
100
AcDbTrace
 10
-793.0890991807005
 20
1029.967738536936
 30
0.0
 11
-793.0890991807005
 21
1069.967738536936
 31
0.0
 12
-797.0890991807005
 22
1029.967738536936
 32
0.0
 13
-797.0890991807005
 23
1069.967738536936
 33
0.0
  0
LINE
  5
5FB
330
1F
100
AcDbEntity
  8
C-5
  6
Continuous
 62
     4
370
     9
100
AcDbLine
 10
-785.4230093829883
 20
1050.94873541041
 30
0.0
 11
-736.1736167000468
 21
1050.94873541041
 31
0.0
  0
LINE
  5
5FC
330
1F
100
AcDbEntity
  8
C-5
  6
Continuous
 62
     4
370
     9
100
AcDbLine
 10
-785.4230093829883
 20
1050.94873541041
 30
0.0
 11
-760.6368878486433
 21
1047.685580604909
 31
0.0
  0
LINE
  5
5FD
330
1F
100
AcDbEntity
  8
C-5
  6
Continuous
 62
     4
370
     9
100
AcDbLine
 10
-785.4230093829883
 20
1050.94873541041
 30
0.0
 11
-760.6368878486433
 21
1054.211890215911
 31
0.0
  0
TEXT
  5
5FE
330
1F
100
AcDbEntity
  8
C-5
  6
Continuous
 62
     2
370
     9
100
AcDbText
 10
-728.4628455660961
 20
1038.743553390206
 30
0.0
 40
30.48
  1
A
 41
0.9999999999999998
  7
ＭＳ ゴシック
100
AcDbText
  0
LINE
  5
5FF
330
1F
100
AcDbEntity
  8
C-5
  6
JWW_CENTER1
 62
     4
370
     9
100
AcDbLine
 10
-795.0890991807003
 20
1029.967738536936
 30
0.0
 11
-795.0890991807003
 21
840.5880073422317
 31
0.0
  0
TEXT
  5
600
330
1F
100
AcDbEntity
  8
D-5
  6
Continuous
 62
     2
370
     9
100
AcDbText
 10
172.809627225748
 20
-583.3184300456791
 30
0.0
 40
30.48
  1
グレーチング（すきま６mm）　ＹＲ－Ｈ－Ａ－１５　４５０×４５０×１５
 41
1.121323529411765
  7
ＭＳ ゴシック
100
AcDbText
  0
TEXT
  5
601
330
1F
100
AcDbEntity
  8
D-5
  6
Continuous
 62
     7
370
     9
100
AcDbText
 10
-531.718999199426
 20
-189.0344676195605
 30
0.0
 40
22.86
  1
溶接用アンカー
 41
1.142857142857143
  7
ＭＳ ゴシック
100
AcDbText
  0
ENDSEC
  0
SECTION
  2
OBJECTS
  0
DICTIONARY
  5
C
330
0
100
AcDbDictionary
281
     1
  3
ACAD_GROUP
350
D
  3
ACAD_LAYOUT
350
1A
  3
ACAD_MLEADERSTYLE
350
603
  3
ACAD_MLINESTYLE
350
17
  3
ACAD_PLOTSETTINGS
350
19
  3
ACAD_PLOTSTYLENAME
350
E
  3
ACAD_TABLESTYLE
350
602
  3
ACAD_VISUALSTYLE
350
2A
  0
DICTIONARY
  5
D
102
{ACAD_REACTORS
330
C
102
}
330
C
100
AcDbDictionary
281
     1
  0
DICTIONARY
  5
1A
102
{ACAD_REACTORS
330
C
102
}
330
C
100
AcDbDictionary
281
     1
  3
Layout1
350
1E
  3
Layout2
350
26
  3
Model
350
22
  0
DICTIONARY
  5
603
102
{ACAD_REACTORS
330
C
102
}
330
C
100
AcDbDictionary
281
     1
  0
DICTIONARY
  5
17
102
{ACAD_REACTORS
330
C
102
}
330
C
100
AcDbDictionary
281
     1
  3
Standard
350
18
  0
DICTIONARY
  5
19
102
{ACAD_REACTORS
330
C
102
}
330
C
100
AcDbDictionary
281
     1
  0
ACDBDICTIONARYWDFLT
  5
E
102
{ACAD_REACTORS
330
C
102
}
330
C
100
AcDbDictionary
281
     1
  3
Normal
350
F
100
AcDbDictionaryWithDefault
340
F
  0
DICTIONARY
  5
602
102
{ACAD_REACTORS
330
C
102
}
330
C
100
AcDbDictionary
281
     1
  0
DICTIONARY
  5
2A
102
{ACAD_REACTORS
330
C
102
}
330
C
100
AcDbDictionary
281
     1
  3
2dWireframe
350
2F
  3
3D Hidden
350
31
  3
3dWireframe
350
30
  3
Basic
350
32
  3
Brighten
350
36
  3
ColorChange
350
3A
  3
Conceptual
350
34
  3
Dim
350
35
  3
Facepattern
350
39
  3
Flat
350
2B
  3
FlatWithEdges
350
2C
  3
Gouraud
350
2D
  3
GouraudWithEdges
350
2E
  3
Linepattern
350
38
  3
Realistic
350
33
  3
Thicken
350
37
  0
LAYOUT
  5
1E
102
{ACAD_REACTORS
330
1A
102
}
330
1A
100
AcDbPlotSettings
  1

  2
none_device
  4

  6

 40
0.0
 41
0.0
 42
0.0
 43
0.0
 44
0.0
 45
0.0
 46
0.0
 47
0.0
 48
0.0
 49
0.0
140
0.0
141
0.0
142
1.0
143
1.0
 70
   688
 72
     0
 73
     0
 74
     5
  7

 75
    16
 76
     0
 77
     5
 78
   300
147
1.0
148
0.0
149
0.0
100
AcDbLayout
  1
Layout1
 70
     1
 71
     1
 10
0.0
 20
0.0
 11
420.0
 21
297.0
 12
0.0
 22
0.0
 32
0.0
 14
1.000000000000000E+20
 24
1.000000000000000E+20
 34
1.000000000000000E+20
 15
-1.000000000000000E+20
 25
-1.000000000000000E+20
 35
-1.000000000000000E+20
146
0.0
 13
0.0
 23
0.0
 33
0.0
 16
1.0
 26
0.0
 36
0.0
 17
0.0
 27
1.0
 37
0.0
 76
     0
330
1B
  0
LAYOUT
  5
26
102
{ACAD_REACTORS
330
1A
102
}
330
1A
100
AcDbPlotSettings
  1

  2
none_device
  4

  6

 40
0.0
 41
0.0
 42
0.0
 43
0.0
 44
0.0
 45
0.0
 46
0.0
 47
0.0
 48
0.0
 49
0.0
140
0.0
141
0.0
142
1.0
143
1.0
 70
   688
 72
     0
 73
     0
 74
     5
  7

 75
    16
 76
     0
 77
     5
 78
   300
147
1.0
148
0.0
149
0.0
100
AcDbLayout
  1
Layout2
 70
     1
 71
     2
 10
0.0
 20
0.0
 11
0.0
 21
0.0
 12
0.0
 22
0.0
 32
0.0
 14
0.0
 24
0.0
 34
0.0
 15
0.0
 25
0.0
 35
0.0
146
0.0
 13
0.0
 23
0.0
 33
0.0
 16
1.0
 26
0.0
 36
0.0
 17
0.0
 27
1.0
 37
0.0
 76
     0
330
23
  0
LAYOUT
  5
22
102
{ACAD_REACTORS
330
1A
102
}
330
1A
100
AcDbPlotSettings
  1

  2
none_device
  4

  6

 40
0.0
 41
0.0
 42
0.0
 43
0.0
 44
0.0
 45
0.0
 46
0.0
 47
0.0
 48
0.0
 49
0.0
140
0.0
141
0.0
142
1.0
143
1.0
 70
  1712
 72
     0
 73
     0
 74
     0
  7

 75
     0
 76
     0
 77
     5
 78
   300
147
1.0
148
0.0
149
0.0
100
AcDbLayout
  1
Model
 70
     1
 71
     0
 10
-2100.0
 20
-1485.0
 11
2100.0
 21
1485.0
 12
0.0
 22
0.0
 32
0.0
 14
-2100.0
 24
-1485.0
 34
0.0
 15
2100.0
 25
1485.0
 35
0.0
146
0.0
 13
0.0
 23
0.0
 33
0.0
 16
1.0
 26
0.0
 36
0.0
 17
0.0
 27
1.0
 37
0.0
 76
     0
330
1F
331
29
  0
MLINESTYLE
  5
18
102
{ACAD_REACTORS
330
17
102
}
330
17
100
AcDbMlineStyle
  2
Standard
 70
     0
  3

 62
   256
 51
90.0
 52
90.0
 71
     2
 49
0.5
 62
   256
  6
BYLAYER
 49
-0.5
 62
   256
  6
BYLAYER
  0
ACDBPLACEHOLDER
  5
F
102
{ACAD_REACTORS
330
E
102
}
330
E
  0
VISUALSTYLE
  5
2F
102
{ACAD_REACTORS
330
2A
102
}
330
2A
100
AcDbVisualStyle
  2
2dWireframe
 70
     4
 71
     0
 72
     2
 73
     0
 90
        0
 40
-0.6
 41
-30.0
 62
     5
 63
     7
421
 16777215
 74
     1
 91
        4
 64
     7
 65
   257
 75
     1
175
     1
 42
1.0
 92
        0
 66
   257
 43
1.0
 76
     1
 77
     6
 78
     2
 67
     7
 79
     5
170
     0
171
     0
290
     0
174
     0
 93
        1
 44
0.0
173
     0
291
     0
 45
0.0
1001
ACAD
1000
AcDbSavedByObjectVersion
1070
     0
  0
VISUALSTYLE
  5
31
102
{ACAD_REACTORS
330
2A
102
}
330
2A
100
AcDbVisualStyle
  2
3D Hidden
 70
     6
 71
     1
 72
     2
 73
     2
 90
        0
 40
-0.6
 41
-30.0
 62
     5
 63
     7
421
 16777215
 74
     2
 91
        2
 64
     7
 65
   257
 75
     2
175
     1
 42
40.0
 92
        0
 66
   257
 43
1.0
 76
     1
 77
     6
 78
     2
 67
     7
 79
     3
170
     0
171
     0
290
     0
174
     0
 93
        1
 44
0.0
173
     0
291
     0
 45
0.0
1001
ACAD
1000
AcDbSavedByObjectVersion
1070
     0
  0
VISUALSTYLE
  5
30
102
{ACAD_REACTORS
330
2A
102
}
330
2A
100
AcDbVisualStyle
  2
3dWireframe
 70
     5
 71
     0
 72
     2
 73
     0
 90
        0
 40
-0.6
 41
-30.0
 62
     5
 63
     7
421
 16777215
 74
     1
 91
        4
 64
     7
 65
   257
 75
     1
175
     1
 42
1.0
 92
        0
 66
   257
 43
1.0
 76
     1
 77
     6
 78
     2
 67
     7
 79
     5
170
     0
171
     0
290
     0
174
     0
 93
        1
 44
0.0
173
     0
291
     0
 45
0.0
1001
ACAD
1000
AcDbSavedByObjectVersion
1070
     0
  0
VISUALSTYLE
  5
32
102
{ACAD_REACTORS
330
2A
102
}
330
2A
100
AcDbVisualStyle
  2
Basic
 70
     7
 71
     1
 72
     0
 73
     1
 90
        0
 40
-0.6
 41
-30.0
 62
     5
 63
     7
421
 16777215
 74
     0
 91
        4
 64
     7
 65
   257
 75
     1
175
     1
 42
1.0
 92
        8
 66
     7
 43
1.0
 76
     1
 77
     6
 78
     2
 67
     7
 79
     5
170
     0
171
     0
290
     0
174
     0
 93
        1
 44
0.0
173
     0
291
     1
 45
0.0
1001
ACAD
1000
AcDbSavedByObjectVersion
1070
     0
  0
VISUALSTYLE
  5
36
102
{ACAD_REACTORS
330
2A
102
}
330
2A
100
AcDbVisualStyle
  2
Brighten
 70
    12
 71
     2
 72
     2
 73
     0
 90
        0
 40
-0.6
 41
-30.0
 62
     5
 63
     7
421
 16777215
 74
     1
 91
        4
 64
     7
 65
   257
 75
     1
175
     1
 42
1.0
 92
        8
 66
     7
 43
1.0
 76
     1
 77
     6
 78
     2
 67
     7
 79
     5
170
     0
171
     0
290
     0
174
     0
 93
        1
 44
50.0
173
     0
291
     1
 45
0.0
1001
ACAD
1000
AcDbSavedByObjectVersion
1070
     0
  0
VISUALSTYLE
  5
3A
102
{ACAD_REACTORS
330
2A
102
}
330
2A
100
AcDbVisualStyle
  2
ColorChange
 70
    16
 71
     2
 72
     2
 73
     3
 90
        0
 40
-0.6
 41
-30.0
 62
     5
 63
     8
421
  8421504
 74
     1
 91
        4
 64
     7
 65
   257
 75
     1
175
     1
 42
1.0
 92
        8
 66
     8
424
  8421504
 43
1.0
 76
     1
 77
     6
 78
     2
 67
     7
 79
     5
170
     0
171
     0
290
     0
174
     0
 93
        1
 44
0.0
173
     0
291
     1
 45
0.0
1001
ACAD
1000
AcDbSavedByObjectVersion
1070
     0
  0
VISUALSTYLE
  5
34
102
{ACAD_REACTORS
330
2A
102
}
330
2A
100
AcDbVisualStyle
  2
Conceptual
 70
     9
 71
     3
 72
     2
 73
     0
 90
        0
 40
-0.6
 41
-30.0
 62
     5
 63
     7
421
 16777215
 74
     2
 91
        2
 64
     7
 65
   257
 75
     1
175
     1
 42
40.0
 92
        8
 66
     7
 43
1.0
 76
     1
 77
     6
 78
     2
 67
     7
 79
     3
170
     0
171
     0
290
     0
174
     0
 93
        1
 44
0.0
173
     0
291
     0
 45
0.0
1001
ACAD
1000
AcDbSavedByObjectVersion
1070
     0
  0
VISUALSTYLE
  5
35
102
{ACAD_REACTORS
330
2A
102
}
330
2A
100
AcDbVisualStyle
  2
Dim
 70
    11
 71
     2
 72
     2
 73
     0
 90
        0
 40
-0.6
 41
-30.0
 62
     5
 63
     7
421
 16777215
 74
     1
 91
        4
 64
     7
 65
   257
 75
     1
175
     1
 42
1.0
 92
        8
 66
     7
 43
1.0
 76
     1
 77
     6
 78
     2
 67
     7
 79
     5
170
     0
171
     0
290
     0
174
     0
 93
        1
 44
-50.0
173
     0
291
     1
 45
0.0
1001
ACAD
1000
AcDbSavedByObjectVersion
1070
     0
  0
VISUALSTYLE
  5
39
102
{ACAD_REACTORS
330
2A
102
}
330
2A
100
AcDbVisualStyle
  2
Facepattern
 70
    15
 71
     2
 72
     2
 73
     0
 90
        0
 40
-0.6
 41
-30.0
 62
     5
 63
     7
421
 16777215
 74
     1
 91
        4
 64
     7
 65
   257
 75
     1
175
     1
 42
1.0
 92
        8
 66
     7
 43
1.0
 76
     1
 77
     6
 78
     2
 67
     7
 79
     5
170
     0
171
     0
290
     0
174
     0
 93
        1
 44
0.0
173
     0
291
     1
 45
0.0
1001
ACAD
1000
AcDbSavedByObjectVersion
1070
     0
  0
VISUALSTYLE
  5
2B
102
{ACAD_REACTORS
330
2A
102
}
330
2A
100
AcDbVisualStyle
  2
Flat
 70
     0
 71
     2
 72
     1
 73
     1
 90
        2
 40
-0.6
 41
30.0
 62
     5
 63
     7
421
 16777215
 74
     0
 91
        4
 64
     7
 65
   257
 75
     1
175
     1
 42
1.0
 92
        8
 66
     7
 43
1.0
 76
     1
 77
     6
 78
     2
 67
     7
 79
     5
170
     0
171
     0
290
     0
174
     0
 93
       13
 44
0.0
173
     0
291
     1
 45
0.0
1001
ACAD
1000
AcDbSavedByObjectVersion
1070
     0
  0
VISUALSTYLE
  5
2C
102
{ACAD_REACTORS
330
2A
102
}
330
2A
100
AcDbVisualStyle
  2
FlatWithEdges
 70
     1
 71
     2
 72
     1
 73
     1
 90
        2
 40
-0.6
 41
30.0
 62
     5
 63
     7
421
 16777215
 74
     1
 91
        4
 64
     7
 65
   257
 75
     1
175
     1
 42
1.0
 92
        0
 66
   257
 43
1.0
 76
     1
 77
     6
 78
     2
 67
     7
 79
     5
170
     0
171
     0
290
     0
174
     0
 93
       13
 44
0.0
173
     0
291
     1
 45
0.0
1001
ACAD
1000
AcDbSavedByObjectVersion
1070
     0
  0
VISUALSTYLE
  5
2D
102
{ACAD_REACTORS
330
2A
102
}
330
2A
100
AcDbVisualStyle
  2
Gouraud
 70
     2
 71
     2
 72
     2
 73
     1
 90
        2
 40
-0.6
 41
30.0
 62
     5
 63
     7
421
 16777215
 74
     0
 91
        4
 64
     7
 65
   257
 75
     1
175
     1
 42
1.0
 92
        0
 66
     7
 43
1.0
 76
     1
 77
     6
 78
     2
 67
     7
 79
     5
170
     0
171
     0
290
     0
174
     0
 93
       13
 44
0.0
173
     0
291
     1
 45
0.0
1001
ACAD
1000
AcDbSavedByObjectVersion
1070
     0
  0
VISUALSTYLE
  5
2E
102
{ACAD_REACTORS
330
2A
102
}
330
2A
100
AcDbVisualStyle
  2
GouraudWithEdges
 70
     3
 71
     2
 72
     2
 73
     1
 90
        2
 40
-0.6
 41
30.0
 62
     5
 63
     7
421
 16777215
 74
     1
 91
        4
 64
     7
 65
   257
 75
     1
175
     1
 42
1.0
 92
        0
 66
   257
 43
1.0
 76
     1
 77
     6
 78
     2
 67
     7
 79
     5
170
     0
171
     0
290
     0
174
     0
 93
       13
 44
0.0
173
     0
291
     1
 45
0.0
1001
ACAD
1000
AcDbSavedByObjectVersion
1070
     0
  0
VISUALSTYLE
  5
38
102
{ACAD_REACTORS
330
2A
102
}
330
2A
100
AcDbVisualStyle
  2
Linepattern
 70
    14
 71
     2
 72
     2
 73
     0
 90
        0
 40
-0.6
 41
-30.0
 62
     5
 63
     7
421
 16777215
 74
     1
 91
        4
 64
     7
 65
   257
 75
     7
175
     7
 42
1.0
 92
        8
 66
     7
 43
1.0
 76
     1
 77
     6
 78
     2
 67
     7
 79
     5
170
     0
171
     0
290
     0
174
     0
 93
        1
 44
0.0
173
     0
291
     1
 45
0.0
1001
ACAD
1000
AcDbSavedByObjectVersion
1070
     0
  0
VISUALSTYLE
  5
33
102
{ACAD_REACTORS
330
2A
102
}
330
2A
100
AcDbVisualStyle
  2
Realistic
 70
     8
 71
     2
 72
     2
 73
     0
 90
        0
 40
-0.6
 41
-30.0
 62
     5
 63
     7
421
 16777215
 74
     1
 91
        0
 64
     7
 65
   257
 75
     1
175
     1
 42
1.0
 92
        8
 66
     8
424
  7895160
 43
1.0
 76
     1
 77
     6
 78
     2
 67
     7
 79
     5
170
     0
171
     0
290
     0
174
     0
 93
       13
 44
0.0
173
     0
291
     0
 45
0.0
1001
ACAD
1000
AcDbSavedByObjectVersion
1070
     0
  0
VISUALSTYLE
  5
37
102
{ACAD_REACTORS
330
2A
102
}
330
2A
100
AcDbVisualStyle
  2
Thicken
 70
    13
 71
     2
 72
     2
 73
     0
 90
        0
 40
-0.6
 41
-30.0
 62
     5
 63
     7
421
 16777215
 74
     1
 91
        4
 64
     7
 65
   257
 75
     1
175
     1
 42
1.0
 92
       12
 66
     7
 43
1.0
 76
     1
 77
     6
 78
     2
 67
     7
 79
     5
170
     0
171
     0
290
     0
174
     0
 93
        1
 44
0.0
173
     0
291
     1
 45
0.0
1001
ACAD
1000
AcDbSavedByObjectVersion
1070
     0
  0
ENDSEC
  0
EOF
