  0
SECTION
  2
HEADER
  9
$ACADVER
  1
AC1021
  9
$ACADMAINTVER
 70
    25
  9
$DWGCODEPAGE
  3
ANSI_932
  9
$INSBASE
 10
0.0
 20
0.0
 30
0.0
  9
$EXTMIN
 10
-2100.0
 20
-1485.0
 30
0.0
  9
$EXTMAX
 10
2100.0
 20
1485.0
 30
0.0
  9
$LIMMIN
 10
-2100.0
 20
-1485.0
  9
$LIMMAX
 10
2100.0
 20
1485.0
  9
$ORTHOMODE
 70
     0
  9
$REGENMODE
 70
     1
  9
$FILLMODE
 70
     1
  9
$QTEXTMODE
 70
     0
  9
$MIRRTEXT
 70
     1
  9
$LTSCALE
 40
10.0
  9
$ATTMODE
 70
     1
  9
$TEXTSIZE
 40
2.5
  9
$TRACEWID
 40
1.0
  9
$TEXTSTYLE
  7
Standard
  9
$CLAYER
  8
0
  9
$CELTYPE
  6
ByLayer
  9
$CECOLOR
 62
   256
  9
$CELTSCALE
 40
1.0
  9
$DISPSILH
 70
     0
  9
$DIMSCALE
 40
1.0
  9
$DIMASZ
 40
2.5
  9
$DIMEXO
 40
0.625
  9
$DIMDLI
 40
3.75
  9
$DIMRND
 40
0.0
  9
$DIMDLE
 40
0.0
  9
$DIMEXE
 40
1.25
  9
$DIMTP
 40
0.0
  9
$DIMTM
 40
0.0
  9
$DIMTXT
 40
2.5
  9
$DIMCEN
 40
2.5
  9
$DIMTSZ
 40
0.0
  9
$DIMTOL
 70
     0
  9
$DIMLIM
 70
     0
  9
$DIMTIH
 70
     0
  9
$DIMTOH
 70
     0
  9
$DIMSE1
 70
     0
  9
$DIMSE2
 70
     0
  9
$DIMTAD
 70
     1
  9
$DIMZIN
 70
     8
  9
$DIMBLK
  1

  9
$DIMASO
 70
     1
  9
$DIMSHO
 70
     1
  9
$DIMPOST
  1

  9
$DIMAPOST
  1

  9
$DIMALT
 70
     0
  9
$DIMALTD
 70
     3
  9
$DIMALTF
 40
0.03937007874016
  9
$DIMLFAC
 40
1.0
  9
$DIMTOFL
 70
     1
  9
$DIMTVP
 40
0.0
  9
$DIMTIX
 70
     0
  9
$DIMSOXD
 70
     0
  9
$DIMSAH
 70
     0
  9
$DIMBLK1
  1

  9
$DIMBLK2
  1

  9
$DIMSTYLE
  2
ISO-25
  9
$DIMCLRD
 70
     0
  9
$DIMCLRE
 70
     0
  9
$DIMCLRT
 70
     0
  9
$DIMTFAC
 40
1.0
  9
$DIMGAP
 40
0.625
  9
$DIMJUST
 70
     0
  9
$DIMSD1
 70
     0
  9
$DIMSD2
 70
     0
  9
$DIMTOLJ
 70
     0
  9
$DIMTZIN
 70
     8
  9
$DIMALTZ
 70
     0
  9
$DIMALTTZ
 70
     0
  9
$DIMUPT
 70
     0
  9
$DIMDEC
 70
     2
  9
$DIMTDEC
 70
     2
  9
$DIMALTU
 70
     2
  9
$DIMALTTD
 70
     3
  9
$DIMTXSTY
  7
Standard
  9
$DIMAUNIT
 70
     0
  9
$DIMADEC
 70
     0
  9
$DIMALTRND
 40
0.0
  9
$DIMAZIN
 70
     0
  9
$DIMDSEP
 70
    44
  9
$DIMATFIT
 70
     3
  9
$DIMFRAC
 70
     0
  9
$DIMLDRBLK
  1

  9
$DIMLUNIT
 70
     2
  9
$DIMLWD
 70
    -2
  9
$DIMLWE
 70
    -2
  9
$DIMTMOVE
 70
     0
  9
$DIMFXL
 40
1.0
  9
$DIMFXLON
 70
     0
  9
$DIMJOGANG
 40
0.7853981633974483
  9
$DIMTFILL
 70
     0
  9
$DIMTFILLCLR
 70
     0
  9
$DIMARCSYM
 70
     0
  9
$DIMLTYPE
  6

  9
$DIMLTEX1
  6

  9
$DIMLTEX2
  6

  9
$LUNITS
 70
     2
  9
$LUPREC
 70
     4
  9
$SKETCHINC
 40
1.0
  9
$FILLETRAD
 40
10.0
  9
$AUNITS
 70
     0
  9
$AUPREC
 70
     0
  9
$MENU
  1
.
  9
$ELEVATION
 40
0.0
  9
$PELEVATION
 40
0.0
  9
$THICKNESS
 40
0.0
  9
$LIMCHECK
 70
     0
  9
$CHAMFERA
 40
10.0
  9
$CHAMFERB
 40
10.0
  9
$CHAMFERC
 40
20.0
  9
$CHAMFERD
 40
0.0
  9
$SKPOLY
 70
     0
  9
$TDCREATE
 40
2457641.386070428
  9
$TDUCREATE
 40
2457641.011070428
  9
$TDUPDATE
 40
2457641.38607044
  9
$TDUUPDATE
 40
2457641.01107044
  9
$TDINDWG
 40
0.0000000116
  9
$TDUSRTIMER
 40
0.0000000116
  9
$USRTIMER
 70
     1
  9
$ANGBASE
 50
0.0
  9
$ANGDIR
 70
     0
  9
$PDMODE
 70
     0
  9
$PDSIZE
 40
0.0
  9
$PLINEWID
 40
0.0
  9
$SPLFRAME
 70
     0
  9
$SPLINETYPE
 70
     6
  9
$SPLINESEGS
 70
     8
  9
$HANDSEED
  5
574
  9
$SURFTAB1
 70
     6
  9
$SURFTAB2
 70
     6
  9
$SURFTYPE
 70
     6
  9
$SURFU
 70
     6
  9
$SURFV
 70
     6
  9
$UCSBASE
  2

  9
$UCSNAME
  2

  9
$UCSORG
 10
0.0
 20
0.0
 30
0.0
  9
$UCSXDIR
 10
1.0
 20
0.0
 30
0.0
  9
$UCSYDIR
 10
0.0
 20
1.0
 30
0.0
  9
$UCSORTHOREF
  2

  9
$UCSORTHOVIEW
 70
     0
  9
$UCSORGTOP
 10
0.0
 20
0.0
 30
0.0
  9
$UCSORGBOTTOM
 10
0.0
 20
0.0
 30
0.0
  9
$UCSORGLEFT
 10
0.0
 20
0.0
 30
0.0
  9
$UCSORGRIGHT
 10
0.0
 20
0.0
 30
0.0
  9
$UCSORGFRONT
 10
0.0
 20
0.0
 30
0.0
  9
$UCSORGBACK
 10
0.0
 20
0.0
 30
0.0
  9
$PUCSBASE
  2

  9
$PUCSNAME
  2

  9
$PUCSORG
 10
0.0
 20
0.0
 30
0.0
  9
$PUCSXDIR
 10
1.0
 20
0.0
 30
0.0
  9
$PUCSYDIR
 10
0.0
 20
1.0
 30
0.0
  9
$PUCSORTHOREF
  2

  9
$PUCSORTHOVIEW
 70
     0
  9
$PUCSORGTOP
 10
0.0
 20
0.0
 30
0.0
  9
$PUCSORGBOTTOM
 10
0.0
 20
0.0
 30
0.0
  9
$PUCSORGLEFT
 10
0.0
 20
0.0
 30
0.0
  9
$PUCSORGRIGHT
 10
0.0
 20
0.0
 30
0.0
  9
$PUCSORGFRONT
 10
0.0
 20
0.0
 30
0.0
  9
$PUCSORGBACK
 10
0.0
 20
0.0
 30
0.0
  9
$USERI1
 70
     0
  9
$USERI2
 70
     0
  9
$USERI3
 70
     0
  9
$USERI4
 70
     0
  9
$USERI5
 70
     0
  9
$USERR1
 40
0.0
  9
$USERR2
 40
0.0
  9
$USERR3
 40
0.0
  9
$USERR4
 40
0.0
  9
$USERR5
 40
0.0
  9
$WORLDVIEW
 70
     1
  9
$SHADEDGE
 70
     3
  9
$SHADEDIF
 70
    70
  9
$TILEMODE
 70
     1
  9
$MAXACTVP
 70
    64
  9
$PINSBASE
 10
0.0
 20
0.0
 30
0.0
  9
$PLIMCHECK
 70
     0
  9
$PEXTMIN
 10
1.000000000000000E+20
 20
1.000000000000000E+20
 30
1.000000000000000E+20
  9
$PEXTMAX
 10
-1.000000000000000E+20
 20
-1.000000000000000E+20
 30
-1.000000000000000E+20
  9
$PLIMMIN
 10
0.0
 20
0.0
  9
$PLIMMAX
 10
420.0
 20
297.0
  9
$UNITMODE
 70
     0
  9
$VISRETAIN
 70
     1
  9
$PLINEGEN
 70
     0
  9
$PSLTSCALE
 70
     1
  9
$TREEDEPTH
 70
  3020
  9
$CMLSTYLE
  2
Standard
  9
$CMLJUST
 70
     0
  9
$CMLSCALE
 40
20.0
  9
$PROXYGRAPHICS
 70
     1
  9
$MEASUREMENT
 70
     1
  9
$CELWEIGHT
370
    -1
  9
$ENDCAPS
280
     0
  9
$JOINSTYLE
280
     0
  9
$LWDISPLAY
290
     0
  9
$INSUNITS
 70
     4
  9
$HYPERLINKBASE
  1

  9
$STYLESHEET
  1

  9
$XEDIT
290
     1
  9
$CEPSNTYPE
380
     0
  9
$PSTYLEMODE
290
     1
  9
$FINGERPRINTGUID
  2
{E75993BA-E720-45F3-98BB-85AA2F516780}
  9
$VERSIONGUID
  2
{FAEB1C32-E019-11D5-929B-00C0DF256EC4}
  9
$EXTNAMES
290
     1
  9
$PSVPSCALE
 40
0.0
  9
$OLESTARTUP
290
     0
  9
$SORTENTS
280
   127
  9
$INDEXCTL
280
     0
  9
$HIDETEXT
280
     1
  9
$XCLIPFRAME
290
     0
  9
$HALOGAP
280
     0
  9
$OBSCOLOR
 70
   257
  9
$OBSLTYPE
280
     0
  9
$INTERSECTIONDISPLAY
280
     0
  9
$INTERSECTIONCOLOR
 70
   257
  9
$DIMASSOC
280
     2
  9
$PROJECTNAME
  1

  9
$CAMERADISPLAY
290
     0
  9
$LENSLENGTH
 40
50.0
  9
$CAMERAHEIGHT
 40
0.0
  9
$STEPSPERSEC
 40
2.0
  9
$STEPSIZE
 40
6.0
  9
$3DDWFPREC
 40
2.0
  9
$PSOLWIDTH
 40
5.0
  9
$PSOLHEIGHT
 40
80.0
  9
$LOFTANG1
 40
1.570796326794897
  9
$LOFTANG2
 40
1.570796326794897
  9
$LOFTMAG1
 40
0.0
  9
$LOFTMAG2
 40
0.0
  9
$LOFTPARAM
 70
     7
  9
$LOFTNORMALS
280
     1
  9
$LATITUDE
 40
37.795
  9
$LONGITUDE
 40
-122.394
  9
$NORTHDIRECTION
 40
0.0
  9
$TIMEZONE
 70
 -8000
  9
$LIGHTGLYPHDISPLAY
280
     1
  9
$TILEMODELIGHTSYNCH
280
     1
  9
$SOLIDHIST
280
     1
  9
$SHOWHIST
280
     1
  9
$DWFFRAME
280
     2
  9
$DGNFRAME
280
     2
  9
$REALWORLDSCALE
290
     1
  9
$INTERFERECOLOR
 62
   256
  9
$CSHADOW
280
     0
  9
$SHADOWPLANELOCATION
 40
0.0
  0
ENDSEC
  0
SECTION
  2
CLASSES
  0
CLASS
  1
ACDBDICTIONARYWDFLT
  2
AcDbDictionaryWithDefault
  3
ObjectDBX Classes
 90
        0
 91
        4
280
     0
281
     0
  0
CLASS
  1
VISUALSTYLE
  2
AcDbVisualStyle
  3
ObjectDBX Classes
 90
     4095
 91
        4
280
     0
281
     0
  0
ENDSEC
  0
SECTION
  2
TABLES
  0
TABLE
  2
VPORT
  5
8
330
0
100
AcDbSymbolTable
 70
     1
  0
VPORT
  5
29
330
8
100
AcDbSymbolTableRecord
100
AcDbViewportTableRecord
  2
*Active
 70
     0
 10
0.0
 20
0.0
 11
1.0
 21
1.0
 12
0.0
 22
0.0
 13
0.0
 23
0.0
 14
10.0
 24
10.0
 15
10.0
 25
10.0
 16
0.0
 26
0.0
 36
1.0
 17
0.0
 27
0.0
 37
0.0
 40
3267.0
 41
1.414141414141414
 42
50.0
 43
0.0
 44
0.0
 50
0.0
 51
0.0
 71
     0
 72
 10000
 73
     1
 74
     3
 75
     0
 76
     0
 77
     0
 78
     0
281
     0
 65
     1
110
0.0
120
0.0
130
0.0
111
1.0
121
0.0
131
0.0
112
0.0
122
1.0
132
0.0
 79
     0
146
0.0
 60
     3
 61
     5
292
     1
282
     1
141
0.0
142
0.0
 63
   256
  0
ENDTAB
  0
TABLE
  2
LTYPE
  5
5
330
0
100
AcDbSymbolTable
 70
     4
  0
LTYPE
  5
14
330
5
100
AcDbSymbolTableRecord
100
AcDbLinetypeTableRecord
  2
ByBlock
 70
     0
  3

 72
    65
 73
     0
 40
0.0
  0
LTYPE
  5
15
330
5
100
AcDbSymbolTableRecord
100
AcDbLinetypeTableRecord
  2
ByLayer
 70
     0
  3

 72
    65
 73
     0
 40
0.0
  0
LTYPE
  5
16
330
5
100
AcDbSymbolTableRecord
100
AcDbLinetypeTableRecord
  2
Continuous
 70
     0
  3
Solid line
 72
    65
 73
     0
 40
0.0
  0
LTYPE
  5
3C
330
5
100
AcDbSymbolTableRecord
100
AcDbLinetypeTableRecord
  2
JWW_DASHED3
 70
     0
  3
---  ------  ------  ------  ---
 72
    65
 73
     2
 40
3.386666666666667
 49
2.54
 74
     0
 49
-0.8466666666666667
 74
     0
  0
LTYPE
  5
3D
330
5
100
AcDbSymbolTableRecord
100
AcDbLinetypeTableRecord
  2
JWW_CENTER1
 70
     0
  3
-----  --  ----------  --  -----
 72
    65
 73
     4
 40
6.773333333333333
 49
4.233333333333333
 74
     0
 49
-0.8466666666666667
 74
     0
 49
0.8466666666666667
 74
     0
 49
-0.8466666666666667
 74
     0
  0
LTYPE
  5
3E
330
5
100
AcDbSymbolTableRecord
100
AcDbLinetypeTableRecord
  2
JWW_CENTER2
 70
     0
  3
-------------  --  -------------
 72
    65
 73
     4
 40
13.54666666666667
 49
11.00666666666667
 74
     0
 49
-0.8466666666666667
 74
     0
 49
0.8466666666666667
 74
     0
 49
-0.8466666666666667
 74
     0
  0
ENDTAB
  0
TABLE
  2
LAYER
  5
2
330
0
100
AcDbSymbolTable
 70
    16
  0
LAYER
  5
10
330
2
100
AcDbSymbolTableRecord
100
AcDbLayerTableRecord
  2
0
 70
     0
 62
     7
  6
Continuous
370
    -3
390
F
347
0
  0
LAYER
  5
3F
330
2
100
AcDbSymbolTableRecord
100
AcDbLayerTableRecord
  2
0242_
 70
     0
 62
     7
  6
Continuous
370
    -3
390
F
347
0
  0
LAYER
  5
40
330
2
100
AcDbSymbolTableRecord
100
AcDbLayerTableRecord
  2
0255_
 70
     0
 62
     7
  6
Continuous
370
    -3
390
F
347
0
  0
LAYER
  5
41
330
2
100
AcDbSymbolTableRecord
100
AcDbLayerTableRecord
  2
0239_詳細図（細
 70
     0
 62
     7
  6
Continuous
370
    -3
390
F
347
0
  0
LAYER
  5
42
330
2
100
AcDbSymbolTableRecord
100
AcDbLayerTableRecord
  2
0191_区画線（防
 70
     0
 62
     7
  6
Continuous
370
    -3
390
F
347
0
  0
LAYER
  5
43
330
2
100
AcDbSymbolTableRecord
100
AcDbLayerTableRecord
  2
0192_区画線（防
 70
     0
 62
     7
  6
Continuous
370
    -3
390
F
347
0
  0
LAYER
  5
44
330
2
100
AcDbSymbolTableRecord
100
AcDbLayerTableRecord
  2
0193_区画線（異
 70
     0
 62
     7
  6
Continuous
370
    -3
390
F
347
0
  0
LAYER
  5
45
330
2
100
AcDbSymbolTableRecord
100
AcDbLayerTableRecord
  2
0243_
 70
     0
 62
     7
  6
Continuous
370
    -3
390
F
347
0
  0
LAYER
  5
46
330
2
100
AcDbSymbolTableRecord
100
AcDbLayerTableRecord
  2
0216_
 70
     0
 62
     7
  6
Continuous
370
    -3
390
F
347
0
  0
LAYER
  5
47
330
2
100
AcDbSymbolTableRecord
100
AcDbLayerTableRecord
  2
0226_下階梁情報
 70
     0
 62
     7
  6
Continuous
370
    -3
390
F
347
0
  0
LAYER
  5
48
330
2
100
AcDbSymbolTableRecord
100
AcDbLayerTableRecord
  2
0218_
 70
     0
 62
     7
  6
Continuous
370
    -3
390
F
347
0
  0
LAYER
  5
49
330
2
100
AcDbSymbolTableRecord
100
AcDbLayerTableRecord
  2
0234_
 70
     0
 62
     7
  6
Continuous
370
    -3
390
F
347
0
  0
LAYER
  5
4A
330
2
100
AcDbSymbolTableRecord
100
AcDbLayerTableRecord
  2
0220_
 70
     0
 62
     7
  6
Continuous
370
    -3
390
F
347
0
  0
LAYER
  5
4B
330
2
100
AcDbSymbolTableRecord
100
AcDbLayerTableRecord
  2
0227_下階間仕切
 70
     0
 62
     7
  6
Continuous
370
    -3
390
F
347
0
  0
LAYER
  5
4C
330
2
100
AcDbSymbolTableRecord
100
AcDbLayerTableRecord
  2
0018_躯　寸法（
 70
     0
 62
     7
  6
Continuous
370
    -3
390
F
347
0
  0
LAYER
  5
4D
330
2
100
AcDbSymbolTableRecord
100
AcDbLayerTableRecord
  2
0013_躯　下り壁
 70
     0
 62
     7
  6
Continuous
370
    -3
390
F
347
0
  0
ENDTAB
  0
TABLE
  2
STYLE
  5
3
330
0
100
AcDbSymbolTable
 70
     2
  0
STYLE
  5
11
330
3
100
AcDbSymbolTableRecord
100
AcDbTextStyleTableRecord
  2
Standard
 70
     0
 40
0.0
 41
1.0
 50
0.0
 71
     0
 42
2.5
  3
txt
  4

1001
ACAD
1000

1071
        0
  0
STYLE
  5
3B
330
3
100
AcDbSymbolTableRecord
100
AcDbTextStyleTableRecord
  2
ＭＳ ゴシック
 70
     0
 40
1.0
 41
1.0
 50
0.0
 71
     0
 42
10.0
  3

  4

1001
ACAD
1000
MS Gothic
1071
    32817
  0
ENDTAB
  0
TABLE
  2
VIEW
  5
6
330
0
100
AcDbSymbolTable
 70
     0
  0
ENDTAB
  0
TABLE
  2
UCS
  5
7
330
0
100
AcDbSymbolTable
 70
     0
  0
ENDTAB
  0
TABLE
  2
APPID
  5
9
330
0
100
AcDbSymbolTable
 70
     1
  0
APPID
  5
12
330
9
100
AcDbSymbolTableRecord
100
AcDbRegAppTableRecord
  2
ACAD
 70
     0
  0
ENDTAB
  0
TABLE
  2
DIMSTYLE
  5
A
330
0
100
AcDbSymbolTable
 70
     1
100
AcDbDimStyleTable
  0
DIMSTYLE
105
27
330
A
100
AcDbSymbolTableRecord
100
AcDbDimStyleTableRecord
  2
ISO-25
 70
     0
 41
2.5
 42
0.625
 43
3.75
 44
1.25
 73
     0
 74
     0
 77
     1
 78
     8
140
2.5
141
2.5
143
0.03937007874016
147
0.625
171
     3
172
     1
271
     2
272
     2
274
     3
278
    44
283
     0
284
     8
340
11
  0
ENDTAB
  0
TABLE
  2
BLOCK_RECORD
  5
1
330
0
100
AcDbSymbolTable
 70
     1
  0
BLOCK_RECORD
  5
1F
330
1
100
AcDbSymbolTableRecord
100
AcDbBlockTableRecord
  2
*Model_Space
340
22
 70
     0
280
     1
281
     0
  0
BLOCK_RECORD
  5
1B
330
1
100
AcDbSymbolTableRecord
100
AcDbBlockTableRecord
  2
*Paper_Space
340
1E
 70
     0
280
     1
281
     0
  0
BLOCK_RECORD
  5
23
330
1
100
AcDbSymbolTableRecord
100
AcDbBlockTableRecord
  2
*Paper_Space0
340
26
 70
     0
280
     1
281
     0
  0
ENDTAB
  0
ENDSEC
  0
SECTION
  2
BLOCKS
  0
BLOCK
  5
20
330
1F
100
AcDbEntity
  8
0
100
AcDbBlockBegin
  2
*Model_Space
 70
     0
 10
0.0
 20
0.0
 30
0.0
  3
*Model_Space
  1

  0
ENDBLK
  5
21
330
1F
100
AcDbEntity
  8
0
100
AcDbBlockEnd
  0
BLOCK
  5
1C
330
1B
100
AcDbEntity
 67
     1
  8
0
100
AcDbBlockBegin
  2
*Paper_Space
 70
     0
 10
0.0
 20
0.0
 30
0.0
  3
*Paper_Space
  1

  0
ENDBLK
  5
1D
330
1B
100
AcDbEntity
 67
     1
  8
0
100
AcDbBlockEnd
  0
BLOCK
  5
24
330
23
100
AcDbEntity
  8
0
100
AcDbBlockBegin
  2
*Paper_Space0
 70
     0
 10
0.0
 20
0.0
 30
0.0
  3
*Paper_Space0
  1

  0
ENDBLK
  5
25
330
23
100
AcDbEntity
  8
0
100
AcDbBlockEnd
  0
ENDSEC
  0
SECTION
  2
ENTITIES
  0
TEXT
  5
4E
330
1F
100
AcDbEntity
  8
0242_
  6
Continuous
 62
     2
370
     5
100
AcDbText
 10
331.4728492015115
 20
-680.0269004247135
 30
0.0
 40
30.48
  1
材質：メインバー　ＳＵＳ３０４　＠１４
 41
1.118421052631579
  7
ＭＳ ゴシック
100
AcDbText
  0
TEXT
  5
4F
330
1F
100
AcDbEntity
  8
0242_
  6
Continuous
 62
     2
370
     5
100
AcDbText
 10
466.9359472641369
 20
-733.4557070929287
 30
0.0
 40
30.48
  1
クロスバー　ＳＵＳ３０４　＠８０
 41
1.1171875
  7
ＭＳ ゴシック
100
AcDbText
  0
TEXT
  5
50
330
1F
100
AcDbEntity
  8
0242_
  6
Continuous
 62
     2
370
     5
100
AcDbText
 10
466.9359472641369
 20
-782.4506050521121
 30
0.0
 40
30.48
  1
サイドバー　ＳＵＳ３０４
 41
1.114583333333333
  7
ＭＳ ゴシック
100
AcDbText
  0
LINE
  5
51
330
1F
100
AcDbEntity
  8
0242_
  6
Continuous
 62
     2
370
     5
100
AcDbLine
 10
451.6532942029125
 20
-489.4742785214999
 30
0.0
 11
154.6532942029125
 21
-489.4742785214999
 31
0.0
  0
LINE
  5
52
330
1F
100
AcDbEntity
  8
0242_
  6
Continuous
 62
     2
370
     5
100
AcDbLine
 10
451.6532942029125
 20
-427.7465277454345
 30
0.0
 11
451.6532942029125
 21
-489.4742785214999
 31
0.0
  0
LINE
  5
53
330
1F
100
AcDbEntity
  8
0242_
  6
Continuous
 62
     2
370
     5
100
AcDbLine
 10
154.6532942029125
 20
-489.4742785214999
 30
0.0
 11
154.6532942029125
 21
-427.7465277454345
 31
0.0
  0
LINE
  5
54
330
1F
100
AcDbEntity
  8
0242_
  6
Continuous
 62
     2
370
     5
100
AcDbLine
 10
154.6532942029125
 20
-427.7465277454345
 30
0.0
 11
451.6532942029125
 21
-427.7465277454345
 31
0.0
  0
TEXT
  5
55
330
1F
100
AcDbEntity
  8
0242_
  6
Continuous
 62
     2
370
     5
100
AcDbText
 10
238.1532942029125
 20
-472.9908814869312
 30
0.0
 40
30.48
  1
仕　様
 41
1.083333333333333
  7
ＭＳ ゴシック
100
AcDbText
  0
TEXT
  5
56
330
1F
100
AcDbEntity
  8
0242_
  6
Continuous
 62
     2
370
     5
100
AcDbText
 10
331.4728492015115
 20
-918.2456091719214
 30
0.0
 40
30.48
  1
材質：冷間圧延ステンレス鋼板（ＳＵＳ３０４－２Ｂ）
 41
1.12
  7
ＭＳ ゴシック
100
AcDbText
  0
TEXT
  5
57
330
1F
100
AcDbEntity
  8
0242_
  6
Continuous
 62
     2
370
     5
100
AcDbText
 10
271.7609351390115
 20
-853.2460287886206
 30
0.0
 40
30.48
  1
ステンレス製受枠　ＳＦ２０Ｂ（四方枠）
 41
1.118421052631579
  7
ＭＳ ゴシック
100
AcDbText
  0
LINE
  5
58
330
1F
100
AcDbEntity
  8
0255_
  6
Continuous
 62
     7
370
     5
100
AcDbLine
 10
-323.8623540174006
 20
411.9366034196332
 30
0.0
 11
-898.862415052557
 21
411.9366034196332
 31
0.0
  0
TEXT
  5
59
330
1F
100
AcDbEntity
  8
0255_
  6
Continuous
 62
     2
370
     5
100
AcDbText
 10
-878.8623215924738
 20
430.0762896607831
 30
0.0
 40
30.48
  1
平面詳細図　Ｓ＝１：１０
 41
1.114583333333333
  7
ＭＳ ゴシック
100
AcDbText
  0
LINE
  5
5A
330
1F
100
AcDbEntity
  8
0239_詳細図（細
  6
Continuous
 62
     3
370
     5
100
AcDbLine
 10
-576.3121320032847
 20
664.9365423844758
 30
0.0
 11
-576.3121320032847
 21
658.936542384476
 31
0.0
  0
LINE
  5
5B
330
1F
100
AcDbEntity
  8
0239_詳細図（細
  6
Continuous
 62
     3
370
     5
100
AcDbLine
 10
-566.4126370666735
 20
664.9365423844758
 30
0.0
 11
-566.4126370666735
 21
658.936542384476
 31
0.0
  0
LINE
  5
5C
330
1F
100
AcDbEntity
  8
0239_詳細図（細
  6
Continuous
 62
     3
370
     5
100
AcDbLine
 10
-571.3623845349788
 20
664.9365423844758
 30
0.0
 11
-571.3623845349788
 21
658.936542384476
 31
0.0
  0
LINE
  5
5D
330
1F
100
AcDbEntity
  8
0239_詳細図（細
  6
Continuous
 62
     3
370
     5
100
AcDbLine
 10
-496.3121320032846
 20
762.9365423844763
 30
0.0
 11
-496.3121320032846
 21
756.9365423844763
 31
0.0
  0
LINE
  5
5E
330
1F
100
AcDbEntity
  8
0239_詳細図（細
  6
Continuous
 62
     3
370
     5
100
AcDbLine
 10
-486.4126370666735
 20
762.9365423844763
 30
0.0
 11
-486.4126370666735
 21
756.9365423844763
 31
0.0
  0
LINE
  5
5F
330
1F
100
AcDbEntity
  8
0239_詳細図（細
  6
Continuous
 62
     3
370
     5
100
AcDbLine
 10
-491.3623845349787
 20
762.9365423844763
 30
0.0
 11
-491.3623845349787
 21
756.9365423844763
 31
0.0
  0
LINE
  5
60
330
1F
100
AcDbEntity
  8
0191_区画線（防
  6
JWW_DASHED3
 62
     2
370
     5
100
AcDbLine
 10
-761.3623845349787
 20
909.9362982438521
 30
0.0
 11
-461.3623845349787
 21
909.9362982438521
 31
0.0
  0
LINE
  5
61
330
1F
100
AcDbEntity
  8
0191_区画線（防
  6
Continuous
 62
     2
370
     5
100
AcDbLine
 10
-787.3623845349787
 20
935.936542384477
 30
0.0
 11
-435.3623845349787
 21
935.936542384477
 31
0.0
  0
LINE
  5
62
330
1F
100
AcDbEntity
  8
0191_区画線（防
  6
Continuous
 62
     2
370
     5
100
AcDbLine
 10
-792.3623845349787
 20
940.936511866899
 30
0.0
 11
-430.3623845349787
 21
940.936511866899
 31
0.0
  0
LINE
  5
63
330
1F
100
AcDbEntity
  8
0191_区画線（防
  6
Continuous
 62
     2
370
     5
100
AcDbLine
 10
-430.3623845349787
 20
940.936511866899
 30
0.0
 11
-430.3623845349787
 21
578.9366339372114
 31
0.0
  0
LINE
  5
64
330
1F
100
AcDbEntity
  8
0191_区画線（防
  6
Continuous
 62
     2
370
     5
100
AcDbLine
 10
-435.3623845349787
 20
935.936542384477
 30
0.0
 11
-435.3623845349787
 21
583.9366186784223
 31
0.0
  0
LINE
  5
65
330
1F
100
AcDbEntity
  8
0191_区画線（防
  6
Continuous
 62
     2
370
     5
100
AcDbLine
 10
-792.3623845349787
 20
940.936511866899
 30
0.0
 11
-792.3623845349787
 21
578.9366339372114
 31
0.0
  0
LINE
  5
66
330
1F
100
AcDbEntity
  8
0191_区画線（防
  6
Continuous
 62
     2
370
     5
100
AcDbLine
 10
-787.3623845349787
 20
935.936542384477
 30
0.0
 11
-787.3623845349787
 21
583.9366186784223
 31
0.0
  0
LINE
  5
67
330
1F
100
AcDbEntity
  8
0191_区画線（防
  6
Continuous
 62
     2
370
     5
100
AcDbLine
 10
-435.3623845349787
 20
583.9366186784223
 30
0.0
 11
-787.3623845349787
 21
583.9366186784223
 31
0.0
  0
LINE
  5
68
330
1F
100
AcDbEntity
  8
0191_区画線（防
  6
Continuous
 62
     2
370
     5
100
AcDbLine
 10
-430.3623845349787
 20
578.9366339372114
 30
0.0
 11
-792.3623845349787
 21
578.9366339372114
 31
0.0
  0
LINE
  5
69
330
1F
100
AcDbEntity
  8
0191_区画線（防
  6
JWW_DASHED3
 62
     2
370
     5
100
AcDbLine
 10
-761.3623845349787
 20
909.9362982438521
 30
0.0
 11
-761.3623845349787
 21
609.9363440202192
 31
0.0
  0
LINE
  5
6A
330
1F
100
AcDbEntity
  8
0192_区画線（防
  6
Continuous
 62
     3
370
     5
100
AcDbLine
 10
-436.3623845349787
 20
584.9363440202192
 30
0.0
 11
-786.3623845349787
 21
584.9363440202192
 31
0.0
  0
LINE
  5
6B
330
1F
100
AcDbEntity
  8
0192_区画線（防
  6
Continuous
 62
     3
370
     5
100
AcDbLine
 10
-436.3623845349787
 20
934.936542384477
 30
0.0
 11
-786.3623845349787
 21
934.936542384477
 31
0.0
  0
LINE
  5
6C
330
1F
100
AcDbEntity
  8
0192_区画線（防
  6
Continuous
 62
     3
370
     5
100
AcDbLine
 10
-786.3623845349787
 20
934.936542384477
 30
0.0
 11
-786.3623845349787
 21
584.9363440202192
 31
0.0
  0
LINE
  5
6D
330
1F
100
AcDbEntity
  8
0192_区画線（防
  6
Continuous
 62
     3
370
     5
100
AcDbLine
 10
-436.3623845349787
 20
934.936542384477
 30
0.0
 11
-436.3623845349787
 21
584.9363440202192
 31
0.0
  0
LINE
  5
6E
330
1F
100
AcDbEntity
  8
0239_詳細図（細
  6
Continuous
 62
     3
370
     5
100
AcDbLine
 10
-783.3623845349789
 20
934.936542384477
 30
0.0
 11
-783.3623845349789
 21
584.936542384477
 31
0.0
  0
LINE
  5
6F
330
1F
100
AcDbEntity
  8
0239_詳細図（細
  6
Continuous
 62
     3
370
     5
100
AcDbLine
 10
-736.3121320032847
 20
926.936542384477
 30
0.0
 11
-736.3121320032847
 21
924.936542384477
 31
0.0
  0
LINE
  5
70
330
1F
100
AcDbEntity
  8
0239_詳細図（細
  6
Continuous
 62
     3
370
     5
100
AcDbLine
 10
-726.4126370666735
 20
926.936542384477
 30
0.0
 11
-726.4126370666735
 21
924.936542384477
 31
0.0
  0
LINE
  5
71
330
1F
100
AcDbEntity
  8
0239_詳細図（細
  6
Continuous
 62
     3
370
     5
100
AcDbLine
 10
-731.3623845349787
 20
926.936542384477
 30
0.0
 11
-731.3623845349787
 21
924.936542384477
 31
0.0
  0
LINE
  5
72
330
1F
100
AcDbEntity
  8
0239_詳細図（細
  6
Continuous
 62
     3
370
     5
100
AcDbLine
 10
-736.3121320032847
 20
916.936542384477
 30
0.0
 11
-736.3121320032847
 21
910.936542384477
 31
0.0
  0
LINE
  5
73
330
1F
100
AcDbEntity
  8
0239_詳細図（細
  6
Continuous
 62
     3
370
     5
100
AcDbLine
 10
-726.4126370666735
 20
916.936542384477
 30
0.0
 11
-726.4126370666735
 21
910.936542384477
 31
0.0
  0
LINE
  5
74
330
1F
100
AcDbEntity
  8
0239_詳細図（細
  6
Continuous
 62
     3
370
     5
100
AcDbLine
 10
-731.3623845349787
 20
916.936542384477
 30
0.0
 11
-731.3623845349787
 21
910.936542384477
 31
0.0
  0
LINE
  5
75
330
1F
100
AcDbEntity
  8
0239_詳細図（細
  6
Continuous
 62
     3
370
     5
100
AcDbLine
 10
-736.3121320032847
 20
902.9365423844769
 30
0.0
 11
-736.3121320032847
 21
896.936542384477
 31
0.0
  0
LINE
  5
76
330
1F
100
AcDbEntity
  8
0239_詳細図（細
  6
Continuous
 62
     3
370
     5
100
AcDbLine
 10
-726.4126370666735
 20
902.9365423844769
 30
0.0
 11
-726.4126370666735
 21
896.936542384477
 31
0.0
  0
LINE
  5
77
330
1F
100
AcDbEntity
  8
0239_詳細図（細
  6
Continuous
 62
     3
370
     5
100
AcDbLine
 10
-731.3623845349787
 20
902.9365423844769
 30
0.0
 11
-731.3623845349787
 21
896.936542384477
 31
0.0
  0
LINE
  5
78
330
1F
100
AcDbEntity
  8
0239_詳細図（細
  6
Continuous
 62
     3
370
     5
100
AcDbLine
 10
-736.3121320032847
 20
888.9365423844768
 30
0.0
 11
-736.3121320032847
 21
882.9365423844769
 31
0.0
  0
LINE
  5
79
330
1F
100
AcDbEntity
  8
0239_詳細図（細
  6
Continuous
 62
     3
370
     5
100
AcDbLine
 10
-726.4126370666735
 20
888.9365423844768
 30
0.0
 11
-726.4126370666735
 21
882.9365423844769
 31
0.0
  0
LINE
  5
7A
330
1F
100
AcDbEntity
  8
0239_詳細図（細
  6
Continuous
 62
     3
370
     5
100
AcDbLine
 10
-731.3623845349787
 20
888.9365423844768
 30
0.0
 11
-731.3623845349787
 21
882.9365423844769
 31
0.0
  0
LINE
  5
7B
330
1F
100
AcDbEntity
  8
0239_詳細図（細
  6
Continuous
 62
     3
370
     5
100
AcDbLine
 10
-736.3121320032847
 20
874.9365423844768
 30
0.0
 11
-736.3121320032847
 21
868.9365423844768
 31
0.0
  0
LINE
  5
7C
330
1F
100
AcDbEntity
  8
0239_詳細図（細
  6
Continuous
 62
     3
370
     5
100
AcDbLine
 10
-726.4126370666735
 20
874.9365423844768
 30
0.0
 11
-726.4126370666735
 21
868.9365423844768
 31
0.0
  0
LINE
  5
7D
330
1F
100
AcDbEntity
  8
0239_詳細図（細
  6
Continuous
 62
     3
370
     5
100
AcDbLine
 10
-731.3623845349787
 20
874.9365423844768
 30
0.0
 11
-731.3623845349787
 21
868.9365423844768
 31
0.0
  0
LINE
  5
7E
330
1F
100
AcDbEntity
  8
0239_詳細図（細
  6
Continuous
 62
     3
370
     5
100
AcDbLine
 10
-736.3121320032847
 20
860.9365423844768
 30
0.0
 11
-736.3121320032847
 21
854.9365423844768
 31
0.0
  0
LINE
  5
7F
330
1F
100
AcDbEntity
  8
0239_詳細図（細
  6
Continuous
 62
     3
370
     5
100
AcDbLine
 10
-726.4126370666735
 20
860.9365423844768
 30
0.0
 11
-726.4126370666735
 21
854.9365423844768
 31
0.0
  0
LINE
  5
80
330
1F
100
AcDbEntity
  8
0239_詳細図（細
  6
Continuous
 62
     3
370
     5
100
AcDbLine
 10
-731.3623845349787
 20
860.9365423844768
 30
0.0
 11
-731.3623845349787
 21
854.9365423844768
 31
0.0
  0
LINE
  5
81
330
1F
100
AcDbEntity
  8
0239_詳細図（細
  6
Continuous
 62
     3
370
     5
100
AcDbLine
 10
-736.3121320032847
 20
846.9365423844766
 30
0.0
 11
-736.3121320032847
 21
840.9365423844768
 31
0.0
  0
LINE
  5
82
330
1F
100
AcDbEntity
  8
0239_詳細図（細
  6
Continuous
 62
     3
370
     5
100
AcDbLine
 10
-726.4126370666735
 20
846.9365423844766
 30
0.0
 11
-726.4126370666735
 21
840.9365423844768
 31
0.0
  0
LINE
  5
83
330
1F
100
AcDbEntity
  8
0239_詳細図（細
  6
Continuous
 62
     3
370
     5
100
AcDbLine
 10
-731.3623845349787
 20
846.9365423844766
 30
0.0
 11
-731.3623845349787
 21
840.9365423844768
 31
0.0
  0
LINE
  5
84
330
1F
100
AcDbEntity
  8
0239_詳細図（細
  6
Continuous
 62
     3
370
     5
100
AcDbLine
 10
-736.3121320032847
 20
832.9365423844765
 30
0.0
 11
-736.3121320032847
 21
826.9365423844766
 31
0.0
  0
LINE
  5
85
330
1F
100
AcDbEntity
  8
0239_詳細図（細
  6
Continuous
 62
     3
370
     5
100
AcDbLine
 10
-726.4126370666735
 20
832.9365423844765
 30
0.0
 11
-726.4126370666735
 21
826.9365423844766
 31
0.0
  0
LINE
  5
86
330
1F
100
AcDbEntity
  8
0239_詳細図（細
  6
Continuous
 62
     3
370
     5
100
AcDbLine
 10
-731.3623845349787
 20
832.9365423844765
 30
0.0
 11
-731.3623845349787
 21
826.9365423844766
 31
0.0
  0
LINE
  5
87
330
1F
100
AcDbEntity
  8
0239_詳細図（細
  6
Continuous
 62
     3
370
     5
100
AcDbLine
 10
-736.3121320032847
 20
818.9365423844765
 30
0.0
 11
-736.3121320032847
 21
812.9365423844765
 31
0.0
  0
LINE
  5
88
330
1F
100
AcDbEntity
  8
0239_詳細図（細
  6
Continuous
 62
     3
370
     5
100
AcDbLine
 10
-726.4126370666735
 20
818.9365423844765
 30
0.0
 11
-726.4126370666735
 21
812.9365423844765
 31
0.0
  0
LINE
  5
89
330
1F
100
AcDbEntity
  8
0239_詳細図（細
  6
Continuous
 62
     3
370
     5
100
AcDbLine
 10
-731.3623845349787
 20
818.9365423844765
 30
0.0
 11
-731.3623845349787
 21
812.9365423844765
 31
0.0
  0
LINE
  5
8A
330
1F
100
AcDbEntity
  8
0239_詳細図（細
  6
Continuous
 62
     3
370
     5
100
AcDbLine
 10
-736.3121320032847
 20
804.9365423844765
 30
0.0
 11
-736.3121320032847
 21
798.9365423844765
 31
0.0
  0
LINE
  5
8B
330
1F
100
AcDbEntity
  8
0239_詳細図（細
  6
Continuous
 62
     3
370
     5
100
AcDbLine
 10
-726.4126370666735
 20
804.9365423844765
 30
0.0
 11
-726.4126370666735
 21
798.9365423844765
 31
0.0
  0
LINE
  5
8C
330
1F
100
AcDbEntity
  8
0239_詳細図（細
  6
Continuous
 62
     3
370
     5
100
AcDbLine
 10
-731.3623845349787
 20
804.9365423844765
 30
0.0
 11
-731.3623845349787
 21
798.9365423844765
 31
0.0
  0
LINE
  5
8D
330
1F
100
AcDbEntity
  8
0239_詳細図（細
  6
Continuous
 62
     3
370
     5
100
AcDbLine
 10
-736.3121320032847
 20
790.9365423844764
 30
0.0
 11
-736.3121320032847
 21
784.9365423844765
 31
0.0
  0
LINE
  5
8E
330
1F
100
AcDbEntity
  8
0239_詳細図（細
  6
Continuous
 62
     3
370
     5
100
AcDbLine
 10
-726.4126370666735
 20
790.9365423844764
 30
0.0
 11
-726.4126370666735
 21
784.9365423844765
 31
0.0
  0
LINE
  5
8F
330
1F
100
AcDbEntity
  8
0239_詳細図（細
  6
Continuous
 62
     3
370
     5
100
AcDbLine
 10
-731.3623845349787
 20
790.9365423844764
 30
0.0
 11
-731.3623845349787
 21
784.9365423844765
 31
0.0
  0
LINE
  5
90
330
1F
100
AcDbEntity
  8
0239_詳細図（細
  6
Continuous
 62
     3
370
     5
100
AcDbLine
 10
-736.3121320032847
 20
776.9365423844763
 30
0.0
 11
-736.3121320032847
 21
770.9365423844764
 31
0.0
  0
LINE
  5
91
330
1F
100
AcDbEntity
  8
0239_詳細図（細
  6
Continuous
 62
     3
370
     5
100
AcDbLine
 10
-726.4126370666735
 20
776.9365423844763
 30
0.0
 11
-726.4126370666735
 21
770.9365423844764
 31
0.0
  0
LINE
  5
92
330
1F
100
AcDbEntity
  8
0239_詳細図（細
  6
Continuous
 62
     3
370
     5
100
AcDbLine
 10
-731.3623845349787
 20
776.9365423844763
 30
0.0
 11
-731.3623845349787
 21
770.9365423844764
 31
0.0
  0
LINE
  5
93
330
1F
100
AcDbEntity
  8
0239_詳細図（細
  6
Continuous
 62
     3
370
     5
100
AcDbLine
 10
-736.3121320032847
 20
762.9365423844763
 30
0.0
 11
-736.3121320032847
 21
756.9365423844763
 31
0.0
  0
LINE
  5
94
330
1F
100
AcDbEntity
  8
0239_詳細図（細
  6
Continuous
 62
     3
370
     5
100
AcDbLine
 10
-726.4126370666735
 20
762.9365423844763
 30
0.0
 11
-726.4126370666735
 21
756.9365423844763
 31
0.0
  0
LINE
  5
95
330
1F
100
AcDbEntity
  8
0239_詳細図（細
  6
Continuous
 62
     3
370
     5
100
AcDbLine
 10
-731.3623845349787
 20
762.9365423844763
 30
0.0
 11
-731.3623845349787
 21
756.9365423844763
 31
0.0
  0
LINE
  5
96
330
1F
100
AcDbEntity
  8
0239_詳細図（細
  6
Continuous
 62
     3
370
     5
100
AcDbLine
 10
-736.3121320032847
 20
748.9365423844763
 30
0.0
 11
-736.3121320032847
 21
742.9365423844763
 31
0.0
  0
LINE
  5
97
330
1F
100
AcDbEntity
  8
0239_詳細図（細
  6
Continuous
 62
     3
370
     5
100
AcDbLine
 10
-726.4126370666735
 20
748.9365423844763
 30
0.0
 11
-726.4126370666735
 21
742.9365423844763
 31
0.0
  0
LINE
  5
98
330
1F
100
AcDbEntity
  8
0239_詳細図（細
  6
Continuous
 62
     3
370
     5
100
AcDbLine
 10
-731.3623845349787
 20
748.9365423844763
 30
0.0
 11
-731.3623845349787
 21
742.9365423844763
 31
0.0
  0
LINE
  5
99
330
1F
100
AcDbEntity
  8
0239_詳細図（細
  6
Continuous
 62
     3
370
     5
100
AcDbLine
 10
-736.3121320032847
 20
734.9365423844762
 30
0.0
 11
-736.3121320032847
 21
728.9365423844763
 31
0.0
  0
LINE
  5
9A
330
1F
100
AcDbEntity
  8
0239_詳細図（細
  6
Continuous
 62
     3
370
     5
100
AcDbLine
 10
-726.4126370666735
 20
734.9365423844762
 30
0.0
 11
-726.4126370666735
 21
728.9365423844763
 31
0.0
  0
LINE
  5
9B
330
1F
100
AcDbEntity
  8
0239_詳細図（細
  6
Continuous
 62
     3
370
     5
100
AcDbLine
 10
-731.3623845349787
 20
734.9365423844762
 30
0.0
 11
-731.3623845349787
 21
728.9365423844763
 31
0.0
  0
LINE
  5
9C
330
1F
100
AcDbEntity
  8
0239_詳細図（細
  6
Continuous
 62
     3
370
     5
100
AcDbLine
 10
-736.3121320032847
 20
720.9365423844761
 30
0.0
 11
-736.3121320032847
 21
714.9365423844762
 31
0.0
  0
LINE
  5
9D
330
1F
100
AcDbEntity
  8
0239_詳細図（細
  6
Continuous
 62
     3
370
     5
100
AcDbLine
 10
-726.4126370666735
 20
720.9365423844761
 30
0.0
 11
-726.4126370666735
 21
714.9365423844762
 31
0.0
  0
LINE
  5
9E
330
1F
100
AcDbEntity
  8
0239_詳細図（細
  6
Continuous
 62
     3
370
     5
100
AcDbLine
 10
-731.3623845349787
 20
720.9365423844761
 30
0.0
 11
-731.3623845349787
 21
714.9365423844762
 31
0.0
  0
LINE
  5
9F
330
1F
100
AcDbEntity
  8
0239_詳細図（細
  6
Continuous
 62
     3
370
     5
100
AcDbLine
 10
-736.3121320032847
 20
706.9365423844761
 30
0.0
 11
-736.3121320032847
 21
700.9365423844761
 31
0.0
  0
LINE
  5
A0
330
1F
100
AcDbEntity
  8
0239_詳細図（細
  6
Continuous
 62
     3
370
     5
100
AcDbLine
 10
-726.4126370666735
 20
706.9365423844761
 30
0.0
 11
-726.4126370666735
 21
700.9365423844761
 31
0.0
  0
LINE
  5
A1
330
1F
100
AcDbEntity
  8
0239_詳細図（細
  6
Continuous
 62
     3
370
     5
100
AcDbLine
 10
-731.3623845349787
 20
706.9365423844761
 30
0.0
 11
-731.3623845349787
 21
700.9365423844761
 31
0.0
  0
LINE
  5
A2
330
1F
100
AcDbEntity
  8
0239_詳細図（細
  6
Continuous
 62
     3
370
     5
100
AcDbLine
 10
-736.3121320032847
 20
692.9365423844761
 30
0.0
 11
-736.3121320032847
 21
686.9365423844761
 31
0.0
  0
LINE
  5
A3
330
1F
100
AcDbEntity
  8
0239_詳細図（細
  6
Continuous
 62
     3
370
     5
100
AcDbLine
 10
-726.4126370666735
 20
692.9365423844761
 30
0.0
 11
-726.4126370666735
 21
686.9365423844761
 31
0.0
  0
LINE
  5
A4
330
1F
100
AcDbEntity
  8
0239_詳細図（細
  6
Continuous
 62
     3
370
     5
100
AcDbLine
 10
-731.3623845349787
 20
692.9365423844761
 30
0.0
 11
-731.3623845349787
 21
686.9365423844761
 31
0.0
  0
LINE
  5
A5
330
1F
100
AcDbEntity
  8
0239_詳細図（細
  6
Continuous
 62
     3
370
     5
100
AcDbLine
 10
-736.3121320032847
 20
678.936542384476
 30
0.0
 11
-736.3121320032847
 21
672.9365423844761
 31
0.0
  0
LINE
  5
A6
330
1F
100
AcDbEntity
  8
0239_詳細図（細
  6
Continuous
 62
     3
370
     5
100
AcDbLine
 10
-726.4126370666735
 20
678.936542384476
 30
0.0
 11
-726.4126370666735
 21
672.9365423844761
 31
0.0
  0
LINE
  5
A7
330
1F
100
AcDbEntity
  8
0239_詳細図（細
  6
Continuous
 62
     3
370
     5
100
AcDbLine
 10
-731.3623845349787
 20
678.936542384476
 30
0.0
 11
-731.3623845349787
 21
672.9365423844761
 31
0.0
  0
LINE
  5
A8
330
1F
100
AcDbEntity
  8
0239_詳細図（細
  6
Continuous
 62
     3
370
     5
100
AcDbLine
 10
-736.3121320032847
 20
664.9365423844758
 30
0.0
 11
-736.3121320032847
 21
658.936542384476
 31
0.0
  0
LINE
  5
A9
330
1F
100
AcDbEntity
  8
0239_詳細図（細
  6
Continuous
 62
     3
370
     5
100
AcDbLine
 10
-726.4126370666735
 20
664.9365423844758
 30
0.0
 11
-726.4126370666735
 21
658.936542384476
 31
0.0
  0
LINE
  5
AA
330
1F
100
AcDbEntity
  8
0239_詳細図（細
  6
Continuous
 62
     3
370
     5
100
AcDbLine
 10
-731.3623845349787
 20
664.9365423844758
 30
0.0
 11
-731.3623845349787
 21
658.936542384476
 31
0.0
  0
LINE
  5
AB
330
1F
100
AcDbEntity
  8
0239_詳細図（細
  6
Continuous
 62
     3
370
     5
100
AcDbLine
 10
-736.3121320032847
 20
650.9365423844758
 30
0.0
 11
-736.3121320032847
 21
644.9365423844758
 31
0.0
  0
LINE
  5
AC
330
1F
100
AcDbEntity
  8
0239_詳細図（細
  6
Continuous
 62
     3
370
     5
100
AcDbLine
 10
-726.4126370666735
 20
650.9365423844758
 30
0.0
 11
-726.4126370666735
 21
644.9365423844758
 31
0.0
  0
LINE
  5
AD
330
1F
100
AcDbEntity
  8
0239_詳細図（細
  6
Continuous
 62
     3
370
     5
100
AcDbLine
 10
-731.3623845349787
 20
650.9365423844758
 30
0.0
 11
-731.3623845349787
 21
644.9365423844758
 31
0.0
  0
LINE
  5
AE
330
1F
100
AcDbEntity
  8
0239_詳細図（細
  6
Continuous
 62
     3
370
     5
100
AcDbLine
 10
-736.3121320032847
 20
636.9365423844758
 30
0.0
 11
-736.3121320032847
 21
630.9365423844757
 31
0.0
  0
LINE
  5
AF
330
1F
100
AcDbEntity
  8
0239_詳細図（細
  6
Continuous
 62
     3
370
     5
100
AcDbLine
 10
-726.4126370666735
 20
636.9365423844758
 30
0.0
 11
-726.4126370666735
 21
630.9365423844757
 31
0.0
  0
LINE
  5
B0
330
1F
100
AcDbEntity
  8
0239_詳細図（細
  6
Continuous
 62
     3
370
     5
100
AcDbLine
 10
-731.3623845349787
 20
636.9365423844758
 30
0.0
 11
-731.3623845349787
 21
630.9365423844757
 31
0.0
  0
LINE
  5
B1
330
1F
100
AcDbEntity
  8
0239_詳細図（細
  6
Continuous
 62
     3
370
     5
100
AcDbLine
 10
-736.3121320032847
 20
622.9365423844756
 30
0.0
 11
-736.3121320032847
 21
616.9365423844757
 31
0.0
  0
LINE
  5
B2
330
1F
100
AcDbEntity
  8
0239_詳細図（細
  6
Continuous
 62
     3
370
     5
100
AcDbLine
 10
-726.4126370666735
 20
622.9365423844756
 30
0.0
 11
-726.4126370666735
 21
616.9365423844757
 31
0.0
  0
LINE
  5
B3
330
1F
100
AcDbEntity
  8
0239_詳細図（細
  6
Continuous
 62
     3
370
     5
100
AcDbLine
 10
-731.3623845349787
 20
622.9365423844756
 30
0.0
 11
-731.3623845349787
 21
616.9365423844757
 31
0.0
  0
LINE
  5
B4
330
1F
100
AcDbEntity
  8
0239_詳細図（細
  6
Continuous
 62
     3
370
     5
100
AcDbLine
 10
-736.3121320032847
 20
608.9365423844756
 30
0.0
 11
-736.3121320032847
 21
602.9365423844756
 31
0.0
  0
LINE
  5
B5
330
1F
100
AcDbEntity
  8
0239_詳細図（細
  6
Continuous
 62
     3
370
     5
100
AcDbLine
 10
-726.4126370666735
 20
608.9365423844756
 30
0.0
 11
-726.4126370666735
 21
602.9365423844756
 31
0.0
  0
LINE
  5
B6
330
1F
100
AcDbEntity
  8
0239_詳細図（細
  6
Continuous
 62
     3
370
     5
100
AcDbLine
 10
-731.3623845349787
 20
608.9365423844756
 30
0.0
 11
-731.3623845349787
 21
602.9365423844756
 31
0.0
  0
LINE
  5
B7
330
1F
100
AcDbEntity
  8
0239_詳細図（細
  6
Continuous
 62
     3
370
     5
100
AcDbLine
 10
-736.3121320032847
 20
594.9365423844755
 30
0.0
 11
-736.3121320032847
 21
592.9365423844756
 31
0.0
  0
LINE
  5
B8
330
1F
100
AcDbEntity
  8
0239_詳細図（細
  6
Continuous
 62
     3
370
     5
100
AcDbLine
 10
-726.4126370666735
 20
594.9365423844755
 30
0.0
 11
-726.4126370666735
 21
592.9365423844756
 31
0.0
  0
LINE
  5
B9
330
1F
100
AcDbEntity
  8
0239_詳細図（細
  6
Continuous
 62
     3
370
     5
100
AcDbLine
 10
-731.3623845349787
 20
594.9365423844755
 30
0.0
 11
-731.3623845349787
 21
592.9365423844756
 31
0.0
  0
LINE
  5
BA
330
1F
100
AcDbEntity
  8
0239_詳細図（細
  6
Continuous
 62
     3
370
     5
100
AcDbLine
 10
-656.3121320032847
 20
926.936542384477
 30
0.0
 11
-656.3121320032847
 21
924.936542384477
 31
0.0
  0
LINE
  5
BB
330
1F
100
AcDbEntity
  8
0239_詳細図（細
  6
Continuous
 62
     3
370
     5
100
AcDbLine
 10
-646.4126370666735
 20
926.936542384477
 30
0.0
 11
-646.4126370666735
 21
924.936542384477
 31
0.0
  0
LINE
  5
BC
330
1F
100
AcDbEntity
  8
0239_詳細図（細
  6
Continuous
 62
     3
370
     5
100
AcDbLine
 10
-651.3623845349787
 20
926.936542384477
 30
0.0
 11
-651.3623845349787
 21
924.936542384477
 31
0.0
  0
LINE
  5
BD
330
1F
100
AcDbEntity
  8
0239_詳細図（細
  6
Continuous
 62
     3
370
     5
100
AcDbLine
 10
-656.3121320032847
 20
916.936542384477
 30
0.0
 11
-656.3121320032847
 21
910.936542384477
 31
0.0
  0
LINE
  5
BE
330
1F
100
AcDbEntity
  8
0239_詳細図（細
  6
Continuous
 62
     3
370
     5
100
AcDbLine
 10
-646.4126370666735
 20
916.936542384477
 30
0.0
 11
-646.4126370666735
 21
910.936542384477
 31
0.0
  0
LINE
  5
BF
330
1F
100
AcDbEntity
  8
0239_詳細図（細
  6
Continuous
 62
     3
370
     5
100
AcDbLine
 10
-651.3623845349787
 20
916.936542384477
 30
0.0
 11
-651.3623845349787
 21
910.936542384477
 31
0.0
  0
LINE
  5
C0
330
1F
100
AcDbEntity
  8
0239_詳細図（細
  6
Continuous
 62
     3
370
     5
100
AcDbLine
 10
-656.3121320032847
 20
902.9365423844769
 30
0.0
 11
-656.3121320032847
 21
896.936542384477
 31
0.0
  0
LINE
  5
C1
330
1F
100
AcDbEntity
  8
0239_詳細図（細
  6
Continuous
 62
     3
370
     5
100
AcDbLine
 10
-646.4126370666735
 20
902.9365423844769
 30
0.0
 11
-646.4126370666735
 21
896.936542384477
 31
0.0
  0
LINE
  5
C2
330
1F
100
AcDbEntity
  8
0239_詳細図（細
  6
Continuous
 62
     3
370
     5
100
AcDbLine
 10
-651.3623845349787
 20
902.9365423844769
 30
0.0
 11
-651.3623845349787
 21
896.936542384477
 31
0.0
  0
LINE
  5
C3
330
1F
100
AcDbEntity
  8
0239_詳細図（細
  6
Continuous
 62
     3
370
     5
100
AcDbLine
 10
-656.3121320032847
 20
888.9365423844768
 30
0.0
 11
-656.3121320032847
 21
882.9365423844769
 31
0.0
  0
LINE
  5
C4
330
1F
100
AcDbEntity
  8
0239_詳細図（細
  6
Continuous
 62
     3
370
     5
100
AcDbLine
 10
-646.4126370666735
 20
888.9365423844768
 30
0.0
 11
-646.4126370666735
 21
882.9365423844769
 31
0.0
  0
LINE
  5
C5
330
1F
100
AcDbEntity
  8
0239_詳細図（細
  6
Continuous
 62
     3
370
     5
100
AcDbLine
 10
-651.3623845349787
 20
888.9365423844768
 30
0.0
 11
-651.3623845349787
 21
882.9365423844769
 31
0.0
  0
LINE
  5
C6
330
1F
100
AcDbEntity
  8
0239_詳細図（細
  6
Continuous
 62
     3
370
     5
100
AcDbLine
 10
-656.3121320032847
 20
874.9365423844768
 30
0.0
 11
-656.3121320032847
 21
868.9365423844768
 31
0.0
  0
LINE
  5
C7
330
1F
100
AcDbEntity
  8
0239_詳細図（細
  6
Continuous
 62
     3
370
     5
100
AcDbLine
 10
-646.4126370666735
 20
874.9365423844768
 30
0.0
 11
-646.4126370666735
 21
868.9365423844768
 31
0.0
  0
LINE
  5
C8
330
1F
100
AcDbEntity
  8
0239_詳細図（細
  6
Continuous
 62
     3
370
     5
100
AcDbLine
 10
-651.3623845349787
 20
874.9365423844768
 30
0.0
 11
-651.3623845349787
 21
868.9365423844768
 31
0.0
  0
LINE
  5
C9
330
1F
100
AcDbEntity
  8
0239_詳細図（細
  6
Continuous
 62
     3
370
     5
100
AcDbLine
 10
-656.3121320032847
 20
860.9365423844768
 30
0.0
 11
-656.3121320032847
 21
854.9365423844768
 31
0.0
  0
LINE
  5
CA
330
1F
100
AcDbEntity
  8
0239_詳細図（細
  6
Continuous
 62
     3
370
     5
100
AcDbLine
 10
-646.4126370666735
 20
860.9365423844768
 30
0.0
 11
-646.4126370666735
 21
854.9365423844768
 31
0.0
  0
LINE
  5
CB
330
1F
100
AcDbEntity
  8
0239_詳細図（細
  6
Continuous
 62
     3
370
     5
100
AcDbLine
 10
-651.3623845349787
 20
860.9365423844768
 30
0.0
 11
-651.3623845349787
 21
854.9365423844768
 31
0.0
  0
LINE
  5
CC
330
1F
100
AcDbEntity
  8
0239_詳細図（細
  6
Continuous
 62
     3
370
     5
100
AcDbLine
 10
-656.3121320032847
 20
846.9365423844766
 30
0.0
 11
-656.3121320032847
 21
840.9365423844768
 31
0.0
  0
LINE
  5
CD
330
1F
100
AcDbEntity
  8
0239_詳細図（細
  6
Continuous
 62
     3
370
     5
100
AcDbLine
 10
-646.4126370666735
 20
846.9365423844766
 30
0.0
 11
-646.4126370666735
 21
840.9365423844768
 31
0.0
  0
LINE
  5
CE
330
1F
100
AcDbEntity
  8
0239_詳細図（細
  6
Continuous
 62
     3
370
     5
100
AcDbLine
 10
-651.3623845349787
 20
846.9365423844766
 30
0.0
 11
-651.3623845349787
 21
840.9365423844768
 31
0.0
  0
LINE
  5
CF
330
1F
100
AcDbEntity
  8
0239_詳細図（細
  6
Continuous
 62
     3
370
     5
100
AcDbLine
 10
-656.3121320032847
 20
832.9365423844765
 30
0.0
 11
-656.3121320032847
 21
826.9365423844766
 31
0.0
  0
LINE
  5
D0
330
1F
100
AcDbEntity
  8
0239_詳細図（細
  6
Continuous
 62
     3
370
     5
100
AcDbLine
 10
-646.4126370666735
 20
832.9365423844765
 30
0.0
 11
-646.4126370666735
 21
826.9365423844766
 31
0.0
  0
LINE
  5
D1
330
1F
100
AcDbEntity
  8
0239_詳細図（細
  6
Continuous
 62
     3
370
     5
100
AcDbLine
 10
-651.3623845349787
 20
832.9365423844765
 30
0.0
 11
-651.3623845349787
 21
826.9365423844766
 31
0.0
  0
LINE
  5
D2
330
1F
100
AcDbEntity
  8
0239_詳細図（細
  6
Continuous
 62
     3
370
     5
100
AcDbLine
 10
-656.3121320032847
 20
818.9365423844765
 30
0.0
 11
-656.3121320032847
 21
812.9365423844765
 31
0.0
  0
LINE
  5
D3
330
1F
100
AcDbEntity
  8
0239_詳細図（細
  6
Continuous
 62
     3
370
     5
100
AcDbLine
 10
-646.4126370666735
 20
818.9365423844765
 30
0.0
 11
-646.4126370666735
 21
812.9365423844765
 31
0.0
  0
LINE
  5
D4
330
1F
100
AcDbEntity
  8
0239_詳細図（細
  6
Continuous
 62
     3
370
     5
100
AcDbLine
 10
-651.3623845349787
 20
818.9365423844765
 30
0.0
 11
-651.3623845349787
 21
812.9365423844765
 31
0.0
  0
LINE
  5
D5
330
1F
100
AcDbEntity
  8
0239_詳細図（細
  6
Continuous
 62
     3
370
     5
100
AcDbLine
 10
-656.3121320032847
 20
804.9365423844765
 30
0.0
 11
-656.3121320032847
 21
798.9365423844765
 31
0.0
  0
LINE
  5
D6
330
1F
100
AcDbEntity
  8
0239_詳細図（細
  6
Continuous
 62
     3
370
     5
100
AcDbLine
 10
-646.4126370666735
 20
804.9365423844765
 30
0.0
 11
-646.4126370666735
 21
798.9365423844765
 31
0.0
  0
LINE
  5
D7
330
1F
100
AcDbEntity
  8
0239_詳細図（細
  6
Continuous
 62
     3
370
     5
100
AcDbLine
 10
-651.3623845349787
 20
804.9365423844765
 30
0.0
 11
-651.3623845349787
 21
798.9365423844765
 31
0.0
  0
LINE
  5
D8
330
1F
100
AcDbEntity
  8
0239_詳細図（細
  6
Continuous
 62
     3
370
     5
100
AcDbLine
 10
-656.3121320032847
 20
790.9365423844764
 30
0.0
 11
-656.3121320032847
 21
784.9365423844765
 31
0.0
  0
LINE
  5
D9
330
1F
100
AcDbEntity
  8
0239_詳細図（細
  6
Continuous
 62
     3
370
     5
100
AcDbLine
 10
-646.4126370666735
 20
790.9365423844764
 30
0.0
 11
-646.4126370666735
 21
784.9365423844765
 31
0.0
  0
LINE
  5
DA
330
1F
100
AcDbEntity
  8
0239_詳細図（細
  6
Continuous
 62
     3
370
     5
100
AcDbLine
 10
-651.3623845349787
 20
790.9365423844764
 30
0.0
 11
-651.3623845349787
 21
784.9365423844765
 31
0.0
  0
LINE
  5
DB
330
1F
100
AcDbEntity
  8
0239_詳細図（細
  6
Continuous
 62
     3
370
     5
100
AcDbLine
 10
-656.3121320032847
 20
776.9365423844763
 30
0.0
 11
-656.3121320032847
 21
770.9365423844764
 31
0.0
  0
LINE
  5
DC
330
1F
100
AcDbEntity
  8
0239_詳細図（細
  6
Continuous
 62
     3
370
     5
100
AcDbLine
 10
-646.4126370666735
 20
776.9365423844763
 30
0.0
 11
-646.4126370666735
 21
770.9365423844764
 31
0.0
  0
LINE
  5
DD
330
1F
100
AcDbEntity
  8
0239_詳細図（細
  6
Continuous
 62
     3
370
     5
100
AcDbLine
 10
-651.3623845349787
 20
776.9365423844763
 30
0.0
 11
-651.3623845349787
 21
770.9365423844764
 31
0.0
  0
LINE
  5
DE
330
1F
100
AcDbEntity
  8
0239_詳細図（細
  6
Continuous
 62
     3
370
     5
100
AcDbLine
 10
-656.3121320032847
 20
762.9365423844763
 30
0.0
 11
-656.3121320032847
 21
756.9365423844763
 31
0.0
  0
LINE
  5
DF
330
1F
100
AcDbEntity
  8
0239_詳細図（細
  6
Continuous
 62
     3
370
     5
100
AcDbLine
 10
-646.4126370666735
 20
762.9365423844763
 30
0.0
 11
-646.4126370666735
 21
756.9365423844763
 31
0.0
  0
LINE
  5
E0
330
1F
100
AcDbEntity
  8
0239_詳細図（細
  6
Continuous
 62
     3
370
     5
100
AcDbLine
 10
-651.3623845349787
 20
762.9365423844763
 30
0.0
 11
-651.3623845349787
 21
756.9365423844763
 31
0.0
  0
LINE
  5
E1
330
1F
100
AcDbEntity
  8
0239_詳細図（細
  6
Continuous
 62
     3
370
     5
100
AcDbLine
 10
-656.3121320032847
 20
748.9365423844763
 30
0.0
 11
-656.3121320032847
 21
742.9365423844763
 31
0.0
  0
LINE
  5
E2
330
1F
100
AcDbEntity
  8
0239_詳細図（細
  6
Continuous
 62
     3
370
     5
100
AcDbLine
 10
-646.4126370666735
 20
748.9365423844763
 30
0.0
 11
-646.4126370666735
 21
742.9365423844763
 31
0.0
  0
LINE
  5
E3
330
1F
100
AcDbEntity
  8
0239_詳細図（細
  6
Continuous
 62
     3
370
     5
100
AcDbLine
 10
-651.3623845349787
 20
748.9365423844763
 30
0.0
 11
-651.3623845349787
 21
742.9365423844763
 31
0.0
  0
LINE
  5
E4
330
1F
100
AcDbEntity
  8
0239_詳細図（細
  6
Continuous
 62
     3
370
     5
100
AcDbLine
 10
-656.3121320032847
 20
734.9365423844762
 30
0.0
 11
-656.3121320032847
 21
728.9365423844763
 31
0.0
  0
LINE
  5
E5
330
1F
100
AcDbEntity
  8
0239_詳細図（細
  6
Continuous
 62
     3
370
     5
100
AcDbLine
 10
-646.4126370666735
 20
734.9365423844762
 30
0.0
 11
-646.4126370666735
 21
728.9365423844763
 31
0.0
  0
LINE
  5
E6
330
1F
100
AcDbEntity
  8
0239_詳細図（細
  6
Continuous
 62
     3
370
     5
100
AcDbLine
 10
-651.3623845349787
 20
734.9365423844762
 30
0.0
 11
-651.3623845349787
 21
728.9365423844763
 31
0.0
  0
LINE
  5
E7
330
1F
100
AcDbEntity
  8
0239_詳細図（細
  6
Continuous
 62
     3
370
     5
100
AcDbLine
 10
-656.3121320032847
 20
720.9365423844761
 30
0.0
 11
-656.3121320032847
 21
714.9365423844762
 31
0.0
  0
LINE
  5
E8
330
1F
100
AcDbEntity
  8
0239_詳細図（細
  6
Continuous
 62
     3
370
     5
100
AcDbLine
 10
-646.4126370666735
 20
720.9365423844761
 30
0.0
 11
-646.4126370666735
 21
714.9365423844762
 31
0.0
  0
LINE
  5
E9
330
1F
100
AcDbEntity
  8
0239_詳細図（細
  6
Continuous
 62
     3
370
     5
100
AcDbLine
 10
-651.3623845349787
 20
720.9365423844761
 30
0.0
 11
-651.3623845349787
 21
714.9365423844762
 31
0.0
  0
LINE
  5
EA
330
1F
100
AcDbEntity
  8
0239_詳細図（細
  6
Continuous
 62
     3
370
     5
100
AcDbLine
 10
-656.3121320032847
 20
706.9365423844761
 30
0.0
 11
-656.3121320032847
 21
700.9365423844761
 31
0.0
  0
LINE
  5
EB
330
1F
100
AcDbEntity
  8
0239_詳細図（細
  6
Continuous
 62
     3
370
     5
100
AcDbLine
 10
-646.4126370666735
 20
706.9365423844761
 30
0.0
 11
-646.4126370666735
 21
700.9365423844761
 31
0.0
  0
LINE
  5
EC
330
1F
100
AcDbEntity
  8
0239_詳細図（細
  6
Continuous
 62
     3
370
     5
100
AcDbLine
 10
-651.3623845349787
 20
706.9365423844761
 30
0.0
 11
-651.3623845349787
 21
700.9365423844761
 31
0.0
  0
LINE
  5
ED
330
1F
100
AcDbEntity
  8
0239_詳細図（細
  6
Continuous
 62
     3
370
     5
100
AcDbLine
 10
-656.3121320032847
 20
692.9365423844761
 30
0.0
 11
-656.3121320032847
 21
686.9365423844761
 31
0.0
  0
LINE
  5
EE
330
1F
100
AcDbEntity
  8
0239_詳細図（細
  6
Continuous
 62
     3
370
     5
100
AcDbLine
 10
-646.4126370666735
 20
692.9365423844761
 30
0.0
 11
-646.4126370666735
 21
686.9365423844761
 31
0.0
  0
LINE
  5
EF
330
1F
100
AcDbEntity
  8
0239_詳細図（細
  6
Continuous
 62
     3
370
     5
100
AcDbLine
 10
-651.3623845349787
 20
692.9365423844761
 30
0.0
 11
-651.3623845349787
 21
686.9365423844761
 31
0.0
  0
LINE
  5
F0
330
1F
100
AcDbEntity
  8
0239_詳細図（細
  6
Continuous
 62
     3
370
     5
100
AcDbLine
 10
-656.3121320032847
 20
678.936542384476
 30
0.0
 11
-656.3121320032847
 21
672.9365423844761
 31
0.0
  0
LINE
  5
F1
330
1F
100
AcDbEntity
  8
0239_詳細図（細
  6
Continuous
 62
     3
370
     5
100
AcDbLine
 10
-646.4126370666735
 20
678.936542384476
 30
0.0
 11
-646.4126370666735
 21
672.9365423844761
 31
0.0
  0
LINE
  5
F2
330
1F
100
AcDbEntity
  8
0239_詳細図（細
  6
Continuous
 62
     3
370
     5
100
AcDbLine
 10
-651.3623845349787
 20
678.936542384476
 30
0.0
 11
-651.3623845349787
 21
672.9365423844761
 31
0.0
  0
LINE
  5
F3
330
1F
100
AcDbEntity
  8
0239_詳細図（細
  6
Continuous
 62
     3
370
     5
100
AcDbLine
 10
-656.3121320032847
 20
664.9365423844758
 30
0.0
 11
-656.3121320032847
 21
658.936542384476
 31
0.0
  0
LINE
  5
F4
330
1F
100
AcDbEntity
  8
0239_詳細図（細
  6
Continuous
 62
     3
370
     5
100
AcDbLine
 10
-646.4126370666735
 20
664.9365423844758
 30
0.0
 11
-646.4126370666735
 21
658.936542384476
 31
0.0
  0
LINE
  5
F5
330
1F
100
AcDbEntity
  8
0239_詳細図（細
  6
Continuous
 62
     3
370
     5
100
AcDbLine
 10
-651.3623845349787
 20
664.9365423844758
 30
0.0
 11
-651.3623845349787
 21
658.936542384476
 31
0.0
  0
LINE
  5
F6
330
1F
100
AcDbEntity
  8
0239_詳細図（細
  6
Continuous
 62
     3
370
     5
100
AcDbLine
 10
-656.3121320032847
 20
650.9365423844758
 30
0.0
 11
-656.3121320032847
 21
644.9365423844758
 31
0.0
  0
LINE
  5
F7
330
1F
100
AcDbEntity
  8
0239_詳細図（細
  6
Continuous
 62
     3
370
     5
100
AcDbLine
 10
-646.4126370666735
 20
650.9365423844758
 30
0.0
 11
-646.4126370666735
 21
644.9365423844758
 31
0.0
  0
LINE
  5
F8
330
1F
100
AcDbEntity
  8
0239_詳細図（細
  6
Continuous
 62
     3
370
     5
100
AcDbLine
 10
-651.3623845349787
 20
650.9365423844758
 30
0.0
 11
-651.3623845349787
 21
644.9365423844758
 31
0.0
  0
LINE
  5
F9
330
1F
100
AcDbEntity
  8
0239_詳細図（細
  6
Continuous
 62
     3
370
     5
100
AcDbLine
 10
-656.3121320032847
 20
636.9365423844758
 30
0.0
 11
-656.3121320032847
 21
630.9365423844757
 31
0.0
  0
LINE
  5
FA
330
1F
100
AcDbEntity
  8
0239_詳細図（細
  6
Continuous
 62
     3
370
     5
100
AcDbLine
 10
-646.4126370666735
 20
636.9365423844758
 30
0.0
 11
-646.4126370666735
 21
630.9365423844757
 31
0.0
  0
LINE
  5
FB
330
1F
100
AcDbEntity
  8
0239_詳細図（細
  6
Continuous
 62
     3
370
     5
100
AcDbLine
 10
-651.3623845349787
 20
636.9365423844758
 30
0.0
 11
-651.3623845349787
 21
630.9365423844757
 31
0.0
  0
LINE
  5
FC
330
1F
100
AcDbEntity
  8
0239_詳細図（細
  6
Continuous
 62
     3
370
     5
100
AcDbLine
 10
-656.3121320032847
 20
622.9365423844756
 30
0.0
 11
-656.3121320032847
 21
616.9365423844757
 31
0.0
  0
LINE
  5
FD
330
1F
100
AcDbEntity
  8
0239_詳細図（細
  6
Continuous
 62
     3
370
     5
100
AcDbLine
 10
-646.4126370666735
 20
622.9365423844756
 30
0.0
 11
-646.4126370666735
 21
616.9365423844757
 31
0.0
  0
LINE
  5
FE
330
1F
100
AcDbEntity
  8
0239_詳細図（細
  6
Continuous
 62
     3
370
     5
100
AcDbLine
 10
-651.3623845349787
 20
622.9365423844756
 30
0.0
 11
-651.3623845349787
 21
616.9365423844757
 31
0.0
  0
LINE
  5
FF
330
1F
100
AcDbEntity
  8
0239_詳細図（細
  6
Continuous
 62
     3
370
     5
100
AcDbLine
 10
-656.3121320032847
 20
608.9365423844756
 30
0.0
 11
-656.3121320032847
 21
602.9365423844756
 31
0.0
  0
LINE
  5
100
330
1F
100
AcDbEntity
  8
0239_詳細図（細
  6
Continuous
 62
     3
370
     5
100
AcDbLine
 10
-646.4126370666735
 20
608.9365423844756
 30
0.0
 11
-646.4126370666735
 21
602.9365423844756
 31
0.0
  0
LINE
  5
101
330
1F
100
AcDbEntity
  8
0239_詳細図（細
  6
Continuous
 62
     3
370
     5
100
AcDbLine
 10
-651.3623845349787
 20
608.9365423844756
 30
0.0
 11
-651.3623845349787
 21
602.9365423844756
 31
0.0
  0
LINE
  5
102
330
1F
100
AcDbEntity
  8
0239_詳細図（細
  6
Continuous
 62
     3
370
     5
100
AcDbLine
 10
-656.3121320032847
 20
594.9365423844755
 30
0.0
 11
-656.3121320032847
 21
592.9365423844756
 31
0.0
  0
LINE
  5
103
330
1F
100
AcDbEntity
  8
0239_詳細図（細
  6
Continuous
 62
     3
370
     5
100
AcDbLine
 10
-646.4126370666735
 20
594.9365423844755
 30
0.0
 11
-646.4126370666735
 21
592.9365423844756
 31
0.0
  0
LINE
  5
104
330
1F
100
AcDbEntity
  8
0239_詳細図（細
  6
Continuous
 62
     3
370
     5
100
AcDbLine
 10
-651.3623845349787
 20
594.9365423844755
 30
0.0
 11
-651.3623845349787
 21
592.9365423844756
 31
0.0
  0
LINE
  5
105
330
1F
100
AcDbEntity
  8
0239_詳細図（細
  6
Continuous
 62
     3
370
     5
100
AcDbLine
 10
-576.3121320032847
 20
926.936542384477
 30
0.0
 11
-576.3121320032847
 21
924.936542384477
 31
0.0
  0
LINE
  5
106
330
1F
100
AcDbEntity
  8
0239_詳細図（細
  6
Continuous
 62
     3
370
     5
100
AcDbLine
 10
-566.4126370666735
 20
926.936542384477
 30
0.0
 11
-566.4126370666735
 21
924.936542384477
 31
0.0
  0
LINE
  5
107
330
1F
100
AcDbEntity
  8
0239_詳細図（細
  6
Continuous
 62
     3
370
     5
100
AcDbLine
 10
-571.3623845349788
 20
926.936542384477
 30
0.0
 11
-571.3623845349788
 21
924.936542384477
 31
0.0
  0
LINE
  5
108
330
1F
100
AcDbEntity
  8
0239_詳細図（細
  6
Continuous
 62
     3
370
     5
100
AcDbLine
 10
-576.3121320032847
 20
916.936542384477
 30
0.0
 11
-576.3121320032847
 21
910.936542384477
 31
0.0
  0
LINE
  5
109
330
1F
100
AcDbEntity
  8
0239_詳細図（細
  6
Continuous
 62
     3
370
     5
100
AcDbLine
 10
-566.4126370666735
 20
916.936542384477
 30
0.0
 11
-566.4126370666735
 21
910.936542384477
 31
0.0
  0
LINE
  5
10A
330
1F
100
AcDbEntity
  8
0239_詳細図（細
  6
Continuous
 62
     3
370
     5
100
AcDbLine
 10
-571.3623845349788
 20
916.936542384477
 30
0.0
 11
-571.3623845349788
 21
910.936542384477
 31
0.0
  0
LINE
  5
10B
330
1F
100
AcDbEntity
  8
0239_詳細図（細
  6
Continuous
 62
     3
370
     5
100
AcDbLine
 10
-576.3121320032847
 20
902.9365423844769
 30
0.0
 11
-576.3121320032847
 21
896.936542384477
 31
0.0
  0
LINE
  5
10C
330
1F
100
AcDbEntity
  8
0239_詳細図（細
  6
Continuous
 62
     3
370
     5
100
AcDbLine
 10
-566.4126370666735
 20
902.9365423844769
 30
0.0
 11
-566.4126370666735
 21
896.936542384477
 31
0.0
  0
LINE
  5
10D
330
1F
100
AcDbEntity
  8
0239_詳細図（細
  6
Continuous
 62
     3
370
     5
100
AcDbLine
 10
-571.3623845349788
 20
902.9365423844769
 30
0.0
 11
-571.3623845349788
 21
896.936542384477
 31
0.0
  0
LINE
  5
10E
330
1F
100
AcDbEntity
  8
0239_詳細図（細
  6
Continuous
 62
     3
370
     5
100
AcDbLine
 10
-576.3121320032847
 20
888.9365423844768
 30
0.0
 11
-576.3121320032847
 21
882.9365423844769
 31
0.0
  0
LINE
  5
10F
330
1F
100
AcDbEntity
  8
0239_詳細図（細
  6
Continuous
 62
     3
370
     5
100
AcDbLine
 10
-566.4126370666735
 20
888.9365423844768
 30
0.0
 11
-566.4126370666735
 21
882.9365423844769
 31
0.0
  0
LINE
  5
110
330
1F
100
AcDbEntity
  8
0239_詳細図（細
  6
Continuous
 62
     3
370
     5
100
AcDbLine
 10
-571.3623845349788
 20
888.9365423844768
 30
0.0
 11
-571.3623845349788
 21
882.9365423844769
 31
0.0
  0
LINE
  5
111
330
1F
100
AcDbEntity
  8
0239_詳細図（細
  6
Continuous
 62
     3
370
     5
100
AcDbLine
 10
-576.3121320032847
 20
874.9365423844768
 30
0.0
 11
-576.3121320032847
 21
868.9365423844768
 31
0.0
  0
LINE
  5
112
330
1F
100
AcDbEntity
  8
0239_詳細図（細
  6
Continuous
 62
     3
370
     5
100
AcDbLine
 10
-566.4126370666735
 20
874.9365423844768
 30
0.0
 11
-566.4126370666735
 21
868.9365423844768
 31
0.0
  0
LINE
  5
113
330
1F
100
AcDbEntity
  8
0239_詳細図（細
  6
Continuous
 62
     3
370
     5
100
AcDbLine
 10
-571.3623845349788
 20
874.9365423844768
 30
0.0
 11
-571.3623845349788
 21
868.9365423844768
 31
0.0
  0
LINE
  5
114
330
1F
100
AcDbEntity
  8
0239_詳細図（細
  6
Continuous
 62
     3
370
     5
100
AcDbLine
 10
-576.3121320032847
 20
860.9365423844768
 30
0.0
 11
-576.3121320032847
 21
854.9365423844768
 31
0.0
  0
LINE
  5
115
330
1F
100
AcDbEntity
  8
0239_詳細図（細
  6
Continuous
 62
     3
370
     5
100
AcDbLine
 10
-566.4126370666735
 20
860.9365423844768
 30
0.0
 11
-566.4126370666735
 21
854.9365423844768
 31
0.0
  0
LINE
  5
116
330
1F
100
AcDbEntity
  8
0239_詳細図（細
  6
Continuous
 62
     3
370
     5
100
AcDbLine
 10
-571.3623845349788
 20
860.9365423844768
 30
0.0
 11
-571.3623845349788
 21
854.9365423844768
 31
0.0
  0
LINE
  5
117
330
1F
100
AcDbEntity
  8
0239_詳細図（細
  6
Continuous
 62
     3
370
     5
100
AcDbLine
 10
-576.3121320032847
 20
846.9365423844766
 30
0.0
 11
-576.3121320032847
 21
840.9365423844768
 31
0.0
  0
LINE
  5
118
330
1F
100
AcDbEntity
  8
0239_詳細図（細
  6
Continuous
 62
     3
370
     5
100
AcDbLine
 10
-566.4126370666735
 20
846.9365423844766
 30
0.0
 11
-566.4126370666735
 21
840.9365423844768
 31
0.0
  0
LINE
  5
119
330
1F
100
AcDbEntity
  8
0239_詳細図（細
  6
Continuous
 62
     3
370
     5
100
AcDbLine
 10
-571.3623845349788
 20
846.9365423844766
 30
0.0
 11
-571.3623845349788
 21
840.9365423844768
 31
0.0
  0
LINE
  5
11A
330
1F
100
AcDbEntity
  8
0239_詳細図（細
  6
Continuous
 62
     3
370
     5
100
AcDbLine
 10
-576.3121320032847
 20
832.9365423844765
 30
0.0
 11
-576.3121320032847
 21
826.9365423844766
 31
0.0
  0
LINE
  5
11B
330
1F
100
AcDbEntity
  8
0239_詳細図（細
  6
Continuous
 62
     3
370
     5
100
AcDbLine
 10
-566.4126370666735
 20
832.9365423844765
 30
0.0
 11
-566.4126370666735
 21
826.9365423844766
 31
0.0
  0
LINE
  5
11C
330
1F
100
AcDbEntity
  8
0239_詳細図（細
  6
Continuous
 62
     3
370
     5
100
AcDbLine
 10
-571.3623845349788
 20
832.9365423844765
 30
0.0
 11
-571.3623845349788
 21
826.9365423844766
 31
0.0
  0
LINE
  5
11D
330
1F
100
AcDbEntity
  8
0239_詳細図（細
  6
Continuous
 62
     3
370
     5
100
AcDbLine
 10
-576.3121320032847
 20
818.9365423844765
 30
0.0
 11
-576.3121320032847
 21
812.9365423844765
 31
0.0
  0
LINE
  5
11E
330
1F
100
AcDbEntity
  8
0239_詳細図（細
  6
Continuous
 62
     3
370
     5
100
AcDbLine
 10
-566.4126370666735
 20
818.9365423844765
 30
0.0
 11
-566.4126370666735
 21
812.9365423844765
 31
0.0
  0
LINE
  5
11F
330
1F
100
AcDbEntity
  8
0239_詳細図（細
  6
Continuous
 62
     3
370
     5
100
AcDbLine
 10
-571.3623845349788
 20
818.9365423844765
 30
0.0
 11
-571.3623845349788
 21
812.9365423844765
 31
0.0
  0
LINE
  5
120
330
1F
100
AcDbEntity
  8
0239_詳細図（細
  6
Continuous
 62
     3
370
     5
100
AcDbLine
 10
-576.3121320032847
 20
804.9365423844765
 30
0.0
 11
-576.3121320032847
 21
798.9365423844765
 31
0.0
  0
LINE
  5
121
330
1F
100
AcDbEntity
  8
0239_詳細図（細
  6
Continuous
 62
     3
370
     5
100
AcDbLine
 10
-566.4126370666735
 20
804.9365423844765
 30
0.0
 11
-566.4126370666735
 21
798.9365423844765
 31
0.0
  0
LINE
  5
122
330
1F
100
AcDbEntity
  8
0239_詳細図（細
  6
Continuous
 62
     3
370
     5
100
AcDbLine
 10
-571.3623845349788
 20
804.9365423844765
 30
0.0
 11
-571.3623845349788
 21
798.9365423844765
 31
0.0
  0
LINE
  5
123
330
1F
100
AcDbEntity
  8
0239_詳細図（細
  6
Continuous
 62
     3
370
     5
100
AcDbLine
 10
-576.3121320032847
 20
790.9365423844764
 30
0.0
 11
-576.3121320032847
 21
784.9365423844765
 31
0.0
  0
LINE
  5
124
330
1F
100
AcDbEntity
  8
0239_詳細図（細
  6
Continuous
 62
     3
370
     5
100
AcDbLine
 10
-566.4126370666735
 20
790.9365423844764
 30
0.0
 11
-566.4126370666735
 21
784.9365423844765
 31
0.0
  0
LINE
  5
125
330
1F
100
AcDbEntity
  8
0239_詳細図（細
  6
Continuous
 62
     3
370
     5
100
AcDbLine
 10
-571.3623845349788
 20
790.9365423844764
 30
0.0
 11
-571.3623845349788
 21
784.9365423844765
 31
0.0
  0
LINE
  5
126
330
1F
100
AcDbEntity
  8
0239_詳細図（細
  6
Continuous
 62
     3
370
     5
100
AcDbLine
 10
-576.3121320032847
 20
776.9365423844763
 30
0.0
 11
-576.3121320032847
 21
770.9365423844764
 31
0.0
  0
LINE
  5
127
330
1F
100
AcDbEntity
  8
0239_詳細図（細
  6
Continuous
 62
     3
370
     5
100
AcDbLine
 10
-566.4126370666735
 20
776.9365423844763
 30
0.0
 11
-566.4126370666735
 21
770.9365423844764
 31
0.0
  0
LINE
  5
128
330
1F
100
AcDbEntity
  8
0239_詳細図（細
  6
Continuous
 62
     3
370
     5
100
AcDbLine
 10
-571.3623845349788
 20
776.9365423844763
 30
0.0
 11
-571.3623845349788
 21
770.9365423844764
 31
0.0
  0
LINE
  5
129
330
1F
100
AcDbEntity
  8
0239_詳細図（細
  6
Continuous
 62
     3
370
     5
100
AcDbLine
 10
-576.3121320032847
 20
762.9365423844763
 30
0.0
 11
-576.3121320032847
 21
756.9365423844763
 31
0.0
  0
LINE
  5
12A
330
1F
100
AcDbEntity
  8
0239_詳細図（細
  6
Continuous
 62
     3
370
     5
100
AcDbLine
 10
-566.4126370666735
 20
762.9365423844763
 30
0.0
 11
-566.4126370666735
 21
756.9365423844763
 31
0.0
  0
LINE
  5
12B
330
1F
100
AcDbEntity
  8
0239_詳細図（細
  6
Continuous
 62
     3
370
     5
100
AcDbLine
 10
-571.3623845349788
 20
762.9365423844763
 30
0.0
 11
-571.3623845349788
 21
756.9365423844763
 31
0.0
  0
LINE
  5
12C
330
1F
100
AcDbEntity
  8
0239_詳細図（細
  6
Continuous
 62
     3
370
     5
100
AcDbLine
 10
-576.3121320032847
 20
748.9365423844763
 30
0.0
 11
-576.3121320032847
 21
742.9365423844763
 31
0.0
  0
LINE
  5
12D
330
1F
100
AcDbEntity
  8
0239_詳細図（細
  6
Continuous
 62
     3
370
     5
100
AcDbLine
 10
-566.4126370666735
 20
748.9365423844763
 30
0.0
 11
-566.4126370666735
 21
742.9365423844763
 31
0.0
  0
LINE
  5
12E
330
1F
100
AcDbEntity
  8
0239_詳細図（細
  6
Continuous
 62
     3
370
     5
100
AcDbLine
 10
-571.3623845349788
 20
748.9365423844763
 30
0.0
 11
-571.3623845349788
 21
742.9365423844763
 31
0.0
  0
LINE
  5
12F
330
1F
100
AcDbEntity
  8
0239_詳細図（細
  6
Continuous
 62
     3
370
     5
100
AcDbLine
 10
-576.3121320032847
 20
734.9365423844762
 30
0.0
 11
-576.3121320032847
 21
728.9365423844763
 31
0.0
  0
LINE
  5
130
330
1F
100
AcDbEntity
  8
0239_詳細図（細
  6
Continuous
 62
     3
370
     5
100
AcDbLine
 10
-566.4126370666735
 20
734.9365423844762
 30
0.0
 11
-566.4126370666735
 21
728.9365423844763
 31
0.0
  0
LINE
  5
131
330
1F
100
AcDbEntity
  8
0239_詳細図（細
  6
Continuous
 62
     3
370
     5
100
AcDbLine
 10
-571.3623845349788
 20
734.9365423844762
 30
0.0
 11
-571.3623845349788
 21
728.9365423844763
 31
0.0
  0
LINE
  5
132
330
1F
100
AcDbEntity
  8
0239_詳細図（細
  6
Continuous
 62
     3
370
     5
100
AcDbLine
 10
-576.3121320032847
 20
720.9365423844761
 30
0.0
 11
-576.3121320032847
 21
714.9365423844762
 31
0.0
  0
LINE
  5
133
330
1F
100
AcDbEntity
  8
0239_詳細図（細
  6
Continuous
 62
     3
370
     5
100
AcDbLine
 10
-566.4126370666735
 20
720.9365423844761
 30
0.0
 11
-566.4126370666735
 21
714.9365423844762
 31
0.0
  0
LINE
  5
134
330
1F
100
AcDbEntity
  8
0239_詳細図（細
  6
Continuous
 62
     3
370
     5
100
AcDbLine
 10
-571.3623845349788
 20
720.9365423844761
 30
0.0
 11
-571.3623845349788
 21
714.9365423844762
 31
0.0
  0
LINE
  5
135
330
1F
100
AcDbEntity
  8
0239_詳細図（細
  6
Continuous
 62
     3
370
     5
100
AcDbLine
 10
-576.3121320032847
 20
706.9365423844761
 30
0.0
 11
-576.3121320032847
 21
700.9365423844761
 31
0.0
  0
LINE
  5
136
330
1F
100
AcDbEntity
  8
0239_詳細図（細
  6
Continuous
 62
     3
370
     5
100
AcDbLine
 10
-566.4126370666735
 20
706.9365423844761
 30
0.0
 11
-566.4126370666735
 21
700.9365423844761
 31
0.0
  0
LINE
  5
137
330
1F
100
AcDbEntity
  8
0239_詳細図（細
  6
Continuous
 62
     3
370
     5
100
AcDbLine
 10
-571.3623845349788
 20
706.9365423844761
 30
0.0
 11
-571.3623845349788
 21
700.9365423844761
 31
0.0
  0
LINE
  5
138
330
1F
100
AcDbEntity
  8
0239_詳細図（細
  6
Continuous
 62
     3
370
     5
100
AcDbLine
 10
-576.3121320032847
 20
692.9365423844761
 30
0.0
 11
-576.3121320032847
 21
686.9365423844761
 31
0.0
  0
LINE
  5
139
330
1F
100
AcDbEntity
  8
0239_詳細図（細
  6
Continuous
 62
     3
370
     5
100
AcDbLine
 10
-566.4126370666735
 20
692.9365423844761
 30
0.0
 11
-566.4126370666735
 21
686.9365423844761
 31
0.0
  0
LINE
  5
13A
330
1F
100
AcDbEntity
  8
0239_詳細図（細
  6
Continuous
 62
     3
370
     5
100
AcDbLine
 10
-571.3623845349788
 20
692.9365423844761
 30
0.0
 11
-571.3623845349788
 21
686.9365423844761
 31
0.0
  0
LINE
  5
13B
330
1F
100
AcDbEntity
  8
0239_詳細図（細
  6
Continuous
 62
     3
370
     5
100
AcDbLine
 10
-576.3121320032847
 20
678.936542384476
 30
0.0
 11
-576.3121320032847
 21
672.9365423844761
 31
0.0
  0
LINE
  5
13C
330
1F
100
AcDbEntity
  8
0239_詳細図（細
  6
Continuous
 62
     3
370
     5
100
AcDbLine
 10
-566.4126370666735
 20
678.936542384476
 30
0.0
 11
-566.4126370666735
 21
672.9365423844761
 31
0.0
  0
LINE
  5
13D
330
1F
100
AcDbEntity
  8
0239_詳細図（細
  6
Continuous
 62
     3
370
     5
100
AcDbLine
 10
-571.3623845349788
 20
678.936542384476
 30
0.0
 11
-571.3623845349788
 21
672.9365423844761
 31
0.0
  0
LINE
  5
13E
330
1F
100
AcDbEntity
  8
0239_詳細図（細
  6
Continuous
 62
     3
370
     5
100
AcDbLine
 10
-496.3121320032846
 20
926.936542384477
 30
0.0
 11
-496.3121320032846
 21
924.936542384477
 31
0.0
  0
LINE
  5
13F
330
1F
100
AcDbEntity
  8
0239_詳細図（細
  6
Continuous
 62
     3
370
     5
100
AcDbLine
 10
-486.4126370666735
 20
926.936542384477
 30
0.0
 11
-486.4126370666735
 21
924.936542384477
 31
0.0
  0
LINE
  5
140
330
1F
100
AcDbEntity
  8
0239_詳細図（細
  6
Continuous
 62
     3
370
     5
100
AcDbLine
 10
-491.3623845349787
 20
926.936542384477
 30
0.0
 11
-491.3623845349787
 21
924.936542384477
 31
0.0
  0
LINE
  5
141
330
1F
100
AcDbEntity
  8
0239_詳細図（細
  6
Continuous
 62
     3
370
     5
100
AcDbLine
 10
-496.3121320032846
 20
916.936542384477
 30
0.0
 11
-496.3121320032846
 21
910.936542384477
 31
0.0
  0
LINE
  5
142
330
1F
100
AcDbEntity
  8
0239_詳細図（細
  6
Continuous
 62
     3
370
     5
100
AcDbLine
 10
-486.4126370666735
 20
916.936542384477
 30
0.0
 11
-486.4126370666735
 21
910.936542384477
 31
0.0
  0
LINE
  5
143
330
1F
100
AcDbEntity
  8
0239_詳細図（細
  6
Continuous
 62
     3
370
     5
100
AcDbLine
 10
-491.3623845349787
 20
916.936542384477
 30
0.0
 11
-491.3623845349787
 21
910.936542384477
 31
0.0
  0
LINE
  5
144
330
1F
100
AcDbEntity
  8
0239_詳細図（細
  6
Continuous
 62
     3
370
     5
100
AcDbLine
 10
-496.3121320032846
 20
902.9365423844769
 30
0.0
 11
-496.3121320032846
 21
896.936542384477
 31
0.0
  0
LINE
  5
145
330
1F
100
AcDbEntity
  8
0239_詳細図（細
  6
Continuous
 62
     3
370
     5
100
AcDbLine
 10
-486.4126370666735
 20
902.9365423844769
 30
0.0
 11
-486.4126370666735
 21
896.936542384477
 31
0.0
  0
LINE
  5
146
330
1F
100
AcDbEntity
  8
0239_詳細図（細
  6
Continuous
 62
     3
370
     5
100
AcDbLine
 10
-491.3623845349787
 20
902.9365423844769
 30
0.0
 11
-491.3623845349787
 21
896.936542384477
 31
0.0
  0
LINE
  5
147
330
1F
100
AcDbEntity
  8
0239_詳細図（細
  6
Continuous
 62
     3
370
     5
100
AcDbLine
 10
-496.3121320032846
 20
888.9365423844768
 30
0.0
 11
-496.3121320032846
 21
882.9365423844769
 31
0.0
  0
LINE
  5
148
330
1F
100
AcDbEntity
  8
0239_詳細図（細
  6
Continuous
 62
     3
370
     5
100
AcDbLine
 10
-486.4126370666735
 20
888.9365423844768
 30
0.0
 11
-486.4126370666735
 21
882.9365423844769
 31
0.0
  0
LINE
  5
149
330
1F
100
AcDbEntity
  8
0239_詳細図（細
  6
Continuous
 62
     3
370
     5
100
AcDbLine
 10
-491.3623845349787
 20
888.9365423844768
 30
0.0
 11
-491.3623845349787
 21
882.9365423844769
 31
0.0
  0
LINE
  5
14A
330
1F
100
AcDbEntity
  8
0239_詳細図（細
  6
Continuous
 62
     3
370
     5
100
AcDbLine
 10
-496.3121320032846
 20
874.9365423844768
 30
0.0
 11
-496.3121320032846
 21
868.9365423844768
 31
0.0
  0
LINE
  5
14B
330
1F
100
AcDbEntity
  8
0239_詳細図（細
  6
Continuous
 62
     3
370
     5
100
AcDbLine
 10
-486.4126370666735
 20
874.9365423844768
 30
0.0
 11
-486.4126370666735
 21
868.9365423844768
 31
0.0
  0
LINE
  5
14C
330
1F
100
AcDbEntity
  8
0239_詳細図（細
  6
Continuous
 62
     3
370
     5
100
AcDbLine
 10
-491.3623845349787
 20
874.9365423844768
 30
0.0
 11
-491.3623845349787
 21
868.9365423844768
 31
0.0
  0
LINE
  5
14D
330
1F
100
AcDbEntity
  8
0239_詳細図（細
  6
Continuous
 62
     3
370
     5
100
AcDbLine
 10
-496.3121320032846
 20
860.9365423844768
 30
0.0
 11
-496.3121320032846
 21
854.9365423844768
 31
0.0
  0
LINE
  5
14E
330
1F
100
AcDbEntity
  8
0239_詳細図（細
  6
Continuous
 62
     3
370
     5
100
AcDbLine
 10
-486.4126370666735
 20
860.9365423844768
 30
0.0
 11
-486.4126370666735
 21
854.9365423844768
 31
0.0
  0
LINE
  5
14F
330
1F
100
AcDbEntity
  8
0239_詳細図（細
  6
Continuous
 62
     3
370
     5
100
AcDbLine
 10
-491.3623845349787
 20
860.9365423844768
 30
0.0
 11
-491.3623845349787
 21
854.9365423844768
 31
0.0
  0
LINE
  5
150
330
1F
100
AcDbEntity
  8
0239_詳細図（細
  6
Continuous
 62
     3
370
     5
100
AcDbLine
 10
-496.3121320032846
 20
846.9365423844766
 30
0.0
 11
-496.3121320032846
 21
840.9365423844768
 31
0.0
  0
LINE
  5
151
330
1F
100
AcDbEntity
  8
0239_詳細図（細
  6
Continuous
 62
     3
370
     5
100
AcDbLine
 10
-486.4126370666735
 20
846.9365423844766
 30
0.0
 11
-486.4126370666735
 21
840.9365423844768
 31
0.0
  0
LINE
  5
152
330
1F
100
AcDbEntity
  8
0239_詳細図（細
  6
Continuous
 62
     3
370
     5
100
AcDbLine
 10
-491.3623845349787
 20
846.9365423844766
 30
0.0
 11
-491.3623845349787
 21
840.9365423844768
 31
0.0
  0
LINE
  5
153
330
1F
100
AcDbEntity
  8
0239_詳細図（細
  6
Continuous
 62
     3
370
     5
100
AcDbLine
 10
-496.3121320032846
 20
832.9365423844765
 30
0.0
 11
-496.3121320032846
 21
826.9365423844766
 31
0.0
  0
LINE
  5
154
330
1F
100
AcDbEntity
  8
0239_詳細図（細
  6
Continuous
 62
     3
370
     5
100
AcDbLine
 10
-486.4126370666735
 20
832.9365423844765
 30
0.0
 11
-486.4126370666735
 21
826.9365423844766
 31
0.0
  0
LINE
  5
155
330
1F
100
AcDbEntity
  8
0239_詳細図（細
  6
Continuous
 62
     3
370
     5
100
AcDbLine
 10
-491.3623845349787
 20
832.9365423844765
 30
0.0
 11
-491.3623845349787
 21
826.9365423844766
 31
0.0
  0
LINE
  5
156
330
1F
100
AcDbEntity
  8
0239_詳細図（細
  6
Continuous
 62
     3
370
     5
100
AcDbLine
 10
-496.3121320032846
 20
818.9365423844765
 30
0.0
 11
-496.3121320032846
 21
812.9365423844765
 31
0.0
  0
LINE
  5
157
330
1F
100
AcDbEntity
  8
0239_詳細図（細
  6
Continuous
 62
     3
370
     5
100
AcDbLine
 10
-486.4126370666735
 20
818.9365423844765
 30
0.0
 11
-486.4126370666735
 21
812.9365423844765
 31
0.0
  0
LINE
  5
158
330
1F
100
AcDbEntity
  8
0239_詳細図（細
  6
Continuous
 62
     3
370
     5
100
AcDbLine
 10
-491.3623845349787
 20
818.9365423844765
 30
0.0
 11
-491.3623845349787
 21
812.9365423844765
 31
0.0
  0
LINE
  5
159
330
1F
100
AcDbEntity
  8
0239_詳細図（細
  6
Continuous
 62
     3
370
     5
100
AcDbLine
 10
-496.3121320032846
 20
804.9365423844765
 30
0.0
 11
-496.3121320032846
 21
798.9365423844765
 31
0.0
  0
LINE
  5
15A
330
1F
100
AcDbEntity
  8
0239_詳細図（細
  6
Continuous
 62
     3
370
     5
100
AcDbLine
 10
-486.4126370666735
 20
804.9365423844765
 30
0.0
 11
-486.4126370666735
 21
798.9365423844765
 31
0.0
  0
LINE
  5
15B
330
1F
100
AcDbEntity
  8
0239_詳細図（細
  6
Continuous
 62
     3
370
     5
100
AcDbLine
 10
-491.3623845349787
 20
804.9365423844765
 30
0.0
 11
-491.3623845349787
 21
798.9365423844765
 31
0.0
  0
LINE
  5
15C
330
1F
100
AcDbEntity
  8
0239_詳細図（細
  6
Continuous
 62
     3
370
     5
100
AcDbLine
 10
-496.3121320032846
 20
790.9365423844764
 30
0.0
 11
-496.3121320032846
 21
784.9365423844765
 31
0.0
  0
LINE
  5
15D
330
1F
100
AcDbEntity
  8
0239_詳細図（細
  6
Continuous
 62
     3
370
     5
100
AcDbLine
 10
-486.4126370666735
 20
790.9365423844764
 30
0.0
 11
-486.4126370666735
 21
784.9365423844765
 31
0.0
  0
LINE
  5
15E
330
1F
100
AcDbEntity
  8
0239_詳細図（細
  6
Continuous
 62
     3
370
     5
100
AcDbLine
 10
-491.3623845349787
 20
790.9365423844764
 30
0.0
 11
-491.3623845349787
 21
784.9365423844765
 31
0.0
  0
LINE
  5
15F
330
1F
100
AcDbEntity
  8
0239_詳細図（細
  6
Continuous
 62
     3
370
     5
100
AcDbLine
 10
-496.3121320032846
 20
776.9365423844763
 30
0.0
 11
-496.3121320032846
 21
770.9365423844764
 31
0.0
  0
LINE
  5
160
330
1F
100
AcDbEntity
  8
0239_詳細図（細
  6
Continuous
 62
     3
370
     5
100
AcDbLine
 10
-486.4126370666735
 20
776.9365423844763
 30
0.0
 11
-486.4126370666735
 21
770.9365423844764
 31
0.0
  0
LINE
  5
161
330
1F
100
AcDbEntity
  8
0239_詳細図（細
  6
Continuous
 62
     3
370
     5
100
AcDbLine
 10
-491.3623845349787
 20
776.9365423844763
 30
0.0
 11
-491.3623845349787
 21
770.9365423844764
 31
0.0
  0
LINE
  5
162
330
1F
100
AcDbEntity
  8
0239_詳細図（細
  6
Continuous
 62
     3
370
     5
100
AcDbLine
 10
-783.3623845349789
 20
926.936542384477
 30
0.0
 11
-439.3623845349788
 21
926.936542384477
 31
0.0
  0
LINE
  5
163
330
1F
100
AcDbEntity
  8
0239_詳細図（細
  6
Continuous
 62
     3
370
     5
100
AcDbLine
 10
-783.3623845349789
 20
924.936542384477
 30
0.0
 11
-439.3623845349788
 21
924.936542384477
 31
0.0
  0
LINE
  5
164
330
1F
100
AcDbEntity
  8
0239_詳細図（細
  6
Continuous
 62
     3
370
     5
100
AcDbLine
 10
-783.3623845349789
 20
916.936542384477
 30
0.0
 11
-439.3623845349788
 21
916.936542384477
 31
0.0
  0
LINE
  5
165
330
1F
100
AcDbEntity
  8
0239_詳細図（細
  6
Continuous
 62
     3
370
     5
100
AcDbLine
 10
-783.3623845349789
 20
910.936542384477
 30
0.0
 11
-439.3623845349788
 21
910.936542384477
 31
0.0
  0
LINE
  5
166
330
1F
100
AcDbEntity
  8
0239_詳細図（細
  6
Continuous
 62
     3
370
     5
100
AcDbLine
 10
-783.3623845349789
 20
902.9365423844769
 30
0.0
 11
-439.3623845349788
 21
902.9365423844769
 31
0.0
  0
LINE
  5
167
330
1F
100
AcDbEntity
  8
0239_詳細図（細
  6
Continuous
 62
     3
370
     5
100
AcDbLine
 10
-783.3623845349789
 20
896.936542384477
 30
0.0
 11
-439.3623845349788
 21
896.936542384477
 31
0.0
  0
LINE
  5
168
330
1F
100
AcDbEntity
  8
0239_詳細図（細
  6
Continuous
 62
     3
370
     5
100
AcDbLine
 10
-783.3623845349789
 20
888.9365423844768
 30
0.0
 11
-439.3623845349788
 21
888.9365423844768
 31
0.0
  0
LINE
  5
169
330
1F
100
AcDbEntity
  8
0239_詳細図（細
  6
Continuous
 62
     3
370
     5
100
AcDbLine
 10
-783.3623845349789
 20
882.9365423844769
 30
0.0
 11
-439.3623845349788
 21
882.9365423844769
 31
0.0
  0
LINE
  5
16A
330
1F
100
AcDbEntity
  8
0239_詳細図（細
  6
Continuous
 62
     3
370
     5
100
AcDbLine
 10
-783.3623845349789
 20
874.9365423844768
 30
0.0
 11
-439.3623845349788
 21
874.9365423844768
 31
0.0
  0
LINE
  5
16B
330
1F
100
AcDbEntity
  8
0239_詳細図（細
  6
Continuous
 62
     3
370
     5
100
AcDbLine
 10
-783.3623845349789
 20
868.9365423844768
 30
0.0
 11
-439.3623845349788
 21
868.9365423844768
 31
0.0
  0
LINE
  5
16C
330
1F
100
AcDbEntity
  8
0239_詳細図（細
  6
Continuous
 62
     3
370
     5
100
AcDbLine
 10
-783.3623845349789
 20
860.9365423844768
 30
0.0
 11
-439.3623845349788
 21
860.9365423844768
 31
0.0
  0
LINE
  5
16D
330
1F
100
AcDbEntity
  8
0239_詳細図（細
  6
Continuous
 62
     3
370
     5
100
AcDbLine
 10
-783.3623845349789
 20
854.9365423844768
 30
0.0
 11
-439.3623845349788
 21
854.9365423844768
 31
0.0
  0
LINE
  5
16E
330
1F
100
AcDbEntity
  8
0239_詳細図（細
  6
Continuous
 62
     3
370
     5
100
AcDbLine
 10
-783.3623845349789
 20
846.9365423844766
 30
0.0
 11
-439.3623845349788
 21
846.9365423844766
 31
0.0
  0
LINE
  5
16F
330
1F
100
AcDbEntity
  8
0239_詳細図（細
  6
Continuous
 62
     3
370
     5
100
AcDbLine
 10
-783.3623845349789
 20
840.9365423844768
 30
0.0
 11
-439.3623845349788
 21
840.9365423844768
 31
0.0
  0
LINE
  5
170
330
1F
100
AcDbEntity
  8
0239_詳細図（細
  6
Continuous
 62
     3
370
     5
100
AcDbLine
 10
-783.3623845349789
 20
832.9365423844765
 30
0.0
 11
-439.3623845349788
 21
832.9365423844765
 31
0.0
  0
LINE
  5
171
330
1F
100
AcDbEntity
  8
0239_詳細図（細
  6
Continuous
 62
     3
370
     5
100
AcDbLine
 10
-783.3623845349789
 20
826.9365423844766
 30
0.0
 11
-439.3623845349788
 21
826.9365423844766
 31
0.0
  0
LINE
  5
172
330
1F
100
AcDbEntity
  8
0239_詳細図（細
  6
Continuous
 62
     3
370
     5
100
AcDbLine
 10
-783.3623845349789
 20
818.9365423844765
 30
0.0
 11
-439.3623845349788
 21
818.9365423844765
 31
0.0
  0
LINE
  5
173
330
1F
100
AcDbEntity
  8
0239_詳細図（細
  6
Continuous
 62
     3
370
     5
100
AcDbLine
 10
-783.3623845349789
 20
812.9365423844765
 30
0.0
 11
-439.3623845349788
 21
812.9365423844765
 31
0.0
  0
LINE
  5
174
330
1F
100
AcDbEntity
  8
0239_詳細図（細
  6
Continuous
 62
     3
370
     5
100
AcDbLine
 10
-783.3623845349789
 20
804.9365423844765
 30
0.0
 11
-439.3623845349788
 21
804.9365423844765
 31
0.0
  0
LINE
  5
175
330
1F
100
AcDbEntity
  8
0191_区画線（防
  6
JWW_DASHED3
 62
     2
370
     5
100
AcDbLine
 10
-461.3623845349787
 20
609.9363440202192
 30
0.0
 11
-461.4457934849249
 21
609.9363440202192
 31
0.0
  0
LINE
  5
176
330
1F
100
AcDbEntity
  8
0191_区画線（防
  6
JWW_DASHED3
 62
     2
370
     5
100
AcDbLine
 10
-461.3623845349787
 20
909.9362982438521
 30
0.0
 11
-461.3623845349787
 21
609.9363440202192
 31
0.0
  0
LINE
  5
177
330
1F
100
AcDbEntity
  8
0191_区画線（防
  6
JWW_DASHED3
 62
     2
370
     5
100
AcDbLine
 10
-461.3623845349787
 20
609.9363440202192
 30
0.0
 11
-761.3623845349787
 21
609.9363440202192
 31
0.0
  0
LINE
  5
178
330
1F
100
AcDbEntity
  8
0193_区画線（異
  6
Continuous
 62
     7
370
     5
100
AcDbLine
 10
-912.3623845349787
 20
584.9363440202192
 30
0.0
 11
-912.3623845349787
 21
609.9363440202192
 31
0.0
  0
LWPOLYLINE
  5
179
330
1F
100
AcDbEntity
  8
0193_区画線（異
  6
Continuous
 62
     7
370
     5
100
AcDbPolyline
 90
        4
 70
     1
 43
1.0
 10
-911.8623845349787
 20
584.9363440202192
 42
0.4142135623731
 10
-912.3623845349787
 20
585.436344020219
 42
0.4142135623731
 10
-912.8623845349786
 20
584.9363440202192
 42
0.4142135623731
 10
-912.3623845349787
 20
584.4363440202192
 42
0.4142135623731
  0
LWPOLYLINE
  5
17A
330
1F
100
AcDbEntity
  8
0193_区画線（異
  6
Continuous
 62
     7
370
     5
100
AcDbPolyline
 90
        4
 70
     1
 43
1.0
 10
-911.8623845349787
 20
609.9363440202192
 42
0.4142135623731
 10
-912.3623845349787
 20
610.4363440202192
 42
0.4142135623731
 10
-912.8623845349786
 20
609.9363440202192
 42
0.4142135623731
 10
-912.3623845349787
 20
609.4363440202192
 42
0.4142135623731
  0
LINE
  5
17B
330
1F
100
AcDbEntity
  8
0193_区画線（異
  6
Continuous
 62
     7
370
     5
100
AcDbLine
 10
-912.3623845349787
 20
609.9363440202192
 30
0.0
 11
-912.3623845349787
 21
909.9362982438521
 31
0.0
  0
LWPOLYLINE
  5
17C
330
1F
100
AcDbEntity
  8
0193_区画線（異
  6
Continuous
 62
     7
370
     5
100
AcDbPolyline
 90
        4
 70
     1
 43
1.0
 10
-911.8623845349787
 20
909.9362982438521
 42
0.4142135623731
 10
-912.3623845349787
 20
910.4362982438521
 42
0.4142135623731
 10
-912.8623845349786
 20
909.9362982438521
 42
0.4142135623731
 10
-912.3623845349787
 20
909.4362982438521
 42
0.4142135623731
  0
TEXT
  5
17D
330
1F
100
AcDbEntity
  8
0193_区画線（異
  6
Continuous
 62
     2
370
   211
100
AcDbText
 10
-928.0023845349787
 20
727.4363211320355
 30
0.0
 40
30.48
  1
300
 50
90.0
 41
1.083333333333333
  7
ＭＳ ゴシック
100
AcDbText
  0
LINE
  5
17E
330
1F
100
AcDbEntity
  8
0193_区画線（異
  6
Continuous
 62
     7
370
     5
100
AcDbLine
 10
-912.3623845349787
 20
909.9362982438521
 30
0.0
 11
-912.3623845349787
 21
934.936542384477
 31
0.0
  0
LWPOLYLINE
  5
17F
330
1F
100
AcDbEntity
  8
0193_区画線（異
  6
Continuous
 62
     7
370
     5
100
AcDbPolyline
 90
        4
 70
     1
 43
1.0
 10
-911.8623845349787
 20
934.936542384477
 42
0.4142135623731
 10
-912.3623845349787
 20
935.436542384477
 42
0.4142135623731
 10
-912.8623845349786
 20
934.936542384477
 42
0.4142135623731
 10
-912.3623845349787
 20
934.4365423844771
 42
0.4142135623731
  0
LINE
  5
180
330
1F
100
AcDbEntity
  8
0193_区画線（異
  6
Continuous
 62
     7
370
     5
100
AcDbLine
 10
-915.3623845349787
 20
584.9363440202192
 30
0.0
 11
-812.3623845349787
 21
584.9363440202192
 31
0.0
  0
LINE
  5
181
330
1F
100
AcDbEntity
  8
0193_区画線（異
  6
Continuous
 62
     7
370
     5
100
AcDbLine
 10
-915.3623845349787
 20
609.9363440202192
 30
0.0
 11
-812.3623845349787
 21
609.9363440202192
 31
0.0
  0
LINE
  5
182
330
1F
100
AcDbEntity
  8
0193_区画線（異
  6
Continuous
 62
     7
370
     5
100
AcDbLine
 10
-915.3623845349787
 20
909.9362982438521
 30
0.0
 11
-812.3623845349787
 21
909.9362982438521
 31
0.0
  0
LINE
  5
183
330
1F
100
AcDbEntity
  8
0193_区画線（異
  6
Continuous
 62
     7
370
     5
100
AcDbLine
 10
-915.3623845349787
 20
934.936542384477
 30
0.0
 11
-812.3623845349787
 21
934.936542384477
 31
0.0
  0
TEXT
  5
184
330
1F
100
AcDbEntity
  8
0193_区画線（異
  6
Continuous
 62
     2
370
   211
100
AcDbText
 10
-928.0023845349787
 20
882.2628183603033
 30
0.0
 40
30.48
  1
25
 50
90.0
 41
1.0625
  7
ＭＳ ゴシック
100
AcDbText
  0
TEXT
  5
185
330
1F
100
AcDbEntity
  8
0193_区画線（異
  6
Continuous
 62
     2
370
   211
100
AcDbText
 10
-928.0023845349787
 20
593.3195077027069
 30
0.0
 40
30.48
  1
25
 50
90.0
 41
1.0625
  7
ＭＳ ゴシック
100
AcDbText
  0
LINE
  5
186
330
1F
100
AcDbEntity
  8
0193_区画線（異
  6
Continuous
 62
     7
370
     5
100
AcDbLine
 10
-982.3623845349787
 20
578.9366339372114
 30
0.0
 11
-982.3623845349787
 21
583.9366186784223
 31
0.0
  0
LWPOLYLINE
  5
187
330
1F
100
AcDbEntity
  8
0193_区画線（異
  6
Continuous
 62
     7
370
     5
100
AcDbPolyline
 90
        4
 70
     1
 43
1.0
 10
-981.8623845349787
 20
578.9366339372114
 42
0.4142135623731
 10
-982.3623845349787
 20
579.4366339372114
 42
0.4142135623731
 10
-982.8623845349786
 20
578.9366339372114
 42
0.4142135623731
 10
-982.3623845349787
 20
578.4366339372115
 42
0.4142135623731
  0
LWPOLYLINE
  5
188
330
1F
100
AcDbEntity
  8
0193_区画線（異
  6
Continuous
 62
     7
370
     5
100
AcDbPolyline
 90
        4
 70
     1
 43
1.0
 10
-981.8623845349787
 20
583.9366186784223
 42
0.4142135623731
 10
-982.3623845349787
 20
584.4366186784223
 42
0.4142135623731
 10
-982.8623845349786
 20
583.9366186784223
 42
0.4142135623731
 10
-982.3623845349787
 20
583.4366186784223
 42
0.4142135623731
  0
LINE
  5
189
330
1F
100
AcDbEntity
  8
0193_区画線（異
  6
Continuous
 62
     7
370
     5
100
AcDbLine
 10
-982.3623845349787
 20
583.9366186784223
 30
0.0
 11
-982.3623845349787
 21
584.9363440202192
 31
0.0
  0
LWPOLYLINE
  5
18A
330
1F
100
AcDbEntity
  8
0193_区画線（異
  6
Continuous
 62
     7
370
     5
100
AcDbPolyline
 90
        4
 70
     1
 43
1.0
 10
-981.8623845349787
 20
584.9363440202192
 42
0.4142135623731
 10
-982.3623845349787
 20
585.436344020219
 42
0.4142135623731
 10
-982.8623845349786
 20
584.9363440202192
 42
0.4142135623731
 10
-982.3623845349787
 20
584.4363440202192
 42
0.4142135623731
  0
LWPOLYLINE
  5
18B
330
1F
100
AcDbEntity
  8
0193_区画線（異
  6
Continuous
 62
     7
370
     5
100
AcDbPolyline
 90
        4
 70
     1
 43
1.0
 10
-981.8623845349787
 20
934.936542384477
 42
0.4142135623731
 10
-982.3623845349787
 20
935.436542384477
 42
0.4142135623731
 10
-982.8623845349786
 20
934.936542384477
 42
0.4142135623731
 10
-982.3623845349787
 20
934.4365423844771
 42
0.4142135623731
  0
TEXT
  5
18C
330
1F
100
AcDbEntity
  8
0193_区画線（異
  6
Continuous
 62
     2
370
   211
100
AcDbText
 10
-998.0023845349787
 20
727.4364432023481
 30
0.0
 40
30.48
  1
350
 50
90.0
 41
1.083333333333333
  7
ＭＳ ゴシック
100
AcDbText
  0
LINE
  5
18D
330
1F
100
AcDbEntity
  8
0193_区画線（異
  6
Continuous
 62
     7
370
     5
100
AcDbLine
 10
-982.3623845349787
 20
934.936542384477
 30
0.0
 11
-982.3623845349787
 21
935.936542384477
 31
0.0
  0
LWPOLYLINE
  5
18E
330
1F
100
AcDbEntity
  8
0193_区画線（異
  6
Continuous
 62
     7
370
     5
100
AcDbPolyline
 90
        4
 70
     1
 43
1.0
 10
-981.8623845349787
 20
935.936542384477
 42
0.4142135623731
 10
-982.3623845349787
 20
936.436542384477
 42
0.4142135623731
 10
-982.8623845349786
 20
935.936542384477
 42
0.4142135623731
 10
-982.3623845349787
 20
935.436542384477
 42
0.4142135623731
  0
LINE
  5
18F
330
1F
100
AcDbEntity
  8
0193_区画線（異
  6
Continuous
 62
     7
370
     5
100
AcDbLine
 10
-982.3623845349787
 20
935.936542384477
 30
0.0
 11
-982.3623845349787
 21
940.936511866899
 31
0.0
  0
LWPOLYLINE
  5
190
330
1F
100
AcDbEntity
  8
0193_区画線（異
  6
Continuous
 62
     7
370
     5
100
AcDbPolyline
 90
        4
 70
     1
 43
1.0
 10
-981.8623845349787
 20
940.936511866899
 42
0.4142135623731
 10
-982.3623845349787
 20
941.436511866899
 42
0.4142135623731
 10
-982.8623845349786
 20
940.936511866899
 42
0.4142135623731
 10
-982.3623845349787
 20
940.436511866899
 42
0.4142135623731
  0
LINE
  5
191
330
1F
100
AcDbEntity
  8
0193_区画線（異
  6
Continuous
 62
     7
370
     5
100
AcDbLine
 10
-985.3623845349787
 20
578.9366339372114
 30
0.0
 11
-812.3623845349787
 21
578.9366339372114
 31
0.0
  0
LINE
  5
192
330
1F
100
AcDbEntity
  8
0193_区画線（異
  6
Continuous
 62
     7
370
     5
100
AcDbLine
 10
-985.3623845349787
 20
583.9366186784223
 30
0.0
 11
-812.3623845349787
 21
583.9366186784223
 31
0.0
  0
LINE
  5
193
330
1F
100
AcDbEntity
  8
0193_区画線（異
  6
Continuous
 62
     7
370
     5
100
AcDbLine
 10
-985.3623845349787
 20
584.9363440202192
 30
0.0
 11
-812.3623845349787
 21
584.9363440202192
 31
0.0
  0
LINE
  5
194
330
1F
100
AcDbEntity
  8
0193_区画線（異
  6
Continuous
 62
     7
370
     5
100
AcDbLine
 10
-985.3623845349787
 20
934.936542384477
 30
0.0
 11
-812.3623845349787
 21
934.936542384477
 31
0.0
  0
LINE
  5
195
330
1F
100
AcDbEntity
  8
0193_区画線（異
  6
Continuous
 62
     7
370
     5
100
AcDbLine
 10
-985.3623845349787
 20
935.936542384477
 30
0.0
 11
-812.3623845349787
 21
935.936542384477
 31
0.0
  0
LINE
  5
196
330
1F
100
AcDbEntity
  8
0193_区画線（異
  6
Continuous
 62
     7
370
     5
100
AcDbLine
 10
-985.3623845349787
 20
940.936511866899
 30
0.0
 11
-812.3623845349787
 21
940.936511866899
 31
0.0
  0
TEXT
  5
197
330
1F
100
AcDbEntity
  8
0193_区画線（異
  6
Continuous
 62
     2
370
   211
100
AcDbText
 10
-998.0023845349787
 20
948.7871947775369
 30
0.0
 40
30.48
  1
5
 50
90.0
 41
0.9999999999999998
  7
ＭＳ ゴシック
100
AcDbText
  0
TEXT
  5
198
330
1F
100
AcDbEntity
  8
0193_区画線（異
  6
Continuous
 62
     2
370
   211
100
AcDbText
 10
-998.0023845349787
 20
915.2633852537272
 30
0.0
 40
30.48
  1
1
 50
90.0
 41
0.9999999999999998
  7
ＭＳ ゴシック
100
AcDbText
  0
LINE
  5
199
330
1F
100
AcDbEntity
  8
0193_区画線（異
  6
Continuous
 62
     7
370
     5
100
AcDbLine
 10
-982.3623845349787
 20
540.7871947775367
 30
0.0
 11
-982.3623845349787
 21
970.1613444374007
 31
0.0
  0
TEXT
  5
19A
330
1F
100
AcDbEntity
  8
0193_区画線（異
  6
Continuous
 62
     2
370
   211
100
AcDbText
 10
-998.0023845349787
 20
546.9504600836592
 30
0.0
 40
30.48
  1
5
 50
90.0
 41
0.9999999999999998
  7
ＭＳ ゴシック
100
AcDbText
  0
TEXT
  5
19B
330
1F
100
AcDbEntity
  8
0193_区画線（異
  6
Continuous
 62
     2
370
   211
100
AcDbText
 10
-998.0023845349787
 20
591.2497798115503
 30
0.0
 40
30.48
  1
1
 50
90.0
 41
0.9999999999999998
  7
ＭＳ ゴシック
100
AcDbText
  0
LINE
  5
19C
330
1F
100
AcDbEntity
  8
0193_区画線（異
  6
Continuous
 62
     7
370
     5
100
AcDbLine
 10
-1052.362384534979
 20
578.9366339372114
 30
0.0
 11
-1052.362384534979
 21
940.936511866899
 31
0.0
  0
LWPOLYLINE
  5
19D
330
1F
100
AcDbEntity
  8
0193_区画線（異
  6
Continuous
 62
     7
370
     5
100
AcDbPolyline
 90
        4
 70
     1
 43
1.0
 10
-1051.862384534979
 20
578.9366339372114
 42
0.4142135623731
 10
-1052.362384534979
 20
579.4366339372114
 42
0.4142135623731
 10
-1052.862384534979
 20
578.9366339372114
 42
0.4142135623731
 10
-1052.362384534979
 20
578.4366339372115
 42
0.4142135623731
  0
LWPOLYLINE
  5
19E
330
1F
100
AcDbEntity
  8
0193_区画線（異
  6
Continuous
 62
     7
370
     5
100
AcDbPolyline
 90
        4
 70
     1
 43
1.0
 10
-1051.862384534979
 20
940.936511866899
 42
0.4142135623731
 10
-1052.362384534979
 20
941.436511866899
 42
0.4142135623731
 10
-1052.862384534979
 20
940.936511866899
 42
0.4142135623731
 10
-1052.362384534979
 20
940.436511866899
 42
0.4142135623731
  0
TEXT
  5
19F
330
1F
100
AcDbEntity
  8
0193_区画線（異
  6
Continuous
 62
     2
370
   211
100
AcDbText
 10
-1068.002384534979
 20
727.4365729020551
 30
0.0
 40
30.48
  1
362
 50
90.0
 41
1.083333333333333
  7
ＭＳ ゴシック
100
AcDbText
  0
LINE
  5
1A0
330
1F
100
AcDbEntity
  8
0193_区画線（異
  6
Continuous
 62
     7
370
     5
100
AcDbLine
 10
-1055.362384534979
 20
578.9366339372114
 30
0.0
 11
-812.3623845349787
 21
578.9366339372114
 31
0.0
  0
LINE
  5
1A1
330
1F
100
AcDbEntity
  8
0193_区画線（異
  6
Continuous
 62
     7
370
     5
100
AcDbLine
 10
-1055.362384534979
 20
940.936511866899
 30
0.0
 11
-812.3623845349787
 21
940.936511866899
 31
0.0
  0
LINE
  5
1A2
330
1F
100
AcDbEntity
  8
0193_区画線（異
  6
Continuous
 62
     7
370
     5
100
AcDbLine
 10
-786.3623845349787
 20
1060.936511866899
 30
0.0
 11
-761.3623845349787
 21
1060.936511866899
 31
0.0
  0
LWPOLYLINE
  5
1A3
330
1F
100
AcDbEntity
  8
0193_区画線（異
  6
Continuous
 62
     7
370
     5
100
AcDbPolyline
 90
        4
 70
     1
 43
1.0
 10
-785.8623845349787
 20
1060.936511866899
 42
0.4142135623731
 10
-786.3623845349787
 20
1061.436511866899
 42
0.4142135623731
 10
-786.8623845349787
 20
1060.936511866899
 42
0.4142135623731
 10
-786.3623845349787
 20
1060.436511866899
 42
0.4142135623731
  0
LWPOLYLINE
  5
1A4
330
1F
100
AcDbEntity
  8
0193_区画線（異
  6
Continuous
 62
     7
370
     5
100
AcDbPolyline
 90
        4
 70
     1
 43
1.0
 10
-760.8623845349787
 20
1060.936511866899
 42
0.4142135623731
 10
-761.3623845349787
 20
1061.436511866899
 42
0.4142135623731
 10
-761.8623845349787
 20
1060.936511866899
 42
0.4142135623731
 10
-761.3623845349787
 20
1060.436511866899
 42
0.4142135623731
  0
LINE
  5
1A5
330
1F
100
AcDbEntity
  8
0193_区画線（異
  6
Continuous
 62
     7
370
     5
100
AcDbLine
 10
-761.3623845349787
 20
1060.936511866899
 30
0.0
 11
-461.3623845349787
 21
1060.936511866899
 31
0.0
  0
LWPOLYLINE
  5
1A6
330
1F
100
AcDbEntity
  8
0193_区画線（異
  6
Continuous
 62
     7
370
     5
100
AcDbPolyline
 90
        4
 70
     1
 43
1.0
 10
-460.8623845349788
 20
1060.936511866899
 42
0.4142135623731
 10
-461.3623845349787
 20
1061.436511866899
 42
0.4142135623731
 10
-461.8623845349787
 20
1060.936511866899
 42
0.4142135623731
 10
-461.3623845349787
 20
1060.436511866899
 42
0.4142135623731
  0
TEXT
  5
1A7
330
1F
100
AcDbEntity
  8
0193_区画線（異
  6
Continuous
 62
     2
370
   211
100
AcDbText
 10
-643.8623845349787
 20
1076.576511866899
 30
0.0
 40
30.48
  1
300
 41
1.083333333333332
  7
ＭＳ ゴシック
100
AcDbText
  0
LINE
  5
1A8
330
1F
100
AcDbEntity
  8
0193_区画線（異
  6
Continuous
 62
     7
370
     5
100
AcDbLine
 10
-461.3623845349787
 20
1060.936511866899
 30
0.0
 11
-436.3623845349787
 21
1060.936511866899
 31
0.0
  0
LWPOLYLINE
  5
1A9
330
1F
100
AcDbEntity
  8
0193_区画線（異
  6
Continuous
 62
     7
370
     5
100
AcDbPolyline
 90
        4
 70
     1
 43
1.0
 10
-435.8623845349788
 20
1060.936511866899
 42
0.4142135623731
 10
-436.3623845349787
 20
1061.436511866899
 42
0.4142135623731
 10
-436.8623845349787
 20
1060.936511866899
 42
0.4142135623731
 10
-436.3623845349787
 20
1060.436511866899
 42
0.4142135623731
  0
LINE
  5
1AA
330
1F
100
AcDbEntity
  8
0193_区画線（異
  6
Continuous
 62
     7
370
     5
100
AcDbLine
 10
-786.3623845349787
 20
1063.936511866899
 30
0.0
 11
-786.3623845349787
 21
960.936511866899
 31
0.0
  0
LINE
  5
1AB
330
1F
100
AcDbEntity
  8
0193_区画線（異
  6
Continuous
 62
     7
370
     5
100
AcDbLine
 10
-761.3623845349787
 20
1063.936511866899
 30
0.0
 11
-761.3623845349787
 21
960.936511866899
 31
0.0
  0
LINE
  5
1AC
330
1F
100
AcDbEntity
  8
0193_区画線（異
  6
Continuous
 62
     7
370
     5
100
AcDbLine
 10
-461.3623845349787
 20
1063.936511866899
 30
0.0
 11
-461.3623845349787
 21
960.936511866899
 31
0.0
  0
LINE
  5
1AD
330
1F
100
AcDbEntity
  8
0193_区画線（異
  6
Continuous
 62
     7
370
     5
100
AcDbLine
 10
-436.3623845349787
 20
1063.936511866899
 30
0.0
 11
-436.3623845349787
 21
960.936511866899
 31
0.0
  0
TEXT
  5
1AE
330
1F
100
AcDbEntity
  8
0193_区画線（異
  6
Continuous
 62
     2
370
   211
100
AcDbText
 10
-486.8044509248012
 20
1076.576511866899
 30
0.0
 40
30.48
  1
25
 41
1.0625
  7
ＭＳ ゴシック
100
AcDbText
  0
TEXT
  5
1AF
330
1F
100
AcDbEntity
  8
0193_区画線（異
  6
Continuous
 62
     2
370
   211
100
AcDbText
 10
-776.5459475234409
 20
1076.576511866899
 30
0.0
 40
30.48
  1
25
 41
1.0625
  7
ＭＳ ゴシック
100
AcDbText
  0
LINE
  5
1B0
330
1F
100
AcDbEntity
  8
0193_区画線（異
  6
Continuous
 62
     7
370
     5
100
AcDbLine
 10
-792.3623845349787
 20
1130.936511866899
 30
0.0
 11
-787.3623845349787
 21
1130.936511866899
 31
0.0
  0
LWPOLYLINE
  5
1B1
330
1F
100
AcDbEntity
  8
0193_区画線（異
  6
Continuous
 62
     7
370
     5
100
AcDbPolyline
 90
        4
 70
     1
 43
1.0
 10
-791.8623845349787
 20
1130.936511866899
 42
0.4142135623731
 10
-792.3623845349787
 20
1131.436511866899
 42
0.4142135623731
 10
-792.8623845349786
 20
1130.936511866899
 42
0.4142135623731
 10
-792.3623845349787
 20
1130.436511866899
 42
0.4142135623731
  0
LWPOLYLINE
  5
1B2
330
1F
100
AcDbEntity
  8
0193_区画線（異
  6
Continuous
 62
     7
370
     5
100
AcDbPolyline
 90
        4
 70
     1
 43
1.0
 10
-786.8623845349787
 20
1130.936511866899
 42
0.4142135623731
 10
-787.3623845349787
 20
1131.436511866899
 42
0.4142135623731
 10
-787.8623845349786
 20
1130.936511866899
 42
0.4142135623731
 10
-787.3623845349787
 20
1130.436511866899
 42
0.4142135623731
  0
LINE
  5
1B3
330
1F
100
AcDbEntity
  8
0193_区画線（異
  6
Continuous
 62
     7
370
     5
100
AcDbLine
 10
-787.3623845349787
 20
1130.936511866899
 30
0.0
 11
-786.3623845349787
 21
1130.936511866899
 31
0.0
  0
LWPOLYLINE
  5
1B4
330
1F
100
AcDbEntity
  8
0193_区画線（異
  6
Continuous
 62
     7
370
     5
100
AcDbPolyline
 90
        4
 70
     1
 43
1.0
 10
-785.8623845349787
 20
1130.936511866899
 42
0.4142135623731
 10
-786.3623845349787
 20
1131.436511866899
 42
0.4142135623731
 10
-786.8623845349787
 20
1130.936511866899
 42
0.4142135623731
 10
-786.3623845349787
 20
1130.436511866899
 42
0.4142135623731
  0
LWPOLYLINE
  5
1B5
330
1F
100
AcDbEntity
  8
0193_区画線（異
  6
Continuous
 62
     7
370
     5
100
AcDbPolyline
 90
        4
 70
     1
 43
1.0
 10
-435.8623845349788
 20
1130.936511866899
 42
0.4142135623731
 10
-436.3623845349787
 20
1131.436511866899
 42
0.4142135623731
 10
-436.8623845349787
 20
1130.936511866899
 42
0.4142135623731
 10
-436.3623845349787
 20
1130.436511866899
 42
0.4142135623731
  0
TEXT
  5
1B6
330
1F
100
AcDbEntity
  8
0193_区画線（異
  6
Continuous
 62
     2
370
   211
100
AcDbText
 10
-643.8623845349787
 20
1146.576511866899
 30
0.0
 40
30.48
  1
350
 41
1.083333333333332
  7
ＭＳ ゴシック
100
AcDbText
  0
LINE
  5
1B7
330
1F
100
AcDbEntity
  8
0193_区画線（異
  6
Continuous
 62
     7
370
     5
100
AcDbLine
 10
-436.3623845349787
 20
1130.936511866899
 30
0.0
 11
-435.3623845349787
 21
1130.936511866899
 31
0.0
  0
LWPOLYLINE
  5
1B8
330
1F
100
AcDbEntity
  8
0193_区画線（異
  6
Continuous
 62
     7
370
     5
100
AcDbPolyline
 90
        4
 70
     1
 43
1.0
 10
-434.8623845349788
 20
1130.936511866899
 42
0.4142135623731
 10
-435.3623845349787
 20
1131.436511866899
 42
0.4142135623731
 10
-435.8623845349787
 20
1130.936511866899
 42
0.4142135623731
 10
-435.3623845349787
 20
1130.436511866899
 42
0.4142135623731
  0
LINE
  5
1B9
330
1F
100
AcDbEntity
  8
0193_区画線（異
  6
Continuous
 62
     7
370
     5
100
AcDbLine
 10
-435.3623845349787
 20
1130.936511866899
 30
0.0
 11
-430.3623845349787
 21
1130.936511866899
 31
0.0
  0
LWPOLYLINE
  5
1BA
330
1F
100
AcDbEntity
  8
0193_区画線（異
  6
Continuous
 62
     7
370
     5
100
AcDbPolyline
 90
        4
 70
     1
 43
1.0
 10
-429.8623845349788
 20
1130.936511866899
 42
0.4142135623731
 10
-430.3623845349787
 20
1131.436511866899
 42
0.4142135623731
 10
-430.8623845349787
 20
1130.936511866899
 42
0.4142135623731
 10
-430.3623845349787
 20
1130.436511866899
 42
0.4142135623731
  0
LINE
  5
1BB
330
1F
100
AcDbEntity
  8
0193_区画線（異
  6
Continuous
 62
     7
370
     5
100
AcDbLine
 10
-792.3623845349787
 20
1133.936511866899
 30
0.0
 11
-792.3623845349787
 21
960.936511866899
 31
0.0
  0
LINE
  5
1BC
330
1F
100
AcDbEntity
  8
0193_区画線（異
  6
Continuous
 62
     7
370
     5
100
AcDbLine
 10
-787.3623845349787
 20
1133.936511866899
 30
0.0
 11
-787.3623845349787
 21
960.936511866899
 31
0.0
  0
LINE
  5
1BD
330
1F
100
AcDbEntity
  8
0193_区画線（異
  6
Continuous
 62
     7
370
     5
100
AcDbLine
 10
-786.3623845349787
 20
1133.936511866899
 30
0.0
 11
-786.3623845349787
 21
960.936511866899
 31
0.0
  0
LINE
  5
1BE
330
1F
100
AcDbEntity
  8
0193_区画線（異
  6
Continuous
 62
     7
370
     5
100
AcDbLine
 10
-436.3623845349787
 20
1133.936511866899
 30
0.0
 11
-436.3623845349787
 21
960.936511866899
 31
0.0
  0
LINE
  5
1BF
330
1F
100
AcDbEntity
  8
0193_区画線（異
  6
Continuous
 62
     7
370
     5
100
AcDbLine
 10
-435.3623845349787
 20
1133.936511866899
 30
0.0
 11
-435.3623845349787
 21
960.936511866899
 31
0.0
  0
LINE
  5
1C0
330
1F
100
AcDbEntity
  8
0193_区画線（異
  6
Continuous
 62
     7
370
     5
100
AcDbLine
 10
-430.3623845349787
 20
1133.936511866899
 30
0.0
 11
-430.3623845349787
 21
960.936511866899
 31
0.0
  0
LINE
  5
1C1
330
1F
100
AcDbEntity
  8
0193_区画線（異
  6
Continuous
 62
     7
370
     5
100
AcDbLine
 10
-818.1530903805835
 20
1130.936511866899
 30
0.0
 11
-407.4864237139169
 21
1130.936511866899
 31
0.0
  0
TEXT
  5
1C2
330
1F
100
AcDbEntity
  8
0193_区画線（異
  6
Continuous
 62
     2
370
   211
100
AcDbText
 10
-460.5884645302434
 20
1146.576511866899
 30
0.0
 40
30.48
  1
1
 41
0.9999999999999998
  7
ＭＳ ゴシック
100
AcDbText
  0
TEXT
  5
1C3
330
1F
100
AcDbEntity
  8
0193_区画線（異
  6
Continuous
 62
     2
370
   211
100
AcDbText
 10
-424.9032008615093
 20
1146.576511866899
 30
0.0
 40
30.48
  1
5
 41
0.9999999999999998
  7
ＭＳ ゴシック
100
AcDbText
  0
TEXT
  5
1C4
330
1F
100
AcDbEntity
  8
0193_区画線（異
  6
Continuous
 62
     2
370
   211
100
AcDbText
 10
-781.9248212951718
 20
1146.576511866899
 30
0.0
 40
30.48
  1
1
 41
0.9999999999999998
  7
ＭＳ ゴシック
100
AcDbText
  0
TEXT
  5
1C5
330
1F
100
AcDbEntity
  8
0193_区画線（異
  6
Continuous
 62
     2
370
   211
100
AcDbText
 10
-816.7789407207194
 20
1146.576511866899
 30
0.0
 40
30.48
  1
5
 41
0.9999999999999998
  7
ＭＳ ゴシック
100
AcDbText
  0
LINE
  5
1C6
330
1F
100
AcDbEntity
  8
0193_区画線（異
  6
Continuous
 62
     7
370
     5
100
AcDbLine
 10
-792.3623845349787
 20
1200.936511866899
 30
0.0
 11
-430.3623845349787
 21
1200.936511866899
 31
0.0
  0
LWPOLYLINE
  5
1C7
330
1F
100
AcDbEntity
  8
0193_区画線（異
  6
Continuous
 62
     7
370
     5
100
AcDbPolyline
 90
        4
 70
     1
 43
1.0
 10
-791.8623845349787
 20
1200.936511866899
 42
0.4142135623731
 10
-792.3623845349787
 20
1201.436511866899
 42
0.4142135623731
 10
-792.8623845349786
 20
1200.936511866899
 42
0.4142135623731
 10
-792.3623845349787
 20
1200.436511866899
 42
0.4142135623731
  0
LWPOLYLINE
  5
1C8
330
1F
100
AcDbEntity
  8
0193_区画線（異
  6
Continuous
 62
     7
370
     5
100
AcDbPolyline
 90
        4
 70
     1
 43
1.0
 10
-429.8623845349788
 20
1200.936511866899
 42
0.4142135623731
 10
-430.3623845349787
 20
1201.436511866899
 42
0.4142135623731
 10
-430.8623845349787
 20
1200.936511866899
 42
0.4142135623731
 10
-430.3623845349787
 20
1200.436511866899
 42
0.4142135623731
  0
TEXT
  5
1C9
330
1F
100
AcDbEntity
  8
0193_区画線（異
  6
Continuous
 62
     2
370
   211
100
AcDbText
 10
-643.8623845349787
 20
1216.576511866899
 30
0.0
 40
30.48
  1
362
 41
1.083333333333332
  7
ＭＳ ゴシック
100
AcDbText
  0
LINE
  5
1CA
330
1F
100
AcDbEntity
  8
0193_区画線（異
  6
Continuous
 62
     7
370
     5
100
AcDbLine
 10
-792.3623845349787
 20
1203.936511866899
 30
0.0
 11
-792.3623845349787
 21
960.936511866899
 31
0.0
  0
LINE
  5
1CB
330
1F
100
AcDbEntity
  8
0193_区画線（異
  6
Continuous
 62
     7
370
     5
100
AcDbLine
 10
-430.3623845349787
 20
1203.936511866899
 30
0.0
 11
-430.3623845349787
 21
960.936511866899
 31
0.0
  0
LINE
  5
1CC
330
1F
100
AcDbEntity
  8
0239_詳細図（細
  6
Continuous
 62
     3
370
     5
100
AcDbLine
 10
-439.3623845349788
 20
934.936542384477
 30
0.0
 11
-439.3623845349788
 21
584.9363440202192
 31
0.0
  0
LINE
  5
1CD
330
1F
100
AcDbEntity
  8
0239_詳細図（細
  6
Continuous
 62
     3
370
     5
100
AcDbLine
 10
-783.3623845349789
 20
798.9365423844765
 30
0.0
 11
-439.3623845349788
 21
798.9365423844765
 31
0.0
  0
LINE
  5
1CE
330
1F
100
AcDbEntity
  8
0239_詳細図（細
  6
Continuous
 62
     3
370
     5
100
AcDbLine
 10
-783.3623845349789
 20
592.9365423844756
 30
0.0
 11
-439.3623845349788
 21
592.9365423844756
 31
0.0
  0
LINE
  5
1CF
330
1F
100
AcDbEntity
  8
0239_詳細図（細
  6
Continuous
 62
     3
370
     5
100
AcDbLine
 10
-783.3623845349789
 20
790.9365423844764
 30
0.0
 11
-439.3623845349788
 21
790.9365423844764
 31
0.0
  0
LINE
  5
1D0
330
1F
100
AcDbEntity
  8
0239_詳細図（細
  6
Continuous
 62
     3
370
     5
100
AcDbLine
 10
-783.3623845349789
 20
784.9365423844765
 30
0.0
 11
-439.3623845349788
 21
784.9365423844765
 31
0.0
  0
LINE
  5
1D1
330
1F
100
AcDbEntity
  8
0239_詳細図（細
  6
Continuous
 62
     3
370
     5
100
AcDbLine
 10
-783.3623845349789
 20
748.9365423844763
 30
0.0
 11
-439.3623845349788
 21
748.9365423844763
 31
0.0
  0
LINE
  5
1D2
330
1F
100
AcDbEntity
  8
0239_詳細図（細
  6
Continuous
 62
     3
370
     5
100
AcDbLine
 10
-783.3623845349789
 20
742.9365423844763
 30
0.0
 11
-439.3623845349788
 21
742.9365423844763
 31
0.0
  0
LINE
  5
1D3
330
1F
100
AcDbEntity
  8
0239_詳細図（細
  6
Continuous
 62
     3
370
     5
100
AcDbLine
 10
-783.3623845349789
 20
776.9365423844763
 30
0.0
 11
-439.3623845349788
 21
776.9365423844763
 31
0.0
  0
LINE
  5
1D4
330
1F
100
AcDbEntity
  8
0239_詳細図（細
  6
Continuous
 62
     3
370
     5
100
AcDbLine
 10
-783.3623845349789
 20
756.9365423844763
 30
0.0
 11
-439.3623845349788
 21
756.9365423844763
 31
0.0
  0
LINE
  5
1D5
330
1F
100
AcDbEntity
  8
0239_詳細図（細
  6
Continuous
 62
     3
370
     5
100
AcDbLine
 10
-783.3623845349789
 20
770.9365423844764
 30
0.0
 11
-439.3623845349788
 21
770.9365423844764
 31
0.0
  0
LINE
  5
1D6
330
1F
100
AcDbEntity
  8
0239_詳細図（細
  6
Continuous
 62
     3
370
     5
100
AcDbLine
 10
-783.3623845349789
 20
762.9365423844763
 30
0.0
 11
-439.3623845349788
 21
762.9365423844763
 31
0.0
  0
LINE
  5
1D7
330
1F
100
AcDbEntity
  8
0239_詳細図（細
  6
Continuous
 62
     3
370
     5
100
AcDbLine
 10
-783.3623845349789
 20
734.9365423844762
 30
0.0
 11
-439.3623845349788
 21
734.9365423844762
 31
0.0
  0
LINE
  5
1D8
330
1F
100
AcDbEntity
  8
0239_詳細図（細
  6
Continuous
 62
     3
370
     5
100
AcDbLine
 10
-783.3623845349789
 20
706.9365423844761
 30
0.0
 11
-439.3623845349788
 21
706.9365423844761
 31
0.0
  0
LINE
  5
1D9
330
1F
100
AcDbEntity
  8
0239_詳細図（細
  6
Continuous
 62
     3
370
     5
100
AcDbLine
 10
-783.3623845349789
 20
594.9365423844755
 30
0.0
 11
-439.3623845349788
 21
594.9365423844755
 31
0.0
  0
LINE
  5
1DA
330
1F
100
AcDbEntity
  8
0239_詳細図（細
  6
Continuous
 62
     3
370
     5
100
AcDbLine
 10
-783.3623845349789
 20
700.9365423844761
 30
0.0
 11
-439.3623845349788
 21
700.9365423844761
 31
0.0
  0
LINE
  5
1DB
330
1F
100
AcDbEntity
  8
0239_詳細図（細
  6
Continuous
 62
     3
370
     5
100
AcDbLine
 10
-783.3623845349789
 20
692.9365423844761
 30
0.0
 11
-439.3623845349788
 21
692.9365423844761
 31
0.0
  0
LINE
  5
1DC
330
1F
100
AcDbEntity
  8
0239_詳細図（細
  6
Continuous
 62
     3
370
     5
100
AcDbLine
 10
-783.3623845349789
 20
686.9365423844761
 30
0.0
 11
-439.3623845349788
 21
686.9365423844761
 31
0.0
  0
LINE
  5
1DD
330
1F
100
AcDbEntity
  8
0239_詳細図（細
  6
Continuous
 62
     3
370
     5
100
AcDbLine
 10
-783.3623845349789
 20
678.936542384476
 30
0.0
 11
-439.3623845349788
 21
678.936542384476
 31
0.0
  0
LINE
  5
1DE
330
1F
100
AcDbEntity
  8
0239_詳細図（細
  6
Continuous
 62
     3
370
     5
100
AcDbLine
 10
-783.3623845349789
 20
672.9365423844761
 30
0.0
 11
-439.3623845349788
 21
672.9365423844761
 31
0.0
  0
LINE
  5
1DF
330
1F
100
AcDbEntity
  8
0239_詳細図（細
  6
Continuous
 62
     3
370
     5
100
AcDbLine
 10
-783.3623845349789
 20
664.9365423844758
 30
0.0
 11
-439.3623845349788
 21
664.9365423844758
 31
0.0
  0
LINE
  5
1E0
330
1F
100
AcDbEntity
  8
0239_詳細図（細
  6
Continuous
 62
     3
370
     5
100
AcDbLine
 10
-783.3623845349789
 20
658.936542384476
 30
0.0
 11
-439.3623845349788
 21
658.936542384476
 31
0.0
  0
LINE
  5
1E1
330
1F
100
AcDbEntity
  8
0239_詳細図（細
  6
Continuous
 62
     3
370
     5
100
AcDbLine
 10
-783.3623845349789
 20
650.9365423844758
 30
0.0
 11
-439.3623845349788
 21
650.9365423844758
 31
0.0
  0
LINE
  5
1E2
330
1F
100
AcDbEntity
  8
0239_詳細図（細
  6
Continuous
 62
     3
370
     5
100
AcDbLine
 10
-783.3623845349789
 20
644.9365423844758
 30
0.0
 11
-439.3623845349788
 21
644.9365423844758
 31
0.0
  0
LINE
  5
1E3
330
1F
100
AcDbEntity
  8
0239_詳細図（細
  6
Continuous
 62
     3
370
     5
100
AcDbLine
 10
-783.3623845349789
 20
636.9365423844758
 30
0.0
 11
-439.3623845349788
 21
636.9365423844758
 31
0.0
  0
LINE
  5
1E4
330
1F
100
AcDbEntity
  8
0239_詳細図（細
  6
Continuous
 62
     3
370
     5
100
AcDbLine
 10
-783.3623845349789
 20
630.9365423844757
 30
0.0
 11
-439.3623845349788
 21
630.9365423844757
 31
0.0
  0
LINE
  5
1E5
330
1F
100
AcDbEntity
  8
0239_詳細図（細
  6
Continuous
 62
     3
370
     5
100
AcDbLine
 10
-783.3623845349789
 20
622.9365423844756
 30
0.0
 11
-439.3623845349788
 21
622.9365423844756
 31
0.0
  0
LINE
  5
1E6
330
1F
100
AcDbEntity
  8
0239_詳細図（細
  6
Continuous
 62
     3
370
     5
100
AcDbLine
 10
-783.3623845349789
 20
616.9365423844757
 30
0.0
 11
-439.3623845349788
 21
616.9365423844757
 31
0.0
  0
LINE
  5
1E7
330
1F
100
AcDbEntity
  8
0239_詳細図（細
  6
Continuous
 62
     3
370
     5
100
AcDbLine
 10
-783.3623845349789
 20
608.9365423844756
 30
0.0
 11
-439.3623845349788
 21
608.9365423844756
 31
0.0
  0
LINE
  5
1E8
330
1F
100
AcDbEntity
  8
0239_詳細図（細
  6
Continuous
 62
     3
370
     5
100
AcDbLine
 10
-783.3623845349789
 20
602.9365423844756
 30
0.0
 11
-439.3623845349788
 21
602.9365423844756
 31
0.0
  0
LINE
  5
1E9
330
1F
100
AcDbEntity
  8
0239_詳細図（細
  6
Continuous
 62
     3
370
     5
100
AcDbLine
 10
-783.3623845349789
 20
728.9365423844763
 30
0.0
 11
-439.3623845349788
 21
728.9365423844763
 31
0.0
  0
LINE
  5
1EA
330
1F
100
AcDbEntity
  8
0239_詳細図（細
  6
Continuous
 62
     3
370
     5
100
AcDbLine
 10
-783.3623845349789
 20
720.9365423844761
 30
0.0
 11
-439.3623845349788
 21
720.9365423844761
 31
0.0
  0
LINE
  5
1EB
330
1F
100
AcDbEntity
  8
0239_詳細図（細
  6
Continuous
 62
     3
370
     5
100
AcDbLine
 10
-783.3623845349789
 20
714.9365423844762
 30
0.0
 11
-439.3623845349788
 21
714.9365423844762
 31
0.0
  0
LINE
  5
1EC
330
1F
100
AcDbEntity
  8
0239_詳細図（細
  6
Continuous
 62
     3
370
     5
100
AcDbLine
 10
-496.3121320032846
 20
748.9365423844763
 30
0.0
 11
-496.3121320032846
 21
742.9365423844763
 31
0.0
  0
LINE
  5
1ED
330
1F
100
AcDbEntity
  8
0239_詳細図（細
  6
Continuous
 62
     3
370
     5
100
AcDbLine
 10
-486.4126370666735
 20
748.9365423844763
 30
0.0
 11
-486.4126370666735
 21
742.9365423844763
 31
0.0
  0
LINE
  5
1EE
330
1F
100
AcDbEntity
  8
0239_詳細図（細
  6
Continuous
 62
     3
370
     5
100
AcDbLine
 10
-491.3623845349787
 20
748.9365423844763
 30
0.0
 11
-491.3623845349787
 21
742.9365423844763
 31
0.0
  0
LINE
  5
1EF
330
1F
100
AcDbEntity
  8
0239_詳細図（細
  6
Continuous
 62
     3
370
     5
100
AcDbLine
 10
-496.3121320032846
 20
734.9365423844762
 30
0.0
 11
-496.3121320032846
 21
728.9365423844763
 31
0.0
  0
LINE
  5
1F0
330
1F
100
AcDbEntity
  8
0239_詳細図（細
  6
Continuous
 62
     3
370
     5
100
AcDbLine
 10
-486.4126370666735
 20
734.9365423844762
 30
0.0
 11
-486.4126370666735
 21
728.9365423844763
 31
0.0
  0
LINE
  5
1F1
330
1F
100
AcDbEntity
  8
0239_詳細図（細
  6
Continuous
 62
     3
370
     5
100
AcDbLine
 10
-491.3623845349787
 20
734.9365423844762
 30
0.0
 11
-491.3623845349787
 21
728.9365423844763
 31
0.0
  0
LINE
  5
1F2
330
1F
100
AcDbEntity
  8
0239_詳細図（細
  6
Continuous
 62
     3
370
     5
100
AcDbLine
 10
-496.3121320032846
 20
720.9365423844761
 30
0.0
 11
-496.3121320032846
 21
714.9365423844762
 31
0.0
  0
LINE
  5
1F3
330
1F
100
AcDbEntity
  8
0239_詳細図（細
  6
Continuous
 62
     3
370
     5
100
AcDbLine
 10
-486.4126370666735
 20
720.9365423844761
 30
0.0
 11
-486.4126370666735
 21
714.9365423844762
 31
0.0
  0
LINE
  5
1F4
330
1F
100
AcDbEntity
  8
0239_詳細図（細
  6
Continuous
 62
     3
370
     5
100
AcDbLine
 10
-491.3623845349787
 20
720.9365423844761
 30
0.0
 11
-491.3623845349787
 21
714.9365423844762
 31
0.0
  0
LINE
  5
1F5
330
1F
100
AcDbEntity
  8
0239_詳細図（細
  6
Continuous
 62
     3
370
     5
100
AcDbLine
 10
-496.3121320032846
 20
706.9365423844761
 30
0.0
 11
-496.3121320032846
 21
700.9365423844761
 31
0.0
  0
LINE
  5
1F6
330
1F
100
AcDbEntity
  8
0239_詳細図（細
  6
Continuous
 62
     3
370
     5
100
AcDbLine
 10
-486.4126370666735
 20
706.9365423844761
 30
0.0
 11
-486.4126370666735
 21
700.9365423844761
 31
0.0
  0
LINE
  5
1F7
330
1F
100
AcDbEntity
  8
0239_詳細図（細
  6
Continuous
 62
     3
370
     5
100
AcDbLine
 10
-491.3623845349787
 20
706.9365423844761
 30
0.0
 11
-491.3623845349787
 21
700.9365423844761
 31
0.0
  0
LINE
  5
1F8
330
1F
100
AcDbEntity
  8
0239_詳細図（細
  6
Continuous
 62
     3
370
     5
100
AcDbLine
 10
-496.3121320032846
 20
692.9365423844761
 30
0.0
 11
-496.3121320032846
 21
686.9365423844761
 31
0.0
  0
LINE
  5
1F9
330
1F
100
AcDbEntity
  8
0239_詳細図（細
  6
Continuous
 62
     3
370
     5
100
AcDbLine
 10
-486.4126370666735
 20
692.9365423844761
 30
0.0
 11
-486.4126370666735
 21
686.9365423844761
 31
0.0
  0
LINE
  5
1FA
330
1F
100
AcDbEntity
  8
0239_詳細図（細
  6
Continuous
 62
     3
370
     5
100
AcDbLine
 10
-491.3623845349787
 20
692.9365423844761
 30
0.0
 11
-491.3623845349787
 21
686.9365423844761
 31
0.0
  0
LINE
  5
1FB
330
1F
100
AcDbEntity
  8
0239_詳細図（細
  6
Continuous
 62
     3
370
     5
100
AcDbLine
 10
-496.3121320032846
 20
678.936542384476
 30
0.0
 11
-496.3121320032846
 21
672.9365423844761
 31
0.0
  0
LINE
  5
1FC
330
1F
100
AcDbEntity
  8
0239_詳細図（細
  6
Continuous
 62
     3
370
     5
100
AcDbLine
 10
-486.4126370666735
 20
678.936542384476
 30
0.0
 11
-486.4126370666735
 21
672.9365423844761
 31
0.0
  0
LINE
  5
1FD
330
1F
100
AcDbEntity
  8
0239_詳細図（細
  6
Continuous
 62
     3
370
     5
100
AcDbLine
 10
-491.3623845349787
 20
678.936542384476
 30
0.0
 11
-491.3623845349787
 21
672.9365423844761
 31
0.0
  0
LINE
  5
1FE
330
1F
100
AcDbEntity
  8
0239_詳細図（細
  6
Continuous
 62
     3
370
     5
100
AcDbLine
 10
-496.3121320032846
 20
664.9365423844758
 30
0.0
 11
-496.3121320032846
 21
658.936542384476
 31
0.0
  0
LINE
  5
1FF
330
1F
100
AcDbEntity
  8
0239_詳細図（細
  6
Continuous
 62
     3
370
     5
100
AcDbLine
 10
-486.4126370666735
 20
664.9365423844758
 30
0.0
 11
-486.4126370666735
 21
658.936542384476
 31
0.0
  0
LINE
  5
200
330
1F
100
AcDbEntity
  8
0239_詳細図（細
  6
Continuous
 62
     3
370
     5
100
AcDbLine
 10
-491.3623845349787
 20
664.9365423844758
 30
0.0
 11
-491.3623845349787
 21
658.936542384476
 31
0.0
  0
LINE
  5
201
330
1F
100
AcDbEntity
  8
0239_詳細図（細
  6
Continuous
 62
     3
370
     5
100
AcDbLine
 10
-496.3121320032846
 20
650.9365423844758
 30
0.0
 11
-496.3121320032846
 21
644.9365423844758
 31
0.0
  0
LINE
  5
202
330
1F
100
AcDbEntity
  8
0239_詳細図（細
  6
Continuous
 62
     3
370
     5
100
AcDbLine
 10
-486.4126370666735
 20
650.9365423844758
 30
0.0
 11
-486.4126370666735
 21
644.9365423844758
 31
0.0
  0
LINE
  5
203
330
1F
100
AcDbEntity
  8
0239_詳細図（細
  6
Continuous
 62
     3
370
     5
100
AcDbLine
 10
-491.3623845349787
 20
650.9365423844758
 30
0.0
 11
-491.3623845349787
 21
644.9365423844758
 31
0.0
  0
LINE
  5
204
330
1F
100
AcDbEntity
  8
0239_詳細図（細
  6
Continuous
 62
     3
370
     5
100
AcDbLine
 10
-496.3121320032846
 20
636.9365423844758
 30
0.0
 11
-496.3121320032846
 21
630.9365423844757
 31
0.0
  0
LINE
  5
205
330
1F
100
AcDbEntity
  8
0239_詳細図（細
  6
Continuous
 62
     3
370
     5
100
AcDbLine
 10
-486.4126370666735
 20
636.9365423844758
 30
0.0
 11
-486.4126370666735
 21
630.9365423844757
 31
0.0
  0
LINE
  5
206
330
1F
100
AcDbEntity
  8
0239_詳細図（細
  6
Continuous
 62
     3
370
     5
100
AcDbLine
 10
-491.3623845349787
 20
636.9365423844758
 30
0.0
 11
-491.3623845349787
 21
630.9365423844757
 31
0.0
  0
LINE
  5
207
330
1F
100
AcDbEntity
  8
0239_詳細図（細
  6
Continuous
 62
     3
370
     5
100
AcDbLine
 10
-496.3121320032846
 20
622.9365423844756
 30
0.0
 11
-496.3121320032846
 21
616.9365423844757
 31
0.0
  0
LINE
  5
208
330
1F
100
AcDbEntity
  8
0239_詳細図（細
  6
Continuous
 62
     3
370
     5
100
AcDbLine
 10
-486.4126370666735
 20
622.9365423844756
 30
0.0
 11
-486.4126370666735
 21
616.9365423844757
 31
0.0
  0
LINE
  5
209
330
1F
100
AcDbEntity
  8
0239_詳細図（細
  6
Continuous
 62
     3
370
     5
100
AcDbLine
 10
-491.3623845349787
 20
622.9365423844756
 30
0.0
 11
-491.3623845349787
 21
616.9365423844757
 31
0.0
  0
LINE
  5
20A
330
1F
100
AcDbEntity
  8
0239_詳細図（細
  6
Continuous
 62
     3
370
     5
100
AcDbLine
 10
-496.3121320032846
 20
608.9365423844756
 30
0.0
 11
-496.3121320032846
 21
602.9365423844756
 31
0.0
  0
LINE
  5
20B
330
1F
100
AcDbEntity
  8
0239_詳細図（細
  6
Continuous
 62
     3
370
     5
100
AcDbLine
 10
-486.4126370666735
 20
608.9365423844756
 30
0.0
 11
-486.4126370666735
 21
602.9365423844756
 31
0.0
  0
LINE
  5
20C
330
1F
100
AcDbEntity
  8
0239_詳細図（細
  6
Continuous
 62
     3
370
     5
100
AcDbLine
 10
-491.3623845349787
 20
608.9365423844756
 30
0.0
 11
-491.3623845349787
 21
602.9365423844756
 31
0.0
  0
LINE
  5
20D
330
1F
100
AcDbEntity
  8
0239_詳細図（細
  6
Continuous
 62
     3
370
     5
100
AcDbLine
 10
-496.3121320032846
 20
594.9365423844755
 30
0.0
 11
-496.3121320032846
 21
592.9365423844756
 31
0.0
  0
LINE
  5
20E
330
1F
100
AcDbEntity
  8
0239_詳細図（細
  6
Continuous
 62
     3
370
     5
100
AcDbLine
 10
-486.4126370666735
 20
594.9365423844755
 30
0.0
 11
-486.4126370666735
 21
592.9365423844756
 31
0.0
  0
LINE
  5
20F
330
1F
100
AcDbEntity
  8
0239_詳細図（細
  6
Continuous
 62
     3
370
     5
100
AcDbLine
 10
-491.3623845349787
 20
594.9365423844755
 30
0.0
 11
-491.3623845349787
 21
592.9365423844756
 31
0.0
  0
LINE
  5
210
330
1F
100
AcDbEntity
  8
0239_詳細図（細
  6
Continuous
 62
     3
370
     5
100
AcDbLine
 10
-576.3121320032847
 20
650.9365423844758
 30
0.0
 11
-576.3121320032847
 21
644.9365423844758
 31
0.0
  0
LINE
  5
211
330
1F
100
AcDbEntity
  8
0239_詳細図（細
  6
Continuous
 62
     3
370
     5
100
AcDbLine
 10
-566.4126370666735
 20
650.9365423844758
 30
0.0
 11
-566.4126370666735
 21
644.9365423844758
 31
0.0
  0
LINE
  5
212
330
1F
100
AcDbEntity
  8
0239_詳細図（細
  6
Continuous
 62
     3
370
     5
100
AcDbLine
 10
-571.3623845349788
 20
650.9365423844758
 30
0.0
 11
-571.3623845349788
 21
644.9365423844758
 31
0.0
  0
LINE
  5
213
330
1F
100
AcDbEntity
  8
0239_詳細図（細
  6
Continuous
 62
     3
370
     5
100
AcDbLine
 10
-576.3121320032847
 20
636.9365423844758
 30
0.0
 11
-576.3121320032847
 21
630.9365423844757
 31
0.0
  0
LINE
  5
214
330
1F
100
AcDbEntity
  8
0239_詳細図（細
  6
Continuous
 62
     3
370
     5
100
AcDbLine
 10
-566.4126370666735
 20
636.9365423844758
 30
0.0
 11
-566.4126370666735
 21
630.9365423844757
 31
0.0
  0
LINE
  5
215
330
1F
100
AcDbEntity
  8
0239_詳細図（細
  6
Continuous
 62
     3
370
     5
100
AcDbLine
 10
-571.3623845349788
 20
636.9365423844758
 30
0.0
 11
-571.3623845349788
 21
630.9365423844757
 31
0.0
  0
LINE
  5
216
330
1F
100
AcDbEntity
  8
0239_詳細図（細
  6
Continuous
 62
     3
370
     5
100
AcDbLine
 10
-576.3121320032847
 20
622.9365423844756
 30
0.0
 11
-576.3121320032847
 21
616.9365423844757
 31
0.0
  0
LINE
  5
217
330
1F
100
AcDbEntity
  8
0239_詳細図（細
  6
Continuous
 62
     3
370
     5
100
AcDbLine
 10
-566.4126370666735
 20
622.9365423844756
 30
0.0
 11
-566.4126370666735
 21
616.9365423844757
 31
0.0
  0
LINE
  5
218
330
1F
100
AcDbEntity
  8
0239_詳細図（細
  6
Continuous
 62
     3
370
     5
100
AcDbLine
 10
-571.3623845349788
 20
622.9365423844756
 30
0.0
 11
-571.3623845349788
 21
616.9365423844757
 31
0.0
  0
LINE
  5
219
330
1F
100
AcDbEntity
  8
0239_詳細図（細
  6
Continuous
 62
     3
370
     5
100
AcDbLine
 10
-576.3121320032847
 20
608.9365423844756
 30
0.0
 11
-576.3121320032847
 21
602.9365423844756
 31
0.0
  0
LINE
  5
21A
330
1F
100
AcDbEntity
  8
0239_詳細図（細
  6
Continuous
 62
     3
370
     5
100
AcDbLine
 10
-566.4126370666735
 20
608.9365423844756
 30
0.0
 11
-566.4126370666735
 21
602.9365423844756
 31
0.0
  0
LINE
  5
21B
330
1F
100
AcDbEntity
  8
0239_詳細図（細
  6
Continuous
 62
     3
370
     5
100
AcDbLine
 10
-571.3623845349788
 20
608.9365423844756
 30
0.0
 11
-571.3623845349788
 21
602.9365423844756
 31
0.0
  0
LINE
  5
21C
330
1F
100
AcDbEntity
  8
0239_詳細図（細
  6
Continuous
 62
     3
370
     5
100
AcDbLine
 10
-576.3121320032847
 20
594.9365423844755
 30
0.0
 11
-576.3121320032847
 21
592.9365423844756
 31
0.0
  0
LINE
  5
21D
330
1F
100
AcDbEntity
  8
0239_詳細図（細
  6
Continuous
 62
     3
370
     5
100
AcDbLine
 10
-566.4126370666735
 20
594.9365423844755
 30
0.0
 11
-566.4126370666735
 21
592.9365423844756
 31
0.0
  0
LINE
  5
21E
330
1F
100
AcDbEntity
  8
0239_詳細図（細
  6
Continuous
 62
     3
370
     5
100
AcDbLine
 10
-571.3623845349788
 20
594.9365423844755
 30
0.0
 11
-571.3623845349788
 21
592.9365423844756
 31
0.0
  0
SOLID
  5
21F
330
1F
100
AcDbEntity
  8
0255_
  6
Continuous
 62
     4
370
     5
100
AcDbTrace
 10
-609.3623845349789
 20
970.936511866899
 30
0.0
 11
-609.3623845349789
 21
1010.936511866899
 31
0.0
 12
-613.3623845349789
 22
970.936511866899
 32
0.0
 13
-613.3623845349789
 23
1010.936511866899
 33
0.0
  0
LINE
  5
220
330
1F
100
AcDbEntity
  8
0255_
  6
Continuous
 62
     4
370
     5
100
AcDbLine
 10
-601.6962947372668
 20
991.9175087403727
 30
0.0
 11
-552.4469020543252
 21
991.9175087403727
 31
0.0
  0
LINE
  5
221
330
1F
100
AcDbEntity
  8
0255_
  6
Continuous
 62
     4
370
     5
100
AcDbLine
 10
-601.6962947372668
 20
991.9175087403727
 30
0.0
 11
-576.9101732029217
 21
988.6543539348713
 31
0.0
  0
LINE
  5
222
330
1F
100
AcDbEntity
  8
0255_
  6
Continuous
 62
     4
370
     5
100
AcDbLine
 10
-601.6962947372668
 20
991.9175087403727
 30
0.0
 11
-576.9101732029217
 21
995.180663545874
 31
0.0
  0
TEXT
  5
223
330
1F
100
AcDbEntity
  8
0255_
  6
Continuous
 62
     2
370
     5
100
AcDbText
 10
-544.7361309203746
 20
979.712326720169
 30
0.0
 40
30.48
  1
A
 41
0.9999999999999998
  7
ＭＳ ゴシック
100
AcDbText
  0
LINE
  5
224
330
1F
100
AcDbEntity
  8
0255_
  6
JWW_CENTER1
 62
     4
370
     5
100
AcDbLine
 10
-611.3623845349788
 20
970.936511866899
 30
0.0
 11
-611.3623845349788
 21
788.1975909971738
 31
0.0
  0
LINE
  5
225
330
1F
100
AcDbEntity
  8
0243_
  6
Continuous
 62
     3
370
     5
100
AcDbLine
 10
456.5648107708708
 20
981.4085250936218
 30
0.0
 11
456.5648107708708
 21
1018.131302303256
 31
0.0
  0
LINE
  5
226
330
1F
100
AcDbEntity
  8
0216_
  6
Continuous
 62
     7
370
     5
100
AcDbLine
 10
1257.738604536048
 20
802.7510143375156
 30
0.0
 11
1297.737746744663
 21
802.7510143375156
 31
0.0
  0
LWPOLYLINE
  5
227
330
1F
100
AcDbEntity
  8
0216_
  6
Continuous
 62
     7
370
     5
100
AcDbPolyline
 90
        4
 70
     1
 43
1.0
 10
1258.238604536048
 20
802.7510143375156
 42
0.4142135623731
 10
1257.738604536048
 20
803.2510143375156
 42
0.4142135623731
 10
1257.238604536048
 20
802.7510143375156
 42
0.4142135623731
 10
1257.738604536048
 20
802.2510143375156
 42
0.4142135623731
  0
LWPOLYLINE
  5
228
330
1F
100
AcDbEntity
  8
0216_
  6
Continuous
 62
     7
370
     5
100
AcDbPolyline
 90
        4
 70
     1
 43
1.0
 10
1298.237746744663
 20
802.7510143375156
 42
0.4142135623731
 10
1297.737746744663
 20
803.2510143375156
 42
0.4142135623731
 10
1297.237746744663
 20
802.7510143375156
 42
0.4142135623731
 10
1297.737746744663
 20
802.2510143375156
 42
0.4142135623731
  0
LINE
  5
229
330
1F
100
AcDbEntity
  8
0216_
  6
Continuous
 62
     7
370
     5
100
AcDbLine
 10
1257.738604536048
 20
805.7510143375157
 30
0.0
 11
1257.738604536048
 21
727.7510143375156
 31
0.0
  0
LINE
  5
22A
330
1F
100
AcDbEntity
  8
0216_
  6
Continuous
 62
     7
370
     5
100
AcDbLine
 10
1297.737746744663
 20
805.7510143375157
 30
0.0
 11
1297.737746744663
 21
727.7510143375156
 31
0.0
  0
TEXT
  5
22B
330
1F
100
AcDbEntity
  8
0216_
  6
Continuous
 62
     2
370
   211
100
AcDbText
 10
1267.738175640356
 20
818.3910143375156
 30
0.0
 40
30.48
  1
8
 41
0.9999999999999998
  7
ＭＳ ゴシック
100
AcDbText
  0
LINE
  5
22C
330
1F
100
AcDbEntity
  8
0216_
  6
Continuous
 62
     7
370
     5
100
AcDbLine
 10
1297.737746744663
 20
802.7510143375156
 30
0.0
 11
1327.738959199794
 21
802.7510143375156
 31
0.0
  0
LWPOLYLINE
  5
22D
330
1F
100
AcDbEntity
  8
0216_
  6
Continuous
 62
     7
370
     5
100
AcDbPolyline
 90
        4
 70
     1
 43
1.0
 10
1328.238959199794
 20
802.7510143375156
 42
0.4142135623731
 10
1327.738959199794
 20
803.2510143375156
 42
0.4142135623731
 10
1327.238959199794
 20
802.7510143375156
 42
0.4142135623731
 10
1327.738959199794
 20
802.2510143375156
 42
0.4142135623731
  0
LINE
  5
22E
330
1F
100
AcDbEntity
  8
0216_
  6
Continuous
 62
     7
370
     5
100
AcDbLine
 10
1327.738959199794
 20
805.7510143375157
 30
0.0
 11
1327.738959199794
 21
727.7510143375156
 31
0.0
  0
TEXT
  5
22F
330
1F
100
AcDbEntity
  8
0216_
  6
Continuous
 62
     2
370
   211
100
AcDbText
 10
1302.738352972229
 20
818.3910143375156
 30
0.0
 40
30.48
  1
6
 41
0.9999999999999998
  7
ＭＳ ゴシック
100
AcDbText
  0
LINE
  5
230
330
1F
100
AcDbEntity
  8
0216_
  6
Continuous
 62
     7
370
     5
100
AcDbLine
 10
1327.738959199794
 20
802.7510143375156
 30
0.0
 11
1367.738101408409
 21
802.7510143375156
 31
0.0
  0
LWPOLYLINE
  5
231
330
1F
100
AcDbEntity
  8
0216_
  6
Continuous
 62
     7
370
     5
100
AcDbPolyline
 90
        4
 70
     1
 43
1.0
 10
1368.238101408409
 20
802.7510143375156
 42
0.4142135623731
 10
1367.738101408409
 20
803.2510143375156
 42
0.4142135623731
 10
1367.238101408409
 20
802.7510143375156
 42
0.4142135623731
 10
1367.738101408409
 20
802.2510143375156
 42
0.4142135623731
  0
LINE
  5
232
330
1F
100
AcDbEntity
  8
0216_
  6
Continuous
 62
     7
370
     5
100
AcDbLine
 10
1367.738101408409
 20
805.7510143375157
 30
0.0
 11
1367.738101408409
 21
727.7510143375156
 31
0.0
  0
TEXT
  5
233
330
1F
100
AcDbEntity
  8
0216_
  6
Continuous
 62
     2
370
   211
100
AcDbText
 10
1337.738530304101
 20
818.3910143375156
 30
0.0
 40
30.48
  1
8
 41
0.9999999999999998
  7
ＭＳ ゴシック
100
AcDbText
  0
LINE
  5
234
330
1F
100
AcDbEntity
  8
0216_
  6
Continuous
 62
     7
370
     5
100
AcDbLine
 10
1367.738101408409
 20
802.7510143375156
 30
0.0
 11
1397.73931386354
 21
802.7510143375156
 31
0.0
  0
LWPOLYLINE
  5
235
330
1F
100
AcDbEntity
  8
0216_
  6
Continuous
 62
     7
370
     5
100
AcDbPolyline
 90
        4
 70
     1
 43
1.0
 10
1398.23931386354
 20
802.7510143375156
 42
0.4142135623731
 10
1397.73931386354
 20
803.2510143375156
 42
0.4142135623731
 10
1397.23931386354
 20
802.7510143375156
 42
0.4142135623731
 10
1397.73931386354
 20
802.2510143375156
 42
0.4142135623731
  0
LINE
  5
236
330
1F
100
AcDbEntity
  8
0216_
  6
Continuous
 62
     7
370
     5
100
AcDbLine
 10
1397.73931386354
 20
805.7510143375157
 30
0.0
 11
1397.73931386354
 21
727.7510143375156
 31
0.0
  0
TEXT
  5
237
330
1F
100
AcDbEntity
  8
0216_
  6
Continuous
 62
     2
370
   211
100
AcDbText
 10
1372.738707635974
 20
818.3910143375156
 30
0.0
 40
30.48
  1
6
 41
0.9999999999999998
  7
ＭＳ ゴシック
100
AcDbText
  0
LINE
  5
238
330
1F
100
AcDbEntity
  8
0216_
  6
Continuous
 62
     7
370
     5
100
AcDbLine
 10
1397.73931386354
 20
802.7510143375156
 30
0.0
 11
1437.738456072155
 21
802.7510143375156
 31
0.0
  0
LWPOLYLINE
  5
239
330
1F
100
AcDbEntity
  8
0216_
  6
Continuous
 62
     7
370
     5
100
AcDbPolyline
 90
        4
 70
     1
 43
1.0
 10
1438.238456072155
 20
802.7510143375156
 42
0.4142135623731
 10
1437.738456072155
 20
803.2510143375156
 42
0.4142135623731
 10
1437.238456072155
 20
802.7510143375156
 42
0.4142135623731
 10
1437.738456072155
 20
802.2510143375156
 42
0.4142135623731
  0
LINE
  5
23A
330
1F
100
AcDbEntity
  8
0216_
  6
Continuous
 62
     7
370
     5
100
AcDbLine
 10
1437.738456072155
 20
805.7510143375157
 30
0.0
 11
1437.738456072155
 21
727.7510143375156
 31
0.0
  0
TEXT
  5
23B
330
1F
100
AcDbEntity
  8
0216_
  6
Continuous
 62
     2
370
   211
100
AcDbText
 10
1407.738884967847
 20
818.3910143375156
 30
0.0
 40
30.48
  1
8
 41
0.9999999999999998
  7
ＭＳ ゴシック
100
AcDbText
  0
TEXT
  5
23C
330
1F
100
AcDbEntity
  8
0242_
  6
Continuous
 62
     7
370
     5
100
AcDbText
 10
942.3525157131664
 20
772.1532368302526
 30
0.0
 40
22.86
  1
メインバー
 41
1.133333333333333
  7
ＭＳ ゴシック
100
AcDbText
  0
TEXT
  5
23D
330
1F
100
AcDbEntity
  8
0242_
  6
Continuous
 62
     7
370
     5
100
AcDbText
 10
-59.06952124524167
 20
610.5628937071475
 30
0.0
 40
22.86
  1
サイドバー
 41
1.133333333333333
  7
ＭＳ ゴシック
100
AcDbText
  0
LINE
  5
23E
330
1F
100
AcDbEntity
  8
0216_
  6
Continuous
 62
     7
370
     5
100
AcDbLine
 10
1619.801831689944
 20
707.7510143375156
 30
0.0
 11
1619.801831689944
 21
607.7511380574265
 31
0.0
  0
LWPOLYLINE
  5
23F
330
1F
100
AcDbEntity
  8
0216_
  6
Continuous
 62
     7
370
     5
100
AcDbPolyline
 90
        4
 70
     1
 43
1.0
 10
1620.301831689944
 20
707.7510143375156
 42
0.4142135623731
 10
1619.801831689944
 20
708.2510143375156
 42
0.4142135623731
 10
1619.301831689944
 20
707.7510143375156
 42
0.4142135623731
 10
1619.801831689944
 20
707.2510143375156
 42
0.4142135623731
  0
LWPOLYLINE
  5
240
330
1F
100
AcDbEntity
  8
0216_
  6
Continuous
 62
     7
370
     5
100
AcDbPolyline
 90
        4
 70
     1
 43
1.0
 10
1620.301831689944
 20
607.7511380574265
 42
0.4142135623731
 10
1619.801831689944
 20
608.2511380574265
 42
0.4142135623731
 10
1619.301831689944
 20
607.7511380574265
 42
0.4142135623731
 10
1619.801831689944
 20
607.2511380574265
 42
0.4142135623731
  0
LINE
  5
241
330
1F
100
AcDbEntity
  8
0216_
  6
Continuous
 62
     7
370
     5
100
AcDbLine
 10
1622.801831689944
 20
707.7510143375156
 30
0.0
 11
1494.937945356361
 21
707.7510143375156
 31
0.0
  0
LINE
  5
242
330
1F
100
AcDbEntity
  8
0216_
  6
Continuous
 62
     7
370
     5
100
AcDbLine
 10
1622.801831689944
 20
607.7511380574265
 30
0.0
 11
1494.937945356361
 21
607.7511380574265
 31
0.0
  0
TEXT
  5
243
330
1F
100
AcDbEntity
  8
0216_
  6
Continuous
 62
     2
370
   211
100
AcDbText
 10
1604.161831689944
 20
636.5010761974711
 30
0.0
 40
30.48
  1
20
 50
90.0
 41
1.0625
  7
ＭＳ ゴシック
100
AcDbText
  0
LINE
  5
244
330
1F
100
AcDbEntity
  8
0242_
  6
Continuous
 62
     7
370
     5
100
AcDbLine
 10
1249.528055397634
 20
411.9366034196332
 30
0.0
 11
1446.448177111963
 21
411.9366034196332
 31
0.0
  0
TEXT
  5
245
330
1F
100
AcDbEntity
  8
0242_
  6
Continuous
 62
     2
370
     5
100
AcDbText
 10
1251.765169830525
 20
432.5766034196332
 30
0.0
 40
30.48
  1
C-C断面図
 41
1.097222222222222
  7
ＭＳ ゴシック
100
AcDbText
  0
LINE
  5
246
330
1F
100
AcDbEntity
  8
0242_
  6
Continuous
 62
     7
370
     5
100
AcDbLine
 10
887.1802932204284
 20
707.7510143375151
 30
0.0
 11
942.3525157131664
 21
762.9232368302526
 31
0.0
  0
LINE
  5
247
330
1F
100
AcDbEntity
  8
0242_
  6
Continuous
 62
     7
370
     5
100
AcDbLine
 10
942.3525157131664
 20
762.9232368302526
 30
0.0
 11
1111.650184475076
 21
762.9232368302526
 31
0.0
  0
LINE
  5
248
330
1F
100
AcDbEntity
  8
0242_
  6
Continuous
 62
     7
370
     5
100
AcDbLine
 10
887.1802932204284
 20
707.7510143375151
 30
0.0
 11
902.3993289456471
 21
727.584847844796
 31
0.0
  0
LINE
  5
249
330
1F
100
AcDbEntity
  8
0242_
  6
Continuous
 62
     7
370
     5
100
AcDbLine
 10
887.1802932204284
 20
707.7510143375151
 30
0.0
 11
907.0141267277095
 21
722.9700500627332
 31
0.0
  0
LINE
  5
24A
330
1F
100
AcDbEntity
  8
0242_
  6
Continuous
 62
     7
370
     5
100
AcDbLine
 10
-59.06952124524167
 20
601.3328937071475
 30
0.0
 11
112.6466282805475
 21
601.3328937071475
 31
0.0
  0
LINE
  5
24B
330
1F
100
AcDbEntity
  8
0242_
  6
Continuous
 62
     7
370
     5
100
AcDbLine
 10
112.6466282805475
 20
601.3328937071475
 30
0.0
 11
181.5648107708708
 21
670.2510761974709
 31
0.0
  0
LINE
  5
24C
330
1F
100
AcDbEntity
  8
0242_
  6
Continuous
 62
     7
370
     5
100
AcDbLine
 10
181.5648107708708
 20
670.2510761974709
 30
0.0
 11
161.73097726359
 21
655.0320404722528
 31
0.0
  0
LINE
  5
24D
330
1F
100
AcDbEntity
  8
0242_
  6
Continuous
 62
     7
370
     5
100
AcDbLine
 10
181.5648107708708
 20
670.2510761974709
 30
0.0
 11
166.345775045653
 21
650.41724269019
 31
0.0
  0
LINE
  5
24E
330
1F
100
AcDbEntity
  8
0226_下階梁情報
  6
Continuous
 62
     3
370
     5
100
AcDbLine
 10
196.5648602588354
 20
707.7510143375151
 30
0.0
 11
181.5648107708708
 21
707.7510143375151
 31
0.0
  0
LINE
  5
24F
330
1F
100
AcDbEntity
  8
0226_下階梁情報
  6
Continuous
 62
     3
370
     5
100
AcDbLine
 10
196.5648602588354
 20
607.7511380574265
 30
0.0
 11
181.5648107708708
 21
607.7511380574265
 31
0.0
  0
LINE
  5
250
330
1F
100
AcDbEntity
  8
0226_下階梁情報
  6
Continuous
 62
     3
370
     5
100
AcDbLine
 10
181.5648107708708
 20
707.7510143375151
 30
0.0
 11
181.5648107708708
 21
607.7511380574265
 31
0.0
  0
LINE
  5
251
330
1F
100
AcDbEntity
  8
0226_下階梁情報
  6
Continuous
 62
     3
370
     5
100
AcDbLine
 10
196.5648602588354
 20
707.7510143375151
 30
0.0
 11
196.5648602588354
 21
607.7511380574265
 31
0.0
  0
LINE
  5
252
330
1F
100
AcDbEntity
  8
0226_下階梁情報
  6
Continuous
 62
     3
370
     5
100
AcDbLine
 10
1029.064659667619
 20
607.7511380574265
 30
0.0
 11
196.5648602588354
 21
607.7511380574265
 31
0.0
  0
LINE
  5
253
330
1F
100
AcDbEntity
  8
0226_下階梁情報
  6
Continuous
 62
     3
370
     5
100
AcDbLine
 10
1029.064659667619
 20
707.7510143375151
 30
0.0
 11
196.5648602588354
 21
707.7510143375151
 31
0.0
  0
LINE
  5
254
330
1F
100
AcDbEntity
  8
0226_下階梁情報
  6
Continuous
 62
     3
370
     5
100
AcDbLine
 10
1029.064659667619
 20
700.7509417551676
 30
0.0
 11
196.5648602588354
 21
700.7509417551676
 31
0.0
  0
LINE
  5
255
330
1F
100
AcDbEntity
  8
0226_下階梁情報
  6
Continuous
 62
     3
370
     5
100
AcDbLine
 10
1044.065514159807
 20
667.7516178844826
 30
0.0
 11
1029.064659667619
 21
667.7516178844826
 31
0.0
  0
LINE
  5
256
330
1F
100
AcDbEntity
  8
0226_下階梁情報
  6
Continuous
 62
     3
370
     5
100
AcDbLine
 10
1044.065514159807
 20
667.7516178844826
 30
0.0
 11
1014.064537597306
 21
647.7505345104589
 31
0.0
  0
LINE
  5
257
330
1F
100
AcDbEntity
  8
0226_下階梁情報
  6
Continuous
 62
     3
370
     5
100
AcDbLine
 10
1029.064659667619
 20
647.7505345104589
 30
0.0
 11
1014.064537597306
 21
647.7505345104589
 31
0.0
  0
LINE
  5
258
330
1F
100
AcDbEntity
  8
0226_下階梁情報
  6
Continuous
 62
     3
370
     5
100
AcDbLine
 10
1029.064659667619
 20
667.7516178844826
 30
0.0
 11
1029.064659667619
 21
726.7641331688469
 31
0.0
  0
LINE
  5
259
330
1F
100
AcDbEntity
  8
0226_下階梁情報
  6
Continuous
 62
     3
370
     5
100
AcDbLine
 10
1029.064659667619
 20
587.5804596994591
 30
0.0
 11
1029.064659667619
 21
647.7505345104589
 31
0.0
  0
LINE
  5
25A
330
1F
100
AcDbEntity
  8
0218_
  6
Continuous
 62
     3
370
     5
100
AcDbLine
 10
1400.240188150913
 20
707.7510143375156
 30
0.0
 11
1365.240196398907
 21
707.7510143375156
 31
0.0
  0
LINE
  5
25B
330
1F
100
AcDbEntity
  8
0218_
  6
Continuous
 62
     3
370
     5
100
AcDbLine
 10
1330.239833487167
 20
707.7510143375156
 30
0.0
 11
1295.239841735162
 21
707.7510143375156
 31
0.0
  0
LINE
  5
25C
330
1F
100
AcDbEntity
  8
0218_
  6
Continuous
 62
     3
370
     5
100
AcDbLine
 10
1437.738456072155
 20
707.7510143375156
 30
0.0
 11
1437.738456072155
 21
700.7509417551671
 31
0.0
  0
LINE
  5
25D
330
1F
100
AcDbEntity
  8
0218_
  6
Continuous
 62
     3
370
     5
100
AcDbLine
 10
1437.738456072155
 20
707.7510143375156
 30
0.0
 11
1397.73931386354
 21
707.7510143375156
 31
0.0
  0
LINE
  5
25E
330
1F
100
AcDbEntity
  8
0218_
  6
Continuous
 62
     3
370
     5
100
AcDbLine
 10
1397.73931386354
 20
707.7510143375156
 30
0.0
 11
1397.73931386354
 21
700.7509417551671
 31
0.0
  0
LINE
  5
25F
330
1F
100
AcDbEntity
  8
0218_
  6
Continuous
 62
     3
370
     5
100
AcDbLine
 10
1437.738456072155
 20
700.7509417551671
 30
0.0
 11
1397.73931386354
 21
700.7509417551671
 31
0.0
  0
LINE
  5
260
330
1F
100
AcDbEntity
  8
0218_
  6
Continuous
 62
     3
370
     5
100
AcDbLine
 10
1367.738101408409
 20
707.7510143375156
 30
0.0
 11
1367.738101408409
 21
700.7509417551671
 31
0.0
  0
LINE
  5
261
330
1F
100
AcDbEntity
  8
0218_
  6
Continuous
 62
     3
370
     5
100
AcDbLine
 10
1367.738101408409
 20
707.7510143375156
 30
0.0
 11
1327.738959199794
 21
707.7510143375156
 31
0.0
  0
LINE
  5
262
330
1F
100
AcDbEntity
  8
0218_
  6
Continuous
 62
     3
370
     5
100
AcDbLine
 10
1327.738959199794
 20
707.7510143375156
 30
0.0
 11
1327.738959199794
 21
700.7509417551671
 31
0.0
  0
LINE
  5
263
330
1F
100
AcDbEntity
  8
0218_
  6
Continuous
 62
     3
370
     5
100
AcDbLine
 10
1367.738101408409
 20
700.7509417551671
 30
0.0
 11
1327.738959199794
 21
700.7509417551671
 31
0.0
  0
LINE
  5
264
330
1F
100
AcDbEntity
  8
0218_
  6
Continuous
 62
     3
370
     5
100
AcDbLine
 10
1297.737746744663
 20
707.7510143375156
 30
0.0
 11
1297.737746744663
 21
700.7509417551671
 31
0.0
  0
LINE
  5
265
330
1F
100
AcDbEntity
  8
0218_
  6
Continuous
 62
     3
370
     5
100
AcDbLine
 10
1297.737746744663
 20
707.7510143375156
 30
0.0
 11
1257.738604536048
 21
707.7510143375156
 31
0.0
  0
LINE
  5
266
330
1F
100
AcDbEntity
  8
0218_
  6
Continuous
 62
     3
370
     5
100
AcDbLine
 10
1257.738604536048
 20
707.7510143375156
 30
0.0
 11
1257.738604536048
 21
700.7509417551671
 31
0.0
  0
LINE
  5
267
330
1F
100
AcDbEntity
  8
0218_
  6
Continuous
 62
     3
370
     5
100
AcDbLine
 10
1297.737746744663
 20
700.7509417551671
 30
0.0
 11
1257.738604536048
 21
700.7509417551671
 31
0.0
  0
ARC
  5
268
330
1F
100
AcDbEntity
  8
0218_
  6
Continuous
 62
     3
370
     5
100
AcDbCircle
 10
1426.238814035098
 20
695.7510489790906
 30
0.0
 40
5.000000064437454
100
AcDbArc
 50
90.0
 51
180.0
  0
ARC
  5
269
330
1F
100
AcDbEntity
  8
0218_
  6
Continuous
 62
     3
370
     5
100
AcDbCircle
 10
1356.238459371353
 20
695.7510489790906
 30
0.0
 40
5.000000064437454
100
AcDbArc
 50
90.0
 51
180.0
  0
ARC
  5
26A
330
1F
100
AcDbEntity
  8
0218_
  6
Continuous
 62
     3
370
     5
100
AcDbCircle
 10
1286.238104707606
 20
695.7510489790906
 30
0.0
 40
5.000000064437454
100
AcDbArc
 50
90.0
 51
180.0
  0
LINE
  5
26B
330
1F
100
AcDbEntity
  8
0218_
  6
Continuous
 62
     3
370
     5
100
AcDbLine
 10
1421.238921259021
 20
607.7511380574265
 30
0.0
 11
1414.238848676673
 21
607.7511380574265
 31
0.0
  0
LINE
  5
26C
330
1F
100
AcDbEntity
  8
0218_
  6
Continuous
 62
     3
370
     5
100
AcDbLine
 10
1351.238566595276
 20
607.7511380574265
 30
0.0
 11
1344.238494012928
 21
607.7511380574265
 31
0.0
  0
LINE
  5
26D
330
1F
100
AcDbEntity
  8
0218_
  6
Continuous
 62
     3
370
     5
100
AcDbLine
 10
1281.23821193153
 20
607.7511380574265
 30
0.0
 11
1274.238139349182
 21
607.7511380574265
 31
0.0
  0
LINE
  5
26E
330
1F
100
AcDbEntity
  8
0218_
  6
Continuous
 62
     3
370
     5
100
AcDbLine
 10
1421.238921259021
 20
695.7510489790906
 30
0.0
 11
1421.238921259021
 21
607.7511380574265
 31
0.0
  0
LINE
  5
26F
330
1F
100
AcDbEntity
  8
0218_
  6
Continuous
 62
     3
370
     5
100
AcDbLine
 10
1351.238566595276
 20
695.7510489790906
 30
0.0
 11
1351.238566595276
 21
607.7511380574265
 31
0.0
  0
LINE
  5
270
330
1F
100
AcDbEntity
  8
0218_
  6
Continuous
 62
     3
370
     5
100
AcDbLine
 10
1281.23821193153
 20
695.7510489790906
 30
0.0
 11
1281.23821193153
 21
607.7511380574265
 31
0.0
  0
LINE
  5
271
330
1F
100
AcDbEntity
  8
0218_
  6
Continuous
 62
     3
370
     5
100
AcDbLine
 10
1260.239478823421
 20
707.7510143375156
 30
0.0
 11
1221.038287153236
 21
707.7510143375156
 31
0.0
  0
LINE
  5
272
330
1F
100
AcDbEntity
  8
0218_
  6
Continuous
 62
     3
370
     5
100
AcDbLine
 10
1474.937945356361
 20
707.7510143375156
 30
0.0
 11
1435.240551062653
 21
707.7510143375156
 31
0.0
  0
LINE
  5
273
330
1F
100
AcDbEntity
  8
0218_
  6
Continuous
 62
     3
370
     5
100
AcDbLine
 10
1474.937945356361
 20
607.7511380574265
 30
0.0
 11
1221.038287153236
 21
607.7511380574265
 31
0.0
  0
LWPOLYLINE
  5
274
330
1F
100
AcDbEntity
  8
0216_
  6
Continuous
 62
     7
370
     5
100
AcDbPolyline
 90
        4
 70
     1
 43
1.0
 10
65.57840423103303
 20
1178.130947501328
 42
0.4142135623731
 10
65.07840423103303
 20
1178.630947501328
 42
0.4142135623731
 10
64.57840423103303
 20
1178.130947501328
 42
0.4142135623731
 10
65.07840423103303
 20
1177.630947501328
 42
0.4142135623731
  0
LWPOLYLINE
  5
275
330
1F
100
AcDbEntity
  8
0216_
  6
Continuous
 62
     7
370
     5
100
AcDbPolyline
 90
        4
 70
     1
 43
1.0
 10
65.57840423103303
 20
1108.131210750522
 42
0.4142135623731
 10
65.07840423103303
 20
1108.631210750522
 42
0.4142135623731
 10
64.57840423103303
 20
1108.131210750522
 42
0.4142135623731
 10
65.07840423103303
 20
1107.631210750522
 42
0.4142135623731
  0
LWPOLYLINE
  5
276
330
1F
100
AcDbEntity
  8
0216_
  6
Continuous
 62
     7
370
     5
100
AcDbPolyline
 90
        4
 70
     1
 43
1.0
 10
65.57840423103303
 20
1038.131271785678
 42
0.4142135623731
 10
65.07840423103303
 20
1038.631271785678
 42
0.4142135623731
 10
64.57840423103303
 20
1038.131271785678
 42
0.4142135623731
 10
65.07840423103303
 20
1037.631271785678
 42
0.4142135623731
  0
LINE
  5
277
330
1F
100
AcDbEntity
  8
0216_
  6
Continuous
 62
     7
370
     5
100
AcDbLine
 10
65.07840423103303
 20
1108.131210750522
 30
0.0
 11
65.07840423103303
 21
1178.130947501328
 31
0.0
  0
TEXT
  5
278
330
1F
100
AcDbEntity
  8
0216_
  6
Continuous
 62
     2
370
   211
100
AcDbText
 10
49.43840423103303
 20
1121.881079125925
 30
0.0
 40
30.48
  1
14
 50
90.0
 41
1.0625
  7
ＭＳ ゴシック
100
AcDbText
  0
LINE
  5
279
330
1F
100
AcDbEntity
  8
0216_
  6
Continuous
 62
     7
370
     5
100
AcDbLine
 10
65.07840423103303
 20
1038.131271785678
 30
0.0
 11
65.07840423103303
 21
1108.131210750522
 31
0.0
  0
TEXT
  5
27A
330
1F
100
AcDbEntity
  8
0216_
  6
Continuous
 62
     2
370
   211
100
AcDbText
 10
49.43840423103303
 20
1051.8812412681
 30
0.0
 40
30.48
  1
14
 50
90.0
 41
1.0625
  7
ＭＳ ゴシック
100
AcDbText
  0
LINE
  5
27B
330
1F
100
AcDbEntity
  8
0216_
  6
Continuous
 62
     7
370
     5
100
AcDbLine
 10
62.07840423103303
 20
1178.130947501328
 30
0.0
 11
166.5648107708709
 21
1178.130947501328
 31
0.0
  0
LINE
  5
27C
330
1F
100
AcDbEntity
  8
0216_
  6
Continuous
 62
     7
370
     5
100
AcDbLine
 10
62.07840423103303
 20
1108.131210750522
 30
0.0
 11
166.5648107708709
 21
1108.131210750522
 31
0.0
  0
SOLID
  5
27D
330
1F
100
AcDbEntity
  8
0242_
  6
Continuous
 62
     4
370
     5
100
AcDbTrace
 10
627.8264165632078
 20
1263.13091698375
 30
0.0
 11
627.8264165632078
 21
1303.13091698375
 31
0.0
 12
623.826416563208
 22
1263.13091698375
 32
0.0
 13
623.826416563208
 23
1303.13091698375
 33
0.0
  0
LINE
  5
27E
330
1F
100
AcDbEntity
  8
0242_
  6
Continuous
 62
     4
370
     5
100
AcDbLine
 10
635.4925063609198
 20
1284.111913857223
 30
0.0
 11
684.7418990438616
 21
1284.111913857223
 31
0.0
  0
LINE
  5
27F
330
1F
100
AcDbEntity
  8
0242_
  6
Continuous
 62
     4
370
     5
100
AcDbLine
 10
635.4925063609198
 20
1284.111913857223
 30
0.0
 11
660.2786278952651
 21
1280.848759051722
 31
0.0
  0
LINE
  5
280
330
1F
100
AcDbEntity
  8
0242_
  6
Continuous
 62
     4
370
     5
100
AcDbLine
 10
635.4925063609198
 20
1284.111913857223
 30
0.0
 11
660.2786278952651
 21
1287.375068662725
 31
0.0
  0
LINE
  5
281
330
1F
100
AcDbEntity
  8
0242_
  6
JWW_CENTER1
 62
     4
370
     5
100
AcDbLine
 10
625.8264165632079
 20
1263.13091698375
 30
0.0
 11
625.8264165632079
 21
1213.13091698375
 31
0.0
  0
TEXT
  5
282
330
1F
100
AcDbEntity
  8
0242_
  6
Continuous
 62
     2
370
     5
100
AcDbText
 10
692.4526701778118
 20
1271.90673183702
 30
0.0
 40
30.48
  1
C
 41
0.9999999999999998
  7
ＭＳ ゴシック
100
AcDbText
  0
SOLID
  5
283
330
1F
100
AcDbEntity
  8
0242_
  6
Continuous
 62
     4
370
     5
100
AcDbTrace
 10
627.8264165632078
 20
953.1313023032558
 30
0.0
 11
627.8264165632078
 21
913.1313023032558
 31
0.0
 12
623.826416563208
 22
953.1313023032558
 32
0.0
 13
623.826416563208
 23
913.1313023032558
 33
0.0
  0
LINE
  5
284
330
1F
100
AcDbEntity
  8
0242_
  6
Continuous
 62
     4
370
     5
100
AcDbLine
 10
635.4925063609198
 20
932.1503054297821
 30
0.0
 11
684.7418990438616
 21
932.1503054297821
 31
0.0
  0
LINE
  5
285
330
1F
100
AcDbEntity
  8
0242_
  6
Continuous
 62
     4
370
     5
100
AcDbLine
 10
635.4925063609198
 20
932.1503054297821
 30
0.0
 11
660.2786278952651
 21
935.4134602352835
 31
0.0
  0
LINE
  5
286
330
1F
100
AcDbEntity
  8
0242_
  6
Continuous
 62
     4
370
     5
100
AcDbLine
 10
635.4925063609198
 20
932.1503054297821
 30
0.0
 11
660.2786278952651
 21
928.8871506242808
 31
0.0
  0
LINE
  5
287
330
1F
100
AcDbEntity
  8
0242_
  6
JWW_CENTER1
 62
     4
370
     5
100
AcDbLine
 10
625.8264165632079
 20
953.1313023032558
 30
0.0
 11
625.8264165632079
 21
1003.131302303256
 31
0.0
  0
TEXT
  5
288
330
1F
100
AcDbEntity
  8
0242_
  6
Continuous
 62
     2
370
     5
100
AcDbText
 10
692.4526701778118
 20
919.9451234095785
 30
0.0
 40
30.48
  1
C
 41
0.9999999999999998
  7
ＭＳ ゴシック
100
AcDbText
  0
SOLID
  5
289
330
1F
100
AcDbEntity
  8
0242_
  6
Continuous
 62
     4
370
     5
100
AcDbTrace
 10
1056.181363169001
 20
1075.1312412681
 30
0.0
 11
1096.181363169001
 21
1075.1312412681
 31
0.0
 12
1056.181363169001
 22
1071.1312412681
 32
0.0
 13
1096.181363169001
 23
1071.1312412681
 33
0.0
  0
LINE
  5
28A
330
1F
100
AcDbEntity
  8
0242_
  6
Continuous
 62
     4
370
     5
100
AcDbLine
 10
1074.22550899222
 20
1066.473923428989
 30
0.0
 11
1074.22550899222
 21
1017.224530746047
 31
0.0
  0
LINE
  5
28B
330
1F
100
AcDbEntity
  8
0242_
  6
Continuous
 62
     4
370
     5
100
AcDbLine
 10
1074.22550899222
 20
1066.473923428989
 30
0.0
 11
1077.488663797721
 21
1041.687801894644
 31
0.0
  0
LINE
  5
28C
330
1F
100
AcDbEntity
  8
0242_
  6
Continuous
 62
     4
370
     5
100
AcDbLine
 10
1074.22550899222
 20
1066.473923428989
 30
0.0
 11
1070.962354186719
 21
1041.687801894644
 31
0.0
  0
TEXT
  5
28D
330
1F
100
AcDbEntity
  8
0242_
  6
Continuous
 62
     2
370
     5
100
AcDbText
 10
1064.22550899222
 20
976.1792236947466
 30
0.0
 40
30.48
  1
B
 41
0.9999999999999998
  7
ＭＳ ゴシック
100
AcDbText
  0
LINE
  5
28E
330
1F
100
AcDbEntity
  8
0242_
  6
JWW_CENTER1
 62
     4
370
     5
100
AcDbLine
 10
1056.181363169001
 20
1073.1312412681
 30
0.0
 11
905.797915567131
 21
1073.1312412681
 31
0.0
  0
LINE
  5
28F
330
1F
100
AcDbEntity
  8
0243_
  6
Continuous
 62
     3
370
     5
100
AcDbLine
 10
1029.064659667619
 20
1198.13091698375
 30
0.0
 11
196.5648107708709
 21
1198.13091698375
 31
0.0
  0
LINE
  5
290
330
1F
100
AcDbEntity
  8
0243_
  6
Continuous
 62
     3
370
     5
100
AcDbLine
 10
1029.064659667619
 20
1158.130978018906
 30
0.0
 11
196.5648107708709
 21
1158.130978018906
 31
0.0
  0
LINE
  5
291
330
1F
100
AcDbEntity
  8
0243_
  6
Continuous
 62
     3
370
     5
100
AcDbLine
 10
456.5648107708708
 20
1198.13091698375
 30
0.0
 11
456.5648107708708
 21
1235.305333450964
 31
0.0
  0
LINE
  5
292
330
1F
100
AcDbEntity
  8
0243_
  6
Continuous
 62
     3
370
     5
100
AcDbLine
 10
481.3137418308368
 20
1198.13091698375
 30
0.0
 11
481.3137418308368
 21
1235.305333450964
 31
0.0
  0
LINE
  5
293
330
1F
100
AcDbEntity
  8
0243_
  6
Continuous
 62
     3
370
     5
100
AcDbLine
 10
431.8158797109044
 20
1198.13091698375
 30
0.0
 11
431.8158797109044
 21
1235.305333450964
 31
0.0
  0
LINE
  5
294
330
1F
100
AcDbEntity
  8
0243_
  6
Continuous
 62
     3
370
     5
100
AcDbLine
 10
856.5648107708707
 20
1198.13091698375
 30
0.0
 11
856.5648107708707
 21
1235.305333450964
 31
0.0
  0
LINE
  5
295
330
1F
100
AcDbEntity
  8
0243_
  6
Continuous
 62
     3
370
     5
100
AcDbLine
 10
881.3137418308368
 20
1198.13091698375
 30
0.0
 11
881.3137418308368
 21
1235.305333450964
 31
0.0
  0
LINE
  5
296
330
1F
100
AcDbEntity
  8
0243_
  6
Continuous
 62
     3
370
     5
100
AcDbLine
 10
831.8158797109044
 20
1198.13091698375
 30
0.0
 11
831.8158797109044
 21
1235.305333450964
 31
0.0
  0
LINE
  5
297
330
1F
100
AcDbEntity
  8
0243_
  6
Continuous
 62
     3
370
     5
100
AcDbLine
 10
1029.064659667619
 20
1128.131180232944
 30
0.0
 11
196.5648107708709
 21
1128.131180232944
 31
0.0
  0
LINE
  5
298
330
1F
100
AcDbEntity
  8
0243_
  6
Continuous
 62
     3
370
     5
100
AcDbLine
 10
1029.064659667619
 20
1088.1312412681
 30
0.0
 11
196.5648107708709
 21
1088.1312412681
 31
0.0
  0
LINE
  5
299
330
1F
100
AcDbEntity
  8
0243_
  6
Continuous
 62
     3
370
     5
100
AcDbLine
 10
456.5648107708708
 20
1128.131180232944
 30
0.0
 11
456.5648107708708
 21
1158.130978018906
 31
0.0
  0
LINE
  5
29A
330
1F
100
AcDbEntity
  8
0243_
  6
Continuous
 62
     3
370
     5
100
AcDbLine
 10
481.3137418308368
 20
1128.131180232944
 30
0.0
 11
481.3137418308368
 21
1158.130978018906
 31
0.0
  0
LINE
  5
29B
330
1F
100
AcDbEntity
  8
0243_
  6
Continuous
 62
     3
370
     5
100
AcDbLine
 10
431.8158797109044
 20
1128.131180232944
 30
0.0
 11
431.8158797109044
 21
1158.130978018906
 31
0.0
  0
LINE
  5
29C
330
1F
100
AcDbEntity
  8
0243_
  6
Continuous
 62
     3
370
     5
100
AcDbLine
 10
856.5648107708707
 20
1128.131180232944
 30
0.0
 11
856.5648107708707
 21
1158.130978018906
 31
0.0
  0
LINE
  5
29D
330
1F
100
AcDbEntity
  8
0243_
  6
Continuous
 62
     3
370
     5
100
AcDbLine
 10
881.3137418308368
 20
1128.131180232944
 30
0.0
 11
881.3137418308368
 21
1158.130978018906
 31
0.0
  0
LINE
  5
29E
330
1F
100
AcDbEntity
  8
0243_
  6
Continuous
 62
     3
370
     5
100
AcDbLine
 10
831.8158797109044
 20
1128.131180232944
 30
0.0
 11
831.8158797109044
 21
1158.130978018906
 31
0.0
  0
LINE
  5
29F
330
1F
100
AcDbEntity
  8
0243_
  6
Continuous
 62
     3
370
     5
100
AcDbLine
 10
196.5648107708709
 20
981.4085250936218
 30
0.0
 11
196.5648107708709
 21
1235.305333450964
 31
0.0
  0
LINE
  5
2A0
330
1F
100
AcDbEntity
  8
0243_
  6
Continuous
 62
     3
370
     5
100
AcDbLine
 10
181.5648107708709
 20
981.4085250936218
 30
0.0
 11
181.5648107708709
 21
1235.305333450964
 31
0.0
  0
LINE
  5
2A1
330
1F
100
AcDbEntity
  8
0243_
  6
Continuous
 62
     3
370
     5
100
AcDbLine
 10
1029.064659667619
 20
1058.1312412681
 30
0.0
 11
196.5648107708709
 21
1058.1312412681
 31
0.0
  0
LINE
  5
2A2
330
1F
100
AcDbEntity
  8
0243_
  6
Continuous
 62
     3
370
     5
100
AcDbLine
 10
1029.064659667619
 20
1018.131302303256
 30
0.0
 11
196.5648107708709
 21
1018.131302303256
 31
0.0
  0
LINE
  5
2A3
330
1F
100
AcDbEntity
  8
0243_
  6
Continuous
 62
     3
370
     5
100
AcDbLine
 10
456.5648107708708
 20
1058.1312412681
 30
0.0
 11
456.5648107708708
 21
1088.1312412681
 31
0.0
  0
LINE
  5
2A4
330
1F
100
AcDbEntity
  8
0243_
  6
Continuous
 62
     3
370
     5
100
AcDbLine
 10
481.3137418308368
 20
1058.1312412681
 30
0.0
 11
481.3137418308368
 21
1088.1312412681
 31
0.0
  0
LINE
  5
2A5
330
1F
100
AcDbEntity
  8
0243_
  6
Continuous
 62
     3
370
     5
100
AcDbLine
 10
481.3137418308368
 20
981.4085250936218
 30
0.0
 11
481.3137418308368
 21
1018.131302303256
 31
0.0
  0
LINE
  5
2A6
330
1F
100
AcDbEntity
  8
0243_
  6
Continuous
 62
     3
370
     5
100
AcDbLine
 10
431.8158797109044
 20
1058.1312412681
 30
0.0
 11
431.8158797109044
 21
1088.1312412681
 31
0.0
  0
LINE
  5
2A7
330
1F
100
AcDbEntity
  8
0243_
  6
Continuous
 62
     3
370
     5
100
AcDbLine
 10
431.8158797109044
 20
981.4085250936218
 30
0.0
 11
431.8158797109044
 21
1018.131302303256
 31
0.0
  0
LINE
  5
2A8
330
1F
100
AcDbEntity
  8
0243_
  6
Continuous
 62
     3
370
     5
100
AcDbLine
 10
856.5648107708707
 20
1058.1312412681
 30
0.0
 11
856.5648107708707
 21
1088.1312412681
 31
0.0
  0
LINE
  5
2A9
330
1F
100
AcDbEntity
  8
0243_
  6
Continuous
 62
     3
370
     5
100
AcDbLine
 10
856.5648107708707
 20
981.4085250936218
 30
0.0
 11
856.5648107708707
 21
1018.131302303256
 31
0.0
  0
LINE
  5
2AA
330
1F
100
AcDbEntity
  8
0243_
  6
Continuous
 62
     3
370
     5
100
AcDbLine
 10
881.3137418308368
 20
1058.1312412681
 30
0.0
 11
881.3137418308368
 21
1088.1312412681
 31
0.0
  0
LINE
  5
2AB
330
1F
100
AcDbEntity
  8
0243_
  6
Continuous
 62
     3
370
     5
100
AcDbLine
 10
881.3137418308368
 20
981.4085250936218
 30
0.0
 11
881.3137418308368
 21
1018.131302303256
 31
0.0
  0
LINE
  5
2AC
330
1F
100
AcDbEntity
  8
0243_
  6
Continuous
 62
     3
370
     5
100
AcDbLine
 10
831.8158797109044
 20
1058.1312412681
 30
0.0
 11
831.8158797109044
 21
1088.1312412681
 31
0.0
  0
LINE
  5
2AD
330
1F
100
AcDbEntity
  8
0243_
  6
Continuous
 62
     3
370
     5
100
AcDbLine
 10
831.8158797109044
 20
981.4085250936218
 30
0.0
 11
831.8158797109044
 21
1018.131302303256
 31
0.0
  0
LINE
  5
2AE
330
1F
100
AcDbEntity
  8
0216_
  6
Continuous
 62
     7
370
     5
100
AcDbLine
 10
456.5648107708708
 20
802.7510143375156
 30
0.0
 11
856.5648107708707
 21
802.7510143375156
 31
0.0
  0
LWPOLYLINE
  5
2AF
330
1F
100
AcDbEntity
  8
0216_
  6
Continuous
 62
     7
370
     5
100
AcDbPolyline
 90
        4
 70
     1
 43
1.0
 10
457.0648107708707
 20
802.7510143375156
 42
0.4142135623731
 10
456.5648107708708
 20
803.2510143375156
 42
0.4142135623731
 10
456.0648107708708
 20
802.7510143375156
 42
0.4142135623731
 10
456.5648107708708
 20
802.2510143375156
 42
0.4142135623731
  0
LWPOLYLINE
  5
2B0
330
1F
100
AcDbEntity
  8
0216_
  6
Continuous
 62
     7
370
     5
100
AcDbPolyline
 90
        4
 70
     1
 43
1.0
 10
857.0648107708707
 20
802.7510143375156
 42
0.4142135623731
 10
856.5648107708707
 20
803.2510143375156
 42
0.4142135623731
 10
856.0648107708708
 20
802.7510143375156
 42
0.4142135623731
 10
856.5648107708707
 20
802.2510143375156
 42
0.4142135623731
  0
TEXT
  5
2B1
330
1F
100
AcDbEntity
  8
0216_
  6
Continuous
 62
     2
370
   211
100
AcDbText
 10
635.3148107708707
 20
818.3910143375156
 30
0.0
 40
30.48
  1
80
 41
1.0625
  7
ＭＳ ゴシック
100
AcDbText
  0
LINE
  5
2B2
330
1F
100
AcDbEntity
  8
0216_
  6
Continuous
 62
     7
370
     5
100
AcDbLine
 10
456.5648107708708
 20
805.7510143375156
 30
0.0
 11
456.5648107708708
 21
727.7510143375156
 31
0.0
  0
LINE
  5
2B3
330
1F
100
AcDbEntity
  8
0216_
  6
Continuous
 62
     7
370
     5
100
AcDbLine
 10
856.5648107708707
 20
805.7510143375156
 30
0.0
 11
856.5648107708707
 21
727.7510143375156
 31
0.0
  0
TEXT
  5
2B4
330
1F
100
AcDbEntity
  8
0242_
  6
Continuous
 62
     2
370
     5
100
AcDbText
 10
672.965261313145
 20
309.1793675988915
 30
0.0
 40
30.48
  1
メインバー詳細図　Ｓ＝１：２
 41
1.116071428571427
  7
ＭＳ ゴシック
100
AcDbText
  0
LINE
  5
2B5
330
1F
100
AcDbEntity
  8
0242_
  6
Continuous
 62
     7
370
     5
100
AcDbLine
 10
673.4161205284414
 20
288.5393675988915
 30
0.0
 11
1294.772672482848
 21
288.5393675988915
 31
0.0
  0
LINE
  5
2B6
330
1F
100
AcDbEntity
  8
0216_
  6
Continuous
 62
     7
370
     5
100
AcDbLine
 10
62.07840423103303
 20
1038.131271785678
 30
0.0
 11
166.5648107708709
 21
1038.131271785678
 31
0.0
  0
SOLID
  5
2B7
330
1F
100
AcDbEntity
  8
0242_
  6
Continuous
 62
     4
370
     5
100
AcDbTrace
 10
-50.83644194647002
 20
1071.1312412681
 30
0.0
 11
-90.83644194647002
 21
1071.1312412681
 31
0.0
 12
-50.83644194647002
 22
1075.1312412681
 32
0.0
 13
-90.83644194647002
 23
1075.1312412681
 33
0.0
  0
LINE
  5
2B8
330
1F
100
AcDbEntity
  8
0242_
  6
Continuous
 62
     4
370
     5
100
AcDbLine
 10
-71.81743881994373
 20
1063.465151470388
 30
0.0
 11
-71.81743881994373
 21
1014.215758787446
 31
0.0
  0
LINE
  5
2B9
330
1F
100
AcDbEntity
  8
0242_
  6
Continuous
 62
     4
370
     5
100
AcDbLine
 10
-71.81743881994373
 20
1063.465151470388
 30
0.0
 11
-68.55428401444237
 21
1038.679029936043
 31
0.0
  0
LINE
  5
2BA
330
1F
100
AcDbEntity
  8
0242_
  6
Continuous
 62
     4
370
     5
100
AcDbLine
 10
-71.81743881994373
 20
1063.465151470388
 30
0.0
 11
-75.08059362544509
 21
1038.679029936043
 31
0.0
  0
TEXT
  5
2BB
330
1F
100
AcDbEntity
  8
0242_
  6
Continuous
 62
     2
370
     5
100
AcDbText
 10
-81.81743881994373
 20
973.8896589500338
 30
0.0
 40
30.48
  1
B
 41
0.9999999999999998
  7
ＭＳ ゴシック
100
AcDbText
  0
LINE
  5
2BC
330
1F
100
AcDbEntity
  8
0242_
  6
JWW_CENTER1
 62
     4
370
     5
100
AcDbLine
 10
-50.83644194647002
 20
1073.1312412681
 30
0.0
 11
-0.8364419464700212
 21
1073.1312412681
 31
0.0
  0
LINE
  5
2BD
330
1F
100
AcDbEntity
  8
0242_
  6
Continuous
 62
     7
370
     5
100
AcDbLine
 10
505.5911475742171
 20
411.9366034196332
 30
0.0
 11
702.5112692885467
 21
411.9366034196332
 31
0.0
  0
TEXT
  5
2BE
330
1F
100
AcDbEntity
  8
0242_
  6
Continuous
 62
     2
370
     5
100
AcDbText
 10
507.8282620071083
 20
432.5766034196332
 30
0.0
 40
30.48
  1
B-B断面図
 41
1.097222222222222
  7
ＭＳ ゴシック
100
AcDbText
  0
LINE
  5
2BF
330
1F
100
AcDbEntity
  8
0216_
  6
Continuous
 62
     7
370
     5
100
AcDbLine
 10
-695.5459135086812
 20
-233.4292485933844
 30
0.0
 11
-695.5459135086812
 21
-16.2142529707495
 31
0.0
  0
LINE
  5
2C0
330
1F
100
AcDbEntity
  8
0234_
  6
Continuous
 62
     4
370
     5
100
AcDbLine
 10
-690.5466335327901
 20
-360.2603402357641
 30
0.0
 11
-694.1714831502713
 21
-363.8851895552222
 31
0.0
  0
LINE
  5
2C1
330
1F
100
AcDbEntity
  8
0234_
  6
Continuous
 62
     4
370
     5
100
AcDbLine
 10
-805.5469148667135
 20
-351.385008357102
 30
0.0
 11
-690.5466335327901
 21
-351.385008357102
 31
0.0
  0
LINE
  5
2C2
330
1F
100
AcDbEntity
  8
0234_
  6
Continuous
 62
     4
370
     5
100
AcDbLine
 10
-690.5466335327901
 20
-353.1895032148901
 30
0.0
 11
-701.2428133995809
 21
-363.8851895552222
 31
0.0
  0
LINE
  5
2C3
330
1F
100
AcDbEntity
  8
0234_
  6
Continuous
 62
     4
370
     5
100
AcDbLine
 10
-695.8134666518845
 20
-351.385008357102
 30
0.0
 11
-708.3141439469136
 21
-363.8851895552222
 31
0.0
  0
LINE
  5
2C4
330
1F
100
AcDbEntity
  8
0234_
  6
Continuous
 62
     4
370
     5
100
AcDbLine
 10
-702.8847967894353
 20
-351.385008357102
 30
0.0
 11
-715.3854744942464
 21
-363.8851895552222
 31
0.0
  0
LINE
  5
2C5
330
1F
100
AcDbEntity
  8
0234_
  6
Continuous
 62
     4
370
     5
100
AcDbLine
 10
-709.9561279328145
 20
-351.385008357102
 30
0.0
 11
-722.4558132202901
 21
-363.8851895552222
 31
0.0
  0
LINE
  5
2C6
330
1F
100
AcDbEntity
  8
0234_
  6
Continuous
 62
     4
370
     5
100
AcDbLine
 10
-717.0264666588582
 20
-351.385008357102
 30
0.0
 11
-729.5271437676229
 21
-363.8851895552222
 31
0.0
  0
LINE
  5
2C7
330
1F
100
AcDbEntity
  8
0234_
  6
Continuous
 62
     4
370
     5
100
AcDbLine
 10
-724.097797206191
 20
-351.385008357102
 30
0.0
 11
-736.5984743149556
 21
-363.8851895552222
 31
0.0
  0
LINE
  5
2C8
330
1F
100
AcDbEntity
  8
0234_
  6
Continuous
 62
     4
370
     5
100
AcDbLine
 10
-731.1691277535238
 20
-351.385008357102
 30
0.0
 11
-742.6540916474141
 21
-362.8694787245337
 31
0.0
  0
LINE
  5
2C9
330
1F
100
AcDbEntity
  8
0234_
  6
Continuous
 62
     4
370
     5
100
AcDbLine
 10
-738.2404583008565
 20
-351.385008357102
 30
0.0
 11
-748.0675857575216
 21
-361.2121358137671
 31
0.0
  0
LINE
  5
2CA
330
1F
100
AcDbEntity
  8
0234_
  6
Continuous
 62
     4
370
     5
100
AcDbLine
 10
-745.310799411086
 20
-351.385008357102
 30
0.0
 11
-753.2838790924825
 21
-359.3580880384985
 31
0.0
  0
LINE
  5
2CB
330
1F
100
AcDbEntity
  8
0234_
  6
Continuous
 62
     4
370
     5
100
AcDbLine
 10
-752.382127574233
 20
-351.385008357102
 30
0.0
 11
-758.500177195815
 21
-357.5035443525854
 31
0.0
  0
LINE
  5
2CC
330
1F
100
AcDbEntity
  8
0234_
  6
Continuous
 62
     4
370
     5
100
AcDbLine
 10
-759.45345573738
 20
-351.385008357102
 30
0.0
 11
-764.4537275345601
 21
-356.3852753859106
 31
0.0
  0
LINE
  5
2CD
330
1F
100
AcDbEntity
  8
0234_
  6
Continuous
 62
     4
370
     5
100
AcDbLine
 10
-766.5247886688985
 20
-351.385008357102
 30
0.0
 11
-771.5240686447896
 21
-356.3852753859106
 31
0.0
  0
LINE
  5
2CE
330
1F
100
AcDbEntity
  8
0234_
  6
Continuous
 62
     4
370
     5
100
AcDbLine
 10
-801.8804472000875
 20
-351.385008357102
 30
0.0
 11
-806.8797319443502
 21
-356.3852753859106
 31
0.0
  0
LINE
  5
2CF
330
1F
100
AcDbEntity
  8
0243_
  6
JWW_DASHED3
 62
     3
370
     5
100
AcDbLine
 10
-670.5465405495443
 20
-333.8850465040747
 30
0.0
 11
-670.5465405495443
 21
-283.884815238053
 31
0.0
  0
LINE
  5
2D0
330
1F
100
AcDbEntity
  8
0243_
  6
Continuous
 62
     3
370
     5
100
AcDbLine
 10
-645.5461757691182
 20
-308.885180018479
 30
0.0
 11
-645.5461757691182
 21
-293.3854308348242
 31
0.0
  0
LINE
  5
2D1
330
1F
100
AcDbEntity
  8
0243_
  6
Continuous
 62
     3
370
     5
100
AcDbLine
 10
-670.5465405495443
 20
-283.884815238053
 30
0.0
 11
-670.5465405495443
 21
-253.8851722698752
 31
0.0
  0
LINE
  5
2D2
330
1F
100
AcDbEntity
  8
0243_
  6
Continuous
 62
     3
370
     5
100
AcDbLine
 10
-520.5463331253804
 20
-372.3849549513403
 30
0.0
 11
-645.5461757691182
 21
-372.3849549513403
 31
0.0
  0
LINE
  5
2D3
330
1F
100
AcDbEntity
  8
0243_
  6
Continuous
 62
     3
370
     5
100
AcDbLine
 10
-648.4763782532491
 20
-355.9557023268286
 30
0.0
 11
-670.5465405495443
 21
-333.8850465040747
 31
0.0
  0
LINE
  5
2D4
330
1F
100
AcDbEntity
  8
0243_
  6
Continuous
 62
     3
370
     5
100
AcDbLine
 10
-645.5461757691182
 20
-383.8847794752661
 30
0.0
 11
-645.5461757691182
 21
-363.0270352583472
 31
0.0
  0
LINE
  5
2D5
330
1F
100
AcDbEntity
  8
0243_
  6
Continuous
 62
     3
370
     5
100
AcDbLine
 10
-520.5463331253804
 20
-383.8847794752661
 30
0.0
 11
-645.5461757691182
 21
-383.8847794752661
 31
0.0
  0
LINE
  5
2D6
330
1F
100
AcDbEntity
  8
0243_
  6
Continuous
 62
     3
370
     5
100
AcDbLine
 10
-670.5465405495443
 20
-366.3848271589819
 30
0.0
 11
-670.5465405495443
 21
-333.8850465040747
 31
0.0
  0
LINE
  5
2D7
330
1F
100
AcDbEntity
  8
0243_
  6
Continuous
 62
     3
370
     5
100
AcDbLine
 10
-670.5465405495443
 20
-366.3848271589819
 30
0.0
 11
-682.0463710339345
 21
-366.3848271589819
 31
0.0
  0
LINE
  5
2D8
330
1F
100
AcDbEntity
  8
0243_
  6
Continuous
 62
     3
370
     5
100
AcDbLine
 10
-682.0463710339345
 20
-253.8851722698752
 30
0.0
 11
-682.0463710339345
 21
-366.3848271589819
 31
0.0
  0
LINE
  5
2D9
330
1F
100
AcDbEntity
  8
0243_
  6
JWW_CENTER2
 62
     3
370
     5
100
AcDbLine
 10
-627.5517433197774
 20
-311.3853135328833
 30
0.0
 11
-687.9692047150411
 21
-311.3853135328833
 31
0.0
  0
LINE
  5
2DA
330
1F
100
AcDbEntity
  8
0243_
  6
JWW_DASHED3
 62
     3
370
     5
100
AcDbLine
 10
-645.5461757691182
 20
-321.3853612165991
 30
0.0
 11
-682.0463710339345
 21
-321.3853612165991
 31
0.0
  0
LINE
  5
2DB
330
1F
100
AcDbEntity
  8
0243_
  6
JWW_DASHED3
 62
     3
370
     5
100
AcDbLine
 10
-645.5461757691182
 20
-329.385200999314
 30
0.0
 11
-645.5461757691182
 21
-308.885180018479
 31
0.0
  0
LINE
  5
2DC
330
1F
100
AcDbEntity
  8
0243_
  6
JWW_DASHED3
 62
     3
370
     5
100
AcDbLine
 10
-645.5461757691182
 20
-320.1357903700415
 30
0.0
 11
-682.0463710339345
 21
-320.1357903700415
 31
0.0
  0
LINE
  5
2DD
330
1F
100
AcDbEntity
  8
0243_
  6
Continuous
 62
     3
370
     5
100
AcDbLine
 10
-684.2967908890523
 20
-301.385270617539
 30
0.0
 11
-685.5463629277028
 21
-302.6353373747412
 31
0.0
  0
LINE
  5
2DE
330
1F
100
AcDbEntity
  8
0243_
  6
Continuous
 62
     3
370
     5
100
AcDbLine
 10
-684.2967908890523
 20
-321.3853612165991
 30
0.0
 11
-685.5463629277028
 21
-320.1357903700415
 31
0.0
  0
LINE
  5
2DF
330
1F
100
AcDbEntity
  8
0243_
  6
Continuous
 62
     3
370
     5
100
AcDbLine
 10
-684.2967908890523
 20
-301.385270617539
 30
0.0
 11
-684.2967908890523
 21
-321.3853612165991
 31
0.0
  0
LINE
  5
2E0
330
1F
100
AcDbEntity
  8
0243_
  6
Continuous
 62
     3
370
     5
100
AcDbLine
 10
-682.0463710339345
 20
-302.6353373747412
 30
0.0
 11
-685.5463629277028
 21
-302.6353373747412
 31
0.0
  0
LINE
  5
2E1
330
1F
100
AcDbEntity
  8
0243_
  6
Continuous
 62
     3
370
     5
100
AcDbLine
 10
-682.0463710339345
 20
-301.385270617539
 30
0.0
 11
-684.2967908890523
 21
-301.385270617539
 31
0.0
  0
LINE
  5
2E2
330
1F
100
AcDbEntity
  8
0243_
  6
Continuous
 62
     3
370
     5
100
AcDbLine
 10
-682.0463710339345
 20
-320.1357903700415
 30
0.0
 11
-685.5463629277028
 21
-320.1357903700415
 31
0.0
  0
LINE
  5
2E3
330
1F
100
AcDbEntity
  8
0243_
  6
Continuous
 62
     3
370
     5
100
AcDbLine
 10
-682.0463710339345
 20
-321.3853612165991
 30
0.0
 11
-684.2967908890523
 21
-321.3853612165991
 31
0.0
  0
LINE
  5
2E4
330
1F
100
AcDbEntity
  8
0243_
  6
Continuous
 62
     3
370
     5
100
AcDbLine
 10
-639.046618274001
 20
-293.3854308348242
 30
0.0
 11
-645.5461757691182
 21
-293.3854308348242
 31
0.0
  0
LINE
  5
2E5
330
1F
100
AcDbEntity
  8
0243_
  6
JWW_DASHED3
 62
     3
370
     5
100
AcDbLine
 10
-639.046618274001
 20
-329.385200999314
 30
0.0
 11
-645.5461757691182
 21
-329.385200999314
 31
0.0
  0
LINE
  5
2E6
330
1F
100
AcDbEntity
  8
0243_
  6
JWW_DASHED3
 62
     3
370
     5
100
AcDbLine
 10
-632.5470607788839
 20
-322.8851428251807
 30
0.0
 11
-632.5470607788839
 21
-321.885782740647
 31
0.0
  0
LINE
  5
2E7
330
1F
100
AcDbEntity
  8
0243_
  6
Continuous
 62
     3
370
     5
100
AcDbLine
 10
-632.5470607788839
 20
-299.8844924192969
 30
0.0
 11
-632.5470607788839
 21
-321.885782740647
 31
0.0
  0
LINE
  5
2E8
330
1F
100
AcDbEntity
  8
0243_
  6
Continuous
 62
     3
370
     5
100
AcDbLine
 10
-645.5461757691182
 20
-301.385270617539
 30
0.0
 11
-653.0465858490743
 21
-301.385270617539
 31
0.0
  0
LINE
  5
2E9
330
1F
100
AcDbEntity
  8
0243_
  6
Continuous
 62
     3
370
     5
100
AcDbLine
 10
-645.5461757691182
 20
-302.6353373747412
 30
0.0
 11
-651.7970102341451
 21
-302.6353373747412
 31
0.0
  0
LINE
  5
2EA
330
1F
100
AcDbEntity
  8
0243_
  6
JWW_DASHED3
 62
     3
370
     5
100
AcDbLine
 10
-653.0465858490743
 20
-301.385270617539
 30
0.0
 11
-682.0463710339345
 21
-301.385270617539
 31
0.0
  0
LINE
  5
2EB
330
1F
100
AcDbEntity
  8
0243_
  6
JWW_DASHED3
 62
     3
370
     5
100
AcDbLine
 10
-682.0463710339345
 20
-302.6353373747412
 30
0.0
 11
-651.7970102341451
 21
-302.6353373747412
 31
0.0
  0
LINE
  5
2EC
330
1F
100
AcDbEntity
  8
0243_
  6
Continuous
 62
     3
370
     5
100
AcDbLine
 10
-629.3344371826925
 20
-325.0979104261938
 30
0.0
 11
-670.5465405495443
 21
-283.884815238053
 31
0.0
  0
LINE
  5
2ED
330
1F
100
AcDbEntity
  8
0243_
  6
Continuous
 62
     3
370
     5
100
AcDbLine
 10
-608.1204526932515
 20
-333.8850465040747
 30
0.0
 11
-530.546886256484
 21
-333.8850465040747
 31
0.0
  0
LINE
  5
2EE
330
1F
100
AcDbEntity
  8
0216_
  6
Continuous
 62
     7
370
     5
100
AcDbLine
 10
-1393.214523127822
 20
-127.9662385206763
 30
0.0
 11
-820.5467432053365
 21
-127.9662385206763
 31
0.0
  0
LINE
  5
2EF
330
1F
100
AcDbEntity
  8
0216_
  6
Continuous
 62
     7
370
     5
100
AcDbLine
 10
-820.5467432053365
 20
-233.4292485933844
 30
0.0
 11
-820.5467432053365
 21
-124.9651875715796
 31
0.0
  0
LINE
  5
2F0
330
1F
100
AcDbEntity
  8
0216_
  6
Continuous
 62
     7
370
     5
100
AcDbLine
 10
-820.5467432053365
 20
-127.9662385206763
 30
0.0
 11
-695.5459135086812
 21
-127.9662385206763
 31
0.0
  0
LINE
  5
2F1
330
1F
100
AcDbEntity
  8
0216_
  6
Continuous
 62
     7
370
     5
100
AcDbLine
 10
-690.545642903594
 20
-233.4292485933844
 30
0.0
 11
-690.545642903594
 21
-16.2142529707495
 31
0.0
  0
LINE
  5
2F2
330
1F
100
AcDbEntity
  8
0216_
  6
Continuous
 62
     7
370
     5
100
AcDbLine
 10
-665.5472605736531
 20
-233.4292485933844
 30
0.0
 11
-665.5472605736531
 21
94.48238704389894
 31
0.0
  0
LINE
  5
2F3
330
1F
100
AcDbEntity
  8
0216_
  6
Continuous
 62
     7
370
     5
100
AcDbLine
 10
-820.5457513840474
 20
-654.5038953047339
 30
0.0
 11
-670.5465405495443
 21
-654.5038953047339
 31
0.0
  0
LINE
  5
2F4
330
1F
100
AcDbEntity
  8
0220_
  6
Continuous
 62
     6
370
     5
100
AcDbLine
 10
-670.5465405495443
 20
-498.8855710249487
 30
0.0
 11
-670.5465405495443
 21
-748.8852277021948
 31
0.0
  0
LINE
  5
2F5
330
1F
100
AcDbEntity
  8
0220_
  6
JWW_DASHED3
 62
     6
370
     5
100
AcDbLine
 10
-577.0446508438863
 20
-626.3850369673315
 30
0.0
 11
-577.0446508438863
 21
-498.8855710249487
 31
0.0
  0
LINE
  5
2F6
330
1F
100
AcDbEntity
  8
0220_
  6
JWW_DASHED3
 62
     6
370
     5
100
AcDbLine
 10
-532.0451849015035
 20
-498.8855710249487
 30
0.0
 11
-532.0451849015035
 21
-626.3850369673315
 31
0.0
  0
LINE
  5
2F7
330
1F
100
AcDbEntity
  8
0220_
  6
Continuous
 62
     6
370
     5
100
AcDbLine
 10
-420.5468671829976
 20
-398.8855996351782
 30
0.0
 11
-255.5463712723531
 21
-398.8855996351782
 31
0.0
  0
LINE
  5
2F8
330
1F
100
AcDbEntity
  8
0220_
  6
Continuous
 62
     6
370
     5
100
AcDbLine
 10
-420.5468671829976
 20
-398.8855996351782
 30
0.0
 11
-420.5468671829976
 21
-498.8855710249487
 31
0.0
  0
LINE
  5
2F9
330
1F
100
AcDbEntity
  8
0220_
  6
Continuous
 62
     6
370
     5
100
AcDbLine
 10
-670.5465405495443
 20
-498.8855710249487
 30
0.0
 11
-420.5468671829976
 21
-498.8855710249487
 31
0.0
  0
LINE
  5
2FA
330
1F
100
AcDbEntity
  8
0220_
  6
Continuous
 62
     6
370
     5
100
AcDbLine
 10
-577.0446508438863
 20
-301.385761759812
 30
0.0
 11
-532.0451849015035
 21
-301.385761759812
 31
0.0
  0
LINE
  5
2FB
330
1F
100
AcDbEntity
  8
0220_
  6
JWW_CENTER2
 62
     6
370
     5
100
AcDbLine
 10
-554.5454137833394
 20
-297.3055806379858
 30
0.0
 11
-554.5454137833394
 21
-626.3850369673315
 31
0.0
  0
LINE
  5
2FC
330
1F
100
AcDbEntity
  8
0220_
  6
Continuous
 62
     6
370
     5
100
AcDbLine
 10
-577.0446508438863
 20
-333.8850465040747
 30
0.0
 11
-577.0446508438863
 21
-301.385761759812
 31
0.0
  0
LINE
  5
2FD
330
1F
100
AcDbEntity
  8
0220_
  6
Continuous
 62
     6
370
     5
100
AcDbLine
 10
-532.0451849015035
 20
-333.8850465040747
 30
0.0
 11
-532.0451849015035
 21
-301.385761759812
 31
0.0
  0
LINE
  5
2FE
330
1F
100
AcDbEntity
  8
0220_
  6
Continuous
 62
     6
370
     5
100
AcDbLine
 10
-577.0446508438863
 20
-498.8855710249487
 30
0.0
 11
-577.0446508438863
 21
-383.8847794752661
 31
0.0
  0
LINE
  5
2FF
330
1F
100
AcDbEntity
  8
0220_
  6
Continuous
 62
     6
370
     5
100
AcDbLine
 10
-532.0451849015035
 20
-498.8855710249487
 30
0.0
 11
-532.0451849015035
 21
-383.8847794752661
 31
0.0
  0
LINE
  5
300
330
1F
100
AcDbEntity
  8
0216_
  6
Continuous
 62
     7
370
     5
100
AcDbLine
 10
-825.4707067520894
 20
-373.885237238938
 30
0.0
 11
-969.0288274796285
 21
-373.885237238938
 31
0.0
  0
LINE
  5
301
330
1F
100
AcDbEntity
  8
0216_
  6
Continuous
 62
     7
370
     5
100
AcDbLine
 10
-1393.214523127822
 20
91.48182246870363
 30
0.0
 11
-665.5472605736531
 21
91.48182246870363
 31
0.0
  0
LINE
  5
302
330
1F
100
AcDbEntity
  8
0216_
  6
Continuous
 62
     7
370
     5
100
AcDbLine
 10
-702.826331785468
 20
-248.885396979386
 30
0.0
 11
-969.0288274796285
 21
-248.885396979386
 31
0.0
  0
LINE
  5
303
330
1F
100
AcDbEntity
  8
0243_
  6
Continuous
 62
     3
370
     5
100
AcDbLine
 10
-682.0463710339345
 20
-253.8851722698752
 30
0.0
 11
-670.5465405495443
 21
-253.8851722698752
 31
0.0
  0
LINE
  5
304
330
1F
100
AcDbEntity
  8
0220_
  6
Continuous
 62
     6
370
     5
100
AcDbLine
 10
-668.5468285591878
 20
-248.885396979386
 30
0.0
 11
-255.5463712723531
 21
-248.885396979386
 31
0.0
  0
LINE
  5
305
330
1F
100
AcDbEntity
  8
0220_
  6
Continuous
 62
     6
370
     5
100
AcDbLine
 10
-820.5457513840474
 20
-368.8849606733862
 30
0.0
 11
-820.5457513840474
 21
-748.8852277021948
 31
0.0
  0
LINE
  5
306
330
1F
100
AcDbEntity
  8
0243_
  6
Continuous
 62
     3
370
     5
100
AcDbLine
 10
-520.5463331253804
 20
-343.8850941877905
 30
0.0
 11
-520.5463331253804
 21
-383.8847794752661
 31
0.0
  0
LINE
  5
307
330
1F
100
AcDbEntity
  8
0227_下階間仕切
  6
Continuous
 62
     2
370
     5
100
AcDbLine
 10
-670.5475323708333
 20
-253.8851722698752
 30
0.0
 11
-685.547353556899
 21
-253.8851722698752
 31
0.0
  0
LINE
  5
308
330
1F
100
AcDbEntity
  8
0227_下階間仕切
  6
Continuous
 62
     2
370
     5
100
AcDbLine
 10
-665.5472605736531
 20
-346.3852277021948
 30
0.0
 11
-670.5475323708333
 21
-346.3852277021948
 31
0.0
  0
LINE
  5
309
330
1F
100
AcDbEntity
  8
0227_下階間仕切
  6
Continuous
 62
     2
370
     5
100
AcDbLine
 10
-670.5475323708333
 20
-368.8849606733862
 30
0.0
 11
-670.5475323708333
 21
-346.3852277021948
 31
0.0
  0
LINE
  5
30A
330
1F
100
AcDbEntity
  8
0227_下階間仕切
  6
Continuous
 62
     2
370
     5
100
AcDbLine
 10
-665.5472605736531
 20
-276.384905837113
 30
0.0
 11
-670.5475323708333
 21
-276.384905837113
 31
0.0
  0
LINE
  5
30B
330
1F
100
AcDbEntity
  8
0227_下階間仕切
  6
Continuous
 62
     2
370
     5
100
AcDbLine
 10
-670.5475323708333
 20
-276.384905837113
 30
0.0
 11
-670.5475323708333
 21
-253.8851722698752
 31
0.0
  0
LINE
  5
30C
330
1F
100
AcDbEntity
  8
0227_下階間仕切
  6
Continuous
 62
     2
370
     5
100
AcDbLine
 10
-665.5472605736531
 20
-251.8849649649206
 30
0.0
 11
-665.5472605736531
 21
-276.384905837113
 31
0.0
  0
LINE
  5
30D
330
1F
100
AcDbEntity
  8
0227_下階間仕切
  6
Continuous
 62
     2
370
     5
100
AcDbLine
 10
-665.5472605736531
 20
-370.8851685743872
 30
0.0
 11
-665.5472605736531
 21
-346.3852277021948
 31
0.0
  0
LINE
  5
30E
330
1F
100
AcDbEntity
  8
0227_下階間仕切
  6
Continuous
 62
     2
370
     5
100
AcDbLine
 10
-690.5476244600095
 20
-363.8851895552222
 30
0.0
 11
-740.5473583252706
 21
-363.8851895552222
 31
0.0
  0
LINE
  5
30F
330
1F
100
AcDbEntity
  8
0227_下階間仕切
  6
Continuous
 62
     2
370
     5
100
AcDbLine
 10
-685.547353556899
 20
-363.8851895552222
 30
0.0
 11
-685.547353556899
 21
-253.8851722698752
 31
0.0
  0
LINE
  5
310
330
1F
100
AcDbEntity
  8
0227_下階間仕切
  6
Continuous
 62
     2
370
     5
100
AcDbLine
 10
-690.5476244600095
 20
-363.8851895552222
 30
0.0
 11
-690.5476244600095
 21
-251.8849649649206
 31
0.0
  0
LINE
  5
311
330
1F
100
AcDbEntity
  8
0227_下階間仕切
  6
Continuous
 62
     2
370
     5
100
AcDbLine
 10
-760.8348243744649
 20
-356.6741337996069
 30
0.0
 11
-740.5473583252706
 21
-363.8851895552222
 31
0.0
  0
LINE
  5
312
330
1F
100
AcDbEntity
  8
0227_下階間仕切
  6
Continuous
 62
     2
370
     5
100
AcDbLine
 10
-741.917826464919
 20
-368.5965981703345
 30
0.0
 11
-762.2137134583272
 21
-361.3850465040747
 31
0.0
  0
LINE
  5
313
330
1F
100
AcDbEntity
  8
0227_下階間仕切
  6
Continuous
 62
     2
370
     5
100
AcDbLine
 10
-687.5470655472554
 20
-248.885396979386
 30
0.0
 11
-668.5473244698323
 21
-248.885396979386
 31
0.0
  0
LINE
  5
314
330
1F
100
AcDbEntity
  8
0227_下階間仕切
  6
Continuous
 62
     2
370
     5
100
AcDbLine
 10
-815.5474584610738
 20
-368.8849606733862
 30
0.0
 11
-670.5475323708333
 21
-368.8849606733862
 31
0.0
  0
LINE
  5
315
330
1F
100
AcDbEntity
  8
0227_下階間仕切
  6
Continuous
 62
     2
370
     5
100
AcDbLine
 10
-815.5474584610738
 20
-368.8849606733862
 30
0.0
 11
-815.5474584610738
 21
-361.3850465040747
 31
0.0
  0
LINE
  5
316
330
1F
100
AcDbEntity
  8
0227_下階間仕切
  6
Continuous
 62
     2
370
     5
100
AcDbLine
 10
-815.5474584610738
 20
-373.885237238938
 30
0.0
 11
-668.5473244698323
 21
-373.885237238938
 31
0.0
  0
LINE
  5
317
330
1F
100
AcDbEntity
  8
0227_下階間仕切
  6
Continuous
 62
     2
370
     5
100
AcDbLine
 10
-820.547239115981
 20
-368.8849606733862
 30
0.0
 11
-820.547239115981
 21
-361.3850465040747
 31
0.0
  0
LINE
  5
318
330
1F
100
AcDbEntity
  8
0227_下階間仕切
  6
Continuous
 62
     2
370
     5
100
AcDbLine
 10
-778.7172811539449
 20
-357.0551457624975
 30
0.0
 11
-790.5475919754781
 21
-363.8851895552222
 31
0.0
  0
LINE
  5
319
330
1F
100
AcDbEntity
  8
0227_下階間仕切
  6
Continuous
 62
     2
370
     5
100
AcDbLine
 10
-788.0474584610738
 20
-368.2150902967993
 30
0.0
 11
-776.2171476395406
 21
-361.3850465040747
 31
0.0
  0
LINE
  5
31A
330
1F
100
AcDbEntity
  8
0227_下階間仕切
  6
Continuous
 62
     2
370
     5
100
AcDbLine
 10
-793.0472295792379
 20
-368.2150902967993
 30
0.0
 11
-804.8775404007711
 21
-361.3850465040747
 31
0.0
  0
LINE
  5
31B
330
1F
100
AcDbEntity
  8
0227_下階間仕切
  6
Continuous
 62
     2
370
     5
100
AcDbLine
 10
-802.3774068863668
 20
-357.0551457624975
 30
0.0
 11
-790.5475919754781
 21
-363.8851895552222
 31
0.0
  0
LINE
  5
31C
330
1F
100
AcDbEntity
  8
0227_下階間仕切
  6
Continuous
 62
     2
370
     5
100
AcDbLine
 10
-762.2137134583272
 20
-361.3850465040747
 30
0.0
 11
-776.2171476395406
 21
-361.3850465040747
 31
0.0
  0
LINE
  5
31D
330
1F
100
AcDbEntity
  8
0227_下階間仕切
  6
Continuous
 62
     2
370
     5
100
AcDbLine
 10
-804.8775404007711
 20
-361.3850465040747
 30
0.0
 11
-815.5474584610738
 21
-361.3850465040747
 31
0.0
  0
LINE
  5
31E
330
1F
100
AcDbEntity
  8
0227_下階間仕切
  6
Continuous
 62
     2
370
     5
100
AcDbLine
 10
-762.5095098526754
 20
-356.3852753859106
 30
0.0
 11
-776.2171476395406
 21
-356.3852753859106
 31
0.0
  0
LINE
  5
31F
330
1F
100
AcDbEntity
  8
0227_下階間仕切
  6
Continuous
 62
     2
370
     5
100
AcDbLine
 10
-804.8775404007711
 20
-356.3852753859106
 30
0.0
 11
-815.5474584610738
 21
-356.3852753859106
 31
0.0
  0
LINE
  5
320
330
1F
100
AcDbEntity
  8
0234_
  6
Continuous
 62
     4
370
     5
100
AcDbLine
 10
-773.595129779128
 20
-351.385008357102
 30
0.0
 11
-780.0134294541158
 21
-357.8033032637182
 31
0.0
  0
LINE
  5
321
330
1F
100
AcDbEntity
  8
0234_
  6
Continuous
 62
     4
370
     5
100
AcDbLine
 10
-780.666457942275
 20
-351.385008357102
 30
0.0
 11
-792.2079103501119
 21
-362.9264512281958
 31
0.0
  0
LINE
  5
322
330
1F
100
AcDbEntity
  8
0234_
  6
Continuous
 62
     4
370
     5
100
AcDbLine
 10
-787.7377908737935
 20
-351.385008357102
 30
0.0
 11
-796.6909139664449
 21
-360.3381219130102
 31
0.0
  0
LINE
  5
323
330
1F
100
AcDbEntity
  8
0234_
  6
Continuous
 62
     4
370
     5
100
AcDbLine
 10
-794.8091142685689
 20
-351.385008357102
 30
0.0
 11
-801.1729162247457
 21
-357.7502885084692
 31
0.0
  0
LINE
  5
324
330
1F
100
AcDbEntity
  8
0220_
  6
Continuous
 62
     6
370
     5
100
AcDbLine
 10
-420.5468671829976
 20
-446.2256589155737
 30
0.0
 11
-373.2068174393453
 21
-398.8855996351782
 31
0.0
  0
LINE
  5
325
330
1F
100
AcDbEntity
  8
0220_
  6
Continuous
 62
     6
370
     5
100
AcDbLine
 10
-670.5465405495443
 20
-696.2233319502417
 30
0.0
 11
-473.2072752030172
 21
-498.8855710249487
 31
0.0
  0
LINE
  5
326
330
1F
100
AcDbEntity
  8
0220_
  6
Continuous
 62
     6
370
     5
100
AcDbLine
 10
-670.5465405495443
 20
-710.364033244187
 30
0.0
 11
-459.0665929825582
 21
-498.8855710249487
 31
0.0
  0
LINE
  5
327
330
1F
100
AcDbEntity
  8
0220_
  6
Continuous
 62
     6
370
     5
100
AcDbLine
 10
-420.5468671829976
 20
-460.3663411360327
 30
0.0
 11
-359.0661161454
 21
-398.8855996351782
 31
0.0
  0
LINE
  5
328
330
1F
100
AcDbEntity
  8
0220_
  6
Continuous
 62
     6
370
     5
100
AcDbLine
 10
-670.5465405495443
 20
-724.5046963911597
 30
0.0
 11
-444.9259107620992
 21
-498.8855710249487
 31
0.0
  0
LINE
  5
329
330
1F
100
AcDbEntity
  8
0220_
  6
Continuous
 62
     6
370
     5
100
AcDbLine
 10
-420.5468671829976
 20
-474.5070042830054
 30
0.0
 11
-344.9254529984273
 21
-398.8855996351782
 31
0.0
  0
LINE
  5
32A
330
1F
100
AcDbEntity
  8
0220_
  6
Continuous
 62
     6
370
     5
100
AcDbLine
 10
-331.3743894608297
 20
-748.8852277021948
 30
0.0
 11
-255.545379451064
 21
-673.0572095137182
 31
0.0
  0
LINE
  5
32B
330
1F
100
AcDbEntity
  8
0220_
  6
Continuous
 62
     6
370
     5
100
AcDbLine
 10
-345.5150526078023
 20
-748.8852277021948
 30
0.0
 11
-255.545379451064
 21
-658.9165463667456
 31
0.0
  0
LINE
  5
32C
330
1F
100
AcDbEntity
  8
0220_
  6
Continuous
 62
     6
370
     5
100
AcDbLine
 10
-317.2336881668843
 20
-748.8852277021948
 30
0.0
 11
-255.545379451064
 21
-687.1978726606909
 31
0.0
  0
LINE
  5
32D
330
1F
100
AcDbEntity
  8
0226_下階梁情報
  6
Continuous
 62
     7
370
     5
100
AcDbLine
 10
-393.7013738663472
 20
-269.8353030901495
 30
0.0
 11
-393.7013738663472
 21
-268.3350231867377
 31
0.0
  0
LINE
  5
32E
330
1F
100
AcDbEntity
  8
0226_下階梁情報
  6
Continuous
 62
     7
370
     5
100
AcDbLine
 10
-393.7013738663472
 20
-268.3350231867377
 30
0.0
 11
-392.2015874893941
 21
-268.3350231867377
 31
0.0
  0
LINE
  5
32F
330
1F
100
AcDbEntity
  8
0226_下階梁情報
  6
Continuous
 62
     7
370
     5
100
AcDbLine
 10
-392.2015874893941
 20
-268.3350231867377
 30
0.0
 11
-392.2015874893941
 21
-269.8353030901495
 31
0.0
  0
LINE
  5
330
330
1F
100
AcDbEntity
  8
0226_下階梁情報
  6
Continuous
 62
     7
370
     5
100
AcDbLine
 10
-392.2015874893941
 20
-269.8353030901495
 30
0.0
 11
-393.7013738663472
 21
-269.8353030901495
 31
0.0
  0
LINE
  5
331
330
1F
100
AcDbEntity
  8
0226_下階梁情報
  6
Continuous
 62
     7
370
     5
100
AcDbLine
 10
-342.9455488236226
 20
-272.5425448637549
 30
0.0
 11
-342.9455488236226
 21
-271.042264960343
 31
0.0
  0
LINE
  5
332
330
1F
100
AcDbEntity
  8
0226_下階梁情報
  6
Continuous
 62
     7
370
     5
100
AcDbLine
 10
-342.9455488236226
 20
-271.042264960343
 30
0.0
 11
-341.445266536025
 21
-271.042264960343
 31
0.0
  0
LINE
  5
333
330
1F
100
AcDbEntity
  8
0226_下階梁情報
  6
Continuous
 62
     7
370
     5
100
AcDbLine
 10
-341.445266536025
 20
-271.042264960343
 30
0.0
 11
-341.445266536025
 21
-272.5425448637549
 31
0.0
  0
LINE
  5
334
330
1F
100
AcDbEntity
  8
0226_下階梁情報
  6
Continuous
 62
     7
370
     5
100
AcDbLine
 10
-341.445266536025
 20
-272.5425448637549
 30
0.0
 11
-342.9455488236226
 21
-272.5425448637549
 31
0.0
  0
LINE
  5
335
330
1F
100
AcDbEntity
  8
0226_下階梁情報
  6
Continuous
 62
     7
370
     5
100
AcDbLine
 10
-277.9782026322164
 20
-270.5121138315741
 30
0.0
 11
-277.9782026322164
 21
-269.0118339281622
 31
0.0
  0
LINE
  5
336
330
1F
100
AcDbEntity
  8
0226_下階梁情報
  6
Continuous
 62
     7
370
     5
100
AcDbLine
 10
-277.9782026322164
 20
-269.0118339281622
 30
0.0
 11
-276.4779203446187
 21
-269.0118339281622
 31
0.0
  0
LINE
  5
337
330
1F
100
AcDbEntity
  8
0226_下階梁情報
  6
Continuous
 62
     7
370
     5
100
AcDbLine
 10
-276.4779203446187
 20
-269.0118339281622
 30
0.0
 11
-276.4779203446187
 21
-270.5121138315741
 31
0.0
  0
LINE
  5
338
330
1F
100
AcDbEntity
  8
0226_下階梁情報
  6
Continuous
 62
     7
370
     5
100
AcDbLine
 10
-276.4779203446187
 20
-270.5121138315741
 30
0.0
 11
-277.9782026322164
 21
-270.5121138315741
 31
0.0
  0
LINE
  5
339
330
1F
100
AcDbEntity
  8
0226_下階梁情報
  6
Continuous
 62
     7
370
     5
100
AcDbLine
 10
-302.3409193070211
 20
-302.9960360746924
 30
0.0
 11
-302.3409193070211
 21
-301.4957585554663
 31
0.0
  0
LINE
  5
33A
330
1F
100
AcDbEntity
  8
0226_下階梁情報
  6
Continuous
 62
     7
370
     5
100
AcDbLine
 10
-302.3409193070211
 20
-301.4957585554663
 30
0.0
 11
-300.8406370194234
 21
-301.4957585554663
 31
0.0
  0
LINE
  5
33B
330
1F
100
AcDbEntity
  8
0226_下階梁情報
  6
Continuous
 62
     7
370
     5
100
AcDbLine
 10
-300.8406370194234
 20
-301.4957585554663
 30
0.0
 11
-300.8406370194234
 21
-302.9960360746924
 31
0.0
  0
LINE
  5
33C
330
1F
100
AcDbEntity
  8
0226_下階梁情報
  6
Continuous
 62
     7
370
     5
100
AcDbLine
 10
-300.8406370194234
 20
-302.9960360746924
 30
0.0
 11
-302.3409193070211
 21
-302.9960360746924
 31
0.0
  0
LINE
  5
33D
330
1F
100
AcDbEntity
  8
0226_下階梁情報
  6
Continuous
 62
     7
370
     5
100
AcDbLine
 10
-352.9059522660054
 20
-306.9270863752905
 30
0.0
 11
-352.9059522660054
 21
-305.4268088560644
 31
0.0
  0
LINE
  5
33E
330
1F
100
AcDbEntity
  8
0226_下階梁情報
  6
Continuous
 62
     7
370
     5
100
AcDbLine
 10
-352.9059522660054
 20
-305.4268088560644
 30
0.0
 11
-351.4061658890523
 21
-305.4268088560644
 31
0.0
  0
LINE
  5
33F
330
1F
100
AcDbEntity
  8
0226_下階梁情報
  6
Continuous
 62
     7
370
     5
100
AcDbLine
 10
-351.4061658890523
 20
-305.4268088560644
 30
0.0
 11
-351.4061658890523
 21
-306.9270863752905
 31
0.0
  0
LINE
  5
340
330
1F
100
AcDbEntity
  8
0226_下階梁情報
  6
Continuous
 62
     7
370
     5
100
AcDbLine
 10
-351.4061658890523
 20
-306.9270863752905
 30
0.0
 11
-352.9059522660054
 21
-306.9270863752905
 31
0.0
  0
LINE
  5
341
330
1F
100
AcDbEntity
  8
0226_下階梁情報
  6
Continuous
 62
     7
370
     5
100
AcDbLine
 10
-370.0154798538961
 20
-340.8939519148413
 30
0.0
 11
-370.0154798538961
 21
-339.3936696272436
 31
0.0
  0
LINE
  5
342
330
1F
100
AcDbEntity
  8
0226_下階梁情報
  6
Continuous
 62
     7
370
     5
100
AcDbLine
 10
-370.0154798538961
 20
-339.3936696272436
 30
0.0
 11
-368.5151975662984
 21
-339.3936696272436
 31
0.0
  0
LINE
  5
343
330
1F
100
AcDbEntity
  8
0226_下階梁情報
  6
Continuous
 62
     7
370
     5
100
AcDbLine
 10
-368.5151975662984
 20
-339.3936696272436
 30
0.0
 11
-368.5151975662984
 21
-340.8939519148413
 31
0.0
  0
LINE
  5
344
330
1F
100
AcDbEntity
  8
0226_下階梁情報
  6
Continuous
 62
     7
370
     5
100
AcDbLine
 10
-368.5151975662984
 20
-340.8939519148413
 30
0.0
 11
-370.0154798538961
 21
-340.8939519148413
 31
0.0
  0
LINE
  5
345
330
1F
100
AcDbEntity
  8
0226_下階梁情報
  6
Continuous
 62
     7
370
     5
100
AcDbLine
 10
-401.3717382462301
 20
-326.3222136717383
 30
0.0
 11
-401.3717382462301
 21
-324.8219313841406
 31
0.0
  0
LINE
  5
346
330
1F
100
AcDbEntity
  8
0226_下階梁情報
  6
Continuous
 62
     7
370
     5
100
AcDbLine
 10
-401.3717382462301
 20
-324.8219313841406
 30
0.0
 11
-399.8719518692769
 21
-324.8219313841406
 31
0.0
  0
LINE
  5
347
330
1F
100
AcDbEntity
  8
0226_下階梁情報
  6
Continuous
 62
     7
370
     5
100
AcDbLine
 10
-399.8719518692769
 20
-324.8219313841406
 30
0.0
 11
-399.8719518692769
 21
-326.3222136717383
 31
0.0
  0
LINE
  5
348
330
1F
100
AcDbEntity
  8
0226_下階梁情報
  6
Continuous
 62
     7
370
     5
100
AcDbLine
 10
-399.8719518692769
 20
-326.3222136717383
 30
0.0
 11
-401.3717382462301
 21
-326.3222136717383
 31
0.0
  0
LINE
  5
349
330
1F
100
AcDbEntity
  8
0226_下階梁情報
  6
Continuous
 62
     7
370
     5
100
AcDbLine
 10
-412.0961492569722
 20
-367.5422444563452
 30
0.0
 11
-412.0961492569722
 21
-366.0419621687475
 31
0.0
  0
LINE
  5
34A
330
1F
100
AcDbEntity
  8
0226_下階梁情報
  6
Continuous
 62
     7
370
     5
100
AcDbLine
 10
-412.0961492569722
 20
-366.0419621687475
 30
0.0
 11
-410.5958669693746
 21
-366.0419621687475
 31
0.0
  0
LINE
  5
34B
330
1F
100
AcDbEntity
  8
0226_下階梁情報
  6
Continuous
 62
     7
370
     5
100
AcDbLine
 10
-410.5958669693746
 20
-366.0419621687475
 30
0.0
 11
-410.5958669693746
 21
-367.5422444563452
 31
0.0
  0
LINE
  5
34C
330
1F
100
AcDbEntity
  8
0226_下階梁情報
  6
Continuous
 62
     7
370
     5
100
AcDbLine
 10
-410.5958669693746
 20
-367.5422444563452
 30
0.0
 11
-412.0961492569722
 21
-367.5422444563452
 31
0.0
  0
LINE
  5
34D
330
1F
100
AcDbEntity
  8
0226_下階梁情報
  6
Continuous
 62
     7
370
     5
100
AcDbLine
 10
-374.7526853592672
 20
-376.0846200209204
 30
0.0
 11
-374.7526853592672
 21
-374.5843377333227
 31
0.0
  0
LINE
  5
34E
330
1F
100
AcDbEntity
  8
0226_下階梁情報
  6
Continuous
 62
     7
370
     5
100
AcDbLine
 10
-374.7526853592672
 20
-374.5843377333227
 30
0.0
 11
-373.2524030716695
 21
-374.5843377333227
 31
0.0
  0
LINE
  5
34F
330
1F
100
AcDbEntity
  8
0226_下階梁情報
  6
Continuous
 62
     7
370
     5
100
AcDbLine
 10
-373.2524030716695
 20
-374.5843377333227
 30
0.0
 11
-373.2524030716695
 21
-376.0846200209204
 31
0.0
  0
LINE
  5
350
330
1F
100
AcDbEntity
  8
0226_下階梁情報
  6
Continuous
 62
     7
370
     5
100
AcDbLine
 10
-373.2524030716695
 20
-376.0846200209204
 30
0.0
 11
-374.7526853592672
 21
-376.0846200209204
 31
0.0
  0
LINE
  5
351
330
1F
100
AcDbEntity
  8
0226_下階梁情報
  6
Continuous
 62
     7
370
     5
100
AcDbLine
 10
-322.5475996048726
 20
-380.8094086866919
 30
0.0
 11
-322.5475996048726
 21
-379.3091263990942
 31
0.0
  0
LINE
  5
352
330
1F
100
AcDbEntity
  8
0226_下階梁情報
  6
Continuous
 62
     7
370
     5
100
AcDbLine
 10
-322.5475996048726
 20
-379.3091263990942
 30
0.0
 11
-321.0478132279195
 21
-379.3091263990942
 31
0.0
  0
LINE
  5
353
330
1F
100
AcDbEntity
  8
0226_下階梁情報
  6
Continuous
 62
     7
370
     5
100
AcDbLine
 10
-321.0478132279195
 20
-379.3091263990942
 30
0.0
 11
-321.0478132279195
 21
-380.8094086866919
 31
0.0
  0
LINE
  5
354
330
1F
100
AcDbEntity
  8
0226_下階梁情報
  6
Continuous
 62
     7
370
     5
100
AcDbLine
 10
-321.0478132279195
 20
-380.8094086866919
 30
0.0
 11
-322.5475996048726
 21
-380.8094086866919
 31
0.0
  0
LINE
  5
355
330
1F
100
AcDbEntity
  8
0226_下階梁情報
  6
Continuous
 62
     7
370
     5
100
AcDbLine
 10
-267.8270261795797
 20
-374.0541901808325
 30
0.0
 11
-267.8270261795797
 21
-372.5539078932349
 31
0.0
  0
LINE
  5
356
330
1F
100
AcDbEntity
  8
0226_下階梁情報
  6
Continuous
 62
     7
370
     5
100
AcDbLine
 10
-267.8270261795797
 20
-372.5539078932349
 30
0.0
 11
-266.3267820389547
 21
-372.5539078932349
 31
0.0
  0
LINE
  5
357
330
1F
100
AcDbEntity
  8
0226_下階梁情報
  6
Continuous
 62
     7
370
     5
100
AcDbLine
 10
-266.3267820389547
 20
-372.5539078932349
 30
0.0
 11
-266.3267820389547
 21
-374.0541901808325
 31
0.0
  0
LINE
  5
358
330
1F
100
AcDbEntity
  8
0226_下階梁情報
  6
Continuous
 62
     7
370
     5
100
AcDbLine
 10
-266.3267820389547
 20
-374.0541901808325
 30
0.0
 11
-267.8270261795797
 21
-374.0541901808325
 31
0.0
  0
LINE
  5
359
330
1F
100
AcDbEntity
  8
0226_下階梁情報
  6
Continuous
 62
     7
370
     5
100
AcDbLine
 10
-280.0076597245015
 20
-334.1263451796118
 30
0.0
 11
-280.0076597245015
 21
-332.6260628920141
 31
0.0
  0
LINE
  5
35A
330
1F
100
AcDbEntity
  8
0226_下階梁情報
  6
Continuous
 62
     7
370
     5
100
AcDbLine
 10
-280.0076597245015
 20
-332.6260628920141
 30
0.0
 11
-278.5073774369039
 21
-332.6260628920141
 31
0.0
  0
LINE
  5
35B
330
1F
100
AcDbEntity
  8
0226_下階梁情報
  6
Continuous
 62
     7
370
     5
100
AcDbLine
 10
-278.5073774369039
 20
-332.6260628920141
 30
0.0
 11
-278.5073774369039
 21
-334.1263451796118
 31
0.0
  0
LINE
  5
35C
330
1F
100
AcDbEntity
  8
0226_下階梁情報
  6
Continuous
 62
     7
370
     5
100
AcDbLine
 10
-278.5073774369039
 20
-334.1263451796118
 30
0.0
 11
-280.0076597245015
 21
-334.1263451796118
 31
0.0
  0
LINE
  5
35D
330
1F
100
AcDbEntity
  8
0226_下階梁情報
  6
Continuous
 62
     7
370
     5
100
AcDbLine
 10
-321.0369031937398
 20
-343.2439580183569
 30
0.0
 11
-321.0369031937398
 21
-341.7436757307593
 31
0.0
  0
LINE
  5
35E
330
1F
100
AcDbEntity
  8
0226_下階梁情報
  6
Continuous
 62
     7
370
     5
100
AcDbLine
 10
-321.0369031937398
 20
-341.7436757307593
 30
0.0
 11
-319.5371549637593
 21
-341.7436757307593
 31
0.0
  0
LINE
  5
35F
330
1F
100
AcDbEntity
  8
0226_下階梁情報
  6
Continuous
 62
     7
370
     5
100
AcDbLine
 10
-319.5371549637593
 20
-341.7436757307593
 30
0.0
 11
-319.5371549637593
 21
-343.2439580183569
 31
0.0
  0
LINE
  5
360
330
1F
100
AcDbEntity
  8
0226_下階梁情報
  6
Continuous
 62
     7
370
     5
100
AcDbLine
 10
-319.5371549637593
 20
-343.2439580183569
 30
0.0
 11
-321.0369031937398
 21
-343.2439580183569
 31
0.0
  0
LINE
  5
361
330
1F
100
AcDbEntity
  8
0226_下階梁情報
  6
Continuous
 62
     7
370
     5
100
AcDbLine
 10
-260.551597407607
 20
-303.7555899839941
 30
0.0
 11
-260.551597407607
 21
-302.2553124647681
 31
0.0
  0
LINE
  5
362
330
1F
100
AcDbEntity
  8
0226_下階梁情報
  6
Continuous
 62
     7
370
     5
100
AcDbLine
 10
-260.551597407607
 20
-302.2553124647681
 30
0.0
 11
-259.0513151200093
 21
-302.2553124647681
 31
0.0
  0
LINE
  5
363
330
1F
100
AcDbEntity
  8
0226_下階梁情報
  6
Continuous
 62
     7
370
     5
100
AcDbLine
 10
-259.0513151200093
 20
-302.2553124647681
 30
0.0
 11
-259.0513151200093
 21
-303.7555899839941
 31
0.0
  0
LINE
  5
364
330
1F
100
AcDbEntity
  8
0226_下階梁情報
  6
Continuous
 62
     7
370
     5
100
AcDbLine
 10
-259.0513151200093
 20
-303.7555899839941
 30
0.0
 11
-260.551597407607
 21
-303.7555899839941
 31
0.0
  0
LINE
  5
365
330
1F
100
AcDbEntity
  8
0226_下階梁情報
  6
Continuous
 62
     7
370
     5
100
AcDbLine
 10
-414.5526807816304
 20
-292.8627124052588
 30
0.0
 11
-414.5526807816304
 21
-291.3624301176611
 31
0.0
  0
LINE
  5
366
330
1F
100
AcDbEntity
  8
0226_下階梁情報
  6
Continuous
 62
     7
370
     5
100
AcDbLine
 10
-414.5526807816304
 20
-291.3624301176611
 30
0.0
 11
-413.0524175675191
 21
-291.3624301176611
 31
0.0
  0
LINE
  5
367
330
1F
100
AcDbEntity
  8
0226_下階梁情報
  6
Continuous
 62
     7
370
     5
100
AcDbLine
 10
-413.0524175675191
 20
-291.3624301176611
 30
0.0
 11
-413.0524175675191
 21
-292.8627124052588
 31
0.0
  0
LINE
  5
368
330
1F
100
AcDbEntity
  8
0226_下階梁情報
  6
Continuous
 62
     7
370
     5
100
AcDbLine
 10
-413.0524175675191
 20
-292.8627124052588
 30
0.0
 11
-414.5526807816304
 21
-292.8627124052588
 31
0.0
  0
LINE
  5
369
330
1F
100
AcDbEntity
  8
0226_下階梁情報
  6
Continuous
 62
     7
370
     5
100
AcDbLine
 10
-497.9024236710347
 20
-416.1130490522925
 30
0.0
 11
-497.9024236710347
 21
-414.6127667646948
 31
0.0
  0
LINE
  5
36A
330
1F
100
AcDbEntity
  8
0226_下階梁情報
  6
Continuous
 62
     7
370
     5
100
AcDbLine
 10
-497.9024236710347
 20
-414.6127667646948
 30
0.0
 11
-496.4021413834371
 21
-414.6127667646948
 31
0.0
  0
LINE
  5
36B
330
1F
100
AcDbEntity
  8
0226_下階梁情報
  6
Continuous
 62
     7
370
     5
100
AcDbLine
 10
-496.4021413834371
 20
-414.6127667646948
 30
0.0
 11
-496.4021413834371
 21
-416.1130490522925
 31
0.0
  0
LINE
  5
36C
330
1F
100
AcDbEntity
  8
0226_下階梁情報
  6
Continuous
 62
     7
370
     5
100
AcDbLine
 10
-496.4021413834371
 20
-416.1130490522925
 30
0.0
 11
-497.9024236710347
 21
-416.1130490522925
 31
0.0
  0
LINE
  5
36D
330
1F
100
AcDbEntity
  8
0226_下階梁情報
  6
Continuous
 62
     7
370
     5
100
AcDbLine
 10
-448.5378759415426
 20
-424.01132252031
 30
0.0
 11
-448.5378759415426
 21
-422.5110402327124
 31
0.0
  0
LINE
  5
36E
330
1F
100
AcDbEntity
  8
0226_下階梁情報
  6
Continuous
 62
     7
370
     5
100
AcDbLine
 10
-448.5378759415426
 20
-422.5110402327124
 30
0.0
 11
-447.0376127274312
 21
-422.5110402327124
 31
0.0
  0
LINE
  5
36F
330
1F
100
AcDbEntity
  8
0226_下階梁情報
  6
Continuous
 62
     7
370
     5
100
AcDbLine
 10
-447.0376127274312
 20
-422.5110402327124
 30
0.0
 11
-447.0376127274312
 21
-424.01132252031
 31
0.0
  0
LINE
  5
370
330
1F
100
AcDbEntity
  8
0226_下階梁情報
  6
Continuous
 62
     7
370
     5
100
AcDbLine
 10
-447.0376127274312
 20
-424.01132252031
 30
0.0
 11
-448.5378759415426
 21
-424.01132252031
 31
0.0
  0
LINE
  5
371
330
1F
100
AcDbEntity
  8
0226_下階梁情報
  6
Continuous
 62
     7
370
     5
100
AcDbLine
 10
-465.4189985306539
 20
-444.5920911055151
 30
0.0
 11
-465.4189985306539
 21
-443.0918088179175
 31
0.0
  0
LINE
  5
372
330
1F
100
AcDbEntity
  8
0226_下階梁情報
  6
Continuous
 62
     7
370
     5
100
AcDbLine
 10
-465.4189985306539
 20
-443.0918088179175
 30
0.0
 11
-463.9192121537008
 21
-443.0918088179175
 31
0.0
  0
LINE
  5
373
330
1F
100
AcDbEntity
  8
0226_下階梁情報
  6
Continuous
 62
     7
370
     5
100
AcDbLine
 10
-463.9192121537008
 20
-443.0918088179175
 30
0.0
 11
-463.9192121537008
 21
-444.5920911055151
 31
0.0
  0
LINE
  5
374
330
1F
100
AcDbEntity
  8
0226_下階梁情報
  6
Continuous
 62
     7
370
     5
100
AcDbLine
 10
-463.9192121537008
 20
-444.5920911055151
 30
0.0
 11
-465.4189985306539
 21
-444.5920911055151
 31
0.0
  0
LINE
  5
375
330
1F
100
AcDbEntity
  8
0226_下階梁情報
  6
Continuous
 62
     7
370
     5
100
AcDbLine
 10
-513.6989706070699
 20
-479.3001713972632
 30
0.0
 11
-513.6989706070699
 21
-477.7999081831518
 31
0.0
  0
LINE
  5
376
330
1F
100
AcDbEntity
  8
0226_下階梁情報
  6
Continuous
 62
     7
370
     5
100
AcDbLine
 10
-513.6989706070699
 20
-477.7999081831518
 30
0.0
 11
-512.1991842301168
 21
-477.7999081831518
 31
0.0
  0
LINE
  5
377
330
1F
100
AcDbEntity
  8
0226_下階梁情報
  6
Continuous
 62
     7
370
     5
100
AcDbLine
 10
-512.1991842301168
 20
-477.7999081831518
 30
0.0
 11
-512.1991842301168
 21
-479.3001713972632
 31
0.0
  0
LINE
  5
378
330
1F
100
AcDbEntity
  8
0226_下階梁情報
  6
Continuous
 62
     7
370
     5
100
AcDbLine
 10
-512.1991842301168
 20
-479.3001713972632
 30
0.0
 11
-513.6989706070699
 21
-479.3001713972632
 31
0.0
  0
LINE
  5
379
330
1F
100
AcDbEntity
  8
0226_下階梁情報
  6
Continuous
 62
     7
370
     5
100
AcDbLine
 10
-442.6140516312398
 20
-477.3252454023901
 30
0.0
 11
-442.6140516312398
 21
-475.8249631147925
 31
0.0
  0
LINE
  5
37A
330
1F
100
AcDbEntity
  8
0226_下階梁情報
  6
Continuous
 62
     7
370
     5
100
AcDbLine
 10
-442.6140516312398
 20
-475.8249631147925
 30
0.0
 11
-441.1137693436422
 21
-475.8249631147925
 31
0.0
  0
LINE
  5
37B
330
1F
100
AcDbEntity
  8
0226_下階梁情報
  6
Continuous
 62
     7
370
     5
100
AcDbLine
 10
-441.1137693436422
 20
-475.8249631147925
 30
0.0
 11
-441.1137693436422
 21
-477.3252454023901
 31
0.0
  0
LINE
  5
37C
330
1F
100
AcDbEntity
  8
0226_下階梁情報
  6
Continuous
 62
     7
370
     5
100
AcDbLine
 10
-441.1137693436422
 20
-477.3252454023901
 30
0.0
 11
-442.6140516312398
 21
-477.3252454023901
 31
0.0
  0
LINE
  5
37D
330
1F
100
AcDbEntity
  8
0226_下階梁情報
  6
Continuous
 62
     7
370
     5
100
AcDbLine
 10
-499.8768728287496
 20
-445.7321706038061
 30
0.0
 11
-499.8768728287496
 21
-444.2318883162085
 31
0.0
  0
LINE
  5
37E
330
1F
100
AcDbEntity
  8
0226_下階梁情報
  6
Continuous
 62
     7
370
     5
100
AcDbLine
 10
-499.8768728287496
 20
-444.2318883162085
 30
0.0
 11
-498.3770864517965
 21
-444.2318883162085
 31
0.0
  0
LINE
  5
37F
330
1F
100
AcDbEntity
  8
0226_下階梁情報
  6
Continuous
 62
     7
370
     5
100
AcDbLine
 10
-498.3770864517965
 20
-444.2318883162085
 30
0.0
 11
-498.3770864517965
 21
-445.7321706038061
 31
0.0
  0
LINE
  5
380
330
1F
100
AcDbEntity
  8
0226_下階梁情報
  6
Continuous
 62
     7
370
     5
100
AcDbLine
 10
-498.3770864517965
 20
-445.7321706038061
 30
0.0
 11
-499.8768728287496
 21
-445.7321706038061
 31
0.0
  0
LINE
  5
381
330
1F
100
AcDbEntity
  8
0226_下階梁情報
  6
Continuous
 62
     7
370
     5
100
AcDbLine
 10
-468.0098073990621
 20
-401.8534531813208
 30
0.0
 11
-468.0098073990621
 21
-400.3531708937231
 31
0.0
  0
LINE
  5
382
330
1F
100
AcDbEntity
  8
0226_下階梁情報
  6
Continuous
 62
     7
370
     5
100
AcDbLine
 10
-468.0098073990621
 20
-400.3531708937231
 30
0.0
 11
-466.5095251114644
 21
-400.3531708937231
 31
0.0
  0
LINE
  5
383
330
1F
100
AcDbEntity
  8
0226_下階梁情報
  6
Continuous
 62
     7
370
     5
100
AcDbLine
 10
-466.5095251114644
 20
-400.3531708937231
 30
0.0
 11
-466.5095251114644
 21
-401.8534531813208
 31
0.0
  0
LINE
  5
384
330
1F
100
AcDbEntity
  8
0226_下階梁情報
  6
Continuous
 62
     7
370
     5
100
AcDbLine
 10
-466.5095251114644
 20
-401.8534531813208
 30
0.0
 11
-468.0098073990621
 21
-401.8534531813208
 31
0.0
  0
LINE
  5
385
330
1F
100
AcDbEntity
  8
0226_下階梁情報
  6
Continuous
 62
     7
370
     5
100
AcDbLine
 10
-477.2934072525777
 20
-473.2931103926245
 30
0.0
 11
-477.2934072525777
 21
-471.7928281050268
 31
0.0
  0
LINE
  5
386
330
1F
100
AcDbEntity
  8
0226_下階梁情報
  6
Continuous
 62
     7
370
     5
100
AcDbLine
 10
-477.2934072525777
 20
-471.7928281050268
 30
0.0
 11
-475.7931249649801
 21
-471.7928281050268
 31
0.0
  0
LINE
  5
387
330
1F
100
AcDbEntity
  8
0226_下階梁情報
  6
Continuous
 62
     7
370
     5
100
AcDbLine
 10
-475.7931249649801
 20
-471.7928281050268
 30
0.0
 11
-475.7931249649801
 21
-473.2931103926245
 31
0.0
  0
LINE
  5
388
330
1F
100
AcDbEntity
  8
0226_下階梁情報
  6
Continuous
 62
     7
370
     5
100
AcDbLine
 10
-475.7931249649801
 20
-473.2931103926245
 30
0.0
 11
-477.2934072525777
 21
-473.2931103926245
 31
0.0
  0
LINE
  5
389
330
1F
100
AcDbEntity
  8
0226_下階梁情報
  6
Continuous
 62
     7
370
     5
100
AcDbLine
 10
-652.9242008240499
 20
-261.3325634222571
 30
0.0
 11
-652.9242008240499
 21
-259.8322841148916
 31
0.0
  0
LINE
  5
38A
330
1F
100
AcDbEntity
  8
0226_下階梁情報
  6
Continuous
 62
     7
370
     5
100
AcDbLine
 10
-652.9242008240499
 20
-259.8322841148916
 30
0.0
 11
-651.4239233048238
 21
-259.8322841148916
 31
0.0
  0
LINE
  5
38B
330
1F
100
AcDbEntity
  8
0226_下階梁情報
  6
Continuous
 62
     7
370
     5
100
AcDbLine
 10
-651.4239233048238
 20
-259.8322841148916
 30
0.0
 11
-651.4239233048238
 21
-261.3325634222571
 31
0.0
  0
LINE
  5
38C
330
1F
100
AcDbEntity
  8
0226_下階梁情報
  6
Continuous
 62
     7
370
     5
100
AcDbLine
 10
-651.4239233048238
 20
-261.3325634222571
 30
0.0
 11
-652.9242008240499
 21
-261.3325634222571
 31
0.0
  0
LINE
  5
38D
330
1F
100
AcDbEntity
  8
0226_下階梁情報
  6
Continuous
 62
     7
370
     5
100
AcDbLine
 10
-624.7320287735738
 20
-270.1841130476538
 30
0.0
 11
-624.7320287735738
 21
-268.6838343363348
 31
0.0
  0
LINE
  5
38E
330
1F
100
AcDbEntity
  8
0226_下階梁情報
  6
Continuous
 62
     7
370
     5
100
AcDbLine
 10
-624.7320287735738
 20
-268.6838343363348
 30
0.0
 11
-623.2317512543477
 21
-268.6838343363348
 31
0.0
  0
LINE
  5
38F
330
1F
100
AcDbEntity
  8
0226_下階梁情報
  6
Continuous
 62
     7
370
     5
100
AcDbLine
 10
-623.2317512543477
 20
-268.6838343363348
 30
0.0
 11
-623.2317512543477
 21
-270.1841130476538
 31
0.0
  0
LINE
  5
390
330
1F
100
AcDbEntity
  8
0226_下階梁情報
  6
Continuous
 62
     7
370
     5
100
AcDbLine
 10
-623.2317512543477
 20
-270.1841130476538
 30
0.0
 11
-624.7320287735738
 21
-270.1841130476538
 31
0.0
  0
LINE
  5
391
330
1F
100
AcDbEntity
  8
0226_下階梁情報
  6
Continuous
 62
     7
370
     5
100
AcDbLine
 10
-595.3081243546285
 20
-320.2958264570776
 30
0.0
 11
-595.3081243546285
 21
-318.79554416948
 31
0.0
  0
LINE
  5
392
330
1F
100
AcDbEntity
  8
0226_下階梁情報
  6
Continuous
 62
     7
370
     5
100
AcDbLine
 10
-595.3081243546285
 20
-318.79554416948
 30
0.0
 11
-593.8083379776754
 21
-318.79554416948
 31
0.0
  0
LINE
  5
393
330
1F
100
AcDbEntity
  8
0226_下階梁情報
  6
Continuous
 62
     7
370
     5
100
AcDbLine
 10
-593.8083379776754
 20
-318.79554416948
 30
0.0
 11
-593.8083379776754
 21
-320.2958264570776
 31
0.0
  0
LINE
  5
394
330
1F
100
AcDbEntity
  8
0226_下階梁情報
  6
Continuous
 62
     7
370
     5
100
AcDbLine
 10
-593.8083379776754
 20
-320.2958264570776
 30
0.0
 11
-595.3081243546285
 21
-320.2958264570776
 31
0.0
  0
LINE
  5
395
330
1F
100
AcDbEntity
  8
0226_下階梁情報
  6
Continuous
 62
     7
370
     5
100
AcDbLine
 10
-536.9166296036519
 20
-267.3401227217261
 30
0.0
 11
-536.9166296036519
 21
-265.8398428183142
 31
0.0
  0
LINE
  5
396
330
1F
100
AcDbEntity
  8
0226_下階梁情報
  6
Continuous
 62
     7
370
     5
100
AcDbLine
 10
-536.9166296036519
 20
-265.8398428183142
 30
0.0
 11
-535.4168432266988
 21
-265.8398428183142
 31
0.0
  0
LINE
  5
397
330
1F
100
AcDbEntity
  8
0226_下階梁情報
  6
Continuous
 62
     7
370
     5
100
AcDbLine
 10
-535.4168432266988
 20
-265.8398428183142
 30
0.0
 11
-535.4168432266988
 21
-267.3401227217261
 31
0.0
  0
LINE
  5
398
330
1F
100
AcDbEntity
  8
0226_下階梁情報
  6
Continuous
 62
     7
370
     5
100
AcDbLine
 10
-535.4168432266988
 20
-267.3401227217261
 30
0.0
 11
-536.9166296036519
 21
-267.3401227217261
 31
0.0
  0
LINE
  5
399
330
1F
100
AcDbEntity
  8
0226_下階梁情報
  6
Continuous
 62
     7
370
     5
100
AcDbLine
 10
-501.9855802567281
 20
-261.9414952021185
 30
0.0
 11
-501.9855802567281
 21
-260.4412152987067
 31
0.0
  0
LINE
  5
39A
330
1F
100
AcDbEntity
  8
0226_下階梁情報
  6
Continuous
 62
     7
370
     5
100
AcDbLine
 10
-501.9855802567281
 20
-260.4412152987067
 30
0.0
 11
-500.485793879775
 21
-260.4412152987067
 31
0.0
  0
LINE
  5
39B
330
1F
100
AcDbEntity
  8
0226_下階梁情報
  6
Continuous
 62
     7
370
     5
100
AcDbLine
 10
-500.485793879775
 20
-260.4412152987067
 30
0.0
 11
-500.485793879775
 21
-261.9414952021185
 31
0.0
  0
LINE
  5
39C
330
1F
100
AcDbEntity
  8
0226_下階梁情報
  6
Continuous
 62
     7
370
     5
100
AcDbLine
 10
-500.485793879775
 20
-261.9414952021185
 30
0.0
 11
-501.9855802567281
 21
-261.9414952021185
 31
0.0
  0
LINE
  5
39D
330
1F
100
AcDbEntity
  8
0226_下階梁情報
  6
Continuous
 62
     7
370
     5
100
AcDbLine
 10
-505.8150594742574
 20
-286.6733136396948
 30
0.0
 11
-505.8150594742574
 21
-285.1730337362829
 31
0.0
  0
LINE
  5
39E
330
1F
100
AcDbEntity
  8
0226_下階梁情報
  6
Continuous
 62
     7
370
     5
100
AcDbLine
 10
-505.8150594742574
 20
-285.1730337362829
 30
0.0
 11
-504.3147771866597
 21
-285.1730337362829
 31
0.0
  0
LINE
  5
39F
330
1F
100
AcDbEntity
  8
0226_下階梁情報
  6
Continuous
 62
     7
370
     5
100
AcDbLine
 10
-504.3147771866597
 20
-285.1730337362829
 30
0.0
 11
-504.3147771866597
 21
-286.6733136396948
 31
0.0
  0
LINE
  5
3A0
330
1F
100
AcDbEntity
  8
0226_下階梁情報
  6
Continuous
 62
     7
370
     5
100
AcDbLine
 10
-504.3147771866597
 20
-286.6733136396948
 30
0.0
 11
-505.8150594742574
 21
-286.6733136396948
 31
0.0
  0
LINE
  5
3A1
330
1F
100
AcDbEntity
  8
0226_下階梁情報
  6
Continuous
 62
     7
370
     5
100
AcDbLine
 10
-497.2414701493062
 20
-319.6423020582739
 30
0.0
 11
-497.2414701493062
 21
-318.1420245390478
 31
0.0
  0
LINE
  5
3A2
330
1F
100
AcDbEntity
  8
0226_下階梁情報
  6
Continuous
 62
     7
370
     5
100
AcDbLine
 10
-497.2414701493062
 20
-318.1420245390478
 30
0.0
 11
-495.7411878617086
 21
-318.1420245390478
 31
0.0
  0
LINE
  5
3A3
330
1F
100
AcDbEntity
  8
0226_下階梁情報
  6
Continuous
 62
     7
370
     5
100
AcDbLine
 10
-495.7411878617086
 20
-318.1420245390478
 30
0.0
 11
-495.7411878617086
 21
-319.6423020582739
 31
0.0
  0
LINE
  5
3A4
330
1F
100
AcDbEntity
  8
0226_下階梁情報
  6
Continuous
 62
     7
370
     5
100
AcDbLine
 10
-495.7411878617086
 20
-319.6423020582739
 30
0.0
 11
-497.2414701493062
 21
-319.6423020582739
 31
0.0
  0
LINE
  5
3A5
330
1F
100
AcDbEntity
  8
0226_下階梁情報
  6
Continuous
 62
     7
370
     5
100
AcDbLine
 10
-493.3183591873922
 20
-358.2150426130835
 30
0.0
 11
-493.3183591873922
 21
-356.7147603254858
 31
0.0
  0
LINE
  5
3A6
330
1F
100
AcDbEntity
  8
0226_下階梁情報
  6
Continuous
 62
     7
370
     5
100
AcDbLine
 10
-493.3183591873922
 20
-356.7147603254858
 30
0.0
 11
-491.818572810439
 21
-356.7147603254858
 31
0.0
  0
LINE
  5
3A7
330
1F
100
AcDbEntity
  8
0226_下階梁情報
  6
Continuous
 62
     7
370
     5
100
AcDbLine
 10
-491.818572810439
 20
-356.7147603254858
 30
0.0
 11
-491.818572810439
 21
-358.2150426130835
 31
0.0
  0
LINE
  5
3A8
330
1F
100
AcDbEntity
  8
0226_下階梁情報
  6
Continuous
 62
     7
370
     5
100
AcDbLine
 10
-491.818572810439
 20
-358.2150426130835
 30
0.0
 11
-493.3183591873922
 21
-358.2150426130835
 31
0.0
  0
LINE
  5
3A9
330
1F
100
AcDbEntity
  8
0226_下階梁情報
  6
Continuous
 62
     7
370
     5
100
AcDbLine
 10
-560.779401591567
 20
-282.4727287512366
 30
0.0
 11
-560.779401591567
 21
-280.9724512320105
 31
0.0
  0
LINE
  5
3AA
330
1F
100
AcDbEntity
  8
0226_下階梁情報
  6
Continuous
 62
     7
370
     5
100
AcDbLine
 10
-560.779401591567
 20
-280.9724512320105
 30
0.0
 11
-559.2791193039693
 21
-280.9724512320105
 31
0.0
  0
LINE
  5
3AB
330
1F
100
AcDbEntity
  8
0226_下階梁情報
  6
Continuous
 62
     7
370
     5
100
AcDbLine
 10
-559.2791193039693
 20
-280.9724512320105
 30
0.0
 11
-559.2791193039693
 21
-282.4727287512366
 31
0.0
  0
LINE
  5
3AC
330
1F
100
AcDbEntity
  8
0226_下階梁情報
  6
Continuous
 62
     7
370
     5
100
AcDbLine
 10
-559.2791193039693
 20
-282.4727287512366
 30
0.0
 11
-560.779401591567
 21
-282.4727287512366
 31
0.0
  0
LINE
  5
3AD
330
1F
100
AcDbEntity
  8
0226_下階梁情報
  6
Continuous
 62
     7
370
     5
100
AcDbLine
 10
-798.0405633957662
 20
-398.3415665846411
 30
0.0
 11
-798.0405633957662
 21
-396.8412938337866
 31
0.0
  0
LINE
  5
3AE
330
1F
100
AcDbEntity
  8
0226_下階梁情報
  6
Continuous
 62
     7
370
     5
100
AcDbLine
 10
-798.0405633957662
 20
-396.8412938337866
 30
0.0
 11
-796.5402906449117
 21
-396.8412938337866
 31
0.0
  0
LINE
  5
3AF
330
1F
100
AcDbEntity
  8
0226_下階梁情報
  6
Continuous
 62
     7
370
     5
100
AcDbLine
 10
-796.5402906449117
 20
-396.8412938337866
 30
0.0
 11
-796.5402906449117
 21
-398.3415665846411
 31
0.0
  0
LINE
  5
3B0
330
1F
100
AcDbEntity
  8
0226_下階梁情報
  6
Continuous
 62
     7
370
     5
100
AcDbLine
 10
-796.5402906449117
 20
-398.3415665846411
 30
0.0
 11
-798.0405633957662
 21
-398.3415665846411
 31
0.0
  0
LINE
  5
3B1
330
1F
100
AcDbEntity
  8
0226_下階梁情報
  6
Continuous
 62
     7
370
     5
100
AcDbLine
 10
-738.8023202927388
 20
-502.9949727278296
 30
0.0
 11
-738.8023202927388
 21
-501.4947095137182
 31
0.0
  0
LINE
  5
3B2
330
1F
100
AcDbEntity
  8
0226_下階梁情報
  6
Continuous
 62
     7
370
     5
100
AcDbLine
 10
-738.8023202927388
 20
-501.4947095137182
 30
0.0
 11
-737.3025339157857
 21
-501.4947095137182
 31
0.0
  0
LINE
  5
3B3
330
1F
100
AcDbEntity
  8
0226_下階梁情報
  6
Continuous
 62
     7
370
     5
100
AcDbLine
 10
-737.3025339157857
 20
-501.4947095137182
 30
0.0
 11
-737.3025339157857
 21
-502.9949727278296
 31
0.0
  0
LINE
  5
3B4
330
1F
100
AcDbEntity
  8
0226_下階梁情報
  6
Continuous
 62
     7
370
     5
100
AcDbLine
 10
-737.3025339157857
 20
-502.9949727278296
 30
0.0
 11
-738.8023202927388
 21
-502.9949727278296
 31
0.0
  0
LINE
  5
3B5
330
1F
100
AcDbEntity
  8
0226_下階梁情報
  6
Continuous
 62
     7
370
     5
100
AcDbLine
 10
-752.6249092133321
 20
-562.2327389936987
 30
0.0
 11
-752.6249092133321
 21
-560.7324567061011
 31
0.0
  0
LINE
  5
3B6
330
1F
100
AcDbEntity
  8
0226_下階梁情報
  6
Continuous
 62
     7
370
     5
100
AcDbLine
 10
-752.6249092133321
 20
-560.7324567061011
 30
0.0
 11
-751.1246269257344
 21
-560.7324567061011
 31
0.0
  0
LINE
  5
3B7
330
1F
100
AcDbEntity
  8
0226_下階梁情報
  6
Continuous
 62
     7
370
     5
100
AcDbLine
 10
-751.1246269257344
 20
-560.7324567061011
 30
0.0
 11
-751.1246269257344
 21
-562.2327389936987
 31
0.0
  0
LINE
  5
3B8
330
1F
100
AcDbEntity
  8
0226_下階梁情報
  6
Continuous
 62
     7
370
     5
100
AcDbLine
 10
-751.1246269257344
 20
-562.2327389936987
 30
0.0
 11
-752.6249092133321
 21
-562.2327389936987
 31
0.0
  0
LINE
  5
3B9
330
1F
100
AcDbEntity
  8
0226_下階梁情報
  6
Continuous
 62
     7
370
     5
100
AcDbLine
 10
-783.2310026200093
 20
-573.0929150801245
 30
0.0
 11
-783.2310026200093
 21
-571.5926327925268
 31
0.0
  0
LINE
  5
3BA
330
1F
100
AcDbEntity
  8
0226_下階梁情報
  6
Continuous
 62
     7
370
     5
100
AcDbLine
 10
-783.2310026200093
 20
-571.5926327925268
 30
0.0
 11
-781.7307298691549
 21
-571.5926327925268
 31
0.0
  0
LINE
  5
3BB
330
1F
100
AcDbEntity
  8
0226_下階梁情報
  6
Continuous
 62
     7
370
     5
100
AcDbLine
 10
-781.7307298691549
 20
-571.5926327925268
 30
0.0
 11
-781.7307298691549
 21
-573.0929150801245
 31
0.0
  0
LINE
  5
3BC
330
1F
100
AcDbEntity
  8
0226_下階梁情報
  6
Continuous
 62
     7
370
     5
100
AcDbLine
 10
-781.7307298691549
 20
-573.0929150801245
 30
0.0
 11
-783.2310026200093
 21
-573.0929150801245
 31
0.0
  0
LINE
  5
3BD
330
1F
100
AcDbEntity
  8
0226_下階梁情報
  6
Continuous
 62
     7
370
     5
100
AcDbLine
 10
-806.0845010788717
 20
-506.9443669539038
 30
0.0
 11
-806.0845010788717
 21
-505.4440846663061
 31
0.0
  0
LINE
  5
3BE
330
1F
100
AcDbEntity
  8
0226_下階梁情報
  6
Continuous
 62
     7
370
     5
100
AcDbLine
 10
-806.0845010788717
 20
-505.4440846663061
 30
0.0
 11
-804.5847147019185
 21
-505.4440846663061
 31
0.0
  0
LINE
  5
3BF
330
1F
100
AcDbEntity
  8
0226_下階梁情報
  6
Continuous
 62
     7
370
     5
100
AcDbLine
 10
-804.5847147019185
 20
-505.4440846663061
 30
0.0
 11
-804.5847147019185
 21
-506.9443669539038
 31
0.0
  0
LINE
  5
3C0
330
1F
100
AcDbEntity
  8
0226_下階梁情報
  6
Continuous
 62
     7
370
     5
100
AcDbLine
 10
-804.5847147019185
 20
-506.9443669539038
 30
0.0
 11
-806.0845010788717
 21
-506.9443669539038
 31
0.0
  0
LINE
  5
3C1
330
1F
100
AcDbEntity
  8
0226_下階梁情報
  6
Continuous
 62
     7
370
     5
100
AcDbLine
 10
-780.269090464858
 20
-485.2239957075659
 30
0.0
 11
-780.269090464858
 21
-483.7237324934546
 31
0.0
  0
LINE
  5
3C2
330
1F
100
AcDbEntity
  8
0226_下階梁情報
  6
Continuous
 62
     7
370
     5
100
AcDbLine
 10
-780.269090464858
 20
-483.7237324934546
 30
0.0
 11
-778.7688081772603
 21
-483.7237324934546
 31
0.0
  0
LINE
  5
3C3
330
1F
100
AcDbEntity
  8
0226_下階梁情報
  6
Continuous
 62
     7
370
     5
100
AcDbLine
 10
-778.7688081772603
 20
-483.7237324934546
 30
0.0
 11
-778.7688081772603
 21
-485.2239957075659
 31
0.0
  0
LINE
  5
3C4
330
1F
100
AcDbEntity
  8
0226_下階梁情報
  6
Continuous
 62
     7
370
     5
100
AcDbLine
 10
-778.7688081772603
 20
-485.2239957075659
 30
0.0
 11
-780.269090464858
 21
-485.2239957075659
 31
0.0
  0
LINE
  5
3C5
330
1F
100
AcDbEntity
  8
0226_下階梁情報
  6
Continuous
 62
     7
370
     5
100
AcDbLine
 10
-717.0819585831441
 20
-537.7169385176245
 30
0.0
 11
-717.0819585831441
 21
-536.2166562300268
 31
0.0
  0
LINE
  5
3C6
330
1F
100
AcDbEntity
  8
0226_下階梁情報
  6
Continuous
 62
     7
370
     5
100
AcDbLine
 10
-717.0819585831441
 20
-536.2166562300268
 30
0.0
 11
-715.5821745903768
 21
-536.2166562300268
 31
0.0
  0
LINE
  5
3C7
330
1F
100
AcDbEntity
  8
0226_下階梁情報
  6
Continuous
 62
     7
370
     5
100
AcDbLine
 10
-715.5821745903768
 20
-536.2166562300268
 30
0.0
 11
-715.5821745903768
 21
-537.7169385176245
 31
0.0
  0
LINE
  5
3C8
330
1F
100
AcDbEntity
  8
0226_下階梁情報
  6
Continuous
 62
     7
370
     5
100
AcDbLine
 10
-715.5821745903768
 20
-537.7169385176245
 30
0.0
 11
-717.0819585831441
 21
-537.7169385176245
 31
0.0
  0
LINE
  5
3C9
330
1F
100
AcDbEntity
  8
0226_下階梁情報
  6
Continuous
 62
     7
370
     5
100
AcDbLine
 10
-794.0911882431783
 20
-675.5960049849097
 30
0.0
 11
-794.0911882431783
 21
-674.095722697312
 31
0.0
  0
LINE
  5
3CA
330
1F
100
AcDbEntity
  8
0226_下階梁情報
  6
Continuous
 62
     7
370
     5
100
AcDbLine
 10
-794.0911882431783
 20
-674.095722697312
 30
0.0
 11
-792.5914018662252
 21
-674.095722697312
 31
0.0
  0
LINE
  5
3CB
330
1F
100
AcDbEntity
  8
0226_下階梁情報
  6
Continuous
 62
     7
370
     5
100
AcDbLine
 10
-792.5914018662252
 20
-674.095722697312
 30
0.0
 11
-792.5914018662252
 21
-675.5960049849097
 31
0.0
  0
LINE
  5
3CC
330
1F
100
AcDbEntity
  8
0226_下階梁情報
  6
Continuous
 62
     7
370
     5
100
AcDbLine
 10
-792.5914018662252
 20
-675.5960049849097
 30
0.0
 11
-794.0911882431783
 21
-675.5960049849097
 31
0.0
  0
LINE
  5
3CD
330
1F
100
AcDbEntity
  8
0226_下階梁情報
  6
Continuous
 62
     7
370
     5
100
AcDbLine
 10
-723.7009256394185
 20
-679.3080487471167
 30
0.0
 11
-723.7009256394185
 21
-677.807766459519
 31
0.0
  0
LINE
  5
3CE
330
1F
100
AcDbEntity
  8
0226_下階梁情報
  6
Continuous
 62
     7
370
     5
100
AcDbLine
 10
-723.7009256394185
 20
-677.807766459519
 30
0.0
 11
-722.2011416466512
 21
-677.807766459519
 31
0.0
  0
LINE
  5
3CF
330
1F
100
AcDbEntity
  8
0226_下階梁情報
  6
Continuous
 62
     7
370
     5
100
AcDbLine
 10
-722.2011416466512
 20
-677.807766459519
 30
0.0
 11
-722.2011416466512
 21
-679.3080487471167
 31
0.0
  0
LINE
  5
3D0
330
1F
100
AcDbEntity
  8
0226_下階梁情報
  6
Continuous
 62
     7
370
     5
100
AcDbLine
 10
-722.2011416466512
 20
-679.3080487471167
 30
0.0
 11
-723.7009256394185
 21
-679.3080487471167
 31
0.0
  0
LINE
  5
3D1
330
1F
100
AcDbEntity
  8
0226_下階梁情報
  6
Continuous
 62
     7
370
     5
100
AcDbLine
 10
-699.3104853542127
 20
-705.2146115522925
 30
0.0
 11
-699.3104853542127
 21
-703.7143292646948
 31
0.0
  0
LINE
  5
3D2
330
1F
100
AcDbEntity
  8
0226_下階梁情報
  6
Continuous
 62
     7
370
     5
100
AcDbLine
 10
-699.3104853542127
 20
-703.7143292646948
 30
0.0
 11
-697.8107012124337
 21
-703.7143292646948
 31
0.0
  0
LINE
  5
3D3
330
1F
100
AcDbEntity
  8
0226_下階梁情報
  6
Continuous
 62
     7
370
     5
100
AcDbLine
 10
-697.8107012124337
 20
-703.7143292646948
 30
0.0
 11
-697.8107012124337
 21
-705.2146115522925
 31
0.0
  0
LINE
  5
3D4
330
1F
100
AcDbEntity
  8
0226_下階梁情報
  6
Continuous
 62
     7
370
     5
100
AcDbLine
 10
-697.8107012124337
 20
-705.2146115522925
 30
0.0
 11
-699.3104853542127
 21
-705.2146115522925
 31
0.0
  0
LINE
  5
3D5
330
1F
100
AcDbEntity
  8
0226_下階梁情報
  6
Continuous
 62
     7
370
     5
100
AcDbLine
 10
-693.0319049270429
 20
-743.426662943894
 30
0.0
 11
-693.0319049270429
 21
-741.9263806562964
 31
0.0
  0
LINE
  5
3D6
330
1F
100
AcDbEntity
  8
0226_下階梁情報
  6
Continuous
 62
     7
370
     5
100
AcDbLine
 10
-693.0319049270429
 20
-741.9263806562964
 30
0.0
 11
-691.5316256196775
 21
-741.9263806562964
 31
0.0
  0
LINE
  5
3D7
330
1F
100
AcDbEntity
  8
0226_下階梁情報
  6
Continuous
 62
     7
370
     5
100
AcDbLine
 10
-691.5316256196775
 20
-741.9263806562964
 30
0.0
 11
-691.5316256196775
 21
-743.426662943894
 31
0.0
  0
LINE
  5
3D8
330
1F
100
AcDbEntity
  8
0226_下階梁情報
  6
Continuous
 62
     7
370
     5
100
AcDbLine
 10
-691.5316256196775
 20
-743.426662943894
 30
0.0
 11
-693.0319049270429
 21
-743.426662943894
 31
0.0
  0
LINE
  5
3D9
330
1F
100
AcDbEntity
  8
0226_下階梁情報
  6
Continuous
 62
     7
370
     5
100
AcDbLine
 10
-767.2605579407491
 20
-748.8852277021948
 30
0.0
 11
-767.2605579407491
 21
-747.3849454145972
 31
0.0
  0
LINE
  5
3DA
330
1F
100
AcDbEntity
  8
0226_下階梁情報
  6
Continuous
 62
     7
370
     5
100
AcDbLine
 10
-767.2605579407491
 20
-747.3849454145972
 30
0.0
 11
-765.760280421523
 21
-747.3849454145972
 31
0.0
  0
LINE
  5
3DB
330
1F
100
AcDbEntity
  8
0226_下階梁情報
  6
Continuous
 62
     7
370
     5
100
AcDbLine
 10
-765.760280421523
 20
-747.3849454145972
 30
0.0
 11
-765.760280421523
 21
-748.8852277021948
 31
0.0
  0
LINE
  5
3DC
330
1F
100
AcDbEntity
  8
0226_下階梁情報
  6
Continuous
 62
     7
370
     5
100
AcDbLine
 10
-765.760280421523
 20
-748.8852277021948
 30
0.0
 11
-767.2605579407491
 21
-748.8852277021948
 31
0.0
  0
LINE
  5
3DD
330
1F
100
AcDbEntity
  8
0226_下階梁情報
  6
Continuous
 62
     7
370
     5
100
AcDbLine
 10
-801.9894521744527
 20
-739.588772318894
 30
0.0
 11
-801.9894521744527
 21
-738.0884900312964
 31
0.0
  0
LINE
  5
3DE
330
1F
100
AcDbEntity
  8
0226_下階梁情報
  6
Continuous
 62
     7
370
     5
100
AcDbLine
 10
-801.9894521744527
 20
-738.0884900312964
 30
0.0
 11
-800.489169886855
 21
-738.0884900312964
 31
0.0
  0
LINE
  5
3DF
330
1F
100
AcDbEntity
  8
0226_下階梁情報
  6
Continuous
 62
     7
370
     5
100
AcDbLine
 10
-800.489169886855
 20
-738.0884900312964
 30
0.0
 11
-800.489169886855
 21
-739.588772318894
 31
0.0
  0
LINE
  5
3E0
330
1F
100
AcDbEntity
  8
0226_下階梁情報
  6
Continuous
 62
     7
370
     5
100
AcDbLine
 10
-800.489169886855
 20
-739.588772318894
 30
0.0
 11
-801.9894521744527
 21
-739.588772318894
 31
0.0
  0
LINE
  5
3E1
330
1F
100
AcDbEntity
  8
0226_下階梁情報
  6
Continuous
 62
     7
370
     5
100
AcDbLine
 10
-804.2007272751607
 20
-699.2908063154761
 30
0.0
 11
-804.2007272751607
 21
-697.7905240278784
 31
0.0
  0
LINE
  5
3E2
330
1F
100
AcDbEntity
  8
0226_下階梁情報
  6
Continuous
 62
     7
370
     5
100
AcDbLine
 10
-804.2007272751607
 20
-697.7905240278784
 30
0.0
 11
-802.7009408982076
 21
-697.7905240278784
 31
0.0
  0
LINE
  5
3E3
330
1F
100
AcDbEntity
  8
0226_下階梁情報
  6
Continuous
 62
     7
370
     5
100
AcDbLine
 10
-802.7009408982076
 20
-697.7905240278784
 30
0.0
 11
-802.7009408982076
 21
-699.2908063154761
 31
0.0
  0
LINE
  5
3E4
330
1F
100
AcDbEntity
  8
0226_下階梁情報
  6
Continuous
 62
     7
370
     5
100
AcDbLine
 10
-802.7009408982076
 20
-699.2908063154761
 30
0.0
 11
-804.2007272751607
 21
-699.2908063154761
 31
0.0
  0
LINE
  5
3E5
330
1F
100
AcDbEntity
  8
0226_下階梁情報
  6
Continuous
 62
     7
370
     5
100
AcDbLine
 10
-746.7010849030294
 20
-719.0367093306128
 30
0.0
 11
-746.7010849030294
 21
-717.5364270430151
 31
0.0
  0
LINE
  5
3E6
330
1F
100
AcDbEntity
  8
0226_下階梁情報
  6
Continuous
 62
     7
370
     5
100
AcDbLine
 10
-746.7010849030294
 20
-717.5364270430151
 30
0.0
 11
-745.2008026154317
 21
-717.5364270430151
 31
0.0
  0
LINE
  5
3E7
330
1F
100
AcDbEntity
  8
0226_下階梁情報
  6
Continuous
 62
     7
370
     5
100
AcDbLine
 10
-745.2008026154317
 20
-717.5364270430151
 30
0.0
 11
-745.2008026154317
 21
-719.0367093306128
 31
0.0
  0
LINE
  5
3E8
330
1F
100
AcDbEntity
  8
0226_下階梁情報
  6
Continuous
 62
     7
370
     5
100
AcDbLine
 10
-745.2008026154317
 20
-719.0367093306128
 30
0.0
 11
-746.7010849030294
 21
-719.0367093306128
 31
0.0
  0
LINE
  5
3E9
330
1F
100
AcDbEntity
  8
0226_下階梁情報
  6
Continuous
 62
     7
370
     5
100
AcDbLine
 10
-758.5487335236348
 20
-685.4687085371557
 30
0.0
 11
-758.5487335236348
 21
-683.9684262495581
 31
0.0
  0
LINE
  5
3EA
330
1F
100
AcDbEntity
  8
0226_下階梁情報
  6
Continuous
 62
     7
370
     5
100
AcDbLine
 10
-758.5487335236348
 20
-683.9684262495581
 30
0.0
 11
-757.0484512360372
 21
-683.9684262495581
 31
0.0
  0
LINE
  5
3EB
330
1F
100
AcDbEntity
  8
0226_下階梁情報
  6
Continuous
 62
     7
370
     5
100
AcDbLine
 10
-757.0484512360372
 20
-683.9684262495581
 30
0.0
 11
-757.0484512360372
 21
-685.4687085371557
 31
0.0
  0
LINE
  5
3EC
330
1F
100
AcDbEntity
  8
0226_下階梁情報
  6
Continuous
 62
     7
370
     5
100
AcDbLine
 10
-757.0484512360372
 20
-685.4687085371557
 30
0.0
 11
-758.5487335236348
 21
-685.4687085371557
 31
0.0
  0
LINE
  5
3ED
330
1F
100
AcDbEntity
  8
0226_下階梁情報
  6
Continuous
 62
     7
370
     5
100
AcDbLine
 10
-703.2598667652883
 20
-571.2849393110815
 30
0.0
 11
-703.2598667652883
 21
-569.7846760969702
 31
0.0
  0
LINE
  5
3EE
330
1F
100
AcDbEntity
  8
0226_下階梁情報
  6
Continuous
 62
     7
370
     5
100
AcDbLine
 10
-703.2598667652883
 20
-569.7846760969702
 30
0.0
 11
-701.760082772521
 21
-569.7846760969702
 31
0.0
  0
LINE
  5
3EF
330
1F
100
AcDbEntity
  8
0226_下階梁情報
  6
Continuous
 62
     7
370
     5
100
AcDbLine
 10
-701.760082772521
 20
-569.7846760969702
 30
0.0
 11
-701.760082772521
 21
-571.2849393110815
 31
0.0
  0
LINE
  5
3F0
330
1F
100
AcDbEntity
  8
0226_下階梁情報
  6
Continuous
 62
     7
370
     5
100
AcDbLine
 10
-701.760082772521
 20
-571.2849393110815
 30
0.0
 11
-703.2598667652883
 21
-571.2849393110815
 31
0.0
  0
LINE
  5
3F1
330
1F
100
AcDbEntity
  8
0226_下階梁情報
  6
Continuous
 62
     7
370
     5
100
AcDbLine
 10
-595.3016775162496
 20
-482.6257672529761
 30
0.0
 11
-595.3016775162496
 21
-481.1254849653784
 31
0.0
  0
LINE
  5
3F2
330
1F
100
AcDbEntity
  8
0226_下階梁情報
  6
Continuous
 62
     7
370
     5
100
AcDbLine
 10
-595.3016775162496
 20
-481.1254849653784
 30
0.0
 11
-593.8018911392965
 21
-481.1254849653784
 31
0.0
  0
LINE
  5
3F3
330
1F
100
AcDbEntity
  8
0226_下階梁情報
  6
Continuous
 62
     7
370
     5
100
AcDbLine
 10
-593.8018911392965
 20
-481.1254849653784
 30
0.0
 11
-593.8018911392965
 21
-482.6257672529761
 31
0.0
  0
LINE
  5
3F4
330
1F
100
AcDbEntity
  8
0226_下階梁情報
  6
Continuous
 62
     7
370
     5
100
AcDbLine
 10
-593.8018911392965
 20
-482.6257672529761
 30
0.0
 11
-595.3016775162496
 21
-482.6257672529761
 31
0.0
  0
LINE
  5
3F5
330
1F
100
AcDbEntity
  8
0226_下階梁情報
  6
Continuous
 62
     7
370
     5
100
AcDbLine
 10
-784.2179792435445
 20
-534.5885434370581
 30
0.0
 11
-784.2179792435445
 21
-533.0882611494604
 31
0.0
  0
LINE
  5
3F6
330
1F
100
AcDbEntity
  8
0226_下階梁情報
  6
Continuous
 62
     7
370
     5
100
AcDbLine
 10
-784.2179792435445
 20
-533.0882611494604
 30
0.0
 11
-782.7181928665914
 21
-533.0882611494604
 31
0.0
  0
LINE
  5
3F7
330
1F
100
AcDbEntity
  8
0226_下階梁情報
  6
Continuous
 62
     7
370
     5
100
AcDbLine
 10
-782.7181928665914
 20
-533.0882611494604
 30
0.0
 11
-782.7181928665914
 21
-534.5885434370581
 31
0.0
  0
LINE
  5
3F8
330
1F
100
AcDbEntity
  8
0226_下階梁情報
  6
Continuous
 62
     7
370
     5
100
AcDbLine
 10
-782.7181928665914
 20
-534.5885434370581
 30
0.0
 11
-784.2179792435445
 21
-534.5885434370581
 31
0.0
  0
LINE
  5
3F9
330
1F
100
AcDbEntity
  8
0226_下階梁情報
  6
Continuous
 62
     7
370
     5
100
AcDbLine
 10
-805.9388368637838
 20
-455.6048741560522
 30
0.0
 11
-805.9388368637838
 21
-454.1045918684546
 31
0.0
  0
LINE
  5
3FA
330
1F
100
AcDbEntity
  8
0226_下階梁情報
  6
Continuous
 62
     7
370
     5
100
AcDbLine
 10
-805.9388368637838
 20
-454.1045918684546
 30
0.0
 11
-804.4385545761861
 21
-454.1045918684546
 31
0.0
  0
LINE
  5
3FB
330
1F
100
AcDbEntity
  8
0226_下階梁情報
  6
Continuous
 62
     7
370
     5
100
AcDbLine
 10
-804.4385545761861
 20
-454.1045918684546
 30
0.0
 11
-804.4385545761861
 21
-455.6048741560522
 31
0.0
  0
LINE
  5
3FC
330
1F
100
AcDbEntity
  8
0226_下階梁情報
  6
Continuous
 62
     7
370
     5
100
AcDbLine
 10
-804.4385545761861
 20
-455.6048741560522
 30
0.0
 11
-805.9388368637838
 21
-455.6048741560522
 31
0.0
  0
LINE
  5
3FD
330
1F
100
AcDbEntity
  8
0226_下階梁情報
  6
Continuous
 62
     7
370
     5
100
AcDbLine
 10
-697.336537620572
 20
-504.1489377241675
 30
0.0
 11
-697.336537620572
 21
-502.6486554365698
 31
0.0
  0
LINE
  5
3FE
330
1F
100
AcDbEntity
  8
0226_下階梁情報
  6
Continuous
 62
     7
370
     5
100
AcDbLine
 10
-697.336537620572
 20
-502.6486554365698
 30
0.0
 11
-695.8362582200743
 21
-502.6486554365698
 31
0.0
  0
LINE
  5
3FF
330
1F
100
AcDbEntity
  8
0226_下階梁情報
  6
Continuous
 62
     7
370
     5
100
AcDbLine
 10
-695.8362582200743
 20
-502.6486554365698
 30
0.0
 11
-695.8362582200743
 21
-504.1489377241675
 31
0.0
  0
LINE
  5
400
330
1F
100
AcDbEntity
  8
0226_下階梁情報
  6
Continuous
 62
     7
370
     5
100
AcDbLine
 10
-695.8362582200743
 20
-504.1489377241675
 30
0.0
 11
-697.336537620572
 21
-504.1489377241675
 31
0.0
  0
LINE
  5
401
330
1F
100
AcDbEntity
  8
0226_下階梁情報
  6
Continuous
 62
     7
370
     5
100
AcDbLine
 10
-756.573793223647
 20
-526.6902890425268
 30
0.0
 11
-756.573793223647
 21
-525.1900067549292
 31
0.0
  0
LINE
  5
402
330
1F
100
AcDbEntity
  8
0226_下階梁情報
  6
Continuous
 62
     7
370
     5
100
AcDbLine
 10
-756.573793223647
 20
-525.1900067549292
 30
0.0
 11
-755.0740116150655
 21
-525.1900067549292
 31
0.0
  0
LINE
  5
403
330
1F
100
AcDbEntity
  8
0226_下階梁情報
  6
Continuous
 62
     7
370
     5
100
AcDbLine
 10
-755.0740116150655
 20
-525.1900067549292
 30
0.0
 11
-755.0740116150655
 21
-526.6902890425268
 31
0.0
  0
LINE
  5
404
330
1F
100
AcDbEntity
  8
0226_下階梁情報
  6
Continuous
 62
     7
370
     5
100
AcDbLine
 10
-755.0740116150655
 20
-526.6902890425268
 30
0.0
 11
-756.573793223647
 21
-526.6902890425268
 31
0.0
  0
LINE
  5
405
330
1F
100
AcDbEntity
  8
0226_下階梁情報
  6
Continuous
 62
     7
370
     5
100
AcDbLine
 10
-744.7261446030416
 20
-599.75013401323
 30
0.0
 11
-744.7261446030416
 21
-598.2498517256323
 31
0.0
  0
LINE
  5
406
330
1F
100
AcDbEntity
  8
0226_下階梁情報
  6
Continuous
 62
     7
370
     5
100
AcDbLine
 10
-744.7261446030416
 20
-598.2498517256323
 30
0.0
 11
-743.2263582260885
 21
-598.2498517256323
 31
0.0
  0
LINE
  5
407
330
1F
100
AcDbEntity
  8
0226_下階梁情報
  6
Continuous
 62
     7
370
     5
100
AcDbLine
 10
-743.2263582260885
 20
-598.2498517256323
 30
0.0
 11
-743.2263582260885
 21
-599.75013401323
 31
0.0
  0
LINE
  5
408
330
1F
100
AcDbEntity
  8
0226_下階梁情報
  6
Continuous
 62
     7
370
     5
100
AcDbLine
 10
-743.2263582260885
 20
-599.75013401323
 30
0.0
 11
-744.7261446030416
 21
-599.75013401323
 31
0.0
  0
LINE
  5
409
330
1F
100
AcDbEntity
  8
0226_下階梁情報
  6
Continuous
 62
     7
370
     5
100
AcDbLine
 10
-793.1037157089986
 20
-598.7626614790503
 30
0.0
 11
-793.1037157089986
 21
-597.2623791914526
 31
0.0
  0
LINE
  5
40A
330
1F
100
AcDbEntity
  8
0226_下階梁情報
  6
Continuous
 62
     7
370
     5
100
AcDbLine
 10
-793.1037157089986
 20
-597.2623791914526
 30
0.0
 11
-791.603433421401
 21
-597.2623791914526
 31
0.0
  0
LINE
  5
40B
330
1F
100
AcDbEntity
  8
0226_下階梁情報
  6
Continuous
 62
     7
370
     5
100
AcDbLine
 10
-791.603433421401
 20
-597.2623791914526
 30
0.0
 11
-791.603433421401
 21
-598.7626614790503
 31
0.0
  0
LINE
  5
40C
330
1F
100
AcDbEntity
  8
0226_下階梁情報
  6
Continuous
 62
     7
370
     5
100
AcDbLine
 10
-791.603433421401
 20
-598.7626614790503
 30
0.0
 11
-793.1037157089986
 21
-598.7626614790503
 31
0.0
  0
LINE
  5
40D
330
1F
100
AcDbEntity
  8
0226_下階梁情報
  6
Continuous
 62
     7
370
     5
100
AcDbLine
 10
-780.1506727249898
 20
-717.8683819990698
 30
0.0
 11
-780.1506727249898
 21
-716.3680997114722
 31
0.0
  0
LINE
  5
40E
330
1F
100
AcDbEntity
  8
0226_下階梁情報
  6
Continuous
 62
     7
370
     5
100
AcDbLine
 10
-780.1506727249898
 20
-716.3680997114722
 30
0.0
 11
-778.6508958847799
 21
-716.3680997114722
 31
0.0
  0
LINE
  5
40F
330
1F
100
AcDbEntity
  8
0226_下階梁情報
  6
Continuous
 62
     7
370
     5
100
AcDbLine
 10
-778.6508958847799
 20
-716.3680997114722
 30
0.0
 11
-778.6508958847799
 21
-717.8683819990698
 31
0.0
  0
LINE
  5
410
330
1F
100
AcDbEntity
  8
0226_下階梁情報
  6
Continuous
 62
     7
370
     5
100
AcDbLine
 10
-778.6508958847799
 20
-717.8683819990698
 30
0.0
 11
-780.1506727249898
 21
-717.8683819990698
 31
0.0
  0
LINE
  5
411
330
1F
100
AcDbEntity
  8
0226_下階梁情報
  6
Continuous
 62
     7
370
     5
100
AcDbLine
 10
-729.624752333907
 20
-747.3760190229956
 30
0.0
 11
-729.624752333907
 21
-745.8757748823706
 31
0.0
  0
LINE
  5
412
330
1F
100
AcDbEntity
  8
0226_下階梁情報
  6
Continuous
 62
     7
370
     5
100
AcDbLine
 10
-729.624752333907
 20
-745.8757748823706
 30
0.0
 11
-728.1249683411397
 21
-745.8757748823706
 31
0.0
  0
LINE
  5
413
330
1F
100
AcDbEntity
  8
0226_下階梁情報
  6
Continuous
 62
     7
370
     5
100
AcDbLine
 10
-728.1249683411397
 20
-745.8757748823706
 30
0.0
 11
-728.1249683411397
 21
-747.3760190229956
 31
0.0
  0
LINE
  5
414
330
1F
100
AcDbEntity
  8
0226_下階梁情報
  6
Continuous
 62
     7
370
     5
100
AcDbLine
 10
-728.1249683411397
 20
-747.3760190229956
 30
0.0
 11
-729.624752333907
 21
-747.3760190229956
 31
0.0
  0
LINE
  5
415
330
1F
100
AcDbEntity
  8
0226_下階梁情報
  6
Continuous
 62
     7
370
     5
100
AcDbLine
 10
-693.3871560604848
 20
-671.6466107588354
 30
0.0
 11
-693.3871560604848
 21
-670.1463284712378
 31
0.0
  0
LINE
  5
416
330
1F
100
AcDbEntity
  8
0226_下階梁情報
  6
Continuous
 62
     7
370
     5
100
AcDbLine
 10
-693.3871560604848
 20
-670.1463284712378
 30
0.0
 11
-691.8868764550962
 21
-670.1463284712378
 31
0.0
  0
LINE
  5
417
330
1F
100
AcDbEntity
  8
0226_下階梁情報
  6
Continuous
 62
     7
370
     5
100
AcDbLine
 10
-691.8868764550962
 20
-670.1463284712378
 30
0.0
 11
-691.8868764550962
 21
-671.6466107588354
 31
0.0
  0
LINE
  5
418
330
1F
100
AcDbEntity
  8
0226_下階梁情報
  6
Continuous
 62
     7
370
     5
100
AcDbLine
 10
-691.8868764550962
 20
-671.6466107588354
 30
0.0
 11
-693.3871560604848
 21
-671.6466107588354
 31
0.0
  0
LINE
  5
419
330
1F
100
AcDbEntity
  8
0226_下階梁情報
  6
Continuous
 62
     7
370
     5
100
AcDbLine
 10
-810.4198568375386
 20
-553.5833325605932
 30
0.0
 11
-810.4198568375386
 21
-552.0830502729956
 31
0.0
  0
LINE
  5
41A
330
1F
100
AcDbEntity
  8
0226_下階梁情報
  6
Continuous
 62
     7
370
     5
100
AcDbLine
 10
-810.4198568375386
 20
-552.0830502729956
 30
0.0
 11
-808.919574549941
 21
-552.0830502729956
 31
0.0
  0
LINE
  5
41B
330
1F
100
AcDbEntity
  8
0226_下階梁情報
  6
Continuous
 62
     7
370
     5
100
AcDbLine
 10
-808.919574549941
 20
-552.0830502729956
 30
0.0
 11
-808.919574549941
 21
-553.5833325605932
 31
0.0
  0
LINE
  5
41C
330
1F
100
AcDbEntity
  8
0226_下階梁情報
  6
Continuous
 62
     7
370
     5
100
AcDbLine
 10
-808.919574549941
 20
-553.5833325605932
 30
0.0
 11
-810.4198568375386
 21
-553.5833325605932
 31
0.0
  0
LINE
  5
41D
330
1F
100
AcDbEntity
  8
0226_下階梁情報
  6
Continuous
 62
     7
370
     5
100
AcDbLine
 10
-693.4981411011495
 20
-597.3173871260229
 30
0.0
 11
-693.4981411011495
 21
-595.8171048384253
 31
0.0
  0
LINE
  5
41E
330
1F
100
AcDbEntity
  8
0226_下階梁情報
  6
Continuous
 62
     7
370
     5
100
AcDbLine
 10
-693.4981411011495
 20
-595.8171048384253
 30
0.0
 11
-691.9978614957608
 21
-595.8171048384253
 31
0.0
  0
LINE
  5
41F
330
1F
100
AcDbEntity
  8
0226_下階梁情報
  6
Continuous
 62
     7
370
     5
100
AcDbLine
 10
-691.9978614957608
 20
-595.8171048384253
 30
0.0
 11
-691.9978614957608
 21
-597.3173871260229
 31
0.0
  0
LINE
  5
420
330
1F
100
AcDbEntity
  8
0226_下階梁情報
  6
Continuous
 62
     7
370
     5
100
AcDbLine
 10
-691.9978614957608
 20
-597.3173871260229
 30
0.0
 11
-693.4981411011495
 21
-597.3173871260229
 31
0.0
  0
LINE
  5
421
330
1F
100
AcDbEntity
  8
0226_下階梁情報
  6
Continuous
 62
     7
370
     5
100
AcDbLine
 10
-718.2284729988851
 20
-720.6633343916479
 30
0.0
 11
-718.2284729988851
 21
-719.1630521040503
 31
0.0
  0
LINE
  5
422
330
1F
100
AcDbEntity
  8
0226_下階梁情報
  6
Continuous
 62
     7
370
     5
100
AcDbLine
 10
-718.2284729988851
 20
-719.1630521040503
 30
0.0
 11
-716.728195479659
 21
-719.1630521040503
 31
0.0
  0
LINE
  5
423
330
1F
100
AcDbEntity
  8
0226_下階梁情報
  6
Continuous
 62
     7
370
     5
100
AcDbLine
 10
-716.728195479659
 20
-719.1630521040503
 30
0.0
 11
-716.728195479659
 21
-720.6633343916479
 31
0.0
  0
LINE
  5
424
330
1F
100
AcDbEntity
  8
0226_下階梁情報
  6
Continuous
 62
     7
370
     5
100
AcDbLine
 10
-716.728195479659
 20
-720.6633343916479
 30
0.0
 11
-718.2284729988851
 21
-720.6633343916479
 31
0.0
  0
LINE
  5
425
330
1F
100
AcDbEntity
  8
0226_下階梁情報
  6
Continuous
 62
     7
370
     5
100
AcDbLine
 10
-686.3846956999578
 20
-408.2013955336157
 30
0.0
 11
-686.3846956999578
 21
-406.7011227827612
 31
0.0
  0
LINE
  5
426
330
1F
100
AcDbEntity
  8
0226_下階梁情報
  6
Continuous
 62
     7
370
     5
100
AcDbLine
 10
-686.3846956999578
 20
-406.7011227827612
 30
0.0
 11
-684.8844163925924
 21
-406.7011227827612
 31
0.0
  0
LINE
  5
427
330
1F
100
AcDbEntity
  8
0226_下階梁情報
  6
Continuous
 62
     7
370
     5
100
AcDbLine
 10
-684.8844163925924
 20
-406.7011227827612
 30
0.0
 11
-684.8844163925924
 21
-408.2013955336157
 31
0.0
  0
LINE
  5
428
330
1F
100
AcDbEntity
  8
0226_下階梁情報
  6
Continuous
 62
     7
370
     5
100
AcDbLine
 10
-684.8844163925924
 20
-408.2013955336157
 30
0.0
 11
-686.3846956999578
 21
-408.2013955336157
 31
0.0
  0
LINE
  5
429
330
1F
100
AcDbEntity
  8
0226_下階梁情報
  6
Continuous
 62
     7
370
     5
100
AcDbLine
 10
-592.7742975266256
 20
-261.8473556261603
 30
0.0
 11
-592.7742975266256
 21
-260.3470763187948
 31
0.0
  0
LINE
  5
42A
330
1F
100
AcDbEntity
  8
0226_下階梁情報
  6
Continuous
 62
     7
370
     5
100
AcDbLine
 10
-592.7742975266256
 20
-260.3470763187948
 30
0.0
 11
-591.2740152390279
 21
-260.3470763187948
 31
0.0
  0
LINE
  5
42B
330
1F
100
AcDbEntity
  8
0226_下階梁情報
  6
Continuous
 62
     7
370
     5
100
AcDbLine
 10
-591.2740152390279
 20
-260.3470763187948
 30
0.0
 11
-591.2740152390279
 21
-261.8473556261603
 31
0.0
  0
LINE
  5
42C
330
1F
100
AcDbEntity
  8
0226_下階梁情報
  6
Continuous
 62
     7
370
     5
100
AcDbLine
 10
-591.2740152390279
 20
-261.8473556261603
 30
0.0
 11
-592.7742975266256
 21
-261.8473556261603
 31
0.0
  0
LINE
  5
42D
330
1F
100
AcDbEntity
  8
0226_下階梁情報
  6
Continuous
 62
     7
370
     5
100
AcDbLine
 10
-614.310838511733
 20
-293.11044361406
 30
0.0
 11
-614.310838511733
 21
-291.610166094834
 31
0.0
  0
LINE
  5
42E
330
1F
100
AcDbEntity
  8
0226_下階梁情報
  6
Continuous
 62
     7
370
     5
100
AcDbLine
 10
-614.310838511733
 20
-291.610166094834
 30
0.0
 11
-612.8105562241353
 21
-291.610166094834
 31
0.0
  0
LINE
  5
42F
330
1F
100
AcDbEntity
  8
0226_下階梁情報
  6
Continuous
 62
     7
370
     5
100
AcDbLine
 10
-612.8105562241353
 20
-291.610166094834
 30
0.0
 11
-612.8105562241353
 21
-293.11044361406
 31
0.0
  0
LINE
  5
430
330
1F
100
AcDbEntity
  8
0226_下階梁情報
  6
Continuous
 62
     7
370
     5
100
AcDbLine
 10
-612.8105562241353
 20
-293.11044361406
 30
0.0
 11
-614.310838511733
 21
-293.11044361406
 31
0.0
  0
ARC
  5
431
330
1F
100
AcDbEntity
  8
0234_
  6
Continuous
 62
     4
370
     5
100
AcDbCircle
 10
-805.5469148667135
 20
-356.3852753859106
 30
0.0
 40
5.0
100
AcDbArc
 50
90.0
 51
180.0
  0
ARC
  5
432
330
1F
100
AcDbEntity
  8
0243_
  6
Continuous
 62
     3
370
     5
100
AcDbCircle
 10
-639.046618274001
 20
-299.8844924192969
 30
0.0
 40
6.499999761581421
100
AcDbArc
 50
0.0
 51
90.0
  0
ARC
  5
433
330
1F
100
AcDbEntity
  8
0243_
  6
JWW_DASHED3
 62
     3
370
     5
100
AcDbCircle
 10
-639.046618274001
 20
-322.8851428251807
 30
0.0
 40
6.499999761581421
100
AcDbArc
 50
270.0
 51
0.0
  0
ARC
  5
434
330
1F
100
AcDbEntity
  8
0243_
  6
Continuous
 62
     3
370
     5
100
AcDbCircle
 10
-655.5467193634786
 20
-363.0270352583472
 30
0.0
 40
10.0
100
AcDbArc
 50
0.0
 51
45.0
  0
ARC
  5
435
330
1F
100
AcDbEntity
  8
0243_
  6
Continuous
 62
     3
370
     5
100
AcDbCircle
 10
-608.1204526932515
 20
-303.8854041319433
 30
0.0
 40
30.0
100
AcDbArc
 50
224.9996643066406
 51
270.0
  0
ARC
  5
436
330
1F
100
AcDbEntity
  8
0243_
  6
Continuous
 62
     3
370
     5
100
AcDbCircle
 10
-530.546886256484
 20
-343.8850941877905
 30
0.0
 40
10.0
100
AcDbArc
 50
0.0
 51
90.0
  0
ARC
  5
437
330
1F
100
AcDbEntity
  8
0227_下階間仕切
  6
Continuous
 62
     2
370
     5
100
AcDbCircle
 10
-815.5474584610738
 20
-361.3850465040747
 30
0.0
 40
5.0
100
AcDbArc
 50
90.0
 51
180.0
  0
ARC
  5
438
330
1F
100
AcDbEntity
  8
0227_下階間仕切
  6
Continuous
 62
     2
370
     5
100
AcDbCircle
 10
-668.5473244698323
 20
-251.8849649649206
 30
0.0
 40
3.00000011920929
100
AcDbArc
 50
0.0
 51
90.0
  0
ARC
  5
439
330
1F
100
AcDbEntity
  8
0227_下階間仕切
  6
Continuous
 62
     2
370
     5
100
AcDbCircle
 10
-687.5470655472554
 20
-251.8849649649206
 30
0.0
 40
3.00000011920929
100
AcDbArc
 50
90.0
 51
180.0
  0
ARC
  5
43A
330
1F
100
AcDbEntity
  8
0227_下階間仕切
  6
Continuous
 62
     2
370
     5
100
AcDbCircle
 10
-668.5473244698323
 20
-370.8851685743872
 30
0.0
 40
3.00000011920929
100
AcDbArc
 50
270.0
 51
0.0
  0
ARC
  5
43B
330
1F
100
AcDbEntity
  8
0227_下階間仕切
  6
Continuous
 62
     2
370
     5
100
AcDbCircle
 10
-690.5476244600095
 20
-363.8851895552222
 30
0.0
 40
5.0
100
AcDbArc
 50
270.0
 51
0.0
  0
ARC
  5
43C
330
1F
100
AcDbEntity
  8
0227_下階間仕切
  6
Continuous
 62
     2
370
     5
100
AcDbCircle
 10
-762.5095098526754
 20
-361.3850465040747
 30
0.0
 40
5.0
100
AcDbArc
 50
70.43162536621094
 51
90.0
  0
ARC
  5
43D
330
1F
100
AcDbEntity
  8
0227_下階間仕切
  6
Continuous
 62
     2
370
     5
100
AcDbCircle
 10
-740.2436368973531
 20
-363.8851895552222
 30
0.0
 40
5.0
100
AcDbArc
 50
250.4390106201172
 51
270.0
  0
ARC
  5
43E
330
1F
100
AcDbEntity
  8
0227_下階間仕切
  6
Continuous
 62
     2
370
     5
100
AcDbCircle
 10
-815.5474584610738
 20
-368.8849606733862
 30
0.0
 40
5.0
100
AcDbArc
 50
180.0
 51
270.0
  0
ARC
  5
43F
330
1F
100
AcDbEntity
  8
0227_下階間仕切
  6
Continuous
 62
     2
370
     5
100
AcDbCircle
 10
-804.8775404007711
 20
-361.3850465040747
 30
0.0
 40
5.0
100
AcDbArc
 50
59.99996948242189
 51
90.00000000000001
  0
ARC
  5
440
330
1F
100
AcDbEntity
  8
0227_下階間仕切
  6
Continuous
 62
     2
370
     5
100
AcDbCircle
 10
-776.2171476395406
 20
-361.3850465040747
 30
0.0
 40
5.0
100
AcDbArc
 50
90.0
 51
120.0000305175781
  0
ARC
  5
441
330
1F
100
AcDbEntity
  8
0227_下階間仕切
  6
Continuous
 62
     2
370
     5
100
AcDbCircle
 10
-790.5475919754781
 20
-363.8851895552222
 30
0.0
 40
5.0
100
AcDbArc
 50
239.9999694824219
 51
300.0000305175781
  0
LWPOLYLINE
  5
442
330
1F
100
AcDbEntity
  8
0216_
  6
Continuous
 62
     7
370
     5
100
AcDbPolyline
 90
        4
 70
     1
 43
1.0
 10
-665.0472605736531
 20
91.48182246870363
 42
0.4142135623731
 10
-665.5472605736531
 20
91.98182246870363
 42
0.4142135623731
 10
-666.0472605736531
 20
91.48182246870363
 42
0.4142135623731
 10
-665.5472605736531
 20
90.98182246870363
 42
0.4142135623731
  0
LWPOLYLINE
  5
443
330
1F
100
AcDbEntity
  8
0216_
  6
Continuous
 62
     7
370
     5
100
AcDbPolyline
 90
        4
 70
     1
 43
1.0
 10
-820.0467432053365
 20
-127.9662385206763
 42
0.4142135623731
 10
-820.5467432053365
 20
-127.4662385206763
 42
0.4142135623731
 10
-821.0467432053365
 20
-127.9662385206763
 42
0.4142135623731
 10
-820.5467432053365
 20
-128.4662385206763
 42
0.4142135623731
  0
LWPOLYLINE
  5
444
330
1F
100
AcDbEntity
  8
0216_
  6
Continuous
 62
     7
370
     5
100
AcDbPolyline
 90
        4
 70
     1
 43
1.0
 10
-695.0459135086812
 20
-127.9662385206763
 42
0.4142135623731
 10
-695.5459135086812
 20
-127.4662385206763
 42
0.4142135623731
 10
-696.0459135086812
 20
-127.9662385206763
 42
0.4142135623731
 10
-695.5459135086812
 20
-128.4662385206763
 42
0.4142135623731
  0
LWPOLYLINE
  5
445
330
1F
100
AcDbEntity
  8
0216_
  6
Continuous
 62
     7
370
     5
100
AcDbPolyline
 90
        4
 70
     1
 43
1.0
 10
-695.0459135086812
 20
-19.21382572465575
 42
0.4142135623731
 10
-695.5459135086812
 20
-18.71382572465575
 42
0.4142135623731
 10
-696.0459135086812
 20
-19.21382572465575
 42
0.4142135623731
 10
-695.5459135086812
 20
-19.71382572465575
 42
0.4142135623731
  0
LWPOLYLINE
  5
446
330
1F
100
AcDbEntity
  8
0216_
  6
Continuous
 62
     7
370
     5
100
AcDbPolyline
 90
        4
 70
     1
 43
1.0
 10
-690.045642903594
 20
-19.21382572465575
 42
0.4142135623731
 10
-690.545642903594
 20
-18.71382572465575
 42
0.4142135623731
 10
-691.045642903594
 20
-19.21382572465575
 42
0.4142135623731
 10
-690.545642903594
 20
-19.71382572465575
 42
0.4142135623731
  0
LWPOLYLINE
  5
447
330
1F
100
AcDbEntity
  8
0216_
  6
Continuous
 62
     7
370
     5
100
AcDbPolyline
 90
        4
 70
     1
 43
1.0
 10
-665.0472605736531
 20
-19.21382572465575
 42
0.4142135623731
 10
-665.5472605736531
 20
-18.71382572465575
 42
0.4142135623731
 10
-666.0472605736531
 20
-19.21382572465575
 42
0.4142135623731
 10
-665.5472605736531
 20
-19.71382572465575
 42
0.4142135623731
  0
LWPOLYLINE
  5
448
330
1F
100
AcDbEntity
  8
0216_
  6
Continuous
 62
     7
370
     5
100
AcDbPolyline
 90
        4
 70
     1
 43
1.0
 10
-965.5292547257222
 20
-373.885237238938
 42
0.4142135623731
 10
-966.0292547257222
 20
-373.385237238938
 42
0.4142135623731
 10
-966.5292547257222
 20
-373.885237238938
 42
0.4142135623731
 10
-966.0292547257222
 20
-374.385237238938
 42
0.4142135623731
  0
LWPOLYLINE
  5
449
330
1F
100
AcDbEntity
  8
0216_
  6
Continuous
 62
     7
370
     5
100
AcDbPolyline
 90
        4
 70
     1
 43
1.0
 10
-965.5292547257222
 20
-248.885396979386
 42
0.4142135623731
 10
-966.0292547257222
 20
-248.385396979386
 42
0.4142135623731
 10
-966.5292547257222
 20
-248.885396979386
 42
0.4142135623731
 10
-966.0292547257222
 20
-249.385396979386
 42
0.4142135623731
  0
LWPOLYLINE
  5
44A
330
1F
100
AcDbEntity
  8
0216_
  6
Continuous
 62
     7
370
     5
100
AcDbPolyline
 90
        4
 70
     1
 43
1.0
 10
-820.0457513840474
 20
-654.5038953047339
 42
0.4142135623731
 10
-820.5457513840474
 20
-654.0038953047339
 42
0.4142135623731
 10
-821.0457513840474
 20
-654.5038953047339
 42
0.4142135623731
 10
-820.5457513840474
 20
-655.0038953047339
 42
0.4142135623731
  0
LWPOLYLINE
  5
44B
330
1F
100
AcDbEntity
  8
0216_
  6
Continuous
 62
     7
370
     5
100
AcDbPolyline
 90
        4
 70
     1
 43
1.0
 10
-670.0465405495443
 20
-654.5038953047339
 42
0.4142135623731
 10
-670.5465405495443
 20
-654.0038953047339
 42
0.4142135623731
 10
-671.0465405495443
 20
-654.5038953047339
 42
0.4142135623731
 10
-670.5465405495443
 20
-655.0038953047339
 42
0.4142135623731
  0
TEXT
  5
44C
330
1F
100
AcDbEntity
  8
0216_
  6
Continuous
 62
     2
370
     5
100
AcDbText
 10
-779.2959898026265
 20
-117.3259714918677
 30
0.0
 40
30.48
  1
25
 41
1.0625
  7
ＭＳ ゴシック
100
AcDbText
  0
TEXT
  5
44D
330
1F
100
AcDbEntity
  8
0216_
  6
Continuous
 62
     2
370
     5
100
AcDbText
 10
-811.7957704575338
 20
-643.8641241865698
 30
0.0
 40
30.48
  1
25～30
 41
1.104166666666667
  7
ＭＳ ゴシック
100
AcDbText
  0
LINE
  5
44E
330
1F
100
AcDbEntity
  8
0216_
  6
Continuous
 62
     7
370
     5
100
AcDbLine
 10
-966.0292547257222
 20
-415.8443103267659
 30
0.0
 11
-966.0292547257222
 21
-248.885396979386
 31
0.0
  0
TEXT
  5
44F
330
1F
100
AcDbEntity
  8
0216_
  6
Continuous
 62
     2
370
     5
100
AcDbText
 10
-976.6695217545308
 20
-417.4389817751123
 30
0.0
 40
30.48
  1
25
 50
90.00000250447819
 41
1.062500000000001
  7
ＭＳ ゴシック
100
AcDbText
  0
LINE
  5
450
330
1F
100
AcDbEntity
  8
0242_
  6
Continuous
 62
     7
370
     5
100
AcDbLine
 10
-756.1630181632747
 20
-251.3850369673316
 30
0.0
 11
-742.3523239455928
 21
-230.5466113980953
 31
0.0
  0
LINE
  5
451
330
1F
100
AcDbEntity
  8
0242_
  6
Continuous
 62
     7
370
     5
100
AcDbLine
 10
-756.1630181632747
 20
-251.3850369673316
 30
0.0
 11
-737.4283556304683
 21
-234.8309300836269
 31
0.0
  0
LINE
  5
452
330
1F
100
AcDbEntity
  8
0218_
  6
Continuous
 62
     3
370
     5
100
AcDbLine
 10
-733.0456660688588
 20
-251.3850369673315
 30
0.0
 11
-768.0452866611307
 21
-251.3850369673315
 31
0.0
  0
LINE
  5
453
330
1F
100
AcDbEntity
  8
0218_
  6
Continuous
 62
     3
370
     5
100
AcDbLine
 10
-803.0456495728703
 20
-251.3850369673315
 30
0.0
 11
-838.0452701651421
 21
-251.3850369673315
 31
0.0
  0
LINE
  5
454
330
1F
100
AcDbEntity
  8
0218_
  6
Continuous
 62
     3
370
     5
100
AcDbLine
 10
-873.0456330768823
 20
-251.3850369673315
 30
0.0
 11
-908.0452536691541
 21
-251.3850369673315
 31
0.0
  0
LINE
  5
455
330
1F
100
AcDbEntity
  8
0218_
  6
Continuous
 62
     3
370
     5
100
AcDbLine
 10
-943.0456165808937
 20
-251.3850369673315
 30
0.0
 11
-978.0452371731661
 21
-251.3850369673315
 31
0.0
  0
LINE
  5
456
330
1F
100
AcDbEntity
  8
0218_
  6
Continuous
 62
     3
370
     5
100
AcDbLine
 10
-1013.045600084906
 20
-251.3850369673315
 30
0.0
 11
-1048.045220677178
 21
-251.3850369673315
 31
0.0
  0
LINE
  5
457
330
1F
100
AcDbEntity
  8
0218_
  6
Continuous
 62
     3
370
     5
100
AcDbLine
 10
-1083.045583588918
 20
-251.3850369673315
 30
0.0
 11
-1118.045946500657
 21
-251.3850369673315
 31
0.0
  0
LINE
  5
458
330
1F
100
AcDbEntity
  8
0218_
  6
Continuous
 62
     3
370
     5
100
AcDbLine
 10
-1153.046309412398
 20
-251.3850369673315
 30
0.0
 11
-1188.046672324137
 21
-251.3850369673315
 31
0.0
  0
LINE
  5
459
330
1F
100
AcDbEntity
  8
0218_
  6
Continuous
 62
     3
370
     5
100
AcDbLine
 10
-1223.047035235877
 20
-251.3850369673315
 30
0.0
 11
-1258.046655828149
 21
-251.3850369673315
 31
0.0
  0
LINE
  5
45A
330
1F
100
AcDbEntity
  8
0218_
  6
Continuous
 62
     3
370
     5
100
AcDbLine
 10
-1293.047018739889
 20
-251.3850369673315
 30
0.0
 11
-1328.046639332161
 21
-251.3850369673315
 31
0.0
  0
LINE
  5
45B
330
1F
100
AcDbEntity
  8
0218_
  6
Continuous
 62
     3
370
     5
100
AcDbLine
 10
-695.5459135086812
 20
-251.3850369673315
 30
0.0
 11
-695.5459135086812
 21
-258.38510954968
 31
0.0
  0
LINE
  5
45C
330
1F
100
AcDbEntity
  8
0218_
  6
Continuous
 62
     3
370
     5
100
AcDbLine
 10
-695.5459135086812
 20
-251.3850369673315
 30
0.0
 11
-735.5450557172963
 21
-251.3850369673315
 31
0.0
  0
LINE
  5
45D
330
1F
100
AcDbEntity
  8
0218_
  6
Continuous
 62
     3
370
     5
100
AcDbLine
 10
-735.5450557172963
 20
-251.3850369673315
 30
0.0
 11
-735.5450557172963
 21
-258.38510954968
 31
0.0
  0
LINE
  5
45E
330
1F
100
AcDbEntity
  8
0218_
  6
Continuous
 62
     3
370
     5
100
AcDbLine
 10
-695.5459135086812
 20
-258.38510954968
 30
0.0
 11
-735.5450557172963
 21
-258.38510954968
 31
0.0
  0
LINE
  5
45F
330
1F
100
AcDbEntity
  8
0218_
  6
Continuous
 62
     3
370
     5
100
AcDbLine
 10
-765.5462681724271
 20
-251.3850369673315
 30
0.0
 11
-765.5462681724271
 21
-258.38510954968
 31
0.0
  0
LINE
  5
460
330
1F
100
AcDbEntity
  8
0218_
  6
Continuous
 62
     3
370
     5
100
AcDbLine
 10
-765.5462681724271
 20
-251.3850369673315
 30
0.0
 11
-805.5454103810418
 21
-251.3850369673315
 31
0.0
  0
LINE
  5
461
330
1F
100
AcDbEntity
  8
0218_
  6
Continuous
 62
     3
370
     5
100
AcDbLine
 10
-805.5454103810418
 20
-251.3850369673315
 30
0.0
 11
-805.5454103810418
 21
-258.38510954968
 31
0.0
  0
LINE
  5
462
330
1F
100
AcDbEntity
  8
0218_
  6
Continuous
 62
     3
370
     5
100
AcDbLine
 10
-765.5462681724271
 20
-258.38510954968
 30
0.0
 11
-805.5454103810418
 21
-258.38510954968
 31
0.0
  0
LINE
  5
463
330
1F
100
AcDbEntity
  8
0218_
  6
Continuous
 62
     3
370
     5
100
AcDbLine
 10
-835.5466228361729
 20
-251.3850369673315
 30
0.0
 11
-835.5466228361729
 21
-258.38510954968
 31
0.0
  0
LINE
  5
464
330
1F
100
AcDbEntity
  8
0218_
  6
Continuous
 62
     3
370
     5
100
AcDbLine
 10
-835.5466228361729
 20
-251.3850369673315
 30
0.0
 11
-875.5457650447875
 21
-251.3850369673315
 31
0.0
  0
LINE
  5
465
330
1F
100
AcDbEntity
  8
0218_
  6
Continuous
 62
     3
370
     5
100
AcDbLine
 10
-875.5457650447875
 20
-251.3850369673315
 30
0.0
 11
-875.5457650447875
 21
-258.38510954968
 31
0.0
  0
LINE
  5
466
330
1F
100
AcDbEntity
  8
0218_
  6
Continuous
 62
     3
370
     5
100
AcDbLine
 10
-835.5466228361729
 20
-258.38510954968
 30
0.0
 11
-875.5457650447875
 21
-258.38510954968
 31
0.0
  0
LINE
  5
467
330
1F
100
AcDbEntity
  8
0218_
  6
Continuous
 62
     3
370
     5
100
AcDbLine
 10
-905.5469774999185
 20
-251.3850369673315
 30
0.0
 11
-905.5469774999185
 21
-258.38510954968
 31
0.0
  0
LINE
  5
468
330
1F
100
AcDbEntity
  8
0218_
  6
Continuous
 62
     3
370
     5
100
AcDbLine
 10
-905.5469774999185
 20
-251.3850369673315
 30
0.0
 11
-945.5461197085333
 21
-251.3850369673315
 31
0.0
  0
LINE
  5
469
330
1F
100
AcDbEntity
  8
0218_
  6
Continuous
 62
     3
370
     5
100
AcDbLine
 10
-945.5461197085333
 20
-251.3850369673315
 30
0.0
 11
-945.5461197085333
 21
-258.38510954968
 31
0.0
  0
LINE
  5
46A
330
1F
100
AcDbEntity
  8
0218_
  6
Continuous
 62
     3
370
     5
100
AcDbLine
 10
-905.5469774999185
 20
-258.38510954968
 30
0.0
 11
-945.5461197085333
 21
-258.38510954968
 31
0.0
  0
LINE
  5
46B
330
1F
100
AcDbEntity
  8
0218_
  6
Continuous
 62
     3
370
     5
100
AcDbLine
 10
-975.547332163664
 20
-251.3850369673315
 30
0.0
 11
-975.547332163664
 21
-258.38510954968
 31
0.0
  0
LINE
  5
46C
330
1F
100
AcDbEntity
  8
0218_
  6
Continuous
 62
     3
370
     5
100
AcDbLine
 10
-975.547332163664
 20
-251.3850369673315
 30
0.0
 11
-1015.546474372279
 21
-251.3850369673315
 31
0.0
  0
LINE
  5
46D
330
1F
100
AcDbEntity
  8
0218_
  6
Continuous
 62
     3
370
     5
100
AcDbLine
 10
-1015.546474372279
 20
-251.3850369673315
 30
0.0
 11
-1015.546474372279
 21
-258.38510954968
 31
0.0
  0
LINE
  5
46E
330
1F
100
AcDbEntity
  8
0218_
  6
Continuous
 62
     3
370
     5
100
AcDbLine
 10
-975.547332163664
 20
-258.38510954968
 30
0.0
 11
-1015.546474372279
 21
-258.38510954968
 31
0.0
  0
LINE
  5
46F
330
1F
100
AcDbEntity
  8
0218_
  6
Continuous
 62
     3
370
     5
100
AcDbLine
 10
-1045.54768682741
 20
-251.3850369673315
 30
0.0
 11
-1045.54768682741
 21
-258.38510954968
 31
0.0
  0
LINE
  5
470
330
1F
100
AcDbEntity
  8
0218_
  6
Continuous
 62
     3
370
     5
100
AcDbLine
 10
-1045.54768682741
 20
-251.3850369673315
 30
0.0
 11
-1085.546829036025
 21
-251.3850369673315
 31
0.0
  0
LINE
  5
471
330
1F
100
AcDbEntity
  8
0218_
  6
Continuous
 62
     3
370
     5
100
AcDbLine
 10
-1085.546829036025
 20
-251.3850369673315
 30
0.0
 11
-1085.546829036025
 21
-258.38510954968
 31
0.0
  0
LINE
  5
472
330
1F
100
AcDbEntity
  8
0218_
  6
Continuous
 62
     3
370
     5
100
AcDbLine
 10
-1045.54768682741
 20
-258.38510954968
 30
0.0
 11
-1085.546829036025
 21
-258.38510954968
 31
0.0
  0
LINE
  5
473
330
1F
100
AcDbEntity
  8
0218_
  6
Continuous
 62
     3
370
     5
100
AcDbLine
 10
-1115.548041491156
 20
-251.3850369673315
 30
0.0
 11
-1115.548041491156
 21
-258.38510954968
 31
0.0
  0
LINE
  5
474
330
1F
100
AcDbEntity
  8
0218_
  6
Continuous
 62
     3
370
     5
100
AcDbLine
 10
-1115.548041491156
 20
-251.3850369673315
 30
0.0
 11
-1155.547183699771
 21
-251.3850369673315
 31
0.0
  0
LINE
  5
475
330
1F
100
AcDbEntity
  8
0218_
  6
Continuous
 62
     3
370
     5
100
AcDbLine
 10
-1155.547183699771
 20
-251.3850369673315
 30
0.0
 11
-1155.547183699771
 21
-258.38510954968
 31
0.0
  0
LINE
  5
476
330
1F
100
AcDbEntity
  8
0218_
  6
Continuous
 62
     3
370
     5
100
AcDbLine
 10
-1115.548041491156
 20
-258.38510954968
 30
0.0
 11
-1155.547183699771
 21
-258.38510954968
 31
0.0
  0
LINE
  5
477
330
1F
100
AcDbEntity
  8
0218_
  6
Continuous
 62
     3
370
     5
100
AcDbLine
 10
-1185.548396154902
 20
-251.3850369673315
 30
0.0
 11
-1185.548396154902
 21
-258.38510954968
 31
0.0
  0
LINE
  5
478
330
1F
100
AcDbEntity
  8
0218_
  6
Continuous
 62
     3
370
     5
100
AcDbLine
 10
-1185.548396154902
 20
-251.3850369673315
 30
0.0
 11
-1225.547538363516
 21
-251.3850369673315
 31
0.0
  0
LINE
  5
479
330
1F
100
AcDbEntity
  8
0218_
  6
Continuous
 62
     3
370
     5
100
AcDbLine
 10
-1225.547538363516
 20
-251.3850369673315
 30
0.0
 11
-1225.547538363516
 21
-258.38510954968
 31
0.0
  0
LINE
  5
47A
330
1F
100
AcDbEntity
  8
0218_
  6
Continuous
 62
     3
370
     5
100
AcDbLine
 10
-1185.548396154902
 20
-258.38510954968
 30
0.0
 11
-1225.547538363516
 21
-258.38510954968
 31
0.0
  0
LINE
  5
47B
330
1F
100
AcDbEntity
  8
0218_
  6
Continuous
 62
     3
370
     5
100
AcDbLine
 10
-1255.548750818648
 20
-251.3850369673315
 30
0.0
 11
-1255.548750818648
 21
-258.38510954968
 31
0.0
  0
LINE
  5
47C
330
1F
100
AcDbEntity
  8
0218_
  6
Continuous
 62
     3
370
     5
100
AcDbLine
 10
-1255.548750818648
 20
-251.3850369673315
 30
0.0
 11
-1295.547893027262
 21
-251.3850369673315
 31
0.0
  0
LINE
  5
47D
330
1F
100
AcDbEntity
  8
0218_
  6
Continuous
 62
     3
370
     5
100
AcDbLine
 10
-1295.547893027262
 20
-251.3850369673315
 30
0.0
 11
-1295.547893027262
 21
-258.38510954968
 31
0.0
  0
LINE
  5
47E
330
1F
100
AcDbEntity
  8
0218_
  6
Continuous
 62
     3
370
     5
100
AcDbLine
 10
-1255.548750818648
 20
-258.38510954968
 30
0.0
 11
-1295.547893027262
 21
-258.38510954968
 31
0.0
  0
LINE
  5
47F
330
1F
100
AcDbEntity
  8
0218_
  6
Continuous
 62
     3
370
     5
100
AcDbLine
 10
-1325.549105482394
 20
-251.3850369673315
 30
0.0
 11
-1325.549105482394
 21
-258.38510954968
 31
0.0
  0
LINE
  5
480
330
1F
100
AcDbEntity
  8
0218_
  6
Continuous
 62
     3
370
     5
100
AcDbLine
 10
-1325.549105482394
 20
-251.3850369673315
 30
0.0
 11
-1365.548247691008
 21
-251.3850369673315
 31
0.0
  0
LINE
  5
481
330
1F
100
AcDbEntity
  8
0218_
  6
Continuous
 62
     3
370
     5
100
AcDbLine
 10
-1365.548247691008
 20
-251.3850369673315
 30
0.0
 11
-1365.548247691008
 21
-258.38510954968
 31
0.0
  0
LINE
  5
482
330
1F
100
AcDbEntity
  8
0218_
  6
Continuous
 62
     3
370
     5
100
AcDbLine
 10
-1325.549105482394
 20
-258.38510954968
 30
0.0
 11
-1365.548247691008
 21
-258.38510954968
 31
0.0
  0
ARC
  5
483
330
1F
100
AcDbEntity
  8
0218_
  6
Continuous
 62
     3
370
     5
100
AcDbCircle
 10
-707.0455555457374
 20
-263.3850023257565
 30
0.0
 40
5.000000064437454
100
AcDbArc
 50
90.0
 51
180.0
  0
ARC
  5
484
330
1F
100
AcDbEntity
  8
0218_
  6
Continuous
 62
     3
370
     5
100
AcDbCircle
 10
-777.0459102094838
 20
-263.3850023257565
 30
0.0
 40
5.000000064437454
100
AcDbArc
 50
90.0
 51
180.0
  0
ARC
  5
485
330
1F
100
AcDbEntity
  8
0218_
  6
Continuous
 62
     3
370
     5
100
AcDbCircle
 10
-847.0462648732293
 20
-263.3850023257565
 30
0.0
 40
5.000000064437454
100
AcDbArc
 50
90.0
 51
180.0
  0
ARC
  5
486
330
1F
100
AcDbEntity
  8
0218_
  6
Continuous
 62
     3
370
     5
100
AcDbCircle
 10
-917.046619536975
 20
-263.3850023257565
 30
0.0
 40
5.000000064437454
100
AcDbArc
 50
90.0
 51
180.0
  0
ARC
  5
487
330
1F
100
AcDbEntity
  8
0218_
  6
Continuous
 62
     3
370
     5
100
AcDbCircle
 10
-987.0469742007208
 20
-263.3850023257565
 30
0.0
 40
5.000000064437454
100
AcDbArc
 50
90.0
 51
180.0
  0
ARC
  5
488
330
1F
100
AcDbEntity
  8
0218_
  6
Continuous
 62
     3
370
     5
100
AcDbCircle
 10
-1057.047328864467
 20
-263.3850023257565
 30
0.0
 40
5.000000064437454
100
AcDbArc
 50
90.0
 51
180.0
  0
ARC
  5
489
330
1F
100
AcDbEntity
  8
0218_
  6
Continuous
 62
     3
370
     5
100
AcDbCircle
 10
-1127.047683528212
 20
-263.3850023257565
 30
0.0
 40
5.000000064437454
100
AcDbArc
 50
90.0
 51
180.0
  0
ARC
  5
48A
330
1F
100
AcDbEntity
  8
0218_
  6
Continuous
 62
     3
370
     5
100
AcDbCircle
 10
-1197.048038191958
 20
-263.3850023257565
 30
0.0
 40
5.000000064437454
100
AcDbArc
 50
90.0
 51
180.0
  0
ARC
  5
48B
330
1F
100
AcDbEntity
  8
0218_
  6
Continuous
 62
     3
370
     5
100
AcDbCircle
 10
-1267.048392855704
 20
-263.3850023257565
 30
0.0
 40
5.000000064437454
100
AcDbArc
 50
90.0
 51
180.0
  0
ARC
  5
48C
330
1F
100
AcDbEntity
  8
0218_
  6
Continuous
 62
     3
370
     5
100
AcDbCircle
 10
-1337.04874751945
 20
-263.3850023257565
 30
0.0
 40
5.000000064437454
100
AcDbArc
 50
90.0
 51
180.0
  0
LINE
  5
48D
330
1F
100
AcDbEntity
  8
0218_
  6
Continuous
 62
     3
370
     5
100
AcDbLine
 10
-712.0454483218145
 20
-351.3849132474201
 30
0.0
 11
-719.0455209041625
 21
-351.3849132474201
 31
0.0
  0
LINE
  5
48E
330
1F
100
AcDbEntity
  8
0218_
  6
Continuous
 62
     3
370
     5
100
AcDbLine
 10
-782.0458029855604
 20
-351.3849132474201
 30
0.0
 11
-789.0458755679083
 21
-351.3849132474201
 31
0.0
  0
LINE
  5
48F
330
1F
100
AcDbEntity
  8
0218_
  6
Continuous
 62
     3
370
     5
100
AcDbLine
 10
-852.0461576493062
 20
-351.3849132474201
 30
0.0
 11
-859.0462302316541
 21
-351.3849132474201
 31
0.0
  0
LINE
  5
490
330
1F
100
AcDbEntity
  8
0218_
  6
Continuous
 62
     3
370
     5
100
AcDbLine
 10
-922.0465123130521
 20
-351.3849132474201
 30
0.0
 11
-929.0465848954
 21
-351.3849132474201
 31
0.0
  0
LINE
  5
491
330
1F
100
AcDbEntity
  8
0218_
  6
Continuous
 62
     3
370
     5
100
AcDbLine
 10
-992.0468669767979
 20
-351.3849132474201
 30
0.0
 11
-999.0469395591458
 21
-351.3849132474201
 31
0.0
  0
LINE
  5
492
330
1F
100
AcDbEntity
  8
0218_
  6
Continuous
 62
     3
370
     5
100
AcDbLine
 10
-1062.047221640544
 20
-351.3849132474201
 30
0.0
 11
-1069.047294222892
 21
-351.3849132474201
 31
0.0
  0
LINE
  5
493
330
1F
100
AcDbEntity
  8
0218_
  6
Continuous
 62
     3
370
     5
100
AcDbLine
 10
-1132.047576304289
 20
-351.3849132474201
 30
0.0
 11
-1139.047648886637
 21
-351.3849132474201
 31
0.0
  0
LINE
  5
494
330
1F
100
AcDbEntity
  8
0218_
  6
Continuous
 62
     3
370
     5
100
AcDbLine
 10
-1202.047930968035
 20
-351.3849132474201
 30
0.0
 11
-1209.048003550383
 21
-351.3849132474201
 31
0.0
  0
LINE
  5
495
330
1F
100
AcDbEntity
  8
0218_
  6
Continuous
 62
     3
370
     5
100
AcDbLine
 10
-1272.048285631781
 20
-351.3849132474201
 30
0.0
 11
-1279.048358214129
 21
-351.3849132474201
 31
0.0
  0
LINE
  5
496
330
1F
100
AcDbEntity
  8
0218_
  6
Continuous
 62
     3
370
     5
100
AcDbLine
 10
-1342.048640295527
 20
-351.3849132474201
 30
0.0
 11
-1349.048712877875
 21
-351.3849132474201
 31
0.0
  0
LINE
  5
497
330
1F
100
AcDbEntity
  8
0218_
  6
Continuous
 62
     3
370
     5
100
AcDbLine
 10
-712.0454483218145
 20
-263.3850023257565
 30
0.0
 11
-712.0454483218145
 21
-351.3849132474201
 31
0.0
  0
LINE
  5
498
330
1F
100
AcDbEntity
  8
0218_
  6
Continuous
 62
     3
370
     5
100
AcDbLine
 10
-782.0458029855604
 20
-263.3850023257565
 30
0.0
 11
-782.0458029855604
 21
-351.3849132474201
 31
0.0
  0
LINE
  5
499
330
1F
100
AcDbEntity
  8
0218_
  6
Continuous
 62
     3
370
     5
100
AcDbLine
 10
-852.0461576493062
 20
-263.3850023257565
 30
0.0
 11
-852.0461576493062
 21
-351.3849132474201
 31
0.0
  0
LINE
  5
49A
330
1F
100
AcDbEntity
  8
0218_
  6
Continuous
 62
     3
370
     5
100
AcDbLine
 10
-922.0465123130521
 20
-263.3850023257565
 30
0.0
 11
-922.0465123130521
 21
-351.3849132474201
 31
0.0
  0
LINE
  5
49B
330
1F
100
AcDbEntity
  8
0218_
  6
Continuous
 62
     3
370
     5
100
AcDbLine
 10
-992.0468669767979
 20
-263.3850023257565
 30
0.0
 11
-992.0468669767979
 21
-351.3849132474201
 31
0.0
  0
LINE
  5
49C
330
1F
100
AcDbEntity
  8
0218_
  6
Continuous
 62
     3
370
     5
100
AcDbLine
 10
-1062.047221640544
 20
-263.3850023257565
 30
0.0
 11
-1062.047221640544
 21
-351.3849132474201
 31
0.0
  0
LINE
  5
49D
330
1F
100
AcDbEntity
  8
0218_
  6
Continuous
 62
     3
370
     5
100
AcDbLine
 10
-1132.047576304289
 20
-263.3850023257565
 30
0.0
 11
-1132.047576304289
 21
-351.3849132474201
 31
0.0
  0
LINE
  5
49E
330
1F
100
AcDbEntity
  8
0218_
  6
Continuous
 62
     3
370
     5
100
AcDbLine
 10
-1202.047930968035
 20
-263.3850023257565
 30
0.0
 11
-1202.047930968035
 21
-351.3849132474201
 31
0.0
  0
LINE
  5
49F
330
1F
100
AcDbEntity
  8
0218_
  6
Continuous
 62
     3
370
     5
100
AcDbLine
 10
-1272.048285631781
 20
-263.3850023257565
 30
0.0
 11
-1272.048285631781
 21
-351.3849132474201
 31
0.0
  0
LINE
  5
4A0
330
1F
100
AcDbEntity
  8
0218_
  6
Continuous
 62
     3
370
     5
100
AcDbLine
 10
-1342.048640295527
 20
-263.3850023257565
 30
0.0
 11
-1342.048640295527
 21
-351.3849132474201
 31
0.0
  0
LINE
  5
4A1
330
1F
100
AcDbEntity
  8
0218_
  6
Continuous
 62
     3
370
     5
100
AcDbLine
 10
-695.5459135086812
 20
-251.3850369673315
 30
0.0
 11
-695.5459135086812
 21
-351.3849132474201
 31
0.0
  0
LINE
  5
4A2
330
1F
100
AcDbEntity
  8
0218_
  6
Continuous
 62
     3
370
     5
100
AcDbLine
 10
-1363.047002243901
 20
-251.3850369673315
 30
0.0
 11
-1393.214523127822
 21
-251.3850369673315
 31
0.0
  0
LINE
  5
4A3
330
1F
100
AcDbEntity
  8
0218_
  6
Continuous
 62
     3
370
     5
100
AcDbLine
 10
-695.5459135086812
 20
-351.3849132474201
 30
0.0
 11
-1393.214523127822
 21
-351.3849132474201
 31
0.0
  0
TEXT
  5
4A4
330
1F
100
AcDbEntity
  8
0216_
  6
Continuous
 62
     2
370
     5
100
AcDbText
 10
-1394.05944329157
 20
-117.3259714918677
 30
0.0
 40
30.48
  1
□300
 41
1.1
  7
ＭＳ ゴシック
100
AcDbText
  0
TEXT
  5
4A5
330
1F
100
AcDbEntity
  8
0216_
  6
Continuous
 62
     2
370
     5
100
AcDbText
 10
-1394.05944329157
 20
-3.362284627597276
 30
0.0
 40
30.48
  1
□350
 41
1.1
  7
ＭＳ ゴシック
100
AcDbText
  0
TEXT
  5
4A6
330
1F
100
AcDbEntity
  8
0216_
  6
Continuous
 62
     2
370
     5
100
AcDbText
 10
-1394.05944329157
 20
107.0866949642396
 30
0.0
 40
30.48
  1
□362
 41
1.1
  7
ＭＳ ゴシック
100
AcDbText
  0
LINE
  5
4A7
330
1F
100
AcDbEntity
  8
0216_
  6
Continuous
 62
     7
370
     5
100
AcDbLine
 10
-820.5457513840474
 20
-923.8856091719214
 30
0.0
 11
-420.5448835404195
 21
-923.8856091719214
 31
0.0
  0
LINE
  5
4A8
330
1F
100
AcDbEntity
  8
0216_
  6
Continuous
 62
     7
370
     5
100
AcDbLine
 10
-420.5448835404195
 20
-568.7585606794897
 30
0.0
 11
-420.5448835404195
 21
-926.8846478682104
 31
0.0
  0
LINE
  5
4A9
330
1F
100
AcDbEntity
  8
0216_
  6
Continuous
 62
     7
370
     5
100
AcDbLine
 10
-820.5457513840474
 20
-773.8856091719214
 30
0.0
 11
-820.5457513840474
 21
-926.8846478682104
 31
0.0
  0
LWPOLYLINE
  5
4AA
330
1F
100
AcDbEntity
  8
0216_
  6
Continuous
 62
     7
370
     5
100
AcDbPolyline
 90
        4
 70
     1
 43
1.0
 10
-820.0457513840474
 20
-923.8856091719214
 42
0.4142135623731
 10
-820.5457513840474
 20
-923.3856091719214
 42
0.4142135623731
 10
-821.0457513840474
 20
-923.8856091719214
 42
0.4142135623731
 10
-820.5457513840474
 20
-924.3856091719214
 42
0.4142135623731
  0
LWPOLYLINE
  5
4AB
330
1F
100
AcDbEntity
  8
0216_
  6
Continuous
 62
     7
370
     5
100
AcDbPolyline
 90
        4
 70
     1
 43
1.0
 10
-420.0448835404195
 20
-923.8856091719214
 42
0.4142135623731
 10
-420.5448835404195
 20
-923.3856091719214
 42
0.4142135623731
 10
-421.0448835404195
 20
-923.8856091719214
 42
0.4142135623731
 10
-420.5448835404195
 20
-924.3856091719214
 42
0.4142135623731
  0
TEXT
  5
4AC
330
1F
100
AcDbEntity
  8
0216_
  6
Continuous
 62
     2
370
     5
100
AcDbText
 10
-688.4141361029424
 20
-913.2453039961401
 30
0.0
 40
30.48
  1
75～80
 41
1.104166666666667
  7
ＭＳ ゴシック
100
AcDbText
  0
LINE
  5
4AD
330
1F
100
AcDbEntity
  8
0216_
  6
Continuous
 62
     7
370
     5
100
AcDbLine
 10
-94.51621227577107
 20
-498.8855710249487
 30
0.0
 11
-94.51621227577107
 21
-248.885396979386
 31
0.0
  0
LINE
  5
4AE
330
1F
100
AcDbEntity
  8
0216_
  6
Continuous
 62
     7
370
     5
100
AcDbLine
 10
-244.5162122757711
 20
-248.885396979386
 30
0.0
 11
-91.51564770057576
 21
-248.885396979386
 31
0.0
  0
LINE
  5
4AF
330
1F
100
AcDbEntity
  8
0216_
  6
Continuous
 62
     7
370
     5
100
AcDbLine
 10
-364.7669904740133
 20
-498.8855710249487
 30
0.0
 11
-91.51564770057576
 21
-498.8855710249487
 31
0.0
  0
LWPOLYLINE
  5
4B0
330
1F
100
AcDbEntity
  8
0216_
  6
Continuous
 62
     7
370
     5
100
AcDbPolyline
 90
        4
 70
     1
 43
1.0
 10
-94.01621227577107
 20
-498.8855710249487
 42
0.4142135623731
 10
-94.51621227577107
 20
-498.3855710249487
 42
0.4142135623731
 10
-95.01621227577107
 20
-498.8855710249487
 42
0.4142135623731
 10
-94.51621227577107
 20
-499.3855710249487
 42
0.4142135623731
  0
LWPOLYLINE
  5
4B1
330
1F
100
AcDbEntity
  8
0216_
  6
Continuous
 62
     7
370
     5
100
AcDbPolyline
 90
        4
 70
     1
 43
1.0
 10
-94.01621227577107
 20
-248.885396979386
 42
0.4142135623731
 10
-94.51621227577107
 20
-248.385396979386
 42
0.4142135623731
 10
-95.01621227577107
 20
-248.885396979386
 42
0.4142135623731
 10
-94.51621227577107
 20
-249.385396979386
 42
0.4142135623731
  0
TEXT
  5
4B2
330
1F
100
AcDbEntity
  8
0216_
  6
Continuous
 62
     2
370
     5
100
AcDbText
 10
-105.1564793045797
 20
-440.1348655524868
 30
0.0
 40
30.48
  1
40～50
 50
90.00000250447816
 41
1.104166666666666
  7
ＭＳ ゴシック
100
AcDbText
  0
LINE
  5
4B3
330
1F
100
AcDbEntity
  8
0216_
  6
Continuous
 62
     7
370
     5
100
AcDbLine
 10
-665.5462711365499
 20
-386.8531384687964
 30
0.0
 11
-665.5462711365499
 21
-479.8532071333472
 31
0.0
  0
LINE
  5
4B4
330
1F
100
AcDbEntity
  8
0216_
  6
Continuous
 62
     7
370
     5
100
AcDbLine
 10
-665.5462711365499
 20
-476.8531384687964
 30
0.0
 11
-520.5463331253804
 21
-476.8531384687964
 31
0.0
  0
LINE
  5
4B5
330
1F
100
AcDbEntity
  8
0216_
  6
Continuous
 62
     7
370
     5
100
AcDbLine
 10
-520.5463331253804
 20
-393.7614598494116
 30
0.0
 11
-520.5463331253804
 21
-479.8532071333472
 31
0.0
  0
LWPOLYLINE
  5
4B6
330
1F
100
AcDbEntity
  8
0216_
  6
Continuous
 62
     7
370
     5
100
AcDbPolyline
 90
        4
 70
     1
 43
1.0
 10
-665.0462711365499
 20
-476.8531384687964
 42
0.4142135623731
 10
-665.5462711365499
 20
-476.3531384687964
 42
0.4142135623731
 10
-666.0462711365499
 20
-476.8531384687964
 42
0.4142135623731
 10
-665.5462711365499
 20
-477.3531384687964
 42
0.4142135623731
  0
LWPOLYLINE
  5
4B7
330
1F
100
AcDbEntity
  8
0216_
  6
Continuous
 62
     7
370
     5
100
AcDbPolyline
 90
        4
 70
     1
 43
1.0
 10
-520.0463331253804
 20
-476.8531384687964
 42
0.4142135623731
 10
-520.5463331253804
 20
-476.3531384687964
 42
0.4142135623731
 10
-521.0463331253804
 20
-476.8531384687964
 42
0.4142135623731
 10
-520.5463331253804
 20
-477.3531384687964
 42
0.4142135623731
  0
TEXT
  5
4B8
330
1F
100
AcDbEntity
  8
0216_
  6
Continuous
 62
     2
370
     5
100
AcDbText
 10
-641.5566652329244
 20
-466.2133673506323
 30
0.0
 40
30.48
  1
29
 41
1.0625
  7
ＭＳ ゴシック
100
AcDbText
  0
LINE
  5
4B9
330
1F
100
AcDbEntity
  8
0216_
  6
Continuous
 62
     7
370
     5
100
AcDbLine
 10
-665.5462711365499
 20
-476.8531384687964
 30
0.0
 11
-820.5457513840474
 21
-476.8531384687964
 31
0.0
  0
LWPOLYLINE
  5
4BA
330
1F
100
AcDbEntity
  8
0216_
  6
Continuous
 62
     7
370
     5
100
AcDbPolyline
 90
        4
 70
     1
 43
1.0
 10
-665.0462711365499
 20
-476.8531384687964
 42
0.4142135623731
 10
-665.5462711365499
 20
-476.3531384687964
 42
0.4142135623731
 10
-666.0462711365499
 20
-476.8531384687964
 42
0.4142135623731
 10
-665.5462711365499
 20
-477.3531384687964
 42
0.4142135623731
  0
LWPOLYLINE
  5
4BB
330
1F
100
AcDbEntity
  8
0216_
  6
Continuous
 62
     7
370
     5
100
AcDbPolyline
 90
        4
 70
     1
 43
1.0
 10
-820.0457513840474
 20
-476.8531384687964
 42
0.4142135623731
 10
-820.5457513840474
 20
-476.3531384687964
 42
0.4142135623731
 10
-821.0457513840474
 20
-476.8531384687964
 42
0.4142135623731
 10
-820.5457513840474
 20
-477.3531384687964
 42
0.4142135623731
  0
LINE
  5
4BC
330
1F
100
AcDbEntity
  8
0226_下階梁情報
  6
Continuous
 62
     7
370
     5
100
AcDbLine
 10
-706.6844681785424
 20
-416.6140859294732
 30
0.0
 11
-706.6844681785424
 21
-415.1138036418755
 31
0.0
  0
LINE
  5
4BD
330
1F
100
AcDbEntity
  8
0226_下階梁情報
  6
Continuous
 62
     7
370
     5
100
AcDbLine
 10
-706.6844681785424
 20
-415.1138036418755
 30
0.0
 11
-705.184188871177
 21
-415.1138036418755
 31
0.0
  0
LINE
  5
4BE
330
1F
100
AcDbEntity
  8
0226_下階梁情報
  6
Continuous
 62
     7
370
     5
100
AcDbLine
 10
-705.184188871177
 20
-415.1138036418755
 30
0.0
 11
-705.184188871177
 21
-416.6140859294732
 31
0.0
  0
LINE
  5
4BF
330
1F
100
AcDbEntity
  8
0226_下階梁情報
  6
Continuous
 62
     7
370
     5
100
AcDbLine
 10
-705.184188871177
 20
-416.6140859294732
 30
0.0
 11
-706.6844681785424
 21
-416.6140859294732
 31
0.0
  0
LINE
  5
4C0
330
1F
100
AcDbEntity
  8
0226_下階梁情報
  6
Continuous
 62
     7
370
     5
100
AcDbLine
 10
-756.049011139663
 20
-404.7669332195122
 30
0.0
 11
-756.049011139663
 21
-403.2666509319146
 31
0.0
  0
LINE
  5
4C1
330
1F
100
AcDbEntity
  8
0226_下階梁情報
  6
Continuous
 62
     7
370
     5
100
AcDbLine
 10
-756.049011139663
 20
-403.2666509319146
 30
0.0
 11
-754.5487336204369
 21
-403.2666509319146
 31
0.0
  0
LINE
  5
4C2
330
1F
100
AcDbEntity
  8
0226_下階梁情報
  6
Continuous
 62
     7
370
     5
100
AcDbLine
 10
-754.5487336204369
 20
-403.2666509319146
 30
0.0
 11
-754.5487336204369
 21
-404.7669332195122
 31
0.0
  0
LINE
  5
4C3
330
1F
100
AcDbEntity
  8
0226_下階梁情報
  6
Continuous
 62
     7
370
     5
100
AcDbLine
 10
-754.5487336204369
 20
-404.7669332195122
 30
0.0
 11
-756.049011139663
 21
-404.7669332195122
 31
0.0
  0
LINE
  5
4C4
330
1F
100
AcDbEntity
  8
0226_下階梁情報
  6
Continuous
 62
     7
370
     5
100
AcDbLine
 10
-625.5853626761375
 20
-405.4632001442254
 30
0.0
 11
-625.5853626761375
 21
-403.9629369301141
 31
0.0
  0
LINE
  5
4C5
330
1F
100
AcDbEntity
  8
0226_下階梁情報
  6
Continuous
 62
     7
370
     5
100
AcDbLine
 10
-625.5853626761375
 20
-403.9629369301141
 30
0.0
 11
-624.0855762991844
 21
-403.9629369301141
 31
0.0
  0
LINE
  5
4C6
330
1F
100
AcDbEntity
  8
0226_下階梁情報
  6
Continuous
 62
     7
370
     5
100
AcDbLine
 10
-624.0855762991844
 20
-403.9629369301141
 30
0.0
 11
-624.0855762991844
 21
-405.4632001442254
 31
0.0
  0
LINE
  5
4C7
330
1F
100
AcDbEntity
  8
0226_下階梁情報
  6
Continuous
 62
     7
370
     5
100
AcDbLine
 10
-624.0855762991844
 20
-405.4632001442254
 30
0.0
 11
-625.5853626761375
 21
-405.4632001442254
 31
0.0
  0
LINE
  5
4C8
330
1F
100
AcDbEntity
  8
0226_下階梁情報
  6
Continuous
 62
     7
370
     5
100
AcDbLine
 10
-591.3063547644554
 20
-399.9540906471551
 30
0.0
 11
-591.3063547644554
 21
-398.4538083595575
 31
0.0
  0
LINE
  5
4C9
330
1F
100
AcDbEntity
  8
0226_下階梁情報
  6
Continuous
 62
     7
370
     5
100
AcDbLine
 10
-591.3063547644554
 20
-398.4538083595575
 30
0.0
 11
-589.8065683875022
 21
-398.4538083595575
 31
0.0
  0
LINE
  5
4CA
330
1F
100
AcDbEntity
  8
0226_下階梁情報
  6
Continuous
 62
     7
370
     5
100
AcDbLine
 10
-589.8065683875022
 20
-398.4538083595575
 30
0.0
 11
-589.8065683875022
 21
-399.9540906471551
 31
0.0
  0
LINE
  5
4CB
330
1F
100
AcDbEntity
  8
0226_下階梁情報
  6
Continuous
 62
     7
370
     5
100
AcDbLine
 10
-589.8065683875022
 20
-399.9540906471551
 30
0.0
 11
-591.3063547644554
 21
-399.9540906471551
 31
0.0
  0
LINE
  5
4CC
330
1F
100
AcDbEntity
  8
0216_
  6
Continuous
 62
     7
370
     5
100
AcDbLine
 10
-508.719493678359
 20
-383.8852753859106
 30
0.0
 11
-415.719939997939
 21
-383.8852753859106
 31
0.0
  0
LINE
  5
4CD
330
1F
100
AcDbEntity
  8
0216_
  6
Continuous
 62
     7
370
     5
100
AcDbLine
 10
-508.719493678359
 20
-333.8855424147192
 30
0.0
 11
-415.719939997939
 21
-333.8855424147192
 31
0.0
  0
LINE
  5
4CE
330
1F
100
AcDbEntity
  8
0216_
  6
Continuous
 62
     7
370
     5
100
AcDbLine
 10
-418.719493678359
 20
-333.8855424147192
 30
0.0
 11
-418.719493678359
 21
-248.885396979386
 31
0.0
  0
LINE
  5
4CF
330
1F
100
AcDbEntity
  8
0216_
  6
Continuous
 62
     7
370
     5
100
AcDbLine
 10
-418.719493678359
 20
-383.8852753859106
 30
0.0
 11
-418.719493678359
 21
-333.8855424147192
 31
0.0
  0
LWPOLYLINE
  5
4D0
330
1F
100
AcDbEntity
  8
0216_
  6
Continuous
 62
     7
370
     5
100
AcDbPolyline
 90
        4
 70
     1
 43
1.0
 10
-418.219493678359
 20
-248.885396979386
 42
0.4142135623731
 10
-418.719493678359
 20
-248.385396979386
 42
0.4142135623731
 10
-419.219493678359
 20
-248.885396979386
 42
0.4142135623731
 10
-418.719493678359
 20
-249.385396979386
 42
0.4142135623731
  0
LWPOLYLINE
  5
4D1
330
1F
100
AcDbEntity
  8
0216_
  6
Continuous
 62
     7
370
     5
100
AcDbPolyline
 90
        4
 70
     1
 43
1.0
 10
-418.219493678359
 20
-333.8855424147192
 42
0.4142135623731
 10
-418.719493678359
 20
-333.3855424147192
 42
0.4142135623731
 10
-419.219493678359
 20
-333.8855424147192
 42
0.4142135623731
 10
-418.719493678359
 20
-334.3855424147192
 42
0.4142135623731
  0
LWPOLYLINE
  5
4D2
330
1F
100
AcDbEntity
  8
0216_
  6
Continuous
 62
     7
370
     5
100
AcDbPolyline
 90
        4
 70
     1
 43
1.0
 10
-418.219493678359
 20
-383.8852753859106
 42
0.4142135623731
 10
-418.719493678359
 20
-383.3852753859106
 42
0.4142135623731
 10
-419.219493678359
 20
-383.8852753859106
 42
0.4142135623731
 10
-418.719493678359
 20
-384.3852753859106
 42
0.4142135623731
  0
TEXT
  5
4D3
330
1F
100
AcDbEntity
  8
0216_
  6
Continuous
 62
     2
370
     5
100
AcDbText
 10
-429.3597797806539
 20
-380.1350753608364
 30
0.0
 40
30.48
  1
10
 50
90.00000250447819
 41
1.062500000000001
  7
ＭＳ ゴシック
100
AcDbText
  0
TEXT
  5
4D4
330
1F
100
AcDbEntity
  8
0216_
  6
Continuous
 62
     2
370
     5
100
AcDbText
 10
-429.3597797806539
 20
-312.6353805366177
 30
0.0
 40
30.48
  1
17
 50
90.00000250447819
 41
1.062500000000001
  7
ＭＳ ゴシック
100
AcDbText
  0
LINE
  5
4D5
330
1F
100
AcDbEntity
  8
0242_
  6
Continuous
 62
     7
370
     5
100
AcDbLine
 10
-529.8723743669584
 20
-333.8850465040747
 30
0.0
 11
-403.9638469926908
 21
-189.2225327711645
 31
0.0
  0
LINE
  5
4D6
330
1F
100
AcDbEntity
  8
0242_
  6
Continuous
 62
     7
370
     5
100
AcDbLine
 10
-403.9638469926908
 20
-189.2225327711645
 30
0.0
 11
-17.26287348194859
 21
-189.2225327711645
 31
0.0
  0
TEXT
  5
4D7
330
1F
100
AcDbEntity
  8
0242_
  6
Continuous
 62
     7
370
     5
100
AcDbText
 10
-403.5218952409818
 20
-218.752783577973
 30
0.0
 40
22.86
  1
ｔ＝２．３（ＳＰＨＣ）
 41
1.151515151515152
  7
ＭＳ ゴシック
100
AcDbText
  0
LINE
  5
4D8
330
1F
100
AcDbEntity
  8
0242_
  6
Continuous
 62
     7
370
     5
100
AcDbLine
 10
-529.8733661882475
 20
-333.8860383253638
 30
0.0
 11
-511.1387012712552
 21
-317.3319306593481
 31
0.0
  0
LINE
  5
4D9
330
1F
100
AcDbEntity
  8
0242_
  6
Continuous
 62
     7
370
     5
100
AcDbLine
 10
-529.8733661882475
 20
-333.8860383253638
 30
0.0
 11
-516.0626695863798
 21
-313.0466189604346
 31
0.0
  0
LINE
  5
4DA
330
1F
100
AcDbEntity
  8
0242_
  6
Continuous
 62
     7
370
     5
100
AcDbLine
 10
-669.9071998197733
 20
-248.885396979386
 30
0.0
 11
-656.0965056020914
 21
-228.0469714101497
 31
0.0
  0
LINE
  5
4DB
330
1F
100
AcDbEntity
  8
0242_
  6
Continuous
 62
     7
370
     5
100
AcDbLine
 10
-669.9071998197733
 20
-248.885396979386
 30
0.0
 11
-651.1725372869669
 21
-232.3312900956813
 31
0.0
  0
LINE
  5
4DC
330
1F
100
AcDbEntity
  8
0242_
  6
Continuous
 62
     7
370
     5
100
AcDbLine
 10
-532.0451849015035
 20
-413.1876179477846
 30
0.0
 11
-406.1366575272359
 21
-557.8501316806947
 31
0.0
  0
LINE
  5
4DD
330
1F
100
AcDbEntity
  8
0242_
  6
Continuous
 62
     7
370
     5
100
AcDbLine
 10
-532.0461767227926
 20
-413.1866261264955
 30
0.0
 11
-518.2354801209249
 21
-434.0260454914247
 31
0.0
  0
LINE
  5
4DE
330
1F
100
AcDbEntity
  8
0242_
  6
Continuous
 62
     7
370
     5
100
AcDbLine
 10
-532.0461767227926
 20
-413.1866261264955
 30
0.0
 11
-513.3115118058004
 21
-429.7407337925112
 31
0.0
  0
TEXT
  5
4DF
330
1F
100
AcDbEntity
  8
0242_
  6
Continuous
 62
     7
370
     5
100
AcDbText
 10
-405.6947057755269
 20
-549.8598808738863
 30
0.0
 40
22.86
  1
差筋φ9程度
 41
1.136363636363636
  7
ＭＳ ゴシック
100
AcDbText
  0
LINE
  5
4E0
330
1F
100
AcDbEntity
  8
0242_
  6
Continuous
 62
     7
370
     5
100
AcDbLine
 10
-406.1366575272359
 20
-557.8501316806947
 30
0.0
 11
-216.9837934201763
 21
-557.8501316806947
 31
0.0
  0
LINE
  5
4E1
330
1F
100
AcDbEntity
  8
0218_
  6
Continuous
 62
     3
370
     5
100
AcDbLine
 10
-1413.214451920139
 20
-316.3851099620794
 30
0.0
 11
-1373.214268814671
 21
-286.3844690929388
 31
0.0
  0
LINE
  5
4E2
330
1F
100
AcDbEntity
  8
0218_
  6
Continuous
 62
     3
370
     5
100
AcDbLine
 10
-1393.214523127822
 20
-286.3844690929388
 30
0.0
 11
-1373.214268814671
 21
-286.3844690929388
 31
0.0
  0
LINE
  5
4E3
330
1F
100
AcDbEntity
  8
0218_
  6
Continuous
 62
     3
370
     5
100
AcDbLine
 10
-1393.214523127822
 20
-286.3844690929388
 30
0.0
 11
-1393.214523127822
 21
-201.3846658075976
 31
0.0
  0
LINE
  5
4E4
330
1F
100
AcDbEntity
  8
0218_
  6
Continuous
 62
     3
370
     5
100
AcDbLine
 10
-1413.214451920139
 20
-316.3851099620794
 30
0.0
 11
-1393.214523127822
 21
-316.3851099620794
 31
0.0
  0
LINE
  5
4E5
330
1F
100
AcDbEntity
  8
0218_
  6
Continuous
 62
     3
370
     5
100
AcDbLine
 10
-1393.214523127822
 20
-401.3849132474206
 30
0.0
 11
-1393.214523127822
 21
-316.3851099620794
 31
0.0
  0
TEXT
  5
4E6
330
1F
100
AcDbEntity
  8
0242_
  6
Continuous
 62
     7
370
     5
100
AcDbText
 10
-403.5218952409818
 20
-177.5287914686743
 30
0.0
 40
22.86
  1
溶接用アンカー
 41
1.142857142857143
  7
ＭＳ ゴシック
100
AcDbText
  0
LINE
  5
4E7
330
1F
100
AcDbEntity
  8
0216_
  6
Continuous
 62
     7
370
     5
100
AcDbLine
 10
-1513.214523127822
 20
-351.3849132474201
 30
0.0
 11
-1513.214523127822
 21
-251.3850369673315
 31
0.0
  0
LWPOLYLINE
  5
4E8
330
1F
100
AcDbEntity
  8
0216_
  6
Continuous
 62
     7
370
     5
100
AcDbPolyline
 90
        4
 70
     1
 43
1.0
 10
-1512.714523127822
 20
-351.3849132474201
 42
0.4142135623731
 10
-1513.214523127822
 20
-350.8849132474201
 42
0.4142135623731
 10
-1513.714523127822
 20
-351.3849132474201
 42
0.4142135623731
 10
-1513.214523127822
 20
-351.8849132474201
 42
0.4142135623731
  0
LWPOLYLINE
  5
4E9
330
1F
100
AcDbEntity
  8
0216_
  6
Continuous
 62
     7
370
     5
100
AcDbPolyline
 90
        4
 70
     1
 43
1.0
 10
-1512.714523127822
 20
-251.3850369673315
 42
0.4142135623731
 10
-1513.214523127822
 20
-250.8850369673315
 42
0.4142135623731
 10
-1513.714523127822
 20
-251.3850369673315
 42
0.4142135623731
 10
-1513.214523127822
 20
-251.8850369673315
 42
0.4142135623731
  0
LINE
  5
4EA
330
1F
100
AcDbEntity
  8
0216_
  6
Continuous
 62
     7
370
     5
100
AcDbLine
 10
-1516.214523127822
 20
-351.3849132474201
 30
0.0
 11
-1413.214523127822
 21
-351.3849132474201
 31
0.0
  0
LINE
  5
4EB
330
1F
100
AcDbEntity
  8
0216_
  6
Continuous
 62
     7
370
     5
100
AcDbLine
 10
-1516.214523127822
 20
-251.3850369673315
 30
0.0
 11
-1413.214523127822
 21
-251.3850369673315
 31
0.0
  0
TEXT
  5
4EC
330
1F
100
AcDbEntity
  8
0216_
  6
Continuous
 62
     2
370
   211
100
AcDbText
 10
-1528.854523127822
 20
-322.6349751073758
 30
0.0
 40
30.48
  1
20
 50
90.0
 41
1.0625
  7
ＭＳ ゴシック
100
AcDbText
  0
TEXT
  5
4ED
330
1F
100
AcDbEntity
  8
0216_
  6
Continuous
 62
     2
370
   211
100
AcDbText
 10
-767.8549907043339
 20
-466.2131384687964
 30
0.0
 40
30.48
  1
31
 41
1.0625
  7
ＭＳ ゴシック
100
AcDbText
  0
TEXT
  5
4EE
330
1F
100
AcDbEntity
  8
0242_
  6
Continuous
 62
     2
370
     5
100
AcDbText
 10
-1131.290860516932
 20
-1064.768452507915
 30
0.0
 40
30.48
  1
A断面詳細図　Ｓ＝１：２
 50
359.9999375525338
 41
1.114130434782608
  7
ＭＳ ゴシック
100
AcDbText
  0
TEXT
  5
4EF
330
1F
100
AcDbEntity
  8
0242_
  6
Continuous
 62
     7
370
     5
100
AcDbText
 10
-477.0950691790543
 20
-17.9516823301348
 30
0.0
 40
22.86
  1
ステンレス製受枠ＳＦ２０Ｂ
 41
1.153846153846154
  7
ＭＳ ゴシック
100
AcDbText
  0
LINE
  5
4F0
330
1F
100
AcDbEntity
  8
0242_
  6
Continuous
 62
     7
370
     5
100
AcDbLine
 10
-669.9071998197733
 20
-248.885396979386
 30
0.0
 11
-476.7333786578143
 21
-26.93965886211728
 31
0.0
  0
LINE
  5
4F1
330
1F
100
AcDbEntity
  8
0242_
  6
Continuous
 62
     7
370
     5
100
AcDbLine
 10
-476.7333786578141
 20
-26.93965886211723
 30
0.0
 11
-27.94521261167162
 21
-26.93965886211723
 31
0.0
  0
LINE
  5
4F2
330
1F
100
AcDbEntity
  8
0242_
  6
Continuous
 62
     7
370
     5
100
AcDbLine
 10
-501.1899963511772
 20
41.56449289561102
 30
0.0
 11
-756.1630181632747
 21
-251.3850369673315
 31
0.0
  0
TEXT
  5
4F3
330
1F
100
AcDbEntity
  8
0242_
  6
Continuous
 62
     7
370
     5
100
AcDbText
 10
-480.5116150990494
 20
-120.8769915374454
 30
0.0
 40
22.86
  1
（軟質塩化ビニル）
 41
1.148148148148148
  7
ＭＳ ゴシック
100
AcDbText
  0
TEXT
  5
4F4
330
1F
100
AcDbEntity
  8
0242_
  6
Continuous
 62
     7
370
     5
100
AcDbText
 10
-472.2189031128505
 20
-83.19833224662356
 30
0.0
 40
22.86
  1
クッション材
 41
1.138888888888888
  7
ＭＳ ゴシック
100
AcDbText
  0
LINE
  5
4F5
330
1F
100
AcDbEntity
  8
0242_
  6
Continuous
 62
     7
370
     5
100
AcDbLine
 10
-473.0512891296962
 20
-90.95012751945075
 30
0.0
 11
-176.3855241525672
 21
-90.95012751945072
 31
0.0
  0
LINE
  5
4F6
330
1F
100
AcDbEntity
  8
0242_
  6
Continuous
 62
     7
370
     5
100
AcDbLine
 10
-473.0512891296962
 20
-90.95012751945075
 30
0.0
 11
-704.9842227424016
 21
-357.4267544966284
 31
0.0
  0
LINE
  5
4F7
330
1F
100
AcDbEntity
  8
0242_
  6
Continuous
 62
     7
370
     5
100
AcDbLine
 10
-704.9847162688603
 20
-357.4272504072729
 30
0.0
 11
-686.2510425771108
 21
-340.8731427412573
 31
0.0
  0
LINE
  5
4F8
330
1F
100
AcDbEntity
  8
0242_
  6
Continuous
 62
     7
370
     5
100
AcDbLine
 10
-704.9847162688603
 20
-357.4272504072729
 30
0.0
 11
-691.1720384086003
 21
-336.5893140059057
 31
0.0
  0
TEXT
  5
4F9
330
1F
100
AcDbEntity
  8
0216_
  6
Continuous
 62
     2
370
     5
100
AcDbText
 10
-703.6735583373975
 20
-8.574531443649889
 30
0.0
 40
30.48
  1
1
 41
0.9999999999999998
  7
ＭＳ ゴシック
100
AcDbText
  0
LINE
  5
4FA
330
1F
100
AcDbEntity
  8
0242_
  6
Continuous
 62
     7
370
     5
100
AcDbLine
 10
-587.5406568558492
 20
-1082.90814733213
 30
0.0
 11
-1162.541076472548
 21
-1082.90814733213
 31
0.0
  0
LINE
  5
4FB
330
1F
100
AcDbEntity
  8
0242_
  6
Continuous
 62
     7
370
     5
100
AcDbLine
 10
444.1903452408874
 20
642.3765488075327
 30
0.0
 11
424.3565117336064
 21
627.1575130823146
 31
0.0
  0
LINE
  5
4FC
330
1F
100
AcDbEntity
  8
0242_
  6
Continuous
 62
     7
370
     5
100
AcDbLine
 10
444.1903452408874
 20
642.3765488075327
 30
0.0
 11
428.9713095156694
 21
622.5427153002518
 31
0.0
  0
LINE
  5
4FD
330
1F
100
AcDbEntity
  8
0226_下階梁情報
  6
Continuous
 62
     3
370
     5
100
AcDbLine
 10
456.5648107708708
 20
630.0020832775492
 30
0.0
 11
481.3137418308375
 21
654.7510143375152
 31
0.0
  0
LINE
  5
4FE
330
1F
100
AcDbEntity
  8
0226_下階梁情報
  6
Continuous
 62
     3
370
     5
100
AcDbLine
 10
481.3137418308375
 20
654.7510143375152
 30
0.0
 11
456.5648107708708
 21
679.4999453974816
 31
0.0
  0
LINE
  5
4FF
330
1F
100
AcDbEntity
  8
0226_下階梁情報
  6
Continuous
 62
     3
370
     5
100
AcDbLine
 10
456.5648107708708
 20
679.4999453974816
 30
0.0
 11
431.8158797109041
 21
654.7510143375152
 31
0.0
  0
LINE
  5
500
330
1F
100
AcDbEntity
  8
0226_下階梁情報
  6
Continuous
 62
     3
370
     5
100
AcDbLine
 10
431.8158797109041
 20
654.7510143375152
 30
0.0
 11
456.5648107708708
 21
630.0020832775492
 31
0.0
  0
LINE
  5
501
330
1F
100
AcDbEntity
  8
0226_下階梁情報
  6
Continuous
 62
     3
370
     5
100
AcDbLine
 10
474.0649922267406
 20
672.2511957933851
 30
0.0
 11
463.8135603749666
 21
672.2511957933851
 31
0.0
  0
LINE
  5
502
330
1F
100
AcDbEntity
  8
0226_下階梁情報
  6
Continuous
 62
     3
370
     5
100
AcDbLine
 10
449.316061166775
 20
672.2511957933851
 30
0.0
 11
439.0646293149999
 21
672.2511957933851
 31
0.0
  0
LINE
  5
503
330
1F
100
AcDbEntity
  8
0226_下階梁情報
  6
Continuous
 62
     3
370
     5
100
AcDbLine
 10
439.0646293149999
 20
672.2511957933851
 30
0.0
 11
439.0646293149999
 21
661.9997639416117
 31
0.0
  0
LINE
  5
504
330
1F
100
AcDbEntity
  8
0226_下階梁情報
  6
Continuous
 62
     3
370
     5
100
AcDbLine
 10
439.0646293149999
 20
647.5022647334191
 30
0.0
 11
439.0646293149999
 21
637.2508328816452
 31
0.0
  0
LINE
  5
505
330
1F
100
AcDbEntity
  8
0226_下階梁情報
  6
Continuous
 62
     3
370
     5
100
AcDbLine
 10
439.0646293149999
 20
637.2508328816452
 30
0.0
 11
449.316061166775
 21
637.2508328816452
 31
0.0
  0
LINE
  5
506
330
1F
100
AcDbEntity
  8
0226_下階梁情報
  6
Continuous
 62
     3
370
     5
100
AcDbLine
 10
463.8135603749666
 20
637.2508328816452
 30
0.0
 11
474.0649922267406
 21
637.2508328816452
 31
0.0
  0
LINE
  5
507
330
1F
100
AcDbEntity
  8
0226_下階梁情報
  6
Continuous
 62
     3
370
     5
100
AcDbLine
 10
474.0649922267406
 20
637.2508328816452
 30
0.0
 11
474.0649922267406
 21
647.5022647334191
 31
0.0
  0
LINE
  5
508
330
1F
100
AcDbEntity
  8
0226_下階梁情報
  6
Continuous
 62
     3
370
     5
100
AcDbLine
 10
474.0649922267406
 20
661.9997639416117
 30
0.0
 11
474.0649922267406
 21
672.2511957933851
 31
0.0
  0
LINE
  5
509
330
1F
100
AcDbEntity
  8
0226_下階梁情報
  6
JWW_CENTER1
 62
     3
370
     5
100
AcDbLine
 10
486.7449222177666
 20
654.7510143375152
 30
0.0
 11
426.3843281642406
 21
654.7510143375152
 31
0.0
  0
LINE
  5
50A
330
1F
100
AcDbEntity
  8
0226_下階梁情報
  6
JWW_CENTER1
 62
     3
370
     5
100
AcDbLine
 10
456.5648107708708
 20
624.5709028906191
 30
0.0
 11
456.5648107708708
 21
684.9314969441452
 31
0.0
  0
LINE
  5
50B
330
1F
100
AcDbEntity
  8
0226_下階梁情報
  6
Continuous
 62
     3
370
     5
100
AcDbLine
 10
856.5648107708707
 20
630.0020832775492
 30
0.0
 11
881.313370671103
 21
654.7510143375152
 31
0.0
  0
LINE
  5
50C
330
1F
100
AcDbEntity
  8
0226_下階梁情報
  6
Continuous
 62
     3
370
     5
100
AcDbLine
 10
881.313370671103
 20
654.7510143375152
 30
0.0
 11
856.5648107708707
 21
679.4999453974816
 31
0.0
  0
LINE
  5
50D
330
1F
100
AcDbEntity
  8
0226_下階梁情報
  6
Continuous
 62
     3
370
     5
100
AcDbLine
 10
856.5648107708707
 20
679.4999453974816
 30
0.0
 11
831.8162508706384
 21
654.7510143375152
 31
0.0
  0
LINE
  5
50E
330
1F
100
AcDbEntity
  8
0226_下階梁情報
  6
Continuous
 62
     3
370
     5
100
AcDbLine
 10
831.8162508706384
 20
654.7510143375152
 30
0.0
 11
856.5648107708707
 21
630.0020832775492
 31
0.0
  0
LINE
  5
50F
330
1F
100
AcDbEntity
  8
0226_下階梁情報
  6
Continuous
 62
     3
370
     5
100
AcDbLine
 10
874.0646210670061
 20
672.2511957933851
 30
0.0
 11
863.8135603749665
 21
672.2511957933851
 31
0.0
  0
LINE
  5
510
330
1F
100
AcDbEntity
  8
0226_下階梁情報
  6
Continuous
 62
     3
370
     5
100
AcDbLine
 10
849.316061166775
 20
672.2511957933851
 30
0.0
 11
839.0650004747354
 21
672.2511957933851
 31
0.0
  0
LINE
  5
511
330
1F
100
AcDbEntity
  8
0226_下階梁情報
  6
Continuous
 62
     3
370
     5
100
AcDbLine
 10
839.0650004747354
 20
672.2511957933851
 30
0.0
 11
839.0650004747354
 21
661.9997639416117
 31
0.0
  0
LINE
  5
512
330
1F
100
AcDbEntity
  8
0226_下階梁情報
  6
Continuous
 62
     3
370
     5
100
AcDbLine
 10
839.0650004747354
 20
647.5022647334191
 30
0.0
 11
839.0650004747354
 21
637.2508328816452
 31
0.0
  0
LINE
  5
513
330
1F
100
AcDbEntity
  8
0226_下階梁情報
  6
Continuous
 62
     3
370
     5
100
AcDbLine
 10
839.0650004747354
 20
637.2508328816452
 30
0.0
 11
849.316061166775
 21
637.2508328816452
 31
0.0
  0
LINE
  5
514
330
1F
100
AcDbEntity
  8
0226_下階梁情報
  6
Continuous
 62
     3
370
     5
100
AcDbLine
 10
863.8135603749665
 20
637.2508328816452
 30
0.0
 11
874.0646210670061
 21
637.2508328816452
 31
0.0
  0
LINE
  5
515
330
1F
100
AcDbEntity
  8
0226_下階梁情報
  6
Continuous
 62
     3
370
     5
100
AcDbLine
 10
874.0646210670061
 20
637.2508328816452
 30
0.0
 11
874.0646210670061
 21
647.5022647334191
 31
0.0
  0
LINE
  5
516
330
1F
100
AcDbEntity
  8
0226_下階梁情報
  6
Continuous
 62
     3
370
     5
100
AcDbLine
 10
874.0646210670061
 20
661.9997639416117
 30
0.0
 11
874.0646210670061
 21
672.2511957933851
 31
0.0
  0
LINE
  5
517
330
1F
100
AcDbEntity
  8
0226_下階梁情報
  6
JWW_CENTER1
 62
     3
370
     5
100
AcDbLine
 10
886.7449222177665
 20
654.7510143375152
 30
0.0
 11
826.3846993239749
 21
654.7510143375152
 31
0.0
  0
LINE
  5
518
330
1F
100
AcDbEntity
  8
0226_下階梁情報
  6
JWW_CENTER1
 62
     3
370
     5
100
AcDbLine
 10
856.5648107708707
 20
624.5709028906191
 30
0.0
 11
856.5648107708707
 21
684.9314969441452
 31
0.0
  0
LINE
  5
519
330
1F
100
AcDbEntity
  8
0242_
  6
Continuous
 62
     7
370
     5
100
AcDbLine
 10
444.1903452408874
 20
642.3765488075327
 30
0.0
 11
315.3520270085014
 21
513.5382305751465
 31
0.0
  0
LINE
  5
51A
330
1F
100
AcDbEntity
  8
0242_
  6
Continuous
 62
     7
370
     5
100
AcDbLine
 10
138.713433481557
 20
513.5382305751465
 30
0.0
 11
315.3520270085014
 21
513.5382305751465
 31
0.0
  0
TEXT
  5
51B
330
1F
100
AcDbEntity
  8
0242_
  6
Continuous
 62
     7
370
     5
100
AcDbText
 10
138.713433481557
 20
522.7682305751465
 30
0.0
 40
22.86
  1
クロスバー
 41
1.133333333333333
  7
ＭＳ ゴシック
100
AcDbText
  0
LINE
  5
51C
330
1F
100
AcDbEntity
  8
0218_
  6
Continuous
 62
     3
370
     5
100
AcDbLine
 10
1221.038287153236
 20
679.4995742377484
 30
0.0
 11
1274.238139349182
 21
679.4995742377484
 31
0.0
  0
LINE
  5
51D
330
1F
100
AcDbEntity
  8
0218_
  6
Continuous
 62
     3
370
     5
100
AcDbLine
 10
1221.038287153236
 20
630.0024544372839
 30
0.0
 11
1274.238139349182
 21
630.0024544372839
 31
0.0
  0
LINE
  5
51E
330
1F
100
AcDbEntity
  8
0218_
  6
Continuous
 62
     3
370
     5
100
AcDbLine
 10
1221.038287153236
 20
654.7510143375156
 30
0.0
 11
1274.238139349182
 21
654.7510143375156
 31
0.0
  0
LINE
  5
51F
330
1F
100
AcDbEntity
  8
0218_
  6
Continuous
 62
     3
370
     5
100
AcDbLine
 10
1281.23821193153
 20
679.4995742377484
 30
0.0
 11
1344.238494012928
 21
679.4995742377484
 31
0.0
  0
LINE
  5
520
330
1F
100
AcDbEntity
  8
0218_
  6
Continuous
 62
     3
370
     5
100
AcDbLine
 10
1281.23821193153
 20
630.0024544372839
 30
0.0
 11
1344.238494012928
 21
630.0024544372839
 31
0.0
  0
LINE
  5
521
330
1F
100
AcDbEntity
  8
0218_
  6
Continuous
 62
     3
370
     5
100
AcDbLine
 10
1281.23821193153
 20
654.7510143375156
 30
0.0
 11
1344.238494012928
 21
654.7510143375156
 31
0.0
  0
LINE
  5
522
330
1F
100
AcDbEntity
  8
0218_
  6
Continuous
 62
     3
370
     5
100
AcDbLine
 10
1351.238566595276
 20
679.4995742377484
 30
0.0
 11
1414.238848676673
 21
679.4995742377484
 31
0.0
  0
LINE
  5
523
330
1F
100
AcDbEntity
  8
0218_
  6
Continuous
 62
     3
370
     5
100
AcDbLine
 10
1351.238566595276
 20
630.0024544372839
 30
0.0
 11
1414.238848676673
 21
630.0024544372839
 31
0.0
  0
LINE
  5
524
330
1F
100
AcDbEntity
  8
0218_
  6
Continuous
 62
     3
370
     5
100
AcDbLine
 10
1351.238566595276
 20
654.7510143375156
 30
0.0
 11
1414.238848676673
 21
654.7510143375156
 31
0.0
  0
LINE
  5
525
330
1F
100
AcDbEntity
  8
0218_
  6
Continuous
 62
     3
370
     5
100
AcDbLine
 10
1421.238921259021
 20
679.4995742377484
 30
0.0
 11
1474.937945356361
 21
679.4995742377484
 31
0.0
  0
LINE
  5
526
330
1F
100
AcDbEntity
  8
0218_
  6
Continuous
 62
     3
370
     5
100
AcDbLine
 10
1421.238921259021
 20
630.0024544372839
 30
0.0
 11
1474.937945356361
 21
630.0024544372839
 31
0.0
  0
LINE
  5
527
330
1F
100
AcDbEntity
  8
0218_
  6
Continuous
 62
     3
370
     5
100
AcDbLine
 10
1421.238921259021
 20
654.7510143375156
 30
0.0
 11
1474.937945356361
 21
654.7510143375156
 31
0.0
  0
ARC
  5
528
330
1F
100
AcDbEntity
  8
0218_
  6
Continuous
 62
     3
370
     5
100
AcDbCircle
 10
-713.0349601725328
 20
-293.194570988657
 30
0.0
 40
15.00000019331236
100
AcDbArc
 50
311.7518768310547
 51
357.7665100097656
  0
ARC
  5
529
330
1F
100
AcDbEntity
  8
0218_
  6
Continuous
 62
     3
370
     5
100
AcDbCircle
 10
-723.0310341273469
 20
-294.656940340431
 30
0.0
 40
25.00000322187269
100
AcDbArc
 50
2.014007568359375
 51
36.92071533203126
  0
ARC
  5
52A
330
1F
100
AcDbEntity
  8
0218_
  6
Continuous
 62
     3
370
     5
100
AcDbCircle
 10
-713.0349601725328
 20
-315.5755029460049
 30
0.0
 40
15.00000019331236
100
AcDbArc
 50
2.233489990234375
 51
48.24812316894532
  0
ARC
  5
52B
330
1F
100
AcDbEntity
  8
0218_
  6
Continuous
 62
     3
370
     5
100
AcDbCircle
 10
-723.0310341273469
 20
-314.1131335942315
 30
0.0
 40
25.00000322187269
100
AcDbArc
 50
323.0792846679688
 51
357.9859924316406
  0
LINE
  5
52C
330
1F
100
AcDbEntity
  8
0218_
  6
Continuous
 62
     3
370
     5
100
AcDbLine
 10
-703.0463094123979
 20
-279.6364770670987
 30
0.0
 11
-695.5459135086812
 21
-289.3849874793664
 31
0.0
  0
LINE
  5
52D
330
1F
100
AcDbEntity
  8
0218_
  6
Continuous
 62
     3
370
     5
100
AcDbLine
 10
-703.0463094123979
 20
-329.1335968675633
 30
0.0
 11
-695.5459135086812
 21
-319.3850864552955
 31
0.0
  0
LINE
  5
52E
330
1F
100
AcDbEntity
  8
0218_
  6
Continuous
 62
     3
370
     5
100
AcDbLine
 10
-703.0443434555061
 20
-329.1335968675633
 30
0.0
 11
-712.0454483218145
 21
-329.1335968675633
 31
0.0
  0
LINE
  5
52F
330
1F
100
AcDbEntity
  8
0218_
  6
Continuous
 62
     3
370
     5
100
AcDbLine
 10
-703.0462927449171
 20
-304.3850369673315
 30
0.0
 11
-712.0454483218145
 21
-304.3850369673315
 31
0.0
  0
LINE
  5
530
330
1F
100
AcDbEntity
  8
0218_
  6
Continuous
 62
     3
370
     5
100
AcDbLine
 10
-703.0443434555061
 20
-279.6364770670987
 30
0.0
 11
-712.0454483218145
 21
-279.6364770670987
 31
0.0
  0
LINE
  5
531
330
1F
100
AcDbEntity
  8
0218_
  6
Continuous
 62
     3
370
     5
100
AcDbLine
 10
-719.0455209041625
 20
-329.1335968675633
 30
0.0
 11
-782.0458029855604
 21
-329.1335968675633
 31
0.0
  0
LINE
  5
532
330
1F
100
AcDbEntity
  8
0218_
  6
Continuous
 62
     3
370
     5
100
AcDbLine
 10
-719.0455209041625
 20
-279.6364770670987
 30
0.0
 11
-782.0458029855604
 21
-279.6364770670987
 31
0.0
  0
LINE
  5
533
330
1F
100
AcDbEntity
  8
0218_
  6
Continuous
 62
     3
370
     5
100
AcDbLine
 10
-719.0455209041625
 20
-304.3850369673315
 30
0.0
 11
-782.0458029855604
 21
-304.3850369673315
 31
0.0
  0
LINE
  5
534
330
1F
100
AcDbEntity
  8
0218_
  6
Continuous
 62
     3
370
     5
100
AcDbLine
 10
-852.0461576493062
 20
-329.1335968675633
 30
0.0
 11
-789.0458755679083
 21
-329.1335968675633
 31
0.0
  0
LINE
  5
535
330
1F
100
AcDbEntity
  8
0218_
  6
Continuous
 62
     3
370
     5
100
AcDbLine
 10
-852.0461576493062
 20
-279.6364770670987
 30
0.0
 11
-789.0458755679083
 21
-279.6364770670987
 31
0.0
  0
LINE
  5
536
330
1F
100
AcDbEntity
  8
0218_
  6
Continuous
 62
     3
370
     5
100
AcDbLine
 10
-852.0461576493062
 20
-304.3850369673315
 30
0.0
 11
-789.0458755679083
 21
-304.3850369673315
 31
0.0
  0
LINE
  5
537
330
1F
100
AcDbEntity
  8
0218_
  6
Continuous
 62
     3
370
     5
100
AcDbLine
 10
-922.0465123130521
 20
-329.1335968675633
 30
0.0
 11
-859.0462302316541
 21
-329.1335968675633
 31
0.0
  0
LINE
  5
538
330
1F
100
AcDbEntity
  8
0218_
  6
Continuous
 62
     3
370
     5
100
AcDbLine
 10
-922.0465123130521
 20
-279.6364770670987
 30
0.0
 11
-859.0462302316541
 21
-279.6364770670987
 31
0.0
  0
LINE
  5
539
330
1F
100
AcDbEntity
  8
0218_
  6
Continuous
 62
     3
370
     5
100
AcDbLine
 10
-922.0465123130521
 20
-304.3850369673315
 30
0.0
 11
-859.0462302316541
 21
-304.3850369673315
 31
0.0
  0
LINE
  5
53A
330
1F
100
AcDbEntity
  8
0218_
  6
Continuous
 62
     3
370
     5
100
AcDbLine
 10
-992.0468669767979
 20
-329.1335968675633
 30
0.0
 11
-929.0465848954
 21
-329.1335968675633
 31
0.0
  0
LINE
  5
53B
330
1F
100
AcDbEntity
  8
0218_
  6
Continuous
 62
     3
370
     5
100
AcDbLine
 10
-992.0468669767979
 20
-279.6364770670987
 30
0.0
 11
-929.0465848954
 21
-279.6364770670987
 31
0.0
  0
LINE
  5
53C
330
1F
100
AcDbEntity
  8
0218_
  6
Continuous
 62
     3
370
     5
100
AcDbLine
 10
-992.0468669767979
 20
-304.3850369673315
 30
0.0
 11
-929.0465848954
 21
-304.3850369673315
 31
0.0
  0
LINE
  5
53D
330
1F
100
AcDbEntity
  8
0218_
  6
Continuous
 62
     3
370
     5
100
AcDbLine
 10
-1062.047221640544
 20
-329.1335968675633
 30
0.0
 11
-999.0469395591458
 21
-329.1335968675633
 31
0.0
  0
LINE
  5
53E
330
1F
100
AcDbEntity
  8
0218_
  6
Continuous
 62
     3
370
     5
100
AcDbLine
 10
-1062.047221640544
 20
-279.6364770670987
 30
0.0
 11
-999.0469395591458
 21
-279.6364770670987
 31
0.0
  0
LINE
  5
53F
330
1F
100
AcDbEntity
  8
0218_
  6
Continuous
 62
     3
370
     5
100
AcDbLine
 10
-1062.047221640544
 20
-304.3850369673315
 30
0.0
 11
-999.0469395591458
 21
-304.3850369673315
 31
0.0
  0
LINE
  5
540
330
1F
100
AcDbEntity
  8
0218_
  6
Continuous
 62
     3
370
     5
100
AcDbLine
 10
-1132.047576304289
 20
-329.1335968675633
 30
0.0
 11
-1069.047294222892
 21
-329.1335968675633
 31
0.0
  0
LINE
  5
541
330
1F
100
AcDbEntity
  8
0218_
  6
Continuous
 62
     3
370
     5
100
AcDbLine
 10
-1132.047576304289
 20
-279.6364770670987
 30
0.0
 11
-1069.047294222892
 21
-279.6364770670987
 31
0.0
  0
LINE
  5
542
330
1F
100
AcDbEntity
  8
0218_
  6
Continuous
 62
     3
370
     5
100
AcDbLine
 10
-1132.047576304289
 20
-304.3850369673315
 30
0.0
 11
-1069.047294222892
 21
-304.3850369673315
 31
0.0
  0
LINE
  5
543
330
1F
100
AcDbEntity
  8
0218_
  6
Continuous
 62
     3
370
     5
100
AcDbLine
 10
-1202.047930968035
 20
-329.1335968675633
 30
0.0
 11
-1139.047648886637
 21
-329.1335968675633
 31
0.0
  0
LINE
  5
544
330
1F
100
AcDbEntity
  8
0218_
  6
Continuous
 62
     3
370
     5
100
AcDbLine
 10
-1202.047930968035
 20
-279.6364770670987
 30
0.0
 11
-1139.047648886637
 21
-279.6364770670987
 31
0.0
  0
LINE
  5
545
330
1F
100
AcDbEntity
  8
0218_
  6
Continuous
 62
     3
370
     5
100
AcDbLine
 10
-1202.047930968035
 20
-304.3850369673315
 30
0.0
 11
-1139.047648886637
 21
-304.3850369673315
 31
0.0
  0
LINE
  5
546
330
1F
100
AcDbEntity
  8
0218_
  6
Continuous
 62
     3
370
     5
100
AcDbLine
 10
-1272.048285631781
 20
-329.1335968675633
 30
0.0
 11
-1209.048003550383
 21
-329.1335968675633
 31
0.0
  0
LINE
  5
547
330
1F
100
AcDbEntity
  8
0218_
  6
Continuous
 62
     3
370
     5
100
AcDbLine
 10
-1272.048285631781
 20
-279.6364770670987
 30
0.0
 11
-1209.048003550383
 21
-279.6364770670987
 31
0.0
  0
LINE
  5
548
330
1F
100
AcDbEntity
  8
0218_
  6
Continuous
 62
     3
370
     5
100
AcDbLine
 10
-1272.048285631781
 20
-304.3850369673315
 30
0.0
 11
-1209.048003550383
 21
-304.3850369673315
 31
0.0
  0
LINE
  5
549
330
1F
100
AcDbEntity
  8
0218_
  6
Continuous
 62
     3
370
     5
100
AcDbLine
 10
-1342.048640295527
 20
-329.1335968675633
 30
0.0
 11
-1279.048358214129
 21
-329.1335968675633
 31
0.0
  0
LINE
  5
54A
330
1F
100
AcDbEntity
  8
0218_
  6
Continuous
 62
     3
370
     5
100
AcDbLine
 10
-1342.048640295527
 20
-279.6364770670987
 30
0.0
 11
-1279.048358214129
 21
-279.6364770670987
 31
0.0
  0
LINE
  5
54B
330
1F
100
AcDbEntity
  8
0218_
  6
Continuous
 62
     3
370
     5
100
AcDbLine
 10
-1342.048640295527
 20
-304.3850369673315
 30
0.0
 11
-1279.048358214129
 21
-304.3850369673315
 31
0.0
  0
LINE
  5
54C
330
1F
100
AcDbEntity
  8
0218_
  6
Continuous
 62
     3
370
     5
100
AcDbLine
 10
-1393.214523127822
 20
-329.1335968675633
 30
0.0
 11
-1349.048712877875
 21
-329.1335968675633
 31
0.0
  0
LINE
  5
54D
330
1F
100
AcDbEntity
  8
0218_
  6
Continuous
 62
     3
370
     5
100
AcDbLine
 10
-1393.214523127822
 20
-279.6364770670987
 30
0.0
 11
-1349.048712877875
 21
-279.6364770670987
 31
0.0
  0
LINE
  5
54E
330
1F
100
AcDbEntity
  8
0218_
  6
Continuous
 62
     3
370
     5
100
AcDbLine
 10
-1397.214623144393
 20
-304.3850369673315
 30
0.0
 11
-1349.048712877875
 21
-304.3850369673315
 31
0.0
  0
TEXT
  5
54F
330
1F
100
AcDbEntity
  8
0216_
  6
Continuous
 62
     2
370
     5
100
AcDbText
 10
-633.6665712222887
 20
-8.574531443649889
 30
0.0
 40
30.48
  1
5
 41
0.9999999999999998
  7
ＭＳ ゴシック
100
AcDbText
  0
LINE
  5
550
330
1F
100
AcDbEntity
  8
0216_
  6
Continuous
 62
     7
370
     5
100
AcDbLine
 10
-1393.214523127822
 20
-19.21382572465575
 30
0.0
 11
-612.2259060673377
 21
-19.21382572465575
 31
0.0
  0
TEXT
  5
551
330
1F
100
AcDbEntity
  8
0018_躯　寸法（
  6
Continuous
 62
     2
370
     5
100
AcDbText
 10
-845.3997081828237
 20
-1330.761336706767
 30
0.0
 40
30.48
  1
ステンレス製　縦目タイプ　細目プレーンタイプ　グレーチング（すきま6mm）
 41
0.7742957746478872
  7
ＭＳ ゴシック
100
AcDbText
  0
TEXT
  5
552
330
1F
100
AcDbEntity
  8
0013_躯　下り壁
  6
Continuous
 62
     2
370
     5
100
AcDbText
 10
-845.9896769380546
 20
-1379.05859205821
 30
0.0
 40
30.48
  1
ＹＲ－Ｈ－Ａ－２０　３５０×３５０×２０　ステンレス製受枠ＳＦ２０Ｂ（四方枠）
 41
0.7743589743589743
  7
ＭＳ ゴシック
100
AcDbText
  0
TEXT
  5
553
330
1F
100
AcDbEntity
  8
0242_
  6
Continuous
 62
     7
370
     5
100
AcDbText
 10
-501.1899963511772
 20
86.42658823252509
 30
0.0
 40
22.86
  1
ステンレス製　縦目タイプ　細目プレーンタイプ
 41
1.159090909090909
  7
ＭＳ ゴシック
100
AcDbText
  0
LINE
  5
554
330
1F
100
AcDbEntity
  8
0242_
  6
Continuous
 62
     7
370
     5
100
AcDbLine
 10
-501.1899963511772
 20
41.56449289561102
 30
0.0
 11
270.4299499521252
 21
41.56449289561102
 31
0.0
  0
TEXT
  5
555
330
1F
100
AcDbEntity
  8
0242_
  6
Continuous
 62
     7
370
     5
100
AcDbText
 10
-501.1899990932716
 20
53.72147196055154
 30
0.0
 40
22.86
  1
グレーチング（すきま6mm）ＹＲーＨ－Ａ－２０
 50
0.0000371419447595
 41
1.158914728682171
  7
ＭＳ ゴシック
100
AcDbText
  0
TEXT
  5
556
330
1F
100
AcDbEntity
  8
0242_
  6
Continuous
 62
     2
370
     5
100
AcDbText
 10
271.7609351390115
 20
-615.0273200414127
 30
0.0
 40
30.48
  1
グレーチング（すきま6mm）　ＹＲ－Ｈ－Ａ－２０　３５０×３５０×２０
 41
1.121268656716418
  7
ＭＳ ゴシック
100
AcDbText
  0
TEXT
  5
557
330
1F
100
AcDbEntity
  8
0242_
  6
Continuous
 62
     2
370
     5
100
AcDbText
 10
271.7609351390116
 20
-552.7414213786429
 30
0.0
 40
30.48
  1
ステンレス製　縦目タイプ　細目プレーンタイプ
 41
1.119318181818182
  7
ＭＳ ゴシック
100
AcDbText
  0
ARC
  5
558
330
1F
100
AcDbEntity
  8
0218_
  6
Continuous
 62
     3
370
     5
100
AcDbCircle
 10
-1354.048712942312
 20
-263.3851096141175
 30
0.0
 40
5.000000064437454
100
AcDbArc
 50
0.0
 51
90.0
  0
ARC
  5
559
330
1F
100
AcDbEntity
  8
0218_
  6
Continuous
 62
     3
370
     5
100
AcDbCircle
 10
-1284.048358278566
 20
-263.3851096141175
 30
0.0
 40
5.000000064437454
100
AcDbArc
 50
0.0
 51
90.0
  0
ARC
  5
55A
330
1F
100
AcDbEntity
  8
0218_
  6
Continuous
 62
     3
370
     5
100
AcDbCircle
 10
-1214.048003614821
 20
-263.3851096141175
 30
0.0
 40
5.000000064437454
100
AcDbArc
 50
0.0
 51
90.0
  0
ARC
  5
55B
330
1F
100
AcDbEntity
  8
0218_
  6
Continuous
 62
     3
370
     5
100
AcDbCircle
 10
-1144.047648951075
 20
-263.3851096141175
 30
0.0
 40
5.000000064437454
100
AcDbArc
 50
0.0
 51
90.0
  0
ARC
  5
55C
330
1F
100
AcDbEntity
  8
0218_
  6
Continuous
 62
     3
370
     5
100
AcDbCircle
 10
-1074.047294287329
 20
-263.3851096141175
 30
0.0
 40
5.000000064437454
100
AcDbArc
 50
0.0
 51
90.0
  0
ARC
  5
55D
330
1F
100
AcDbEntity
  8
0218_
  6
Continuous
 62
     3
370
     5
100
AcDbCircle
 10
-1004.046939623583
 20
-263.3851096141175
 30
0.0
 40
5.000000064437454
100
AcDbArc
 50
0.0
 51
90.0
  0
ARC
  5
55E
330
1F
100
AcDbEntity
  8
0218_
  6
Continuous
 62
     3
370
     5
100
AcDbCircle
 10
-934.0465849598374
 20
-263.3851096141175
 30
0.0
 40
5.000000064437454
100
AcDbArc
 50
0.0
 51
90.0
  0
ARC
  5
55F
330
1F
100
AcDbEntity
  8
0218_
  6
Continuous
 62
     3
370
     5
100
AcDbCircle
 10
-864.0462302960916
 20
-263.3851096141175
 30
0.0
 40
5.000000064437454
100
AcDbArc
 50
0.0
 51
90.0
  0
ARC
  5
560
330
1F
100
AcDbEntity
  8
0218_
  6
Continuous
 62
     3
370
     5
100
AcDbCircle
 10
-794.0458756323458
 20
-263.3851096141175
 30
0.0
 40
5.000000064437454
100
AcDbArc
 50
0.0
 51
90.0
  0
ARC
  5
561
330
1F
100
AcDbEntity
  8
0218_
  6
Continuous
 62
     3
370
     5
100
AcDbCircle
 10
-724.0455209685999
 20
-263.3851096141175
 30
0.0
 40
5.000000064437454
100
AcDbArc
 50
0.0
 51
90.0
  0
LINE
  5
562
330
1F
100
AcDbEntity
  8
0218_
  6
Continuous
 62
     3
370
     5
100
AcDbLine
 10
-719.0455209041625
 20
-263.3851096141175
 30
0.0
 11
-719.0455209041625
 21
-351.3849132474201
 31
0.0
  0
LINE
  5
563
330
1F
100
AcDbEntity
  8
0218_
  6
Continuous
 62
     3
370
     5
100
AcDbLine
 10
-789.0458755679083
 20
-263.3851096141175
 30
0.0
 11
-789.0458755679083
 21
-351.3849132474201
 31
0.0
  0
LINE
  5
564
330
1F
100
AcDbEntity
  8
0218_
  6
Continuous
 62
     3
370
     5
100
AcDbLine
 10
-859.0462302316541
 20
-263.3851096141175
 30
0.0
 11
-859.0462302316541
 21
-351.3849132474201
 31
0.0
  0
LINE
  5
565
330
1F
100
AcDbEntity
  8
0218_
  6
Continuous
 62
     3
370
     5
100
AcDbLine
 10
-929.0465848954
 20
-263.3851096141175
 30
0.0
 11
-929.0465848954
 21
-351.3849132474201
 31
0.0
  0
LINE
  5
566
330
1F
100
AcDbEntity
  8
0218_
  6
Continuous
 62
     3
370
     5
100
AcDbLine
 10
-999.0469395591458
 20
-263.3851096141175
 30
0.0
 11
-999.0469395591458
 21
-351.3849132474201
 31
0.0
  0
LINE
  5
567
330
1F
100
AcDbEntity
  8
0218_
  6
Continuous
 62
     3
370
     5
100
AcDbLine
 10
-1069.047294222892
 20
-263.3851096141175
 30
0.0
 11
-1069.047294222892
 21
-351.3849132474201
 31
0.0
  0
LINE
  5
568
330
1F
100
AcDbEntity
  8
0218_
  6
Continuous
 62
     3
370
     5
100
AcDbLine
 10
-1139.047648886637
 20
-263.3851096141175
 30
0.0
 11
-1139.047648886637
 21
-351.3849132474201
 31
0.0
  0
LINE
  5
569
330
1F
100
AcDbEntity
  8
0218_
  6
Continuous
 62
     3
370
     5
100
AcDbLine
 10
-1209.048003550383
 20
-263.3851096141175
 30
0.0
 11
-1209.048003550383
 21
-351.3849132474201
 31
0.0
  0
LINE
  5
56A
330
1F
100
AcDbEntity
  8
0218_
  6
Continuous
 62
     3
370
     5
100
AcDbLine
 10
-1279.048358214129
 20
-263.3851096141175
 30
0.0
 11
-1279.048358214129
 21
-351.3849132474201
 31
0.0
  0
LINE
  5
56B
330
1F
100
AcDbEntity
  8
0218_
  6
Continuous
 62
     3
370
     5
100
AcDbLine
 10
-1349.048712877875
 20
-263.3851096141175
 30
0.0
 11
-1349.048712877875
 21
-351.3849132474201
 31
0.0
  0
ARC
  5
56C
330
1F
100
AcDbEntity
  8
0218_
  6
Continuous
 62
     3
370
     5
100
AcDbCircle
 10
1269.238139284745
 20
695.7510489790906
 30
0.0
 40
5.000000064437454
100
AcDbArc
 50
0.0
 51
90.0
  0
ARC
  5
56D
330
1F
100
AcDbEntity
  8
0218_
  6
Continuous
 62
     3
370
     5
100
AcDbCircle
 10
1339.23849394849
 20
695.7510489790906
 30
0.0
 40
5.000000064437454
100
AcDbArc
 50
0.0
 51
90.0
  0
ARC
  5
56E
330
1F
100
AcDbEntity
  8
0218_
  6
Continuous
 62
     3
370
     5
100
AcDbCircle
 10
1409.238848612236
 20
695.7510489790906
 30
0.0
 40
5.000000064437454
100
AcDbArc
 50
0.0
 51
90.0
  0
LINE
  5
56F
330
1F
100
AcDbEntity
  8
0218_
  6
Continuous
 62
     3
370
     5
100
AcDbLine
 10
1274.238139349182
 20
695.7510489790906
 30
0.0
 11
1274.238139349182
 21
607.7511380574265
 31
0.0
  0
LINE
  5
570
330
1F
100
AcDbEntity
  8
0218_
  6
Continuous
 62
     3
370
     5
100
AcDbLine
 10
1344.238494012928
 20
695.7510489790906
 30
0.0
 11
1344.238494012928
 21
607.7511380574265
 31
0.0
  0
LINE
  5
571
330
1F
100
AcDbEntity
  8
0218_
  6
Continuous
 62
     3
370
     5
100
AcDbLine
 10
1414.238848676673
 20
695.7510489790906
 30
0.0
 11
1414.238848676673
 21
607.7511380574265
 31
0.0
  0
ENDSEC
  0
SECTION
  2
OBJECTS
  0
DICTIONARY
  5
C
330
0
100
AcDbDictionary
281
     1
  3
ACAD_GROUP
350
D
  3
ACAD_LAYOUT
350
1A
  3
ACAD_MLEADERSTYLE
350
573
  3
ACAD_MLINESTYLE
350
17
  3
ACAD_PLOTSETTINGS
350
19
  3
ACAD_PLOTSTYLENAME
350
E
  3
ACAD_TABLESTYLE
350
572
  3
ACAD_VISUALSTYLE
350
2A
  0
DICTIONARY
  5
D
102
{ACAD_REACTORS
330
C
102
}
330
C
100
AcDbDictionary
281
     1
  0
DICTIONARY
  5
1A
102
{ACAD_REACTORS
330
C
102
}
330
C
100
AcDbDictionary
281
     1
  3
Layout1
350
1E
  3
Layout2
350
26
  3
Model
350
22
  0
DICTIONARY
  5
573
102
{ACAD_REACTORS
330
C
102
}
330
C
100
AcDbDictionary
281
     1
  0
DICTIONARY
  5
17
102
{ACAD_REACTORS
330
C
102
}
330
C
100
AcDbDictionary
281
     1
  3
Standard
350
18
  0
DICTIONARY
  5
19
102
{ACAD_REACTORS
330
C
102
}
330
C
100
AcDbDictionary
281
     1
  0
ACDBDICTIONARYWDFLT
  5
E
102
{ACAD_REACTORS
330
C
102
}
330
C
100
AcDbDictionary
281
     1
  3
Normal
350
F
100
AcDbDictionaryWithDefault
340
F
  0
DICTIONARY
  5
572
102
{ACAD_REACTORS
330
C
102
}
330
C
100
AcDbDictionary
281
     1
  0
DICTIONARY
  5
2A
102
{ACAD_REACTORS
330
C
102
}
330
C
100
AcDbDictionary
281
     1
  3
2dWireframe
350
2F
  3
3D Hidden
350
31
  3
3dWireframe
350
30
  3
Basic
350
32
  3
Brighten
350
36
  3
ColorChange
350
3A
  3
Conceptual
350
34
  3
Dim
350
35
  3
Facepattern
350
39
  3
Flat
350
2B
  3
FlatWithEdges
350
2C
  3
Gouraud
350
2D
  3
GouraudWithEdges
350
2E
  3
Linepattern
350
38
  3
Realistic
350
33
  3
Thicken
350
37
  0
LAYOUT
  5
1E
102
{ACAD_REACTORS
330
1A
102
}
330
1A
100
AcDbPlotSettings
  1

  2
none_device
  4

  6

 40
0.0
 41
0.0
 42
0.0
 43
0.0
 44
0.0
 45
0.0
 46
0.0
 47
0.0
 48
0.0
 49
0.0
140
0.0
141
0.0
142
1.0
143
1.0
 70
   688
 72
     0
 73
     0
 74
     5
  7

 75
    16
 76
     0
 77
     5
 78
   300
147
1.0
148
0.0
149
0.0
100
AcDbLayout
  1
Layout1
 70
     1
 71
     1
 10
0.0
 20
0.0
 11
420.0
 21
297.0
 12
0.0
 22
0.0
 32
0.0
 14
1.000000000000000E+20
 24
1.000000000000000E+20
 34
1.000000000000000E+20
 15
-1.000000000000000E+20
 25
-1.000000000000000E+20
 35
-1.000000000000000E+20
146
0.0
 13
0.0
 23
0.0
 33
0.0
 16
1.0
 26
0.0
 36
0.0
 17
0.0
 27
1.0
 37
0.0
 76
     0
330
1B
  0
LAYOUT
  5
26
102
{ACAD_REACTORS
330
1A
102
}
330
1A
100
AcDbPlotSettings
  1

  2
none_device
  4

  6

 40
0.0
 41
0.0
 42
0.0
 43
0.0
 44
0.0
 45
0.0
 46
0.0
 47
0.0
 48
0.0
 49
0.0
140
0.0
141
0.0
142
1.0
143
1.0
 70
   688
 72
     0
 73
     0
 74
     5
  7

 75
    16
 76
     0
 77
     5
 78
   300
147
1.0
148
0.0
149
0.0
100
AcDbLayout
  1
Layout2
 70
     1
 71
     2
 10
0.0
 20
0.0
 11
0.0
 21
0.0
 12
0.0
 22
0.0
 32
0.0
 14
0.0
 24
0.0
 34
0.0
 15
0.0
 25
0.0
 35
0.0
146
0.0
 13
0.0
 23
0.0
 33
0.0
 16
1.0
 26
0.0
 36
0.0
 17
0.0
 27
1.0
 37
0.0
 76
     0
330
23
  0
LAYOUT
  5
22
102
{ACAD_REACTORS
330
1A
102
}
330
1A
100
AcDbPlotSettings
  1

  2
none_device
  4

  6

 40
0.0
 41
0.0
 42
0.0
 43
0.0
 44
0.0
 45
0.0
 46
0.0
 47
0.0
 48
0.0
 49
0.0
140
0.0
141
0.0
142
1.0
143
1.0
 70
  1712
 72
     0
 73
     0
 74
     0
  7

 75
     0
 76
     0
 77
     5
 78
   300
147
1.0
148
0.0
149
0.0
100
AcDbLayout
  1
Model
 70
     1
 71
     0
 10
-2100.0
 20
-1485.0
 11
2100.0
 21
1485.0
 12
0.0
 22
0.0
 32
0.0
 14
-2100.0
 24
-1485.0
 34
0.0
 15
2100.0
 25
1485.0
 35
0.0
146
0.0
 13
0.0
 23
0.0
 33
0.0
 16
1.0
 26
0.0
 36
0.0
 17
0.0
 27
1.0
 37
0.0
 76
     0
330
1F
331
29
  0
MLINESTYLE
  5
18
102
{ACAD_REACTORS
330
17
102
}
330
17
100
AcDbMlineStyle
  2
Standard
 70
     0
  3

 62
   256
 51
90.0
 52
90.0
 71
     2
 49
0.5
 62
   256
  6
BYLAYER
 49
-0.5
 62
   256
  6
BYLAYER
  0
ACDBPLACEHOLDER
  5
F
102
{ACAD_REACTORS
330
E
102
}
330
E
  0
VISUALSTYLE
  5
2F
102
{ACAD_REACTORS
330
2A
102
}
330
2A
100
AcDbVisualStyle
  2
2dWireframe
 70
     4
 71
     0
 72
     2
 73
     0
 90
        0
 40
-0.6
 41
-30.0
 62
     5
 63
     7
421
 16777215
 74
     1
 91
        4
 64
     7
 65
   257
 75
     1
175
     1
 42
1.0
 92
        0
 66
   257
 43
1.0
 76
     1
 77
     6
 78
     2
 67
     7
 79
     5
170
     0
171
     0
290
     0
174
     0
 93
        1
 44
0.0
173
     0
291
     0
 45
0.0
  0
VISUALSTYLE
  5
31
102
{ACAD_REACTORS
330
2A
102
}
330
2A
100
AcDbVisualStyle
  2
3D Hidden
 70
     6
 71
     1
 72
     2
 73
     2
 90
        0
 40
-0.6
 41
-30.0
 62
     5
 63
     7
421
 16777215
 74
     2
 91
        2
 64
     7
 65
   257
 75
     2
175
     1
 42
40.0
 92
        0
 66
   257
 43
1.0
 76
     1
 77
     6
 78
     2
 67
     7
 79
     3
170
     0
171
     0
290
     0
174
     0
 93
        1
 44
0.0
173
     0
291
     0
 45
0.0
  0
VISUALSTYLE
  5
30
102
{ACAD_REACTORS
330
2A
102
}
330
2A
100
AcDbVisualStyle
  2
3dWireframe
 70
     5
 71
     0
 72
     2
 73
     0
 90
        0
 40
-0.6
 41
-30.0
 62
     5
 63
     7
421
 16777215
 74
     1
 91
        4
 64
     7
 65
   257
 75
     1
175
     1
 42
1.0
 92
        0
 66
   257
 43
1.0
 76
     1
 77
     6
 78
     2
 67
     7
 79
     5
170
     0
171
     0
290
     0
174
     0
 93
        1
 44
0.0
173
     0
291
     0
 45
0.0
  0
VISUALSTYLE
  5
32
102
{ACAD_REACTORS
330
2A
102
}
330
2A
100
AcDbVisualStyle
  2
Basic
 70
     7
 71
     1
 72
     0
 73
     1
 90
        0
 40
-0.6
 41
-30.0
 62
     5
 63
     7
421
 16777215
 74
     0
 91
        4
 64
     7
 65
   257
 75
     1
175
     1
 42
1.0
 92
        8
 66
     7
 43
1.0
 76
     1
 77
     6
 78
     2
 67
     7
 79
     5
170
     0
171
     0
290
     0
174
     0
 93
        1
 44
0.0
173
     0
291
     1
 45
0.0
  0
VISUALSTYLE
  5
36
102
{ACAD_REACTORS
330
2A
102
}
330
2A
100
AcDbVisualStyle
  2
Brighten
 70
    12
 71
     2
 72
     2
 73
     0
 90
        0
 40
-0.6
 41
-30.0
 62
     5
 63
     7
421
 16777215
 74
     1
 91
        4
 64
     7
 65
   257
 75
     1
175
     1
 42
1.0
 92
        8
 66
     7
 43
1.0
 76
     1
 77
     6
 78
     2
 67
     7
 79
     5
170
     0
171
     0
290
     0
174
     0
 93
        1
 44
50.0
173
     0
291
     1
 45
0.0
  0
VISUALSTYLE
  5
3A
102
{ACAD_REACTORS
330
2A
102
}
330
2A
100
AcDbVisualStyle
  2
ColorChange
 70
    16
 71
     2
 72
     2
 73
     3
 90
        0
 40
-0.6
 41
-30.0
 62
     5
 63
     8
421
  8421504
 74
     1
 91
        4
 64
     7
 65
   257
 75
     1
175
     1
 42
1.0
 92
        8
 66
     8
424
  8421504
 43
1.0
 76
     1
 77
     6
 78
     2
 67
     7
 79
     5
170
     0
171
     0
290
     0
174
     0
 93
        1
 44
0.0
173
     0
291
     1
 45
0.0
  0
VISUALSTYLE
  5
34
102
{ACAD_REACTORS
330
2A
102
}
330
2A
100
AcDbVisualStyle
  2
Conceptual
 70
     9
 71
     3
 72
     2
 73
     0
 90
        0
 40
-0.6
 41
-30.0
 62
     5
 63
     7
421
 16777215
 74
     2
 91
        2
 64
     7
 65
   257
 75
     1
175
     1
 42
40.0
 92
        8
 66
     7
 43
1.0
 76
     1
 77
     6
 78
     2
 67
     7
 79
     3
170
     0
171
     0
290
     0
174
     0
 93
        1
 44
0.0
173
     0
291
     0
 45
0.0
  0
VISUALSTYLE
  5
35
102
{ACAD_REACTORS
330
2A
102
}
330
2A
100
AcDbVisualStyle
  2
Dim
 70
    11
 71
     2
 72
     2
 73
     0
 90
        0
 40
-0.6
 41
-30.0
 62
     5
 63
     7
421
 16777215
 74
     1
 91
        4
 64
     7
 65
   257
 75
     1
175
     1
 42
1.0
 92
        8
 66
     7
 43
1.0
 76
     1
 77
     6
 78
     2
 67
     7
 79
     5
170
     0
171
     0
290
     0
174
     0
 93
        1
 44
-50.0
173
     0
291
     1
 45
0.0
  0
VISUALSTYLE
  5
39
102
{ACAD_REACTORS
330
2A
102
}
330
2A
100
AcDbVisualStyle
  2
Facepattern
 70
    15
 71
     2
 72
     2
 73
     0
 90
        0
 40
-0.6
 41
-30.0
 62
     5
 63
     7
421
 16777215
 74
     1
 91
        4
 64
     7
 65
   257
 75
     1
175
     1
 42
1.0
 92
        8
 66
     7
 43
1.0
 76
     1
 77
     6
 78
     2
 67
     7
 79
     5
170
     0
171
     0
290
     0
174
     0
 93
        1
 44
0.0
173
     0
291
     1
 45
0.0
  0
VISUALSTYLE
  5
2B
102
{ACAD_REACTORS
330
2A
102
}
330
2A
100
AcDbVisualStyle
  2
Flat
 70
     0
 71
     2
 72
     1
 73
     1
 90
        2
 40
-0.6
 41
30.0
 62
     5
 63
     7
421
 16777215
 74
     0
 91
        4
 64
     7
 65
   257
 75
     1
175
     1
 42
1.0
 92
        8
 66
     7
 43
1.0
 76
     1
 77
     6
 78
     2
 67
     7
 79
     5
170
     0
171
     0
290
     0
174
     0
 93
       13
 44
0.0
173
     0
291
     1
 45
0.0
  0
VISUALSTYLE
  5
2C
102
{ACAD_REACTORS
330
2A
102
}
330
2A
100
AcDbVisualStyle
  2
FlatWithEdges
 70
     1
 71
     2
 72
     1
 73
     1
 90
        2
 40
-0.6
 41
30.0
 62
     5
 63
     7
421
 16777215
 74
     1
 91
        4
 64
     7
 65
   257
 75
     1
175
     1
 42
1.0
 92
        0
 66
   257
 43
1.0
 76
     1
 77
     6
 78
     2
 67
     7
 79
     5
170
     0
171
     0
290
     0
174
     0
 93
       13
 44
0.0
173
     0
291
     1
 45
0.0
  0
VISUALSTYLE
  5
2D
102
{ACAD_REACTORS
330
2A
102
}
330
2A
100
AcDbVisualStyle
  2
Gouraud
 70
     2
 71
     2
 72
     2
 73
     1
 90
        2
 40
-0.6
 41
30.0
 62
     5
 63
     7
421
 16777215
 74
     0
 91
        4
 64
     7
 65
   257
 75
     1
175
     1
 42
1.0
 92
        0
 66
     7
 43
1.0
 76
     1
 77
     6
 78
     2
 67
     7
 79
     5
170
     0
171
     0
290
     0
174
     0
 93
       13
 44
0.0
173
     0
291
     1
 45
0.0
  0
VISUALSTYLE
  5
2E
102
{ACAD_REACTORS
330
2A
102
}
330
2A
100
AcDbVisualStyle
  2
GouraudWithEdges
 70
     3
 71
     2
 72
     2
 73
     1
 90
        2
 40
-0.6
 41
30.0
 62
     5
 63
     7
421
 16777215
 74
     1
 91
        4
 64
     7
 65
   257
 75
     1
175
     1
 42
1.0
 92
        0
 66
   257
 43
1.0
 76
     1
 77
     6
 78
     2
 67
     7
 79
     5
170
     0
171
     0
290
     0
174
     0
 93
       13
 44
0.0
173
     0
291
     1
 45
0.0
  0
VISUALSTYLE
  5
38
102
{ACAD_REACTORS
330
2A
102
}
330
2A
100
AcDbVisualStyle
  2
Linepattern
 70
    14
 71
     2
 72
     2
 73
     0
 90
        0
 40
-0.6
 41
-30.0
 62
     5
 63
     7
421
 16777215
 74
     1
 91
        4
 64
     7
 65
   257
 75
     7
175
     7
 42
1.0
 92
        8
 66
     7
 43
1.0
 76
     1
 77
     6
 78
     2
 67
     7
 79
     5
170
     0
171
     0
290
     0
174
     0
 93
        1
 44
0.0
173
     0
291
     1
 45
0.0
  0
VISUALSTYLE
  5
33
102
{ACAD_REACTORS
330
2A
102
}
330
2A
100
AcDbVisualStyle
  2
Realistic
 70
     8
 71
     2
 72
     2
 73
     0
 90
        0
 40
-0.6
 41
-30.0
 62
     5
 63
     7
421
 16777215
 74
     1
 91
        0
 64
     7
 65
   257
 75
     1
175
     1
 42
1.0
 92
        8
 66
     8
424
  7895160
 43
1.0
 76
     1
 77
     6
 78
     2
 67
     7
 79
     5
170
     0
171
     0
290
     0
174
     0
 93
       13
 44
0.0
173
     0
291
     0
 45
0.0
  0
VISUALSTYLE
  5
37
102
{ACAD_REACTORS
330
2A
102
}
330
2A
100
AcDbVisualStyle
  2
Thicken
 70
    13
 71
     2
 72
     2
 73
     0
 90
        0
 40
-0.6
 41
-30.0
 62
     5
 63
     7
421
 16777215
 74
     1
 91
        4
 64
     7
 65
   257
 75
     1
175
     1
 42
1.0
 92
       12
 66
     7
 43
1.0
 76
     1
 77
     6
 78
     2
 67
     7
 79
     5
170
     0
171
     0
290
     0
174
     0
 93
        1
 44
0.0
173
     0
291
     1
 45
0.0
  0
ENDSEC
  0
EOF
