  0
SECTION
  2
HEADER
  9
$ACADVER
  1
AC1021
  9
$ACADMAINTVER
 70
    25
  9
$DWGCODEPAGE
  3
ANSI_932
  9
$INSBASE
 10
0.0
 20
0.0
 30
0.0
  9
$EXTMIN
 10
-2100.0
 20
-1485.0
 30
0.0
  9
$EXTMAX
 10
2100.0
 20
1485.0
 30
0.0
  9
$LIMMIN
 10
-2100.0
 20
-1485.0
  9
$LIMMAX
 10
2100.0
 20
1485.0
  9
$ORTHOMODE
 70
     0
  9
$REGENMODE
 70
     1
  9
$FILLMODE
 70
     1
  9
$QTEXTMODE
 70
     0
  9
$MIRRTEXT
 70
     1
  9
$LTSCALE
 40
10.0
  9
$ATTMODE
 70
     1
  9
$TEXTSIZE
 40
2.5
  9
$TRACEWID
 40
1.0
  9
$TEXTSTYLE
  7
Standard
  9
$CLAYER
  8
0
  9
$CELTYPE
  6
ByLayer
  9
$CECOLOR
 62
   256
  9
$CELTSCALE
 40
1.0
  9
$DISPSILH
 70
     0
  9
$DIMSCALE
 40
1.0
  9
$DIMASZ
 40
2.5
  9
$DIMEXO
 40
0.625
  9
$DIMDLI
 40
3.75
  9
$DIMRND
 40
0.0
  9
$DIMDLE
 40
0.0
  9
$DIMEXE
 40
1.25
  9
$DIMTP
 40
0.0
  9
$DIMTM
 40
0.0
  9
$DIMTXT
 40
2.5
  9
$DIMCEN
 40
2.5
  9
$DIMTSZ
 40
0.0
  9
$DIMTOL
 70
     0
  9
$DIMLIM
 70
     0
  9
$DIMTIH
 70
     0
  9
$DIMTOH
 70
     0
  9
$DIMSE1
 70
     0
  9
$DIMSE2
 70
     0
  9
$DIMTAD
 70
     1
  9
$DIMZIN
 70
     8
  9
$DIMBLK
  1

  9
$DIMASO
 70
     1
  9
$DIMSHO
 70
     1
  9
$DIMPOST
  1

  9
$DIMAPOST
  1

  9
$DIMALT
 70
     0
  9
$DIMALTD
 70
     3
  9
$DIMALTF
 40
0.03937007874016
  9
$DIMLFAC
 40
1.0
  9
$DIMTOFL
 70
     1
  9
$DIMTVP
 40
0.0
  9
$DIMTIX
 70
     0
  9
$DIMSOXD
 70
     0
  9
$DIMSAH
 70
     0
  9
$DIMBLK1
  1

  9
$DIMBLK2
  1

  9
$DIMSTYLE
  2
ISO-25
  9
$DIMCLRD
 70
     0
  9
$DIMCLRE
 70
     0
  9
$DIMCLRT
 70
     0
  9
$DIMTFAC
 40
1.0
  9
$DIMGAP
 40
0.625
  9
$DIMJUST
 70
     0
  9
$DIMSD1
 70
     0
  9
$DIMSD2
 70
     0
  9
$DIMTOLJ
 70
     0
  9
$DIMTZIN
 70
     8
  9
$DIMALTZ
 70
     0
  9
$DIMALTTZ
 70
     0
  9
$DIMUPT
 70
     0
  9
$DIMDEC
 70
     2
  9
$DIMTDEC
 70
     2
  9
$DIMALTU
 70
     2
  9
$DIMALTTD
 70
     3
  9
$DIMTXSTY
  7
Standard
  9
$DIMAUNIT
 70
     0
  9
$DIMADEC
 70
     0
  9
$DIMALTRND
 40
0.0
  9
$DIMAZIN
 70
     0
  9
$DIMDSEP
 70
    44
  9
$DIMATFIT
 70
     3
  9
$DIMFRAC
 70
     0
  9
$DIMLDRBLK
  1

  9
$DIMLUNIT
 70
     2
  9
$DIMLWD
 70
    -2
  9
$DIMLWE
 70
    -2
  9
$DIMTMOVE
 70
     0
  9
$DIMFXL
 40
1.0
  9
$DIMFXLON
 70
     0
  9
$DIMJOGANG
 40
0.7853981633974483
  9
$DIMTFILL
 70
     0
  9
$DIMTFILLCLR
 70
     0
  9
$DIMARCSYM
 70
     0
  9
$DIMLTYPE
  6

  9
$DIMLTEX1
  6

  9
$DIMLTEX2
  6

  9
$LUNITS
 70
     2
  9
$LUPREC
 70
     4
  9
$SKETCHINC
 40
1.0
  9
$FILLETRAD
 40
10.0
  9
$AUNITS
 70
     0
  9
$AUPREC
 70
     0
  9
$MENU
  1
.
  9
$ELEVATION
 40
0.0
  9
$PELEVATION
 40
0.0
  9
$THICKNESS
 40
0.0
  9
$LIMCHECK
 70
     0
  9
$CHAMFERA
 40
10.0
  9
$CHAMFERB
 40
10.0
  9
$CHAMFERC
 40
20.0
  9
$CHAMFERD
 40
0.0
  9
$SKPOLY
 70
     0
  9
$TDCREATE
 40
2457641.386061042
  9
$TDUCREATE
 40
2457641.011061042
  9
$TDUPDATE
 40
2457641.386061053
  9
$TDUUPDATE
 40
2457641.011061053
  9
$TDINDWG
 40
0.0000000116
  9
$TDUSRTIMER
 40
0.0000000116
  9
$USRTIMER
 70
     1
  9
$ANGBASE
 50
0.0
  9
$ANGDIR
 70
     0
  9
$PDMODE
 70
     0
  9
$PDSIZE
 40
0.0
  9
$PLINEWID
 40
0.0
  9
$SPLFRAME
 70
     0
  9
$SPLINETYPE
 70
     6
  9
$SPLINESEGS
 70
     8
  9
$HANDSEED
  5
59F
  9
$SURFTAB1
 70
     6
  9
$SURFTAB2
 70
     6
  9
$SURFTYPE
 70
     6
  9
$SURFU
 70
     6
  9
$SURFV
 70
     6
  9
$UCSBASE
  2

  9
$UCSNAME
  2

  9
$UCSORG
 10
0.0
 20
0.0
 30
0.0
  9
$UCSXDIR
 10
1.0
 20
0.0
 30
0.0
  9
$UCSYDIR
 10
0.0
 20
1.0
 30
0.0
  9
$UCSORTHOREF
  2

  9
$UCSORTHOVIEW
 70
     0
  9
$UCSORGTOP
 10
0.0
 20
0.0
 30
0.0
  9
$UCSORGBOTTOM
 10
0.0
 20
0.0
 30
0.0
  9
$UCSORGLEFT
 10
0.0
 20
0.0
 30
0.0
  9
$UCSORGRIGHT
 10
0.0
 20
0.0
 30
0.0
  9
$UCSORGFRONT
 10
0.0
 20
0.0
 30
0.0
  9
$UCSORGBACK
 10
0.0
 20
0.0
 30
0.0
  9
$PUCSBASE
  2

  9
$PUCSNAME
  2

  9
$PUCSORG
 10
0.0
 20
0.0
 30
0.0
  9
$PUCSXDIR
 10
1.0
 20
0.0
 30
0.0
  9
$PUCSYDIR
 10
0.0
 20
1.0
 30
0.0
  9
$PUCSORTHOREF
  2

  9
$PUCSORTHOVIEW
 70
     0
  9
$PUCSORGTOP
 10
0.0
 20
0.0
 30
0.0
  9
$PUCSORGBOTTOM
 10
0.0
 20
0.0
 30
0.0
  9
$PUCSORGLEFT
 10
0.0
 20
0.0
 30
0.0
  9
$PUCSORGRIGHT
 10
0.0
 20
0.0
 30
0.0
  9
$PUCSORGFRONT
 10
0.0
 20
0.0
 30
0.0
  9
$PUCSORGBACK
 10
0.0
 20
0.0
 30
0.0
  9
$USERI1
 70
     0
  9
$USERI2
 70
     0
  9
$USERI3
 70
     0
  9
$USERI4
 70
     0
  9
$USERI5
 70
     0
  9
$USERR1
 40
0.0
  9
$USERR2
 40
0.0
  9
$USERR3
 40
0.0
  9
$USERR4
 40
0.0
  9
$USERR5
 40
0.0
  9
$WORLDVIEW
 70
     1
  9
$SHADEDGE
 70
     3
  9
$SHADEDIF
 70
    70
  9
$TILEMODE
 70
     1
  9
$MAXACTVP
 70
    64
  9
$PINSBASE
 10
0.0
 20
0.0
 30
0.0
  9
$PLIMCHECK
 70
     0
  9
$PEXTMIN
 10
1.000000000000000E+20
 20
1.000000000000000E+20
 30
1.000000000000000E+20
  9
$PEXTMAX
 10
-1.000000000000000E+20
 20
-1.000000000000000E+20
 30
-1.000000000000000E+20
  9
$PLIMMIN
 10
0.0
 20
0.0
  9
$PLIMMAX
 10
420.0
 20
297.0
  9
$UNITMODE
 70
     0
  9
$VISRETAIN
 70
     1
  9
$PLINEGEN
 70
     0
  9
$PSLTSCALE
 70
     1
  9
$TREEDEPTH
 70
  3020
  9
$CMLSTYLE
  2
Standard
  9
$CMLJUST
 70
     0
  9
$CMLSCALE
 40
20.0
  9
$PROXYGRAPHICS
 70
     1
  9
$MEASUREMENT
 70
     1
  9
$CELWEIGHT
370
    -1
  9
$ENDCAPS
280
     0
  9
$JOINSTYLE
280
     0
  9
$LWDISPLAY
290
     0
  9
$INSUNITS
 70
     4
  9
$HYPERLINKBASE
  1

  9
$STYLESHEET
  1

  9
$XEDIT
290
     1
  9
$CEPSNTYPE
380
     0
  9
$PSTYLEMODE
290
     1
  9
$FINGERPRINTGUID
  2
{D0A84EE9-CFE4-414C-BD90-D99DAEF90F83}
  9
$VERSIONGUID
  2
{FAEB1C32-E019-11D5-929B-00C0DF256EC4}
  9
$EXTNAMES
290
     1
  9
$PSVPSCALE
 40
0.0
  9
$OLESTARTUP
290
     0
  9
$SORTENTS
280
   127
  9
$INDEXCTL
280
     0
  9
$HIDETEXT
280
     1
  9
$XCLIPFRAME
290
     0
  9
$HALOGAP
280
     0
  9
$OBSCOLOR
 70
   257
  9
$OBSLTYPE
280
     0
  9
$INTERSECTIONDISPLAY
280
     0
  9
$INTERSECTIONCOLOR
 70
   257
  9
$DIMASSOC
280
     2
  9
$PROJECTNAME
  1

  9
$CAMERADISPLAY
290
     0
  9
$LENSLENGTH
 40
50.0
  9
$CAMERAHEIGHT
 40
0.0
  9
$STEPSPERSEC
 40
2.0
  9
$STEPSIZE
 40
6.0
  9
$3DDWFPREC
 40
2.0
  9
$PSOLWIDTH
 40
5.0
  9
$PSOLHEIGHT
 40
80.0
  9
$LOFTANG1
 40
1.570796326794897
  9
$LOFTANG2
 40
1.570796326794897
  9
$LOFTMAG1
 40
0.0
  9
$LOFTMAG2
 40
0.0
  9
$LOFTPARAM
 70
     7
  9
$LOFTNORMALS
280
     1
  9
$LATITUDE
 40
37.795
  9
$LONGITUDE
 40
-122.394
  9
$NORTHDIRECTION
 40
0.0
  9
$TIMEZONE
 70
 -8000
  9
$LIGHTGLYPHDISPLAY
280
     1
  9
$TILEMODELIGHTSYNCH
280
     1
  9
$SOLIDHIST
280
     1
  9
$SHOWHIST
280
     1
  9
$DWFFRAME
280
     2
  9
$DGNFRAME
280
     2
  9
$REALWORLDSCALE
290
     1
  9
$INTERFERECOLOR
 62
   256
  9
$CSHADOW
280
     0
  9
$SHADOWPLANELOCATION
 40
0.0
  0
ENDSEC
  0
SECTION
  2
CLASSES
  0
CLASS
  1
ACDBDICTIONARYWDFLT
  2
AcDbDictionaryWithDefault
  3
ObjectDBX Classes
 90
        0
 91
        4
280
     0
281
     0
  0
CLASS
  1
VISUALSTYLE
  2
AcDbVisualStyle
  3
ObjectDBX Classes
 90
     4095
 91
        4
280
     0
281
     0
  0
ENDSEC
  0
SECTION
  2
TABLES
  0
TABLE
  2
VPORT
  5
8
330
0
100
AcDbSymbolTable
 70
     1
  0
VPORT
  5
29
330
8
100
AcDbSymbolTableRecord
100
AcDbViewportTableRecord
  2
*Active
 70
     0
 10
0.0
 20
0.0
 11
1.0
 21
1.0
 12
0.0
 22
0.0
 13
0.0
 23
0.0
 14
10.0
 24
10.0
 15
10.0
 25
10.0
 16
0.0
 26
0.0
 36
1.0
 17
0.0
 27
0.0
 37
0.0
 40
3267.0
 41
1.414141414141414
 42
50.0
 43
0.0
 44
0.0
 50
0.0
 51
0.0
 71
     0
 72
 10000
 73
     1
 74
     3
 75
     0
 76
     0
 77
     0
 78
     0
281
     0
 65
     1
110
0.0
120
0.0
130
0.0
111
1.0
121
0.0
131
0.0
112
0.0
122
1.0
132
0.0
 79
     0
146
0.0
 60
     3
 61
     5
292
     1
282
     1
141
0.0
142
0.0
 63
   256
  0
ENDTAB
  0
TABLE
  2
LTYPE
  5
5
330
0
100
AcDbSymbolTable
 70
     4
  0
LTYPE
  5
14
330
5
100
AcDbSymbolTableRecord
100
AcDbLinetypeTableRecord
  2
ByBlock
 70
     0
  3

 72
    65
 73
     0
 40
0.0
  0
LTYPE
  5
15
330
5
100
AcDbSymbolTableRecord
100
AcDbLinetypeTableRecord
  2
ByLayer
 70
     0
  3

 72
    65
 73
     0
 40
0.0
  0
LTYPE
  5
16
330
5
100
AcDbSymbolTableRecord
100
AcDbLinetypeTableRecord
  2
Continuous
 70
     0
  3
Solid line
 72
    65
 73
     0
 40
0.0
  0
LTYPE
  5
3C
330
5
100
AcDbSymbolTableRecord
100
AcDbLinetypeTableRecord
  2
JWW_DASHED3
 70
     0
  3
---  ------  ------  ------  ---
 72
    65
 73
     2
 40
3.386666666666667
 49
2.54
 74
     0
 49
-0.8466666666666667
 74
     0
  0
LTYPE
  5
3D
330
5
100
AcDbSymbolTableRecord
100
AcDbLinetypeTableRecord
  2
JWW_CENTER2
 70
     0
  3
-------------  --  -------------
 72
    65
 73
     4
 40
13.54666666666667
 49
11.00666666666667
 74
     0
 49
-0.8466666666666667
 74
     0
 49
0.8466666666666667
 74
     0
 49
-0.8466666666666667
 74
     0
  0
LTYPE
  5
3E
330
5
100
AcDbSymbolTableRecord
100
AcDbLinetypeTableRecord
  2
JWW_CENTER1
 70
     0
  3
-----  --  ----------  --  -----
 72
    65
 73
     4
 40
6.773333333333333
 49
4.233333333333333
 74
     0
 49
-0.8466666666666667
 74
     0
 49
0.8466666666666667
 74
     0
 49
-0.8466666666666667
 74
     0
  0
ENDTAB
  0
TABLE
  2
LAYER
  5
2
330
0
100
AcDbSymbolTable
 70
    16
  0
LAYER
  5
10
330
2
100
AcDbSymbolTableRecord
100
AcDbLayerTableRecord
  2
0
 70
     0
 62
     7
  6
Continuous
370
    -3
390
F
347
0
  0
LAYER
  5
3F
330
2
100
AcDbSymbolTableRecord
100
AcDbLayerTableRecord
  2
0242_
 70
     0
 62
     7
  6
Continuous
370
    -3
390
F
347
0
  0
LAYER
  5
40
330
2
100
AcDbSymbolTableRecord
100
AcDbLayerTableRecord
  2
0216_
 70
     0
 62
     7
  6
Continuous
370
    -3
390
F
347
0
  0
LAYER
  5
41
330
2
100
AcDbSymbolTableRecord
100
AcDbLayerTableRecord
  2
0234_
 70
     0
 62
     7
  6
Continuous
370
    -3
390
F
347
0
  0
LAYER
  5
42
330
2
100
AcDbSymbolTableRecord
100
AcDbLayerTableRecord
  2
0243_
 70
     0
 62
     7
  6
Continuous
370
    -3
390
F
347
0
  0
LAYER
  5
43
330
2
100
AcDbSymbolTableRecord
100
AcDbLayerTableRecord
  2
0220_
 70
     0
 62
     7
  6
Continuous
370
    -3
390
F
347
0
  0
LAYER
  5
44
330
2
100
AcDbSymbolTableRecord
100
AcDbLayerTableRecord
  2
0227_下階間仕切
 70
     0
 62
     7
  6
Continuous
370
    -3
390
F
347
0
  0
LAYER
  5
45
330
2
100
AcDbSymbolTableRecord
100
AcDbLayerTableRecord
  2
0226_下階梁情報
 70
     0
 62
     7
  6
Continuous
370
    -3
390
F
347
0
  0
LAYER
  5
46
330
2
100
AcDbSymbolTableRecord
100
AcDbLayerTableRecord
  2
0218_
 70
     0
 62
     7
  6
Continuous
370
    -3
390
F
347
0
  0
LAYER
  5
47
330
2
100
AcDbSymbolTableRecord
100
AcDbLayerTableRecord
  2
0255_
 70
     0
 62
     7
  6
Continuous
370
    -3
390
F
347
0
  0
LAYER
  5
48
330
2
100
AcDbSymbolTableRecord
100
AcDbLayerTableRecord
  2
0018_躯　寸法（
 70
     0
 62
     7
  6
Continuous
370
    -3
390
F
347
0
  0
LAYER
  5
49
330
2
100
AcDbSymbolTableRecord
100
AcDbLayerTableRecord
  2
0013_躯　下り壁
 70
     0
 62
     7
  6
Continuous
370
    -3
390
F
347
0
  0
LAYER
  5
4A
330
2
100
AcDbSymbolTableRecord
100
AcDbLayerTableRecord
  2
0239_詳細図（細
 70
     0
 62
     7
  6
Continuous
370
    -3
390
F
347
0
  0
LAYER
  5
4B
330
2
100
AcDbSymbolTableRecord
100
AcDbLayerTableRecord
  2
0191_区画線（防
 70
     0
 62
     7
  6
Continuous
370
    -3
390
F
347
0
  0
LAYER
  5
4C
330
2
100
AcDbSymbolTableRecord
100
AcDbLayerTableRecord
  2
0192_区画線（防
 70
     0
 62
     7
  6
Continuous
370
    -3
390
F
347
0
  0
LAYER
  5
4D
330
2
100
AcDbSymbolTableRecord
100
AcDbLayerTableRecord
  2
0193_区画線（異
 70
     0
 62
     7
  6
Continuous
370
    -3
390
F
347
0
  0
ENDTAB
  0
TABLE
  2
STYLE
  5
3
330
0
100
AcDbSymbolTable
 70
     2
  0
STYLE
  5
11
330
3
100
AcDbSymbolTableRecord
100
AcDbTextStyleTableRecord
  2
Standard
 70
     0
 40
0.0
 41
1.0
 50
0.0
 71
     0
 42
2.5
  3
txt
  4

1001
ACAD
1000

1071
        0
  0
STYLE
  5
3B
330
3
100
AcDbSymbolTableRecord
100
AcDbTextStyleTableRecord
  2
ＭＳ ゴシック
 70
     0
 40
1.0
 41
1.0
 50
0.0
 71
     0
 42
10.0
  3

  4

1001
ACAD
1000
MS Gothic
1071
    32817
  0
ENDTAB
  0
TABLE
  2
VIEW
  5
6
330
0
100
AcDbSymbolTable
 70
     0
  0
ENDTAB
  0
TABLE
  2
UCS
  5
7
330
0
100
AcDbSymbolTable
 70
     0
  0
ENDTAB
  0
TABLE
  2
APPID
  5
9
330
0
100
AcDbSymbolTable
 70
     1
  0
APPID
  5
12
330
9
100
AcDbSymbolTableRecord
100
AcDbRegAppTableRecord
  2
ACAD
 70
     0
  0
ENDTAB
  0
TABLE
  2
DIMSTYLE
  5
A
330
0
100
AcDbSymbolTable
 70
     1
100
AcDbDimStyleTable
  0
DIMSTYLE
105
27
330
A
100
AcDbSymbolTableRecord
100
AcDbDimStyleTableRecord
  2
ISO-25
 70
     0
 41
2.5
 42
0.625
 43
3.75
 44
1.25
 73
     0
 74
     0
 77
     1
 78
     8
140
2.5
141
2.5
143
0.03937007874016
147
0.625
171
     3
172
     1
271
     2
272
     2
274
     3
278
    44
283
     0
284
     8
340
11
  0
ENDTAB
  0
TABLE
  2
BLOCK_RECORD
  5
1
330
0
100
AcDbSymbolTable
 70
     1
  0
BLOCK_RECORD
  5
1F
330
1
100
AcDbSymbolTableRecord
100
AcDbBlockTableRecord
  2
*Model_Space
340
22
 70
     0
280
     1
281
     0
  0
BLOCK_RECORD
  5
1B
330
1
100
AcDbSymbolTableRecord
100
AcDbBlockTableRecord
  2
*Paper_Space
340
1E
 70
     0
280
     1
281
     0
  0
BLOCK_RECORD
  5
23
330
1
100
AcDbSymbolTableRecord
100
AcDbBlockTableRecord
  2
*Paper_Space0
340
26
 70
     0
280
     1
281
     0
  0
ENDTAB
  0
ENDSEC
  0
SECTION
  2
BLOCKS
  0
BLOCK
  5
20
330
1F
100
AcDbEntity
  8
0
100
AcDbBlockBegin
  2
*Model_Space
 70
     0
 10
0.0
 20
0.0
 30
0.0
  3
*Model_Space
  1

  0
ENDBLK
  5
21
330
1F
100
AcDbEntity
  8
0
100
AcDbBlockEnd
  0
BLOCK
  5
1C
330
1B
100
AcDbEntity
 67
     1
  8
0
100
AcDbBlockBegin
  2
*Paper_Space
 70
     0
 10
0.0
 20
0.0
 30
0.0
  3
*Paper_Space
  1

  0
ENDBLK
  5
1D
330
1B
100
AcDbEntity
 67
     1
  8
0
100
AcDbBlockEnd
  0
BLOCK
  5
24
330
23
100
AcDbEntity
  8
0
100
AcDbBlockBegin
  2
*Paper_Space0
 70
     0
 10
0.0
 20
0.0
 30
0.0
  3
*Paper_Space0
  1

  0
ENDBLK
  5
25
330
23
100
AcDbEntity
  8
0
100
AcDbBlockEnd
  0
ENDSEC
  0
SECTION
  2
ENTITIES
  0
TEXT
  5
4E
330
1F
100
AcDbEntity
  8
0242_
  6
Continuous
 62
     2
370
     5
100
AcDbText
 10
331.4728492015115
 20
-678.2751479222591
 30
0.0
 40
30.48
  1
材質：メインバー　ＳＵＳ３０４　＠１４
 41
1.118421052631579
  7
ＭＳ ゴシック
100
AcDbText
  0
TEXT
  5
4F
330
1F
100
AcDbEntity
  8
0242_
  6
Continuous
 62
     2
370
     5
100
AcDbText
 10
466.9359472641369
 20
-731.7039545904742
 30
0.0
 40
30.48
  1
クロスバー　ＳＵＳ３０４　＠８０
 41
1.1171875
  7
ＭＳ ゴシック
100
AcDbText
  0
TEXT
  5
50
330
1F
100
AcDbEntity
  8
0242_
  6
Continuous
 62
     2
370
     5
100
AcDbText
 10
466.9359472641369
 20
-780.6988525496578
 30
0.0
 40
30.48
  1
サイドバー　ＳＵＳ３０４
 41
1.114583333333333
  7
ＭＳ ゴシック
100
AcDbText
  0
LINE
  5
51
330
1F
100
AcDbEntity
  8
0242_
  6
Continuous
 62
     2
370
     5
100
AcDbLine
 10
451.6532942029125
 20
-487.7225260190455
 30
0.0
 11
154.6532942029125
 21
-487.7225260190455
 31
0.0
  0
LINE
  5
52
330
1F
100
AcDbEntity
  8
0242_
  6
Continuous
 62
     2
370
     5
100
AcDbLine
 10
451.6532942029125
 20
-425.9947752429802
 30
0.0
 11
451.6532942029125
 21
-487.7225260190455
 31
0.0
  0
LINE
  5
53
330
1F
100
AcDbEntity
  8
0242_
  6
Continuous
 62
     2
370
     5
100
AcDbLine
 10
154.6532942029125
 20
-487.7225260190455
 30
0.0
 11
154.6532942029125
 21
-425.9947752429802
 31
0.0
  0
LINE
  5
54
330
1F
100
AcDbEntity
  8
0242_
  6
Continuous
 62
     2
370
     5
100
AcDbLine
 10
154.6532942029125
 20
-425.9947752429802
 30
0.0
 11
451.6532942029125
 21
-425.9947752429802
 31
0.0
  0
TEXT
  5
55
330
1F
100
AcDbEntity
  8
0242_
  6
Continuous
 62
     2
370
     5
100
AcDbText
 10
238.1532942029125
 20
-471.2391289844768
 30
0.0
 40
30.48
  1
仕　様
 41
1.083333333333333
  7
ＭＳ ゴシック
100
AcDbText
  0
TEXT
  5
56
330
1F
100
AcDbEntity
  8
0242_
  6
Continuous
 62
     2
370
     5
100
AcDbText
 10
331.4728492015115
 20
-944.7807139785822
 30
0.0
 40
30.48
  1
材質：冷間圧延ステンレス鋼板（ＳＵＳ３０４－２Ｂ）
 41
1.12
  7
ＭＳ ゴシック
100
AcDbText
  0
TEXT
  5
57
330
1F
100
AcDbEntity
  8
0242_
  6
Continuous
 62
     2
370
     5
100
AcDbText
 10
271.7609351390115
 20
-879.7811335952814
 30
0.0
 40
30.48
  1
ステンレス製受枠　ＳＦ２０Ｂ（四方枠）
 41
1.118421052631579
  7
ＭＳ ゴシック
100
AcDbText
  0
LINE
  5
58
330
1F
100
AcDbEntity
  8
0216_
  6
Continuous
 62
     7
370
     5
100
AcDbLine
 10
-723.5519036822153
 20
-233.4292485933844
 30
0.0
 11
-723.5519036822153
 21
-16.2142529707495
 31
0.0
  0
LINE
  5
59
330
1F
100
AcDbEntity
  8
0234_
  6
Continuous
 62
     4
370
     5
100
AcDbLine
 10
-718.5526237063242
 20
-360.2603402357641
 30
0.0
 11
-722.1774733238054
 21
-363.8851895552222
 31
0.0
  0
LINE
  5
5A
330
1F
100
AcDbEntity
  8
0234_
  6
Continuous
 62
     4
370
     5
100
AcDbLine
 10
-833.5529050402475
 20
-351.385008357102
 30
0.0
 11
-718.5526237063242
 21
-351.385008357102
 31
0.0
  0
LINE
  5
5B
330
1F
100
AcDbEntity
  8
0234_
  6
Continuous
 62
     4
370
     5
100
AcDbLine
 10
-718.5526237063242
 20
-353.1895032148901
 30
0.0
 11
-729.248803573115
 21
-363.8851895552222
 31
0.0
  0
LINE
  5
5C
330
1F
100
AcDbEntity
  8
0234_
  6
Continuous
 62
     4
370
     5
100
AcDbLine
 10
-723.8194568254186
 20
-351.385008357102
 30
0.0
 11
-736.3201341204477
 21
-363.8851895552222
 31
0.0
  0
LINE
  5
5D
330
1F
100
AcDbEntity
  8
0234_
  6
Continuous
 62
     4
370
     5
100
AcDbLine
 10
-730.8907869629694
 20
-351.385008357102
 30
0.0
 11
-743.3914646677805
 21
-363.8851895552222
 31
0.0
  0
LINE
  5
5E
330
1F
100
AcDbEntity
  8
0234_
  6
Continuous
 62
     4
370
     5
100
AcDbLine
 10
-737.9621181063486
 20
-351.385008357102
 30
0.0
 11
-750.4618033938242
 21
-363.8851895552222
 31
0.0
  0
LINE
  5
5F
330
1F
100
AcDbEntity
  8
0234_
  6
Continuous
 62
     4
370
     5
100
AcDbLine
 10
-745.0324568323923
 20
-351.385008357102
 30
0.0
 11
-757.533133941157
 21
-363.8851895552222
 31
0.0
  0
LINE
  5
60
330
1F
100
AcDbEntity
  8
0234_
  6
Continuous
 62
     4
370
     5
100
AcDbLine
 10
-752.1037873797251
 20
-351.385008357102
 30
0.0
 11
-764.6044644884897
 21
-363.8851895552222
 31
0.0
  0
LINE
  5
61
330
1F
100
AcDbEntity
  8
0234_
  6
Continuous
 62
     4
370
     5
100
AcDbLine
 10
-759.1751179270578
 20
-351.385008357102
 30
0.0
 11
-770.6600818209482
 21
-362.8694787245337
 31
0.0
  0
LINE
  5
62
330
1F
100
AcDbEntity
  8
0234_
  6
Continuous
 62
     4
370
     5
100
AcDbLine
 10
-766.2464484743906
 20
-351.385008357102
 30
0.0
 11
-776.0735759310556
 21
-361.2121358137671
 31
0.0
  0
LINE
  5
63
330
1F
100
AcDbEntity
  8
0234_
  6
Continuous
 62
     4
370
     5
100
AcDbLine
 10
-773.3167895846201
 20
-351.385008357102
 30
0.0
 11
-781.2898692660166
 21
-359.3580880384985
 31
0.0
  0
LINE
  5
64
330
1F
100
AcDbEntity
  8
0234_
  6
Continuous
 62
     4
370
     5
100
AcDbLine
 10
-780.3881177477671
 20
-351.385008357102
 30
0.0
 11
-786.5061673693491
 21
-357.5035443525854
 31
0.0
  0
LINE
  5
65
330
1F
100
AcDbEntity
  8
0234_
  6
Continuous
 62
     4
370
     5
100
AcDbLine
 10
-787.459445910914
 20
-351.385008357102
 30
0.0
 11
-792.4597177080942
 21
-356.3852753859106
 31
0.0
  0
LINE
  5
66
330
1F
100
AcDbEntity
  8
0234_
  6
Continuous
 62
     4
370
     5
100
AcDbLine
 10
-794.5307788424326
 20
-351.385008357102
 30
0.0
 11
-799.5300588183237
 21
-356.3852753859106
 31
0.0
  0
LINE
  5
67
330
1F
100
AcDbEntity
  8
0234_
  6
Continuous
 62
     4
370
     5
100
AcDbLine
 10
-829.8864373736216
 20
-351.385008357102
 30
0.0
 11
-834.8857221178843
 21
-356.3852753859106
 31
0.0
  0
LINE
  5
68
330
1F
100
AcDbEntity
  8
0243_
  6
JWW_DASHED3
 62
     3
370
     5
100
AcDbLine
 10
-698.5525307230783
 20
-333.8850465040747
 30
0.0
 11
-698.5525307230783
 21
-283.884815238053
 31
0.0
  0
LINE
  5
69
330
1F
100
AcDbEntity
  8
0243_
  6
Continuous
 62
     3
370
     5
100
AcDbLine
 10
-673.5521659426523
 20
-308.885180018479
 30
0.0
 11
-673.5521659426523
 21
-293.3854308348242
 31
0.0
  0
LINE
  5
6A
330
1F
100
AcDbEntity
  8
0243_
  6
Continuous
 62
     3
370
     5
100
AcDbLine
 10
-698.5525307230783
 20
-283.884815238053
 30
0.0
 11
-698.5525307230783
 21
-253.8851722698752
 31
0.0
  0
LINE
  5
6B
330
1F
100
AcDbEntity
  8
0243_
  6
Continuous
 62
     3
370
     5
100
AcDbLine
 10
-548.5523232989145
 20
-372.3849549513403
 30
0.0
 11
-673.5521659426523
 21
-372.3849549513403
 31
0.0
  0
LINE
  5
6C
330
1F
100
AcDbEntity
  8
0243_
  6
Continuous
 62
     3
370
     5
100
AcDbLine
 10
-676.4823684267832
 20
-355.9557023268286
 30
0.0
 11
-698.5525307230783
 21
-333.8850465040747
 31
0.0
  0
LINE
  5
6D
330
1F
100
AcDbEntity
  8
0243_
  6
Continuous
 62
     3
370
     5
100
AcDbLine
 10
-673.5521659426523
 20
-383.8847794752661
 30
0.0
 11
-673.5521659426523
 21
-363.0270352583472
 31
0.0
  0
LINE
  5
6E
330
1F
100
AcDbEntity
  8
0243_
  6
Continuous
 62
     3
370
     5
100
AcDbLine
 10
-548.5523232989145
 20
-383.8847794752661
 30
0.0
 11
-673.5521659426523
 21
-383.8847794752661
 31
0.0
  0
LINE
  5
6F
330
1F
100
AcDbEntity
  8
0243_
  6
Continuous
 62
     3
370
     5
100
AcDbLine
 10
-698.5525307230783
 20
-366.3848271589819
 30
0.0
 11
-698.5525307230783
 21
-333.8850465040747
 31
0.0
  0
LINE
  5
70
330
1F
100
AcDbEntity
  8
0243_
  6
Continuous
 62
     3
370
     5
100
AcDbLine
 10
-698.5525307230783
 20
-366.3848271589819
 30
0.0
 11
-710.0523612074686
 21
-366.3848271589819
 31
0.0
  0
LINE
  5
71
330
1F
100
AcDbEntity
  8
0243_
  6
Continuous
 62
     3
370
     5
100
AcDbLine
 10
-710.0523612074686
 20
-253.8851722698752
 30
0.0
 11
-710.0523612074686
 21
-366.3848271589819
 31
0.0
  0
LINE
  5
72
330
1F
100
AcDbEntity
  8
0243_
  6
JWW_CENTER2
 62
     3
370
     5
100
AcDbLine
 10
-655.5577334933115
 20
-311.3853135328833
 30
0.0
 11
-715.9751948885752
 21
-311.3853135328833
 31
0.0
  0
LINE
  5
73
330
1F
100
AcDbEntity
  8
0243_
  6
JWW_DASHED3
 62
     3
370
     5
100
AcDbLine
 10
-673.5521659426523
 20
-321.3853612165991
 30
0.0
 11
-710.0523612074686
 21
-321.3853612165991
 31
0.0
  0
LINE
  5
74
330
1F
100
AcDbEntity
  8
0243_
  6
JWW_DASHED3
 62
     3
370
     5
100
AcDbLine
 10
-673.5521659426523
 20
-329.385200999314
 30
0.0
 11
-673.5521659426523
 21
-308.885180018479
 31
0.0
  0
LINE
  5
75
330
1F
100
AcDbEntity
  8
0243_
  6
JWW_DASHED3
 62
     3
370
     5
100
AcDbLine
 10
-673.5521659426523
 20
-320.1357903700415
 30
0.0
 11
-710.0523612074686
 21
-320.1357903700415
 31
0.0
  0
LINE
  5
76
330
1F
100
AcDbEntity
  8
0243_
  6
Continuous
 62
     3
370
     5
100
AcDbLine
 10
-712.3027810625864
 20
-301.385270617539
 30
0.0
 11
-713.5523531012369
 21
-302.6353373747412
 31
0.0
  0
LINE
  5
77
330
1F
100
AcDbEntity
  8
0243_
  6
Continuous
 62
     3
370
     5
100
AcDbLine
 10
-712.3027810625864
 20
-321.3853612165991
 30
0.0
 11
-713.5523531012369
 21
-320.1357903700415
 31
0.0
  0
LINE
  5
78
330
1F
100
AcDbEntity
  8
0243_
  6
Continuous
 62
     3
370
     5
100
AcDbLine
 10
-712.3027810625864
 20
-301.385270617539
 30
0.0
 11
-712.3027810625864
 21
-321.3853612165991
 31
0.0
  0
LINE
  5
79
330
1F
100
AcDbEntity
  8
0243_
  6
Continuous
 62
     3
370
     5
100
AcDbLine
 10
-710.0523612074686
 20
-302.6353373747412
 30
0.0
 11
-713.5523531012369
 21
-302.6353373747412
 31
0.0
  0
LINE
  5
7A
330
1F
100
AcDbEntity
  8
0243_
  6
Continuous
 62
     3
370
     5
100
AcDbLine
 10
-710.0523612074686
 20
-301.385270617539
 30
0.0
 11
-712.3027810625864
 21
-301.385270617539
 31
0.0
  0
LINE
  5
7B
330
1F
100
AcDbEntity
  8
0243_
  6
Continuous
 62
     3
370
     5
100
AcDbLine
 10
-710.0523612074686
 20
-320.1357903700415
 30
0.0
 11
-713.5523531012369
 21
-320.1357903700415
 31
0.0
  0
LINE
  5
7C
330
1F
100
AcDbEntity
  8
0243_
  6
Continuous
 62
     3
370
     5
100
AcDbLine
 10
-710.0523612074686
 20
-321.3853612165991
 30
0.0
 11
-712.3027810625864
 21
-321.3853612165991
 31
0.0
  0
LINE
  5
7D
330
1F
100
AcDbEntity
  8
0243_
  6
Continuous
 62
     3
370
     5
100
AcDbLine
 10
-667.0526084475351
 20
-293.3854308348242
 30
0.0
 11
-673.5521659426523
 21
-293.3854308348242
 31
0.0
  0
LINE
  5
7E
330
1F
100
AcDbEntity
  8
0243_
  6
JWW_DASHED3
 62
     3
370
     5
100
AcDbLine
 10
-667.0526084475351
 20
-329.385200999314
 30
0.0
 11
-673.5521659426523
 21
-329.385200999314
 31
0.0
  0
LINE
  5
7F
330
1F
100
AcDbEntity
  8
0243_
  6
JWW_DASHED3
 62
     3
370
     5
100
AcDbLine
 10
-660.553050952418
 20
-322.8851428251807
 30
0.0
 11
-660.553050952418
 21
-321.885782740647
 31
0.0
  0
LINE
  5
80
330
1F
100
AcDbEntity
  8
0243_
  6
Continuous
 62
     3
370
     5
100
AcDbLine
 10
-660.553050952418
 20
-299.8844924192969
 30
0.0
 11
-660.553050952418
 21
-321.885782740647
 31
0.0
  0
LINE
  5
81
330
1F
100
AcDbEntity
  8
0243_
  6
Continuous
 62
     3
370
     5
100
AcDbLine
 10
-673.5521659426523
 20
-301.385270617539
 30
0.0
 11
-681.0525760226084
 21
-301.385270617539
 31
0.0
  0
LINE
  5
82
330
1F
100
AcDbEntity
  8
0243_
  6
Continuous
 62
     3
370
     5
100
AcDbLine
 10
-673.5521659426523
 20
-302.6353373747412
 30
0.0
 11
-679.8030004076792
 21
-302.6353373747412
 31
0.0
  0
LINE
  5
83
330
1F
100
AcDbEntity
  8
0243_
  6
JWW_DASHED3
 62
     3
370
     5
100
AcDbLine
 10
-681.0525760226084
 20
-301.385270617539
 30
0.0
 11
-710.0523612074686
 21
-301.385270617539
 31
0.0
  0
LINE
  5
84
330
1F
100
AcDbEntity
  8
0243_
  6
JWW_DASHED3
 62
     3
370
     5
100
AcDbLine
 10
-710.0523612074686
 20
-302.6353373747412
 30
0.0
 11
-679.8030004076792
 21
-302.6353373747412
 31
0.0
  0
LINE
  5
85
330
1F
100
AcDbEntity
  8
0243_
  6
Continuous
 62
     3
370
     5
100
AcDbLine
 10
-657.3404273562265
 20
-325.0979104261938
 30
0.0
 11
-698.5525307230783
 21
-283.884815238053
 31
0.0
  0
LINE
  5
86
330
1F
100
AcDbEntity
  8
0243_
  6
Continuous
 62
     3
370
     5
100
AcDbLine
 10
-636.1264428667856
 20
-333.8850465040747
 30
0.0
 11
-558.552876430018
 21
-333.8850465040747
 31
0.0
  0
LINE
  5
87
330
1F
100
AcDbEntity
  8
0216_
  6
Continuous
 62
     7
370
     5
100
AcDbLine
 10
-1421.220513301356
 20
-127.9662385206763
 30
0.0
 11
-848.5527333788706
 21
-127.9662385206763
 31
0.0
  0
LINE
  5
88
330
1F
100
AcDbEntity
  8
0216_
  6
Continuous
 62
     7
370
     5
100
AcDbLine
 10
-848.5527333788706
 20
-233.4292485933844
 30
0.0
 11
-848.5527333788706
 21
-124.9651875715796
 31
0.0
  0
LINE
  5
89
330
1F
100
AcDbEntity
  8
0216_
  6
Continuous
 62
     7
370
     5
100
AcDbLine
 10
-848.5527333788706
 20
-127.9662385206763
 30
0.0
 11
-723.5519036822153
 21
-127.9662385206763
 31
0.0
  0
LINE
  5
8A
330
1F
100
AcDbEntity
  8
0216_
  6
Continuous
 62
     7
370
     5
100
AcDbLine
 10
-718.551633077128
 20
-233.4292485933844
 30
0.0
 11
-718.551633077128
 21
-16.2142529707495
 31
0.0
  0
LINE
  5
8B
330
1F
100
AcDbEntity
  8
0216_
  6
Continuous
 62
     7
370
     5
100
AcDbLine
 10
-693.5532507471872
 20
-233.4292485933844
 30
0.0
 11
-693.5532507471872
 21
94.48238704389894
 31
0.0
  0
LINE
  5
8C
330
1F
100
AcDbEntity
  8
0216_
  6
Continuous
 62
     7
370
     5
100
AcDbLine
 10
-848.5517415575815
 20
-654.5038953047339
 30
0.0
 11
-698.5525307230783
 21
-654.5038953047339
 31
0.0
  0
LINE
  5
8D
330
1F
100
AcDbEntity
  8
0220_
  6
Continuous
 62
     6
370
     5
100
AcDbLine
 10
-698.5525307230783
 20
-498.8855710249487
 30
0.0
 11
-698.5525307230783
 21
-748.8852277021948
 31
0.0
  0
LINE
  5
8E
330
1F
100
AcDbEntity
  8
0220_
  6
JWW_DASHED3
 62
     6
370
     5
100
AcDbLine
 10
-605.0506410174204
 20
-626.3850369673315
 30
0.0
 11
-605.0506410174204
 21
-498.8855710249487
 31
0.0
  0
LINE
  5
8F
330
1F
100
AcDbEntity
  8
0220_
  6
JWW_DASHED3
 62
     6
370
     5
100
AcDbLine
 10
-560.0511750750376
 20
-498.8855710249487
 30
0.0
 11
-560.0511750750376
 21
-626.3850369673315
 31
0.0
  0
LINE
  5
90
330
1F
100
AcDbEntity
  8
0220_
  6
Continuous
 62
     6
370
     5
100
AcDbLine
 10
-448.5528573565317
 20
-398.8855996351782
 30
0.0
 11
-283.5523614458872
 21
-398.8855996351782
 31
0.0
  0
LINE
  5
91
330
1F
100
AcDbEntity
  8
0220_
  6
Continuous
 62
     6
370
     5
100
AcDbLine
 10
-448.5528573565317
 20
-398.8855996351782
 30
0.0
 11
-448.5528573565317
 21
-498.8855710249487
 31
0.0
  0
LINE
  5
92
330
1F
100
AcDbEntity
  8
0220_
  6
Continuous
 62
     6
370
     5
100
AcDbLine
 10
-698.5525307230783
 20
-498.8855710249487
 30
0.0
 11
-448.5528573565317
 21
-498.8855710249487
 31
0.0
  0
LINE
  5
93
330
1F
100
AcDbEntity
  8
0220_
  6
Continuous
 62
     6
370
     5
100
AcDbLine
 10
-605.0506410174204
 20
-301.385761759812
 30
0.0
 11
-560.0511750750376
 21
-301.385761759812
 31
0.0
  0
LINE
  5
94
330
1F
100
AcDbEntity
  8
0220_
  6
JWW_CENTER2
 62
     6
370
     5
100
AcDbLine
 10
-582.5514039568735
 20
-297.3055806379858
 30
0.0
 11
-582.5514039568735
 21
-626.3850369673315
 31
0.0
  0
LINE
  5
95
330
1F
100
AcDbEntity
  8
0220_
  6
Continuous
 62
     6
370
     5
100
AcDbLine
 10
-605.0506410174204
 20
-333.8850465040747
 30
0.0
 11
-605.0506410174204
 21
-301.385761759812
 31
0.0
  0
LINE
  5
96
330
1F
100
AcDbEntity
  8
0220_
  6
Continuous
 62
     6
370
     5
100
AcDbLine
 10
-560.0511750750376
 20
-333.8850465040747
 30
0.0
 11
-560.0511750750376
 21
-301.385761759812
 31
0.0
  0
LINE
  5
97
330
1F
100
AcDbEntity
  8
0220_
  6
Continuous
 62
     6
370
     5
100
AcDbLine
 10
-605.0506410174204
 20
-498.8855710249487
 30
0.0
 11
-605.0506410174204
 21
-383.8847794752661
 31
0.0
  0
LINE
  5
98
330
1F
100
AcDbEntity
  8
0220_
  6
Continuous
 62
     6
370
     5
100
AcDbLine
 10
-560.0511750750376
 20
-498.8855710249487
 30
0.0
 11
-560.0511750750376
 21
-383.8847794752661
 31
0.0
  0
LINE
  5
99
330
1F
100
AcDbEntity
  8
0216_
  6
Continuous
 62
     7
370
     5
100
AcDbLine
 10
-853.4766969256235
 20
-373.885237238938
 30
0.0
 11
-997.0348176531626
 21
-373.885237238938
 31
0.0
  0
LINE
  5
9A
330
1F
100
AcDbEntity
  8
0216_
  6
Continuous
 62
     7
370
     5
100
AcDbLine
 10
-1421.220513301356
 20
91.48182246870363
 30
0.0
 11
-693.5532507471872
 21
91.48182246870363
 31
0.0
  0
LINE
  5
9B
330
1F
100
AcDbEntity
  8
0216_
  6
Continuous
 62
     7
370
     5
100
AcDbLine
 10
-730.8323219590021
 20
-248.885396979386
 30
0.0
 11
-997.0348176531626
 21
-248.885396979386
 31
0.0
  0
LINE
  5
9C
330
1F
100
AcDbEntity
  8
0243_
  6
Continuous
 62
     3
370
     5
100
AcDbLine
 10
-710.0523612074686
 20
-253.8851722698752
 30
0.0
 11
-698.5525307230783
 21
-253.8851722698752
 31
0.0
  0
LINE
  5
9D
330
1F
100
AcDbEntity
  8
0242_
  6
Continuous
 62
     7
370
     5
100
AcDbLine
 10
-745.6359371714426
 20
-357.4272504072729
 30
0.0
 11
-731.8232593111826
 21
-336.5893140059057
 31
0.0
  0
LINE
  5
9E
330
1F
100
AcDbEntity
  8
0242_
  6
Continuous
 62
     7
370
     5
100
AcDbLine
 10
-745.6359371714426
 20
-357.4272504072729
 30
0.0
 11
-726.902263479693
 21
-340.8731427412573
 31
0.0
  0
LINE
  5
9F
330
1F
100
AcDbEntity
  8
0220_
  6
Continuous
 62
     6
370
     5
100
AcDbLine
 10
-696.5528187327219
 20
-248.885396979386
 30
0.0
 11
-283.5523614458872
 21
-248.885396979386
 31
0.0
  0
LINE
  5
A0
330
1F
100
AcDbEntity
  8
0220_
  6
Continuous
 62
     6
370
     5
100
AcDbLine
 10
-848.5517415575815
 20
-368.8849606733862
 30
0.0
 11
-848.5517415575815
 21
-748.8852277021948
 31
0.0
  0
LINE
  5
A1
330
1F
100
AcDbEntity
  8
0243_
  6
Continuous
 62
     3
370
     5
100
AcDbLine
 10
-548.5523232989145
 20
-343.8850941877905
 30
0.0
 11
-548.5523232989145
 21
-383.8847794752661
 31
0.0
  0
LINE
  5
A2
330
1F
100
AcDbEntity
  8
0227_下階間仕切
  6
Continuous
 62
     2
370
     5
100
AcDbLine
 10
-698.5535225443674
 20
-253.8851722698752
 30
0.0
 11
-713.5533437304331
 21
-253.8851722698752
 31
0.0
  0
LINE
  5
A3
330
1F
100
AcDbEntity
  8
0227_下階間仕切
  6
Continuous
 62
     2
370
     5
100
AcDbLine
 10
-693.5532507471872
 20
-346.3852277021948
 30
0.0
 11
-698.5535225443674
 21
-346.3852277021948
 31
0.0
  0
LINE
  5
A4
330
1F
100
AcDbEntity
  8
0227_下階間仕切
  6
Continuous
 62
     2
370
     5
100
AcDbLine
 10
-698.5535225443674
 20
-368.8849606733862
 30
0.0
 11
-698.5535225443674
 21
-346.3852277021948
 31
0.0
  0
LINE
  5
A5
330
1F
100
AcDbEntity
  8
0227_下階間仕切
  6
Continuous
 62
     2
370
     5
100
AcDbLine
 10
-693.5532507471872
 20
-276.384905837113
 30
0.0
 11
-698.5535225443674
 21
-276.384905837113
 31
0.0
  0
LINE
  5
A6
330
1F
100
AcDbEntity
  8
0227_下階間仕切
  6
Continuous
 62
     2
370
     5
100
AcDbLine
 10
-698.5535225443674
 20
-276.384905837113
 30
0.0
 11
-698.5535225443674
 21
-253.8851722698752
 31
0.0
  0
LINE
  5
A7
330
1F
100
AcDbEntity
  8
0227_下階間仕切
  6
Continuous
 62
     2
370
     5
100
AcDbLine
 10
-693.5532507471872
 20
-251.8849649649206
 30
0.0
 11
-693.5532507471872
 21
-276.384905837113
 31
0.0
  0
LINE
  5
A8
330
1F
100
AcDbEntity
  8
0227_下階間仕切
  6
Continuous
 62
     2
370
     5
100
AcDbLine
 10
-693.5532507471872
 20
-370.8851685743872
 30
0.0
 11
-693.5532507471872
 21
-346.3852277021948
 31
0.0
  0
LINE
  5
A9
330
1F
100
AcDbEntity
  8
0227_下階間仕切
  6
Continuous
 62
     2
370
     5
100
AcDbLine
 10
-718.5536146335436
 20
-363.8851895552222
 30
0.0
 11
-768.5533484988047
 21
-363.8851895552222
 31
0.0
  0
LINE
  5
AA
330
1F
100
AcDbEntity
  8
0227_下階間仕切
  6
Continuous
 62
     2
370
     5
100
AcDbLine
 10
-713.5533437304331
 20
-363.8851895552222
 30
0.0
 11
-713.5533437304331
 21
-253.8851722698752
 31
0.0
  0
LINE
  5
AB
330
1F
100
AcDbEntity
  8
0227_下階間仕切
  6
Continuous
 62
     2
370
     5
100
AcDbLine
 10
-718.5536146335436
 20
-363.8851895552222
 30
0.0
 11
-718.5536146335436
 21
-251.8849649649206
 31
0.0
  0
LINE
  5
AC
330
1F
100
AcDbEntity
  8
0227_下階間仕切
  6
Continuous
 62
     2
370
     5
100
AcDbLine
 10
-788.840814547999
 20
-356.6741337996069
 30
0.0
 11
-768.5533484988047
 21
-363.8851895552222
 31
0.0
  0
LINE
  5
AD
330
1F
100
AcDbEntity
  8
0227_下階間仕切
  6
Continuous
 62
     2
370
     5
100
AcDbLine
 10
-769.9238166384531
 20
-368.5965981703345
 30
0.0
 11
-790.2197036318613
 21
-361.3850465040747
 31
0.0
  0
LINE
  5
AE
330
1F
100
AcDbEntity
  8
0227_下階間仕切
  6
Continuous
 62
     2
370
     5
100
AcDbLine
 10
-715.5530557207895
 20
-248.885396979386
 30
0.0
 11
-696.5533146433664
 21
-248.885396979386
 31
0.0
  0
LINE
  5
AF
330
1F
100
AcDbEntity
  8
0227_下階間仕切
  6
Continuous
 62
     2
370
     5
100
AcDbLine
 10
-843.5534486346079
 20
-368.8849606733862
 30
0.0
 11
-698.5535225443674
 21
-368.8849606733862
 31
0.0
  0
LINE
  5
B0
330
1F
100
AcDbEntity
  8
0227_下階間仕切
  6
Continuous
 62
     2
370
     5
100
AcDbLine
 10
-843.5534486346079
 20
-368.8849606733862
 30
0.0
 11
-843.5534486346079
 21
-361.3850465040747
 31
0.0
  0
LINE
  5
B1
330
1F
100
AcDbEntity
  8
0227_下階間仕切
  6
Continuous
 62
     2
370
     5
100
AcDbLine
 10
-843.5534486346079
 20
-373.885237238938
 30
0.0
 11
-696.5533146433664
 21
-373.885237238938
 31
0.0
  0
LINE
  5
B2
330
1F
100
AcDbEntity
  8
0227_下階間仕切
  6
Continuous
 62
     2
370
     5
100
AcDbLine
 10
-848.5532292895151
 20
-368.8849606733862
 30
0.0
 11
-848.5532292895151
 21
-361.3850465040747
 31
0.0
  0
LINE
  5
B3
330
1F
100
AcDbEntity
  8
0227_下階間仕切
  6
Continuous
 62
     2
370
     5
100
AcDbLine
 10
-806.723271327479
 20
-357.0551457624975
 30
0.0
 11
-818.5535821490122
 21
-363.8851895552222
 31
0.0
  0
LINE
  5
B4
330
1F
100
AcDbEntity
  8
0227_下階間仕切
  6
Continuous
 62
     2
370
     5
100
AcDbLine
 10
-816.0534486346079
 20
-368.2150902967993
 30
0.0
 11
-804.2231378130747
 21
-361.3850465040747
 31
0.0
  0
LINE
  5
B5
330
1F
100
AcDbEntity
  8
0227_下階間仕切
  6
Continuous
 62
     2
370
     5
100
AcDbLine
 10
-821.053219752772
 20
-368.2150902967993
 30
0.0
 11
-832.8835305743052
 21
-361.3850465040747
 31
0.0
  0
LINE
  5
B6
330
1F
100
AcDbEntity
  8
0227_下階間仕切
  6
Continuous
 62
     2
370
     5
100
AcDbLine
 10
-830.3833970599009
 20
-357.0551457624975
 30
0.0
 11
-818.5535821490122
 21
-363.8851895552222
 31
0.0
  0
LINE
  5
B7
330
1F
100
AcDbEntity
  8
0227_下階間仕切
  6
Continuous
 62
     2
370
     5
100
AcDbLine
 10
-790.2197036318613
 20
-361.3850465040747
 30
0.0
 11
-804.2231378130747
 21
-361.3850465040747
 31
0.0
  0
LINE
  5
B8
330
1F
100
AcDbEntity
  8
0227_下階間仕切
  6
Continuous
 62
     2
370
     5
100
AcDbLine
 10
-832.8835305743052
 20
-361.3850465040747
 30
0.0
 11
-843.5534486346079
 21
-361.3850465040747
 31
0.0
  0
LINE
  5
B9
330
1F
100
AcDbEntity
  8
0227_下階間仕切
  6
Continuous
 62
     2
370
     5
100
AcDbLine
 10
-790.5155000262095
 20
-356.3852753859106
 30
0.0
 11
-804.2231378130747
 21
-356.3852753859106
 31
0.0
  0
LINE
  5
BA
330
1F
100
AcDbEntity
  8
0227_下階間仕切
  6
Continuous
 62
     2
370
     5
100
AcDbLine
 10
-832.8835305743052
 20
-356.3852753859106
 30
0.0
 11
-843.5534486346079
 21
-356.3852753859106
 31
0.0
  0
LINE
  5
BB
330
1F
100
AcDbEntity
  8
0234_
  6
Continuous
 62
     4
370
     5
100
AcDbLine
 10
-801.6011199526621
 20
-351.385008357102
 30
0.0
 11
-808.0194196276499
 21
-357.8033032637182
 31
0.0
  0
LINE
  5
BC
330
1F
100
AcDbEntity
  8
0234_
  6
Continuous
 62
     4
370
     5
100
AcDbLine
 10
-808.6724481158091
 20
-351.385008357102
 30
0.0
 11
-820.213900523646
 21
-362.9264512281958
 31
0.0
  0
LINE
  5
BD
330
1F
100
AcDbEntity
  8
0234_
  6
Continuous
 62
     4
370
     5
100
AcDbLine
 10
-815.7437810473276
 20
-351.385008357102
 30
0.0
 11
-824.696904139979
 21
-360.3381219130102
 31
0.0
  0
LINE
  5
BE
330
1F
100
AcDbEntity
  8
0234_
  6
Continuous
 62
     4
370
     5
100
AcDbLine
 10
-822.815104442103
 20
-351.385008357102
 30
0.0
 11
-829.1789063982798
 21
-357.7502885084692
 31
0.0
  0
LINE
  5
BF
330
1F
100
AcDbEntity
  8
0220_
  6
Continuous
 62
     6
370
     5
100
AcDbLine
 10
-448.5528573565317
 20
-446.2256589155737
 30
0.0
 11
-401.2128076128794
 21
-398.8855996351782
 31
0.0
  0
LINE
  5
C0
330
1F
100
AcDbEntity
  8
0220_
  6
Continuous
 62
     6
370
     5
100
AcDbLine
 10
-698.5525307230783
 20
-696.2233319502417
 30
0.0
 11
-501.2132653765512
 21
-498.8855710249487
 31
0.0
  0
LINE
  5
C1
330
1F
100
AcDbEntity
  8
0220_
  6
Continuous
 62
     6
370
     5
100
AcDbLine
 10
-698.5525307230783
 20
-710.364033244187
 30
0.0
 11
-487.0725831560923
 21
-498.8855710249487
 31
0.0
  0
LINE
  5
C2
330
1F
100
AcDbEntity
  8
0220_
  6
Continuous
 62
     6
370
     5
100
AcDbLine
 10
-448.5528573565317
 20
-460.3663411360327
 30
0.0
 11
-387.0721063189341
 21
-398.8855996351782
 31
0.0
  0
LINE
  5
C3
330
1F
100
AcDbEntity
  8
0220_
  6
Continuous
 62
     6
370
     5
100
AcDbLine
 10
-698.5525307230783
 20
-724.5046963911597
 30
0.0
 11
-472.9319009356333
 21
-498.8855710249487
 31
0.0
  0
LINE
  5
C4
330
1F
100
AcDbEntity
  8
0220_
  6
Continuous
 62
     6
370
     5
100
AcDbLine
 10
-448.5528573565317
 20
-474.5070042830054
 30
0.0
 11
-372.9314431719614
 21
-398.8855996351782
 31
0.0
  0
LINE
  5
C5
330
1F
100
AcDbEntity
  8
0220_
  6
Continuous
 62
     6
370
     5
100
AcDbLine
 10
-359.3803796343637
 20
-748.8852277021948
 30
0.0
 11
-283.5513696245981
 21
-673.0572095137182
 31
0.0
  0
LINE
  5
C6
330
1F
100
AcDbEntity
  8
0220_
  6
Continuous
 62
     6
370
     5
100
AcDbLine
 10
-373.5210427813364
 20
-748.8852277021948
 30
0.0
 11
-283.5513696245981
 21
-658.9165463667456
 31
0.0
  0
LINE
  5
C7
330
1F
100
AcDbEntity
  8
0220_
  6
Continuous
 62
     6
370
     5
100
AcDbLine
 10
-345.2396783404184
 20
-748.8852277021948
 30
0.0
 11
-283.5513696245981
 21
-687.1978726606909
 31
0.0
  0
LINE
  5
C8
330
1F
100
AcDbEntity
  8
0226_下階梁情報
  6
Continuous
 62
     7
370
     5
100
AcDbLine
 10
-421.7073640398813
 20
-269.8353030901495
 30
0.0
 11
-421.7073640398813
 21
-268.3350231867377
 31
0.0
  0
LINE
  5
C9
330
1F
100
AcDbEntity
  8
0226_下階梁情報
  6
Continuous
 62
     7
370
     5
100
AcDbLine
 10
-421.7073640398813
 20
-268.3350231867377
 30
0.0
 11
-420.2075776629282
 21
-268.3350231867377
 31
0.0
  0
LINE
  5
CA
330
1F
100
AcDbEntity
  8
0226_下階梁情報
  6
Continuous
 62
     7
370
     5
100
AcDbLine
 10
-420.2075776629282
 20
-268.3350231867377
 30
0.0
 11
-420.2075776629282
 21
-269.8353030901495
 31
0.0
  0
LINE
  5
CB
330
1F
100
AcDbEntity
  8
0226_下階梁情報
  6
Continuous
 62
     7
370
     5
100
AcDbLine
 10
-420.2075776629282
 20
-269.8353030901495
 30
0.0
 11
-421.7073640398813
 21
-269.8353030901495
 31
0.0
  0
LINE
  5
CC
330
1F
100
AcDbEntity
  8
0226_下階梁情報
  6
Continuous
 62
     7
370
     5
100
AcDbLine
 10
-370.9515389971567
 20
-272.5425448637549
 30
0.0
 11
-370.9515389971567
 21
-271.042264960343
 31
0.0
  0
LINE
  5
CD
330
1F
100
AcDbEntity
  8
0226_下階梁情報
  6
Continuous
 62
     7
370
     5
100
AcDbLine
 10
-370.9515389971567
 20
-271.042264960343
 30
0.0
 11
-369.4512567095591
 21
-271.042264960343
 31
0.0
  0
LINE
  5
CE
330
1F
100
AcDbEntity
  8
0226_下階梁情報
  6
Continuous
 62
     7
370
     5
100
AcDbLine
 10
-369.4512567095591
 20
-271.042264960343
 30
0.0
 11
-369.4512567095591
 21
-272.5425448637549
 31
0.0
  0
LINE
  5
CF
330
1F
100
AcDbEntity
  8
0226_下階梁情報
  6
Continuous
 62
     7
370
     5
100
AcDbLine
 10
-369.4512567095591
 20
-272.5425448637549
 30
0.0
 11
-370.9515389971567
 21
-272.5425448637549
 31
0.0
  0
LINE
  5
D0
330
1F
100
AcDbEntity
  8
0226_下階梁情報
  6
Continuous
 62
     7
370
     5
100
AcDbLine
 10
-305.9841928057505
 20
-270.5121138315741
 30
0.0
 11
-305.9841928057505
 21
-269.0118339281622
 31
0.0
  0
LINE
  5
D1
330
1F
100
AcDbEntity
  8
0226_下階梁情報
  6
Continuous
 62
     7
370
     5
100
AcDbLine
 10
-305.9841928057505
 20
-269.0118339281622
 30
0.0
 11
-304.4839105181528
 21
-269.0118339281622
 31
0.0
  0
LINE
  5
D2
330
1F
100
AcDbEntity
  8
0226_下階梁情報
  6
Continuous
 62
     7
370
     5
100
AcDbLine
 10
-304.4839105181528
 20
-269.0118339281622
 30
0.0
 11
-304.4839105181528
 21
-270.5121138315741
 31
0.0
  0
LINE
  5
D3
330
1F
100
AcDbEntity
  8
0226_下階梁情報
  6
Continuous
 62
     7
370
     5
100
AcDbLine
 10
-304.4839105181528
 20
-270.5121138315741
 30
0.0
 11
-305.9841928057505
 21
-270.5121138315741
 31
0.0
  0
LINE
  5
D4
330
1F
100
AcDbEntity
  8
0226_下階梁情報
  6
Continuous
 62
     7
370
     5
100
AcDbLine
 10
-330.3469094805552
 20
-302.9960360746924
 30
0.0
 11
-330.3469094805552
 21
-301.4957585554663
 31
0.0
  0
LINE
  5
D5
330
1F
100
AcDbEntity
  8
0226_下階梁情報
  6
Continuous
 62
     7
370
     5
100
AcDbLine
 10
-330.3469094805552
 20
-301.4957585554663
 30
0.0
 11
-328.8466271929575
 21
-301.4957585554663
 31
0.0
  0
LINE
  5
D6
330
1F
100
AcDbEntity
  8
0226_下階梁情報
  6
Continuous
 62
     7
370
     5
100
AcDbLine
 10
-328.8466271929575
 20
-301.4957585554663
 30
0.0
 11
-328.8466271929575
 21
-302.9960360746924
 31
0.0
  0
LINE
  5
D7
330
1F
100
AcDbEntity
  8
0226_下階梁情報
  6
Continuous
 62
     7
370
     5
100
AcDbLine
 10
-328.8466271929575
 20
-302.9960360746924
 30
0.0
 11
-330.3469094805552
 21
-302.9960360746924
 31
0.0
  0
LINE
  5
D8
330
1F
100
AcDbEntity
  8
0226_下階梁情報
  6
Continuous
 62
     7
370
     5
100
AcDbLine
 10
-380.9119424395395
 20
-306.9270863752905
 30
0.0
 11
-380.9119424395395
 21
-305.4268088560644
 31
0.0
  0
LINE
  5
D9
330
1F
100
AcDbEntity
  8
0226_下階梁情報
  6
Continuous
 62
     7
370
     5
100
AcDbLine
 10
-380.9119424395395
 20
-305.4268088560644
 30
0.0
 11
-379.4121560625864
 21
-305.4268088560644
 31
0.0
  0
LINE
  5
DA
330
1F
100
AcDbEntity
  8
0226_下階梁情報
  6
Continuous
 62
     7
370
     5
100
AcDbLine
 10
-379.4121560625864
 20
-305.4268088560644
 30
0.0
 11
-379.4121560625864
 21
-306.9270863752905
 31
0.0
  0
LINE
  5
DB
330
1F
100
AcDbEntity
  8
0226_下階梁情報
  6
Continuous
 62
     7
370
     5
100
AcDbLine
 10
-379.4121560625864
 20
-306.9270863752905
 30
0.0
 11
-380.9119424395395
 21
-306.9270863752905
 31
0.0
  0
LINE
  5
DC
330
1F
100
AcDbEntity
  8
0226_下階梁情報
  6
Continuous
 62
     7
370
     5
100
AcDbLine
 10
-398.0214700274302
 20
-340.8939519148413
 30
0.0
 11
-398.0214700274302
 21
-339.3936696272436
 31
0.0
  0
LINE
  5
DD
330
1F
100
AcDbEntity
  8
0226_下階梁情報
  6
Continuous
 62
     7
370
     5
100
AcDbLine
 10
-398.0214700274302
 20
-339.3936696272436
 30
0.0
 11
-396.5211877398325
 21
-339.3936696272436
 31
0.0
  0
LINE
  5
DE
330
1F
100
AcDbEntity
  8
0226_下階梁情報
  6
Continuous
 62
     7
370
     5
100
AcDbLine
 10
-396.5211877398325
 20
-339.3936696272436
 30
0.0
 11
-396.5211877398325
 21
-340.8939519148413
 31
0.0
  0
LINE
  5
DF
330
1F
100
AcDbEntity
  8
0226_下階梁情報
  6
Continuous
 62
     7
370
     5
100
AcDbLine
 10
-396.5211877398325
 20
-340.8939519148413
 30
0.0
 11
-398.0214700274302
 21
-340.8939519148413
 31
0.0
  0
LINE
  5
E0
330
1F
100
AcDbEntity
  8
0226_下階梁情報
  6
Continuous
 62
     7
370
     5
100
AcDbLine
 10
-429.3777284197641
 20
-326.3222136717383
 30
0.0
 11
-429.3777284197641
 21
-324.8219313841406
 31
0.0
  0
LINE
  5
E1
330
1F
100
AcDbEntity
  8
0226_下階梁情報
  6
Continuous
 62
     7
370
     5
100
AcDbLine
 10
-429.3777284197641
 20
-324.8219313841406
 30
0.0
 11
-427.877942042811
 21
-324.8219313841406
 31
0.0
  0
LINE
  5
E2
330
1F
100
AcDbEntity
  8
0226_下階梁情報
  6
Continuous
 62
     7
370
     5
100
AcDbLine
 10
-427.877942042811
 20
-324.8219313841406
 30
0.0
 11
-427.877942042811
 21
-326.3222136717383
 31
0.0
  0
LINE
  5
E3
330
1F
100
AcDbEntity
  8
0226_下階梁情報
  6
Continuous
 62
     7
370
     5
100
AcDbLine
 10
-427.877942042811
 20
-326.3222136717383
 30
0.0
 11
-429.3777284197641
 21
-326.3222136717383
 31
0.0
  0
LINE
  5
E4
330
1F
100
AcDbEntity
  8
0226_下階梁情報
  6
Continuous
 62
     7
370
     5
100
AcDbLine
 10
-440.1021394305063
 20
-367.5422444563452
 30
0.0
 11
-440.1021394305063
 21
-366.0419621687475
 31
0.0
  0
LINE
  5
E5
330
1F
100
AcDbEntity
  8
0226_下階梁情報
  6
Continuous
 62
     7
370
     5
100
AcDbLine
 10
-440.1021394305063
 20
-366.0419621687475
 30
0.0
 11
-438.6018571429087
 21
-366.0419621687475
 31
0.0
  0
LINE
  5
E6
330
1F
100
AcDbEntity
  8
0226_下階梁情報
  6
Continuous
 62
     7
370
     5
100
AcDbLine
 10
-438.6018571429087
 20
-366.0419621687475
 30
0.0
 11
-438.6018571429087
 21
-367.5422444563452
 31
0.0
  0
LINE
  5
E7
330
1F
100
AcDbEntity
  8
0226_下階梁情報
  6
Continuous
 62
     7
370
     5
100
AcDbLine
 10
-438.6018571429087
 20
-367.5422444563452
 30
0.0
 11
-440.1021394305063
 21
-367.5422444563452
 31
0.0
  0
LINE
  5
E8
330
1F
100
AcDbEntity
  8
0226_下階梁情報
  6
Continuous
 62
     7
370
     5
100
AcDbLine
 10
-402.7586755328012
 20
-376.0846200209204
 30
0.0
 11
-402.7586755328012
 21
-374.5843377333227
 31
0.0
  0
LINE
  5
E9
330
1F
100
AcDbEntity
  8
0226_下階梁情報
  6
Continuous
 62
     7
370
     5
100
AcDbLine
 10
-402.7586755328012
 20
-374.5843377333227
 30
0.0
 11
-401.2583932452036
 21
-374.5843377333227
 31
0.0
  0
LINE
  5
EA
330
1F
100
AcDbEntity
  8
0226_下階梁情報
  6
Continuous
 62
     7
370
     5
100
AcDbLine
 10
-401.2583932452036
 20
-374.5843377333227
 30
0.0
 11
-401.2583932452036
 21
-376.0846200209204
 31
0.0
  0
LINE
  5
EB
330
1F
100
AcDbEntity
  8
0226_下階梁情報
  6
Continuous
 62
     7
370
     5
100
AcDbLine
 10
-401.2583932452036
 20
-376.0846200209204
 30
0.0
 11
-402.7586755328012
 21
-376.0846200209204
 31
0.0
  0
LINE
  5
EC
330
1F
100
AcDbEntity
  8
0226_下階梁情報
  6
Continuous
 62
     7
370
     5
100
AcDbLine
 10
-350.5535897784067
 20
-380.8094086866919
 30
0.0
 11
-350.5535897784067
 21
-379.3091263990942
 31
0.0
  0
LINE
  5
ED
330
1F
100
AcDbEntity
  8
0226_下階梁情報
  6
Continuous
 62
     7
370
     5
100
AcDbLine
 10
-350.5535897784067
 20
-379.3091263990942
 30
0.0
 11
-349.0538034014536
 21
-379.3091263990942
 31
0.0
  0
LINE
  5
EE
330
1F
100
AcDbEntity
  8
0226_下階梁情報
  6
Continuous
 62
     7
370
     5
100
AcDbLine
 10
-349.0538034014536
 20
-379.3091263990942
 30
0.0
 11
-349.0538034014536
 21
-380.8094086866919
 31
0.0
  0
LINE
  5
EF
330
1F
100
AcDbEntity
  8
0226_下階梁情報
  6
Continuous
 62
     7
370
     5
100
AcDbLine
 10
-349.0538034014536
 20
-380.8094086866919
 30
0.0
 11
-350.5535897784067
 21
-380.8094086866919
 31
0.0
  0
LINE
  5
F0
330
1F
100
AcDbEntity
  8
0226_下階梁情報
  6
Continuous
 62
     7
370
     5
100
AcDbLine
 10
-295.8330163531137
 20
-374.0541901808325
 30
0.0
 11
-295.8330163531137
 21
-372.5539078932349
 31
0.0
  0
LINE
  5
F1
330
1F
100
AcDbEntity
  8
0226_下階梁情報
  6
Continuous
 62
     7
370
     5
100
AcDbLine
 10
-295.8330163531137
 20
-372.5539078932349
 30
0.0
 11
-294.3327722124887
 21
-372.5539078932349
 31
0.0
  0
LINE
  5
F2
330
1F
100
AcDbEntity
  8
0226_下階梁情報
  6
Continuous
 62
     7
370
     5
100
AcDbLine
 10
-294.3327722124887
 20
-372.5539078932349
 30
0.0
 11
-294.3327722124887
 21
-374.0541901808325
 31
0.0
  0
LINE
  5
F3
330
1F
100
AcDbEntity
  8
0226_下階梁情報
  6
Continuous
 62
     7
370
     5
100
AcDbLine
 10
-294.3327722124887
 20
-374.0541901808325
 30
0.0
 11
-295.8330163531137
 21
-374.0541901808325
 31
0.0
  0
LINE
  5
F4
330
1F
100
AcDbEntity
  8
0226_下階梁情報
  6
Continuous
 62
     7
370
     5
100
AcDbLine
 10
-308.0136498980356
 20
-334.1263451796118
 30
0.0
 11
-308.0136498980356
 21
-332.6260628920141
 31
0.0
  0
LINE
  5
F5
330
1F
100
AcDbEntity
  8
0226_下階梁情報
  6
Continuous
 62
     7
370
     5
100
AcDbLine
 10
-308.0136498980356
 20
-332.6260628920141
 30
0.0
 11
-306.513367610438
 21
-332.6260628920141
 31
0.0
  0
LINE
  5
F6
330
1F
100
AcDbEntity
  8
0226_下階梁情報
  6
Continuous
 62
     7
370
     5
100
AcDbLine
 10
-306.513367610438
 20
-332.6260628920141
 30
0.0
 11
-306.513367610438
 21
-334.1263451796118
 31
0.0
  0
LINE
  5
F7
330
1F
100
AcDbEntity
  8
0226_下階梁情報
  6
Continuous
 62
     7
370
     5
100
AcDbLine
 10
-306.513367610438
 20
-334.1263451796118
 30
0.0
 11
-308.0136498980356
 21
-334.1263451796118
 31
0.0
  0
LINE
  5
F8
330
1F
100
AcDbEntity
  8
0226_下階梁情報
  6
Continuous
 62
     7
370
     5
100
AcDbLine
 10
-349.0428933672739
 20
-343.2439580183569
 30
0.0
 11
-349.0428933672739
 21
-341.7436757307593
 31
0.0
  0
LINE
  5
F9
330
1F
100
AcDbEntity
  8
0226_下階梁情報
  6
Continuous
 62
     7
370
     5
100
AcDbLine
 10
-349.0428933672739
 20
-341.7436757307593
 30
0.0
 11
-347.5431451372934
 21
-341.7436757307593
 31
0.0
  0
LINE
  5
FA
330
1F
100
AcDbEntity
  8
0226_下階梁情報
  6
Continuous
 62
     7
370
     5
100
AcDbLine
 10
-347.5431451372934
 20
-341.7436757307593
 30
0.0
 11
-347.5431451372934
 21
-343.2439580183569
 31
0.0
  0
LINE
  5
FB
330
1F
100
AcDbEntity
  8
0226_下階梁情報
  6
Continuous
 62
     7
370
     5
100
AcDbLine
 10
-347.5431451372934
 20
-343.2439580183569
 30
0.0
 11
-349.0428933672739
 21
-343.2439580183569
 31
0.0
  0
LINE
  5
FC
330
1F
100
AcDbEntity
  8
0226_下階梁情報
  6
Continuous
 62
     7
370
     5
100
AcDbLine
 10
-288.5575875811411
 20
-303.7555899839941
 30
0.0
 11
-288.5575875811411
 21
-302.2553124647681
 31
0.0
  0
LINE
  5
FD
330
1F
100
AcDbEntity
  8
0226_下階梁情報
  6
Continuous
 62
     7
370
     5
100
AcDbLine
 10
-288.5575875811411
 20
-302.2553124647681
 30
0.0
 11
-287.0573052935434
 21
-302.2553124647681
 31
0.0
  0
LINE
  5
FE
330
1F
100
AcDbEntity
  8
0226_下階梁情報
  6
Continuous
 62
     7
370
     5
100
AcDbLine
 10
-287.0573052935434
 20
-302.2553124647681
 30
0.0
 11
-287.0573052935434
 21
-303.7555899839941
 31
0.0
  0
LINE
  5
FF
330
1F
100
AcDbEntity
  8
0226_下階梁情報
  6
Continuous
 62
     7
370
     5
100
AcDbLine
 10
-287.0573052935434
 20
-303.7555899839941
 30
0.0
 11
-288.5575875811411
 21
-303.7555899839941
 31
0.0
  0
LINE
  5
100
330
1F
100
AcDbEntity
  8
0226_下階梁情報
  6
Continuous
 62
     7
370
     5
100
AcDbLine
 10
-442.5586709551645
 20
-292.8627124052588
 30
0.0
 11
-442.5586709551645
 21
-291.3624301176611
 31
0.0
  0
LINE
  5
101
330
1F
100
AcDbEntity
  8
0226_下階梁情報
  6
Continuous
 62
     7
370
     5
100
AcDbLine
 10
-442.5586709551645
 20
-291.3624301176611
 30
0.0
 11
-441.0584077410532
 21
-291.3624301176611
 31
0.0
  0
LINE
  5
102
330
1F
100
AcDbEntity
  8
0226_下階梁情報
  6
Continuous
 62
     7
370
     5
100
AcDbLine
 10
-441.0584077410532
 20
-291.3624301176611
 30
0.0
 11
-441.0584077410532
 21
-292.8627124052588
 31
0.0
  0
LINE
  5
103
330
1F
100
AcDbEntity
  8
0226_下階梁情報
  6
Continuous
 62
     7
370
     5
100
AcDbLine
 10
-441.0584077410532
 20
-292.8627124052588
 30
0.0
 11
-442.5586709551645
 21
-292.8627124052588
 31
0.0
  0
LINE
  5
104
330
1F
100
AcDbEntity
  8
0226_下階梁情報
  6
Continuous
 62
     7
370
     5
100
AcDbLine
 10
-525.9084138445688
 20
-416.1130490522925
 30
0.0
 11
-525.9084138445688
 21
-414.6127667646948
 31
0.0
  0
LINE
  5
105
330
1F
100
AcDbEntity
  8
0226_下階梁情報
  6
Continuous
 62
     7
370
     5
100
AcDbLine
 10
-525.9084138445688
 20
-414.6127667646948
 30
0.0
 11
-524.4081315569712
 21
-414.6127667646948
 31
0.0
  0
LINE
  5
106
330
1F
100
AcDbEntity
  8
0226_下階梁情報
  6
Continuous
 62
     7
370
     5
100
AcDbLine
 10
-524.4081315569712
 20
-414.6127667646948
 30
0.0
 11
-524.4081315569712
 21
-416.1130490522925
 31
0.0
  0
LINE
  5
107
330
1F
100
AcDbEntity
  8
0226_下階梁情報
  6
Continuous
 62
     7
370
     5
100
AcDbLine
 10
-524.4081315569712
 20
-416.1130490522925
 30
0.0
 11
-525.9084138445688
 21
-416.1130490522925
 31
0.0
  0
LINE
  5
108
330
1F
100
AcDbEntity
  8
0226_下階梁情報
  6
Continuous
 62
     7
370
     5
100
AcDbLine
 10
-476.5438661150766
 20
-424.01132252031
 30
0.0
 11
-476.5438661150766
 21
-422.5110402327124
 31
0.0
  0
LINE
  5
109
330
1F
100
AcDbEntity
  8
0226_下階梁情報
  6
Continuous
 62
     7
370
     5
100
AcDbLine
 10
-476.5438661150766
 20
-422.5110402327124
 30
0.0
 11
-475.0436029009653
 21
-422.5110402327124
 31
0.0
  0
LINE
  5
10A
330
1F
100
AcDbEntity
  8
0226_下階梁情報
  6
Continuous
 62
     7
370
     5
100
AcDbLine
 10
-475.0436029009653
 20
-422.5110402327124
 30
0.0
 11
-475.0436029009653
 21
-424.01132252031
 31
0.0
  0
LINE
  5
10B
330
1F
100
AcDbEntity
  8
0226_下階梁情報
  6
Continuous
 62
     7
370
     5
100
AcDbLine
 10
-475.0436029009653
 20
-424.01132252031
 30
0.0
 11
-476.5438661150766
 21
-424.01132252031
 31
0.0
  0
LINE
  5
10C
330
1F
100
AcDbEntity
  8
0226_下階梁情報
  6
Continuous
 62
     7
370
     5
100
AcDbLine
 10
-493.424988704188
 20
-444.5920911055151
 30
0.0
 11
-493.424988704188
 21
-443.0918088179175
 31
0.0
  0
LINE
  5
10D
330
1F
100
AcDbEntity
  8
0226_下階梁情報
  6
Continuous
 62
     7
370
     5
100
AcDbLine
 10
-493.424988704188
 20
-443.0918088179175
 30
0.0
 11
-491.9252023272348
 21
-443.0918088179175
 31
0.0
  0
LINE
  5
10E
330
1F
100
AcDbEntity
  8
0226_下階梁情報
  6
Continuous
 62
     7
370
     5
100
AcDbLine
 10
-491.9252023272348
 20
-443.0918088179175
 30
0.0
 11
-491.9252023272348
 21
-444.5920911055151
 31
0.0
  0
LINE
  5
10F
330
1F
100
AcDbEntity
  8
0226_下階梁情報
  6
Continuous
 62
     7
370
     5
100
AcDbLine
 10
-491.9252023272348
 20
-444.5920911055151
 30
0.0
 11
-493.424988704188
 21
-444.5920911055151
 31
0.0
  0
LINE
  5
110
330
1F
100
AcDbEntity
  8
0226_下階梁情報
  6
Continuous
 62
     7
370
     5
100
AcDbLine
 10
-541.704960780604
 20
-479.3001713972632
 30
0.0
 11
-541.704960780604
 21
-477.7999081831518
 31
0.0
  0
LINE
  5
111
330
1F
100
AcDbEntity
  8
0226_下階梁情報
  6
Continuous
 62
     7
370
     5
100
AcDbLine
 10
-541.704960780604
 20
-477.7999081831518
 30
0.0
 11
-540.2051744036509
 21
-477.7999081831518
 31
0.0
  0
LINE
  5
112
330
1F
100
AcDbEntity
  8
0226_下階梁情報
  6
Continuous
 62
     7
370
     5
100
AcDbLine
 10
-540.2051744036509
 20
-477.7999081831518
 30
0.0
 11
-540.2051744036509
 21
-479.3001713972632
 31
0.0
  0
LINE
  5
113
330
1F
100
AcDbEntity
  8
0226_下階梁情報
  6
Continuous
 62
     7
370
     5
100
AcDbLine
 10
-540.2051744036509
 20
-479.3001713972632
 30
0.0
 11
-541.704960780604
 21
-479.3001713972632
 31
0.0
  0
LINE
  5
114
330
1F
100
AcDbEntity
  8
0226_下階梁情報
  6
Continuous
 62
     7
370
     5
100
AcDbLine
 10
-470.6200418047739
 20
-477.3252454023901
 30
0.0
 11
-470.6200418047739
 21
-475.8249631147925
 31
0.0
  0
LINE
  5
115
330
1F
100
AcDbEntity
  8
0226_下階梁情報
  6
Continuous
 62
     7
370
     5
100
AcDbLine
 10
-470.6200418047739
 20
-475.8249631147925
 30
0.0
 11
-469.1197595171762
 21
-475.8249631147925
 31
0.0
  0
LINE
  5
116
330
1F
100
AcDbEntity
  8
0226_下階梁情報
  6
Continuous
 62
     7
370
     5
100
AcDbLine
 10
-469.1197595171762
 20
-475.8249631147925
 30
0.0
 11
-469.1197595171762
 21
-477.3252454023901
 31
0.0
  0
LINE
  5
117
330
1F
100
AcDbEntity
  8
0226_下階梁情報
  6
Continuous
 62
     7
370
     5
100
AcDbLine
 10
-469.1197595171762
 20
-477.3252454023901
 30
0.0
 11
-470.6200418047739
 21
-477.3252454023901
 31
0.0
  0
LINE
  5
118
330
1F
100
AcDbEntity
  8
0226_下階梁情報
  6
Continuous
 62
     7
370
     5
100
AcDbLine
 10
-496.0157975725962
 20
-401.8534531813208
 30
0.0
 11
-496.0157975725962
 21
-400.3531708937231
 31
0.0
  0
LINE
  5
119
330
1F
100
AcDbEntity
  8
0226_下階梁情報
  6
Continuous
 62
     7
370
     5
100
AcDbLine
 10
-496.0157975725962
 20
-400.3531708937231
 30
0.0
 11
-494.5155152849985
 21
-400.3531708937231
 31
0.0
  0
LINE
  5
11A
330
1F
100
AcDbEntity
  8
0226_下階梁情報
  6
Continuous
 62
     7
370
     5
100
AcDbLine
 10
-494.5155152849985
 20
-400.3531708937231
 30
0.0
 11
-494.5155152849985
 21
-401.8534531813208
 31
0.0
  0
LINE
  5
11B
330
1F
100
AcDbEntity
  8
0226_下階梁情報
  6
Continuous
 62
     7
370
     5
100
AcDbLine
 10
-494.5155152849985
 20
-401.8534531813208
 30
0.0
 11
-496.0157975725962
 21
-401.8534531813208
 31
0.0
  0
LINE
  5
11C
330
1F
100
AcDbEntity
  8
0226_下階梁情報
  6
Continuous
 62
     7
370
     5
100
AcDbLine
 10
-680.930190997584
 20
-261.3325634222571
 30
0.0
 11
-680.930190997584
 21
-259.8322841148916
 31
0.0
  0
LINE
  5
11D
330
1F
100
AcDbEntity
  8
0226_下階梁情報
  6
Continuous
 62
     7
370
     5
100
AcDbLine
 10
-680.930190997584
 20
-259.8322841148916
 30
0.0
 11
-679.4299134783579
 21
-259.8322841148916
 31
0.0
  0
LINE
  5
11E
330
1F
100
AcDbEntity
  8
0226_下階梁情報
  6
Continuous
 62
     7
370
     5
100
AcDbLine
 10
-679.4299134783579
 20
-259.8322841148916
 30
0.0
 11
-679.4299134783579
 21
-261.3325634222571
 31
0.0
  0
LINE
  5
11F
330
1F
100
AcDbEntity
  8
0226_下階梁情報
  6
Continuous
 62
     7
370
     5
100
AcDbLine
 10
-679.4299134783579
 20
-261.3325634222571
 30
0.0
 11
-680.930190997584
 21
-261.3325634222571
 31
0.0
  0
LINE
  5
120
330
1F
100
AcDbEntity
  8
0226_下階梁情報
  6
Continuous
 62
     7
370
     5
100
AcDbLine
 10
-652.7380189471079
 20
-270.1841130476538
 30
0.0
 11
-652.7380189471079
 21
-268.6838343363348
 31
0.0
  0
LINE
  5
121
330
1F
100
AcDbEntity
  8
0226_下階梁情報
  6
Continuous
 62
     7
370
     5
100
AcDbLine
 10
-652.7380189471079
 20
-268.6838343363348
 30
0.0
 11
-651.2377414278818
 21
-268.6838343363348
 31
0.0
  0
LINE
  5
122
330
1F
100
AcDbEntity
  8
0226_下階梁情報
  6
Continuous
 62
     7
370
     5
100
AcDbLine
 10
-651.2377414278818
 20
-268.6838343363348
 30
0.0
 11
-651.2377414278818
 21
-270.1841130476538
 31
0.0
  0
LINE
  5
123
330
1F
100
AcDbEntity
  8
0226_下階梁情報
  6
Continuous
 62
     7
370
     5
100
AcDbLine
 10
-651.2377414278818
 20
-270.1841130476538
 30
0.0
 11
-652.7380189471079
 21
-270.1841130476538
 31
0.0
  0
LINE
  5
124
330
1F
100
AcDbEntity
  8
0226_下階梁情報
  6
Continuous
 62
     7
370
     5
100
AcDbLine
 10
-623.3141145281626
 20
-320.2958264570776
 30
0.0
 11
-623.3141145281626
 21
-318.79554416948
 31
0.0
  0
LINE
  5
125
330
1F
100
AcDbEntity
  8
0226_下階梁情報
  6
Continuous
 62
     7
370
     5
100
AcDbLine
 10
-623.3141145281626
 20
-318.79554416948
 30
0.0
 11
-621.8143281512095
 21
-318.79554416948
 31
0.0
  0
LINE
  5
126
330
1F
100
AcDbEntity
  8
0226_下階梁情報
  6
Continuous
 62
     7
370
     5
100
AcDbLine
 10
-621.8143281512095
 20
-318.79554416948
 30
0.0
 11
-621.8143281512095
 21
-320.2958264570776
 31
0.0
  0
LINE
  5
127
330
1F
100
AcDbEntity
  8
0226_下階梁情報
  6
Continuous
 62
     7
370
     5
100
AcDbLine
 10
-621.8143281512095
 20
-320.2958264570776
 30
0.0
 11
-623.3141145281626
 21
-320.2958264570776
 31
0.0
  0
LINE
  5
128
330
1F
100
AcDbEntity
  8
0226_下階梁情報
  6
Continuous
 62
     7
370
     5
100
AcDbLine
 10
-564.922619777186
 20
-267.3401227217261
 30
0.0
 11
-564.922619777186
 21
-265.8398428183142
 31
0.0
  0
LINE
  5
129
330
1F
100
AcDbEntity
  8
0226_下階梁情報
  6
Continuous
 62
     7
370
     5
100
AcDbLine
 10
-564.922619777186
 20
-265.8398428183142
 30
0.0
 11
-563.4228334002329
 21
-265.8398428183142
 31
0.0
  0
LINE
  5
12A
330
1F
100
AcDbEntity
  8
0226_下階梁情報
  6
Continuous
 62
     7
370
     5
100
AcDbLine
 10
-563.4228334002329
 20
-265.8398428183142
 30
0.0
 11
-563.4228334002329
 21
-267.3401227217261
 31
0.0
  0
LINE
  5
12B
330
1F
100
AcDbEntity
  8
0226_下階梁情報
  6
Continuous
 62
     7
370
     5
100
AcDbLine
 10
-563.4228334002329
 20
-267.3401227217261
 30
0.0
 11
-564.922619777186
 21
-267.3401227217261
 31
0.0
  0
LINE
  5
12C
330
1F
100
AcDbEntity
  8
0226_下階梁情報
  6
Continuous
 62
     7
370
     5
100
AcDbLine
 10
-529.9915704302622
 20
-261.9414952021185
 30
0.0
 11
-529.9915704302622
 21
-260.4412152987067
 31
0.0
  0
LINE
  5
12D
330
1F
100
AcDbEntity
  8
0226_下階梁情報
  6
Continuous
 62
     7
370
     5
100
AcDbLine
 10
-529.9915704302622
 20
-260.4412152987067
 30
0.0
 11
-528.4917840533091
 21
-260.4412152987067
 31
0.0
  0
LINE
  5
12E
330
1F
100
AcDbEntity
  8
0226_下階梁情報
  6
Continuous
 62
     7
370
     5
100
AcDbLine
 10
-528.4917840533091
 20
-260.4412152987067
 30
0.0
 11
-528.4917840533091
 21
-261.9414952021185
 31
0.0
  0
LINE
  5
12F
330
1F
100
AcDbEntity
  8
0226_下階梁情報
  6
Continuous
 62
     7
370
     5
100
AcDbLine
 10
-528.4917840533091
 20
-261.9414952021185
 30
0.0
 11
-529.9915704302622
 21
-261.9414952021185
 31
0.0
  0
LINE
  5
130
330
1F
100
AcDbEntity
  8
0226_下階梁情報
  6
Continuous
 62
     7
370
     5
100
AcDbLine
 10
-533.8210496477915
 20
-286.6733136396948
 30
0.0
 11
-533.8210496477915
 21
-285.1730337362829
 31
0.0
  0
LINE
  5
131
330
1F
100
AcDbEntity
  8
0226_下階梁情報
  6
Continuous
 62
     7
370
     5
100
AcDbLine
 10
-533.8210496477915
 20
-285.1730337362829
 30
0.0
 11
-532.3207673601938
 21
-285.1730337362829
 31
0.0
  0
LINE
  5
132
330
1F
100
AcDbEntity
  8
0226_下階梁情報
  6
Continuous
 62
     7
370
     5
100
AcDbLine
 10
-532.3207673601938
 20
-285.1730337362829
 30
0.0
 11
-532.3207673601938
 21
-286.6733136396948
 31
0.0
  0
LINE
  5
133
330
1F
100
AcDbEntity
  8
0226_下階梁情報
  6
Continuous
 62
     7
370
     5
100
AcDbLine
 10
-532.3207673601938
 20
-286.6733136396948
 30
0.0
 11
-533.8210496477915
 21
-286.6733136396948
 31
0.0
  0
LINE
  5
134
330
1F
100
AcDbEntity
  8
0226_下階梁情報
  6
Continuous
 62
     7
370
     5
100
AcDbLine
 10
-525.2474603228403
 20
-319.6423020582739
 30
0.0
 11
-525.2474603228403
 21
-318.1420245390478
 31
0.0
  0
LINE
  5
135
330
1F
100
AcDbEntity
  8
0226_下階梁情報
  6
Continuous
 62
     7
370
     5
100
AcDbLine
 10
-525.2474603228403
 20
-318.1420245390478
 30
0.0
 11
-523.7471780352427
 21
-318.1420245390478
 31
0.0
  0
LINE
  5
136
330
1F
100
AcDbEntity
  8
0226_下階梁情報
  6
Continuous
 62
     7
370
     5
100
AcDbLine
 10
-523.7471780352427
 20
-318.1420245390478
 30
0.0
 11
-523.7471780352427
 21
-319.6423020582739
 31
0.0
  0
LINE
  5
137
330
1F
100
AcDbEntity
  8
0226_下階梁情報
  6
Continuous
 62
     7
370
     5
100
AcDbLine
 10
-523.7471780352427
 20
-319.6423020582739
 30
0.0
 11
-525.2474603228403
 21
-319.6423020582739
 31
0.0
  0
LINE
  5
138
330
1F
100
AcDbEntity
  8
0226_下階梁情報
  6
Continuous
 62
     7
370
     5
100
AcDbLine
 10
-521.3243493609262
 20
-358.2150426130835
 30
0.0
 11
-521.3243493609262
 21
-356.7147603254858
 31
0.0
  0
LINE
  5
139
330
1F
100
AcDbEntity
  8
0226_下階梁情報
  6
Continuous
 62
     7
370
     5
100
AcDbLine
 10
-521.3243493609262
 20
-356.7147603254858
 30
0.0
 11
-519.8245629839731
 21
-356.7147603254858
 31
0.0
  0
LINE
  5
13A
330
1F
100
AcDbEntity
  8
0226_下階梁情報
  6
Continuous
 62
     7
370
     5
100
AcDbLine
 10
-519.8245629839731
 20
-356.7147603254858
 30
0.0
 11
-519.8245629839731
 21
-358.2150426130835
 31
0.0
  0
LINE
  5
13B
330
1F
100
AcDbEntity
  8
0226_下階梁情報
  6
Continuous
 62
     7
370
     5
100
AcDbLine
 10
-519.8245629839731
 20
-358.2150426130835
 30
0.0
 11
-521.3243493609262
 21
-358.2150426130835
 31
0.0
  0
LINE
  5
13C
330
1F
100
AcDbEntity
  8
0226_下階梁情報
  6
Continuous
 62
     7
370
     5
100
AcDbLine
 10
-588.785391765101
 20
-282.4727287512366
 30
0.0
 11
-588.785391765101
 21
-280.9724512320105
 31
0.0
  0
LINE
  5
13D
330
1F
100
AcDbEntity
  8
0226_下階梁情報
  6
Continuous
 62
     7
370
     5
100
AcDbLine
 10
-588.785391765101
 20
-280.9724512320105
 30
0.0
 11
-587.2851094775034
 21
-280.9724512320105
 31
0.0
  0
LINE
  5
13E
330
1F
100
AcDbEntity
  8
0226_下階梁情報
  6
Continuous
 62
     7
370
     5
100
AcDbLine
 10
-587.2851094775034
 20
-280.9724512320105
 30
0.0
 11
-587.2851094775034
 21
-282.4727287512366
 31
0.0
  0
LINE
  5
13F
330
1F
100
AcDbEntity
  8
0226_下階梁情報
  6
Continuous
 62
     7
370
     5
100
AcDbLine
 10
-587.2851094775034
 20
-282.4727287512366
 30
0.0
 11
-588.785391765101
 21
-282.4727287512366
 31
0.0
  0
LINE
  5
140
330
1F
100
AcDbEntity
  8
0226_下階梁情報
  6
Continuous
 62
     7
370
     5
100
AcDbLine
 10
-826.0465535693003
 20
-398.3415665846411
 30
0.0
 11
-826.0465535693003
 21
-396.8412938337866
 31
0.0
  0
LINE
  5
141
330
1F
100
AcDbEntity
  8
0226_下階梁情報
  6
Continuous
 62
     7
370
     5
100
AcDbLine
 10
-826.0465535693003
 20
-396.8412938337866
 30
0.0
 11
-824.5462808184458
 21
-396.8412938337866
 31
0.0
  0
LINE
  5
142
330
1F
100
AcDbEntity
  8
0226_下階梁情報
  6
Continuous
 62
     7
370
     5
100
AcDbLine
 10
-824.5462808184458
 20
-396.8412938337866
 30
0.0
 11
-824.5462808184458
 21
-398.3415665846411
 31
0.0
  0
LINE
  5
143
330
1F
100
AcDbEntity
  8
0226_下階梁情報
  6
Continuous
 62
     7
370
     5
100
AcDbLine
 10
-824.5462808184458
 20
-398.3415665846411
 30
0.0
 11
-826.0465535693003
 21
-398.3415665846411
 31
0.0
  0
LINE
  5
144
330
1F
100
AcDbEntity
  8
0226_下階梁情報
  6
Continuous
 62
     7
370
     5
100
AcDbLine
 10
-766.8083104662729
 20
-502.9949727278296
 30
0.0
 11
-766.8083104662729
 21
-501.4947095137182
 31
0.0
  0
LINE
  5
145
330
1F
100
AcDbEntity
  8
0226_下階梁情報
  6
Continuous
 62
     7
370
     5
100
AcDbLine
 10
-766.8083104662729
 20
-501.4947095137182
 30
0.0
 11
-765.3085240893198
 21
-501.4947095137182
 31
0.0
  0
LINE
  5
146
330
1F
100
AcDbEntity
  8
0226_下階梁情報
  6
Continuous
 62
     7
370
     5
100
AcDbLine
 10
-765.3085240893198
 20
-501.4947095137182
 30
0.0
 11
-765.3085240893198
 21
-502.9949727278296
 31
0.0
  0
LINE
  5
147
330
1F
100
AcDbEntity
  8
0226_下階梁情報
  6
Continuous
 62
     7
370
     5
100
AcDbLine
 10
-765.3085240893198
 20
-502.9949727278296
 30
0.0
 11
-766.8083104662729
 21
-502.9949727278296
 31
0.0
  0
LINE
  5
148
330
1F
100
AcDbEntity
  8
0226_下階梁情報
  6
Continuous
 62
     7
370
     5
100
AcDbLine
 10
-780.6308993868662
 20
-562.2327389936987
 30
0.0
 11
-780.6308993868662
 21
-560.7324567061011
 31
0.0
  0
LINE
  5
149
330
1F
100
AcDbEntity
  8
0226_下階梁情報
  6
Continuous
 62
     7
370
     5
100
AcDbLine
 10
-780.6308993868662
 20
-560.7324567061011
 30
0.0
 11
-779.1306170992685
 21
-560.7324567061011
 31
0.0
  0
LINE
  5
14A
330
1F
100
AcDbEntity
  8
0226_下階梁情報
  6
Continuous
 62
     7
370
     5
100
AcDbLine
 10
-779.1306170992685
 20
-560.7324567061011
 30
0.0
 11
-779.1306170992685
 21
-562.2327389936987
 31
0.0
  0
LINE
  5
14B
330
1F
100
AcDbEntity
  8
0226_下階梁情報
  6
Continuous
 62
     7
370
     5
100
AcDbLine
 10
-779.1306170992685
 20
-562.2327389936987
 30
0.0
 11
-780.6308993868662
 21
-562.2327389936987
 31
0.0
  0
LINE
  5
14C
330
1F
100
AcDbEntity
  8
0226_下階梁情報
  6
Continuous
 62
     7
370
     5
100
AcDbLine
 10
-811.2369927935434
 20
-573.0929150801245
 30
0.0
 11
-811.2369927935434
 21
-571.5926327925268
 31
0.0
  0
LINE
  5
14D
330
1F
100
AcDbEntity
  8
0226_下階梁情報
  6
Continuous
 62
     7
370
     5
100
AcDbLine
 10
-811.2369927935434
 20
-571.5926327925268
 30
0.0
 11
-809.736720042689
 21
-571.5926327925268
 31
0.0
  0
LINE
  5
14E
330
1F
100
AcDbEntity
  8
0226_下階梁情報
  6
Continuous
 62
     7
370
     5
100
AcDbLine
 10
-809.736720042689
 20
-571.5926327925268
 30
0.0
 11
-809.736720042689
 21
-573.0929150801245
 31
0.0
  0
LINE
  5
14F
330
1F
100
AcDbEntity
  8
0226_下階梁情報
  6
Continuous
 62
     7
370
     5
100
AcDbLine
 10
-809.736720042689
 20
-573.0929150801245
 30
0.0
 11
-811.2369927935434
 21
-573.0929150801245
 31
0.0
  0
LINE
  5
150
330
1F
100
AcDbEntity
  8
0226_下階梁情報
  6
Continuous
 62
     7
370
     5
100
AcDbLine
 10
-834.0904912524057
 20
-506.9443669539038
 30
0.0
 11
-834.0904912524057
 21
-505.4440846663061
 31
0.0
  0
LINE
  5
151
330
1F
100
AcDbEntity
  8
0226_下階梁情報
  6
Continuous
 62
     7
370
     5
100
AcDbLine
 10
-834.0904912524057
 20
-505.4440846663061
 30
0.0
 11
-832.5907048754526
 21
-505.4440846663061
 31
0.0
  0
LINE
  5
152
330
1F
100
AcDbEntity
  8
0226_下階梁情報
  6
Continuous
 62
     7
370
     5
100
AcDbLine
 10
-832.5907048754526
 20
-505.4440846663061
 30
0.0
 11
-832.5907048754526
 21
-506.9443669539038
 31
0.0
  0
LINE
  5
153
330
1F
100
AcDbEntity
  8
0226_下階梁情報
  6
Continuous
 62
     7
370
     5
100
AcDbLine
 10
-832.5907048754526
 20
-506.9443669539038
 30
0.0
 11
-834.0904912524057
 21
-506.9443669539038
 31
0.0
  0
LINE
  5
154
330
1F
100
AcDbEntity
  8
0226_下階梁情報
  6
Continuous
 62
     7
370
     5
100
AcDbLine
 10
-808.2750806383921
 20
-485.2239957075659
 30
0.0
 11
-808.2750806383921
 21
-483.7237324934546
 31
0.0
  0
LINE
  5
155
330
1F
100
AcDbEntity
  8
0226_下階梁情報
  6
Continuous
 62
     7
370
     5
100
AcDbLine
 10
-808.2750806383921
 20
-483.7237324934546
 30
0.0
 11
-806.7747983507944
 21
-483.7237324934546
 31
0.0
  0
LINE
  5
156
330
1F
100
AcDbEntity
  8
0226_下階梁情報
  6
Continuous
 62
     7
370
     5
100
AcDbLine
 10
-806.7747983507944
 20
-483.7237324934546
 30
0.0
 11
-806.7747983507944
 21
-485.2239957075659
 31
0.0
  0
LINE
  5
157
330
1F
100
AcDbEntity
  8
0226_下階梁情報
  6
Continuous
 62
     7
370
     5
100
AcDbLine
 10
-806.7747983507944
 20
-485.2239957075659
 30
0.0
 11
-808.2750806383921
 21
-485.2239957075659
 31
0.0
  0
LINE
  5
158
330
1F
100
AcDbEntity
  8
0226_下階梁情報
  6
Continuous
 62
     7
370
     5
100
AcDbLine
 10
-745.0879487566782
 20
-537.7169385176245
 30
0.0
 11
-745.0879487566782
 21
-536.2166562300268
 31
0.0
  0
LINE
  5
159
330
1F
100
AcDbEntity
  8
0226_下階梁情報
  6
Continuous
 62
     7
370
     5
100
AcDbLine
 10
-745.0879487566782
 20
-536.2166562300268
 30
0.0
 11
-743.5881647639109
 21
-536.2166562300268
 31
0.0
  0
LINE
  5
15A
330
1F
100
AcDbEntity
  8
0226_下階梁情報
  6
Continuous
 62
     7
370
     5
100
AcDbLine
 10
-743.5881647639109
 20
-536.2166562300268
 30
0.0
 11
-743.5881647639109
 21
-537.7169385176245
 31
0.0
  0
LINE
  5
15B
330
1F
100
AcDbEntity
  8
0226_下階梁情報
  6
Continuous
 62
     7
370
     5
100
AcDbLine
 10
-743.5881647639109
 20
-537.7169385176245
 30
0.0
 11
-745.0879487566782
 21
-537.7169385176245
 31
0.0
  0
LINE
  5
15C
330
1F
100
AcDbEntity
  8
0226_下階梁情報
  6
Continuous
 62
     7
370
     5
100
AcDbLine
 10
-822.0971784167124
 20
-675.5960049849097
 30
0.0
 11
-822.0971784167124
 21
-674.095722697312
 31
0.0
  0
LINE
  5
15D
330
1F
100
AcDbEntity
  8
0226_下階梁情報
  6
Continuous
 62
     7
370
     5
100
AcDbLine
 10
-822.0971784167124
 20
-674.095722697312
 30
0.0
 11
-820.5973920397593
 21
-674.095722697312
 31
0.0
  0
LINE
  5
15E
330
1F
100
AcDbEntity
  8
0226_下階梁情報
  6
Continuous
 62
     7
370
     5
100
AcDbLine
 10
-820.5973920397593
 20
-674.095722697312
 30
0.0
 11
-820.5973920397593
 21
-675.5960049849097
 31
0.0
  0
LINE
  5
15F
330
1F
100
AcDbEntity
  8
0226_下階梁情報
  6
Continuous
 62
     7
370
     5
100
AcDbLine
 10
-820.5973920397593
 20
-675.5960049849097
 30
0.0
 11
-822.0971784167124
 21
-675.5960049849097
 31
0.0
  0
LINE
  5
160
330
1F
100
AcDbEntity
  8
0226_下階梁情報
  6
Continuous
 62
     7
370
     5
100
AcDbLine
 10
-751.7069158129526
 20
-679.3080487471167
 30
0.0
 11
-751.7069158129526
 21
-677.807766459519
 31
0.0
  0
LINE
  5
161
330
1F
100
AcDbEntity
  8
0226_下階梁情報
  6
Continuous
 62
     7
370
     5
100
AcDbLine
 10
-751.7069158129526
 20
-677.807766459519
 30
0.0
 11
-750.2071318201853
 21
-677.807766459519
 31
0.0
  0
LINE
  5
162
330
1F
100
AcDbEntity
  8
0226_下階梁情報
  6
Continuous
 62
     7
370
     5
100
AcDbLine
 10
-750.2071318201853
 20
-677.807766459519
 30
0.0
 11
-750.2071318201853
 21
-679.3080487471167
 31
0.0
  0
LINE
  5
163
330
1F
100
AcDbEntity
  8
0226_下階梁情報
  6
Continuous
 62
     7
370
     5
100
AcDbLine
 10
-750.2071318201853
 20
-679.3080487471167
 30
0.0
 11
-751.7069158129526
 21
-679.3080487471167
 31
0.0
  0
LINE
  5
164
330
1F
100
AcDbEntity
  8
0226_下階梁情報
  6
Continuous
 62
     7
370
     5
100
AcDbLine
 10
-727.3164755277468
 20
-705.2146115522925
 30
0.0
 11
-727.3164755277468
 21
-703.7143292646948
 31
0.0
  0
LINE
  5
165
330
1F
100
AcDbEntity
  8
0226_下階梁情報
  6
Continuous
 62
     7
370
     5
100
AcDbLine
 10
-727.3164755277468
 20
-703.7143292646948
 30
0.0
 11
-725.8166913859678
 21
-703.7143292646948
 31
0.0
  0
LINE
  5
166
330
1F
100
AcDbEntity
  8
0226_下階梁情報
  6
Continuous
 62
     7
370
     5
100
AcDbLine
 10
-725.8166913859678
 20
-703.7143292646948
 30
0.0
 11
-725.8166913859678
 21
-705.2146115522925
 31
0.0
  0
LINE
  5
167
330
1F
100
AcDbEntity
  8
0226_下階梁情報
  6
Continuous
 62
     7
370
     5
100
AcDbLine
 10
-725.8166913859678
 20
-705.2146115522925
 30
0.0
 11
-727.3164755277468
 21
-705.2146115522925
 31
0.0
  0
LINE
  5
168
330
1F
100
AcDbEntity
  8
0226_下階梁情報
  6
Continuous
 62
     7
370
     5
100
AcDbLine
 10
-721.037895100577
 20
-743.426662943894
 30
0.0
 11
-721.037895100577
 21
-741.9263806562964
 31
0.0
  0
LINE
  5
169
330
1F
100
AcDbEntity
  8
0226_下階梁情報
  6
Continuous
 62
     7
370
     5
100
AcDbLine
 10
-721.037895100577
 20
-741.9263806562964
 30
0.0
 11
-719.5376157932116
 21
-741.9263806562964
 31
0.0
  0
LINE
  5
16A
330
1F
100
AcDbEntity
  8
0226_下階梁情報
  6
Continuous
 62
     7
370
     5
100
AcDbLine
 10
-719.5376157932116
 20
-741.9263806562964
 30
0.0
 11
-719.5376157932116
 21
-743.426662943894
 31
0.0
  0
LINE
  5
16B
330
1F
100
AcDbEntity
  8
0226_下階梁情報
  6
Continuous
 62
     7
370
     5
100
AcDbLine
 10
-719.5376157932116
 20
-743.426662943894
 30
0.0
 11
-721.037895100577
 21
-743.426662943894
 31
0.0
  0
LINE
  5
16C
330
1F
100
AcDbEntity
  8
0226_下階梁情報
  6
Continuous
 62
     7
370
     5
100
AcDbLine
 10
-795.2665481142832
 20
-748.8852277021948
 30
0.0
 11
-795.2665481142832
 21
-747.3849454145972
 31
0.0
  0
LINE
  5
16D
330
1F
100
AcDbEntity
  8
0226_下階梁情報
  6
Continuous
 62
     7
370
     5
100
AcDbLine
 10
-795.2665481142832
 20
-747.3849454145972
 30
0.0
 11
-793.7662705950571
 21
-747.3849454145972
 31
0.0
  0
LINE
  5
16E
330
1F
100
AcDbEntity
  8
0226_下階梁情報
  6
Continuous
 62
     7
370
     5
100
AcDbLine
 10
-793.7662705950571
 20
-747.3849454145972
 30
0.0
 11
-793.7662705950571
 21
-748.8852277021948
 31
0.0
  0
LINE
  5
16F
330
1F
100
AcDbEntity
  8
0226_下階梁情報
  6
Continuous
 62
     7
370
     5
100
AcDbLine
 10
-793.7662705950571
 20
-748.8852277021948
 30
0.0
 11
-795.2665481142832
 21
-748.8852277021948
 31
0.0
  0
LINE
  5
170
330
1F
100
AcDbEntity
  8
0226_下階梁情報
  6
Continuous
 62
     7
370
     5
100
AcDbLine
 10
-829.9954423479868
 20
-739.588772318894
 30
0.0
 11
-829.9954423479868
 21
-738.0884900312964
 31
0.0
  0
LINE
  5
171
330
1F
100
AcDbEntity
  8
0226_下階梁情報
  6
Continuous
 62
     7
370
     5
100
AcDbLine
 10
-829.9954423479868
 20
-738.0884900312964
 30
0.0
 11
-828.4951600603891
 21
-738.0884900312964
 31
0.0
  0
LINE
  5
172
330
1F
100
AcDbEntity
  8
0226_下階梁情報
  6
Continuous
 62
     7
370
     5
100
AcDbLine
 10
-828.4951600603891
 20
-738.0884900312964
 30
0.0
 11
-828.4951600603891
 21
-739.588772318894
 31
0.0
  0
LINE
  5
173
330
1F
100
AcDbEntity
  8
0226_下階梁情報
  6
Continuous
 62
     7
370
     5
100
AcDbLine
 10
-828.4951600603891
 20
-739.588772318894
 30
0.0
 11
-829.9954423479868
 21
-739.588772318894
 31
0.0
  0
LINE
  5
174
330
1F
100
AcDbEntity
  8
0226_下階梁情報
  6
Continuous
 62
     7
370
     5
100
AcDbLine
 10
-832.2067174486948
 20
-699.2908063154761
 30
0.0
 11
-832.2067174486948
 21
-697.7905240278784
 31
0.0
  0
LINE
  5
175
330
1F
100
AcDbEntity
  8
0226_下階梁情報
  6
Continuous
 62
     7
370
     5
100
AcDbLine
 10
-832.2067174486948
 20
-697.7905240278784
 30
0.0
 11
-830.7069310717417
 21
-697.7905240278784
 31
0.0
  0
LINE
  5
176
330
1F
100
AcDbEntity
  8
0226_下階梁情報
  6
Continuous
 62
     7
370
     5
100
AcDbLine
 10
-830.7069310717417
 20
-697.7905240278784
 30
0.0
 11
-830.7069310717417
 21
-699.2908063154761
 31
0.0
  0
LINE
  5
177
330
1F
100
AcDbEntity
  8
0226_下階梁情報
  6
Continuous
 62
     7
370
     5
100
AcDbLine
 10
-830.7069310717417
 20
-699.2908063154761
 30
0.0
 11
-832.2067174486948
 21
-699.2908063154761
 31
0.0
  0
LINE
  5
178
330
1F
100
AcDbEntity
  8
0226_下階梁情報
  6
Continuous
 62
     7
370
     5
100
AcDbLine
 10
-774.7070750765635
 20
-719.0367093306128
 30
0.0
 11
-774.7070750765635
 21
-717.5364270430151
 31
0.0
  0
LINE
  5
179
330
1F
100
AcDbEntity
  8
0226_下階梁情報
  6
Continuous
 62
     7
370
     5
100
AcDbLine
 10
-774.7070750765635
 20
-717.5364270430151
 30
0.0
 11
-773.2067927889658
 21
-717.5364270430151
 31
0.0
  0
LINE
  5
17A
330
1F
100
AcDbEntity
  8
0226_下階梁情報
  6
Continuous
 62
     7
370
     5
100
AcDbLine
 10
-773.2067927889658
 20
-717.5364270430151
 30
0.0
 11
-773.2067927889658
 21
-719.0367093306128
 31
0.0
  0
LINE
  5
17B
330
1F
100
AcDbEntity
  8
0226_下階梁情報
  6
Continuous
 62
     7
370
     5
100
AcDbLine
 10
-773.2067927889658
 20
-719.0367093306128
 30
0.0
 11
-774.7070750765635
 21
-719.0367093306128
 31
0.0
  0
LINE
  5
17C
330
1F
100
AcDbEntity
  8
0226_下階梁情報
  6
Continuous
 62
     7
370
     5
100
AcDbLine
 10
-786.5547236971689
 20
-685.4687085371557
 30
0.0
 11
-786.5547236971689
 21
-683.9684262495581
 31
0.0
  0
LINE
  5
17D
330
1F
100
AcDbEntity
  8
0226_下階梁情報
  6
Continuous
 62
     7
370
     5
100
AcDbLine
 10
-786.5547236971689
 20
-683.9684262495581
 30
0.0
 11
-785.0544414095713
 21
-683.9684262495581
 31
0.0
  0
LINE
  5
17E
330
1F
100
AcDbEntity
  8
0226_下階梁情報
  6
Continuous
 62
     7
370
     5
100
AcDbLine
 10
-785.0544414095713
 20
-683.9684262495581
 30
0.0
 11
-785.0544414095713
 21
-685.4687085371557
 31
0.0
  0
LINE
  5
17F
330
1F
100
AcDbEntity
  8
0226_下階梁情報
  6
Continuous
 62
     7
370
     5
100
AcDbLine
 10
-785.0544414095713
 20
-685.4687085371557
 30
0.0
 11
-786.5547236971689
 21
-685.4687085371557
 31
0.0
  0
LINE
  5
180
330
1F
100
AcDbEntity
  8
0226_下階梁情報
  6
Continuous
 62
     7
370
     5
100
AcDbLine
 10
-731.2658569388224
 20
-571.2849393110815
 30
0.0
 11
-731.2658569388224
 21
-569.7846760969702
 31
0.0
  0
LINE
  5
181
330
1F
100
AcDbEntity
  8
0226_下階梁情報
  6
Continuous
 62
     7
370
     5
100
AcDbLine
 10
-731.2658569388224
 20
-569.7846760969702
 30
0.0
 11
-729.766072946055
 21
-569.7846760969702
 31
0.0
  0
LINE
  5
182
330
1F
100
AcDbEntity
  8
0226_下階梁情報
  6
Continuous
 62
     7
370
     5
100
AcDbLine
 10
-729.766072946055
 20
-569.7846760969702
 30
0.0
 11
-729.766072946055
 21
-571.2849393110815
 31
0.0
  0
LINE
  5
183
330
1F
100
AcDbEntity
  8
0226_下階梁情報
  6
Continuous
 62
     7
370
     5
100
AcDbLine
 10
-729.766072946055
 20
-571.2849393110815
 30
0.0
 11
-731.2658569388224
 21
-571.2849393110815
 31
0.0
  0
LINE
  5
184
330
1F
100
AcDbEntity
  8
0226_下階梁情報
  6
Continuous
 62
     7
370
     5
100
AcDbLine
 10
-623.3076676897837
 20
-482.6257672529761
 30
0.0
 11
-623.3076676897837
 21
-481.1254849653784
 31
0.0
  0
LINE
  5
185
330
1F
100
AcDbEntity
  8
0226_下階梁情報
  6
Continuous
 62
     7
370
     5
100
AcDbLine
 10
-623.3076676897837
 20
-481.1254849653784
 30
0.0
 11
-621.8078813128305
 21
-481.1254849653784
 31
0.0
  0
LINE
  5
186
330
1F
100
AcDbEntity
  8
0226_下階梁情報
  6
Continuous
 62
     7
370
     5
100
AcDbLine
 10
-621.8078813128305
 20
-481.1254849653784
 30
0.0
 11
-621.8078813128305
 21
-482.6257672529761
 31
0.0
  0
LINE
  5
187
330
1F
100
AcDbEntity
  8
0226_下階梁情報
  6
Continuous
 62
     7
370
     5
100
AcDbLine
 10
-621.8078813128305
 20
-482.6257672529761
 30
0.0
 11
-623.3076676897837
 21
-482.6257672529761
 31
0.0
  0
LINE
  5
188
330
1F
100
AcDbEntity
  8
0226_下階梁情報
  6
Continuous
 62
     7
370
     5
100
AcDbLine
 10
-812.2239694170786
 20
-534.5885434370581
 30
0.0
 11
-812.2239694170786
 21
-533.0882611494604
 31
0.0
  0
LINE
  5
189
330
1F
100
AcDbEntity
  8
0226_下階梁情報
  6
Continuous
 62
     7
370
     5
100
AcDbLine
 10
-812.2239694170786
 20
-533.0882611494604
 30
0.0
 11
-810.7241830401255
 21
-533.0882611494604
 31
0.0
  0
LINE
  5
18A
330
1F
100
AcDbEntity
  8
0226_下階梁情報
  6
Continuous
 62
     7
370
     5
100
AcDbLine
 10
-810.7241830401255
 20
-533.0882611494604
 30
0.0
 11
-810.7241830401255
 21
-534.5885434370581
 31
0.0
  0
LINE
  5
18B
330
1F
100
AcDbEntity
  8
0226_下階梁情報
  6
Continuous
 62
     7
370
     5
100
AcDbLine
 10
-810.7241830401255
 20
-534.5885434370581
 30
0.0
 11
-812.2239694170786
 21
-534.5885434370581
 31
0.0
  0
LINE
  5
18C
330
1F
100
AcDbEntity
  8
0226_下階梁情報
  6
Continuous
 62
     7
370
     5
100
AcDbLine
 10
-833.9448270373179
 20
-455.6048741560522
 30
0.0
 11
-833.9448270373179
 21
-454.1045918684546
 31
0.0
  0
LINE
  5
18D
330
1F
100
AcDbEntity
  8
0226_下階梁情報
  6
Continuous
 62
     7
370
     5
100
AcDbLine
 10
-833.9448270373179
 20
-454.1045918684546
 30
0.0
 11
-832.4445447497202
 21
-454.1045918684546
 31
0.0
  0
LINE
  5
18E
330
1F
100
AcDbEntity
  8
0226_下階梁情報
  6
Continuous
 62
     7
370
     5
100
AcDbLine
 10
-832.4445447497202
 20
-454.1045918684546
 30
0.0
 11
-832.4445447497202
 21
-455.6048741560522
 31
0.0
  0
LINE
  5
18F
330
1F
100
AcDbEntity
  8
0226_下階梁情報
  6
Continuous
 62
     7
370
     5
100
AcDbLine
 10
-832.4445447497202
 20
-455.6048741560522
 30
0.0
 11
-833.9448270373179
 21
-455.6048741560522
 31
0.0
  0
LINE
  5
190
330
1F
100
AcDbEntity
  8
0226_下階梁情報
  6
Continuous
 62
     7
370
     5
100
AcDbLine
 10
-725.3425277941061
 20
-504.1489377241675
 30
0.0
 11
-725.3425277941061
 21
-502.6486554365698
 31
0.0
  0
LINE
  5
191
330
1F
100
AcDbEntity
  8
0226_下階梁情報
  6
Continuous
 62
     7
370
     5
100
AcDbLine
 10
-725.3425277941061
 20
-502.6486554365698
 30
0.0
 11
-723.8422483936084
 21
-502.6486554365698
 31
0.0
  0
LINE
  5
192
330
1F
100
AcDbEntity
  8
0226_下階梁情報
  6
Continuous
 62
     7
370
     5
100
AcDbLine
 10
-723.8422483936084
 20
-502.6486554365698
 30
0.0
 11
-723.8422483936084
 21
-504.1489377241675
 31
0.0
  0
LINE
  5
193
330
1F
100
AcDbEntity
  8
0226_下階梁情報
  6
Continuous
 62
     7
370
     5
100
AcDbLine
 10
-723.8422483936084
 20
-504.1489377241675
 30
0.0
 11
-725.3425277941061
 21
-504.1489377241675
 31
0.0
  0
LINE
  5
194
330
1F
100
AcDbEntity
  8
0226_下階梁情報
  6
Continuous
 62
     7
370
     5
100
AcDbLine
 10
-784.5797833971811
 20
-526.6902890425268
 30
0.0
 11
-784.5797833971811
 21
-525.1900067549292
 31
0.0
  0
LINE
  5
195
330
1F
100
AcDbEntity
  8
0226_下階梁情報
  6
Continuous
 62
     7
370
     5
100
AcDbLine
 10
-784.5797833971811
 20
-525.1900067549292
 30
0.0
 11
-783.0800017885996
 21
-525.1900067549292
 31
0.0
  0
LINE
  5
196
330
1F
100
AcDbEntity
  8
0226_下階梁情報
  6
Continuous
 62
     7
370
     5
100
AcDbLine
 10
-783.0800017885996
 20
-525.1900067549292
 30
0.0
 11
-783.0800017885996
 21
-526.6902890425268
 31
0.0
  0
LINE
  5
197
330
1F
100
AcDbEntity
  8
0226_下階梁情報
  6
Continuous
 62
     7
370
     5
100
AcDbLine
 10
-783.0800017885996
 20
-526.6902890425268
 30
0.0
 11
-784.5797833971811
 21
-526.6902890425268
 31
0.0
  0
LINE
  5
198
330
1F
100
AcDbEntity
  8
0226_下階梁情報
  6
Continuous
 62
     7
370
     5
100
AcDbLine
 10
-772.7321347765757
 20
-599.75013401323
 30
0.0
 11
-772.7321347765757
 21
-598.2498517256323
 31
0.0
  0
LINE
  5
199
330
1F
100
AcDbEntity
  8
0226_下階梁情報
  6
Continuous
 62
     7
370
     5
100
AcDbLine
 10
-772.7321347765757
 20
-598.2498517256323
 30
0.0
 11
-771.2323483996225
 21
-598.2498517256323
 31
0.0
  0
LINE
  5
19A
330
1F
100
AcDbEntity
  8
0226_下階梁情報
  6
Continuous
 62
     7
370
     5
100
AcDbLine
 10
-771.2323483996225
 20
-598.2498517256323
 30
0.0
 11
-771.2323483996225
 21
-599.75013401323
 31
0.0
  0
LINE
  5
19B
330
1F
100
AcDbEntity
  8
0226_下階梁情報
  6
Continuous
 62
     7
370
     5
100
AcDbLine
 10
-771.2323483996225
 20
-599.75013401323
 30
0.0
 11
-772.7321347765757
 21
-599.75013401323
 31
0.0
  0
LINE
  5
19C
330
1F
100
AcDbEntity
  8
0226_下階梁情報
  6
Continuous
 62
     7
370
     5
100
AcDbLine
 10
-821.1097058825327
 20
-598.7626614790503
 30
0.0
 11
-821.1097058825327
 21
-597.2623791914526
 31
0.0
  0
LINE
  5
19D
330
1F
100
AcDbEntity
  8
0226_下階梁情報
  6
Continuous
 62
     7
370
     5
100
AcDbLine
 10
-821.1097058825327
 20
-597.2623791914526
 30
0.0
 11
-819.609423594935
 21
-597.2623791914526
 31
0.0
  0
LINE
  5
19E
330
1F
100
AcDbEntity
  8
0226_下階梁情報
  6
Continuous
 62
     7
370
     5
100
AcDbLine
 10
-819.609423594935
 20
-597.2623791914526
 30
0.0
 11
-819.609423594935
 21
-598.7626614790503
 31
0.0
  0
LINE
  5
19F
330
1F
100
AcDbEntity
  8
0226_下階梁情報
  6
Continuous
 62
     7
370
     5
100
AcDbLine
 10
-819.609423594935
 20
-598.7626614790503
 30
0.0
 11
-821.1097058825327
 21
-598.7626614790503
 31
0.0
  0
LINE
  5
1A0
330
1F
100
AcDbEntity
  8
0226_下階梁情報
  6
Continuous
 62
     7
370
     5
100
AcDbLine
 10
-808.1566628985239
 20
-717.8683819990698
 30
0.0
 11
-808.1566628985239
 21
-716.3680997114722
 31
0.0
  0
LINE
  5
1A1
330
1F
100
AcDbEntity
  8
0226_下階梁情報
  6
Continuous
 62
     7
370
     5
100
AcDbLine
 10
-808.1566628985239
 20
-716.3680997114722
 30
0.0
 11
-806.656886058314
 21
-716.3680997114722
 31
0.0
  0
LINE
  5
1A2
330
1F
100
AcDbEntity
  8
0226_下階梁情報
  6
Continuous
 62
     7
370
     5
100
AcDbLine
 10
-806.656886058314
 20
-716.3680997114722
 30
0.0
 11
-806.656886058314
 21
-717.8683819990698
 31
0.0
  0
LINE
  5
1A3
330
1F
100
AcDbEntity
  8
0226_下階梁情報
  6
Continuous
 62
     7
370
     5
100
AcDbLine
 10
-806.656886058314
 20
-717.8683819990698
 30
0.0
 11
-808.1566628985239
 21
-717.8683819990698
 31
0.0
  0
LINE
  5
1A4
330
1F
100
AcDbEntity
  8
0226_下階梁情報
  6
Continuous
 62
     7
370
     5
100
AcDbLine
 10
-757.6307425074411
 20
-747.3760190229956
 30
0.0
 11
-757.6307425074411
 21
-745.8757748823706
 31
0.0
  0
LINE
  5
1A5
330
1F
100
AcDbEntity
  8
0226_下階梁情報
  6
Continuous
 62
     7
370
     5
100
AcDbLine
 10
-757.6307425074411
 20
-745.8757748823706
 30
0.0
 11
-756.1309585146738
 21
-745.8757748823706
 31
0.0
  0
LINE
  5
1A6
330
1F
100
AcDbEntity
  8
0226_下階梁情報
  6
Continuous
 62
     7
370
     5
100
AcDbLine
 10
-756.1309585146738
 20
-745.8757748823706
 30
0.0
 11
-756.1309585146738
 21
-747.3760190229956
 31
0.0
  0
LINE
  5
1A7
330
1F
100
AcDbEntity
  8
0226_下階梁情報
  6
Continuous
 62
     7
370
     5
100
AcDbLine
 10
-756.1309585146738
 20
-747.3760190229956
 30
0.0
 11
-757.6307425074411
 21
-747.3760190229956
 31
0.0
  0
LINE
  5
1A8
330
1F
100
AcDbEntity
  8
0226_下階梁情報
  6
Continuous
 62
     7
370
     5
100
AcDbLine
 10
-721.3931462340189
 20
-671.6466107588354
 30
0.0
 11
-721.3931462340189
 21
-670.1463284712378
 31
0.0
  0
LINE
  5
1A9
330
1F
100
AcDbEntity
  8
0226_下階梁情報
  6
Continuous
 62
     7
370
     5
100
AcDbLine
 10
-721.3931462340189
 20
-670.1463284712378
 30
0.0
 11
-719.8928666286303
 21
-670.1463284712378
 31
0.0
  0
LINE
  5
1AA
330
1F
100
AcDbEntity
  8
0226_下階梁情報
  6
Continuous
 62
     7
370
     5
100
AcDbLine
 10
-719.8928666286303
 20
-670.1463284712378
 30
0.0
 11
-719.8928666286303
 21
-671.6466107588354
 31
0.0
  0
LINE
  5
1AB
330
1F
100
AcDbEntity
  8
0226_下階梁情報
  6
Continuous
 62
     7
370
     5
100
AcDbLine
 10
-719.8928666286303
 20
-671.6466107588354
 30
0.0
 11
-721.3931462340189
 21
-671.6466107588354
 31
0.0
  0
LINE
  5
1AC
330
1F
100
AcDbEntity
  8
0226_下階梁情報
  6
Continuous
 62
     7
370
     5
100
AcDbLine
 10
-838.4258470110727
 20
-553.5833325605932
 30
0.0
 11
-838.4258470110727
 21
-552.0830502729956
 31
0.0
  0
LINE
  5
1AD
330
1F
100
AcDbEntity
  8
0226_下階梁情報
  6
Continuous
 62
     7
370
     5
100
AcDbLine
 10
-838.4258470110727
 20
-552.0830502729956
 30
0.0
 11
-836.9255647234751
 21
-552.0830502729956
 31
0.0
  0
LINE
  5
1AE
330
1F
100
AcDbEntity
  8
0226_下階梁情報
  6
Continuous
 62
     7
370
     5
100
AcDbLine
 10
-836.9255647234751
 20
-552.0830502729956
 30
0.0
 11
-836.9255647234751
 21
-553.5833325605932
 31
0.0
  0
LINE
  5
1AF
330
1F
100
AcDbEntity
  8
0226_下階梁情報
  6
Continuous
 62
     7
370
     5
100
AcDbLine
 10
-836.9255647234751
 20
-553.5833325605932
 30
0.0
 11
-838.4258470110727
 21
-553.5833325605932
 31
0.0
  0
LINE
  5
1B0
330
1F
100
AcDbEntity
  8
0226_下階梁情報
  6
Continuous
 62
     7
370
     5
100
AcDbLine
 10
-721.5041312746836
 20
-597.3173871260229
 30
0.0
 11
-721.5041312746836
 21
-595.8171048384253
 31
0.0
  0
LINE
  5
1B1
330
1F
100
AcDbEntity
  8
0226_下階梁情報
  6
Continuous
 62
     7
370
     5
100
AcDbLine
 10
-721.5041312746836
 20
-595.8171048384253
 30
0.0
 11
-720.0038516692949
 21
-595.8171048384253
 31
0.0
  0
LINE
  5
1B2
330
1F
100
AcDbEntity
  8
0226_下階梁情報
  6
Continuous
 62
     7
370
     5
100
AcDbLine
 10
-720.0038516692949
 20
-595.8171048384253
 30
0.0
 11
-720.0038516692949
 21
-597.3173871260229
 31
0.0
  0
LINE
  5
1B3
330
1F
100
AcDbEntity
  8
0226_下階梁情報
  6
Continuous
 62
     7
370
     5
100
AcDbLine
 10
-720.0038516692949
 20
-597.3173871260229
 30
0.0
 11
-721.5041312746836
 21
-597.3173871260229
 31
0.0
  0
LINE
  5
1B4
330
1F
100
AcDbEntity
  8
0226_下階梁情報
  6
Continuous
 62
     7
370
     5
100
AcDbLine
 10
-746.2344631724192
 20
-720.6633343916479
 30
0.0
 11
-746.2344631724192
 21
-719.1630521040503
 31
0.0
  0
LINE
  5
1B5
330
1F
100
AcDbEntity
  8
0226_下階梁情報
  6
Continuous
 62
     7
370
     5
100
AcDbLine
 10
-746.2344631724192
 20
-719.1630521040503
 30
0.0
 11
-744.7341856531931
 21
-719.1630521040503
 31
0.0
  0
LINE
  5
1B6
330
1F
100
AcDbEntity
  8
0226_下階梁情報
  6
Continuous
 62
     7
370
     5
100
AcDbLine
 10
-744.7341856531931
 20
-719.1630521040503
 30
0.0
 11
-744.7341856531931
 21
-720.6633343916479
 31
0.0
  0
LINE
  5
1B7
330
1F
100
AcDbEntity
  8
0226_下階梁情報
  6
Continuous
 62
     7
370
     5
100
AcDbLine
 10
-744.7341856531931
 20
-720.6633343916479
 30
0.0
 11
-746.2344631724192
 21
-720.6633343916479
 31
0.0
  0
LINE
  5
1B8
330
1F
100
AcDbEntity
  8
0226_下階梁情報
  6
Continuous
 62
     7
370
     5
100
AcDbLine
 10
-714.3906858734919
 20
-408.2013955336157
 30
0.0
 11
-714.3906858734919
 21
-406.7011227827612
 31
0.0
  0
LINE
  5
1B9
330
1F
100
AcDbEntity
  8
0226_下階梁情報
  6
Continuous
 62
     7
370
     5
100
AcDbLine
 10
-714.3906858734919
 20
-406.7011227827612
 30
0.0
 11
-712.8904065661264
 21
-406.7011227827612
 31
0.0
  0
LINE
  5
1BA
330
1F
100
AcDbEntity
  8
0226_下階梁情報
  6
Continuous
 62
     7
370
     5
100
AcDbLine
 10
-712.8904065661264
 20
-406.7011227827612
 30
0.0
 11
-712.8904065661264
 21
-408.2013955336157
 31
0.0
  0
LINE
  5
1BB
330
1F
100
AcDbEntity
  8
0226_下階梁情報
  6
Continuous
 62
     7
370
     5
100
AcDbLine
 10
-712.8904065661264
 20
-408.2013955336157
 30
0.0
 11
-714.3906858734919
 21
-408.2013955336157
 31
0.0
  0
LINE
  5
1BC
330
1F
100
AcDbEntity
  8
0226_下階梁情報
  6
Continuous
 62
     7
370
     5
100
AcDbLine
 10
-620.7802877001596
 20
-261.8473556261603
 30
0.0
 11
-620.7802877001596
 21
-260.3470763187948
 31
0.0
  0
LINE
  5
1BD
330
1F
100
AcDbEntity
  8
0226_下階梁情報
  6
Continuous
 62
     7
370
     5
100
AcDbLine
 10
-620.7802877001596
 20
-260.3470763187948
 30
0.0
 11
-619.280005412562
 21
-260.3470763187948
 31
0.0
  0
LINE
  5
1BE
330
1F
100
AcDbEntity
  8
0226_下階梁情報
  6
Continuous
 62
     7
370
     5
100
AcDbLine
 10
-619.280005412562
 20
-260.3470763187948
 30
0.0
 11
-619.280005412562
 21
-261.8473556261603
 31
0.0
  0
LINE
  5
1BF
330
1F
100
AcDbEntity
  8
0226_下階梁情報
  6
Continuous
 62
     7
370
     5
100
AcDbLine
 10
-619.280005412562
 20
-261.8473556261603
 30
0.0
 11
-620.7802877001596
 21
-261.8473556261603
 31
0.0
  0
LINE
  5
1C0
330
1F
100
AcDbEntity
  8
0226_下階梁情報
  6
Continuous
 62
     7
370
     5
100
AcDbLine
 10
-642.3168286852671
 20
-293.11044361406
 30
0.0
 11
-642.3168286852671
 21
-291.610166094834
 31
0.0
  0
LINE
  5
1C1
330
1F
100
AcDbEntity
  8
0226_下階梁情報
  6
Continuous
 62
     7
370
     5
100
AcDbLine
 10
-642.3168286852671
 20
-291.610166094834
 30
0.0
 11
-640.8165463976694
 21
-291.610166094834
 31
0.0
  0
LINE
  5
1C2
330
1F
100
AcDbEntity
  8
0226_下階梁情報
  6
Continuous
 62
     7
370
     5
100
AcDbLine
 10
-640.8165463976694
 20
-291.610166094834
 30
0.0
 11
-640.8165463976694
 21
-293.11044361406
 31
0.0
  0
LINE
  5
1C3
330
1F
100
AcDbEntity
  8
0226_下階梁情報
  6
Continuous
 62
     7
370
     5
100
AcDbLine
 10
-640.8165463976694
 20
-293.11044361406
 30
0.0
 11
-642.3168286852671
 21
-293.11044361406
 31
0.0
  0
ARC
  5
1C4
330
1F
100
AcDbEntity
  8
0234_
  6
Continuous
 62
     4
370
     5
100
AcDbCircle
 10
-833.5529050402475
 20
-356.3852753859106
 30
0.0
 40
5.0
100
AcDbArc
 50
90.0
 51
180.0
  0
ARC
  5
1C5
330
1F
100
AcDbEntity
  8
0243_
  6
Continuous
 62
     3
370
     5
100
AcDbCircle
 10
-667.0526084475351
 20
-299.8844924192969
 30
0.0
 40
6.499999761581421
100
AcDbArc
 50
0.0
 51
90.0
  0
ARC
  5
1C6
330
1F
100
AcDbEntity
  8
0243_
  6
JWW_DASHED3
 62
     3
370
     5
100
AcDbCircle
 10
-667.0526084475351
 20
-322.8851428251807
 30
0.0
 40
6.499999761581421
100
AcDbArc
 50
270.0
 51
0.0
  0
ARC
  5
1C7
330
1F
100
AcDbEntity
  8
0243_
  6
Continuous
 62
     3
370
     5
100
AcDbCircle
 10
-683.5527095370127
 20
-363.0270352583472
 30
0.0
 40
10.0
100
AcDbArc
 50
0.0
 51
45.0
  0
ARC
  5
1C8
330
1F
100
AcDbEntity
  8
0243_
  6
Continuous
 62
     3
370
     5
100
AcDbCircle
 10
-636.1264428667856
 20
-303.8854041319433
 30
0.0
 40
30.0
100
AcDbArc
 50
224.9996643066406
 51
270.0
  0
ARC
  5
1C9
330
1F
100
AcDbEntity
  8
0243_
  6
Continuous
 62
     3
370
     5
100
AcDbCircle
 10
-558.552876430018
 20
-343.8850941877905
 30
0.0
 40
10.0
100
AcDbArc
 50
0.0
 51
90.0
  0
ARC
  5
1CA
330
1F
100
AcDbEntity
  8
0227_下階間仕切
  6
Continuous
 62
     2
370
     5
100
AcDbCircle
 10
-843.5534486346079
 20
-361.3850465040747
 30
0.0
 40
5.0
100
AcDbArc
 50
90.0
 51
180.0
  0
ARC
  5
1CB
330
1F
100
AcDbEntity
  8
0227_下階間仕切
  6
Continuous
 62
     2
370
     5
100
AcDbCircle
 10
-696.5533146433664
 20
-251.8849649649206
 30
0.0
 40
3.00000011920929
100
AcDbArc
 50
0.0
 51
90.0
  0
ARC
  5
1CC
330
1F
100
AcDbEntity
  8
0227_下階間仕切
  6
Continuous
 62
     2
370
     5
100
AcDbCircle
 10
-715.5530557207895
 20
-251.8849649649206
 30
0.0
 40
3.00000011920929
100
AcDbArc
 50
90.0
 51
180.0
  0
ARC
  5
1CD
330
1F
100
AcDbEntity
  8
0227_下階間仕切
  6
Continuous
 62
     2
370
     5
100
AcDbCircle
 10
-696.5533146433664
 20
-370.8851685743872
 30
0.0
 40
3.00000011920929
100
AcDbArc
 50
270.0
 51
0.0
  0
ARC
  5
1CE
330
1F
100
AcDbEntity
  8
0227_下階間仕切
  6
Continuous
 62
     2
370
     5
100
AcDbCircle
 10
-718.5536146335436
 20
-363.8851895552222
 30
0.0
 40
5.0
100
AcDbArc
 50
270.0
 51
0.0
  0
ARC
  5
1CF
330
1F
100
AcDbEntity
  8
0227_下階間仕切
  6
Continuous
 62
     2
370
     5
100
AcDbCircle
 10
-790.5155000262095
 20
-361.3850465040747
 30
0.0
 40
5.0
100
AcDbArc
 50
70.43162536621094
 51
90.0
  0
ARC
  5
1D0
330
1F
100
AcDbEntity
  8
0227_下階間仕切
  6
Continuous
 62
     2
370
     5
100
AcDbCircle
 10
-768.2496270708872
 20
-363.8851895552222
 30
0.0
 40
5.0
100
AcDbArc
 50
250.4390106201172
 51
270.0
  0
ARC
  5
1D1
330
1F
100
AcDbEntity
  8
0227_下階間仕切
  6
Continuous
 62
     2
370
     5
100
AcDbCircle
 10
-843.5534486346079
 20
-368.8849606733862
 30
0.0
 40
5.0
100
AcDbArc
 50
180.0
 51
270.0
  0
ARC
  5
1D2
330
1F
100
AcDbEntity
  8
0227_下階間仕切
  6
Continuous
 62
     2
370
     5
100
AcDbCircle
 10
-832.8835305743052
 20
-361.3850465040747
 30
0.0
 40
5.0
100
AcDbArc
 50
59.99996948242189
 51
90.00000000000001
  0
ARC
  5
1D3
330
1F
100
AcDbEntity
  8
0227_下階間仕切
  6
Continuous
 62
     2
370
     5
100
AcDbCircle
 10
-804.2231378130747
 20
-361.3850465040747
 30
0.0
 40
5.0
100
AcDbArc
 50
90.0
 51
120.0000305175781
  0
ARC
  5
1D4
330
1F
100
AcDbEntity
  8
0227_下階間仕切
  6
Continuous
 62
     2
370
     5
100
AcDbCircle
 10
-818.5535821490122
 20
-363.8851895552222
 30
0.0
 40
5.0
100
AcDbArc
 50
239.9999694824219
 51
300.0000305175781
  0
LWPOLYLINE
  5
1D5
330
1F
100
AcDbEntity
  8
0216_
  6
Continuous
 62
     7
370
     5
100
AcDbPolyline
 90
        4
 70
     1
 43
1.0
 10
-693.0532507471872
 20
91.48182246870363
 42
0.4142135623731
 10
-693.5532507471872
 20
91.98182246870363
 42
0.4142135623731
 10
-694.0532507471871
 20
91.48182246870363
 42
0.4142135623731
 10
-693.5532507471872
 20
90.98182246870363
 42
0.4142135623731
  0
LWPOLYLINE
  5
1D6
330
1F
100
AcDbEntity
  8
0216_
  6
Continuous
 62
     7
370
     5
100
AcDbPolyline
 90
        4
 70
     1
 43
1.0
 10
-848.0527333788706
 20
-127.9662385206763
 42
0.4142135623731
 10
-848.5527333788706
 20
-127.4662385206763
 42
0.4142135623731
 10
-849.0527333788705
 20
-127.9662385206763
 42
0.4142135623731
 10
-848.5527333788706
 20
-128.4662385206763
 42
0.4142135623731
  0
LWPOLYLINE
  5
1D7
330
1F
100
AcDbEntity
  8
0216_
  6
Continuous
 62
     7
370
     5
100
AcDbPolyline
 90
        4
 70
     1
 43
1.0
 10
-723.0519036822153
 20
-127.9662385206763
 42
0.4142135623731
 10
-723.5519036822153
 20
-127.4662385206763
 42
0.4142135623731
 10
-724.0519036822152
 20
-127.9662385206763
 42
0.4142135623731
 10
-723.5519036822153
 20
-128.4662385206763
 42
0.4142135623731
  0
LWPOLYLINE
  5
1D8
330
1F
100
AcDbEntity
  8
0216_
  6
Continuous
 62
     7
370
     5
100
AcDbPolyline
 90
        4
 70
     1
 43
1.0
 10
-723.0519036822153
 20
-19.21382572465575
 42
0.4142135623731
 10
-723.5519036822153
 20
-18.71382572465575
 42
0.4142135623731
 10
-724.0519036822152
 20
-19.21382572465575
 42
0.4142135623731
 10
-723.5519036822153
 20
-19.71382572465575
 42
0.4142135623731
  0
LWPOLYLINE
  5
1D9
330
1F
100
AcDbEntity
  8
0216_
  6
Continuous
 62
     7
370
     5
100
AcDbPolyline
 90
        4
 70
     1
 43
1.0
 10
-718.051633077128
 20
-19.21382572465575
 42
0.4142135623731
 10
-718.551633077128
 20
-18.71382572465575
 42
0.4142135623731
 10
-719.0516330771279
 20
-19.21382572465575
 42
0.4142135623731
 10
-718.551633077128
 20
-19.71382572465575
 42
0.4142135623731
  0
LWPOLYLINE
  5
1DA
330
1F
100
AcDbEntity
  8
0216_
  6
Continuous
 62
     7
370
     5
100
AcDbPolyline
 90
        4
 70
     1
 43
1.0
 10
-693.0532507471872
 20
-19.21382572465575
 42
0.4142135623731
 10
-693.5532507471872
 20
-18.71382572465575
 42
0.4142135623731
 10
-694.0532507471871
 20
-19.21382572465575
 42
0.4142135623731
 10
-693.5532507471872
 20
-19.71382572465575
 42
0.4142135623731
  0
LWPOLYLINE
  5
1DB
330
1F
100
AcDbEntity
  8
0216_
  6
Continuous
 62
     7
370
     5
100
AcDbPolyline
 90
        4
 70
     1
 43
1.0
 10
-993.5352448992563
 20
-373.885237238938
 42
0.4142135623731
 10
-994.0352448992563
 20
-373.385237238938
 42
0.4142135623731
 10
-994.5352448992562
 20
-373.885237238938
 42
0.4142135623731
 10
-994.0352448992563
 20
-374.385237238938
 42
0.4142135623731
  0
LWPOLYLINE
  5
1DC
330
1F
100
AcDbEntity
  8
0216_
  6
Continuous
 62
     7
370
     5
100
AcDbPolyline
 90
        4
 70
     1
 43
1.0
 10
-993.5352448992563
 20
-248.885396979386
 42
0.4142135623731
 10
-994.0352448992563
 20
-248.385396979386
 42
0.4142135623731
 10
-994.5352448992562
 20
-248.885396979386
 42
0.4142135623731
 10
-994.0352448992563
 20
-249.385396979386
 42
0.4142135623731
  0
LWPOLYLINE
  5
1DD
330
1F
100
AcDbEntity
  8
0216_
  6
Continuous
 62
     7
370
     5
100
AcDbPolyline
 90
        4
 70
     1
 43
1.0
 10
-848.0517415575815
 20
-654.5038953047339
 42
0.4142135623731
 10
-848.5517415575815
 20
-654.0038953047339
 42
0.4142135623731
 10
-849.0517415575814
 20
-654.5038953047339
 42
0.4142135623731
 10
-848.5517415575815
 20
-655.0038953047339
 42
0.4142135623731
  0
LWPOLYLINE
  5
1DE
330
1F
100
AcDbEntity
  8
0216_
  6
Continuous
 62
     7
370
     5
100
AcDbPolyline
 90
        4
 70
     1
 43
1.0
 10
-698.0525307230783
 20
-654.5038953047339
 42
0.4142135623731
 10
-698.5525307230783
 20
-654.0038953047339
 42
0.4142135623731
 10
-699.0525307230782
 20
-654.5038953047339
 42
0.4142135623731
 10
-698.5525307230783
 20
-655.0038953047339
 42
0.4142135623731
  0
TEXT
  5
1DF
330
1F
100
AcDbEntity
  8
0216_
  6
Continuous
 62
     2
370
     5
100
AcDbText
 10
-807.3019799761606
 20
-117.3259714918677
 30
0.0
 40
30.48
  1
25
 41
1.0625
  7
ＭＳ ゴシック
100
AcDbText
  0
TEXT
  5
1E0
330
1F
100
AcDbEntity
  8
0216_
  6
Continuous
 62
     2
370
     5
100
AcDbText
 10
-839.8017606310679
 20
-643.8641241865698
 30
0.0
 40
30.48
  1
25～30
 41
1.104166666666667
  7
ＭＳ ゴシック
100
AcDbText
  0
LINE
  5
1E1
330
1F
100
AcDbEntity
  8
0216_
  6
Continuous
 62
     7
370
     5
100
AcDbLine
 10
-994.0352448992563
 20
-415.8443103267659
 30
0.0
 11
-994.0352448992563
 21
-248.885396979386
 31
0.0
  0
TEXT
  5
1E2
330
1F
100
AcDbEntity
  8
0216_
  6
Continuous
 62
     2
370
     5
100
AcDbText
 10
-1004.675511928065
 20
-417.4389817751123
 30
0.0
 40
30.48
  1
25
 50
90.00000250447819
 41
1.062500000000001
  7
ＭＳ ゴシック
100
AcDbText
  0
LINE
  5
1E3
330
1F
100
AcDbEntity
  8
0242_
  6
Continuous
 62
     7
370
     5
100
AcDbLine
 10
-784.1690083368088
 20
-251.3850369673316
 30
0.0
 11
-770.3583141191269
 21
-230.5466113980953
 31
0.0
  0
LINE
  5
1E4
330
1F
100
AcDbEntity
  8
0242_
  6
Continuous
 62
     7
370
     5
100
AcDbLine
 10
-784.1690083368088
 20
-251.3850369673316
 30
0.0
 11
-765.4343458040024
 21
-234.8309300836269
 31
0.0
  0
LINE
  5
1E5
330
1F
100
AcDbEntity
  8
0218_
  6
Continuous
 62
     3
370
     5
100
AcDbLine
 10
-761.0516562423929
 20
-251.3850369673315
 30
0.0
 11
-796.0512768346648
 21
-251.3850369673315
 31
0.0
  0
LINE
  5
1E6
330
1F
100
AcDbEntity
  8
0218_
  6
Continuous
 62
     3
370
     5
100
AcDbLine
 10
-831.0516397464044
 20
-251.3850369673315
 30
0.0
 11
-866.0512603386762
 21
-251.3850369673315
 31
0.0
  0
LINE
  5
1E7
330
1F
100
AcDbEntity
  8
0218_
  6
Continuous
 62
     3
370
     5
100
AcDbLine
 10
-901.0516232504164
 20
-251.3850369673315
 30
0.0
 11
-936.0512438426882
 21
-251.3850369673315
 31
0.0
  0
LINE
  5
1E8
330
1F
100
AcDbEntity
  8
0218_
  6
Continuous
 62
     3
370
     5
100
AcDbLine
 10
-971.0516067544278
 20
-251.3850369673315
 30
0.0
 11
-1006.0512273467
 21
-251.3850369673315
 31
0.0
  0
LINE
  5
1E9
330
1F
100
AcDbEntity
  8
0218_
  6
Continuous
 62
     3
370
     5
100
AcDbLine
 10
-1041.05159025844
 20
-251.3850369673315
 30
0.0
 11
-1076.051210850712
 21
-251.3850369673315
 31
0.0
  0
LINE
  5
1EA
330
1F
100
AcDbEntity
  8
0218_
  6
Continuous
 62
     3
370
     5
100
AcDbLine
 10
-1111.051573762452
 20
-251.3850369673315
 30
0.0
 11
-1146.051936674191
 21
-251.3850369673315
 31
0.0
  0
LINE
  5
1EB
330
1F
100
AcDbEntity
  8
0218_
  6
Continuous
 62
     3
370
     5
100
AcDbLine
 10
-1181.052299585932
 20
-251.3850369673315
 30
0.0
 11
-1216.052662497671
 21
-251.3850369673315
 31
0.0
  0
LINE
  5
1EC
330
1F
100
AcDbEntity
  8
0218_
  6
Continuous
 62
     3
370
     5
100
AcDbLine
 10
-1251.053025409411
 20
-251.3850369673315
 30
0.0
 11
-1286.052646001683
 21
-251.3850369673315
 31
0.0
  0
LINE
  5
1ED
330
1F
100
AcDbEntity
  8
0218_
  6
Continuous
 62
     3
370
     5
100
AcDbLine
 10
-1321.053008913423
 20
-251.3850369673315
 30
0.0
 11
-1356.052629505695
 21
-251.3850369673315
 31
0.0
  0
LINE
  5
1EE
330
1F
100
AcDbEntity
  8
0218_
  6
Continuous
 62
     3
370
     5
100
AcDbLine
 10
-723.5519036822153
 20
-251.3850369673315
 30
0.0
 11
-723.5519036822153
 21
-258.38510954968
 31
0.0
  0
LINE
  5
1EF
330
1F
100
AcDbEntity
  8
0218_
  6
Continuous
 62
     3
370
     5
100
AcDbLine
 10
-723.5519036822153
 20
-251.3850369673315
 30
0.0
 11
-763.5510458908304
 21
-251.3850369673315
 31
0.0
  0
LINE
  5
1F0
330
1F
100
AcDbEntity
  8
0218_
  6
Continuous
 62
     3
370
     5
100
AcDbLine
 10
-763.5510458908304
 20
-251.3850369673315
 30
0.0
 11
-763.5510458908304
 21
-258.38510954968
 31
0.0
  0
LINE
  5
1F1
330
1F
100
AcDbEntity
  8
0218_
  6
Continuous
 62
     3
370
     5
100
AcDbLine
 10
-723.5519036822153
 20
-258.38510954968
 30
0.0
 11
-763.5510458908304
 21
-258.38510954968
 31
0.0
  0
LINE
  5
1F2
330
1F
100
AcDbEntity
  8
0218_
  6
Continuous
 62
     3
370
     5
100
AcDbLine
 10
-793.5522583459611
 20
-251.3850369673315
 30
0.0
 11
-793.5522583459611
 21
-258.38510954968
 31
0.0
  0
LINE
  5
1F3
330
1F
100
AcDbEntity
  8
0218_
  6
Continuous
 62
     3
370
     5
100
AcDbLine
 10
-793.5522583459611
 20
-251.3850369673315
 30
0.0
 11
-833.5514005545759
 21
-251.3850369673315
 31
0.0
  0
LINE
  5
1F4
330
1F
100
AcDbEntity
  8
0218_
  6
Continuous
 62
     3
370
     5
100
AcDbLine
 10
-833.5514005545759
 20
-251.3850369673315
 30
0.0
 11
-833.5514005545759
 21
-258.38510954968
 31
0.0
  0
LINE
  5
1F5
330
1F
100
AcDbEntity
  8
0218_
  6
Continuous
 62
     3
370
     5
100
AcDbLine
 10
-793.5522583459611
 20
-258.38510954968
 30
0.0
 11
-833.5514005545759
 21
-258.38510954968
 31
0.0
  0
LINE
  5
1F6
330
1F
100
AcDbEntity
  8
0218_
  6
Continuous
 62
     3
370
     5
100
AcDbLine
 10
-863.552613009707
 20
-251.3850369673315
 30
0.0
 11
-863.552613009707
 21
-258.38510954968
 31
0.0
  0
LINE
  5
1F7
330
1F
100
AcDbEntity
  8
0218_
  6
Continuous
 62
     3
370
     5
100
AcDbLine
 10
-863.552613009707
 20
-251.3850369673315
 30
0.0
 11
-903.5517552183215
 21
-251.3850369673315
 31
0.0
  0
LINE
  5
1F8
330
1F
100
AcDbEntity
  8
0218_
  6
Continuous
 62
     3
370
     5
100
AcDbLine
 10
-903.5517552183215
 20
-251.3850369673315
 30
0.0
 11
-903.5517552183215
 21
-258.38510954968
 31
0.0
  0
LINE
  5
1F9
330
1F
100
AcDbEntity
  8
0218_
  6
Continuous
 62
     3
370
     5
100
AcDbLine
 10
-863.552613009707
 20
-258.38510954968
 30
0.0
 11
-903.5517552183215
 21
-258.38510954968
 31
0.0
  0
LINE
  5
1FA
330
1F
100
AcDbEntity
  8
0218_
  6
Continuous
 62
     3
370
     5
100
AcDbLine
 10
-933.5529676734525
 20
-251.3850369673315
 30
0.0
 11
-933.5529676734525
 21
-258.38510954968
 31
0.0
  0
LINE
  5
1FB
330
1F
100
AcDbEntity
  8
0218_
  6
Continuous
 62
     3
370
     5
100
AcDbLine
 10
-933.5529676734525
 20
-251.3850369673315
 30
0.0
 11
-973.5521098820674
 21
-251.3850369673315
 31
0.0
  0
LINE
  5
1FC
330
1F
100
AcDbEntity
  8
0218_
  6
Continuous
 62
     3
370
     5
100
AcDbLine
 10
-973.5521098820674
 20
-251.3850369673315
 30
0.0
 11
-973.5521098820674
 21
-258.38510954968
 31
0.0
  0
LINE
  5
1FD
330
1F
100
AcDbEntity
  8
0218_
  6
Continuous
 62
     3
370
     5
100
AcDbLine
 10
-933.5529676734525
 20
-258.38510954968
 30
0.0
 11
-973.5521098820674
 21
-258.38510954968
 31
0.0
  0
LINE
  5
1FE
330
1F
100
AcDbEntity
  8
0218_
  6
Continuous
 62
     3
370
     5
100
AcDbLine
 10
-1003.553322337198
 20
-251.3850369673315
 30
0.0
 11
-1003.553322337198
 21
-258.38510954968
 31
0.0
  0
LINE
  5
1FF
330
1F
100
AcDbEntity
  8
0218_
  6
Continuous
 62
     3
370
     5
100
AcDbLine
 10
-1003.553322337198
 20
-251.3850369673315
 30
0.0
 11
-1043.552464545813
 21
-251.3850369673315
 31
0.0
  0
LINE
  5
200
330
1F
100
AcDbEntity
  8
0218_
  6
Continuous
 62
     3
370
     5
100
AcDbLine
 10
-1043.552464545813
 20
-251.3850369673315
 30
0.0
 11
-1043.552464545813
 21
-258.38510954968
 31
0.0
  0
LINE
  5
201
330
1F
100
AcDbEntity
  8
0218_
  6
Continuous
 62
     3
370
     5
100
AcDbLine
 10
-1003.553322337198
 20
-258.38510954968
 30
0.0
 11
-1043.552464545813
 21
-258.38510954968
 31
0.0
  0
LINE
  5
202
330
1F
100
AcDbEntity
  8
0218_
  6
Continuous
 62
     3
370
     5
100
AcDbLine
 10
-1073.553677000944
 20
-251.3850369673315
 30
0.0
 11
-1073.553677000944
 21
-258.38510954968
 31
0.0
  0
LINE
  5
203
330
1F
100
AcDbEntity
  8
0218_
  6
Continuous
 62
     3
370
     5
100
AcDbLine
 10
-1073.553677000944
 20
-251.3850369673315
 30
0.0
 11
-1113.552819209559
 21
-251.3850369673315
 31
0.0
  0
LINE
  5
204
330
1F
100
AcDbEntity
  8
0218_
  6
Continuous
 62
     3
370
     5
100
AcDbLine
 10
-1113.552819209559
 20
-251.3850369673315
 30
0.0
 11
-1113.552819209559
 21
-258.38510954968
 31
0.0
  0
LINE
  5
205
330
1F
100
AcDbEntity
  8
0218_
  6
Continuous
 62
     3
370
     5
100
AcDbLine
 10
-1073.553677000944
 20
-258.38510954968
 30
0.0
 11
-1113.552819209559
 21
-258.38510954968
 31
0.0
  0
LINE
  5
206
330
1F
100
AcDbEntity
  8
0218_
  6
Continuous
 62
     3
370
     5
100
AcDbLine
 10
-1143.55403166469
 20
-251.3850369673315
 30
0.0
 11
-1143.55403166469
 21
-258.38510954968
 31
0.0
  0
LINE
  5
207
330
1F
100
AcDbEntity
  8
0218_
  6
Continuous
 62
     3
370
     5
100
AcDbLine
 10
-1143.55403166469
 20
-251.3850369673315
 30
0.0
 11
-1183.553173873305
 21
-251.3850369673315
 31
0.0
  0
LINE
  5
208
330
1F
100
AcDbEntity
  8
0218_
  6
Continuous
 62
     3
370
     5
100
AcDbLine
 10
-1183.553173873305
 20
-251.3850369673315
 30
0.0
 11
-1183.553173873305
 21
-258.38510954968
 31
0.0
  0
LINE
  5
209
330
1F
100
AcDbEntity
  8
0218_
  6
Continuous
 62
     3
370
     5
100
AcDbLine
 10
-1143.55403166469
 20
-258.38510954968
 30
0.0
 11
-1183.553173873305
 21
-258.38510954968
 31
0.0
  0
LINE
  5
20A
330
1F
100
AcDbEntity
  8
0218_
  6
Continuous
 62
     3
370
     5
100
AcDbLine
 10
-1213.554386328436
 20
-251.3850369673315
 30
0.0
 11
-1213.554386328436
 21
-258.38510954968
 31
0.0
  0
LINE
  5
20B
330
1F
100
AcDbEntity
  8
0218_
  6
Continuous
 62
     3
370
     5
100
AcDbLine
 10
-1213.554386328436
 20
-251.3850369673315
 30
0.0
 11
-1253.55352853705
 21
-251.3850369673315
 31
0.0
  0
LINE
  5
20C
330
1F
100
AcDbEntity
  8
0218_
  6
Continuous
 62
     3
370
     5
100
AcDbLine
 10
-1253.55352853705
 20
-251.3850369673315
 30
0.0
 11
-1253.55352853705
 21
-258.38510954968
 31
0.0
  0
LINE
  5
20D
330
1F
100
AcDbEntity
  8
0218_
  6
Continuous
 62
     3
370
     5
100
AcDbLine
 10
-1213.554386328436
 20
-258.38510954968
 30
0.0
 11
-1253.55352853705
 21
-258.38510954968
 31
0.0
  0
LINE
  5
20E
330
1F
100
AcDbEntity
  8
0218_
  6
Continuous
 62
     3
370
     5
100
AcDbLine
 10
-1283.554740992181
 20
-251.3850369673315
 30
0.0
 11
-1283.554740992181
 21
-258.38510954968
 31
0.0
  0
LINE
  5
20F
330
1F
100
AcDbEntity
  8
0218_
  6
Continuous
 62
     3
370
     5
100
AcDbLine
 10
-1283.554740992181
 20
-251.3850369673315
 30
0.0
 11
-1323.553883200796
 21
-251.3850369673315
 31
0.0
  0
LINE
  5
210
330
1F
100
AcDbEntity
  8
0218_
  6
Continuous
 62
     3
370
     5
100
AcDbLine
 10
-1323.553883200796
 20
-251.3850369673315
 30
0.0
 11
-1323.553883200796
 21
-258.38510954968
 31
0.0
  0
LINE
  5
211
330
1F
100
AcDbEntity
  8
0218_
  6
Continuous
 62
     3
370
     5
100
AcDbLine
 10
-1283.554740992181
 20
-258.38510954968
 30
0.0
 11
-1323.553883200796
 21
-258.38510954968
 31
0.0
  0
LINE
  5
212
330
1F
100
AcDbEntity
  8
0218_
  6
Continuous
 62
     3
370
     5
100
AcDbLine
 10
-1353.555095655927
 20
-251.3850369673315
 30
0.0
 11
-1353.555095655927
 21
-258.38510954968
 31
0.0
  0
LINE
  5
213
330
1F
100
AcDbEntity
  8
0218_
  6
Continuous
 62
     3
370
     5
100
AcDbLine
 10
-1353.555095655927
 20
-251.3850369673315
 30
0.0
 11
-1393.554237864542
 21
-251.3850369673315
 31
0.0
  0
LINE
  5
214
330
1F
100
AcDbEntity
  8
0218_
  6
Continuous
 62
     3
370
     5
100
AcDbLine
 10
-1393.554237864542
 20
-251.3850369673315
 30
0.0
 11
-1393.554237864542
 21
-258.38510954968
 31
0.0
  0
LINE
  5
215
330
1F
100
AcDbEntity
  8
0218_
  6
Continuous
 62
     3
370
     5
100
AcDbLine
 10
-1353.555095655927
 20
-258.38510954968
 30
0.0
 11
-1393.554237864542
 21
-258.38510954968
 31
0.0
  0
ARC
  5
216
330
1F
100
AcDbEntity
  8
0218_
  6
Continuous
 62
     3
370
     5
100
AcDbCircle
 10
-735.0515457192715
 20
-263.3850023257565
 30
0.0
 40
5.000000064437454
100
AcDbArc
 50
90.0
 51
180.0
  0
ARC
  5
217
330
1F
100
AcDbEntity
  8
0218_
  6
Continuous
 62
     3
370
     5
100
AcDbCircle
 10
-805.0519003830179
 20
-263.3850023257565
 30
0.0
 40
5.000000064437454
100
AcDbArc
 50
90.0
 51
180.0
  0
ARC
  5
218
330
1F
100
AcDbEntity
  8
0218_
  6
Continuous
 62
     3
370
     5
100
AcDbCircle
 10
-875.0522550467634
 20
-263.3850023257565
 30
0.0
 40
5.000000064437454
100
AcDbArc
 50
90.0
 51
180.0
  0
ARC
  5
219
330
1F
100
AcDbEntity
  8
0218_
  6
Continuous
 62
     3
370
     5
100
AcDbCircle
 10
-945.052609710509
 20
-263.3850023257565
 30
0.0
 40
5.000000064437454
100
AcDbArc
 50
90.0
 51
180.0
  0
ARC
  5
21A
330
1F
100
AcDbEntity
  8
0218_
  6
Continuous
 62
     3
370
     5
100
AcDbCircle
 10
-1015.052964374255
 20
-263.3850023257565
 30
0.0
 40
5.000000064437454
100
AcDbArc
 50
90.0
 51
180.0
  0
ARC
  5
21B
330
1F
100
AcDbEntity
  8
0218_
  6
Continuous
 62
     3
370
     5
100
AcDbCircle
 10
-1085.053319038001
 20
-263.3850023257565
 30
0.0
 40
5.000000064437454
100
AcDbArc
 50
90.0
 51
180.0
  0
ARC
  5
21C
330
1F
100
AcDbEntity
  8
0218_
  6
Continuous
 62
     3
370
     5
100
AcDbCircle
 10
-1155.053673701746
 20
-263.3850023257565
 30
0.0
 40
5.000000064437454
100
AcDbArc
 50
90.0
 51
180.0
  0
ARC
  5
21D
330
1F
100
AcDbEntity
  8
0218_
  6
Continuous
 62
     3
370
     5
100
AcDbCircle
 10
-1225.054028365492
 20
-263.3850023257565
 30
0.0
 40
5.000000064437454
100
AcDbArc
 50
90.0
 51
180.0
  0
ARC
  5
21E
330
1F
100
AcDbEntity
  8
0218_
  6
Continuous
 62
     3
370
     5
100
AcDbCircle
 10
-1295.054383029238
 20
-263.3850023257565
 30
0.0
 40
5.000000064437454
100
AcDbArc
 50
90.0
 51
180.0
  0
ARC
  5
21F
330
1F
100
AcDbEntity
  8
0218_
  6
Continuous
 62
     3
370
     5
100
AcDbCircle
 10
-1365.054737692984
 20
-263.3850023257565
 30
0.0
 40
5.000000064437454
100
AcDbArc
 50
90.0
 51
180.0
  0
LINE
  5
220
330
1F
100
AcDbEntity
  8
0218_
  6
Continuous
 62
     3
370
     5
100
AcDbLine
 10
-740.0514384953486
 20
-351.3849132474201
 30
0.0
 11
-747.0515110776965
 21
-351.3849132474201
 31
0.0
  0
LINE
  5
221
330
1F
100
AcDbEntity
  8
0218_
  6
Continuous
 62
     3
370
     5
100
AcDbLine
 10
-810.0517931590945
 20
-351.3849132474201
 30
0.0
 11
-817.0518657414424
 21
-351.3849132474201
 31
0.0
  0
LINE
  5
222
330
1F
100
AcDbEntity
  8
0218_
  6
Continuous
 62
     3
370
     5
100
AcDbLine
 10
-880.0521478228403
 20
-351.3849132474201
 30
0.0
 11
-887.0522204051882
 21
-351.3849132474201
 31
0.0
  0
LINE
  5
223
330
1F
100
AcDbEntity
  8
0218_
  6
Continuous
 62
     3
370
     5
100
AcDbLine
 10
-950.0525024865861
 20
-351.3849132474201
 30
0.0
 11
-957.0525750689341
 21
-351.3849132474201
 31
0.0
  0
LINE
  5
224
330
1F
100
AcDbEntity
  8
0218_
  6
Continuous
 62
     3
370
     5
100
AcDbLine
 10
-1020.052857150332
 20
-351.3849132474201
 30
0.0
 11
-1027.05292973268
 21
-351.3849132474201
 31
0.0
  0
LINE
  5
225
330
1F
100
AcDbEntity
  8
0218_
  6
Continuous
 62
     3
370
     5
100
AcDbLine
 10
-1090.053211814078
 20
-351.3849132474201
 30
0.0
 11
-1097.053284396426
 21
-351.3849132474201
 31
0.0
  0
LINE
  5
226
330
1F
100
AcDbEntity
  8
0218_
  6
Continuous
 62
     3
370
     5
100
AcDbLine
 10
-1160.053566477823
 20
-351.3849132474201
 30
0.0
 11
-1167.053639060171
 21
-351.3849132474201
 31
0.0
  0
LINE
  5
227
330
1F
100
AcDbEntity
  8
0218_
  6
Continuous
 62
     3
370
     5
100
AcDbLine
 10
-1230.053921141569
 20
-351.3849132474201
 30
0.0
 11
-1237.053993723917
 21
-351.3849132474201
 31
0.0
  0
LINE
  5
228
330
1F
100
AcDbEntity
  8
0218_
  6
Continuous
 62
     3
370
     5
100
AcDbLine
 10
-1300.054275805315
 20
-351.3849132474201
 30
0.0
 11
-1307.054348387663
 21
-351.3849132474201
 31
0.0
  0
LINE
  5
229
330
1F
100
AcDbEntity
  8
0218_
  6
Continuous
 62
     3
370
     5
100
AcDbLine
 10
-1370.054630469061
 20
-351.3849132474201
 30
0.0
 11
-1377.054703051409
 21
-351.3849132474201
 31
0.0
  0
LINE
  5
22A
330
1F
100
AcDbEntity
  8
0218_
  6
Continuous
 62
     3
370
     5
100
AcDbLine
 10
-740.0514384953486
 20
-263.3850023257565
 30
0.0
 11
-740.0514384953486
 21
-351.3849132474201
 31
0.0
  0
LINE
  5
22B
330
1F
100
AcDbEntity
  8
0218_
  6
Continuous
 62
     3
370
     5
100
AcDbLine
 10
-810.0517931590945
 20
-263.3850023257565
 30
0.0
 11
-810.0517931590945
 21
-351.3849132474201
 31
0.0
  0
LINE
  5
22C
330
1F
100
AcDbEntity
  8
0218_
  6
Continuous
 62
     3
370
     5
100
AcDbLine
 10
-880.0521478228403
 20
-263.3850023257565
 30
0.0
 11
-880.0521478228403
 21
-351.3849132474201
 31
0.0
  0
LINE
  5
22D
330
1F
100
AcDbEntity
  8
0218_
  6
Continuous
 62
     3
370
     5
100
AcDbLine
 10
-950.0525024865861
 20
-263.3850023257565
 30
0.0
 11
-950.0525024865861
 21
-351.3849132474201
 31
0.0
  0
LINE
  5
22E
330
1F
100
AcDbEntity
  8
0218_
  6
Continuous
 62
     3
370
     5
100
AcDbLine
 10
-1020.052857150332
 20
-263.3850023257565
 30
0.0
 11
-1020.052857150332
 21
-351.3849132474201
 31
0.0
  0
LINE
  5
22F
330
1F
100
AcDbEntity
  8
0218_
  6
Continuous
 62
     3
370
     5
100
AcDbLine
 10
-1090.053211814078
 20
-263.3850023257565
 30
0.0
 11
-1090.053211814078
 21
-351.3849132474201
 31
0.0
  0
LINE
  5
230
330
1F
100
AcDbEntity
  8
0218_
  6
Continuous
 62
     3
370
     5
100
AcDbLine
 10
-1160.053566477823
 20
-263.3850023257565
 30
0.0
 11
-1160.053566477823
 21
-351.3849132474201
 31
0.0
  0
LINE
  5
231
330
1F
100
AcDbEntity
  8
0218_
  6
Continuous
 62
     3
370
     5
100
AcDbLine
 10
-1230.053921141569
 20
-263.3850023257565
 30
0.0
 11
-1230.053921141569
 21
-351.3849132474201
 31
0.0
  0
LINE
  5
232
330
1F
100
AcDbEntity
  8
0218_
  6
Continuous
 62
     3
370
     5
100
AcDbLine
 10
-1300.054275805315
 20
-263.3850023257565
 30
0.0
 11
-1300.054275805315
 21
-351.3849132474201
 31
0.0
  0
LINE
  5
233
330
1F
100
AcDbEntity
  8
0218_
  6
Continuous
 62
     3
370
     5
100
AcDbLine
 10
-1370.054630469061
 20
-263.3850023257565
 30
0.0
 11
-1370.054630469061
 21
-351.3849132474201
 31
0.0
  0
LINE
  5
234
330
1F
100
AcDbEntity
  8
0218_
  6
Continuous
 62
     3
370
     5
100
AcDbLine
 10
-723.5519036822153
 20
-251.3850369673315
 30
0.0
 11
-723.5519036822153
 21
-351.3849132474201
 31
0.0
  0
LINE
  5
235
330
1F
100
AcDbEntity
  8
0218_
  6
Continuous
 62
     3
370
     5
100
AcDbLine
 10
-1391.052992417435
 20
-251.3850369673315
 30
0.0
 11
-1421.220513301356
 21
-251.3850369673315
 31
0.0
  0
LINE
  5
236
330
1F
100
AcDbEntity
  8
0218_
  6
Continuous
 62
     3
370
     5
100
AcDbLine
 10
-723.5519036822153
 20
-351.3849132474201
 30
0.0
 11
-1421.220513301356
 21
-351.3849132474201
 31
0.0
  0
TEXT
  5
237
330
1F
100
AcDbEntity
  8
0216_
  6
Continuous
 62
     2
370
     5
100
AcDbText
 10
-1422.065433465104
 20
-117.3259714918677
 30
0.0
 40
30.48
  1
□350
 41
1.1
  7
ＭＳ ゴシック
100
AcDbText
  0
TEXT
  5
238
330
1F
100
AcDbEntity
  8
0216_
  6
Continuous
 62
     2
370
     5
100
AcDbText
 10
-1422.065433465104
 20
-3.362284627597276
 30
0.0
 40
30.48
  1
□400
 41
1.1
  7
ＭＳ ゴシック
100
AcDbText
  0
TEXT
  5
239
330
1F
100
AcDbEntity
  8
0216_
  6
Continuous
 62
     2
370
     5
100
AcDbText
 10
-1422.065433465104
 20
107.0866949642396
 30
0.0
 40
30.48
  1
□412
 41
1.1
  7
ＭＳ ゴシック
100
AcDbText
  0
LINE
  5
23A
330
1F
100
AcDbEntity
  8
0255_
  6
Continuous
 62
     7
370
     5
100
AcDbLine
 10
-615.5466470293833
 20
-1047.389736573394
 30
0.0
 11
-1190.547066646082
 21
-1047.389736573394
 31
0.0
  0
LINE
  5
23B
330
1F
100
AcDbEntity
  8
0216_
  6
Continuous
 62
     7
370
     5
100
AcDbLine
 10
-848.5517415575815
 20
-923.8856091719214
 30
0.0
 11
-448.5508737139536
 21
-923.8856091719214
 31
0.0
  0
LINE
  5
23C
330
1F
100
AcDbEntity
  8
0216_
  6
Continuous
 62
     7
370
     5
100
AcDbLine
 10
-448.5508737139536
 20
-568.7585606794897
 30
0.0
 11
-448.5508737139536
 21
-926.8846478682104
 31
0.0
  0
LINE
  5
23D
330
1F
100
AcDbEntity
  8
0216_
  6
Continuous
 62
     7
370
     5
100
AcDbLine
 10
-848.5517415575815
 20
-773.8856091719214
 30
0.0
 11
-848.5517415575815
 21
-926.8846478682104
 31
0.0
  0
LWPOLYLINE
  5
23E
330
1F
100
AcDbEntity
  8
0216_
  6
Continuous
 62
     7
370
     5
100
AcDbPolyline
 90
        4
 70
     1
 43
1.0
 10
-848.0517415575815
 20
-923.8856091719214
 42
0.4142135623731
 10
-848.5517415575815
 20
-923.3856091719214
 42
0.4142135623731
 10
-849.0517415575814
 20
-923.8856091719214
 42
0.4142135623731
 10
-848.5517415575815
 20
-924.3856091719214
 42
0.4142135623731
  0
LWPOLYLINE
  5
23F
330
1F
100
AcDbEntity
  8
0216_
  6
Continuous
 62
     7
370
     5
100
AcDbPolyline
 90
        4
 70
     1
 43
1.0
 10
-448.0508737139536
 20
-923.8856091719214
 42
0.4142135623731
 10
-448.5508737139536
 20
-923.3856091719214
 42
0.4142135623731
 10
-449.0508737139535
 20
-923.8856091719214
 42
0.4142135623731
 10
-448.5508737139536
 20
-924.3856091719214
 42
0.4142135623731
  0
TEXT
  5
240
330
1F
100
AcDbEntity
  8
0216_
  6
Continuous
 62
     2
370
     5
100
AcDbText
 10
-716.4201262764765
 20
-913.2453039961401
 30
0.0
 40
30.48
  1
75～80
 41
1.104166666666667
  7
ＭＳ ゴシック
100
AcDbText
  0
LINE
  5
241
330
1F
100
AcDbEntity
  8
0216_
  6
Continuous
 62
     7
370
     5
100
AcDbLine
 10
-133.319722133143
 20
-498.8855710249487
 30
0.0
 11
-133.319722133143
 21
-248.885396979386
 31
0.0
  0
LINE
  5
242
330
1F
100
AcDbEntity
  8
0216_
  6
Continuous
 62
     7
370
     5
100
AcDbLine
 10
-272.5222024493052
 20
-248.885396979386
 30
0.0
 11
-130.3191575579477
 21
-248.885396979386
 31
0.0
  0
LINE
  5
243
330
1F
100
AcDbEntity
  8
0216_
  6
Continuous
 62
     7
370
     5
100
AcDbLine
 10
-392.7729806475473
 20
-498.8855710249487
 30
0.0
 11
-130.3191575579477
 21
-498.8855710249487
 31
0.0
  0
LWPOLYLINE
  5
244
330
1F
100
AcDbEntity
  8
0216_
  6
Continuous
 62
     7
370
     5
100
AcDbPolyline
 90
        4
 70
     1
 43
1.0
 10
-132.819722133143
 20
-498.8855710249487
 42
0.4142135623731
 10
-133.319722133143
 20
-498.3855710249487
 42
0.4142135623731
 10
-133.819722133143
 20
-498.8855710249487
 42
0.4142135623731
 10
-133.319722133143
 20
-499.3855710249487
 42
0.4142135623731
  0
LWPOLYLINE
  5
245
330
1F
100
AcDbEntity
  8
0216_
  6
Continuous
 62
     7
370
     5
100
AcDbPolyline
 90
        4
 70
     1
 43
1.0
 10
-132.819722133143
 20
-248.885396979386
 42
0.4142135623731
 10
-133.319722133143
 20
-248.385396979386
 42
0.4142135623731
 10
-133.819722133143
 20
-248.885396979386
 42
0.4142135623731
 10
-133.319722133143
 20
-249.385396979386
 42
0.4142135623731
  0
TEXT
  5
246
330
1F
100
AcDbEntity
  8
0216_
  6
Continuous
 62
     2
370
     5
100
AcDbText
 10
-143.9599891619516
 20
-440.1348655524868
 30
0.0
 40
30.48
  1
40～50
 50
90.00000250447816
 41
1.104166666666666
  7
ＭＳ ゴシック
100
AcDbText
  0
LINE
  5
247
330
1F
100
AcDbEntity
  8
0216_
  6
Continuous
 62
     7
370
     5
100
AcDbLine
 10
-693.552261310084
 20
-386.8531384687964
 30
0.0
 11
-693.552261310084
 21
-471.7615285139624
 31
0.0
  0
LINE
  5
248
330
1F
100
AcDbEntity
  8
0216_
  6
Continuous
 62
     7
370
     5
100
AcDbLine
 10
-693.552261310084
 20
-468.7614598494116
 30
0.0
 11
-548.5523232989145
 21
-468.7614598494116
 31
0.0
  0
LINE
  5
249
330
1F
100
AcDbEntity
  8
0216_
  6
Continuous
 62
     7
370
     5
100
AcDbLine
 10
-548.5523232989145
 20
-393.7614598494116
 30
0.0
 11
-548.5523232989145
 21
-471.7615285139624
 31
0.0
  0
LWPOLYLINE
  5
24A
330
1F
100
AcDbEntity
  8
0216_
  6
Continuous
 62
     7
370
     5
100
AcDbPolyline
 90
        4
 70
     1
 43
1.0
 10
-693.052261310084
 20
-468.7614598494116
 42
0.4142135623731
 10
-693.552261310084
 20
-468.2614598494116
 42
0.4142135623731
 10
-694.0522613100838
 20
-468.7614598494116
 42
0.4142135623731
 10
-693.552261310084
 20
-469.2614598494116
 42
0.4142135623731
  0
LWPOLYLINE
  5
24B
330
1F
100
AcDbEntity
  8
0216_
  6
Continuous
 62
     7
370
     5
100
AcDbPolyline
 90
        4
 70
     1
 43
1.0
 10
-548.0523232989145
 20
-468.7614598494116
 42
0.4142135623731
 10
-548.5523232989145
 20
-468.2614598494116
 42
0.4142135623731
 10
-549.0523232989144
 20
-468.7614598494116
 42
0.4142135623731
 10
-548.5523232989145
 20
-469.2614598494116
 42
0.4142135623731
  0
TEXT
  5
24C
330
1F
100
AcDbEntity
  8
0216_
  6
Continuous
 62
     2
370
     5
100
AcDbText
 10
-669.5626554064585
 20
-458.1216887312476
 30
0.0
 40
30.48
  1
29
 41
1.0625
  7
ＭＳ ゴシック
100
AcDbText
  0
LINE
  5
24D
330
1F
100
AcDbEntity
  8
0216_
  6
Continuous
 62
     7
370
     5
100
AcDbLine
 10
-693.552261310084
 20
-468.7614598494116
 30
0.0
 11
-848.5517415575815
 21
-468.7614598494116
 31
0.0
  0
LWPOLYLINE
  5
24E
330
1F
100
AcDbEntity
  8
0216_
  6
Continuous
 62
     7
370
     5
100
AcDbPolyline
 90
        4
 70
     1
 43
1.0
 10
-693.052261310084
 20
-468.7614598494116
 42
0.4142135623731
 10
-693.552261310084
 20
-468.2614598494116
 42
0.4142135623731
 10
-694.0522613100838
 20
-468.7614598494116
 42
0.4142135623731
 10
-693.552261310084
 20
-469.2614598494116
 42
0.4142135623731
  0
LWPOLYLINE
  5
24F
330
1F
100
AcDbEntity
  8
0216_
  6
Continuous
 62
     7
370
     5
100
AcDbPolyline
 90
        4
 70
     1
 43
1.0
 10
-848.0517415575815
 20
-468.7614598494116
 42
0.4142135623731
 10
-848.5517415575815
 20
-468.2614598494116
 42
0.4142135623731
 10
-849.0517415575814
 20
-468.7614598494116
 42
0.4142135623731
 10
-848.5517415575815
 20
-469.2614598494116
 42
0.4142135623731
  0
LINE
  5
250
330
1F
100
AcDbEntity
  8
0216_
  6
Continuous
 62
     7
370
     5
100
AcDbLine
 10
-536.725483851893
 20
-383.8852753859106
 30
0.0
 11
-443.912016737531
 21
-383.8852753859106
 31
0.0
  0
LINE
  5
251
330
1F
100
AcDbEntity
  8
0216_
  6
Continuous
 62
     7
370
     5
100
AcDbLine
 10
-536.725483851893
 20
-333.8855424147192
 30
0.0
 11
-443.912016737531
 21
-333.8855424147192
 31
0.0
  0
LINE
  5
252
330
1F
100
AcDbEntity
  8
0216_
  6
Continuous
 62
     7
370
     5
100
AcDbLine
 10
-446.9115704179509
 20
-333.8855424147192
 30
0.0
 11
-446.9115704179509
 21
-248.885396979386
 31
0.0
  0
LINE
  5
253
330
1F
100
AcDbEntity
  8
0216_
  6
Continuous
 62
     7
370
     5
100
AcDbLine
 10
-446.9115704179509
 20
-383.8852753859106
 30
0.0
 11
-446.9115704179509
 21
-333.8855424147192
 31
0.0
  0
LWPOLYLINE
  5
254
330
1F
100
AcDbEntity
  8
0216_
  6
Continuous
 62
     7
370
     5
100
AcDbPolyline
 90
        4
 70
     1
 43
1.0
 10
-446.4115704179509
 20
-248.885396979386
 42
0.4142135623731
 10
-446.9115704179509
 20
-248.385396979386
 42
0.4142135623731
 10
-447.4115704179508
 20
-248.885396979386
 42
0.4142135623731
 10
-446.9115704179509
 20
-249.385396979386
 42
0.4142135623731
  0
LWPOLYLINE
  5
255
330
1F
100
AcDbEntity
  8
0216_
  6
Continuous
 62
     7
370
     5
100
AcDbPolyline
 90
        4
 70
     1
 43
1.0
 10
-446.4115704179509
 20
-333.8855424147192
 42
0.4142135623731
 10
-446.9115704179509
 20
-333.3855424147192
 42
0.4142135623731
 10
-447.4115704179508
 20
-333.8855424147192
 42
0.4142135623731
 10
-446.9115704179509
 20
-334.3855424147192
 42
0.4142135623731
  0
LWPOLYLINE
  5
256
330
1F
100
AcDbEntity
  8
0216_
  6
Continuous
 62
     7
370
     5
100
AcDbPolyline
 90
        4
 70
     1
 43
1.0
 10
-446.4115704179509
 20
-383.8852753859106
 42
0.4142135623731
 10
-446.9115704179509
 20
-383.3852753859106
 42
0.4142135623731
 10
-447.4115704179508
 20
-383.8852753859106
 42
0.4142135623731
 10
-446.9115704179509
 20
-384.3852753859106
 42
0.4142135623731
  0
TEXT
  5
257
330
1F
100
AcDbEntity
  8
0216_
  6
Continuous
 62
     2
370
     5
100
AcDbText
 10
-457.5518565202458
 20
-380.1350753608364
 30
0.0
 40
30.48
  1
10
 50
90.00000250447819
 41
1.062500000000001
  7
ＭＳ ゴシック
100
AcDbText
  0
TEXT
  5
258
330
1F
100
AcDbEntity
  8
0216_
  6
Continuous
 62
     2
370
     5
100
AcDbText
 10
-457.5518565202458
 20
-312.6353805366177
 30
0.0
 40
30.48
  1
17
 50
90.00000250447819
 41
1.062500000000001
  7
ＭＳ ゴシック
100
AcDbText
  0
LINE
  5
259
330
1F
100
AcDbEntity
  8
0226_下階梁情報
  6
Continuous
 62
     7
370
     5
100
AcDbLine
 10
-663.9483598525179
 20
-403.5351144043857
 30
0.0
 11
-663.9483598525179
 21
-402.0348511902744
 31
0.0
  0
LINE
  5
25A
330
1F
100
AcDbEntity
  8
0226_下階梁情報
  6
Continuous
 62
     7
370
     5
100
AcDbLine
 10
-663.9483598525179
 20
-402.0348511902744
 30
0.0
 11
-662.4485734755648
 21
-402.0348511902744
 31
0.0
  0
LINE
  5
25B
330
1F
100
AcDbEntity
  8
0226_下階梁情報
  6
Continuous
 62
     7
370
     5
100
AcDbLine
 10
-662.4485734755648
 20
-402.0348511902744
 30
0.0
 11
-662.4485734755648
 21
-403.5351144043857
 31
0.0
  0
LINE
  5
25C
330
1F
100
AcDbEntity
  8
0226_下階梁情報
  6
Continuous
 62
     7
370
     5
100
AcDbLine
 10
-662.4485734755648
 20
-403.5351144043857
 30
0.0
 11
-663.9483598525179
 21
-403.5351144043857
 31
0.0
  0
LINE
  5
25D
330
1F
100
AcDbEntity
  8
0226_下階梁情報
  6
Continuous
 62
     7
370
     5
100
AcDbLine
 10
-629.6693519408358
 20
-398.0260049073154
 30
0.0
 11
-629.6693519408358
 21
-396.5257226197177
 31
0.0
  0
LINE
  5
25E
330
1F
100
AcDbEntity
  8
0226_下階梁情報
  6
Continuous
 62
     7
370
     5
100
AcDbLine
 10
-629.6693519408358
 20
-396.5257226197177
 30
0.0
 11
-628.1695655638827
 21
-396.5257226197177
 31
0.0
  0
LINE
  5
25F
330
1F
100
AcDbEntity
  8
0226_下階梁情報
  6
Continuous
 62
     7
370
     5
100
AcDbLine
 10
-628.1695655638827
 20
-396.5257226197177
 30
0.0
 11
-628.1695655638827
 21
-398.0260049073154
 31
0.0
  0
LINE
  5
260
330
1F
100
AcDbEntity
  8
0226_下階梁情報
  6
Continuous
 62
     7
370
     5
100
AcDbLine
 10
-628.1695655638827
 20
-398.0260049073154
 30
0.0
 11
-629.6693519408358
 21
-398.0260049073154
 31
0.0
  0
LINE
  5
261
330
1F
100
AcDbEntity
  8
0226_下階梁情報
  6
Continuous
 62
     7
370
     5
100
AcDbLine
 10
-737.0656059444918
 20
-410.695070484418
 30
0.0
 11
-737.0656059444918
 21
-409.1947881968204
 31
0.0
  0
LINE
  5
262
330
1F
100
AcDbEntity
  8
0226_下階梁情報
  6
Continuous
 62
     7
370
     5
100
AcDbLine
 10
-737.0656059444918
 20
-409.1947881968204
 30
0.0
 11
-735.5653266371264
 21
-409.1947881968204
 31
0.0
  0
LINE
  5
263
330
1F
100
AcDbEntity
  8
0226_下階梁情報
  6
Continuous
 62
     7
370
     5
100
AcDbLine
 10
-735.5653266371264
 20
-409.1947881968204
 30
0.0
 11
-735.5653266371264
 21
-410.695070484418
 31
0.0
  0
LINE
  5
264
330
1F
100
AcDbEntity
  8
0226_下階梁情報
  6
Continuous
 62
     7
370
     5
100
AcDbLine
 10
-735.5653266371264
 20
-410.695070484418
 30
0.0
 11
-737.0656059444918
 21
-410.695070484418
 31
0.0
  0
LINE
  5
265
330
1F
100
AcDbEntity
  8
0226_下階梁情報
  6
Continuous
 62
     7
370
     5
100
AcDbLine
 10
-786.4301489056124
 20
-398.8479177744571
 30
0.0
 11
-786.4301489056124
 21
-397.3476354868594
 31
0.0
  0
LINE
  5
266
330
1F
100
AcDbEntity
  8
0226_下階梁情報
  6
Continuous
 62
     7
370
     5
100
AcDbLine
 10
-786.4301489056124
 20
-397.3476354868594
 30
0.0
 11
-784.9298713863864
 21
-397.3476354868594
 31
0.0
  0
LINE
  5
267
330
1F
100
AcDbEntity
  8
0226_下階梁情報
  6
Continuous
 62
     7
370
     5
100
AcDbLine
 10
-784.9298713863864
 20
-397.3476354868594
 30
0.0
 11
-784.9298713863864
 21
-398.8479177744571
 31
0.0
  0
LINE
  5
268
330
1F
100
AcDbEntity
  8
0226_下階梁情報
  6
Continuous
 62
     7
370
     5
100
AcDbLine
 10
-784.9298713863864
 20
-398.8479177744571
 30
0.0
 11
-786.4301489056124
 21
-398.8479177744571
 31
0.0
  0
TEXT
  5
269
330
1F
100
AcDbEntity
  8
0242_
  6
Continuous
 62
     7
370
     5
100
AcDbText
 10
-430.6062907867176
 20
-218.751791756684
 30
0.0
 40
22.86
  1
ｔ＝２．３（ＳＰＨＣ）
 41
1.151515151515152
  7
ＭＳ ゴシック
100
AcDbText
  0
LINE
  5
26A
330
1F
100
AcDbEntity
  8
0242_
  6
Continuous
 62
     7
370
     5
100
AcDbLine
 10
-556.9567699126942
 20
-333.8840546827856
 30
0.0
 11
-431.0482425384266
 21
-189.2215409498754
 31
0.0
  0
LINE
  5
26B
330
1F
100
AcDbEntity
  8
0242_
  6
Continuous
 62
     7
370
     5
100
AcDbLine
 10
-556.9577617339833
 20
-333.8850465040747
 30
0.0
 11
-543.1470651321156
 21
-313.0456271391455
 31
0.0
  0
LINE
  5
26C
330
1F
100
AcDbEntity
  8
0242_
  6
Continuous
 62
     7
370
     5
100
AcDbLine
 10
-556.9577617339833
 20
-333.8850465040747
 30
0.0
 11
-538.2230968169911
 21
-317.3309388380591
 31
0.0
  0
LINE
  5
26D
330
1F
100
AcDbEntity
  8
0242_
  6
Continuous
 62
     7
370
     5
100
AcDbLine
 10
-698.8427033649566
 20
-248.885396979386
 30
0.0
 11
-685.0320091472747
 21
-228.0469714101497
 31
0.0
  0
LINE
  5
26E
330
1F
100
AcDbEntity
  8
0242_
  6
Continuous
 62
     7
370
     5
100
AcDbLine
 10
-698.8427033649566
 20
-248.885396979386
 30
0.0
 11
-680.1080408321502
 21
-232.3312900956813
 31
0.0
  0
LINE
  5
26F
330
1F
100
AcDbEntity
  8
0242_
  6
Continuous
 62
     7
370
     5
100
AcDbLine
 10
-431.0482425384266
 20
-189.2215409498755
 30
0.0
 11
-73.43076081015667
 21
-189.2215409498755
 31
0.0
  0
LINE
  5
270
330
1F
100
AcDbEntity
  8
0242_
  6
Continuous
 62
     7
370
     5
100
AcDbLine
 10
-560.0501832537485
 20
-411.6943631341486
 30
0.0
 11
-434.1416558794809
 21
-556.3568768670588
 31
0.0
  0
LINE
  5
271
330
1F
100
AcDbEntity
  8
0242_
  6
Continuous
 62
     7
370
     5
100
AcDbLine
 10
-560.0511750750376
 20
-411.6933713128595
 30
0.0
 11
-546.2404784731699
 21
-432.5327906777887
 31
0.0
  0
LINE
  5
272
330
1F
100
AcDbEntity
  8
0242_
  6
Continuous
 62
     7
370
     5
100
AcDbLine
 10
-560.0511750750376
 20
-411.6933713128595
 30
0.0
 11
-541.3165101580454
 21
-428.2474789788752
 31
0.0
  0
LINE
  5
273
330
1F
100
AcDbEntity
  8
0226_下階梁情報
  6
Continuous
 62
     7
370
     5
100
AcDbLine
 10
-518.6406735169016
 20
-491.1313431444891
 30
0.0
 11
-518.6406735169016
 21
-489.6310608568914
 31
0.0
  0
LINE
  5
274
330
1F
100
AcDbEntity
  8
0226_下階梁情報
  6
Continuous
 62
     7
370
     5
100
AcDbLine
 10
-518.6406735169016
 20
-489.6310608568914
 30
0.0
 11
-517.140391229304
 21
-489.6310608568914
 31
0.0
  0
LINE
  5
275
330
1F
100
AcDbEntity
  8
0226_下階梁情報
  6
Continuous
 62
     7
370
     5
100
AcDbLine
 10
-517.140391229304
 20
-489.6310608568914
 30
0.0
 11
-517.140391229304
 21
-491.1313431444891
 31
0.0
  0
LINE
  5
276
330
1F
100
AcDbEntity
  8
0226_下階梁情報
  6
Continuous
 62
     7
370
     5
100
AcDbLine
 10
-517.140391229304
 20
-491.1313431444891
 30
0.0
 11
-518.6406735169016
 21
-491.1313431444891
 31
0.0
  0
LINE
  5
277
330
1F
100
AcDbEntity
  8
0226_下階梁情報
  6
Continuous
 62
     7
370
     5
100
AcDbLine
 10
-464.3637815706498
 20
-441.3777528194702
 30
0.0
 11
-464.3637815706498
 21
-439.8774705318725
 31
0.0
  0
LINE
  5
278
330
1F
100
AcDbEntity
  8
0226_下階梁情報
  6
Continuous
 62
     7
370
     5
100
AcDbLine
 10
-464.3637815706498
 20
-439.8774705318725
 30
0.0
 11
-462.8639951936967
 21
-439.8774705318725
 31
0.0
  0
LINE
  5
279
330
1F
100
AcDbEntity
  8
0226_下階梁情報
  6
Continuous
 62
     7
370
     5
100
AcDbLine
 10
-462.8639951936967
 20
-439.8774705318725
 30
0.0
 11
-462.8639951936967
 21
-441.3777528194702
 31
0.0
  0
LINE
  5
27A
330
1F
100
AcDbEntity
  8
0226_下階梁情報
  6
Continuous
 62
     7
370
     5
100
AcDbLine
 10
-462.8639951936967
 20
-441.3777528194702
 30
0.0
 11
-464.3637815706498
 21
-441.3777528194702
 31
0.0
  0
TEXT
  5
27B
330
1F
100
AcDbEntity
  8
0242_
  6
Continuous
 62
     7
370
     5
100
AcDbText
 10
-433.699704127772
 20
-548.3666260602503
 30
0.0
 40
22.86
  1
差筋φ9程度
 41
1.136363636363636
  7
ＭＳ ゴシック
100
AcDbText
  0
LINE
  5
27C
330
1F
100
AcDbEntity
  8
0242_
  6
Continuous
 62
     7
370
     5
100
AcDbLine
 10
-434.1416558794809
 20
-556.3568768670588
 30
0.0
 11
-244.0129813526948
 21
-556.3568768670588
 31
0.0
  0
LINE
  5
27D
330
1F
100
AcDbEntity
  8
0218_
  6
Continuous
 62
     3
370
     5
100
AcDbLine
 10
-1441.220442093673
 20
-316.3851099620794
 30
0.0
 11
-1401.220258988205
 21
-286.3844690929388
 31
0.0
  0
LINE
  5
27E
330
1F
100
AcDbEntity
  8
0218_
  6
Continuous
 62
     3
370
     5
100
AcDbLine
 10
-1421.220513301356
 20
-286.3844690929388
 30
0.0
 11
-1401.220258988205
 21
-286.3844690929388
 31
0.0
  0
LINE
  5
27F
330
1F
100
AcDbEntity
  8
0218_
  6
Continuous
 62
     3
370
     5
100
AcDbLine
 10
-1421.220513301356
 20
-286.3844690929388
 30
0.0
 11
-1421.220513301356
 21
-201.3846658075976
 31
0.0
  0
LINE
  5
280
330
1F
100
AcDbEntity
  8
0218_
  6
Continuous
 62
     3
370
     5
100
AcDbLine
 10
-1441.220442093673
 20
-316.3851099620794
 30
0.0
 11
-1421.220513301356
 21
-316.3851099620794
 31
0.0
  0
LINE
  5
281
330
1F
100
AcDbEntity
  8
0218_
  6
Continuous
 62
     3
370
     5
100
AcDbLine
 10
-1421.220513301356
 20
-401.3849132474206
 30
0.0
 11
-1421.220513301356
 21
-316.3851099620794
 31
0.0
  0
TEXT
  5
282
330
1F
100
AcDbEntity
  8
0242_
  6
Continuous
 62
     7
370
     5
100
AcDbText
 10
-430.6062907867176
 20
-177.5277996473853
 30
0.0
 40
22.86
  1
溶接用アンカー
 41
1.142857142857143
  7
ＭＳ ゴシック
100
AcDbText
  0
LINE
  5
283
330
1F
100
AcDbEntity
  8
0216_
  6
Continuous
 62
     7
370
     5
100
AcDbLine
 10
-1541.220513301356
 20
-351.3849132474201
 30
0.0
 11
-1541.220513301356
 21
-251.3850369673315
 31
0.0
  0
LWPOLYLINE
  5
284
330
1F
100
AcDbEntity
  8
0216_
  6
Continuous
 62
     7
370
     5
100
AcDbPolyline
 90
        4
 70
     1
 43
1.0
 10
-1540.720513301356
 20
-351.3849132474201
 42
0.4142135623731
 10
-1541.220513301356
 20
-350.8849132474201
 42
0.4142135623731
 10
-1541.720513301356
 20
-351.3849132474201
 42
0.4142135623731
 10
-1541.220513301356
 20
-351.8849132474201
 42
0.4142135623731
  0
LWPOLYLINE
  5
285
330
1F
100
AcDbEntity
  8
0216_
  6
Continuous
 62
     7
370
     5
100
AcDbPolyline
 90
        4
 70
     1
 43
1.0
 10
-1540.720513301356
 20
-251.3850369673315
 42
0.4142135623731
 10
-1541.220513301356
 20
-250.8850369673315
 42
0.4142135623731
 10
-1541.720513301356
 20
-251.3850369673315
 42
0.4142135623731
 10
-1541.220513301356
 20
-251.8850369673315
 42
0.4142135623731
  0
LINE
  5
286
330
1F
100
AcDbEntity
  8
0216_
  6
Continuous
 62
     7
370
     5
100
AcDbLine
 10
-1544.220513301356
 20
-351.3849132474201
 30
0.0
 11
-1441.220513301356
 21
-351.3849132474201
 31
0.0
  0
LINE
  5
287
330
1F
100
AcDbEntity
  8
0216_
  6
Continuous
 62
     7
370
     5
100
AcDbLine
 10
-1544.220513301356
 20
-251.3850369673315
 30
0.0
 11
-1441.220513301356
 21
-251.3850369673315
 31
0.0
  0
TEXT
  5
288
330
1F
100
AcDbEntity
  8
0216_
  6
Continuous
 62
     2
370
   211
100
AcDbText
 10
-1556.860513301356
 20
-322.6349751073758
 30
0.0
 40
30.48
  1
20
 50
90.0
 41
1.0625
  7
ＭＳ ゴシック
100
AcDbText
  0
TEXT
  5
289
330
1F
100
AcDbEntity
  8
0216_
  6
Continuous
 62
     2
370
   211
100
AcDbText
 10
-795.860980877868
 20
-458.1214598494116
 30
0.0
 40
30.48
  1
31
 41
1.0625
  7
ＭＳ ゴシック
100
AcDbText
  0
LINE
  5
28A
330
1F
100
AcDbEntity
  8
0242_
  6
Continuous
 62
     7
370
     5
100
AcDbLine
 10
-510.7880798513265
 20
-87.60180120562025
 30
0.0
 11
-251.406709306893
 21
-87.60180120562023
 31
0.0
  0
LINE
  5
28B
330
1F
100
AcDbEntity
  8
0242_
  6
Continuous
 62
     7
370
     5
100
AcDbLine
 10
-510.7880798513265
 20
-87.60180120562025
 30
0.0
 11
-745.6354436449839
 21
-357.4267544966284
 31
0.0
  0
TEXT
  5
28C
330
1F
100
AcDbEntity
  8
0242_
  6
Continuous
 62
     7
370
     5
100
AcDbText
 10
-509.9556938344808
 20
-79.85000593279311
 30
0.0
 40
22.86
  1
クッション材
 41
1.138888888888889
  7
ＭＳ ゴシック
100
AcDbText
  0
TEXT
  5
28D
330
1F
100
AcDbEntity
  8
0242_
  6
Continuous
 62
     7
370
     5
100
AcDbText
 10
-532.1332545095938
 20
-118.2527821243279
 30
0.0
 40
22.86
  1
（軟質塩化ビニル）
 41
1.148148148148148
  7
ＭＳ ゴシック
100
AcDbText
  0
LINE
  5
28E
330
1F
100
AcDbEntity
  8
0242_
  6
Continuous
 62
     7
370
     5
100
AcDbLine
 10
-506.2584904706246
 20
-27.61727797390905
 30
0.0
 11
-57.47032442448216
 21
-27.61727797390902
 31
0.0
  0
TEXT
  5
28F
330
1F
100
AcDbEntity
  8
0242_
  6
Continuous
 62
     7
370
     5
100
AcDbText
 10
-506.6201809918648
 20
-18.62930144192662
 30
0.0
 40
22.86
  1
ステンレス製受枠ＳＦ２０Ｂ
 41
1.153846153846153
  7
ＭＳ ゴシック
100
AcDbText
  0
LINE
  5
290
330
1F
100
AcDbEntity
  8
0242_
  6
Continuous
 62
     7
370
     5
100
AcDbLine
 10
-506.2584904706246
 20
-27.61727797390905
 30
0.0
 11
-698.8427033649566
 21
-248.885396979386
 31
0.0
  0
LINE
  5
291
330
1F
100
AcDbEntity
  8
0242_
  6
Continuous
 62
     7
370
     5
100
AcDbLine
 10
-532.2162054947597
 20
38.09422717659971
 30
0.0
 11
-784.1690083368088
 21
-251.3850369673315
 31
0.0
  0
TEXT
  5
292
330
1F
100
AcDbEntity
  8
0242_
  6
Continuous
 62
     2
370
     5
100
AcDbText
 10
-1159.296850690466
 20
-1029.250041749179
 30
0.0
 40
30.48
  1
A断面詳細図　Ｓ＝１：２
 50
359.9999375525338
 41
1.114130434782608
  7
ＭＳ ゴシック
100
AcDbText
  0
TEXT
  5
293
330
1F
100
AcDbEntity
  8
0216_
  6
Continuous
 62
     2
370
     5
100
AcDbText
 10
-731.5762826967987
 20
-8.574531443649889
 30
0.0
 40
30.48
  1
1
 41
0.9999999999999998
  7
ＭＳ ゴシック
100
AcDbText
  0
ARC
  5
294
330
1F
100
AcDbEntity
  8
0218_
  6
Continuous
 62
     3
370
     5
100
AcDbCircle
 10
-741.0409503460669
 20
-293.194570988657
 30
0.0
 40
15.00000019331236
100
AcDbArc
 50
311.7518768310547
 51
357.7665100097656
  0
ARC
  5
295
330
1F
100
AcDbEntity
  8
0218_
  6
Continuous
 62
     3
370
     5
100
AcDbCircle
 10
-751.037024300881
 20
-294.656940340431
 30
0.0
 40
25.00000322187269
100
AcDbArc
 50
2.014007568359375
 51
36.92071533203126
  0
ARC
  5
296
330
1F
100
AcDbEntity
  8
0218_
  6
Continuous
 62
     3
370
     5
100
AcDbCircle
 10
-741.0409503460669
 20
-315.5755029460049
 30
0.0
 40
15.00000019331236
100
AcDbArc
 50
2.233489990234375
 51
48.24812316894532
  0
ARC
  5
297
330
1F
100
AcDbEntity
  8
0218_
  6
Continuous
 62
     3
370
     5
100
AcDbCircle
 10
-751.037024300881
 20
-314.1131335942315
 30
0.0
 40
25.00000322187269
100
AcDbArc
 50
323.0792846679688
 51
357.9859924316406
  0
LINE
  5
298
330
1F
100
AcDbEntity
  8
0218_
  6
Continuous
 62
     3
370
     5
100
AcDbLine
 10
-731.052299585932
 20
-279.6364770670987
 30
0.0
 11
-723.5519036822153
 21
-289.3849874793664
 31
0.0
  0
LINE
  5
299
330
1F
100
AcDbEntity
  8
0218_
  6
Continuous
 62
     3
370
     5
100
AcDbLine
 10
-731.052299585932
 20
-329.1335968675633
 30
0.0
 11
-723.5519036822153
 21
-319.3850864552955
 31
0.0
  0
LINE
  5
29A
330
1F
100
AcDbEntity
  8
0218_
  6
Continuous
 62
     3
370
     5
100
AcDbLine
 10
-731.0503336290402
 20
-329.1335968675633
 30
0.0
 11
-740.0514384953486
 21
-329.1335968675633
 31
0.0
  0
LINE
  5
29B
330
1F
100
AcDbEntity
  8
0218_
  6
Continuous
 62
     3
370
     5
100
AcDbLine
 10
-731.052282918451
 20
-304.3850369673315
 30
0.0
 11
-740.0514384953486
 21
-304.3850369673315
 31
0.0
  0
LINE
  5
29C
330
1F
100
AcDbEntity
  8
0218_
  6
Continuous
 62
     3
370
     5
100
AcDbLine
 10
-731.0503336290402
 20
-279.6364770670987
 30
0.0
 11
-740.0514384953486
 21
-279.6364770670987
 31
0.0
  0
LINE
  5
29D
330
1F
100
AcDbEntity
  8
0218_
  6
Continuous
 62
     3
370
     5
100
AcDbLine
 10
-747.0515110776965
 20
-329.1335968675633
 30
0.0
 11
-810.0517931590945
 21
-329.1335968675633
 31
0.0
  0
LINE
  5
29E
330
1F
100
AcDbEntity
  8
0218_
  6
Continuous
 62
     3
370
     5
100
AcDbLine
 10
-747.0515110776965
 20
-279.6364770670987
 30
0.0
 11
-810.0517931590945
 21
-279.6364770670987
 31
0.0
  0
LINE
  5
29F
330
1F
100
AcDbEntity
  8
0218_
  6
Continuous
 62
     3
370
     5
100
AcDbLine
 10
-747.0515110776965
 20
-304.3850369673315
 30
0.0
 11
-810.0517931590945
 21
-304.3850369673315
 31
0.0
  0
LINE
  5
2A0
330
1F
100
AcDbEntity
  8
0218_
  6
Continuous
 62
     3
370
     5
100
AcDbLine
 10
-880.0521478228403
 20
-329.1335968675633
 30
0.0
 11
-817.0518657414424
 21
-329.1335968675633
 31
0.0
  0
LINE
  5
2A1
330
1F
100
AcDbEntity
  8
0218_
  6
Continuous
 62
     3
370
     5
100
AcDbLine
 10
-880.0521478228403
 20
-279.6364770670987
 30
0.0
 11
-817.0518657414424
 21
-279.6364770670987
 31
0.0
  0
LINE
  5
2A2
330
1F
100
AcDbEntity
  8
0218_
  6
Continuous
 62
     3
370
     5
100
AcDbLine
 10
-880.0521478228403
 20
-304.3850369673315
 30
0.0
 11
-817.0518657414424
 21
-304.3850369673315
 31
0.0
  0
LINE
  5
2A3
330
1F
100
AcDbEntity
  8
0218_
  6
Continuous
 62
     3
370
     5
100
AcDbLine
 10
-950.0525024865861
 20
-329.1335968675633
 30
0.0
 11
-887.0522204051882
 21
-329.1335968675633
 31
0.0
  0
LINE
  5
2A4
330
1F
100
AcDbEntity
  8
0218_
  6
Continuous
 62
     3
370
     5
100
AcDbLine
 10
-950.0525024865861
 20
-279.6364770670987
 30
0.0
 11
-887.0522204051882
 21
-279.6364770670987
 31
0.0
  0
LINE
  5
2A5
330
1F
100
AcDbEntity
  8
0218_
  6
Continuous
 62
     3
370
     5
100
AcDbLine
 10
-950.0525024865861
 20
-304.3850369673315
 30
0.0
 11
-887.0522204051882
 21
-304.3850369673315
 31
0.0
  0
LINE
  5
2A6
330
1F
100
AcDbEntity
  8
0218_
  6
Continuous
 62
     3
370
     5
100
AcDbLine
 10
-1020.052857150332
 20
-329.1335968675633
 30
0.0
 11
-957.0525750689341
 21
-329.1335968675633
 31
0.0
  0
LINE
  5
2A7
330
1F
100
AcDbEntity
  8
0218_
  6
Continuous
 62
     3
370
     5
100
AcDbLine
 10
-1020.052857150332
 20
-279.6364770670987
 30
0.0
 11
-957.0525750689341
 21
-279.6364770670987
 31
0.0
  0
LINE
  5
2A8
330
1F
100
AcDbEntity
  8
0218_
  6
Continuous
 62
     3
370
     5
100
AcDbLine
 10
-1020.052857150332
 20
-304.3850369673315
 30
0.0
 11
-957.0525750689341
 21
-304.3850369673315
 31
0.0
  0
LINE
  5
2A9
330
1F
100
AcDbEntity
  8
0218_
  6
Continuous
 62
     3
370
     5
100
AcDbLine
 10
-1090.053211814078
 20
-329.1335968675633
 30
0.0
 11
-1027.05292973268
 21
-329.1335968675633
 31
0.0
  0
LINE
  5
2AA
330
1F
100
AcDbEntity
  8
0218_
  6
Continuous
 62
     3
370
     5
100
AcDbLine
 10
-1090.053211814078
 20
-279.6364770670987
 30
0.0
 11
-1027.05292973268
 21
-279.6364770670987
 31
0.0
  0
LINE
  5
2AB
330
1F
100
AcDbEntity
  8
0218_
  6
Continuous
 62
     3
370
     5
100
AcDbLine
 10
-1090.053211814078
 20
-304.3850369673315
 30
0.0
 11
-1027.05292973268
 21
-304.3850369673315
 31
0.0
  0
LINE
  5
2AC
330
1F
100
AcDbEntity
  8
0218_
  6
Continuous
 62
     3
370
     5
100
AcDbLine
 10
-1160.053566477823
 20
-329.1335968675633
 30
0.0
 11
-1097.053284396426
 21
-329.1335968675633
 31
0.0
  0
LINE
  5
2AD
330
1F
100
AcDbEntity
  8
0218_
  6
Continuous
 62
     3
370
     5
100
AcDbLine
 10
-1160.053566477823
 20
-279.6364770670987
 30
0.0
 11
-1097.053284396426
 21
-279.6364770670987
 31
0.0
  0
LINE
  5
2AE
330
1F
100
AcDbEntity
  8
0218_
  6
Continuous
 62
     3
370
     5
100
AcDbLine
 10
-1160.053566477823
 20
-304.3850369673315
 30
0.0
 11
-1097.053284396426
 21
-304.3850369673315
 31
0.0
  0
LINE
  5
2AF
330
1F
100
AcDbEntity
  8
0218_
  6
Continuous
 62
     3
370
     5
100
AcDbLine
 10
-1230.053921141569
 20
-329.1335968675633
 30
0.0
 11
-1167.053639060171
 21
-329.1335968675633
 31
0.0
  0
LINE
  5
2B0
330
1F
100
AcDbEntity
  8
0218_
  6
Continuous
 62
     3
370
     5
100
AcDbLine
 10
-1230.053921141569
 20
-279.6364770670987
 30
0.0
 11
-1167.053639060171
 21
-279.6364770670987
 31
0.0
  0
LINE
  5
2B1
330
1F
100
AcDbEntity
  8
0218_
  6
Continuous
 62
     3
370
     5
100
AcDbLine
 10
-1230.053921141569
 20
-304.3850369673315
 30
0.0
 11
-1167.053639060171
 21
-304.3850369673315
 31
0.0
  0
LINE
  5
2B2
330
1F
100
AcDbEntity
  8
0218_
  6
Continuous
 62
     3
370
     5
100
AcDbLine
 10
-1300.054275805315
 20
-329.1335968675633
 30
0.0
 11
-1237.053993723917
 21
-329.1335968675633
 31
0.0
  0
LINE
  5
2B3
330
1F
100
AcDbEntity
  8
0218_
  6
Continuous
 62
     3
370
     5
100
AcDbLine
 10
-1300.054275805315
 20
-279.6364770670987
 30
0.0
 11
-1237.053993723917
 21
-279.6364770670987
 31
0.0
  0
LINE
  5
2B4
330
1F
100
AcDbEntity
  8
0218_
  6
Continuous
 62
     3
370
     5
100
AcDbLine
 10
-1300.054275805315
 20
-304.3850369673315
 30
0.0
 11
-1237.053993723917
 21
-304.3850369673315
 31
0.0
  0
LINE
  5
2B5
330
1F
100
AcDbEntity
  8
0218_
  6
Continuous
 62
     3
370
     5
100
AcDbLine
 10
-1370.054630469061
 20
-329.1335968675633
 30
0.0
 11
-1307.054348387663
 21
-329.1335968675633
 31
0.0
  0
LINE
  5
2B6
330
1F
100
AcDbEntity
  8
0218_
  6
Continuous
 62
     3
370
     5
100
AcDbLine
 10
-1370.054630469061
 20
-279.6364770670987
 30
0.0
 11
-1307.054348387663
 21
-279.6364770670987
 31
0.0
  0
LINE
  5
2B7
330
1F
100
AcDbEntity
  8
0218_
  6
Continuous
 62
     3
370
     5
100
AcDbLine
 10
-1370.054630469061
 20
-304.3850369673315
 30
0.0
 11
-1307.054348387663
 21
-304.3850369673315
 31
0.0
  0
LINE
  5
2B8
330
1F
100
AcDbEntity
  8
0218_
  6
Continuous
 62
     3
370
     5
100
AcDbLine
 10
-1421.220513301356
 20
-329.1335968675633
 30
0.0
 11
-1377.054703051409
 21
-329.1335968675633
 31
0.0
  0
LINE
  5
2B9
330
1F
100
AcDbEntity
  8
0218_
  6
Continuous
 62
     3
370
     5
100
AcDbLine
 10
-1421.220513301356
 20
-279.6364770670987
 30
0.0
 11
-1377.054703051409
 21
-279.6364770670987
 31
0.0
  0
LINE
  5
2BA
330
1F
100
AcDbEntity
  8
0218_
  6
Continuous
 62
     3
370
     5
100
AcDbLine
 10
-1425.220613317927
 20
-304.3850369673315
 30
0.0
 11
-1377.054703051409
 21
-304.3850369673315
 31
0.0
  0
TEXT
  5
2BB
330
1F
100
AcDbEntity
  8
0216_
  6
Continuous
 62
     2
370
     5
100
AcDbText
 10
-671.2283183470265
 20
-8.574531443649889
 30
0.0
 40
30.48
  1
5
 41
0.9999999999999998
  7
ＭＳ ゴシック
100
AcDbText
  0
LINE
  5
2BC
330
1F
100
AcDbEntity
  8
0216_
  6
Continuous
 62
     7
370
     5
100
AcDbLine
 10
-1421.220513301356
 20
-19.21382572465575
 30
0.0
 11
-642.4709487325141
 21
-19.21382572465575
 31
0.0
  0
TEXT
  5
2BD
330
1F
100
AcDbEntity
  8
0018_躯　寸法（
  6
Continuous
 62
     2
370
     5
100
AcDbText
 10
-845.3997081828237
 20
-1330.761212986856
 30
0.0
 40
30.48
  1
ステンレス製　縦目タイプ　細目プレーンタイプ　グレーチング（すきま6mm）
 41
0.7742957746478872
  7
ＭＳ ゴシック
100
AcDbText
  0
TEXT
  5
2BE
330
1F
100
AcDbEntity
  8
0013_躯　下り壁
  6
Continuous
 62
     2
370
     5
100
AcDbText
 10
-845.9896769380549
 20
-1379.058468338298
 30
0.0
 40
30.48
  1
ＹＲ－Ｈ－Ａ－２０　４００×４００×２０　ステンレス製受枠ＳＦ２０Ｂ（四方枠）
 41
0.7743589743589743
  7
ＭＳ ゴシック
100
AcDbText
  0
TEXT
  5
2BF
330
1F
100
AcDbEntity
  8
0242_
  6
Continuous
 62
     2
370
     5
100
AcDbText
 10
271.7609351390115
 20
-613.2755675389583
 30
0.0
 40
30.48
  1
グレーチング（すきま6mm）　ＹＲ－Ｈ－Ａ－２０　４００×４００×２０
 41
1.121268656716418
  7
ＭＳ ゴシック
100
AcDbText
  0
TEXT
  5
2C0
330
1F
100
AcDbEntity
  8
0242_
  6
Continuous
 62
     2
370
     5
100
AcDbText
 10
271.7609351390115
 20
-550.9896688761885
 30
0.0
 40
30.48
  1
ステンレス製　縦目タイプ　細目プレーンタイプ
 41
1.119318181818182
  7
ＭＳ ゴシック
100
AcDbText
  0
TEXT
  5
2C1
330
1F
100
AcDbEntity
  8
0242_
  6
Continuous
 62
     7
370
     5
100
AcDbText
 10
-532.2162054947597
 20
82.95632251351377
 30
0.0
 40
22.86
  1
ステンレス製　縦目タイプ　細目プレーンタイプ
 41
1.159090909090909
  7
ＭＳ ゴシック
100
AcDbText
  0
LINE
  5
2C2
330
1F
100
AcDbEntity
  8
0242_
  6
Continuous
 62
     7
370
     5
100
AcDbLine
 10
-532.2162054947597
 20
38.0942271765997
 30
0.0
 11
239.4037408085427
 21
38.0942271765997
 31
0.0
  0
TEXT
  5
2C3
330
1F
100
AcDbEntity
  8
0242_
  6
Continuous
 62
     7
370
     5
100
AcDbText
 10
-532.2162082368541
 20
50.25120624154022
 30
0.0
 40
22.86
  1
グレーチング（すきま6mm）ＹＲーＨ－Ａ－２０
 50
0.0000371419447595
 41
1.158914728682171
  7
ＭＳ ゴシック
100
AcDbText
  0
ARC
  5
2C4
330
1F
100
AcDbEntity
  8
0218_
  6
Continuous
 62
     3
370
     5
100
AcDbCircle
 10
-1382.054703115846
 20
-263.3851096141175
 30
0.0
 40
5.000000064437454
100
AcDbArc
 50
0.0
 51
90.0
  0
ARC
  5
2C5
330
1F
100
AcDbEntity
  8
0218_
  6
Continuous
 62
     3
370
     5
100
AcDbCircle
 10
-1312.0543484521
 20
-263.3851096141175
 30
0.0
 40
5.000000064437454
100
AcDbArc
 50
0.0
 51
90.0
  0
ARC
  5
2C6
330
1F
100
AcDbEntity
  8
0218_
  6
Continuous
 62
     3
370
     5
100
AcDbCircle
 10
-1242.053993788354
 20
-263.3851096141175
 30
0.0
 40
5.000000064437454
100
AcDbArc
 50
0.0
 51
90.0
  0
ARC
  5
2C7
330
1F
100
AcDbEntity
  8
0218_
  6
Continuous
 62
     3
370
     5
100
AcDbCircle
 10
-1172.053639124608
 20
-263.3851096141175
 30
0.0
 40
5.000000064437454
100
AcDbArc
 50
0.0
 51
90.0
  0
ARC
  5
2C8
330
1F
100
AcDbEntity
  8
0218_
  6
Continuous
 62
     3
370
     5
100
AcDbCircle
 10
-1102.053284460863
 20
-263.3851096141175
 30
0.0
 40
5.000000064437454
100
AcDbArc
 50
0.0
 51
90.0
  0
ARC
  5
2C9
330
1F
100
AcDbEntity
  8
0218_
  6
Continuous
 62
     3
370
     5
100
AcDbCircle
 10
-1032.052929797117
 20
-263.3851096141175
 30
0.0
 40
5.000000064437454
100
AcDbArc
 50
0.0
 51
90.0
  0
ARC
  5
2CA
330
1F
100
AcDbEntity
  8
0218_
  6
Continuous
 62
     3
370
     5
100
AcDbCircle
 10
-962.0525751333713
 20
-263.3851096141175
 30
0.0
 40
5.000000064437454
100
AcDbArc
 50
0.0
 51
90.0
  0
ARC
  5
2CB
330
1F
100
AcDbEntity
  8
0218_
  6
Continuous
 62
     3
370
     5
100
AcDbCircle
 10
-892.0522204696255
 20
-263.3851096141175
 30
0.0
 40
5.000000064437454
100
AcDbArc
 50
0.0
 51
90.0
  0
ARC
  5
2CC
330
1F
100
AcDbEntity
  8
0218_
  6
Continuous
 62
     3
370
     5
100
AcDbCircle
 10
-822.0518658058796
 20
-263.3851096141175
 30
0.0
 40
5.000000064437454
100
AcDbArc
 50
0.0
 51
90.0
  0
ARC
  5
2CD
330
1F
100
AcDbEntity
  8
0218_
  6
Continuous
 62
     3
370
     5
100
AcDbCircle
 10
-752.0515111421338
 20
-263.3851096141175
 30
0.0
 40
5.000000064437454
100
AcDbArc
 50
0.0
 51
90.0
  0
LINE
  5
2CE
330
1F
100
AcDbEntity
  8
0218_
  6
Continuous
 62
     3
370
     5
100
AcDbLine
 10
-1377.054703051409
 20
-263.3851096141175
 30
0.0
 11
-1377.054703051409
 21
-351.3849132474201
 31
0.0
  0
LINE
  5
2CF
330
1F
100
AcDbEntity
  8
0218_
  6
Continuous
 62
     3
370
     5
100
AcDbLine
 10
-1307.054348387663
 20
-263.3851096141175
 30
0.0
 11
-1307.054348387663
 21
-351.3849132474201
 31
0.0
  0
LINE
  5
2D0
330
1F
100
AcDbEntity
  8
0218_
  6
Continuous
 62
     3
370
     5
100
AcDbLine
 10
-1237.053993723917
 20
-263.3851096141175
 30
0.0
 11
-1237.053993723917
 21
-351.3849132474201
 31
0.0
  0
LINE
  5
2D1
330
1F
100
AcDbEntity
  8
0218_
  6
Continuous
 62
     3
370
     5
100
AcDbLine
 10
-1167.053639060171
 20
-263.3851096141175
 30
0.0
 11
-1167.053639060171
 21
-351.3849132474201
 31
0.0
  0
LINE
  5
2D2
330
1F
100
AcDbEntity
  8
0218_
  6
Continuous
 62
     3
370
     5
100
AcDbLine
 10
-1097.053284396426
 20
-263.3851096141175
 30
0.0
 11
-1097.053284396426
 21
-351.3849132474201
 31
0.0
  0
LINE
  5
2D3
330
1F
100
AcDbEntity
  8
0218_
  6
Continuous
 62
     3
370
     5
100
AcDbLine
 10
-1027.05292973268
 20
-263.3851096141175
 30
0.0
 11
-1027.05292973268
 21
-351.3849132474201
 31
0.0
  0
LINE
  5
2D4
330
1F
100
AcDbEntity
  8
0218_
  6
Continuous
 62
     3
370
     5
100
AcDbLine
 10
-957.0525750689341
 20
-263.3851096141175
 30
0.0
 11
-957.0525750689341
 21
-351.3849132474201
 31
0.0
  0
LINE
  5
2D5
330
1F
100
AcDbEntity
  8
0218_
  6
Continuous
 62
     3
370
     5
100
AcDbLine
 10
-887.0522204051882
 20
-263.3851096141175
 30
0.0
 11
-887.0522204051882
 21
-351.3849132474201
 31
0.0
  0
LINE
  5
2D6
330
1F
100
AcDbEntity
  8
0218_
  6
Continuous
 62
     3
370
     5
100
AcDbLine
 10
-817.0518657414424
 20
-263.3851096141175
 30
0.0
 11
-817.0518657414424
 21
-351.3849132474201
 31
0.0
  0
LINE
  5
2D7
330
1F
100
AcDbEntity
  8
0218_
  6
Continuous
 62
     3
370
     5
100
AcDbLine
 10
-747.0515110776965
 20
-263.3851096141175
 30
0.0
 11
-747.0515110776965
 21
-351.3849132474201
 31
0.0
  0
LINE
  5
2D8
330
1F
100
AcDbEntity
  8
0239_詳細図（細
  6
Continuous
 62
     3
370
     5
100
AcDbLine
 10
-665.1988086676289
 20
606.7983224511252
 30
0.0
 11
-665.1988086676289
 21
600.7983224511253
 31
0.0
  0
LINE
  5
2D9
330
1F
100
AcDbEntity
  8
0239_詳細図（細
  6
Continuous
 62
     3
370
     5
100
AcDbLine
 10
-670.1485561359345
 20
606.7983224511252
 30
0.0
 11
-670.1485561359345
 21
600.7983224511253
 31
0.0
  0
LINE
  5
2DA
330
1F
100
AcDbEntity
  8
0239_詳細図（細
  6
Continuous
 62
     3
370
     5
100
AcDbLine
 10
-660.249061199323
 20
606.7983224511252
 30
0.0
 11
-660.249061199323
 21
600.7983224511253
 31
0.0
  0
LINE
  5
2DB
330
1F
100
AcDbEntity
  8
0239_詳細図（細
  6
Continuous
 62
     3
370
     5
100
AcDbLine
 10
-590.1485561359347
 20
690.7983224511256
 30
0.0
 11
-590.1485561359347
 21
684.7983224511256
 31
0.0
  0
LINE
  5
2DC
330
1F
100
AcDbEntity
  8
0239_詳細図（細
  6
Continuous
 62
     3
370
     5
100
AcDbLine
 10
-580.249061199323
 20
690.7983224511256
 30
0.0
 11
-580.249061199323
 21
684.7983224511256
 31
0.0
  0
LINE
  5
2DD
330
1F
100
AcDbEntity
  8
0239_詳細図（細
  6
Continuous
 62
     3
370
     5
100
AcDbLine
 10
-585.1988086676288
 20
690.7983224511256
 30
0.0
 11
-585.1988086676288
 21
684.7983224511256
 31
0.0
  0
LINE
  5
2DE
330
1F
100
AcDbEntity
  8
0255_
  6
Continuous
 62
     7
370
     5
100
AcDbLine
 10
-417.6987781500507
 20
372.2951167774032
 30
0.0
 11
-992.6988391852069
 21
372.2951167774032
 31
0.0
  0
TEXT
  5
2DF
330
1F
100
AcDbEntity
  8
0255_
  6
Continuous
 62
     2
370
     5
100
AcDbText
 10
-972.6987457251241
 20
390.4348030185532
 30
0.0
 40
30.48
  1
平面詳細図　Ｓ＝１：１０
 41
1.114583333333333
  7
ＭＳ ゴシック
100
AcDbText
  0
LINE
  5
2E0
330
1F
100
AcDbEntity
  8
0191_区画線（防
  6
Continuous
 62
     2
370
     5
100
AcDbLine
 10
-499.1988086676288
 20
914.7982919335484
 30
0.0
 11
-499.1988086676288
 21
502.798414003861
 31
0.0
  0
LINE
  5
2E1
330
1F
100
AcDbEntity
  8
0191_区画線（防
  6
Continuous
 62
     2
370
     5
100
AcDbLine
 10
-504.1988086676288
 20
909.7983224511265
 30
0.0
 11
-504.1988086676288
 21
507.7983987450718
 31
0.0
  0
LINE
  5
2E2
330
1F
100
AcDbEntity
  8
0192_区画線（防
  6
Continuous
 62
     3
370
     5
100
AcDbLine
 10
-505.1988086676288
 20
908.7983224511265
 30
0.0
 11
-505.1988086676288
 21
508.7981240868687
 31
0.0
  0
LINE
  5
2E3
330
1F
100
AcDbEntity
  8
0191_区画線（防
  6
Continuous
 62
     2
370
     5
100
AcDbLine
 10
-504.1988086676288
 20
507.7983987450718
 30
0.0
 11
-906.1988086676288
 21
507.7983987450718
 31
0.0
  0
LINE
  5
2E4
330
1F
100
AcDbEntity
  8
0191_区画線（防
  6
Continuous
 62
     2
370
     5
100
AcDbLine
 10
-499.1988086676288
 20
502.798414003861
 30
0.0
 11
-911.1988086676288
 21
502.798414003861
 31
0.0
  0
LINE
  5
2E5
330
1F
100
AcDbEntity
  8
0191_区画線（防
  6
JWW_DASHED3
 62
     2
370
     5
100
AcDbLine
 10
-880.1988086676289
 20
883.7980783105015
 30
0.0
 11
-530.1988086676288
 21
883.7980783105015
 31
0.0
  0
LINE
  5
2E6
330
1F
100
AcDbEntity
  8
0191_区画線（防
  6
Continuous
 62
     2
370
     5
100
AcDbLine
 10
-906.1988086676288
 20
909.7983224511265
 30
0.0
 11
-504.1988086676288
 21
909.7983224511265
 31
0.0
  0
LINE
  5
2E7
330
1F
100
AcDbEntity
  8
0191_区画線（防
  6
Continuous
 62
     2
370
     5
100
AcDbLine
 10
-911.1988086676288
 20
914.7982919335484
 30
0.0
 11
-499.1988086676288
 21
914.7982919335484
 31
0.0
  0
LINE
  5
2E8
330
1F
100
AcDbEntity
  8
0191_区画線（防
  6
Continuous
 62
     2
370
     5
100
AcDbLine
 10
-911.1988086676288
 20
914.7982919335484
 30
0.0
 11
-911.1988086676288
 21
502.798414003861
 31
0.0
  0
LINE
  5
2E9
330
1F
100
AcDbEntity
  8
0191_区画線（防
  6
Continuous
 62
     2
370
     5
100
AcDbLine
 10
-906.1988086676288
 20
909.7983224511265
 30
0.0
 11
-906.1988086676288
 21
507.7983987450718
 31
0.0
  0
LINE
  5
2EA
330
1F
100
AcDbEntity
  8
0191_区画線（防
  6
JWW_DASHED3
 62
     2
370
     5
100
AcDbLine
 10
-880.1988086676289
 20
883.7980783105015
 30
0.0
 11
-880.1988086676289
 21
533.7981240868687
 31
0.0
  0
LINE
  5
2EB
330
1F
100
AcDbEntity
  8
0192_区画線（防
  6
Continuous
 62
     3
370
     5
100
AcDbLine
 10
-505.1988086676288
 20
908.7983224511265
 30
0.0
 11
-905.1988086676289
 21
908.7983224511265
 31
0.0
  0
LINE
  5
2EC
330
1F
100
AcDbEntity
  8
0192_区画線（防
  6
Continuous
 62
     3
370
     5
100
AcDbLine
 10
-905.1988086676289
 20
908.7983224511265
 30
0.0
 11
-905.1988086676289
 21
508.7981240868687
 31
0.0
  0
LINE
  5
2ED
330
1F
100
AcDbEntity
  8
0239_詳細図（細
  6
Continuous
 62
     3
370
     5
100
AcDbLine
 10
-902.1988086676288
 20
908.7983224511265
 30
0.0
 11
-902.1988086676288
 21
508.7983224511265
 31
0.0
  0
LINE
  5
2EE
330
1F
100
AcDbEntity
  8
0239_詳細図（細
  6
Continuous
 62
     3
370
     5
100
AcDbLine
 10
-830.1485561359345
 20
900.7983224511264
 30
0.0
 11
-830.1485561359345
 21
894.7983224511265
 31
0.0
  0
LINE
  5
2EF
330
1F
100
AcDbEntity
  8
0239_詳細図（細
  6
Continuous
 62
     3
370
     5
100
AcDbLine
 10
-820.249061199323
 20
900.7983224511264
 30
0.0
 11
-820.249061199323
 21
894.7983224511265
 31
0.0
  0
LINE
  5
2F0
330
1F
100
AcDbEntity
  8
0239_詳細図（細
  6
Continuous
 62
     3
370
     5
100
AcDbLine
 10
-825.1988086676289
 20
900.7983224511264
 30
0.0
 11
-825.1988086676289
 21
894.7983224511265
 31
0.0
  0
LINE
  5
2F1
330
1F
100
AcDbEntity
  8
0239_詳細図（細
  6
Continuous
 62
     3
370
     5
100
AcDbLine
 10
-830.1485561359345
 20
886.7983224511263
 30
0.0
 11
-830.1485561359345
 21
880.7983224511264
 31
0.0
  0
LINE
  5
2F2
330
1F
100
AcDbEntity
  8
0239_詳細図（細
  6
Continuous
 62
     3
370
     5
100
AcDbLine
 10
-820.249061199323
 20
886.7983224511263
 30
0.0
 11
-820.249061199323
 21
880.7983224511264
 31
0.0
  0
LINE
  5
2F3
330
1F
100
AcDbEntity
  8
0239_詳細図（細
  6
Continuous
 62
     3
370
     5
100
AcDbLine
 10
-825.1988086676289
 20
886.7983224511263
 30
0.0
 11
-825.1988086676289
 21
880.7983224511264
 31
0.0
  0
LINE
  5
2F4
330
1F
100
AcDbEntity
  8
0239_詳細図（細
  6
Continuous
 62
     3
370
     5
100
AcDbLine
 10
-830.1485561359345
 20
872.7983224511263
 30
0.0
 11
-830.1485561359345
 21
866.7983224511263
 31
0.0
  0
LINE
  5
2F5
330
1F
100
AcDbEntity
  8
0239_詳細図（細
  6
Continuous
 62
     3
370
     5
100
AcDbLine
 10
-820.249061199323
 20
872.7983224511263
 30
0.0
 11
-820.249061199323
 21
866.7983224511263
 31
0.0
  0
LINE
  5
2F6
330
1F
100
AcDbEntity
  8
0239_詳細図（細
  6
Continuous
 62
     3
370
     5
100
AcDbLine
 10
-825.1988086676289
 20
872.7983224511263
 30
0.0
 11
-825.1988086676289
 21
866.7983224511263
 31
0.0
  0
LINE
  5
2F7
330
1F
100
AcDbEntity
  8
0239_詳細図（細
  6
Continuous
 62
     3
370
     5
100
AcDbLine
 10
-830.1485561359345
 20
858.7983224511263
 30
0.0
 11
-830.1485561359345
 21
852.7983224511263
 31
0.0
  0
LINE
  5
2F8
330
1F
100
AcDbEntity
  8
0239_詳細図（細
  6
Continuous
 62
     3
370
     5
100
AcDbLine
 10
-820.249061199323
 20
858.7983224511263
 30
0.0
 11
-820.249061199323
 21
852.7983224511263
 31
0.0
  0
LINE
  5
2F9
330
1F
100
AcDbEntity
  8
0239_詳細図（細
  6
Continuous
 62
     3
370
     5
100
AcDbLine
 10
-825.1988086676289
 20
858.7983224511263
 30
0.0
 11
-825.1988086676289
 21
852.7983224511263
 31
0.0
  0
LINE
  5
2FA
330
1F
100
AcDbEntity
  8
0239_詳細図（細
  6
Continuous
 62
     3
370
     5
100
AcDbLine
 10
-830.1485561359345
 20
844.7983224511262
 30
0.0
 11
-830.1485561359345
 21
838.7983224511263
 31
0.0
  0
LINE
  5
2FB
330
1F
100
AcDbEntity
  8
0239_詳細図（細
  6
Continuous
 62
     3
370
     5
100
AcDbLine
 10
-820.249061199323
 20
844.7983224511262
 30
0.0
 11
-820.249061199323
 21
838.7983224511263
 31
0.0
  0
LINE
  5
2FC
330
1F
100
AcDbEntity
  8
0239_詳細図（細
  6
Continuous
 62
     3
370
     5
100
AcDbLine
 10
-825.1988086676289
 20
844.7983224511262
 30
0.0
 11
-825.1988086676289
 21
838.7983224511263
 31
0.0
  0
LINE
  5
2FD
330
1F
100
AcDbEntity
  8
0239_詳細図（細
  6
Continuous
 62
     3
370
     5
100
AcDbLine
 10
-830.1485561359345
 20
830.7983224511261
 30
0.0
 11
-830.1485561359345
 21
824.7983224511262
 31
0.0
  0
LINE
  5
2FE
330
1F
100
AcDbEntity
  8
0239_詳細図（細
  6
Continuous
 62
     3
370
     5
100
AcDbLine
 10
-820.249061199323
 20
830.7983224511261
 30
0.0
 11
-820.249061199323
 21
824.7983224511262
 31
0.0
  0
LINE
  5
2FF
330
1F
100
AcDbEntity
  8
0239_詳細図（細
  6
Continuous
 62
     3
370
     5
100
AcDbLine
 10
-825.1988086676289
 20
830.7983224511261
 30
0.0
 11
-825.1988086676289
 21
824.7983224511262
 31
0.0
  0
LINE
  5
300
330
1F
100
AcDbEntity
  8
0239_詳細図（細
  6
Continuous
 62
     3
370
     5
100
AcDbLine
 10
-830.1485561359345
 20
816.7983224511261
 30
0.0
 11
-830.1485561359345
 21
810.7983224511261
 31
0.0
  0
LINE
  5
301
330
1F
100
AcDbEntity
  8
0239_詳細図（細
  6
Continuous
 62
     3
370
     5
100
AcDbLine
 10
-820.249061199323
 20
816.7983224511261
 30
0.0
 11
-820.249061199323
 21
810.7983224511261
 31
0.0
  0
LINE
  5
302
330
1F
100
AcDbEntity
  8
0239_詳細図（細
  6
Continuous
 62
     3
370
     5
100
AcDbLine
 10
-825.1988086676289
 20
816.7983224511261
 30
0.0
 11
-825.1988086676289
 21
810.7983224511261
 31
0.0
  0
LINE
  5
303
330
1F
100
AcDbEntity
  8
0239_詳細図（細
  6
Continuous
 62
     3
370
     5
100
AcDbLine
 10
-830.1485561359345
 20
802.7983224511261
 30
0.0
 11
-830.1485561359345
 21
796.7983224511261
 31
0.0
  0
LINE
  5
304
330
1F
100
AcDbEntity
  8
0239_詳細図（細
  6
Continuous
 62
     3
370
     5
100
AcDbLine
 10
-820.249061199323
 20
802.7983224511261
 30
0.0
 11
-820.249061199323
 21
796.7983224511261
 31
0.0
  0
LINE
  5
305
330
1F
100
AcDbEntity
  8
0239_詳細図（細
  6
Continuous
 62
     3
370
     5
100
AcDbLine
 10
-825.1988086676289
 20
802.7983224511261
 30
0.0
 11
-825.1988086676289
 21
796.7983224511261
 31
0.0
  0
LINE
  5
306
330
1F
100
AcDbEntity
  8
0239_詳細図（細
  6
Continuous
 62
     3
370
     5
100
AcDbLine
 10
-830.1485561359345
 20
788.798322451126
 30
0.0
 11
-830.1485561359345
 21
782.7983224511261
 31
0.0
  0
LINE
  5
307
330
1F
100
AcDbEntity
  8
0239_詳細図（細
  6
Continuous
 62
     3
370
     5
100
AcDbLine
 10
-820.249061199323
 20
788.798322451126
 30
0.0
 11
-820.249061199323
 21
782.7983224511261
 31
0.0
  0
LINE
  5
308
330
1F
100
AcDbEntity
  8
0239_詳細図（細
  6
Continuous
 62
     3
370
     5
100
AcDbLine
 10
-825.1988086676289
 20
788.798322451126
 30
0.0
 11
-825.1988086676289
 21
782.7983224511261
 31
0.0
  0
LINE
  5
309
330
1F
100
AcDbEntity
  8
0239_詳細図（細
  6
Continuous
 62
     3
370
     5
100
AcDbLine
 10
-830.1485561359345
 20
774.7983224511258
 30
0.0
 11
-830.1485561359345
 21
768.798322451126
 31
0.0
  0
LINE
  5
30A
330
1F
100
AcDbEntity
  8
0239_詳細図（細
  6
Continuous
 62
     3
370
     5
100
AcDbLine
 10
-820.249061199323
 20
774.7983224511258
 30
0.0
 11
-820.249061199323
 21
768.798322451126
 31
0.0
  0
LINE
  5
30B
330
1F
100
AcDbEntity
  8
0239_詳細図（細
  6
Continuous
 62
     3
370
     5
100
AcDbLine
 10
-825.1988086676289
 20
774.7983224511258
 30
0.0
 11
-825.1988086676289
 21
768.798322451126
 31
0.0
  0
LINE
  5
30C
330
1F
100
AcDbEntity
  8
0239_詳細図（細
  6
Continuous
 62
     3
370
     5
100
AcDbLine
 10
-830.1485561359345
 20
760.7983224511258
 30
0.0
 11
-830.1485561359345
 21
754.7983224511258
 31
0.0
  0
LINE
  5
30D
330
1F
100
AcDbEntity
  8
0239_詳細図（細
  6
Continuous
 62
     3
370
     5
100
AcDbLine
 10
-820.249061199323
 20
760.7983224511258
 30
0.0
 11
-820.249061199323
 21
754.7983224511258
 31
0.0
  0
LINE
  5
30E
330
1F
100
AcDbEntity
  8
0239_詳細図（細
  6
Continuous
 62
     3
370
     5
100
AcDbLine
 10
-825.1988086676289
 20
760.7983224511258
 30
0.0
 11
-825.1988086676289
 21
754.7983224511258
 31
0.0
  0
LINE
  5
30F
330
1F
100
AcDbEntity
  8
0239_詳細図（細
  6
Continuous
 62
     3
370
     5
100
AcDbLine
 10
-830.1485561359345
 20
746.7983224511258
 30
0.0
 11
-830.1485561359345
 21
740.7983224511258
 31
0.0
  0
LINE
  5
310
330
1F
100
AcDbEntity
  8
0239_詳細図（細
  6
Continuous
 62
     3
370
     5
100
AcDbLine
 10
-820.249061199323
 20
746.7983224511258
 30
0.0
 11
-820.249061199323
 21
740.7983224511258
 31
0.0
  0
LINE
  5
311
330
1F
100
AcDbEntity
  8
0239_詳細図（細
  6
Continuous
 62
     3
370
     5
100
AcDbLine
 10
-825.1988086676289
 20
746.7983224511258
 30
0.0
 11
-825.1988086676289
 21
740.7983224511258
 31
0.0
  0
LINE
  5
312
330
1F
100
AcDbEntity
  8
0239_詳細図（細
  6
Continuous
 62
     3
370
     5
100
AcDbLine
 10
-830.1485561359345
 20
732.7983224511257
 30
0.0
 11
-830.1485561359345
 21
726.7983224511258
 31
0.0
  0
LINE
  5
313
330
1F
100
AcDbEntity
  8
0239_詳細図（細
  6
Continuous
 62
     3
370
     5
100
AcDbLine
 10
-820.249061199323
 20
732.7983224511257
 30
0.0
 11
-820.249061199323
 21
726.7983224511258
 31
0.0
  0
LINE
  5
314
330
1F
100
AcDbEntity
  8
0239_詳細図（細
  6
Continuous
 62
     3
370
     5
100
AcDbLine
 10
-825.1988086676289
 20
732.7983224511257
 30
0.0
 11
-825.1988086676289
 21
726.7983224511258
 31
0.0
  0
LINE
  5
315
330
1F
100
AcDbEntity
  8
0239_詳細図（細
  6
Continuous
 62
     3
370
     5
100
AcDbLine
 10
-830.1485561359345
 20
718.7983224511256
 30
0.0
 11
-830.1485561359345
 21
712.7983224511257
 31
0.0
  0
LINE
  5
316
330
1F
100
AcDbEntity
  8
0239_詳細図（細
  6
Continuous
 62
     3
370
     5
100
AcDbLine
 10
-820.249061199323
 20
718.7983224511256
 30
0.0
 11
-820.249061199323
 21
712.7983224511257
 31
0.0
  0
LINE
  5
317
330
1F
100
AcDbEntity
  8
0239_詳細図（細
  6
Continuous
 62
     3
370
     5
100
AcDbLine
 10
-825.1988086676289
 20
718.7983224511256
 30
0.0
 11
-825.1988086676289
 21
712.7983224511257
 31
0.0
  0
LINE
  5
318
330
1F
100
AcDbEntity
  8
0239_詳細図（細
  6
Continuous
 62
     3
370
     5
100
AcDbLine
 10
-830.1485561359345
 20
704.7983224511256
 30
0.0
 11
-830.1485561359345
 21
698.7983224511256
 31
0.0
  0
LINE
  5
319
330
1F
100
AcDbEntity
  8
0239_詳細図（細
  6
Continuous
 62
     3
370
     5
100
AcDbLine
 10
-820.249061199323
 20
704.7983224511256
 30
0.0
 11
-820.249061199323
 21
698.7983224511256
 31
0.0
  0
LINE
  5
31A
330
1F
100
AcDbEntity
  8
0239_詳細図（細
  6
Continuous
 62
     3
370
     5
100
AcDbLine
 10
-825.1988086676289
 20
704.7983224511256
 30
0.0
 11
-825.1988086676289
 21
698.7983224511256
 31
0.0
  0
LINE
  5
31B
330
1F
100
AcDbEntity
  8
0239_詳細図（細
  6
Continuous
 62
     3
370
     5
100
AcDbLine
 10
-830.1485561359345
 20
690.7983224511256
 30
0.0
 11
-830.1485561359345
 21
684.7983224511256
 31
0.0
  0
LINE
  5
31C
330
1F
100
AcDbEntity
  8
0239_詳細図（細
  6
Continuous
 62
     3
370
     5
100
AcDbLine
 10
-820.249061199323
 20
690.7983224511256
 30
0.0
 11
-820.249061199323
 21
684.7983224511256
 31
0.0
  0
LINE
  5
31D
330
1F
100
AcDbEntity
  8
0239_詳細図（細
  6
Continuous
 62
     3
370
     5
100
AcDbLine
 10
-825.1988086676289
 20
690.7983224511256
 30
0.0
 11
-825.1988086676289
 21
684.7983224511256
 31
0.0
  0
LINE
  5
31E
330
1F
100
AcDbEntity
  8
0239_詳細図（細
  6
Continuous
 62
     3
370
     5
100
AcDbLine
 10
-830.1485561359345
 20
676.7983224511255
 30
0.0
 11
-830.1485561359345
 21
670.7983224511256
 31
0.0
  0
LINE
  5
31F
330
1F
100
AcDbEntity
  8
0239_詳細図（細
  6
Continuous
 62
     3
370
     5
100
AcDbLine
 10
-820.249061199323
 20
676.7983224511255
 30
0.0
 11
-820.249061199323
 21
670.7983224511256
 31
0.0
  0
LINE
  5
320
330
1F
100
AcDbEntity
  8
0239_詳細図（細
  6
Continuous
 62
     3
370
     5
100
AcDbLine
 10
-825.1988086676289
 20
676.7983224511255
 30
0.0
 11
-825.1988086676289
 21
670.7983224511256
 31
0.0
  0
LINE
  5
321
330
1F
100
AcDbEntity
  8
0239_詳細図（細
  6
Continuous
 62
     3
370
     5
100
AcDbLine
 10
-830.1485561359345
 20
662.7983224511254
 30
0.0
 11
-830.1485561359345
 21
656.7983224511255
 31
0.0
  0
LINE
  5
322
330
1F
100
AcDbEntity
  8
0239_詳細図（細
  6
Continuous
 62
     3
370
     5
100
AcDbLine
 10
-820.249061199323
 20
662.7983224511254
 30
0.0
 11
-820.249061199323
 21
656.7983224511255
 31
0.0
  0
LINE
  5
323
330
1F
100
AcDbEntity
  8
0239_詳細図（細
  6
Continuous
 62
     3
370
     5
100
AcDbLine
 10
-825.1988086676289
 20
662.7983224511254
 30
0.0
 11
-825.1988086676289
 21
656.7983224511255
 31
0.0
  0
LINE
  5
324
330
1F
100
AcDbEntity
  8
0239_詳細図（細
  6
Continuous
 62
     3
370
     5
100
AcDbLine
 10
-830.1485561359345
 20
648.7983224511254
 30
0.0
 11
-830.1485561359345
 21
642.7983224511254
 31
0.0
  0
LINE
  5
325
330
1F
100
AcDbEntity
  8
0239_詳細図（細
  6
Continuous
 62
     3
370
     5
100
AcDbLine
 10
-820.249061199323
 20
648.7983224511254
 30
0.0
 11
-820.249061199323
 21
642.7983224511254
 31
0.0
  0
LINE
  5
326
330
1F
100
AcDbEntity
  8
0239_詳細図（細
  6
Continuous
 62
     3
370
     5
100
AcDbLine
 10
-825.1988086676289
 20
648.7983224511254
 30
0.0
 11
-825.1988086676289
 21
642.7983224511254
 31
0.0
  0
LINE
  5
327
330
1F
100
AcDbEntity
  8
0239_詳細図（細
  6
Continuous
 62
     3
370
     5
100
AcDbLine
 10
-830.1485561359345
 20
634.7983224511254
 30
0.0
 11
-830.1485561359345
 21
628.7983224511254
 31
0.0
  0
LINE
  5
328
330
1F
100
AcDbEntity
  8
0239_詳細図（細
  6
Continuous
 62
     3
370
     5
100
AcDbLine
 10
-820.249061199323
 20
634.7983224511254
 30
0.0
 11
-820.249061199323
 21
628.7983224511254
 31
0.0
  0
LINE
  5
329
330
1F
100
AcDbEntity
  8
0239_詳細図（細
  6
Continuous
 62
     3
370
     5
100
AcDbLine
 10
-825.1988086676289
 20
634.7983224511254
 30
0.0
 11
-825.1988086676289
 21
628.7983224511254
 31
0.0
  0
LINE
  5
32A
330
1F
100
AcDbEntity
  8
0239_詳細図（細
  6
Continuous
 62
     3
370
     5
100
AcDbLine
 10
-830.1485561359345
 20
620.7983224511253
 30
0.0
 11
-830.1485561359345
 21
614.7983224511254
 31
0.0
  0
LINE
  5
32B
330
1F
100
AcDbEntity
  8
0239_詳細図（細
  6
Continuous
 62
     3
370
     5
100
AcDbLine
 10
-820.249061199323
 20
620.7983224511253
 30
0.0
 11
-820.249061199323
 21
614.7983224511254
 31
0.0
  0
LINE
  5
32C
330
1F
100
AcDbEntity
  8
0239_詳細図（細
  6
Continuous
 62
     3
370
     5
100
AcDbLine
 10
-825.1988086676289
 20
620.7983224511253
 30
0.0
 11
-825.1988086676289
 21
614.7983224511254
 31
0.0
  0
LINE
  5
32D
330
1F
100
AcDbEntity
  8
0239_詳細図（細
  6
Continuous
 62
     3
370
     5
100
AcDbLine
 10
-830.1485561359345
 20
606.7983224511252
 30
0.0
 11
-830.1485561359345
 21
600.7983224511253
 31
0.0
  0
LINE
  5
32E
330
1F
100
AcDbEntity
  8
0239_詳細図（細
  6
Continuous
 62
     3
370
     5
100
AcDbLine
 10
-820.249061199323
 20
606.7983224511252
 30
0.0
 11
-820.249061199323
 21
600.7983224511253
 31
0.0
  0
LINE
  5
32F
330
1F
100
AcDbEntity
  8
0239_詳細図（細
  6
Continuous
 62
     3
370
     5
100
AcDbLine
 10
-825.1988086676289
 20
606.7983224511252
 30
0.0
 11
-825.1988086676289
 21
600.7983224511253
 31
0.0
  0
LINE
  5
330
330
1F
100
AcDbEntity
  8
0239_詳細図（細
  6
Continuous
 62
     3
370
     5
100
AcDbLine
 10
-830.1485561359345
 20
592.7983224511252
 30
0.0
 11
-830.1485561359345
 21
586.7983224511252
 31
0.0
  0
LINE
  5
331
330
1F
100
AcDbEntity
  8
0239_詳細図（細
  6
Continuous
 62
     3
370
     5
100
AcDbLine
 10
-820.249061199323
 20
592.7983224511252
 30
0.0
 11
-820.249061199323
 21
586.7983224511252
 31
0.0
  0
LINE
  5
332
330
1F
100
AcDbEntity
  8
0239_詳細図（細
  6
Continuous
 62
     3
370
     5
100
AcDbLine
 10
-825.1988086676289
 20
592.7983224511252
 30
0.0
 11
-825.1988086676289
 21
586.7983224511252
 31
0.0
  0
LINE
  5
333
330
1F
100
AcDbEntity
  8
0239_詳細図（細
  6
Continuous
 62
     3
370
     5
100
AcDbLine
 10
-830.1485561359345
 20
578.7983224511252
 30
0.0
 11
-830.1485561359345
 21
572.7983224511252
 31
0.0
  0
LINE
  5
334
330
1F
100
AcDbEntity
  8
0239_詳細図（細
  6
Continuous
 62
     3
370
     5
100
AcDbLine
 10
-820.249061199323
 20
578.7983224511252
 30
0.0
 11
-820.249061199323
 21
572.7983224511252
 31
0.0
  0
LINE
  5
335
330
1F
100
AcDbEntity
  8
0239_詳細図（細
  6
Continuous
 62
     3
370
     5
100
AcDbLine
 10
-825.1988086676289
 20
578.7983224511252
 30
0.0
 11
-825.1988086676289
 21
572.7983224511252
 31
0.0
  0
LINE
  5
336
330
1F
100
AcDbEntity
  8
0239_詳細図（細
  6
Continuous
 62
     3
370
     5
100
AcDbLine
 10
-830.1485561359345
 20
564.798322451125
 30
0.0
 11
-830.1485561359345
 21
558.7983224511252
 31
0.0
  0
LINE
  5
337
330
1F
100
AcDbEntity
  8
0239_詳細図（細
  6
Continuous
 62
     3
370
     5
100
AcDbLine
 10
-820.249061199323
 20
564.798322451125
 30
0.0
 11
-820.249061199323
 21
558.7983224511252
 31
0.0
  0
LINE
  5
338
330
1F
100
AcDbEntity
  8
0239_詳細図（細
  6
Continuous
 62
     3
370
     5
100
AcDbLine
 10
-825.1988086676289
 20
564.798322451125
 30
0.0
 11
-825.1988086676289
 21
558.7983224511252
 31
0.0
  0
LINE
  5
339
330
1F
100
AcDbEntity
  8
0239_詳細図（細
  6
Continuous
 62
     3
370
     5
100
AcDbLine
 10
-830.1485561359345
 20
550.7983224511249
 30
0.0
 11
-830.1485561359345
 21
544.798322451125
 31
0.0
  0
LINE
  5
33A
330
1F
100
AcDbEntity
  8
0239_詳細図（細
  6
Continuous
 62
     3
370
     5
100
AcDbLine
 10
-820.249061199323
 20
550.7983224511249
 30
0.0
 11
-820.249061199323
 21
544.798322451125
 31
0.0
  0
LINE
  5
33B
330
1F
100
AcDbEntity
  8
0239_詳細図（細
  6
Continuous
 62
     3
370
     5
100
AcDbLine
 10
-825.1988086676289
 20
550.7983224511249
 30
0.0
 11
-825.1988086676289
 21
544.798322451125
 31
0.0
  0
LINE
  5
33C
330
1F
100
AcDbEntity
  8
0239_詳細図（細
  6
Continuous
 62
     3
370
     5
100
AcDbLine
 10
-830.1485561359345
 20
536.7983224511249
 30
0.0
 11
-830.1485561359345
 21
530.7983224511249
 31
0.0
  0
LINE
  5
33D
330
1F
100
AcDbEntity
  8
0239_詳細図（細
  6
Continuous
 62
     3
370
     5
100
AcDbLine
 10
-820.249061199323
 20
536.7983224511249
 30
0.0
 11
-820.249061199323
 21
530.7983224511249
 31
0.0
  0
LINE
  5
33E
330
1F
100
AcDbEntity
  8
0239_詳細図（細
  6
Continuous
 62
     3
370
     5
100
AcDbLine
 10
-825.1988086676289
 20
536.7983224511249
 30
0.0
 11
-825.1988086676289
 21
530.7983224511249
 31
0.0
  0
LINE
  5
33F
330
1F
100
AcDbEntity
  8
0239_詳細図（細
  6
Continuous
 62
     3
370
     5
100
AcDbLine
 10
-830.1485561359345
 20
522.7983224511249
 30
0.0
 11
-830.1485561359345
 21
516.7983224511249
 31
0.0
  0
LINE
  5
340
330
1F
100
AcDbEntity
  8
0239_詳細図（細
  6
Continuous
 62
     3
370
     5
100
AcDbLine
 10
-820.249061199323
 20
522.7983224511249
 30
0.0
 11
-820.249061199323
 21
516.7983224511249
 31
0.0
  0
LINE
  5
341
330
1F
100
AcDbEntity
  8
0239_詳細図（細
  6
Continuous
 62
     3
370
     5
100
AcDbLine
 10
-825.1988086676289
 20
522.7983224511249
 30
0.0
 11
-825.1988086676289
 21
516.7983224511249
 31
0.0
  0
LINE
  5
342
330
1F
100
AcDbEntity
  8
0239_詳細図（細
  6
Continuous
 62
     3
370
     5
100
AcDbLine
 10
-750.1485561359345
 20
900.7983224511264
 30
0.0
 11
-750.1485561359345
 21
894.7983224511265
 31
0.0
  0
LINE
  5
343
330
1F
100
AcDbEntity
  8
0239_詳細図（細
  6
Continuous
 62
     3
370
     5
100
AcDbLine
 10
-740.249061199323
 20
900.7983224511264
 30
0.0
 11
-740.249061199323
 21
894.7983224511265
 31
0.0
  0
LINE
  5
344
330
1F
100
AcDbEntity
  8
0239_詳細図（細
  6
Continuous
 62
     3
370
     5
100
AcDbLine
 10
-745.1988086676289
 20
900.7983224511264
 30
0.0
 11
-745.1988086676289
 21
894.7983224511265
 31
0.0
  0
LINE
  5
345
330
1F
100
AcDbEntity
  8
0239_詳細図（細
  6
Continuous
 62
     3
370
     5
100
AcDbLine
 10
-750.1485561359345
 20
886.7983224511263
 30
0.0
 11
-750.1485561359345
 21
880.7983224511264
 31
0.0
  0
LINE
  5
346
330
1F
100
AcDbEntity
  8
0239_詳細図（細
  6
Continuous
 62
     3
370
     5
100
AcDbLine
 10
-740.249061199323
 20
886.7983224511263
 30
0.0
 11
-740.249061199323
 21
880.7983224511264
 31
0.0
  0
LINE
  5
347
330
1F
100
AcDbEntity
  8
0239_詳細図（細
  6
Continuous
 62
     3
370
     5
100
AcDbLine
 10
-745.1988086676289
 20
886.7983224511263
 30
0.0
 11
-745.1988086676289
 21
880.7983224511264
 31
0.0
  0
LINE
  5
348
330
1F
100
AcDbEntity
  8
0239_詳細図（細
  6
Continuous
 62
     3
370
     5
100
AcDbLine
 10
-750.1485561359345
 20
872.7983224511263
 30
0.0
 11
-750.1485561359345
 21
866.7983224511263
 31
0.0
  0
LINE
  5
349
330
1F
100
AcDbEntity
  8
0239_詳細図（細
  6
Continuous
 62
     3
370
     5
100
AcDbLine
 10
-740.249061199323
 20
872.7983224511263
 30
0.0
 11
-740.249061199323
 21
866.7983224511263
 31
0.0
  0
LINE
  5
34A
330
1F
100
AcDbEntity
  8
0239_詳細図（細
  6
Continuous
 62
     3
370
     5
100
AcDbLine
 10
-745.1988086676289
 20
872.7983224511263
 30
0.0
 11
-745.1988086676289
 21
866.7983224511263
 31
0.0
  0
LINE
  5
34B
330
1F
100
AcDbEntity
  8
0239_詳細図（細
  6
Continuous
 62
     3
370
     5
100
AcDbLine
 10
-750.1485561359345
 20
858.7983224511263
 30
0.0
 11
-750.1485561359345
 21
852.7983224511263
 31
0.0
  0
LINE
  5
34C
330
1F
100
AcDbEntity
  8
0239_詳細図（細
  6
Continuous
 62
     3
370
     5
100
AcDbLine
 10
-740.249061199323
 20
858.7983224511263
 30
0.0
 11
-740.249061199323
 21
852.7983224511263
 31
0.0
  0
LINE
  5
34D
330
1F
100
AcDbEntity
  8
0239_詳細図（細
  6
Continuous
 62
     3
370
     5
100
AcDbLine
 10
-745.1988086676289
 20
858.7983224511263
 30
0.0
 11
-745.1988086676289
 21
852.7983224511263
 31
0.0
  0
LINE
  5
34E
330
1F
100
AcDbEntity
  8
0239_詳細図（細
  6
Continuous
 62
     3
370
     5
100
AcDbLine
 10
-750.1485561359345
 20
844.7983224511262
 30
0.0
 11
-750.1485561359345
 21
838.7983224511263
 31
0.0
  0
LINE
  5
34F
330
1F
100
AcDbEntity
  8
0239_詳細図（細
  6
Continuous
 62
     3
370
     5
100
AcDbLine
 10
-740.249061199323
 20
844.7983224511262
 30
0.0
 11
-740.249061199323
 21
838.7983224511263
 31
0.0
  0
LINE
  5
350
330
1F
100
AcDbEntity
  8
0239_詳細図（細
  6
Continuous
 62
     3
370
     5
100
AcDbLine
 10
-745.1988086676289
 20
844.7983224511262
 30
0.0
 11
-745.1988086676289
 21
838.7983224511263
 31
0.0
  0
LINE
  5
351
330
1F
100
AcDbEntity
  8
0239_詳細図（細
  6
Continuous
 62
     3
370
     5
100
AcDbLine
 10
-750.1485561359345
 20
830.7983224511261
 30
0.0
 11
-750.1485561359345
 21
824.7983224511262
 31
0.0
  0
LINE
  5
352
330
1F
100
AcDbEntity
  8
0239_詳細図（細
  6
Continuous
 62
     3
370
     5
100
AcDbLine
 10
-740.249061199323
 20
830.7983224511261
 30
0.0
 11
-740.249061199323
 21
824.7983224511262
 31
0.0
  0
LINE
  5
353
330
1F
100
AcDbEntity
  8
0239_詳細図（細
  6
Continuous
 62
     3
370
     5
100
AcDbLine
 10
-745.1988086676289
 20
830.7983224511261
 30
0.0
 11
-745.1988086676289
 21
824.7983224511262
 31
0.0
  0
LINE
  5
354
330
1F
100
AcDbEntity
  8
0239_詳細図（細
  6
Continuous
 62
     3
370
     5
100
AcDbLine
 10
-750.1485561359345
 20
816.7983224511261
 30
0.0
 11
-750.1485561359345
 21
810.7983224511261
 31
0.0
  0
LINE
  5
355
330
1F
100
AcDbEntity
  8
0239_詳細図（細
  6
Continuous
 62
     3
370
     5
100
AcDbLine
 10
-740.249061199323
 20
816.7983224511261
 30
0.0
 11
-740.249061199323
 21
810.7983224511261
 31
0.0
  0
LINE
  5
356
330
1F
100
AcDbEntity
  8
0239_詳細図（細
  6
Continuous
 62
     3
370
     5
100
AcDbLine
 10
-745.1988086676289
 20
816.7983224511261
 30
0.0
 11
-745.1988086676289
 21
810.7983224511261
 31
0.0
  0
LINE
  5
357
330
1F
100
AcDbEntity
  8
0239_詳細図（細
  6
Continuous
 62
     3
370
     5
100
AcDbLine
 10
-750.1485561359345
 20
802.7983224511261
 30
0.0
 11
-750.1485561359345
 21
796.7983224511261
 31
0.0
  0
LINE
  5
358
330
1F
100
AcDbEntity
  8
0239_詳細図（細
  6
Continuous
 62
     3
370
     5
100
AcDbLine
 10
-740.249061199323
 20
802.7983224511261
 30
0.0
 11
-740.249061199323
 21
796.7983224511261
 31
0.0
  0
LINE
  5
359
330
1F
100
AcDbEntity
  8
0239_詳細図（細
  6
Continuous
 62
     3
370
     5
100
AcDbLine
 10
-745.1988086676289
 20
802.7983224511261
 30
0.0
 11
-745.1988086676289
 21
796.7983224511261
 31
0.0
  0
LINE
  5
35A
330
1F
100
AcDbEntity
  8
0239_詳細図（細
  6
Continuous
 62
     3
370
     5
100
AcDbLine
 10
-750.1485561359345
 20
788.798322451126
 30
0.0
 11
-750.1485561359345
 21
782.7983224511261
 31
0.0
  0
LINE
  5
35B
330
1F
100
AcDbEntity
  8
0239_詳細図（細
  6
Continuous
 62
     3
370
     5
100
AcDbLine
 10
-740.249061199323
 20
788.798322451126
 30
0.0
 11
-740.249061199323
 21
782.7983224511261
 31
0.0
  0
LINE
  5
35C
330
1F
100
AcDbEntity
  8
0239_詳細図（細
  6
Continuous
 62
     3
370
     5
100
AcDbLine
 10
-745.1988086676289
 20
788.798322451126
 30
0.0
 11
-745.1988086676289
 21
782.7983224511261
 31
0.0
  0
LINE
  5
35D
330
1F
100
AcDbEntity
  8
0239_詳細図（細
  6
Continuous
 62
     3
370
     5
100
AcDbLine
 10
-750.1485561359345
 20
774.7983224511258
 30
0.0
 11
-750.1485561359345
 21
768.798322451126
 31
0.0
  0
LINE
  5
35E
330
1F
100
AcDbEntity
  8
0239_詳細図（細
  6
Continuous
 62
     3
370
     5
100
AcDbLine
 10
-740.249061199323
 20
774.7983224511258
 30
0.0
 11
-740.249061199323
 21
768.798322451126
 31
0.0
  0
LINE
  5
35F
330
1F
100
AcDbEntity
  8
0239_詳細図（細
  6
Continuous
 62
     3
370
     5
100
AcDbLine
 10
-745.1988086676289
 20
774.7983224511258
 30
0.0
 11
-745.1988086676289
 21
768.798322451126
 31
0.0
  0
LINE
  5
360
330
1F
100
AcDbEntity
  8
0239_詳細図（細
  6
Continuous
 62
     3
370
     5
100
AcDbLine
 10
-750.1485561359345
 20
760.7983224511258
 30
0.0
 11
-750.1485561359345
 21
754.7983224511258
 31
0.0
  0
LINE
  5
361
330
1F
100
AcDbEntity
  8
0239_詳細図（細
  6
Continuous
 62
     3
370
     5
100
AcDbLine
 10
-740.249061199323
 20
760.7983224511258
 30
0.0
 11
-740.249061199323
 21
754.7983224511258
 31
0.0
  0
LINE
  5
362
330
1F
100
AcDbEntity
  8
0239_詳細図（細
  6
Continuous
 62
     3
370
     5
100
AcDbLine
 10
-745.1988086676289
 20
760.7983224511258
 30
0.0
 11
-745.1988086676289
 21
754.7983224511258
 31
0.0
  0
LINE
  5
363
330
1F
100
AcDbEntity
  8
0239_詳細図（細
  6
Continuous
 62
     3
370
     5
100
AcDbLine
 10
-750.1485561359345
 20
746.7983224511258
 30
0.0
 11
-750.1485561359345
 21
740.7983224511258
 31
0.0
  0
LINE
  5
364
330
1F
100
AcDbEntity
  8
0239_詳細図（細
  6
Continuous
 62
     3
370
     5
100
AcDbLine
 10
-740.249061199323
 20
746.7983224511258
 30
0.0
 11
-740.249061199323
 21
740.7983224511258
 31
0.0
  0
LINE
  5
365
330
1F
100
AcDbEntity
  8
0239_詳細図（細
  6
Continuous
 62
     3
370
     5
100
AcDbLine
 10
-745.1988086676289
 20
746.7983224511258
 30
0.0
 11
-745.1988086676289
 21
740.7983224511258
 31
0.0
  0
LINE
  5
366
330
1F
100
AcDbEntity
  8
0239_詳細図（細
  6
Continuous
 62
     3
370
     5
100
AcDbLine
 10
-750.1485561359345
 20
732.7983224511257
 30
0.0
 11
-750.1485561359345
 21
726.7983224511258
 31
0.0
  0
LINE
  5
367
330
1F
100
AcDbEntity
  8
0239_詳細図（細
  6
Continuous
 62
     3
370
     5
100
AcDbLine
 10
-740.249061199323
 20
732.7983224511257
 30
0.0
 11
-740.249061199323
 21
726.7983224511258
 31
0.0
  0
LINE
  5
368
330
1F
100
AcDbEntity
  8
0239_詳細図（細
  6
Continuous
 62
     3
370
     5
100
AcDbLine
 10
-745.1988086676289
 20
732.7983224511257
 30
0.0
 11
-745.1988086676289
 21
726.7983224511258
 31
0.0
  0
LINE
  5
369
330
1F
100
AcDbEntity
  8
0239_詳細図（細
  6
Continuous
 62
     3
370
     5
100
AcDbLine
 10
-750.1485561359345
 20
718.7983224511256
 30
0.0
 11
-750.1485561359345
 21
712.7983224511257
 31
0.0
  0
LINE
  5
36A
330
1F
100
AcDbEntity
  8
0239_詳細図（細
  6
Continuous
 62
     3
370
     5
100
AcDbLine
 10
-740.249061199323
 20
718.7983224511256
 30
0.0
 11
-740.249061199323
 21
712.7983224511257
 31
0.0
  0
LINE
  5
36B
330
1F
100
AcDbEntity
  8
0239_詳細図（細
  6
Continuous
 62
     3
370
     5
100
AcDbLine
 10
-745.1988086676289
 20
718.7983224511256
 30
0.0
 11
-745.1988086676289
 21
712.7983224511257
 31
0.0
  0
LINE
  5
36C
330
1F
100
AcDbEntity
  8
0239_詳細図（細
  6
Continuous
 62
     3
370
     5
100
AcDbLine
 10
-750.1485561359345
 20
704.7983224511256
 30
0.0
 11
-750.1485561359345
 21
698.7983224511256
 31
0.0
  0
LINE
  5
36D
330
1F
100
AcDbEntity
  8
0239_詳細図（細
  6
Continuous
 62
     3
370
     5
100
AcDbLine
 10
-740.249061199323
 20
704.7983224511256
 30
0.0
 11
-740.249061199323
 21
698.7983224511256
 31
0.0
  0
LINE
  5
36E
330
1F
100
AcDbEntity
  8
0239_詳細図（細
  6
Continuous
 62
     3
370
     5
100
AcDbLine
 10
-745.1988086676289
 20
704.7983224511256
 30
0.0
 11
-745.1988086676289
 21
698.7983224511256
 31
0.0
  0
LINE
  5
36F
330
1F
100
AcDbEntity
  8
0239_詳細図（細
  6
Continuous
 62
     3
370
     5
100
AcDbLine
 10
-750.1485561359345
 20
690.7983224511256
 30
0.0
 11
-750.1485561359345
 21
684.7983224511256
 31
0.0
  0
LINE
  5
370
330
1F
100
AcDbEntity
  8
0239_詳細図（細
  6
Continuous
 62
     3
370
     5
100
AcDbLine
 10
-740.249061199323
 20
690.7983224511256
 30
0.0
 11
-740.249061199323
 21
684.7983224511256
 31
0.0
  0
LINE
  5
371
330
1F
100
AcDbEntity
  8
0239_詳細図（細
  6
Continuous
 62
     3
370
     5
100
AcDbLine
 10
-745.1988086676289
 20
690.7983224511256
 30
0.0
 11
-745.1988086676289
 21
684.7983224511256
 31
0.0
  0
LINE
  5
372
330
1F
100
AcDbEntity
  8
0239_詳細図（細
  6
Continuous
 62
     3
370
     5
100
AcDbLine
 10
-750.1485561359345
 20
676.7983224511255
 30
0.0
 11
-750.1485561359345
 21
670.7983224511256
 31
0.0
  0
LINE
  5
373
330
1F
100
AcDbEntity
  8
0239_詳細図（細
  6
Continuous
 62
     3
370
     5
100
AcDbLine
 10
-740.249061199323
 20
676.7983224511255
 30
0.0
 11
-740.249061199323
 21
670.7983224511256
 31
0.0
  0
LINE
  5
374
330
1F
100
AcDbEntity
  8
0239_詳細図（細
  6
Continuous
 62
     3
370
     5
100
AcDbLine
 10
-745.1988086676289
 20
676.7983224511255
 30
0.0
 11
-745.1988086676289
 21
670.7983224511256
 31
0.0
  0
LINE
  5
375
330
1F
100
AcDbEntity
  8
0239_詳細図（細
  6
Continuous
 62
     3
370
     5
100
AcDbLine
 10
-750.1485561359345
 20
662.7983224511254
 30
0.0
 11
-750.1485561359345
 21
656.7983224511255
 31
0.0
  0
LINE
  5
376
330
1F
100
AcDbEntity
  8
0239_詳細図（細
  6
Continuous
 62
     3
370
     5
100
AcDbLine
 10
-740.249061199323
 20
662.7983224511254
 30
0.0
 11
-740.249061199323
 21
656.7983224511255
 31
0.0
  0
LINE
  5
377
330
1F
100
AcDbEntity
  8
0239_詳細図（細
  6
Continuous
 62
     3
370
     5
100
AcDbLine
 10
-745.1988086676289
 20
662.7983224511254
 30
0.0
 11
-745.1988086676289
 21
656.7983224511255
 31
0.0
  0
LINE
  5
378
330
1F
100
AcDbEntity
  8
0239_詳細図（細
  6
Continuous
 62
     3
370
     5
100
AcDbLine
 10
-750.1485561359345
 20
648.7983224511254
 30
0.0
 11
-750.1485561359345
 21
642.7983224511254
 31
0.0
  0
LINE
  5
379
330
1F
100
AcDbEntity
  8
0239_詳細図（細
  6
Continuous
 62
     3
370
     5
100
AcDbLine
 10
-740.249061199323
 20
648.7983224511254
 30
0.0
 11
-740.249061199323
 21
642.7983224511254
 31
0.0
  0
LINE
  5
37A
330
1F
100
AcDbEntity
  8
0239_詳細図（細
  6
Continuous
 62
     3
370
     5
100
AcDbLine
 10
-745.1988086676289
 20
648.7983224511254
 30
0.0
 11
-745.1988086676289
 21
642.7983224511254
 31
0.0
  0
LINE
  5
37B
330
1F
100
AcDbEntity
  8
0239_詳細図（細
  6
Continuous
 62
     3
370
     5
100
AcDbLine
 10
-750.1485561359345
 20
634.7983224511254
 30
0.0
 11
-750.1485561359345
 21
628.7983224511254
 31
0.0
  0
LINE
  5
37C
330
1F
100
AcDbEntity
  8
0239_詳細図（細
  6
Continuous
 62
     3
370
     5
100
AcDbLine
 10
-740.249061199323
 20
634.7983224511254
 30
0.0
 11
-740.249061199323
 21
628.7983224511254
 31
0.0
  0
LINE
  5
37D
330
1F
100
AcDbEntity
  8
0239_詳細図（細
  6
Continuous
 62
     3
370
     5
100
AcDbLine
 10
-745.1988086676289
 20
634.7983224511254
 30
0.0
 11
-745.1988086676289
 21
628.7983224511254
 31
0.0
  0
LINE
  5
37E
330
1F
100
AcDbEntity
  8
0239_詳細図（細
  6
Continuous
 62
     3
370
     5
100
AcDbLine
 10
-750.1485561359345
 20
620.7983224511253
 30
0.0
 11
-750.1485561359345
 21
614.7983224511254
 31
0.0
  0
LINE
  5
37F
330
1F
100
AcDbEntity
  8
0239_詳細図（細
  6
Continuous
 62
     3
370
     5
100
AcDbLine
 10
-740.249061199323
 20
620.7983224511253
 30
0.0
 11
-740.249061199323
 21
614.7983224511254
 31
0.0
  0
LINE
  5
380
330
1F
100
AcDbEntity
  8
0239_詳細図（細
  6
Continuous
 62
     3
370
     5
100
AcDbLine
 10
-745.1988086676289
 20
620.7983224511253
 30
0.0
 11
-745.1988086676289
 21
614.7983224511254
 31
0.0
  0
LINE
  5
381
330
1F
100
AcDbEntity
  8
0239_詳細図（細
  6
Continuous
 62
     3
370
     5
100
AcDbLine
 10
-750.1485561359345
 20
606.7983224511252
 30
0.0
 11
-750.1485561359345
 21
600.7983224511253
 31
0.0
  0
LINE
  5
382
330
1F
100
AcDbEntity
  8
0239_詳細図（細
  6
Continuous
 62
     3
370
     5
100
AcDbLine
 10
-740.249061199323
 20
606.7983224511252
 30
0.0
 11
-740.249061199323
 21
600.7983224511253
 31
0.0
  0
LINE
  5
383
330
1F
100
AcDbEntity
  8
0239_詳細図（細
  6
Continuous
 62
     3
370
     5
100
AcDbLine
 10
-745.1988086676289
 20
606.7983224511252
 30
0.0
 11
-745.1988086676289
 21
600.7983224511253
 31
0.0
  0
LINE
  5
384
330
1F
100
AcDbEntity
  8
0239_詳細図（細
  6
Continuous
 62
     3
370
     5
100
AcDbLine
 10
-750.1485561359345
 20
592.7983224511252
 30
0.0
 11
-750.1485561359345
 21
586.7983224511252
 31
0.0
  0
LINE
  5
385
330
1F
100
AcDbEntity
  8
0239_詳細図（細
  6
Continuous
 62
     3
370
     5
100
AcDbLine
 10
-740.249061199323
 20
592.7983224511252
 30
0.0
 11
-740.249061199323
 21
586.7983224511252
 31
0.0
  0
LINE
  5
386
330
1F
100
AcDbEntity
  8
0239_詳細図（細
  6
Continuous
 62
     3
370
     5
100
AcDbLine
 10
-745.1988086676289
 20
592.7983224511252
 30
0.0
 11
-745.1988086676289
 21
586.7983224511252
 31
0.0
  0
LINE
  5
387
330
1F
100
AcDbEntity
  8
0239_詳細図（細
  6
Continuous
 62
     3
370
     5
100
AcDbLine
 10
-750.1485561359345
 20
578.7983224511252
 30
0.0
 11
-750.1485561359345
 21
572.7983224511252
 31
0.0
  0
LINE
  5
388
330
1F
100
AcDbEntity
  8
0239_詳細図（細
  6
Continuous
 62
     3
370
     5
100
AcDbLine
 10
-740.249061199323
 20
578.7983224511252
 30
0.0
 11
-740.249061199323
 21
572.7983224511252
 31
0.0
  0
LINE
  5
389
330
1F
100
AcDbEntity
  8
0239_詳細図（細
  6
Continuous
 62
     3
370
     5
100
AcDbLine
 10
-745.1988086676289
 20
578.7983224511252
 30
0.0
 11
-745.1988086676289
 21
572.7983224511252
 31
0.0
  0
LINE
  5
38A
330
1F
100
AcDbEntity
  8
0239_詳細図（細
  6
Continuous
 62
     3
370
     5
100
AcDbLine
 10
-750.1485561359345
 20
564.798322451125
 30
0.0
 11
-750.1485561359345
 21
558.7983224511252
 31
0.0
  0
LINE
  5
38B
330
1F
100
AcDbEntity
  8
0239_詳細図（細
  6
Continuous
 62
     3
370
     5
100
AcDbLine
 10
-740.249061199323
 20
564.798322451125
 30
0.0
 11
-740.249061199323
 21
558.7983224511252
 31
0.0
  0
LINE
  5
38C
330
1F
100
AcDbEntity
  8
0239_詳細図（細
  6
Continuous
 62
     3
370
     5
100
AcDbLine
 10
-745.1988086676289
 20
564.798322451125
 30
0.0
 11
-745.1988086676289
 21
558.7983224511252
 31
0.0
  0
LINE
  5
38D
330
1F
100
AcDbEntity
  8
0239_詳細図（細
  6
Continuous
 62
     3
370
     5
100
AcDbLine
 10
-750.1485561359345
 20
550.7983224511249
 30
0.0
 11
-750.1485561359345
 21
544.798322451125
 31
0.0
  0
LINE
  5
38E
330
1F
100
AcDbEntity
  8
0239_詳細図（細
  6
Continuous
 62
     3
370
     5
100
AcDbLine
 10
-740.249061199323
 20
550.7983224511249
 30
0.0
 11
-740.249061199323
 21
544.798322451125
 31
0.0
  0
LINE
  5
38F
330
1F
100
AcDbEntity
  8
0239_詳細図（細
  6
Continuous
 62
     3
370
     5
100
AcDbLine
 10
-745.1988086676289
 20
550.7983224511249
 30
0.0
 11
-745.1988086676289
 21
544.798322451125
 31
0.0
  0
LINE
  5
390
330
1F
100
AcDbEntity
  8
0239_詳細図（細
  6
Continuous
 62
     3
370
     5
100
AcDbLine
 10
-750.1485561359345
 20
536.7983224511249
 30
0.0
 11
-750.1485561359345
 21
530.7983224511249
 31
0.0
  0
LINE
  5
391
330
1F
100
AcDbEntity
  8
0239_詳細図（細
  6
Continuous
 62
     3
370
     5
100
AcDbLine
 10
-745.1988086676289
 20
536.7983224511249
 30
0.0
 11
-745.1988086676289
 21
530.7983224511249
 31
0.0
  0
LINE
  5
392
330
1F
100
AcDbEntity
  8
0239_詳細図（細
  6
Continuous
 62
     3
370
     5
100
AcDbLine
 10
-750.1485561359345
 20
522.7983224511249
 30
0.0
 11
-750.1485561359345
 21
516.7983224511249
 31
0.0
  0
LINE
  5
393
330
1F
100
AcDbEntity
  8
0239_詳細図（細
  6
Continuous
 62
     3
370
     5
100
AcDbLine
 10
-670.1485561359345
 20
900.7983224511264
 30
0.0
 11
-670.1485561359345
 21
894.7983224511265
 31
0.0
  0
LINE
  5
394
330
1F
100
AcDbEntity
  8
0239_詳細図（細
  6
Continuous
 62
     3
370
     5
100
AcDbLine
 10
-660.249061199323
 20
900.7983224511264
 30
0.0
 11
-660.249061199323
 21
894.7983224511265
 31
0.0
  0
LINE
  5
395
330
1F
100
AcDbEntity
  8
0239_詳細図（細
  6
Continuous
 62
     3
370
     5
100
AcDbLine
 10
-665.1988086676289
 20
900.7983224511264
 30
0.0
 11
-665.1988086676289
 21
894.7983224511265
 31
0.0
  0
LINE
  5
396
330
1F
100
AcDbEntity
  8
0239_詳細図（細
  6
Continuous
 62
     3
370
     5
100
AcDbLine
 10
-670.1485561359345
 20
886.7983224511263
 30
0.0
 11
-670.1485561359345
 21
880.7983224511264
 31
0.0
  0
LINE
  5
397
330
1F
100
AcDbEntity
  8
0239_詳細図（細
  6
Continuous
 62
     3
370
     5
100
AcDbLine
 10
-660.249061199323
 20
886.7983224511263
 30
0.0
 11
-660.249061199323
 21
880.7983224511264
 31
0.0
  0
LINE
  5
398
330
1F
100
AcDbEntity
  8
0239_詳細図（細
  6
Continuous
 62
     3
370
     5
100
AcDbLine
 10
-665.1988086676289
 20
886.7983224511263
 30
0.0
 11
-665.1988086676289
 21
880.7983224511264
 31
0.0
  0
LINE
  5
399
330
1F
100
AcDbEntity
  8
0239_詳細図（細
  6
Continuous
 62
     3
370
     5
100
AcDbLine
 10
-670.1485561359345
 20
872.7983224511263
 30
0.0
 11
-670.1485561359345
 21
866.7983224511263
 31
0.0
  0
LINE
  5
39A
330
1F
100
AcDbEntity
  8
0239_詳細図（細
  6
Continuous
 62
     3
370
     5
100
AcDbLine
 10
-660.249061199323
 20
872.7983224511263
 30
0.0
 11
-660.249061199323
 21
866.7983224511263
 31
0.0
  0
LINE
  5
39B
330
1F
100
AcDbEntity
  8
0239_詳細図（細
  6
Continuous
 62
     3
370
     5
100
AcDbLine
 10
-665.1988086676289
 20
872.7983224511263
 30
0.0
 11
-665.1988086676289
 21
866.7983224511263
 31
0.0
  0
LINE
  5
39C
330
1F
100
AcDbEntity
  8
0239_詳細図（細
  6
Continuous
 62
     3
370
     5
100
AcDbLine
 10
-670.1485561359345
 20
858.7983224511263
 30
0.0
 11
-670.1485561359345
 21
852.7983224511263
 31
0.0
  0
LINE
  5
39D
330
1F
100
AcDbEntity
  8
0239_詳細図（細
  6
Continuous
 62
     3
370
     5
100
AcDbLine
 10
-660.249061199323
 20
858.7983224511263
 30
0.0
 11
-660.249061199323
 21
852.7983224511263
 31
0.0
  0
LINE
  5
39E
330
1F
100
AcDbEntity
  8
0239_詳細図（細
  6
Continuous
 62
     3
370
     5
100
AcDbLine
 10
-665.1988086676289
 20
858.7983224511263
 30
0.0
 11
-665.1988086676289
 21
852.7983224511263
 31
0.0
  0
LINE
  5
39F
330
1F
100
AcDbEntity
  8
0239_詳細図（細
  6
Continuous
 62
     3
370
     5
100
AcDbLine
 10
-670.1485561359345
 20
844.7983224511262
 30
0.0
 11
-670.1485561359345
 21
838.7983224511263
 31
0.0
  0
LINE
  5
3A0
330
1F
100
AcDbEntity
  8
0239_詳細図（細
  6
Continuous
 62
     3
370
     5
100
AcDbLine
 10
-660.249061199323
 20
844.7983224511262
 30
0.0
 11
-660.249061199323
 21
838.7983224511263
 31
0.0
  0
LINE
  5
3A1
330
1F
100
AcDbEntity
  8
0239_詳細図（細
  6
Continuous
 62
     3
370
     5
100
AcDbLine
 10
-665.1988086676289
 20
844.7983224511262
 30
0.0
 11
-665.1988086676289
 21
838.7983224511263
 31
0.0
  0
LINE
  5
3A2
330
1F
100
AcDbEntity
  8
0239_詳細図（細
  6
Continuous
 62
     3
370
     5
100
AcDbLine
 10
-670.1485561359345
 20
830.7983224511261
 30
0.0
 11
-670.1485561359345
 21
824.7983224511262
 31
0.0
  0
LINE
  5
3A3
330
1F
100
AcDbEntity
  8
0239_詳細図（細
  6
Continuous
 62
     3
370
     5
100
AcDbLine
 10
-660.249061199323
 20
830.7983224511261
 30
0.0
 11
-660.249061199323
 21
824.7983224511262
 31
0.0
  0
LINE
  5
3A4
330
1F
100
AcDbEntity
  8
0239_詳細図（細
  6
Continuous
 62
     3
370
     5
100
AcDbLine
 10
-665.1988086676289
 20
830.7983224511261
 30
0.0
 11
-665.1988086676289
 21
824.7983224511262
 31
0.0
  0
LINE
  5
3A5
330
1F
100
AcDbEntity
  8
0239_詳細図（細
  6
Continuous
 62
     3
370
     5
100
AcDbLine
 10
-670.1485561359345
 20
816.7983224511261
 30
0.0
 11
-670.1485561359345
 21
810.7983224511261
 31
0.0
  0
LINE
  5
3A6
330
1F
100
AcDbEntity
  8
0239_詳細図（細
  6
Continuous
 62
     3
370
     5
100
AcDbLine
 10
-660.249061199323
 20
816.7983224511261
 30
0.0
 11
-660.249061199323
 21
810.7983224511261
 31
0.0
  0
LINE
  5
3A7
330
1F
100
AcDbEntity
  8
0239_詳細図（細
  6
Continuous
 62
     3
370
     5
100
AcDbLine
 10
-665.1988086676289
 20
816.7983224511261
 30
0.0
 11
-665.1988086676289
 21
810.7983224511261
 31
0.0
  0
LINE
  5
3A8
330
1F
100
AcDbEntity
  8
0239_詳細図（細
  6
Continuous
 62
     3
370
     5
100
AcDbLine
 10
-670.1485561359345
 20
802.7983224511261
 30
0.0
 11
-670.1485561359345
 21
796.7983224511261
 31
0.0
  0
LINE
  5
3A9
330
1F
100
AcDbEntity
  8
0239_詳細図（細
  6
Continuous
 62
     3
370
     5
100
AcDbLine
 10
-660.249061199323
 20
802.7983224511261
 30
0.0
 11
-660.249061199323
 21
796.7983224511261
 31
0.0
  0
LINE
  5
3AA
330
1F
100
AcDbEntity
  8
0239_詳細図（細
  6
Continuous
 62
     3
370
     5
100
AcDbLine
 10
-665.1988086676289
 20
802.7983224511261
 30
0.0
 11
-665.1988086676289
 21
796.7983224511261
 31
0.0
  0
LINE
  5
3AB
330
1F
100
AcDbEntity
  8
0239_詳細図（細
  6
Continuous
 62
     3
370
     5
100
AcDbLine
 10
-670.1485561359345
 20
788.798322451126
 30
0.0
 11
-670.1485561359345
 21
782.7983224511261
 31
0.0
  0
LINE
  5
3AC
330
1F
100
AcDbEntity
  8
0239_詳細図（細
  6
Continuous
 62
     3
370
     5
100
AcDbLine
 10
-660.249061199323
 20
788.798322451126
 30
0.0
 11
-660.249061199323
 21
782.7983224511261
 31
0.0
  0
LINE
  5
3AD
330
1F
100
AcDbEntity
  8
0239_詳細図（細
  6
Continuous
 62
     3
370
     5
100
AcDbLine
 10
-665.1988086676289
 20
788.798322451126
 30
0.0
 11
-665.1988086676289
 21
782.7983224511261
 31
0.0
  0
LINE
  5
3AE
330
1F
100
AcDbEntity
  8
0239_詳細図（細
  6
Continuous
 62
     3
370
     5
100
AcDbLine
 10
-670.1485561359345
 20
774.7983224511258
 30
0.0
 11
-670.1485561359345
 21
768.798322451126
 31
0.0
  0
LINE
  5
3AF
330
1F
100
AcDbEntity
  8
0239_詳細図（細
  6
Continuous
 62
     3
370
     5
100
AcDbLine
 10
-660.249061199323
 20
774.7983224511258
 30
0.0
 11
-660.249061199323
 21
768.798322451126
 31
0.0
  0
LINE
  5
3B0
330
1F
100
AcDbEntity
  8
0239_詳細図（細
  6
Continuous
 62
     3
370
     5
100
AcDbLine
 10
-665.1988086676289
 20
774.7983224511258
 30
0.0
 11
-665.1988086676289
 21
768.798322451126
 31
0.0
  0
LINE
  5
3B1
330
1F
100
AcDbEntity
  8
0239_詳細図（細
  6
Continuous
 62
     3
370
     5
100
AcDbLine
 10
-670.1485561359345
 20
760.7983224511258
 30
0.0
 11
-670.1485561359345
 21
754.7983224511258
 31
0.0
  0
LINE
  5
3B2
330
1F
100
AcDbEntity
  8
0239_詳細図（細
  6
Continuous
 62
     3
370
     5
100
AcDbLine
 10
-660.249061199323
 20
760.7983224511258
 30
0.0
 11
-660.249061199323
 21
754.7983224511258
 31
0.0
  0
LINE
  5
3B3
330
1F
100
AcDbEntity
  8
0239_詳細図（細
  6
Continuous
 62
     3
370
     5
100
AcDbLine
 10
-665.1988086676289
 20
760.7983224511258
 30
0.0
 11
-665.1988086676289
 21
754.7983224511258
 31
0.0
  0
LINE
  5
3B4
330
1F
100
AcDbEntity
  8
0239_詳細図（細
  6
Continuous
 62
     3
370
     5
100
AcDbLine
 10
-670.1485561359345
 20
746.7983224511258
 30
0.0
 11
-670.1485561359345
 21
740.7983224511258
 31
0.0
  0
LINE
  5
3B5
330
1F
100
AcDbEntity
  8
0239_詳細図（細
  6
Continuous
 62
     3
370
     5
100
AcDbLine
 10
-660.249061199323
 20
746.7983224511258
 30
0.0
 11
-660.249061199323
 21
740.7983224511258
 31
0.0
  0
LINE
  5
3B6
330
1F
100
AcDbEntity
  8
0239_詳細図（細
  6
Continuous
 62
     3
370
     5
100
AcDbLine
 10
-665.1988086676289
 20
746.7983224511258
 30
0.0
 11
-665.1988086676289
 21
740.7983224511258
 31
0.0
  0
LINE
  5
3B7
330
1F
100
AcDbEntity
  8
0239_詳細図（細
  6
Continuous
 62
     3
370
     5
100
AcDbLine
 10
-670.1485561359345
 20
732.7983224511257
 30
0.0
 11
-670.1485561359345
 21
726.7983224511258
 31
0.0
  0
LINE
  5
3B8
330
1F
100
AcDbEntity
  8
0239_詳細図（細
  6
Continuous
 62
     3
370
     5
100
AcDbLine
 10
-660.249061199323
 20
732.7983224511257
 30
0.0
 11
-660.249061199323
 21
726.7983224511258
 31
0.0
  0
LINE
  5
3B9
330
1F
100
AcDbEntity
  8
0239_詳細図（細
  6
Continuous
 62
     3
370
     5
100
AcDbLine
 10
-665.1988086676289
 20
732.7983224511257
 30
0.0
 11
-665.1988086676289
 21
726.7983224511258
 31
0.0
  0
LINE
  5
3BA
330
1F
100
AcDbEntity
  8
0239_詳細図（細
  6
Continuous
 62
     3
370
     5
100
AcDbLine
 10
-670.1485561359345
 20
718.7983224511256
 30
0.0
 11
-670.1485561359345
 21
712.7983224511257
 31
0.0
  0
LINE
  5
3BB
330
1F
100
AcDbEntity
  8
0239_詳細図（細
  6
Continuous
 62
     3
370
     5
100
AcDbLine
 10
-660.249061199323
 20
718.7983224511256
 30
0.0
 11
-660.249061199323
 21
712.7983224511257
 31
0.0
  0
LINE
  5
3BC
330
1F
100
AcDbEntity
  8
0239_詳細図（細
  6
Continuous
 62
     3
370
     5
100
AcDbLine
 10
-665.1988086676289
 20
718.7983224511256
 30
0.0
 11
-665.1988086676289
 21
712.7983224511257
 31
0.0
  0
LINE
  5
3BD
330
1F
100
AcDbEntity
  8
0239_詳細図（細
  6
Continuous
 62
     3
370
     5
100
AcDbLine
 10
-670.1485561359345
 20
704.7983224511256
 30
0.0
 11
-670.1485561359345
 21
698.7983224511256
 31
0.0
  0
LINE
  5
3BE
330
1F
100
AcDbEntity
  8
0239_詳細図（細
  6
Continuous
 62
     3
370
     5
100
AcDbLine
 10
-660.249061199323
 20
704.7983224511256
 30
0.0
 11
-660.249061199323
 21
698.7983224511256
 31
0.0
  0
LINE
  5
3BF
330
1F
100
AcDbEntity
  8
0239_詳細図（細
  6
Continuous
 62
     3
370
     5
100
AcDbLine
 10
-665.1988086676289
 20
704.7983224511256
 30
0.0
 11
-665.1988086676289
 21
698.7983224511256
 31
0.0
  0
LINE
  5
3C0
330
1F
100
AcDbEntity
  8
0239_詳細図（細
  6
Continuous
 62
     3
370
     5
100
AcDbLine
 10
-670.1485561359345
 20
690.7983224511256
 30
0.0
 11
-670.1485561359345
 21
684.7983224511256
 31
0.0
  0
LINE
  5
3C1
330
1F
100
AcDbEntity
  8
0239_詳細図（細
  6
Continuous
 62
     3
370
     5
100
AcDbLine
 10
-660.249061199323
 20
690.7983224511256
 30
0.0
 11
-660.249061199323
 21
684.7983224511256
 31
0.0
  0
LINE
  5
3C2
330
1F
100
AcDbEntity
  8
0239_詳細図（細
  6
Continuous
 62
     3
370
     5
100
AcDbLine
 10
-665.1988086676289
 20
690.7983224511256
 30
0.0
 11
-665.1988086676289
 21
684.7983224511256
 31
0.0
  0
LINE
  5
3C3
330
1F
100
AcDbEntity
  8
0239_詳細図（細
  6
Continuous
 62
     3
370
     5
100
AcDbLine
 10
-670.1485561359345
 20
676.7983224511255
 30
0.0
 11
-670.1485561359345
 21
670.7983224511256
 31
0.0
  0
LINE
  5
3C4
330
1F
100
AcDbEntity
  8
0239_詳細図（細
  6
Continuous
 62
     3
370
     5
100
AcDbLine
 10
-660.249061199323
 20
676.7983224511255
 30
0.0
 11
-660.249061199323
 21
670.7983224511256
 31
0.0
  0
LINE
  5
3C5
330
1F
100
AcDbEntity
  8
0239_詳細図（細
  6
Continuous
 62
     3
370
     5
100
AcDbLine
 10
-665.1988086676289
 20
676.7983224511255
 30
0.0
 11
-665.1988086676289
 21
670.7983224511256
 31
0.0
  0
LINE
  5
3C6
330
1F
100
AcDbEntity
  8
0239_詳細図（細
  6
Continuous
 62
     3
370
     5
100
AcDbLine
 10
-670.1485561359345
 20
662.7983224511254
 30
0.0
 11
-670.1485561359345
 21
656.7983224511255
 31
0.0
  0
LINE
  5
3C7
330
1F
100
AcDbEntity
  8
0239_詳細図（細
  6
Continuous
 62
     3
370
     5
100
AcDbLine
 10
-660.249061199323
 20
662.7983224511254
 30
0.0
 11
-660.249061199323
 21
656.7983224511255
 31
0.0
  0
LINE
  5
3C8
330
1F
100
AcDbEntity
  8
0239_詳細図（細
  6
Continuous
 62
     3
370
     5
100
AcDbLine
 10
-665.1988086676289
 20
662.7983224511254
 30
0.0
 11
-665.1988086676289
 21
656.7983224511255
 31
0.0
  0
LINE
  5
3C9
330
1F
100
AcDbEntity
  8
0239_詳細図（細
  6
Continuous
 62
     3
370
     5
100
AcDbLine
 10
-670.1485561359345
 20
648.7983224511254
 30
0.0
 11
-670.1485561359345
 21
642.7983224511254
 31
0.0
  0
LINE
  5
3CA
330
1F
100
AcDbEntity
  8
0239_詳細図（細
  6
Continuous
 62
     3
370
     5
100
AcDbLine
 10
-660.249061199323
 20
648.7983224511254
 30
0.0
 11
-660.249061199323
 21
642.7983224511254
 31
0.0
  0
LINE
  5
3CB
330
1F
100
AcDbEntity
  8
0239_詳細図（細
  6
Continuous
 62
     3
370
     5
100
AcDbLine
 10
-665.1988086676289
 20
648.7983224511254
 30
0.0
 11
-665.1988086676289
 21
642.7983224511254
 31
0.0
  0
LINE
  5
3CC
330
1F
100
AcDbEntity
  8
0239_詳細図（細
  6
Continuous
 62
     3
370
     5
100
AcDbLine
 10
-670.1485561359345
 20
634.7983224511254
 30
0.0
 11
-670.1485561359345
 21
628.7983224511254
 31
0.0
  0
LINE
  5
3CD
330
1F
100
AcDbEntity
  8
0239_詳細図（細
  6
Continuous
 62
     3
370
     5
100
AcDbLine
 10
-660.249061199323
 20
634.7983224511254
 30
0.0
 11
-660.249061199323
 21
628.7983224511254
 31
0.0
  0
LINE
  5
3CE
330
1F
100
AcDbEntity
  8
0239_詳細図（細
  6
Continuous
 62
     3
370
     5
100
AcDbLine
 10
-665.1988086676289
 20
634.7983224511254
 30
0.0
 11
-665.1988086676289
 21
628.7983224511254
 31
0.0
  0
LINE
  5
3CF
330
1F
100
AcDbEntity
  8
0239_詳細図（細
  6
Continuous
 62
     3
370
     5
100
AcDbLine
 10
-670.1485561359345
 20
620.7983224511253
 30
0.0
 11
-670.1485561359345
 21
614.7983224511254
 31
0.0
  0
LINE
  5
3D0
330
1F
100
AcDbEntity
  8
0239_詳細図（細
  6
Continuous
 62
     3
370
     5
100
AcDbLine
 10
-660.249061199323
 20
620.7983224511253
 30
0.0
 11
-660.249061199323
 21
614.7983224511254
 31
0.0
  0
LINE
  5
3D1
330
1F
100
AcDbEntity
  8
0239_詳細図（細
  6
Continuous
 62
     3
370
     5
100
AcDbLine
 10
-665.1988086676289
 20
620.7983224511253
 30
0.0
 11
-665.1988086676289
 21
614.7983224511254
 31
0.0
  0
LINE
  5
3D2
330
1F
100
AcDbEntity
  8
0239_詳細図（細
  6
Continuous
 62
     3
370
     5
100
AcDbLine
 10
-590.1485561359347
 20
900.7983224511264
 30
0.0
 11
-590.1485561359347
 21
894.7983224511265
 31
0.0
  0
LINE
  5
3D3
330
1F
100
AcDbEntity
  8
0239_詳細図（細
  6
Continuous
 62
     3
370
     5
100
AcDbLine
 10
-580.249061199323
 20
900.7983224511264
 30
0.0
 11
-580.249061199323
 21
894.7983224511265
 31
0.0
  0
LINE
  5
3D4
330
1F
100
AcDbEntity
  8
0239_詳細図（細
  6
Continuous
 62
     3
370
     5
100
AcDbLine
 10
-585.1988086676288
 20
900.7983224511264
 30
0.0
 11
-585.1988086676288
 21
894.7983224511265
 31
0.0
  0
LINE
  5
3D5
330
1F
100
AcDbEntity
  8
0239_詳細図（細
  6
Continuous
 62
     3
370
     5
100
AcDbLine
 10
-590.1485561359347
 20
886.7983224511263
 30
0.0
 11
-590.1485561359347
 21
880.7983224511264
 31
0.0
  0
LINE
  5
3D6
330
1F
100
AcDbEntity
  8
0239_詳細図（細
  6
Continuous
 62
     3
370
     5
100
AcDbLine
 10
-580.249061199323
 20
886.7983224511263
 30
0.0
 11
-580.249061199323
 21
880.7983224511264
 31
0.0
  0
LINE
  5
3D7
330
1F
100
AcDbEntity
  8
0239_詳細図（細
  6
Continuous
 62
     3
370
     5
100
AcDbLine
 10
-585.1988086676288
 20
886.7983224511263
 30
0.0
 11
-585.1988086676288
 21
880.7983224511264
 31
0.0
  0
LINE
  5
3D8
330
1F
100
AcDbEntity
  8
0239_詳細図（細
  6
Continuous
 62
     3
370
     5
100
AcDbLine
 10
-590.1485561359347
 20
872.7983224511263
 30
0.0
 11
-590.1485561359347
 21
866.7983224511263
 31
0.0
  0
LINE
  5
3D9
330
1F
100
AcDbEntity
  8
0239_詳細図（細
  6
Continuous
 62
     3
370
     5
100
AcDbLine
 10
-580.249061199323
 20
872.7983224511263
 30
0.0
 11
-580.249061199323
 21
866.7983224511263
 31
0.0
  0
LINE
  5
3DA
330
1F
100
AcDbEntity
  8
0239_詳細図（細
  6
Continuous
 62
     3
370
     5
100
AcDbLine
 10
-585.1988086676288
 20
872.7983224511263
 30
0.0
 11
-585.1988086676288
 21
866.7983224511263
 31
0.0
  0
LINE
  5
3DB
330
1F
100
AcDbEntity
  8
0239_詳細図（細
  6
Continuous
 62
     3
370
     5
100
AcDbLine
 10
-590.1485561359347
 20
858.7983224511263
 30
0.0
 11
-590.1485561359347
 21
852.7983224511263
 31
0.0
  0
LINE
  5
3DC
330
1F
100
AcDbEntity
  8
0239_詳細図（細
  6
Continuous
 62
     3
370
     5
100
AcDbLine
 10
-580.249061199323
 20
858.7983224511263
 30
0.0
 11
-580.249061199323
 21
852.7983224511263
 31
0.0
  0
LINE
  5
3DD
330
1F
100
AcDbEntity
  8
0239_詳細図（細
  6
Continuous
 62
     3
370
     5
100
AcDbLine
 10
-585.1988086676288
 20
858.7983224511263
 30
0.0
 11
-585.1988086676288
 21
852.7983224511263
 31
0.0
  0
LINE
  5
3DE
330
1F
100
AcDbEntity
  8
0239_詳細図（細
  6
Continuous
 62
     3
370
     5
100
AcDbLine
 10
-590.1485561359347
 20
844.7983224511262
 30
0.0
 11
-590.1485561359347
 21
838.7983224511263
 31
0.0
  0
LINE
  5
3DF
330
1F
100
AcDbEntity
  8
0239_詳細図（細
  6
Continuous
 62
     3
370
     5
100
AcDbLine
 10
-580.249061199323
 20
844.7983224511262
 30
0.0
 11
-580.249061199323
 21
838.7983224511263
 31
0.0
  0
LINE
  5
3E0
330
1F
100
AcDbEntity
  8
0239_詳細図（細
  6
Continuous
 62
     3
370
     5
100
AcDbLine
 10
-585.1988086676288
 20
844.7983224511262
 30
0.0
 11
-585.1988086676288
 21
838.7983224511263
 31
0.0
  0
LINE
  5
3E1
330
1F
100
AcDbEntity
  8
0239_詳細図（細
  6
Continuous
 62
     3
370
     5
100
AcDbLine
 10
-590.1485561359347
 20
830.7983224511261
 30
0.0
 11
-590.1485561359347
 21
824.7983224511262
 31
0.0
  0
LINE
  5
3E2
330
1F
100
AcDbEntity
  8
0239_詳細図（細
  6
Continuous
 62
     3
370
     5
100
AcDbLine
 10
-580.249061199323
 20
830.7983224511261
 30
0.0
 11
-580.249061199323
 21
824.7983224511262
 31
0.0
  0
LINE
  5
3E3
330
1F
100
AcDbEntity
  8
0239_詳細図（細
  6
Continuous
 62
     3
370
     5
100
AcDbLine
 10
-585.1988086676288
 20
830.7983224511261
 30
0.0
 11
-585.1988086676288
 21
824.7983224511262
 31
0.0
  0
LINE
  5
3E4
330
1F
100
AcDbEntity
  8
0239_詳細図（細
  6
Continuous
 62
     3
370
     5
100
AcDbLine
 10
-590.1485561359347
 20
816.7983224511261
 30
0.0
 11
-590.1485561359347
 21
810.7983224511261
 31
0.0
  0
LINE
  5
3E5
330
1F
100
AcDbEntity
  8
0239_詳細図（細
  6
Continuous
 62
     3
370
     5
100
AcDbLine
 10
-580.249061199323
 20
816.7983224511261
 30
0.0
 11
-580.249061199323
 21
810.7983224511261
 31
0.0
  0
LINE
  5
3E6
330
1F
100
AcDbEntity
  8
0239_詳細図（細
  6
Continuous
 62
     3
370
     5
100
AcDbLine
 10
-585.1988086676288
 20
816.7983224511261
 30
0.0
 11
-585.1988086676288
 21
810.7983224511261
 31
0.0
  0
LINE
  5
3E7
330
1F
100
AcDbEntity
  8
0239_詳細図（細
  6
Continuous
 62
     3
370
     5
100
AcDbLine
 10
-590.1485561359347
 20
802.7983224511261
 30
0.0
 11
-590.1485561359347
 21
796.7983224511261
 31
0.0
  0
LINE
  5
3E8
330
1F
100
AcDbEntity
  8
0239_詳細図（細
  6
Continuous
 62
     3
370
     5
100
AcDbLine
 10
-580.249061199323
 20
802.7983224511261
 30
0.0
 11
-580.249061199323
 21
796.7983224511261
 31
0.0
  0
LINE
  5
3E9
330
1F
100
AcDbEntity
  8
0239_詳細図（細
  6
Continuous
 62
     3
370
     5
100
AcDbLine
 10
-585.1988086676288
 20
802.7983224511261
 30
0.0
 11
-585.1988086676288
 21
796.7983224511261
 31
0.0
  0
LINE
  5
3EA
330
1F
100
AcDbEntity
  8
0239_詳細図（細
  6
Continuous
 62
     3
370
     5
100
AcDbLine
 10
-590.1485561359347
 20
788.798322451126
 30
0.0
 11
-590.1485561359347
 21
782.7983224511261
 31
0.0
  0
LINE
  5
3EB
330
1F
100
AcDbEntity
  8
0239_詳細図（細
  6
Continuous
 62
     3
370
     5
100
AcDbLine
 10
-580.249061199323
 20
788.798322451126
 30
0.0
 11
-580.249061199323
 21
782.7983224511261
 31
0.0
  0
LINE
  5
3EC
330
1F
100
AcDbEntity
  8
0239_詳細図（細
  6
Continuous
 62
     3
370
     5
100
AcDbLine
 10
-585.1988086676288
 20
788.798322451126
 30
0.0
 11
-585.1988086676288
 21
782.7983224511261
 31
0.0
  0
LINE
  5
3ED
330
1F
100
AcDbEntity
  8
0239_詳細図（細
  6
Continuous
 62
     3
370
     5
100
AcDbLine
 10
-590.1485561359347
 20
774.7983224511258
 30
0.0
 11
-590.1485561359347
 21
768.798322451126
 31
0.0
  0
LINE
  5
3EE
330
1F
100
AcDbEntity
  8
0239_詳細図（細
  6
Continuous
 62
     3
370
     5
100
AcDbLine
 10
-580.249061199323
 20
774.7983224511258
 30
0.0
 11
-580.249061199323
 21
768.798322451126
 31
0.0
  0
LINE
  5
3EF
330
1F
100
AcDbEntity
  8
0239_詳細図（細
  6
Continuous
 62
     3
370
     5
100
AcDbLine
 10
-585.1988086676288
 20
774.7983224511258
 30
0.0
 11
-585.1988086676288
 21
768.798322451126
 31
0.0
  0
LINE
  5
3F0
330
1F
100
AcDbEntity
  8
0239_詳細図（細
  6
Continuous
 62
     3
370
     5
100
AcDbLine
 10
-590.1485561359347
 20
760.7983224511258
 30
0.0
 11
-590.1485561359347
 21
754.7983224511258
 31
0.0
  0
LINE
  5
3F1
330
1F
100
AcDbEntity
  8
0239_詳細図（細
  6
Continuous
 62
     3
370
     5
100
AcDbLine
 10
-580.249061199323
 20
760.7983224511258
 30
0.0
 11
-580.249061199323
 21
754.7983224511258
 31
0.0
  0
LINE
  5
3F2
330
1F
100
AcDbEntity
  8
0239_詳細図（細
  6
Continuous
 62
     3
370
     5
100
AcDbLine
 10
-585.1988086676288
 20
760.7983224511258
 30
0.0
 11
-585.1988086676288
 21
754.7983224511258
 31
0.0
  0
LINE
  5
3F3
330
1F
100
AcDbEntity
  8
0239_詳細図（細
  6
Continuous
 62
     3
370
     5
100
AcDbLine
 10
-590.1485561359347
 20
746.7983224511258
 30
0.0
 11
-590.1485561359347
 21
740.7983224511258
 31
0.0
  0
LINE
  5
3F4
330
1F
100
AcDbEntity
  8
0239_詳細図（細
  6
Continuous
 62
     3
370
     5
100
AcDbLine
 10
-580.249061199323
 20
746.7983224511258
 30
0.0
 11
-580.249061199323
 21
740.7983224511258
 31
0.0
  0
LINE
  5
3F5
330
1F
100
AcDbEntity
  8
0239_詳細図（細
  6
Continuous
 62
     3
370
     5
100
AcDbLine
 10
-585.1988086676288
 20
746.7983224511258
 30
0.0
 11
-585.1988086676288
 21
740.7983224511258
 31
0.0
  0
LINE
  5
3F6
330
1F
100
AcDbEntity
  8
0239_詳細図（細
  6
Continuous
 62
     3
370
     5
100
AcDbLine
 10
-590.1485561359347
 20
732.7983224511257
 30
0.0
 11
-590.1485561359347
 21
726.7983224511258
 31
0.0
  0
LINE
  5
3F7
330
1F
100
AcDbEntity
  8
0239_詳細図（細
  6
Continuous
 62
     3
370
     5
100
AcDbLine
 10
-580.249061199323
 20
732.7983224511257
 30
0.0
 11
-580.249061199323
 21
726.7983224511258
 31
0.0
  0
LINE
  5
3F8
330
1F
100
AcDbEntity
  8
0239_詳細図（細
  6
Continuous
 62
     3
370
     5
100
AcDbLine
 10
-585.1988086676288
 20
732.7983224511257
 30
0.0
 11
-585.1988086676288
 21
726.7983224511258
 31
0.0
  0
LINE
  5
3F9
330
1F
100
AcDbEntity
  8
0239_詳細図（細
  6
Continuous
 62
     3
370
     5
100
AcDbLine
 10
-590.1485561359347
 20
718.7983224511256
 30
0.0
 11
-590.1485561359347
 21
712.7983224511257
 31
0.0
  0
LINE
  5
3FA
330
1F
100
AcDbEntity
  8
0239_詳細図（細
  6
Continuous
 62
     3
370
     5
100
AcDbLine
 10
-580.249061199323
 20
718.7983224511256
 30
0.0
 11
-580.249061199323
 21
712.7983224511257
 31
0.0
  0
LINE
  5
3FB
330
1F
100
AcDbEntity
  8
0239_詳細図（細
  6
Continuous
 62
     3
370
     5
100
AcDbLine
 10
-585.1988086676288
 20
718.7983224511256
 30
0.0
 11
-585.1988086676288
 21
712.7983224511257
 31
0.0
  0
LINE
  5
3FC
330
1F
100
AcDbEntity
  8
0239_詳細図（細
  6
Continuous
 62
     3
370
     5
100
AcDbLine
 10
-590.1485561359347
 20
704.7983224511256
 30
0.0
 11
-590.1485561359347
 21
698.7983224511256
 31
0.0
  0
LINE
  5
3FD
330
1F
100
AcDbEntity
  8
0239_詳細図（細
  6
Continuous
 62
     3
370
     5
100
AcDbLine
 10
-580.249061199323
 20
704.7983224511256
 30
0.0
 11
-580.249061199323
 21
698.7983224511256
 31
0.0
  0
LINE
  5
3FE
330
1F
100
AcDbEntity
  8
0239_詳細図（細
  6
Continuous
 62
     3
370
     5
100
AcDbLine
 10
-585.1988086676288
 20
704.7983224511256
 30
0.0
 11
-585.1988086676288
 21
698.7983224511256
 31
0.0
  0
LINE
  5
3FF
330
1F
100
AcDbEntity
  8
0239_詳細図（細
  6
Continuous
 62
     3
370
     5
100
AcDbLine
 10
-902.1988086676288
 20
900.7983224511264
 30
0.0
 11
-508.1988086676288
 21
900.7983224511264
 31
0.0
  0
LINE
  5
400
330
1F
100
AcDbEntity
  8
0239_詳細図（細
  6
Continuous
 62
     3
370
     5
100
AcDbLine
 10
-902.1988086676288
 20
894.7983224511265
 30
0.0
 11
-508.1988086676288
 21
894.7983224511265
 31
0.0
  0
LINE
  5
401
330
1F
100
AcDbEntity
  8
0239_詳細図（細
  6
Continuous
 62
     3
370
     5
100
AcDbLine
 10
-902.1988086676288
 20
886.7983224511263
 30
0.0
 11
-508.1988086676288
 21
886.7983224511263
 31
0.0
  0
LINE
  5
402
330
1F
100
AcDbEntity
  8
0239_詳細図（細
  6
Continuous
 62
     3
370
     5
100
AcDbLine
 10
-902.1988086676288
 20
880.7983224511264
 30
0.0
 11
-508.1988086676288
 21
880.7983224511264
 31
0.0
  0
LINE
  5
403
330
1F
100
AcDbEntity
  8
0239_詳細図（細
  6
Continuous
 62
     3
370
     5
100
AcDbLine
 10
-902.1988086676288
 20
872.7983224511263
 30
0.0
 11
-508.1988086676288
 21
872.7983224511263
 31
0.0
  0
LINE
  5
404
330
1F
100
AcDbEntity
  8
0239_詳細図（細
  6
Continuous
 62
     3
370
     5
100
AcDbLine
 10
-902.1988086676288
 20
866.7983224511263
 30
0.0
 11
-508.1988086676288
 21
866.7983224511263
 31
0.0
  0
LINE
  5
405
330
1F
100
AcDbEntity
  8
0239_詳細図（細
  6
Continuous
 62
     3
370
     5
100
AcDbLine
 10
-902.1988086676288
 20
858.7983224511263
 30
0.0
 11
-508.1988086676288
 21
858.7983224511263
 31
0.0
  0
LINE
  5
406
330
1F
100
AcDbEntity
  8
0239_詳細図（細
  6
Continuous
 62
     3
370
     5
100
AcDbLine
 10
-902.1988086676288
 20
852.7983224511263
 30
0.0
 11
-508.1988086676288
 21
852.7983224511263
 31
0.0
  0
LINE
  5
407
330
1F
100
AcDbEntity
  8
0239_詳細図（細
  6
Continuous
 62
     3
370
     5
100
AcDbLine
 10
-902.1988086676288
 20
844.7983224511262
 30
0.0
 11
-508.1988086676288
 21
844.7983224511262
 31
0.0
  0
LINE
  5
408
330
1F
100
AcDbEntity
  8
0239_詳細図（細
  6
Continuous
 62
     3
370
     5
100
AcDbLine
 10
-902.1988086676288
 20
838.7983224511263
 30
0.0
 11
-508.1988086676288
 21
838.7983224511263
 31
0.0
  0
LINE
  5
409
330
1F
100
AcDbEntity
  8
0239_詳細図（細
  6
Continuous
 62
     3
370
     5
100
AcDbLine
 10
-902.1988086676288
 20
830.7983224511261
 30
0.0
 11
-508.1988086676288
 21
830.7983224511261
 31
0.0
  0
LINE
  5
40A
330
1F
100
AcDbEntity
  8
0239_詳細図（細
  6
Continuous
 62
     3
370
     5
100
AcDbLine
 10
-902.1988086676288
 20
824.7983224511262
 30
0.0
 11
-508.1988086676288
 21
824.7983224511262
 31
0.0
  0
LINE
  5
40B
330
1F
100
AcDbEntity
  8
0239_詳細図（細
  6
Continuous
 62
     3
370
     5
100
AcDbLine
 10
-902.1988086676288
 20
816.7983224511261
 30
0.0
 11
-508.1988086676288
 21
816.7983224511261
 31
0.0
  0
LINE
  5
40C
330
1F
100
AcDbEntity
  8
0239_詳細図（細
  6
Continuous
 62
     3
370
     5
100
AcDbLine
 10
-902.1988086676288
 20
810.7983224511261
 30
0.0
 11
-508.1988086676288
 21
810.7983224511261
 31
0.0
  0
LINE
  5
40D
330
1F
100
AcDbEntity
  8
0239_詳細図（細
  6
Continuous
 62
     3
370
     5
100
AcDbLine
 10
-902.1988086676288
 20
802.7983224511261
 30
0.0
 11
-508.1988086676288
 21
802.7983224511261
 31
0.0
  0
LINE
  5
40E
330
1F
100
AcDbEntity
  8
0239_詳細図（細
  6
Continuous
 62
     3
370
     5
100
AcDbLine
 10
-902.1988086676288
 20
796.7983224511261
 30
0.0
 11
-508.1988086676288
 21
796.7983224511261
 31
0.0
  0
LINE
  5
40F
330
1F
100
AcDbEntity
  8
0239_詳細図（細
  6
Continuous
 62
     3
370
     5
100
AcDbLine
 10
-902.1988086676288
 20
788.798322451126
 30
0.0
 11
-508.1988086676288
 21
788.798322451126
 31
0.0
  0
LINE
  5
410
330
1F
100
AcDbEntity
  8
0239_詳細図（細
  6
Continuous
 62
     3
370
     5
100
AcDbLine
 10
-902.1988086676288
 20
782.7983224511261
 30
0.0
 11
-508.1988086676288
 21
782.7983224511261
 31
0.0
  0
LINE
  5
411
330
1F
100
AcDbEntity
  8
0239_詳細図（細
  6
Continuous
 62
     3
370
     5
100
AcDbLine
 10
-902.1988086676288
 20
774.7983224511258
 30
0.0
 11
-508.1988086676288
 21
774.7983224511258
 31
0.0
  0
LINE
  5
412
330
1F
100
AcDbEntity
  8
0239_詳細図（細
  6
Continuous
 62
     3
370
     5
100
AcDbLine
 10
-902.1988086676288
 20
768.798322451126
 30
0.0
 11
-508.1988086676288
 21
768.798322451126
 31
0.0
  0
LINE
  5
413
330
1F
100
AcDbEntity
  8
0239_詳細図（細
  6
Continuous
 62
     3
370
     5
100
AcDbLine
 10
-740.249061199323
 20
536.7983224511249
 30
0.0
 11
-740.249061199323
 21
530.7983224511249
 31
0.0
  0
LINE
  5
414
330
1F
100
AcDbEntity
  8
0239_詳細図（細
  6
Continuous
 62
     3
370
     5
100
AcDbLine
 10
-745.1988086676289
 20
522.7983224511249
 30
0.0
 11
-745.1988086676289
 21
516.7983224511249
 31
0.0
  0
LINE
  5
415
330
1F
100
AcDbEntity
  8
0239_詳細図（細
  6
Continuous
 62
     3
370
     5
100
AcDbLine
 10
-740.249061199323
 20
522.7983224511249
 30
0.0
 11
-740.249061199323
 21
516.7983224511249
 31
0.0
  0
LINE
  5
416
330
1F
100
AcDbEntity
  8
0193_区画線（異
  6
Continuous
 62
     7
370
     5
100
AcDbLine
 10
-1031.198808667629
 20
508.7981240868687
 30
0.0
 11
-1031.198808667629
 21
533.7981240868687
 31
0.0
  0
LWPOLYLINE
  5
417
330
1F
100
AcDbEntity
  8
0193_区画線（異
  6
Continuous
 62
     7
370
     5
100
AcDbPolyline
 90
        4
 70
     1
 43
1.0
 10
-1030.698808667629
 20
508.7981240868687
 42
0.4142135623731
 10
-1031.198808667629
 20
509.2981240868687
 42
0.4142135623731
 10
-1031.698808667629
 20
508.7981240868687
 42
0.4142135623731
 10
-1031.198808667629
 20
508.2981240868687
 42
0.4142135623731
  0
LWPOLYLINE
  5
418
330
1F
100
AcDbEntity
  8
0193_区画線（異
  6
Continuous
 62
     7
370
     5
100
AcDbPolyline
 90
        4
 70
     1
 43
1.0
 10
-1030.698808667629
 20
533.7981240868687
 42
0.4142135623731
 10
-1031.198808667629
 20
534.2981240868687
 42
0.4142135623731
 10
-1031.698808667629
 20
533.7981240868687
 42
0.4142135623731
 10
-1031.198808667629
 20
533.2981240868687
 42
0.4142135623731
  0
LINE
  5
419
330
1F
100
AcDbEntity
  8
0193_区画線（異
  6
Continuous
 62
     7
370
     5
100
AcDbLine
 10
-1031.198808667629
 20
533.7981240868687
 30
0.0
 11
-1031.198808667629
 21
883.7980783105015
 31
0.0
  0
LWPOLYLINE
  5
41A
330
1F
100
AcDbEntity
  8
0193_区画線（異
  6
Continuous
 62
     7
370
     5
100
AcDbPolyline
 90
        4
 70
     1
 43
1.0
 10
-1030.698808667629
 20
883.7980783105015
 42
0.4142135623731
 10
-1031.198808667629
 20
884.2980783105015
 42
0.4142135623731
 10
-1031.698808667629
 20
883.7980783105015
 42
0.4142135623731
 10
-1031.198808667629
 20
883.2980783105016
 42
0.4142135623731
  0
TEXT
  5
41B
330
1F
100
AcDbEntity
  8
0193_区画線（異
  6
Continuous
 62
     2
370
   211
100
AcDbText
 10
-1046.838808667629
 20
676.2981011986852
 30
0.0
 40
30.48
  1
350
 50
90.0
 41
1.083333333333333
  7
ＭＳ ゴシック
100
AcDbText
  0
LINE
  5
41C
330
1F
100
AcDbEntity
  8
0193_区画線（異
  6
Continuous
 62
     7
370
     5
100
AcDbLine
 10
-1031.198808667629
 20
883.7980783105015
 30
0.0
 11
-1031.198808667629
 21
908.7983224511265
 31
0.0
  0
LWPOLYLINE
  5
41D
330
1F
100
AcDbEntity
  8
0193_区画線（異
  6
Continuous
 62
     7
370
     5
100
AcDbPolyline
 90
        4
 70
     1
 43
1.0
 10
-1030.698808667629
 20
908.7983224511265
 42
0.4142135623731
 10
-1031.198808667629
 20
909.2983224511265
 42
0.4142135623731
 10
-1031.698808667629
 20
908.7983224511265
 42
0.4142135623731
 10
-1031.198808667629
 20
908.2983224511265
 42
0.4142135623731
  0
LINE
  5
41E
330
1F
100
AcDbEntity
  8
0193_区画線（異
  6
Continuous
 62
     7
370
     5
100
AcDbLine
 10
-1034.198808667629
 20
508.7981240868687
 30
0.0
 11
-931.1988086676288
 21
508.7981240868687
 31
0.0
  0
LINE
  5
41F
330
1F
100
AcDbEntity
  8
0193_区画線（異
  6
Continuous
 62
     7
370
     5
100
AcDbLine
 10
-1034.198808667629
 20
533.7981240868687
 30
0.0
 11
-931.1988086676288
 21
533.7981240868687
 31
0.0
  0
LINE
  5
420
330
1F
100
AcDbEntity
  8
0193_区画線（異
  6
Continuous
 62
     7
370
     5
100
AcDbLine
 10
-1034.198808667629
 20
883.7980783105015
 30
0.0
 11
-931.1988086676288
 21
883.7980783105015
 31
0.0
  0
LINE
  5
421
330
1F
100
AcDbEntity
  8
0193_区画線（異
  6
Continuous
 62
     7
370
     5
100
AcDbLine
 10
-1034.198808667629
 20
908.7983224511265
 30
0.0
 11
-931.1988086676288
 21
908.7983224511265
 31
0.0
  0
TEXT
  5
422
330
1F
100
AcDbEntity
  8
0193_区画線（異
  6
Continuous
 62
     2
370
   211
100
AcDbText
 10
-1046.838808667629
 20
852.3194551793562
 30
0.0
 40
30.48
  1
25
 50
90.0
 41
1.0625
  7
ＭＳ ゴシック
100
AcDbText
  0
TEXT
  5
423
330
1F
100
AcDbEntity
  8
0193_区画線（異
  6
Continuous
 62
     2
370
   211
100
AcDbText
 10
-1046.838808667629
 20
522.1697953154105
 30
0.0
 40
30.48
  1
25
 50
90.0
 41
1.0625
  7
ＭＳ ゴシック
100
AcDbText
  0
LINE
  5
424
330
1F
100
AcDbEntity
  8
0193_区画線（異
  6
Continuous
 62
     7
370
     5
100
AcDbLine
 10
-1101.198808667629
 20
502.798414003861
 30
0.0
 11
-1101.198808667629
 21
507.7983987450718
 31
0.0
  0
LWPOLYLINE
  5
425
330
1F
100
AcDbEntity
  8
0193_区画線（異
  6
Continuous
 62
     7
370
     5
100
AcDbPolyline
 90
        4
 70
     1
 43
1.0
 10
-1100.698808667629
 20
502.798414003861
 42
0.4142135623731
 10
-1101.198808667629
 20
503.298414003861
 42
0.4142135623731
 10
-1101.698808667629
 20
502.798414003861
 42
0.4142135623731
 10
-1101.198808667629
 20
502.298414003861
 42
0.4142135623731
  0
LWPOLYLINE
  5
426
330
1F
100
AcDbEntity
  8
0193_区画線（異
  6
Continuous
 62
     7
370
     5
100
AcDbPolyline
 90
        4
 70
     1
 43
1.0
 10
-1100.698808667629
 20
507.7983987450718
 42
0.4142135623731
 10
-1101.198808667629
 20
508.2983987450718
 42
0.4142135623731
 10
-1101.698808667629
 20
507.7983987450718
 42
0.4142135623731
 10
-1101.198808667629
 20
507.2983987450718
 42
0.4142135623731
  0
LINE
  5
427
330
1F
100
AcDbEntity
  8
0193_区画線（異
  6
Continuous
 62
     7
370
     5
100
AcDbLine
 10
-1101.198808667629
 20
507.7983987450718
 30
0.0
 11
-1101.198808667629
 21
508.7981240868687
 31
0.0
  0
LWPOLYLINE
  5
428
330
1F
100
AcDbEntity
  8
0193_区画線（異
  6
Continuous
 62
     7
370
     5
100
AcDbPolyline
 90
        4
 70
     1
 43
1.0
 10
-1100.698808667629
 20
508.7981240868687
 42
0.4142135623731
 10
-1101.198808667629
 20
509.2981240868687
 42
0.4142135623731
 10
-1101.698808667629
 20
508.7981240868687
 42
0.4142135623731
 10
-1101.198808667629
 20
508.2981240868687
 42
0.4142135623731
  0
LWPOLYLINE
  5
429
330
1F
100
AcDbEntity
  8
0193_区画線（異
  6
Continuous
 62
     7
370
     5
100
AcDbPolyline
 90
        4
 70
     1
 43
1.0
 10
-1100.698808667629
 20
908.7983224511265
 42
0.4142135623731
 10
-1101.198808667629
 20
909.2983224511265
 42
0.4142135623731
 10
-1101.698808667629
 20
908.7983224511265
 42
0.4142135623731
 10
-1101.198808667629
 20
908.2983224511265
 42
0.4142135623731
  0
TEXT
  5
42A
330
1F
100
AcDbEntity
  8
0193_区画線（異
  6
Continuous
 62
     2
370
   211
100
AcDbText
 10
-1116.838808667629
 20
676.2982232689976
 30
0.0
 40
30.48
  1
400
 50
90.0
 41
1.083333333333333
  7
ＭＳ ゴシック
100
AcDbText
  0
LINE
  5
42B
330
1F
100
AcDbEntity
  8
0193_区画線（異
  6
Continuous
 62
     7
370
     5
100
AcDbLine
 10
-1101.198808667629
 20
908.7983224511265
 30
0.0
 11
-1101.198808667629
 21
909.7983224511265
 31
0.0
  0
LWPOLYLINE
  5
42C
330
1F
100
AcDbEntity
  8
0193_区画線（異
  6
Continuous
 62
     7
370
     5
100
AcDbPolyline
 90
        4
 70
     1
 43
1.0
 10
-1100.698808667629
 20
909.7983224511265
 42
0.4142135623731
 10
-1101.198808667629
 20
910.2983224511264
 42
0.4142135623731
 10
-1101.698808667629
 20
909.7983224511265
 42
0.4142135623731
 10
-1101.198808667629
 20
909.2983224511265
 42
0.4142135623731
  0
LINE
  5
42D
330
1F
100
AcDbEntity
  8
0193_区画線（異
  6
Continuous
 62
     7
370
     5
100
AcDbLine
 10
-1101.198808667629
 20
909.7983224511265
 30
0.0
 11
-1101.198808667629
 21
914.7982919335484
 31
0.0
  0
LWPOLYLINE
  5
42E
330
1F
100
AcDbEntity
  8
0193_区画線（異
  6
Continuous
 62
     7
370
     5
100
AcDbPolyline
 90
        4
 70
     1
 43
1.0
 10
-1100.698808667629
 20
914.7982919335484
 42
0.4142135623731
 10
-1101.198808667629
 20
915.2982919335484
 42
0.4142135623731
 10
-1101.698808667629
 20
914.7982919335484
 42
0.4142135623731
 10
-1101.198808667629
 20
914.2982919335485
 42
0.4142135623731
  0
LINE
  5
42F
330
1F
100
AcDbEntity
  8
0193_区画線（異
  6
Continuous
 62
     7
370
     5
100
AcDbLine
 10
-1104.198808667629
 20
502.798414003861
 30
0.0
 11
-931.1988086676288
 21
502.798414003861
 31
0.0
  0
LINE
  5
430
330
1F
100
AcDbEntity
  8
0193_区画線（異
  6
Continuous
 62
     7
370
     5
100
AcDbLine
 10
-1104.198808667629
 20
507.7983987450718
 30
0.0
 11
-931.1988086676288
 21
507.7983987450718
 31
0.0
  0
LINE
  5
431
330
1F
100
AcDbEntity
  8
0193_区画線（異
  6
Continuous
 62
     7
370
     5
100
AcDbLine
 10
-1104.198808667629
 20
508.7981240868687
 30
0.0
 11
-931.1988086676288
 21
508.7981240868687
 31
0.0
  0
LINE
  5
432
330
1F
100
AcDbEntity
  8
0193_区画線（異
  6
Continuous
 62
     7
370
     5
100
AcDbLine
 10
-1104.198808667629
 20
908.7983224511265
 30
0.0
 11
-931.1988086676288
 21
908.7983224511265
 31
0.0
  0
LINE
  5
433
330
1F
100
AcDbEntity
  8
0193_区画線（異
  6
Continuous
 62
     7
370
     5
100
AcDbLine
 10
-1104.198808667629
 20
909.7983224511265
 30
0.0
 11
-931.1988086676288
 21
909.7983224511265
 31
0.0
  0
LINE
  5
434
330
1F
100
AcDbEntity
  8
0193_区画線（異
  6
Continuous
 62
     7
370
     5
100
AcDbLine
 10
-1104.198808667629
 20
914.7982919335484
 30
0.0
 11
-931.1988086676288
 21
914.7982919335484
 31
0.0
  0
TEXT
  5
435
330
1F
100
AcDbEntity
  8
0193_区画線（異
  6
Continuous
 62
     2
370
   211
100
AcDbText
 10
-1116.838808667629
 20
879.5331740002177
 30
0.0
 40
30.48
  1
1
 50
90.0
 41
0.9999999999999998
  7
ＭＳ ゴシック
100
AcDbText
  0
TEXT
  5
436
330
1F
100
AcDbEntity
  8
0193_区画線（異
  6
Continuous
 62
     2
370
   211
100
AcDbText
 10
-1116.838808667629
 20
927.4243304628028
 30
0.0
 40
30.48
  1
5
 50
90.0
 41
0.9999999999999998
  7
ＭＳ ゴシック
100
AcDbText
  0
LINE
  5
437
330
1F
100
AcDbEntity
  8
0193_区画線（異
  6
Continuous
 62
     7
370
     5
100
AcDbLine
 10
-1101.198808667629
 20
464.7485935013516
 30
0.0
 11
-1101.198808667629
 21
956.9798860183583
 31
0.0
  0
TEXT
  5
438
330
1F
100
AcDbEntity
  8
0193_区画線（異
  6
Continuous
 62
     2
370
   211
100
AcDbText
 10
-1116.838808667629
 20
471.909591233778
 30
0.0
 40
30.48
  1
5
 50
90.0
 41
0.9999999999999998
  7
ＭＳ ゴシック
100
AcDbText
  0
TEXT
  5
439
330
1F
100
AcDbEntity
  8
0193_区画線（異
  6
Continuous
 62
     2
370
   211
100
AcDbText
 10
-1116.838808667629
 20
520.8982533652973
 30
0.0
 40
30.48
  1
1
 50
90.0
 41
0.9999999999999998
  7
ＭＳ ゴシック
100
AcDbText
  0
LINE
  5
43A
330
1F
100
AcDbEntity
  8
0193_区画線（異
  6
Continuous
 62
     7
370
     5
100
AcDbLine
 10
-1171.198808667629
 20
502.798414003861
 30
0.0
 11
-1171.198808667629
 21
914.7982919335484
 31
0.0
  0
LWPOLYLINE
  5
43B
330
1F
100
AcDbEntity
  8
0193_区画線（異
  6
Continuous
 62
     7
370
     5
100
AcDbPolyline
 90
        4
 70
     1
 43
1.0
 10
-1170.698808667629
 20
502.798414003861
 42
0.4142135623731
 10
-1171.198808667629
 20
503.298414003861
 42
0.4142135623731
 10
-1171.698808667629
 20
502.798414003861
 42
0.4142135623731
 10
-1171.198808667629
 20
502.2984140038611
 42
0.4142135623731
  0
LWPOLYLINE
  5
43C
330
1F
100
AcDbEntity
  8
0193_区画線（異
  6
Continuous
 62
     7
370
     5
100
AcDbPolyline
 90
        4
 70
     1
 43
1.0
 10
-1170.698808667629
 20
914.7982919335484
 42
0.4142135623731
 10
-1171.198808667629
 20
915.2982919335484
 42
0.4142135623731
 10
-1171.698808667629
 20
914.7982919335484
 42
0.4142135623731
 10
-1171.198808667629
 20
914.2982919335485
 42
0.4142135623731
  0
TEXT
  5
43D
330
1F
100
AcDbEntity
  8
0193_区画線（異
  6
Continuous
 62
     2
370
   211
100
AcDbText
 10
-1186.838808667629
 20
676.2983529687049
 30
0.0
 40
30.48
  1
412
 50
90.0
 41
1.083333333333333
  7
ＭＳ ゴシック
100
AcDbText
  0
LINE
  5
43E
330
1F
100
AcDbEntity
  8
0193_区画線（異
  6
Continuous
 62
     7
370
     5
100
AcDbLine
 10
-1174.198808667629
 20
502.798414003861
 30
0.0
 11
-931.1988086676288
 21
502.798414003861
 31
0.0
  0
LINE
  5
43F
330
1F
100
AcDbEntity
  8
0193_区画線（異
  6
Continuous
 62
     7
370
     5
100
AcDbLine
 10
-1174.198808667629
 20
914.7982919335484
 30
0.0
 11
-931.1988086676288
 21
914.7982919335484
 31
0.0
  0
LINE
  5
440
330
1F
100
AcDbEntity
  8
0193_区画線（異
  6
Continuous
 62
     7
370
     5
100
AcDbLine
 10
-905.1988086676289
 20
1034.798291933548
 30
0.0
 11
-880.1988086676289
 21
1034.798291933548
 31
0.0
  0
LWPOLYLINE
  5
441
330
1F
100
AcDbEntity
  8
0193_区画線（異
  6
Continuous
 62
     7
370
     5
100
AcDbPolyline
 90
        4
 70
     1
 43
1.0
 10
-904.6988086676289
 20
1034.798291933548
 42
0.4142135623731
 10
-905.1988086676289
 20
1035.298291933548
 42
0.4142135623731
 10
-905.6988086676289
 20
1034.798291933548
 42
0.4142135623731
 10
-905.1988086676289
 20
1034.298291933548
 42
0.4142135623731
  0
LWPOLYLINE
  5
442
330
1F
100
AcDbEntity
  8
0193_区画線（異
  6
Continuous
 62
     7
370
     5
100
AcDbPolyline
 90
        4
 70
     1
 43
1.0
 10
-879.6988086676289
 20
1034.798291933548
 42
0.4142135623731
 10
-880.1988086676289
 20
1035.298291933548
 42
0.4142135623731
 10
-880.6988086676289
 20
1034.798291933548
 42
0.4142135623731
 10
-880.1988086676289
 20
1034.298291933548
 42
0.4142135623731
  0
LINE
  5
443
330
1F
100
AcDbEntity
  8
0193_区画線（異
  6
Continuous
 62
     7
370
     5
100
AcDbLine
 10
-880.1988086676289
 20
1034.798291933548
 30
0.0
 11
-530.1988086676288
 21
1034.798291933548
 31
0.0
  0
LWPOLYLINE
  5
444
330
1F
100
AcDbEntity
  8
0193_区画線（異
  6
Continuous
 62
     7
370
     5
100
AcDbPolyline
 90
        4
 70
     1
 43
1.0
 10
-529.6988086676289
 20
1034.798291933548
 42
0.4142135623731
 10
-530.1988086676288
 20
1035.298291933548
 42
0.4142135623731
 10
-530.6988086676288
 20
1034.798291933548
 42
0.4142135623731
 10
-530.1988086676288
 20
1034.298291933548
 42
0.4142135623731
  0
TEXT
  5
445
330
1F
100
AcDbEntity
  8
0193_区画線（異
  6
Continuous
 62
     2
370
   211
100
AcDbText
 10
-737.6988086676289
 20
1050.438291933548
 30
0.0
 40
30.48
  1
350
 41
1.083333333333333
  7
ＭＳ ゴシック
100
AcDbText
  0
LINE
  5
446
330
1F
100
AcDbEntity
  8
0193_区画線（異
  6
Continuous
 62
     7
370
     5
100
AcDbLine
 10
-530.1988086676288
 20
1034.798291933548
 30
0.0
 11
-505.1988086676288
 21
1034.798291933548
 31
0.0
  0
LWPOLYLINE
  5
447
330
1F
100
AcDbEntity
  8
0193_区画線（異
  6
Continuous
 62
     7
370
     5
100
AcDbPolyline
 90
        4
 70
     1
 43
1.0
 10
-504.6988086676288
 20
1034.798291933548
 42
0.4142135623731
 10
-505.1988086676288
 20
1035.298291933548
 42
0.4142135623731
 10
-505.6988086676288
 20
1034.798291933548
 42
0.4142135623731
 10
-505.1988086676288
 20
1034.298291933548
 42
0.4142135623731
  0
LINE
  5
448
330
1F
100
AcDbEntity
  8
0193_区画線（異
  6
Continuous
 62
     7
370
     5
100
AcDbLine
 10
-905.1988086676289
 20
1037.798291933548
 30
0.0
 11
-905.1988086676289
 21
934.7982919335484
 31
0.0
  0
LINE
  5
449
330
1F
100
AcDbEntity
  8
0193_区画線（異
  6
Continuous
 62
     7
370
     5
100
AcDbLine
 10
-880.1988086676289
 20
1037.798291933548
 30
0.0
 11
-880.1988086676289
 21
934.7982919335484
 31
0.0
  0
LINE
  5
44A
330
1F
100
AcDbEntity
  8
0193_区画線（異
  6
Continuous
 62
     7
370
     5
100
AcDbLine
 10
-530.1988086676288
 20
1037.798291933548
 30
0.0
 11
-530.1988086676288
 21
934.7982919335484
 31
0.0
  0
LINE
  5
44B
330
1F
100
AcDbEntity
  8
0193_区画線（異
  6
Continuous
 62
     7
370
     5
100
AcDbLine
 10
-505.1988086676288
 20
1037.798291933548
 30
0.0
 11
-505.1988086676288
 21
934.7982919335484
 31
0.0
  0
TEXT
  5
44C
330
1F
100
AcDbEntity
  8
0193_区画線（異
  6
Continuous
 62
     2
370
   211
100
AcDbText
 10
-892.3758791253474
 20
1050.438291933548
 30
0.0
 40
30.48
  1
25
 41
1.0625
  7
ＭＳ ゴシック
100
AcDbText
  0
TEXT
  5
44D
330
1F
100
AcDbEntity
  8
0193_区画線（異
  6
Continuous
 62
     2
370
   211
100
AcDbText
 10
-560.729620621946
 20
1050.438291933548
 30
0.0
 40
30.48
  1
25
 41
1.0625
  7
ＭＳ ゴシック
100
AcDbText
  0
LINE
  5
44E
330
1F
100
AcDbEntity
  8
0193_区画線（異
  6
Continuous
 62
     7
370
     5
100
AcDbLine
 10
-911.1988086676288
 20
1104.798291933548
 30
0.0
 11
-906.1988086676288
 21
1104.798291933548
 31
0.0
  0
LWPOLYLINE
  5
44F
330
1F
100
AcDbEntity
  8
0193_区画線（異
  6
Continuous
 62
     7
370
     5
100
AcDbPolyline
 90
        4
 70
     1
 43
1.0
 10
-910.6988086676289
 20
1104.798291933548
 42
0.4142135623731
 10
-911.1988086676288
 20
1105.298291933548
 42
0.4142135623731
 10
-911.6988086676288
 20
1104.798291933548
 42
0.4142135623731
 10
-911.1988086676288
 20
1104.298291933548
 42
0.4142135623731
  0
LWPOLYLINE
  5
450
330
1F
100
AcDbEntity
  8
0193_区画線（異
  6
Continuous
 62
     7
370
     5
100
AcDbPolyline
 90
        4
 70
     1
 43
1.0
 10
-905.6988086676289
 20
1104.798291933548
 42
0.4142135623731
 10
-906.1988086676288
 20
1105.298291933548
 42
0.4142135623731
 10
-906.6988086676288
 20
1104.798291933548
 42
0.4142135623731
 10
-906.1988086676288
 20
1104.298291933548
 42
0.4142135623731
  0
LINE
  5
451
330
1F
100
AcDbEntity
  8
0193_区画線（異
  6
Continuous
 62
     7
370
     5
100
AcDbLine
 10
-906.1988086676288
 20
1104.798291933548
 30
0.0
 11
-905.1988086676289
 21
1104.798291933548
 31
0.0
  0
LWPOLYLINE
  5
452
330
1F
100
AcDbEntity
  8
0193_区画線（異
  6
Continuous
 62
     7
370
     5
100
AcDbPolyline
 90
        4
 70
     1
 43
1.0
 10
-904.6988086676289
 20
1104.798291933548
 42
0.4142135623731
 10
-905.1988086676289
 20
1105.298291933548
 42
0.4142135623731
 10
-905.6988086676289
 20
1104.798291933548
 42
0.4142135623731
 10
-905.1988086676289
 20
1104.298291933548
 42
0.4142135623731
  0
LWPOLYLINE
  5
453
330
1F
100
AcDbEntity
  8
0193_区画線（異
  6
Continuous
 62
     7
370
     5
100
AcDbPolyline
 90
        4
 70
     1
 43
1.0
 10
-504.6988086676288
 20
1104.798291933548
 42
0.4142135623731
 10
-505.1988086676288
 20
1105.298291933548
 42
0.4142135623731
 10
-505.6988086676288
 20
1104.798291933548
 42
0.4142135623731
 10
-505.1988086676288
 20
1104.298291933548
 42
0.4142135623731
  0
TEXT
  5
454
330
1F
100
AcDbEntity
  8
0193_区画線（異
  6
Continuous
 62
     2
370
   211
100
AcDbText
 10
-737.6988086676289
 20
1120.438291933548
 30
0.0
 40
30.48
  1
400
 41
1.083333333333333
  7
ＭＳ ゴシック
100
AcDbText
  0
LINE
  5
455
330
1F
100
AcDbEntity
  8
0193_区画線（異
  6
Continuous
 62
     7
370
     5
100
AcDbLine
 10
-505.1988086676288
 20
1104.798291933548
 30
0.0
 11
-504.1988086676288
 21
1104.798291933548
 31
0.0
  0
LWPOLYLINE
  5
456
330
1F
100
AcDbEntity
  8
0193_区画線（異
  6
Continuous
 62
     7
370
     5
100
AcDbPolyline
 90
        4
 70
     1
 43
1.0
 10
-503.6988086676288
 20
1104.798291933548
 42
0.4142135623731
 10
-504.1988086676288
 20
1105.298291933548
 42
0.4142135623731
 10
-504.6988086676288
 20
1104.798291933548
 42
0.4142135623731
 10
-504.1988086676288
 20
1104.298291933548
 42
0.4142135623731
  0
LINE
  5
457
330
1F
100
AcDbEntity
  8
0193_区画線（異
  6
Continuous
 62
     7
370
     5
100
AcDbLine
 10
-504.1988086676288
 20
1104.798291933548
 30
0.0
 11
-499.1988086676288
 21
1104.798291933548
 31
0.0
  0
LWPOLYLINE
  5
458
330
1F
100
AcDbEntity
  8
0193_区画線（異
  6
Continuous
 62
     7
370
     5
100
AcDbPolyline
 90
        4
 70
     1
 43
1.0
 10
-498.6988086676288
 20
1104.798291933548
 42
0.4142135623731
 10
-499.1988086676288
 20
1105.298291933548
 42
0.4142135623731
 10
-499.6988086676288
 20
1104.798291933548
 42
0.4142135623731
 10
-499.1988086676288
 20
1104.298291933548
 42
0.4142135623731
  0
LINE
  5
459
330
1F
100
AcDbEntity
  8
0193_区画線（異
  6
Continuous
 62
     7
370
     5
100
AcDbLine
 10
-911.1988086676288
 20
1107.798291933548
 30
0.0
 11
-911.1988086676288
 21
934.7982919335484
 31
0.0
  0
LINE
  5
45A
330
1F
100
AcDbEntity
  8
0193_区画線（異
  6
Continuous
 62
     7
370
     5
100
AcDbLine
 10
-906.1988086676288
 20
1107.798291933548
 30
0.0
 11
-906.1988086676288
 21
934.7982919335484
 31
0.0
  0
LINE
  5
45B
330
1F
100
AcDbEntity
  8
0193_区画線（異
  6
Continuous
 62
     7
370
     5
100
AcDbLine
 10
-905.1988086676289
 20
1107.798291933548
 30
0.0
 11
-905.1988086676289
 21
934.7982919335484
 31
0.0
  0
LINE
  5
45C
330
1F
100
AcDbEntity
  8
0193_区画線（異
  6
Continuous
 62
     7
370
     5
100
AcDbLine
 10
-505.1988086676288
 20
1107.798291933548
 30
0.0
 11
-505.1988086676288
 21
934.7982919335484
 31
0.0
  0
LINE
  5
45D
330
1F
100
AcDbEntity
  8
0193_区画線（異
  6
Continuous
 62
     7
370
     5
100
AcDbLine
 10
-504.1988086676288
 20
1107.798291933548
 30
0.0
 11
-504.1988086676288
 21
934.7982919335484
 31
0.0
  0
LINE
  5
45E
330
1F
100
AcDbEntity
  8
0193_区画線（異
  6
Continuous
 62
     7
370
     5
100
AcDbLine
 10
-499.1988086676288
 20
1107.798291933548
 30
0.0
 11
-499.1988086676288
 21
934.7982919335484
 31
0.0
  0
TEXT
  5
45F
330
1F
100
AcDbEntity
  8
0193_区画線（異
  6
Continuous
 62
     2
370
   211
100
AcDbText
 10
-490.6300363437902
 20
1120.438291933548
 30
0.0
 40
30.48
  1
5
 41
0.9999999999999998
  7
ＭＳ ゴシック
100
AcDbText
  0
TEXT
  5
460
330
1F
100
AcDbEntity
  8
0193_区画線（異
  6
Continuous
 62
     2
370
   211
100
AcDbText
 10
-531.6035813173352
 20
1120.438291933548
 30
0.0
 40
30.48
  1
1
 41
0.9999999999999998
  7
ＭＳ ゴシック
100
AcDbText
  0
LINE
  5
461
330
1F
100
AcDbEntity
  8
0193_区画線（異
  6
Continuous
 62
     7
370
     5
100
AcDbLine
 10
-945.307285021039
 20
1104.798291933548
 30
0.0
 11
-467.5929993067532
 21
1104.798291933548
 31
0.0
  0
TEXT
  5
462
330
1F
100
AcDbEntity
  8
0193_区画線（異
  6
Continuous
 62
     2
370
   211
100
AcDbText
 10
-898.6360832069801
 20
1120.438291933548
 30
0.0
 40
30.48
  1
1
 41
0.9999999999999998
  7
ＭＳ ゴシック
100
AcDbText
  0
TEXT
  5
463
330
1F
100
AcDbEntity
  8
0193_区画線（異
  6
Continuous
 62
     2
370
   211
100
AcDbText
 10
-944.1326818464358
 20
1120.438291933548
 30
0.0
 40
30.48
  1
5
 41
0.9999999999999998
  7
ＭＳ ゴシック
100
AcDbText
  0
LINE
  5
464
330
1F
100
AcDbEntity
  8
0193_区画線（異
  6
Continuous
 62
     7
370
     5
100
AcDbLine
 10
-911.1988086676288
 20
1174.798291933548
 30
0.0
 11
-499.1988086676288
 21
1174.798291933548
 31
0.0
  0
LWPOLYLINE
  5
465
330
1F
100
AcDbEntity
  8
0193_区画線（異
  6
Continuous
 62
     7
370
     5
100
AcDbPolyline
 90
        4
 70
     1
 43
1.0
 10
-910.6988086676289
 20
1174.798291933548
 42
0.4142135623731
 10
-911.1988086676288
 20
1175.298291933548
 42
0.4142135623731
 10
-911.6988086676288
 20
1174.798291933548
 42
0.4142135623731
 10
-911.1988086676288
 20
1174.298291933548
 42
0.4142135623731
  0
LWPOLYLINE
  5
466
330
1F
100
AcDbEntity
  8
0193_区画線（異
  6
Continuous
 62
     7
370
     5
100
AcDbPolyline
 90
        4
 70
     1
 43
1.0
 10
-498.6988086676288
 20
1174.798291933548
 42
0.4142135623731
 10
-499.1988086676288
 20
1175.298291933548
 42
0.4142135623731
 10
-499.6988086676288
 20
1174.798291933548
 42
0.4142135623731
 10
-499.1988086676288
 20
1174.298291933548
 42
0.4142135623731
  0
TEXT
  5
467
330
1F
100
AcDbEntity
  8
0193_区画線（異
  6
Continuous
 62
     2
370
   211
100
AcDbText
 10
-737.6988086676289
 20
1190.438291933548
 30
0.0
 40
30.48
  1
412
 41
1.083333333333333
  7
ＭＳ ゴシック
100
AcDbText
  0
LINE
  5
468
330
1F
100
AcDbEntity
  8
0193_区画線（異
  6
Continuous
 62
     7
370
     5
100
AcDbLine
 10
-911.1988086676288
 20
1177.798291933548
 30
0.0
 11
-911.1988086676288
 21
934.7982919335484
 31
0.0
  0
LINE
  5
469
330
1F
100
AcDbEntity
  8
0193_区画線（異
  6
Continuous
 62
     7
370
     5
100
AcDbLine
 10
-499.1988086676288
 20
1177.798291933548
 30
0.0
 11
-499.1988086676288
 21
934.7982919335484
 31
0.0
  0
LINE
  5
46A
330
1F
100
AcDbEntity
  8
0239_詳細図（細
  6
Continuous
 62
     3
370
     5
100
AcDbLine
 10
-902.1988086676288
 20
746.7983224511258
 30
0.0
 11
-510.1986103033716
 21
746.7983224511258
 31
0.0
  0
LINE
  5
46B
330
1F
100
AcDbEntity
  8
0239_詳細図（細
  6
Continuous
 62
     3
370
     5
100
AcDbLine
 10
-902.1988086676288
 20
760.7983224511258
 30
0.0
 11
-508.1988086676288
 21
760.7983224511258
 31
0.0
  0
LINE
  5
46C
330
1F
100
AcDbEntity
  8
0239_詳細図（細
  6
Continuous
 62
     3
370
     5
100
AcDbLine
 10
-902.1988086676288
 20
754.7983224511258
 30
0.0
 11
-508.1988086676288
 21
754.7983224511258
 31
0.0
  0
LINE
  5
46D
330
1F
100
AcDbEntity
  8
0239_詳細図（細
  6
Continuous
 62
     3
370
     5
100
AcDbLine
 10
-580.249061199323
 20
676.7983224511255
 30
0.0
 11
-580.249061199323
 21
676.7854901731412
 31
0.0
  0
LINE
  5
46E
330
1F
100
AcDbEntity
  8
0239_詳細図（細
  6
Continuous
 62
     3
370
     5
100
AcDbLine
 10
-580.249061199323
 20
676.7854901731412
 30
0.0
 11
-580.249061199323
 21
676.7478715551744
 31
0.0
  0
LINE
  5
46F
330
1F
100
AcDbEntity
  8
0191_区画線（防
  6
JWW_DASHED3
 62
     2
370
     5
100
AcDbLine
 10
-530.1988086676288
 20
533.7981240868687
 30
0.0
 11
-880.1988086676289
 21
533.7981240868687
 31
0.0
  0
LINE
  5
470
330
1F
100
AcDbEntity
  8
0191_区画線（防
  6
JWW_DASHED3
 62
     2
370
     5
100
AcDbLine
 10
-530.1988086676288
 20
883.7980783105015
 30
0.0
 11
-530.1988086676288
 21
533.7981240868687
 31
0.0
  0
LINE
  5
471
330
1F
100
AcDbEntity
  8
0192_区画線（防
  6
Continuous
 62
     3
370
     5
100
AcDbLine
 10
-505.1988086676288
 20
508.7981240868687
 30
0.0
 11
-905.1988086676289
 21
508.7981240868687
 31
0.0
  0
LINE
  5
472
330
1F
100
AcDbEntity
  8
0239_詳細図（細
  6
Continuous
 62
     3
370
     5
100
AcDbLine
 10
-508.1988086676288
 20
908.7983224511265
 30
0.0
 11
-508.1988086676288
 21
508.7981240868687
 31
0.0
  0
LINE
  5
473
330
1F
100
AcDbEntity
  8
0239_詳細図（細
  6
Continuous
 62
     3
370
     5
100
AcDbLine
 10
-902.1988086676288
 20
740.7983224511258
 30
0.0
 11
-508.1988086676288
 21
740.7983224511258
 31
0.0
  0
LINE
  5
474
330
1F
100
AcDbEntity
  8
0239_詳細図（細
  6
Continuous
 62
     3
370
     5
100
AcDbLine
 10
-902.1988086676288
 20
516.7983224511249
 30
0.0
 11
-508.1988086676288
 21
516.7983224511249
 31
0.0
  0
LINE
  5
475
330
1F
100
AcDbEntity
  8
0239_詳細図（細
  6
Continuous
 62
     3
370
     5
100
AcDbLine
 10
-902.1988086676288
 20
718.7983224511256
 30
0.0
 11
-508.1988086676288
 21
718.7983224511256
 31
0.0
  0
LINE
  5
476
330
1F
100
AcDbEntity
  8
0239_詳細図（細
  6
Continuous
 62
     3
370
     5
100
AcDbLine
 10
-902.1988086676288
 20
712.7983224511257
 30
0.0
 11
-508.1988086676288
 21
712.7983224511257
 31
0.0
  0
LINE
  5
477
330
1F
100
AcDbEntity
  8
0239_詳細図（細
  6
Continuous
 62
     3
370
     5
100
AcDbLine
 10
-902.1988086676288
 20
704.7983224511256
 30
0.0
 11
-508.1988086676288
 21
704.7983224511256
 31
0.0
  0
LINE
  5
478
330
1F
100
AcDbEntity
  8
0239_詳細図（細
  6
Continuous
 62
     3
370
     5
100
AcDbLine
 10
-902.1988086676288
 20
698.7983224511256
 30
0.0
 11
-508.1988086676288
 21
698.7983224511256
 31
0.0
  0
LINE
  5
479
330
1F
100
AcDbEntity
  8
0239_詳細図（細
  6
Continuous
 62
     3
370
     5
100
AcDbLine
 10
-902.1988086676288
 20
690.7983224511256
 30
0.0
 11
-508.1988086676288
 21
690.7983224511256
 31
0.0
  0
LINE
  5
47A
330
1F
100
AcDbEntity
  8
0239_詳細図（細
  6
Continuous
 62
     3
370
     5
100
AcDbLine
 10
-902.1988086676288
 20
684.7983224511256
 30
0.0
 11
-508.1988086676288
 21
684.7983224511256
 31
0.0
  0
LINE
  5
47B
330
1F
100
AcDbEntity
  8
0239_詳細図（細
  6
Continuous
 62
     3
370
     5
100
AcDbLine
 10
-902.1988086676288
 20
676.7983224511255
 30
0.0
 11
-508.1988086676288
 21
676.7983224511255
 31
0.0
  0
LINE
  5
47C
330
1F
100
AcDbEntity
  8
0239_詳細図（細
  6
Continuous
 62
     3
370
     5
100
AcDbLine
 10
-902.1988086676288
 20
670.7983224511256
 30
0.0
 11
-508.1988086676288
 21
670.7983224511256
 31
0.0
  0
LINE
  5
47D
330
1F
100
AcDbEntity
  8
0239_詳細図（細
  6
Continuous
 62
     3
370
     5
100
AcDbLine
 10
-902.1988086676288
 20
662.7983224511254
 30
0.0
 11
-508.1988086676288
 21
662.7983224511254
 31
0.0
  0
LINE
  5
47E
330
1F
100
AcDbEntity
  8
0239_詳細図（細
  6
Continuous
 62
     3
370
     5
100
AcDbLine
 10
-902.1988086676288
 20
656.7983224511255
 30
0.0
 11
-508.1988086676288
 21
656.7983224511255
 31
0.0
  0
LINE
  5
47F
330
1F
100
AcDbEntity
  8
0239_詳細図（細
  6
Continuous
 62
     3
370
     5
100
AcDbLine
 10
-902.1988086676288
 20
648.7983224511254
 30
0.0
 11
-508.1988086676288
 21
648.7983224511254
 31
0.0
  0
LINE
  5
480
330
1F
100
AcDbEntity
  8
0239_詳細図（細
  6
Continuous
 62
     3
370
     5
100
AcDbLine
 10
-902.1988086676288
 20
642.7983224511254
 30
0.0
 11
-508.1988086676288
 21
642.7983224511254
 31
0.0
  0
LINE
  5
481
330
1F
100
AcDbEntity
  8
0239_詳細図（細
  6
Continuous
 62
     3
370
     5
100
AcDbLine
 10
-902.1988086676288
 20
634.7983224511254
 30
0.0
 11
-508.1988086676288
 21
634.7983224511254
 31
0.0
  0
LINE
  5
482
330
1F
100
AcDbEntity
  8
0239_詳細図（細
  6
Continuous
 62
     3
370
     5
100
AcDbLine
 10
-902.1988086676288
 20
628.7983224511254
 30
0.0
 11
-508.1988086676288
 21
628.7983224511254
 31
0.0
  0
LINE
  5
483
330
1F
100
AcDbEntity
  8
0239_詳細図（細
  6
Continuous
 62
     3
370
     5
100
AcDbLine
 10
-902.1988086676288
 20
620.7983224511253
 30
0.0
 11
-508.1988086676288
 21
620.7983224511253
 31
0.0
  0
LINE
  5
484
330
1F
100
AcDbEntity
  8
0239_詳細図（細
  6
Continuous
 62
     3
370
     5
100
AcDbLine
 10
-902.1988086676288
 20
614.7983224511254
 30
0.0
 11
-508.1988086676288
 21
614.7983224511254
 31
0.0
  0
LINE
  5
485
330
1F
100
AcDbEntity
  8
0239_詳細図（細
  6
Continuous
 62
     3
370
     5
100
AcDbLine
 10
-902.1988086676288
 20
606.7983224511252
 30
0.0
 11
-508.1988086676288
 21
606.7983224511252
 31
0.0
  0
LINE
  5
486
330
1F
100
AcDbEntity
  8
0239_詳細図（細
  6
Continuous
 62
     3
370
     5
100
AcDbLine
 10
-902.1988086676288
 20
600.7983224511253
 30
0.0
 11
-508.1988086676288
 21
600.7983224511253
 31
0.0
  0
LINE
  5
487
330
1F
100
AcDbEntity
  8
0239_詳細図（細
  6
Continuous
 62
     3
370
     5
100
AcDbLine
 10
-902.1988086676288
 20
592.7983224511252
 30
0.0
 11
-508.1988086676288
 21
592.7983224511252
 31
0.0
  0
LINE
  5
488
330
1F
100
AcDbEntity
  8
0239_詳細図（細
  6
Continuous
 62
     3
370
     5
100
AcDbLine
 10
-902.1988086676288
 20
586.7983224511252
 30
0.0
 11
-508.1988086676288
 21
586.7983224511252
 31
0.0
  0
LINE
  5
489
330
1F
100
AcDbEntity
  8
0239_詳細図（細
  6
Continuous
 62
     3
370
     5
100
AcDbLine
 10
-902.1988086676288
 20
578.7983224511252
 30
0.0
 11
-508.1988086676288
 21
578.7983224511252
 31
0.0
  0
LINE
  5
48A
330
1F
100
AcDbEntity
  8
0239_詳細図（細
  6
Continuous
 62
     3
370
     5
100
AcDbLine
 10
-902.1988086676288
 20
572.7983224511252
 30
0.0
 11
-508.1988086676288
 21
572.7983224511252
 31
0.0
  0
LINE
  5
48B
330
1F
100
AcDbEntity
  8
0239_詳細図（細
  6
Continuous
 62
     3
370
     5
100
AcDbLine
 10
-902.1988086676288
 20
564.798322451125
 30
0.0
 11
-508.1988086676288
 21
564.798322451125
 31
0.0
  0
LINE
  5
48C
330
1F
100
AcDbEntity
  8
0239_詳細図（細
  6
Continuous
 62
     3
370
     5
100
AcDbLine
 10
-902.1988086676288
 20
558.7983224511252
 30
0.0
 11
-508.1988086676288
 21
558.7983224511252
 31
0.0
  0
LINE
  5
48D
330
1F
100
AcDbEntity
  8
0239_詳細図（細
  6
Continuous
 62
     3
370
     5
100
AcDbLine
 10
-902.1988086676288
 20
550.7983224511249
 30
0.0
 11
-508.1988086676288
 21
550.7983224511249
 31
0.0
  0
LINE
  5
48E
330
1F
100
AcDbEntity
  8
0239_詳細図（細
  6
Continuous
 62
     3
370
     5
100
AcDbLine
 10
-902.1988086676288
 20
544.798322451125
 30
0.0
 11
-508.1988086676288
 21
544.798322451125
 31
0.0
  0
LINE
  5
48F
330
1F
100
AcDbEntity
  8
0239_詳細図（細
  6
Continuous
 62
     3
370
     5
100
AcDbLine
 10
-902.1988086676288
 20
536.7983224511249
 30
0.0
 11
-508.1988086676288
 21
536.7983224511249
 31
0.0
  0
LINE
  5
490
330
1F
100
AcDbEntity
  8
0239_詳細図（細
  6
Continuous
 62
     3
370
     5
100
AcDbLine
 10
-902.1988086676288
 20
530.7983224511249
 30
0.0
 11
-508.1988086676288
 21
530.7983224511249
 31
0.0
  0
LINE
  5
491
330
1F
100
AcDbEntity
  8
0239_詳細図（細
  6
Continuous
 62
     3
370
     5
100
AcDbLine
 10
-902.1988086676288
 20
522.7983224511249
 30
0.0
 11
-508.1988086676288
 21
522.7983224511249
 31
0.0
  0
LINE
  5
492
330
1F
100
AcDbEntity
  8
0239_詳細図（細
  6
Continuous
 62
     3
370
     5
100
AcDbLine
 10
-902.1988086676288
 20
726.7983224511258
 30
0.0
 11
-508.1988086676288
 21
726.7983224511258
 31
0.0
  0
LINE
  5
493
330
1F
100
AcDbEntity
  8
0239_詳細図（細
  6
Continuous
 62
     3
370
     5
100
AcDbLine
 10
-902.1988086676288
 20
732.7983224511257
 30
0.0
 11
-508.1988086676288
 21
732.7983224511257
 31
0.0
  0
LINE
  5
494
330
1F
100
AcDbEntity
  8
0239_詳細図（細
  6
Continuous
 62
     3
370
     5
100
AcDbLine
 10
-590.1485561359347
 20
676.7983224511255
 30
0.0
 11
-590.1485561359347
 21
670.7983224511256
 31
0.0
  0
LINE
  5
495
330
1F
100
AcDbEntity
  8
0239_詳細図（細
  6
Continuous
 62
     3
370
     5
100
AcDbLine
 10
-580.249061199323
 20
676.7983224511255
 30
0.0
 11
-580.249061199323
 21
670.7983224511256
 31
0.0
  0
LINE
  5
496
330
1F
100
AcDbEntity
  8
0239_詳細図（細
  6
Continuous
 62
     3
370
     5
100
AcDbLine
 10
-585.1988086676288
 20
676.7983224511255
 30
0.0
 11
-585.1988086676288
 21
670.7983224511256
 31
0.0
  0
LINE
  5
497
330
1F
100
AcDbEntity
  8
0239_詳細図（細
  6
Continuous
 62
     3
370
     5
100
AcDbLine
 10
-590.1485561359347
 20
662.7983224511254
 30
0.0
 11
-590.1485561359347
 21
656.7983224511255
 31
0.0
  0
LINE
  5
498
330
1F
100
AcDbEntity
  8
0239_詳細図（細
  6
Continuous
 62
     3
370
     5
100
AcDbLine
 10
-580.249061199323
 20
662.7983224511254
 30
0.0
 11
-580.249061199323
 21
656.7983224511255
 31
0.0
  0
LINE
  5
499
330
1F
100
AcDbEntity
  8
0239_詳細図（細
  6
Continuous
 62
     3
370
     5
100
AcDbLine
 10
-585.1988086676288
 20
662.7983224511254
 30
0.0
 11
-585.1988086676288
 21
656.7983224511255
 31
0.0
  0
LINE
  5
49A
330
1F
100
AcDbEntity
  8
0239_詳細図（細
  6
Continuous
 62
     3
370
     5
100
AcDbLine
 10
-590.1485561359347
 20
648.7983224511254
 30
0.0
 11
-590.1485561359347
 21
642.7983224511254
 31
0.0
  0
LINE
  5
49B
330
1F
100
AcDbEntity
  8
0239_詳細図（細
  6
Continuous
 62
     3
370
     5
100
AcDbLine
 10
-580.249061199323
 20
648.7983224511254
 30
0.0
 11
-580.249061199323
 21
642.7983224511254
 31
0.0
  0
LINE
  5
49C
330
1F
100
AcDbEntity
  8
0239_詳細図（細
  6
Continuous
 62
     3
370
     5
100
AcDbLine
 10
-585.1988086676288
 20
648.7983224511254
 30
0.0
 11
-585.1988086676288
 21
642.7983224511254
 31
0.0
  0
LINE
  5
49D
330
1F
100
AcDbEntity
  8
0239_詳細図（細
  6
Continuous
 62
     3
370
     5
100
AcDbLine
 10
-590.1485561359347
 20
634.7983224511254
 30
0.0
 11
-590.1485561359347
 21
628.7983224511254
 31
0.0
  0
LINE
  5
49E
330
1F
100
AcDbEntity
  8
0239_詳細図（細
  6
Continuous
 62
     3
370
     5
100
AcDbLine
 10
-580.249061199323
 20
634.7983224511254
 30
0.0
 11
-580.249061199323
 21
628.7983224511254
 31
0.0
  0
LINE
  5
49F
330
1F
100
AcDbEntity
  8
0239_詳細図（細
  6
Continuous
 62
     3
370
     5
100
AcDbLine
 10
-585.1988086676288
 20
634.7983224511254
 30
0.0
 11
-585.1988086676288
 21
628.7983224511254
 31
0.0
  0
LINE
  5
4A0
330
1F
100
AcDbEntity
  8
0239_詳細図（細
  6
Continuous
 62
     3
370
     5
100
AcDbLine
 10
-590.1485561359347
 20
620.7983224511253
 30
0.0
 11
-590.1485561359347
 21
614.7983224511254
 31
0.0
  0
LINE
  5
4A1
330
1F
100
AcDbEntity
  8
0239_詳細図（細
  6
Continuous
 62
     3
370
     5
100
AcDbLine
 10
-580.249061199323
 20
620.7983224511253
 30
0.0
 11
-580.249061199323
 21
614.7983224511254
 31
0.0
  0
LINE
  5
4A2
330
1F
100
AcDbEntity
  8
0239_詳細図（細
  6
Continuous
 62
     3
370
     5
100
AcDbLine
 10
-585.1988086676288
 20
620.7983224511253
 30
0.0
 11
-585.1988086676288
 21
614.7983224511254
 31
0.0
  0
LINE
  5
4A3
330
1F
100
AcDbEntity
  8
0239_詳細図（細
  6
Continuous
 62
     3
370
     5
100
AcDbLine
 10
-590.1485561359347
 20
606.7983224511252
 30
0.0
 11
-590.1485561359347
 21
600.7983224511253
 31
0.0
  0
LINE
  5
4A4
330
1F
100
AcDbEntity
  8
0239_詳細図（細
  6
Continuous
 62
     3
370
     5
100
AcDbLine
 10
-580.249061199323
 20
606.7983224511252
 30
0.0
 11
-580.249061199323
 21
600.7983224511253
 31
0.0
  0
LINE
  5
4A5
330
1F
100
AcDbEntity
  8
0239_詳細図（細
  6
Continuous
 62
     3
370
     5
100
AcDbLine
 10
-585.1988086676288
 20
606.7983224511252
 30
0.0
 11
-585.1988086676288
 21
600.7983224511253
 31
0.0
  0
LINE
  5
4A6
330
1F
100
AcDbEntity
  8
0239_詳細図（細
  6
Continuous
 62
     3
370
     5
100
AcDbLine
 10
-590.1485561359347
 20
592.7983224511252
 30
0.0
 11
-590.1485561359347
 21
586.7983224511252
 31
0.0
  0
LINE
  5
4A7
330
1F
100
AcDbEntity
  8
0239_詳細図（細
  6
Continuous
 62
     3
370
     5
100
AcDbLine
 10
-580.249061199323
 20
592.7983224511252
 30
0.0
 11
-580.249061199323
 21
586.7983224511252
 31
0.0
  0
LINE
  5
4A8
330
1F
100
AcDbEntity
  8
0239_詳細図（細
  6
Continuous
 62
     3
370
     5
100
AcDbLine
 10
-585.1988086676288
 20
592.7983224511252
 30
0.0
 11
-585.1988086676288
 21
586.7983224511252
 31
0.0
  0
LINE
  5
4A9
330
1F
100
AcDbEntity
  8
0239_詳細図（細
  6
Continuous
 62
     3
370
     5
100
AcDbLine
 10
-590.1485561359347
 20
578.7983224511252
 30
0.0
 11
-590.1485561359347
 21
572.7983224511252
 31
0.0
  0
LINE
  5
4AA
330
1F
100
AcDbEntity
  8
0239_詳細図（細
  6
Continuous
 62
     3
370
     5
100
AcDbLine
 10
-580.249061199323
 20
578.7983224511252
 30
0.0
 11
-580.249061199323
 21
572.7983224511252
 31
0.0
  0
LINE
  5
4AB
330
1F
100
AcDbEntity
  8
0239_詳細図（細
  6
Continuous
 62
     3
370
     5
100
AcDbLine
 10
-585.1988086676288
 20
578.7983224511252
 30
0.0
 11
-585.1988086676288
 21
572.7983224511252
 31
0.0
  0
LINE
  5
4AC
330
1F
100
AcDbEntity
  8
0239_詳細図（細
  6
Continuous
 62
     3
370
     5
100
AcDbLine
 10
-590.1485561359347
 20
564.798322451125
 30
0.0
 11
-590.1485561359347
 21
558.7983224511252
 31
0.0
  0
LINE
  5
4AD
330
1F
100
AcDbEntity
  8
0239_詳細図（細
  6
Continuous
 62
     3
370
     5
100
AcDbLine
 10
-580.249061199323
 20
564.798322451125
 30
0.0
 11
-580.249061199323
 21
558.7983224511252
 31
0.0
  0
LINE
  5
4AE
330
1F
100
AcDbEntity
  8
0239_詳細図（細
  6
Continuous
 62
     3
370
     5
100
AcDbLine
 10
-585.1988086676288
 20
564.798322451125
 30
0.0
 11
-585.1988086676288
 21
558.7983224511252
 31
0.0
  0
LINE
  5
4AF
330
1F
100
AcDbEntity
  8
0239_詳細図（細
  6
Continuous
 62
     3
370
     5
100
AcDbLine
 10
-590.1485561359347
 20
550.7983224511249
 30
0.0
 11
-590.1485561359347
 21
544.798322451125
 31
0.0
  0
LINE
  5
4B0
330
1F
100
AcDbEntity
  8
0239_詳細図（細
  6
Continuous
 62
     3
370
     5
100
AcDbLine
 10
-580.249061199323
 20
550.7983224511249
 30
0.0
 11
-580.249061199323
 21
544.798322451125
 31
0.0
  0
LINE
  5
4B1
330
1F
100
AcDbEntity
  8
0239_詳細図（細
  6
Continuous
 62
     3
370
     5
100
AcDbLine
 10
-585.1988086676288
 20
550.7983224511249
 30
0.0
 11
-585.1988086676288
 21
544.798322451125
 31
0.0
  0
LINE
  5
4B2
330
1F
100
AcDbEntity
  8
0239_詳細図（細
  6
Continuous
 62
     3
370
     5
100
AcDbLine
 10
-590.1485561359347
 20
536.7983224511249
 30
0.0
 11
-590.1485561359347
 21
530.7983224511249
 31
0.0
  0
LINE
  5
4B3
330
1F
100
AcDbEntity
  8
0239_詳細図（細
  6
Continuous
 62
     3
370
     5
100
AcDbLine
 10
-580.249061199323
 20
536.7983224511249
 30
0.0
 11
-580.249061199323
 21
530.7983224511249
 31
0.0
  0
LINE
  5
4B4
330
1F
100
AcDbEntity
  8
0239_詳細図（細
  6
Continuous
 62
     3
370
     5
100
AcDbLine
 10
-585.1988086676288
 20
536.7983224511249
 30
0.0
 11
-585.1988086676288
 21
530.7983224511249
 31
0.0
  0
LINE
  5
4B5
330
1F
100
AcDbEntity
  8
0239_詳細図（細
  6
Continuous
 62
     3
370
     5
100
AcDbLine
 10
-590.1485561359347
 20
522.7983224511249
 30
0.0
 11
-590.1485561359347
 21
516.7983224511249
 31
0.0
  0
LINE
  5
4B6
330
1F
100
AcDbEntity
  8
0239_詳細図（細
  6
Continuous
 62
     3
370
     5
100
AcDbLine
 10
-580.249061199323
 20
522.7983224511249
 30
0.0
 11
-580.249061199323
 21
516.7983224511249
 31
0.0
  0
LINE
  5
4B7
330
1F
100
AcDbEntity
  8
0239_詳細図（細
  6
Continuous
 62
     3
370
     5
100
AcDbLine
 10
-585.1988086676288
 20
522.7983224511249
 30
0.0
 11
-585.1988086676288
 21
516.7983224511249
 31
0.0
  0
LINE
  5
4B8
330
1F
100
AcDbEntity
  8
0239_詳細図（細
  6
Continuous
 62
     3
370
     5
100
AcDbLine
 10
-665.1988086676289
 20
592.7983224511252
 30
0.0
 11
-665.1988086676289
 21
586.7983224511252
 31
0.0
  0
LINE
  5
4B9
330
1F
100
AcDbEntity
  8
0239_詳細図（細
  6
Continuous
 62
     3
370
     5
100
AcDbLine
 10
-670.1485561359345
 20
592.7983224511252
 30
0.0
 11
-670.1485561359345
 21
586.7983224511252
 31
0.0
  0
LINE
  5
4BA
330
1F
100
AcDbEntity
  8
0239_詳細図（細
  6
Continuous
 62
     3
370
     5
100
AcDbLine
 10
-660.249061199323
 20
592.7983224511252
 30
0.0
 11
-660.249061199323
 21
586.7983224511252
 31
0.0
  0
LINE
  5
4BB
330
1F
100
AcDbEntity
  8
0239_詳細図（細
  6
Continuous
 62
     3
370
     5
100
AcDbLine
 10
-665.1988086676289
 20
578.7983224511252
 30
0.0
 11
-665.1988086676289
 21
572.7983224511252
 31
0.0
  0
LINE
  5
4BC
330
1F
100
AcDbEntity
  8
0239_詳細図（細
  6
Continuous
 62
     3
370
     5
100
AcDbLine
 10
-670.1485561359345
 20
578.7983224511252
 30
0.0
 11
-670.1485561359345
 21
572.7983224511252
 31
0.0
  0
LINE
  5
4BD
330
1F
100
AcDbEntity
  8
0239_詳細図（細
  6
Continuous
 62
     3
370
     5
100
AcDbLine
 10
-660.249061199323
 20
578.7983224511252
 30
0.0
 11
-660.249061199323
 21
572.7983224511252
 31
0.0
  0
LINE
  5
4BE
330
1F
100
AcDbEntity
  8
0239_詳細図（細
  6
Continuous
 62
     3
370
     5
100
AcDbLine
 10
-665.1988086676289
 20
564.798322451125
 30
0.0
 11
-665.1988086676289
 21
558.7983224511252
 31
0.0
  0
LINE
  5
4BF
330
1F
100
AcDbEntity
  8
0239_詳細図（細
  6
Continuous
 62
     3
370
     5
100
AcDbLine
 10
-670.1485561359345
 20
564.798322451125
 30
0.0
 11
-670.1485561359345
 21
558.7983224511252
 31
0.0
  0
LINE
  5
4C0
330
1F
100
AcDbEntity
  8
0239_詳細図（細
  6
Continuous
 62
     3
370
     5
100
AcDbLine
 10
-660.249061199323
 20
564.798322451125
 30
0.0
 11
-660.249061199323
 21
558.7983224511252
 31
0.0
  0
LINE
  5
4C1
330
1F
100
AcDbEntity
  8
0239_詳細図（細
  6
Continuous
 62
     3
370
     5
100
AcDbLine
 10
-665.1988086676289
 20
550.7983224511249
 30
0.0
 11
-665.1988086676289
 21
544.798322451125
 31
0.0
  0
LINE
  5
4C2
330
1F
100
AcDbEntity
  8
0239_詳細図（細
  6
Continuous
 62
     3
370
     5
100
AcDbLine
 10
-670.1485561359345
 20
550.7983224511249
 30
0.0
 11
-670.1485561359345
 21
544.798322451125
 31
0.0
  0
LINE
  5
4C3
330
1F
100
AcDbEntity
  8
0239_詳細図（細
  6
Continuous
 62
     3
370
     5
100
AcDbLine
 10
-660.249061199323
 20
550.7983224511249
 30
0.0
 11
-660.249061199323
 21
544.798322451125
 31
0.0
  0
LINE
  5
4C4
330
1F
100
AcDbEntity
  8
0239_詳細図（細
  6
Continuous
 62
     3
370
     5
100
AcDbLine
 10
-665.1988086676289
 20
536.7983224511249
 30
0.0
 11
-665.1988086676289
 21
530.7983224511249
 31
0.0
  0
LINE
  5
4C5
330
1F
100
AcDbEntity
  8
0239_詳細図（細
  6
Continuous
 62
     3
370
     5
100
AcDbLine
 10
-670.1485561359345
 20
536.7983224511249
 30
0.0
 11
-670.1485561359345
 21
530.7983224511249
 31
0.0
  0
LINE
  5
4C6
330
1F
100
AcDbEntity
  8
0239_詳細図（細
  6
Continuous
 62
     3
370
     5
100
AcDbLine
 10
-660.249061199323
 20
536.7983224511249
 30
0.0
 11
-660.249061199323
 21
530.7983224511249
 31
0.0
  0
LINE
  5
4C7
330
1F
100
AcDbEntity
  8
0239_詳細図（細
  6
Continuous
 62
     3
370
     5
100
AcDbLine
 10
-665.1988086676289
 20
522.7983224511249
 30
0.0
 11
-665.1988086676289
 21
516.7983224511249
 31
0.0
  0
LINE
  5
4C8
330
1F
100
AcDbEntity
  8
0239_詳細図（細
  6
Continuous
 62
     3
370
     5
100
AcDbLine
 10
-670.1485561359345
 20
522.7983224511249
 30
0.0
 11
-670.1485561359345
 21
516.7983224511249
 31
0.0
  0
LINE
  5
4C9
330
1F
100
AcDbEntity
  8
0239_詳細図（細
  6
Continuous
 62
     3
370
     5
100
AcDbLine
 10
-660.249061199323
 20
522.7983224511249
 30
0.0
 11
-660.249061199323
 21
516.7983224511249
 31
0.0
  0
SOLID
  5
4CA
330
1F
100
AcDbEntity
  8
0255_
  6
Continuous
 62
     4
370
     5
100
AcDbTrace
 10
-703.198808667629
 20
944.7982919335484
 30
0.0
 11
-703.198808667629
 21
984.7982919335484
 31
0.0
 12
-707.198808667629
 22
944.7982919335484
 32
0.0
 13
-707.198808667629
 23
984.7982919335484
 33
0.0
  0
LINE
  5
4CB
330
1F
100
AcDbEntity
  8
0255_
  6
Continuous
 62
     4
370
     5
100
AcDbLine
 10
-695.532718869917
 20
965.7792888070221
 30
0.0
 11
-646.2833261869753
 21
965.7792888070221
 31
0.0
  0
LINE
  5
4CC
330
1F
100
AcDbEntity
  8
0255_
  6
Continuous
 62
     4
370
     5
100
AcDbLine
 10
-695.532718869917
 20
965.7792888070221
 30
0.0
 11
-670.7465973355718
 21
962.5161340015209
 31
0.0
  0
LINE
  5
4CD
330
1F
100
AcDbEntity
  8
0255_
  6
Continuous
 62
     4
370
     5
100
AcDbLine
 10
-695.532718869917
 20
965.7792888070221
 30
0.0
 11
-670.7465973355718
 21
969.0424436125236
 31
0.0
  0
TEXT
  5
4CE
330
1F
100
AcDbEntity
  8
0255_
  6
Continuous
 62
     2
370
     5
100
AcDbText
 10
-638.5725550530246
 20
953.5741067868186
 30
0.0
 40
30.48
  1
A
 41
0.9999999999999998
  7
ＭＳ ゴシック
100
AcDbText
  0
LINE
  5
4CF
330
1F
100
AcDbEntity
  8
0255_
  6
JWW_CENTER1
 62
     4
370
     5
100
AcDbLine
 10
-705.1988086676289
 20
944.7982919335484
 30
0.0
 11
-705.1988086676289
 21
771.1151718874004
 31
0.0
  0
LINE
  5
4D0
330
1F
100
AcDbEntity
  8
0242_
  6
Continuous
 62
     7
370
     5
100
AcDbLine
 10
650.623654031614
 20
248.8978809566615
 30
0.0
 11
1271.980205986021
 21
248.8978809566615
 31
0.0
  0
TEXT
  5
4D1
330
1F
100
AcDbEntity
  8
0242_
  6
Continuous
 62
     2
370
     5
100
AcDbText
 10
650.1727948163176
 20
269.5378809566615
 30
0.0
 40
30.48
  1
メインバー詳細図　Ｓ＝１：２
 41
1.116071428571427
  7
ＭＳ ゴシック
100
AcDbText
  0
LINE
  5
4D2
330
1F
100
AcDbEntity
  8
0243_
  6
Continuous
 62
     3
370
     5
100
AcDbLine
 10
158.7723442740437
 20
941.7670384513918
 30
0.0
 11
158.7723442740437
 21
1195.663846808734
 31
0.0
  0
LINE
  5
4D3
330
1F
100
AcDbEntity
  8
0243_
  6
Continuous
 62
     3
370
     5
100
AcDbLine
 10
173.7723442740437
 20
941.7670384513918
 30
0.0
 11
173.7723442740437
 21
1195.663846808734
 31
0.0
  0
LINE
  5
4D4
330
1F
100
AcDbEntity
  8
0216_
  6
Continuous
 62
     7
370
     5
100
AcDbLine
 10
39.28593773420573
 20
1068.489724108292
 30
0.0
 11
143.7723442740437
 21
1068.489724108292
 31
0.0
  0
LINE
  5
4D5
330
1F
100
AcDbEntity
  8
0216_
  6
Continuous
 62
     7
370
     5
100
AcDbLine
 10
39.28593773420573
 20
1138.489460859098
 30
0.0
 11
143.7723442740437
 21
1138.489460859098
 31
0.0
  0
TEXT
  5
4D6
330
1F
100
AcDbEntity
  8
0216_
  6
Continuous
 62
     2
370
   211
100
AcDbText
 10
26.64593773420556
 20
1012.23975462587
 30
0.0
 40
30.48
  1
14
 50
90.0
 41
1.0625
  7
ＭＳ ゴシック
100
AcDbText
  0
LINE
  5
4D7
330
1F
100
AcDbEntity
  8
0216_
  6
Continuous
 62
     7
370
     5
100
AcDbLine
 10
42.28593773420556
 20
998.4897851434478
 30
0.0
 11
42.28593773420556
 21
1068.489724108292
 31
0.0
  0
TEXT
  5
4D8
330
1F
100
AcDbEntity
  8
0216_
  6
Continuous
 62
     2
370
   211
100
AcDbText
 10
26.64593773420556
 20
1082.239592483695
 30
0.0
 40
30.48
  1
14
 50
90.0
 41
1.0625
  7
ＭＳ ゴシック
100
AcDbText
  0
LINE
  5
4D9
330
1F
100
AcDbEntity
  8
0216_
  6
Continuous
 62
     7
370
     5
100
AcDbLine
 10
42.28593773420556
 20
1068.489724108292
 30
0.0
 11
42.28593773420556
 21
1138.489460859098
 31
0.0
  0
LWPOLYLINE
  5
4DA
330
1F
100
AcDbEntity
  8
0216_
  6
Continuous
 62
     7
370
     5
100
AcDbPolyline
 90
        4
 70
     1
 43
1.0
 10
42.78593773420556
 20
998.4897851434478
 42
0.4142135623731
 10
42.28593773420556
 20
998.9897851434478
 42
0.4142135623731
 10
41.78593773420556
 20
998.4897851434478
 42
0.4142135623731
 10
42.28593773420556
 20
997.9897851434478
 42
0.4142135623731
  0
LWPOLYLINE
  5
4DB
330
1F
100
AcDbEntity
  8
0216_
  6
Continuous
 62
     7
370
     5
100
AcDbPolyline
 90
        4
 70
     1
 43
1.0
 10
42.78593773420556
 20
1068.489724108292
 42
0.4142135623731
 10
42.28593773420556
 20
1068.989724108292
 42
0.4142135623731
 10
41.78593773420556
 20
1068.489724108292
 42
0.4142135623731
 10
42.28593773420556
 20
1067.989724108292
 42
0.4142135623731
  0
LWPOLYLINE
  5
4DC
330
1F
100
AcDbEntity
  8
0216_
  6
Continuous
 62
     7
370
     5
100
AcDbPolyline
 90
        4
 70
     1
 43
1.0
 10
42.78593773420556
 20
1138.489460859098
 42
0.4142135623731
 10
42.28593773420556
 20
1138.989460859098
 42
0.4142135623731
 10
41.78593773420556
 20
1138.489460859098
 42
0.4142135623731
 10
42.28593773420556
 20
1137.989460859098
 42
0.4142135623731
  0
LINE
  5
4DD
330
1F
100
AcDbEntity
  8
0226_下階梁情報
  6
Continuous
 62
     3
370
     5
100
AcDbLine
 10
173.7723937620081
 20
668.1095276952851
 30
0.0
 11
173.7723937620081
 21
568.1096514151965
 31
0.0
  0
LINE
  5
4DE
330
1F
100
AcDbEntity
  8
0226_下階梁情報
  6
Continuous
 62
     3
370
     5
100
AcDbLine
 10
158.7723442740435
 20
668.1095276952851
 30
0.0
 11
158.7723442740435
 21
568.1096514151965
 31
0.0
  0
LINE
  5
4DF
330
1F
100
AcDbEntity
  8
0226_下階梁情報
  6
Continuous
 62
     3
370
     5
100
AcDbLine
 10
173.7723937620081
 20
568.1096514151965
 30
0.0
 11
158.7723442740435
 21
568.1096514151965
 31
0.0
  0
LINE
  5
4E0
330
1F
100
AcDbEntity
  8
0226_下階梁情報
  6
Continuous
 62
     3
370
     5
100
AcDbLine
 10
173.7723937620081
 20
668.1095276952851
 30
0.0
 11
158.7723442740435
 21
668.1095276952851
 31
0.0
  0
LINE
  5
4E1
330
1F
100
AcDbEntity
  8
0242_
  6
Continuous
 62
     7
370
     5
100
AcDbLine
 10
158.7723442740435
 20
630.6095895552409
 30
0.0
 11
143.5533085488257
 21
610.7757560479599
 31
0.0
  0
LINE
  5
4E2
330
1F
100
AcDbEntity
  8
0242_
  6
Continuous
 62
     7
370
     5
100
AcDbLine
 10
158.7723442740435
 20
630.6095895552409
 30
0.0
 11
138.9385107667627
 21
615.3905538300228
 31
0.0
  0
LINE
  5
4E3
330
1F
100
AcDbEntity
  8
0242_
  6
Continuous
 62
     7
370
     5
100
AcDbLine
 10
89.8541617837202
 20
561.6914070649175
 30
0.0
 11
158.7723442740435
 21
630.6095895552409
 31
0.0
  0
LINE
  5
4E4
330
1F
100
AcDbEntity
  8
0242_
  6
Continuous
 62
     7
370
     5
100
AcDbLine
 10
-81.861987742069
 20
561.6914070649175
 30
0.0
 11
89.8541617837202
 21
561.6914070649175
 31
0.0
  0
TEXT
  5
4E5
330
1F
100
AcDbEntity
  8
0242_
  6
Continuous
 62
     7
370
     5
100
AcDbText
 10
-81.861987742069
 20
570.9214070649175
 30
0.0
 40
22.86
  1
サイドバー
 41
1.133333333333333
  7
ＭＳ ゴシック
100
AcDbText
  0
LINE
  5
4E6
330
1F
100
AcDbEntity
  8
0216_
  6
Continuous
 62
     7
370
     5
100
AcDbLine
 10
39.28593773420573
 20
998.4897851434478
 30
0.0
 11
143.7723442740437
 21
998.4897851434478
 31
0.0
  0
TEXT
  5
4E7
330
1F
100
AcDbEntity
  8
0242_
  6
Continuous
 62
     2
370
     5
100
AcDbText
 10
-155.7651841120381
 20
934.2481723078037
 30
0.0
 40
30.48
  1
B
 41
0.9999999999999998
  7
ＭＳ ゴシック
100
AcDbText
  0
LINE
  5
4E8
330
1F
100
AcDbEntity
  8
0242_
  6
Continuous
 62
     4
370
     5
100
AcDbLine
 10
-145.7651841120381
 20
1023.823664828158
 30
0.0
 11
-149.0283389175395
 21
999.0375432938127
 31
0.0
  0
LINE
  5
4E9
330
1F
100
AcDbEntity
  8
0242_
  6
Continuous
 62
     4
370
     5
100
AcDbLine
 10
-145.7651841120381
 20
1023.823664828158
 30
0.0
 11
-142.5020293065367
 21
999.0375432938127
 31
0.0
  0
LINE
  5
4EA
330
1F
100
AcDbEntity
  8
0242_
  6
Continuous
 62
     4
370
     5
100
AcDbLine
 10
-145.7651841120381
 20
1023.823664828158
 30
0.0
 11
-145.7651841120381
 21
974.5742721452161
 31
0.0
  0
SOLID
  5
4EB
330
1F
100
AcDbEntity
  8
0242_
  6
Continuous
 62
     4
370
     5
100
AcDbTrace
 10
-124.7841872385644
 20
1031.48975462587
 30
0.0
 11
-164.7841872385644
 21
1031.48975462587
 31
0.0
 12
-124.7841872385644
 22
1035.48975462587
 32
0.0
 13
-164.7841872385644
 23
1035.48975462587
 33
0.0
  0
LINE
  5
4EC
330
1F
100
AcDbEntity
  8
0242_
  6
JWW_CENTER1
 62
     4
370
     5
100
AcDbLine
 10
-124.7841872385644
 20
1033.48975462587
 30
0.0
 11
-24.78418723856439
 21
1033.48975462587
 31
0.0
  0
LINE
  5
4ED
330
1F
100
AcDbEntity
  8
0242_
  6
JWW_CENTER1
 62
     4
370
     5
100
AcDbLine
 10
1174.191025737638
 20
1033.48975462587
 30
0.0
 11
1023.807578135768
 21
1033.48975462587
 31
0.0
  0
TEXT
  5
4EE
330
1F
100
AcDbEntity
  8
0242_
  6
Continuous
 62
     2
370
     5
100
AcDbText
 10
1182.235171560857
 20
936.5377370525166
 30
0.0
 40
30.48
  1
B
 41
0.9999999999999998
  7
ＭＳ ゴシック
100
AcDbText
  0
LINE
  5
4EF
330
1F
100
AcDbEntity
  8
0242_
  6
Continuous
 62
     4
370
     5
100
AcDbLine
 10
1192.235171560857
 20
1026.832436786759
 30
0.0
 11
1188.972016755355
 21
1002.046315252414
 31
0.0
  0
LINE
  5
4F0
330
1F
100
AcDbEntity
  8
0242_
  6
Continuous
 62
     4
370
     5
100
AcDbLine
 10
1192.235171560857
 20
1026.832436786759
 30
0.0
 11
1195.498326366358
 21
1002.046315252414
 31
0.0
  0
LINE
  5
4F1
330
1F
100
AcDbEntity
  8
0242_
  6
Continuous
 62
     4
370
     5
100
AcDbLine
 10
1192.235171560857
 20
1026.832436786759
 30
0.0
 11
1192.235171560857
 21
977.5830441038174
 31
0.0
  0
SOLID
  5
4F2
330
1F
100
AcDbEntity
  8
0242_
  6
Continuous
 62
     4
370
     5
100
AcDbTrace
 10
1174.191025737638
 20
1035.48975462587
 30
0.0
 11
1214.191025737638
 21
1035.48975462587
 31
0.0
 12
1174.191025737638
 22
1031.48975462587
 32
0.0
 13
1214.191025737638
 23
1031.48975462587
 33
0.0
  0
LINE
  5
4F3
330
1F
100
AcDbEntity
  8
0226_下階梁情報
  6
Continuous
 62
     3
370
     5
100
AcDbLine
 10
1147.074322236256
 20
547.938973057229
 30
0.0
 11
1147.074322236256
 21
608.1090478682289
 31
0.0
  0
LINE
  5
4F4
330
1F
100
AcDbEntity
  8
0226_下階梁情報
  6
Continuous
 62
     3
370
     5
100
AcDbLine
 10
1147.074322236256
 20
628.1101312422526
 30
0.0
 11
1147.074322236256
 21
687.1226465266169
 31
0.0
  0
LINE
  5
4F5
330
1F
100
AcDbEntity
  8
0226_下階梁情報
  6
Continuous
 62
     3
370
     5
100
AcDbLine
 10
1147.074322236256
 20
608.1090478682289
 30
0.0
 11
1132.074200165943
 21
608.1090478682289
 31
0.0
  0
LINE
  5
4F6
330
1F
100
AcDbEntity
  8
0226_下階梁情報
  6
Continuous
 62
     3
370
     5
100
AcDbLine
 10
1162.075176728444
 20
628.1101312422526
 30
0.0
 11
1132.074200165943
 21
608.1090478682289
 31
0.0
  0
LINE
  5
4F7
330
1F
100
AcDbEntity
  8
0226_下階梁情報
  6
Continuous
 62
     3
370
     5
100
AcDbLine
 10
1162.075176728444
 20
628.1101312422526
 30
0.0
 11
1147.074322236256
 21
628.1101312422526
 31
0.0
  0
LINE
  5
4F8
330
1F
100
AcDbEntity
  8
0226_下階梁情報
  6
Continuous
 62
     3
370
     5
100
AcDbLine
 10
1147.074322236256
 20
668.1095276952851
 30
0.0
 11
173.7723937620081
 21
668.1095276952851
 31
0.0
  0
LINE
  5
4F9
330
1F
100
AcDbEntity
  8
0226_下階梁情報
  6
Continuous
 62
     3
370
     5
100
AcDbLine
 10
1147.074322236256
 20
568.1096514151965
 30
0.0
 11
173.7723937620081
 21
568.1096514151965
 31
0.0
  0
LINE
  5
4FA
330
1F
100
AcDbEntity
  8
0226_下階梁情報
  6
Continuous
 62
     3
370
     5
100
AcDbLine
 10
1147.074322236256
 20
661.1094551129374
 30
0.0
 11
173.7723937620081
 21
661.1094551129374
 31
0.0
  0
LINE
  5
4FB
330
1F
100
AcDbEntity
  8
0243_
  6
Continuous
 62
     3
370
     5
100
AcDbLine
 10
1147.074322236256
 20
1158.48943034152
 30
0.0
 11
173.7723442740437
 21
1158.48943034152
 31
0.0
  0
LINE
  5
4FC
330
1F
100
AcDbEntity
  8
0243_
  6
Continuous
 62
     3
370
     5
100
AcDbLine
 10
1147.074322236256
 20
1118.489491376676
 30
0.0
 11
173.7723442740437
 21
1118.489491376676
 31
0.0
  0
LINE
  5
4FD
330
1F
100
AcDbEntity
  8
0243_
  6
Continuous
 62
     3
370
     5
100
AcDbLine
 10
1147.074322236256
 20
1018.48975462587
 30
0.0
 11
173.7723442740437
 21
1018.48975462587
 31
0.0
  0
LINE
  5
4FE
330
1F
100
AcDbEntity
  8
0243_
  6
Continuous
 62
     3
370
     5
100
AcDbLine
 10
1147.074322236256
 20
978.4898156610258
 30
0.0
 11
173.7723442740437
 21
978.4898156610258
 31
0.0
  0
LINE
  5
4FF
330
1F
100
AcDbEntity
  8
0243_
  6
Continuous
 62
     3
370
     5
100
AcDbLine
 10
1147.074322236256
 20
1088.489693590713
 30
0.0
 11
173.7723442740437
 21
1088.489693590713
 31
0.0
  0
LINE
  5
500
330
1F
100
AcDbEntity
  8
0243_
  6
Continuous
 62
     3
370
     5
100
AcDbLine
 10
1147.074322236256
 20
1048.48975462587
 30
0.0
 11
173.7723442740437
 21
1048.48975462587
 31
0.0
  0
TEXT
  5
501
330
1F
100
AcDbEntity
  8
0242_
  6
Continuous
 62
     2
370
     5
100
AcDbText
 10
501.1852638353903
 20
392.9351167774032
 30
0.0
 40
30.48
  1
B-B断面図
 41
1.097222222222222
  7
ＭＳ ゴシック
100
AcDbText
  0
LINE
  5
502
330
1F
100
AcDbEntity
  8
0242_
  6
Continuous
 62
     7
370
     5
100
AcDbLine
 10
498.9481494024992
 20
372.2951167774032
 30
0.0
 11
695.8682711168287
 21
372.2951167774032
 31
0.0
  0
LINE
  5
503
330
1F
100
AcDbEntity
  8
0218_
  6
Continuous
 62
     3
370
     5
100
AcDbLine
 10
1637.70472457688
 20
568.1096514151965
 30
0.0
 11
1383.805066373755
 21
568.1096514151965
 31
0.0
  0
LINE
  5
504
330
1F
100
AcDbEntity
  8
0218_
  6
Continuous
 62
     3
370
     5
100
AcDbLine
 10
1637.70472457688
 20
668.1095276952856
 30
0.0
 11
1598.007330283172
 21
668.1095276952856
 31
0.0
  0
LINE
  5
505
330
1F
100
AcDbEntity
  8
0218_
  6
Continuous
 62
     3
370
     5
100
AcDbLine
 10
1423.006258043941
 20
668.1095276952856
 30
0.0
 11
1383.805066373755
 21
668.1095276952856
 31
0.0
  0
LINE
  5
506
330
1F
100
AcDbEntity
  8
0218_
  6
Continuous
 62
     3
370
     5
100
AcDbLine
 10
1444.004991152049
 20
656.1095623368606
 30
0.0
 11
1444.004991152049
 21
568.1096514151965
 31
0.0
  0
LINE
  5
507
330
1F
100
AcDbEntity
  8
0218_
  6
Continuous
 62
     3
370
     5
100
AcDbLine
 10
1514.005345815795
 20
656.1095623368606
 30
0.0
 11
1514.005345815795
 21
568.1096514151965
 31
0.0
  0
LINE
  5
508
330
1F
100
AcDbEntity
  8
0218_
  6
Continuous
 62
     3
370
     5
100
AcDbLine
 10
1584.005700479541
 20
656.1095623368606
 30
0.0
 11
1584.005700479541
 21
568.1096514151965
 31
0.0
  0
LINE
  5
509
330
1F
100
AcDbEntity
  8
0218_
  6
Continuous
 62
     3
370
     5
100
AcDbLine
 10
1444.004991152049
 20
568.1096514151965
 30
0.0
 11
1437.004918569701
 21
568.1096514151965
 31
0.0
  0
LINE
  5
50A
330
1F
100
AcDbEntity
  8
0218_
  6
Continuous
 62
     3
370
     5
100
AcDbLine
 10
1514.005345815795
 20
568.1096514151965
 30
0.0
 11
1507.005273233447
 21
568.1096514151965
 31
0.0
  0
LINE
  5
50B
330
1F
100
AcDbEntity
  8
0218_
  6
Continuous
 62
     3
370
     5
100
AcDbLine
 10
1584.005700479541
 20
568.1096514151965
 30
0.0
 11
1577.005627897192
 21
568.1096514151965
 31
0.0
  0
ARC
  5
50C
330
1F
100
AcDbEntity
  8
0218_
  6
Continuous
 62
     3
370
     5
100
AcDbCircle
 10
1449.004883928126
 20
656.1095623368606
 30
0.0
 40
5.000000064437454
100
AcDbArc
 50
90.0
 51
180.0
  0
ARC
  5
50D
330
1F
100
AcDbEntity
  8
0218_
  6
Continuous
 62
     3
370
     5
100
AcDbCircle
 10
1519.005238591872
 20
656.1095623368606
 30
0.0
 40
5.000000064437454
100
AcDbArc
 50
90.0
 51
180.0
  0
ARC
  5
50E
330
1F
100
AcDbEntity
  8
0218_
  6
Continuous
 62
     3
370
     5
100
AcDbCircle
 10
1589.005593255617
 20
656.1095623368606
 30
0.0
 40
5.000000064437454
100
AcDbArc
 50
90.0
 51
180.0
  0
LINE
  5
50F
330
1F
100
AcDbEntity
  8
0218_
  6
Continuous
 62
     3
370
     5
100
AcDbLine
 10
1460.504525965182
 20
661.1094551129371
 30
0.0
 11
1420.505383756567
 21
661.1094551129371
 31
0.0
  0
LINE
  5
510
330
1F
100
AcDbEntity
  8
0218_
  6
Continuous
 62
     3
370
     5
100
AcDbLine
 10
1420.505383756567
 20
668.1095276952856
 30
0.0
 11
1420.505383756567
 21
661.1094551129371
 31
0.0
  0
LINE
  5
511
330
1F
100
AcDbEntity
  8
0218_
  6
Continuous
 62
     3
370
     5
100
AcDbLine
 10
1460.504525965182
 20
668.1095276952856
 30
0.0
 11
1420.505383756567
 21
668.1095276952856
 31
0.0
  0
LINE
  5
512
330
1F
100
AcDbEntity
  8
0218_
  6
Continuous
 62
     3
370
     5
100
AcDbLine
 10
1460.504525965182
 20
668.1095276952856
 30
0.0
 11
1460.504525965182
 21
661.1094551129371
 31
0.0
  0
LINE
  5
513
330
1F
100
AcDbEntity
  8
0218_
  6
Continuous
 62
     3
370
     5
100
AcDbLine
 10
1530.504880628928
 20
661.1094551129371
 30
0.0
 11
1490.505738420313
 21
661.1094551129371
 31
0.0
  0
LINE
  5
514
330
1F
100
AcDbEntity
  8
0218_
  6
Continuous
 62
     3
370
     5
100
AcDbLine
 10
1490.505738420313
 20
668.1095276952856
 30
0.0
 11
1490.505738420313
 21
661.1094551129371
 31
0.0
  0
LINE
  5
515
330
1F
100
AcDbEntity
  8
0218_
  6
Continuous
 62
     3
370
     5
100
AcDbLine
 10
1530.504880628928
 20
668.1095276952856
 30
0.0
 11
1490.505738420313
 21
668.1095276952856
 31
0.0
  0
LINE
  5
516
330
1F
100
AcDbEntity
  8
0218_
  6
Continuous
 62
     3
370
     5
100
AcDbLine
 10
1530.504880628928
 20
668.1095276952856
 30
0.0
 11
1530.504880628928
 21
661.1094551129371
 31
0.0
  0
LINE
  5
517
330
1F
100
AcDbEntity
  8
0218_
  6
Continuous
 62
     3
370
     5
100
AcDbLine
 10
1600.505235292674
 20
661.1094551129371
 30
0.0
 11
1560.506093084059
 21
661.1094551129371
 31
0.0
  0
LINE
  5
518
330
1F
100
AcDbEntity
  8
0218_
  6
Continuous
 62
     3
370
     5
100
AcDbLine
 10
1560.506093084059
 20
668.1095276952856
 30
0.0
 11
1560.506093084059
 21
661.1094551129371
 31
0.0
  0
LINE
  5
519
330
1F
100
AcDbEntity
  8
0218_
  6
Continuous
 62
     3
370
     5
100
AcDbLine
 10
1600.505235292674
 20
668.1095276952856
 30
0.0
 11
1560.506093084059
 21
668.1095276952856
 31
0.0
  0
LINE
  5
51A
330
1F
100
AcDbEntity
  8
0218_
  6
Continuous
 62
     3
370
     5
100
AcDbLine
 10
1600.505235292674
 20
668.1095276952856
 30
0.0
 11
1600.505235292674
 21
661.1094551129371
 31
0.0
  0
LINE
  5
51B
330
1F
100
AcDbEntity
  8
0218_
  6
Continuous
 62
     3
370
     5
100
AcDbLine
 10
1493.006612707687
 20
668.1095276952856
 30
0.0
 11
1458.006620955681
 21
668.1095276952856
 31
0.0
  0
LINE
  5
51C
330
1F
100
AcDbEntity
  8
0218_
  6
Continuous
 62
     3
370
     5
100
AcDbLine
 10
1563.006967371432
 20
668.1095276952856
 30
0.0
 11
1528.006975619427
 21
668.1095276952856
 31
0.0
  0
TEXT
  5
51D
330
1F
100
AcDbEntity
  8
0216_
  6
Continuous
 62
     2
370
   211
100
AcDbText
 10
1570.505664188367
 20
778.7495276952856
 30
0.0
 40
30.48
  1
8
 41
0.9999999999999998
  7
ＭＳ ゴシック
100
AcDbText
  0
LINE
  5
51E
330
1F
100
AcDbEntity
  8
0216_
  6
Continuous
 62
     7
370
     5
100
AcDbLine
 10
1600.505235292674
 20
766.1095276952857
 30
0.0
 11
1600.505235292674
 21
688.1095276952856
 31
0.0
  0
LWPOLYLINE
  5
51F
330
1F
100
AcDbEntity
  8
0216_
  6
Continuous
 62
     7
370
     5
100
AcDbPolyline
 90
        4
 70
     1
 43
1.0
 10
1601.005235292674
 20
763.1095276952856
 42
0.4142135623731
 10
1600.505235292674
 20
763.6095276952856
 42
0.4142135623731
 10
1600.005235292674
 20
763.1095276952856
 42
0.4142135623731
 10
1600.505235292674
 20
762.6095276952856
 42
0.4142135623731
  0
LINE
  5
520
330
1F
100
AcDbEntity
  8
0216_
  6
Continuous
 62
     7
370
     5
100
AcDbLine
 10
1560.506093084059
 20
763.1095276952856
 30
0.0
 11
1600.505235292674
 21
763.1095276952856
 31
0.0
  0
TEXT
  5
521
330
1F
100
AcDbEntity
  8
0216_
  6
Continuous
 62
     2
370
   211
100
AcDbText
 10
1535.505486856494
 20
778.7495276952856
 30
0.0
 40
30.48
  1
6
 41
0.9999999999999998
  7
ＭＳ ゴシック
100
AcDbText
  0
LINE
  5
522
330
1F
100
AcDbEntity
  8
0216_
  6
Continuous
 62
     7
370
     5
100
AcDbLine
 10
1560.506093084059
 20
766.1095276952857
 30
0.0
 11
1560.506093084059
 21
688.1095276952856
 31
0.0
  0
LWPOLYLINE
  5
523
330
1F
100
AcDbEntity
  8
0216_
  6
Continuous
 62
     7
370
     5
100
AcDbPolyline
 90
        4
 70
     1
 43
1.0
 10
1561.00609308406
 20
763.1095276952856
 42
0.4142135623731
 10
1560.506093084059
 20
763.6095276952856
 42
0.4142135623731
 10
1560.006093084059
 20
763.1095276952856
 42
0.4142135623731
 10
1560.506093084059
 20
762.6095276952856
 42
0.4142135623731
  0
LINE
  5
524
330
1F
100
AcDbEntity
  8
0216_
  6
Continuous
 62
     7
370
     5
100
AcDbLine
 10
1530.504880628928
 20
763.1095276952856
 30
0.0
 11
1560.506093084059
 21
763.1095276952856
 31
0.0
  0
TEXT
  5
525
330
1F
100
AcDbEntity
  8
0216_
  6
Continuous
 62
     2
370
   211
100
AcDbText
 10
1500.505309524621
 20
778.7495276952856
 30
0.0
 40
30.48
  1
8
 41
0.9999999999999998
  7
ＭＳ ゴシック
100
AcDbText
  0
LINE
  5
526
330
1F
100
AcDbEntity
  8
0216_
  6
Continuous
 62
     7
370
     5
100
AcDbLine
 10
1530.504880628928
 20
766.1095276952857
 30
0.0
 11
1530.504880628928
 21
688.1095276952856
 31
0.0
  0
LWPOLYLINE
  5
527
330
1F
100
AcDbEntity
  8
0216_
  6
Continuous
 62
     7
370
     5
100
AcDbPolyline
 90
        4
 70
     1
 43
1.0
 10
1531.004880628928
 20
763.1095276952856
 42
0.4142135623731
 10
1530.504880628928
 20
763.6095276952856
 42
0.4142135623731
 10
1530.004880628928
 20
763.1095276952856
 42
0.4142135623731
 10
1530.504880628928
 20
762.6095276952856
 42
0.4142135623731
  0
LINE
  5
528
330
1F
100
AcDbEntity
  8
0216_
  6
Continuous
 62
     7
370
     5
100
AcDbLine
 10
1490.505738420313
 20
763.1095276952856
 30
0.0
 11
1530.504880628928
 21
763.1095276952856
 31
0.0
  0
TEXT
  5
529
330
1F
100
AcDbEntity
  8
0216_
  6
Continuous
 62
     2
370
   211
100
AcDbText
 10
1465.505132192748
 20
778.7495276952856
 30
0.0
 40
30.48
  1
6
 41
0.9999999999999998
  7
ＭＳ ゴシック
100
AcDbText
  0
LINE
  5
52A
330
1F
100
AcDbEntity
  8
0216_
  6
Continuous
 62
     7
370
     5
100
AcDbLine
 10
1490.505738420313
 20
766.1095276952857
 30
0.0
 11
1490.505738420313
 21
688.1095276952856
 31
0.0
  0
LWPOLYLINE
  5
52B
330
1F
100
AcDbEntity
  8
0216_
  6
Continuous
 62
     7
370
     5
100
AcDbPolyline
 90
        4
 70
     1
 43
1.0
 10
1491.005738420313
 20
763.1095276952856
 42
0.4142135623731
 10
1490.505738420313
 20
763.6095276952856
 42
0.4142135623731
 10
1490.005738420313
 20
763.1095276952856
 42
0.4142135623731
 10
1490.505738420313
 20
762.6095276952856
 42
0.4142135623731
  0
LINE
  5
52C
330
1F
100
AcDbEntity
  8
0216_
  6
Continuous
 62
     7
370
     5
100
AcDbLine
 10
1460.504525965182
 20
763.1095276952856
 30
0.0
 11
1490.505738420313
 21
763.1095276952856
 31
0.0
  0
TEXT
  5
52D
330
1F
100
AcDbEntity
  8
0216_
  6
Continuous
 62
     2
370
   211
100
AcDbText
 10
1430.504954860875
 20
778.7495276952856
 30
0.0
 40
30.48
  1
8
 41
0.9999999999999998
  7
ＭＳ ゴシック
100
AcDbText
  0
LINE
  5
52E
330
1F
100
AcDbEntity
  8
0216_
  6
Continuous
 62
     7
370
     5
100
AcDbLine
 10
1460.504525965182
 20
766.1095276952857
 30
0.0
 11
1460.504525965182
 21
688.1095276952856
 31
0.0
  0
LINE
  5
52F
330
1F
100
AcDbEntity
  8
0216_
  6
Continuous
 62
     7
370
     5
100
AcDbLine
 10
1420.505383756567
 20
766.1095276952857
 30
0.0
 11
1420.505383756567
 21
688.1095276952856
 31
0.0
  0
LWPOLYLINE
  5
530
330
1F
100
AcDbEntity
  8
0216_
  6
Continuous
 62
     7
370
     5
100
AcDbPolyline
 90
        4
 70
     1
 43
1.0
 10
1461.004525965183
 20
763.1095276952856
 42
0.4142135623731
 10
1460.504525965182
 20
763.6095276952856
 42
0.4142135623731
 10
1460.004525965182
 20
763.1095276952856
 42
0.4142135623731
 10
1460.504525965182
 20
762.6095276952856
 42
0.4142135623731
  0
LWPOLYLINE
  5
531
330
1F
100
AcDbEntity
  8
0216_
  6
Continuous
 62
     7
370
     5
100
AcDbPolyline
 90
        4
 70
     1
 43
1.0
 10
1421.005383756567
 20
763.1095276952856
 42
0.4142135623731
 10
1420.505383756567
 20
763.6095276952856
 42
0.4142135623731
 10
1420.005383756567
 20
763.1095276952856
 42
0.4142135623731
 10
1420.505383756567
 20
762.6095276952856
 42
0.4142135623731
  0
LINE
  5
532
330
1F
100
AcDbEntity
  8
0216_
  6
Continuous
 62
     7
370
     5
100
AcDbLine
 10
1420.505383756567
 20
763.1095276952856
 30
0.0
 11
1460.504525965182
 21
763.1095276952856
 31
0.0
  0
LINE
  5
533
330
1F
100
AcDbEntity
  8
0218_
  6
Continuous
 62
     3
370
     5
100
AcDbLine
 10
1584.005700479541
 20
590.3609677950539
 30
0.0
 11
1637.70472457688
 21
590.3609677950539
 31
0.0
  0
LINE
  5
534
330
1F
100
AcDbEntity
  8
0218_
  6
Continuous
 62
     3
370
     5
100
AcDbLine
 10
1584.005700479541
 20
639.8580875955184
 30
0.0
 11
1637.70472457688
 21
639.8580875955184
 31
0.0
  0
LINE
  5
535
330
1F
100
AcDbEntity
  8
0218_
  6
Continuous
 62
     3
370
     5
100
AcDbLine
 10
1584.005700479541
 20
615.1095276952856
 30
0.0
 11
1637.70472457688
 21
615.1095276952856
 31
0.0
  0
LINE
  5
536
330
1F
100
AcDbEntity
  8
0218_
  6
Continuous
 62
     3
370
     5
100
AcDbLine
 10
1514.005345815795
 20
639.8580875955184
 30
0.0
 11
1577.005627897192
 21
639.8580875955184
 31
0.0
  0
LINE
  5
537
330
1F
100
AcDbEntity
  8
0218_
  6
Continuous
 62
     3
370
     5
100
AcDbLine
 10
1514.005345815795
 20
590.3609677950539
 30
0.0
 11
1577.005627897192
 21
590.3609677950539
 31
0.0
  0
LINE
  5
538
330
1F
100
AcDbEntity
  8
0218_
  6
Continuous
 62
     3
370
     5
100
AcDbLine
 10
1514.005345815795
 20
615.1095276952856
 30
0.0
 11
1577.005627897192
 21
615.1095276952856
 31
0.0
  0
LINE
  5
539
330
1F
100
AcDbEntity
  8
0218_
  6
Continuous
 62
     3
370
     5
100
AcDbLine
 10
1383.805066373755
 20
639.8580875955184
 30
0.0
 11
1437.004918569701
 21
639.8580875955184
 31
0.0
  0
LINE
  5
53A
330
1F
100
AcDbEntity
  8
0218_
  6
Continuous
 62
     3
370
     5
100
AcDbLine
 10
1383.805066373755
 20
590.3609677950539
 30
0.0
 11
1437.004918569701
 21
590.3609677950539
 31
0.0
  0
LINE
  5
53B
330
1F
100
AcDbEntity
  8
0218_
  6
Continuous
 62
     3
370
     5
100
AcDbLine
 10
1383.805066373755
 20
615.1095276952856
 30
0.0
 11
1437.004918569701
 21
615.1095276952856
 31
0.0
  0
LINE
  5
53C
330
1F
100
AcDbEntity
  8
0218_
  6
Continuous
 62
     3
370
     5
100
AcDbLine
 10
1444.004991152049
 20
639.8580875955184
 30
0.0
 11
1507.005273233447
 21
639.8580875955184
 31
0.0
  0
LINE
  5
53D
330
1F
100
AcDbEntity
  8
0218_
  6
Continuous
 62
     3
370
     5
100
AcDbLine
 10
1444.004991152049
 20
590.3609677950539
 30
0.0
 11
1507.005273233447
 21
590.3609677950539
 31
0.0
  0
LINE
  5
53E
330
1F
100
AcDbEntity
  8
0218_
  6
Continuous
 62
     3
370
     5
100
AcDbLine
 10
1444.004991152049
 20
615.1095276952856
 30
0.0
 11
1507.005273233447
 21
615.1095276952856
 31
0.0
  0
ARC
  5
53F
330
1F
100
AcDbEntity
  8
0218_
  6
Continuous
 62
     3
370
     5
100
AcDbCircle
 10
1432.004918505264
 20
656.1095623368606
 30
0.0
 40
5.000000064437454
100
AcDbArc
 50
0.0
 51
90.0
  0
ARC
  5
540
330
1F
100
AcDbEntity
  8
0218_
  6
Continuous
 62
     3
370
     5
100
AcDbCircle
 10
1502.005273169009
 20
656.1095623368606
 30
0.0
 40
5.000000064437454
100
AcDbArc
 50
0.0
 51
90.0
  0
ARC
  5
541
330
1F
100
AcDbEntity
  8
0218_
  6
Continuous
 62
     3
370
     5
100
AcDbCircle
 10
1572.005627832756
 20
656.1095623368606
 30
0.0
 40
5.000000064437454
100
AcDbArc
 50
0.0
 51
90.0
  0
LINE
  5
542
330
1F
100
AcDbEntity
  8
0218_
  6
Continuous
 62
     3
370
     5
100
AcDbLine
 10
1437.004918569701
 20
656.1095623368606
 30
0.0
 11
1437.004918569701
 21
568.1096514151965
 31
0.0
  0
LINE
  5
543
330
1F
100
AcDbEntity
  8
0218_
  6
Continuous
 62
     3
370
     5
100
AcDbLine
 10
1507.005273233447
 20
656.1095623368606
 30
0.0
 11
1507.005273233447
 21
568.1096514151965
 31
0.0
  0
LINE
  5
544
330
1F
100
AcDbEntity
  8
0218_
  6
Continuous
 62
     3
370
     5
100
AcDbLine
 10
1577.005627897192
 20
656.1095623368606
 30
0.0
 11
1577.005627897192
 21
568.1096514151965
 31
0.0
  0
LINE
  5
545
330
1F
100
AcDbEntity
  8
0242_
  6
Continuous
 62
     7
370
     5
100
AcDbLine
 10
1412.294834618153
 20
372.2951167774032
 30
0.0
 11
1609.214956332482
 21
372.2951167774032
 31
0.0
  0
TEXT
  5
546
330
1F
100
AcDbEntity
  8
0242_
  6
Continuous
 62
     2
370
     5
100
AcDbText
 10
1414.531949051044
 20
392.9351167774032
 30
0.0
 40
30.48
  1
C-C断面図
 41
1.097222222222222
  7
ＭＳ ゴシック
100
AcDbText
  0
LINE
  5
547
330
1F
100
AcDbEntity
  8
0216_
  6
Continuous
 62
     7
370
     5
100
AcDbLine
 10
1785.568610910464
 20
568.1096514151965
 30
0.0
 11
1657.70472457688
 21
568.1096514151965
 31
0.0
  0
LINE
  5
548
330
1F
100
AcDbEntity
  8
0216_
  6
Continuous
 62
     7
370
     5
100
AcDbLine
 10
1782.568610910464
 20
668.1095276952856
 30
0.0
 11
1782.568610910464
 21
568.1096514151965
 31
0.0
  0
TEXT
  5
549
330
1F
100
AcDbEntity
  8
0216_
  6
Continuous
 62
     2
370
   211
100
AcDbText
 10
1766.928610910464
 20
596.859589555241
 30
0.0
 40
30.48
  1
20
 50
90.0
 41
1.0625
  7
ＭＳ ゴシック
100
AcDbText
  0
LINE
  5
54A
330
1F
100
AcDbEntity
  8
0216_
  6
Continuous
 62
     7
370
     5
100
AcDbLine
 10
1785.568610910464
 20
668.1095276952856
 30
0.0
 11
1657.70472457688
 21
668.1095276952856
 31
0.0
  0
LWPOLYLINE
  5
54B
330
1F
100
AcDbEntity
  8
0216_
  6
Continuous
 62
     7
370
     5
100
AcDbPolyline
 90
        4
 70
     1
 43
1.0
 10
1783.068610910464
 20
668.1095276952856
 42
0.4142135623731
 10
1782.568610910464
 20
668.6095276952856
 42
0.4142135623731
 10
1782.068610910464
 20
668.1095276952856
 42
0.4142135623731
 10
1782.568610910464
 20
667.6095276952856
 42
0.4142135623731
  0
LWPOLYLINE
  5
54C
330
1F
100
AcDbEntity
  8
0216_
  6
Continuous
 62
     7
370
     5
100
AcDbPolyline
 90
        4
 70
     1
 43
1.0
 10
1783.068610910464
 20
568.1096514151965
 42
0.4142135623731
 10
1782.568610910464
 20
568.6096514151964
 42
0.4142135623731
 10
1782.068610910464
 20
568.1096514151965
 42
0.4142135623731
 10
1782.568610910464
 20
567.6096514151965
 42
0.4142135623731
  0
LINE
  5
54D
330
1F
100
AcDbEntity
  8
0242_
  6
Continuous
 62
     7
370
     5
100
AcDbLine
 10
232.2684238709039
 20
668.1095276952851
 30
0.0
 11
252.1022573781849
 21
683.3285634205032
 31
0.0
  0
LINE
  5
54E
330
1F
100
AcDbEntity
  8
0242_
  6
Continuous
 62
     7
370
     5
100
AcDbLine
 10
232.2684238709039
 20
668.1095276952851
 30
0.0
 11
247.4874595961225
 21
687.9433612025659
 31
0.0
  0
LINE
  5
54F
330
1F
100
AcDbEntity
  8
0242_
  6
Continuous
 62
     7
370
     5
100
AcDbLine
 10
287.4406463636419
 20
723.2817501880226
 30
0.0
 11
456.738315125551
 21
723.2817501880226
 31
0.0
  0
LINE
  5
550
330
1F
100
AcDbEntity
  8
0242_
  6
Continuous
 62
     7
370
     5
100
AcDbLine
 10
232.2684238709039
 20
668.1095276952851
 30
0.0
 11
287.4406463636419
 21
723.2817501880226
 31
0.0
  0
TEXT
  5
551
330
1F
100
AcDbEntity
  8
0242_
  6
Continuous
 62
     7
370
     5
100
AcDbText
 10
287.4406463636419
 20
732.5117501880226
 30
0.0
 40
22.86
  1
メインバー
 41
1.133333333333333
  7
ＭＳ ゴシック
100
AcDbText
  0
LINE
  5
552
330
1F
100
AcDbEntity
  8
0243_
  6
Continuous
 62
     3
370
     5
100
AcDbLine
 10
934.0234132140773
 20
941.7670384513918
 30
0.0
 11
934.0234132140773
 21
978.4898156610258
 31
0.0
  0
LINE
  5
553
330
1F
100
AcDbEntity
  8
0243_
  6
Continuous
 62
     3
370
     5
100
AcDbLine
 10
934.0234132140773
 20
1018.48975462587
 30
0.0
 11
934.0234132140773
 21
1048.48975462587
 31
0.0
  0
LINE
  5
554
330
1F
100
AcDbEntity
  8
0243_
  6
Continuous
 62
     3
370
     5
100
AcDbLine
 10
983.5212753340097
 20
941.7670384513918
 30
0.0
 11
983.5212753340097
 21
978.4898156610258
 31
0.0
  0
LINE
  5
555
330
1F
100
AcDbEntity
  8
0243_
  6
Continuous
 62
     3
370
     5
100
AcDbLine
 10
983.5212753340097
 20
1018.48975462587
 30
0.0
 11
983.5212753340097
 21
1048.48975462587
 31
0.0
  0
LINE
  5
556
330
1F
100
AcDbEntity
  8
0243_
  6
Continuous
 62
     3
370
     5
100
AcDbLine
 10
958.7723442740437
 20
941.7670384513918
 30
0.0
 11
958.7723442740437
 21
978.4898156610258
 31
0.0
  0
LINE
  5
557
330
1F
100
AcDbEntity
  8
0243_
  6
Continuous
 62
     3
370
     5
100
AcDbLine
 10
958.7723442740437
 20
1018.48975462587
 30
0.0
 11
958.7723442740437
 21
1048.48975462587
 31
0.0
  0
LINE
  5
558
330
1F
100
AcDbEntity
  8
0243_
  6
Continuous
 62
     3
370
     5
100
AcDbLine
 10
534.0234132140773
 20
941.7670384513918
 30
0.0
 11
534.0234132140773
 21
978.4898156610258
 31
0.0
  0
LINE
  5
559
330
1F
100
AcDbEntity
  8
0243_
  6
Continuous
 62
     3
370
     5
100
AcDbLine
 10
534.0234132140773
 20
1018.48975462587
 30
0.0
 11
534.0234132140773
 21
1048.48975462587
 31
0.0
  0
LINE
  5
55A
330
1F
100
AcDbEntity
  8
0243_
  6
Continuous
 62
     3
370
     5
100
AcDbLine
 10
583.5212753340096
 20
941.7670384513918
 30
0.0
 11
583.5212753340096
 21
978.4898156610258
 31
0.0
  0
LINE
  5
55B
330
1F
100
AcDbEntity
  8
0243_
  6
Continuous
 62
     3
370
     5
100
AcDbLine
 10
583.5212753340096
 20
1018.48975462587
 30
0.0
 11
583.5212753340096
 21
1048.48975462587
 31
0.0
  0
LINE
  5
55C
330
1F
100
AcDbEntity
  8
0243_
  6
Continuous
 62
     3
370
     5
100
AcDbLine
 10
558.7723442740437
 20
941.7670384513918
 30
0.0
 11
558.7723442740437
 21
978.4898156610258
 31
0.0
  0
LINE
  5
55D
330
1F
100
AcDbEntity
  8
0243_
  6
Continuous
 62
     3
370
     5
100
AcDbLine
 10
558.7723442740437
 20
1018.48975462587
 30
0.0
 11
558.7723442740437
 21
1048.48975462587
 31
0.0
  0
LINE
  5
55E
330
1F
100
AcDbEntity
  8
0243_
  6
Continuous
 62
     3
370
     5
100
AcDbLine
 10
934.0234132140773
 20
1088.489693590713
 30
0.0
 11
934.0234132140773
 21
1118.489491376676
 31
0.0
  0
LINE
  5
55F
330
1F
100
AcDbEntity
  8
0243_
  6
Continuous
 62
     3
370
     5
100
AcDbLine
 10
983.5212753340097
 20
1088.489693590713
 30
0.0
 11
983.5212753340097
 21
1118.489491376676
 31
0.0
  0
LINE
  5
560
330
1F
100
AcDbEntity
  8
0243_
  6
Continuous
 62
     3
370
     5
100
AcDbLine
 10
958.7723442740437
 20
1088.489693590713
 30
0.0
 11
958.7723442740437
 21
1118.489491376676
 31
0.0
  0
LINE
  5
561
330
1F
100
AcDbEntity
  8
0243_
  6
Continuous
 62
     3
370
     5
100
AcDbLine
 10
534.0234132140773
 20
1088.489693590713
 30
0.0
 11
534.0234132140773
 21
1118.489491376676
 31
0.0
  0
LINE
  5
562
330
1F
100
AcDbEntity
  8
0243_
  6
Continuous
 62
     3
370
     5
100
AcDbLine
 10
583.5212753340096
 20
1088.489693590713
 30
0.0
 11
583.5212753340096
 21
1118.489491376676
 31
0.0
  0
LINE
  5
563
330
1F
100
AcDbEntity
  8
0243_
  6
Continuous
 62
     3
370
     5
100
AcDbLine
 10
558.7723442740437
 20
1088.489693590713
 30
0.0
 11
558.7723442740437
 21
1118.489491376676
 31
0.0
  0
LINE
  5
564
330
1F
100
AcDbEntity
  8
0243_
  6
Continuous
 62
     3
370
     5
100
AcDbLine
 10
934.0234132140773
 20
1158.48943034152
 30
0.0
 11
934.0234132140773
 21
1195.663846808734
 31
0.0
  0
LINE
  5
565
330
1F
100
AcDbEntity
  8
0243_
  6
Continuous
 62
     3
370
     5
100
AcDbLine
 10
983.5212753340097
 20
1158.48943034152
 30
0.0
 11
983.5212753340097
 21
1195.663846808734
 31
0.0
  0
LINE
  5
566
330
1F
100
AcDbEntity
  8
0243_
  6
Continuous
 62
     3
370
     5
100
AcDbLine
 10
958.7723442740437
 20
1158.48943034152
 30
0.0
 11
958.7723442740437
 21
1195.663846808734
 31
0.0
  0
LINE
  5
567
330
1F
100
AcDbEntity
  8
0243_
  6
Continuous
 62
     3
370
     5
100
AcDbLine
 10
534.0234132140773
 20
1158.48943034152
 30
0.0
 11
534.0234132140773
 21
1195.663846808734
 31
0.0
  0
LINE
  5
568
330
1F
100
AcDbEntity
  8
0243_
  6
Continuous
 62
     3
370
     5
100
AcDbLine
 10
583.5212753340096
 20
1158.48943034152
 30
0.0
 11
583.5212753340096
 21
1195.663846808734
 31
0.0
  0
LINE
  5
569
330
1F
100
AcDbEntity
  8
0243_
  6
Continuous
 62
     3
370
     5
100
AcDbLine
 10
558.7723442740437
 20
1158.48943034152
 30
0.0
 11
558.7723442740437
 21
1195.663846808734
 31
0.0
  0
TEXT
  5
56A
330
1F
100
AcDbEntity
  8
0242_
  6
Continuous
 62
     2
370
     5
100
AcDbText
 10
794.6602036809848
 20
880.3036367673484
 30
0.0
 40
30.48
  1
C
 41
0.9999999999999998
  7
ＭＳ ゴシック
100
AcDbText
  0
LINE
  5
56B
330
1F
100
AcDbEntity
  8
0242_
  6
JWW_CENTER1
 62
     4
370
     5
100
AcDbLine
 10
728.0339500663808
 20
913.4898156610258
 30
0.0
 11
728.0339500663808
 21
963.4898156610258
 31
0.0
  0
LINE
  5
56C
330
1F
100
AcDbEntity
  8
0242_
  6
Continuous
 62
     4
370
     5
100
AcDbLine
 10
737.7000398640928
 20
892.5088187875521
 30
0.0
 11
762.4861613984381
 21
889.2456639820507
 31
0.0
  0
LINE
  5
56D
330
1F
100
AcDbEntity
  8
0242_
  6
Continuous
 62
     4
370
     5
100
AcDbLine
 10
737.7000398640928
 20
892.5088187875521
 30
0.0
 11
762.4861613984381
 21
895.7719735930534
 31
0.0
  0
LINE
  5
56E
330
1F
100
AcDbEntity
  8
0242_
  6
Continuous
 62
     4
370
     5
100
AcDbLine
 10
737.7000398640928
 20
892.5088187875521
 30
0.0
 11
786.9494325470346
 21
892.5088187875521
 31
0.0
  0
SOLID
  5
56F
330
1F
100
AcDbEntity
  8
0242_
  6
Continuous
 62
     4
370
     5
100
AcDbTrace
 10
730.0339500663807
 20
913.4898156610258
 30
0.0
 11
730.0339500663807
 21
873.4898156610258
 31
0.0
 12
726.033950066381
 22
913.4898156610258
 32
0.0
 13
726.033950066381
 23
873.4898156610258
 33
0.0
  0
TEXT
  5
570
330
1F
100
AcDbEntity
  8
0242_
  6
Continuous
 62
     2
370
     5
100
AcDbText
 10
794.6602036809848
 20
1232.26524519479
 30
0.0
 40
30.48
  1
C
 41
0.9999999999999998
  7
ＭＳ ゴシック
100
AcDbText
  0
LINE
  5
571
330
1F
100
AcDbEntity
  8
0242_
  6
JWW_CENTER1
 62
     4
370
     5
100
AcDbLine
 10
728.0339500663808
 20
1223.48943034152
 30
0.0
 11
728.0339500663808
 21
1173.48943034152
 31
0.0
  0
LINE
  5
572
330
1F
100
AcDbEntity
  8
0242_
  6
Continuous
 62
     4
370
     5
100
AcDbLine
 10
737.7000398640928
 20
1244.470427214994
 30
0.0
 11
762.4861613984381
 21
1247.733582020495
 31
0.0
  0
LINE
  5
573
330
1F
100
AcDbEntity
  8
0242_
  6
Continuous
 62
     4
370
     5
100
AcDbLine
 10
737.7000398640928
 20
1244.470427214994
 30
0.0
 11
762.4861613984381
 21
1241.207272409492
 31
0.0
  0
LINE
  5
574
330
1F
100
AcDbEntity
  8
0242_
  6
Continuous
 62
     4
370
     5
100
AcDbLine
 10
737.7000398640928
 20
1244.470427214994
 30
0.0
 11
786.9494325470346
 21
1244.470427214994
 31
0.0
  0
SOLID
  5
575
330
1F
100
AcDbEntity
  8
0242_
  6
Continuous
 62
     4
370
     5
100
AcDbTrace
 10
730.0339500663807
 20
1223.48943034152
 30
0.0
 11
730.0339500663807
 21
1263.48943034152
 31
0.0
 12
726.033950066381
 22
1223.48943034152
 32
0.0
 13
726.033950066381
 23
1263.48943034152
 33
0.0
  0
LINE
  5
576
330
1F
100
AcDbEntity
  8
0216_
  6
Continuous
 62
     7
370
     5
100
AcDbLine
 10
958.7723030340728
 20
766.1095276952856
 30
0.0
 11
958.7723030340728
 21
688.1095276952856
 31
0.0
  0
LINE
  5
577
330
1F
100
AcDbEntity
  8
0216_
  6
Continuous
 62
     7
370
     5
100
AcDbLine
 10
558.7723030340728
 20
766.1095276952856
 30
0.0
 11
558.7723030340728
 21
688.1095276952856
 31
0.0
  0
TEXT
  5
578
330
1F
100
AcDbEntity
  8
0216_
  6
Continuous
 62
     2
370
   211
100
AcDbText
 10
737.5223030340728
 20
778.7495276952856
 30
0.0
 40
30.48
  1
80
 41
1.0625
  7
ＭＳ ゴシック
100
AcDbText
  0
LWPOLYLINE
  5
579
330
1F
100
AcDbEntity
  8
0216_
  6
Continuous
 62
     7
370
     5
100
AcDbPolyline
 90
        4
 70
     1
 43
1.0
 10
959.2723030340728
 20
763.1095276952856
 42
0.4142135623731
 10
958.7723030340728
 20
763.6095276952856
 42
0.4142135623731
 10
958.2723030340729
 20
763.1095276952856
 42
0.4142135623731
 10
958.7723030340728
 20
762.6095276952856
 42
0.4142135623731
  0
LWPOLYLINE
  5
57A
330
1F
100
AcDbEntity
  8
0216_
  6
Continuous
 62
     7
370
     5
100
AcDbPolyline
 90
        4
 70
     1
 43
1.0
 10
559.2723030340728
 20
763.1095276952856
 42
0.4142135623731
 10
558.7723030340728
 20
763.6095276952856
 42
0.4142135623731
 10
558.2723030340729
 20
763.1095276952856
 42
0.4142135623731
 10
558.7723030340728
 20
762.6095276952856
 42
0.4142135623731
  0
LINE
  5
57B
330
1F
100
AcDbEntity
  8
0216_
  6
Continuous
 62
     7
370
     5
100
AcDbLine
 10
558.7723030340728
 20
763.1095276952856
 30
0.0
 11
958.7723030340728
 21
763.1095276952856
 31
0.0
  0
LINE
  5
57C
330
1F
100
AcDbEntity
  8
0226_下階梁情報
  6
JWW_CENTER1
 62
     3
370
     5
100
AcDbLine
 10
958.7723030340728
 20
584.9294162483891
 30
0.0
 11
958.7723030340728
 21
645.2900103019152
 31
0.0
  0
LINE
  5
57D
330
1F
100
AcDbEntity
  8
0226_下階梁情報
  6
JWW_CENTER1
 62
     3
370
     5
100
AcDbLine
 10
988.9524144809686
 20
615.1095276952851
 30
0.0
 11
928.592191587177
 21
615.1095276952851
 31
0.0
  0
LINE
  5
57E
330
1F
100
AcDbEntity
  8
0226_下階梁情報
  6
Continuous
 62
     3
370
     5
100
AcDbLine
 10
976.2721133302082
 20
622.3582772993816
 30
0.0
 11
976.2721133302082
 21
632.6097091511551
 31
0.0
  0
LINE
  5
57F
330
1F
100
AcDbEntity
  8
0226_下階梁情報
  6
Continuous
 62
     3
370
     5
100
AcDbLine
 10
976.2721133302082
 20
597.6093462394152
 30
0.0
 11
976.2721133302082
 21
607.8607780911891
 31
0.0
  0
LINE
  5
580
330
1F
100
AcDbEntity
  8
0226_下階梁情報
  6
Continuous
 62
     3
370
     5
100
AcDbLine
 10
966.0210526381686
 20
597.6093462394152
 30
0.0
 11
976.2721133302082
 21
597.6093462394152
 31
0.0
  0
LINE
  5
581
330
1F
100
AcDbEntity
  8
0226_下階梁情報
  6
Continuous
 62
     3
370
     5
100
AcDbLine
 10
941.2724927379375
 20
597.6093462394152
 30
0.0
 11
951.523553429977
 21
597.6093462394152
 31
0.0
  0
LINE
  5
582
330
1F
100
AcDbEntity
  8
0226_下階梁情報
  6
Continuous
 62
     3
370
     5
100
AcDbLine
 10
941.2724927379375
 20
607.8607780911891
 30
0.0
 11
941.2724927379375
 21
597.6093462394152
 31
0.0
  0
LINE
  5
583
330
1F
100
AcDbEntity
  8
0226_下階梁情報
  6
Continuous
 62
     3
370
     5
100
AcDbLine
 10
941.2724927379375
 20
632.6097091511551
 30
0.0
 11
941.2724927379375
 21
622.3582772993816
 31
0.0
  0
LINE
  5
584
330
1F
100
AcDbEntity
  8
0226_下階梁情報
  6
Continuous
 62
     3
370
     5
100
AcDbLine
 10
951.523553429977
 20
632.6097091511551
 30
0.0
 11
941.2724927379375
 21
632.6097091511551
 31
0.0
  0
LINE
  5
585
330
1F
100
AcDbEntity
  8
0226_下階梁情報
  6
Continuous
 62
     3
370
     5
100
AcDbLine
 10
976.2721133302082
 20
632.6097091511551
 30
0.0
 11
966.0210526381686
 21
632.6097091511551
 31
0.0
  0
LINE
  5
586
330
1F
100
AcDbEntity
  8
0226_下階梁情報
  6
Continuous
 62
     3
370
     5
100
AcDbLine
 10
934.0237431338405
 20
615.1095276952851
 30
0.0
 11
958.7723030340728
 21
590.3605966353191
 31
0.0
  0
LINE
  5
587
330
1F
100
AcDbEntity
  8
0226_下階梁情報
  6
Continuous
 62
     3
370
     5
100
AcDbLine
 10
958.7723030340728
 20
639.8584587552516
 30
0.0
 11
934.0237431338405
 21
615.1095276952851
 31
0.0
  0
LINE
  5
588
330
1F
100
AcDbEntity
  8
0226_下階梁情報
  6
Continuous
 62
     3
370
     5
100
AcDbLine
 10
983.5208629343051
 20
615.1095276952851
 30
0.0
 11
958.7723030340728
 21
639.8584587552516
 31
0.0
  0
LINE
  5
589
330
1F
100
AcDbEntity
  8
0226_下階梁情報
  6
Continuous
 62
     3
370
     5
100
AcDbLine
 10
958.7723030340728
 20
590.3605966353191
 30
0.0
 11
983.5208629343051
 21
615.1095276952851
 31
0.0
  0
LINE
  5
58A
330
1F
100
AcDbEntity
  8
0226_下階梁情報
  6
JWW_CENTER1
 62
     3
370
     5
100
AcDbLine
 10
558.7723030340728
 20
584.9294162483891
 30
0.0
 11
558.7723030340728
 21
645.2900103019152
 31
0.0
  0
LINE
  5
58B
330
1F
100
AcDbEntity
  8
0226_下階梁情報
  6
Continuous
 62
     3
370
     5
100
AcDbLine
 10
576.2724844899426
 20
622.3582772993816
 30
0.0
 11
576.2724844899426
 21
632.6097091511551
 31
0.0
  0
LINE
  5
58C
330
1F
100
AcDbEntity
  8
0226_下階梁情報
  6
Continuous
 62
     3
370
     5
100
AcDbLine
 10
576.2724844899426
 20
597.6093462394152
 30
0.0
 11
576.2724844899426
 21
607.8607780911891
 31
0.0
  0
LINE
  5
58D
330
1F
100
AcDbEntity
  8
0226_下階梁情報
  6
Continuous
 62
     3
370
     5
100
AcDbLine
 10
566.0210526381686
 20
597.6093462394152
 30
0.0
 11
576.2724844899426
 21
597.6093462394152
 31
0.0
  0
LINE
  5
58E
330
1F
100
AcDbEntity
  8
0226_下階梁情報
  6
Continuous
 62
     3
370
     5
100
AcDbLine
 10
541.2721215782019
 20
597.6093462394152
 30
0.0
 11
551.523553429977
 21
597.6093462394152
 31
0.0
  0
LINE
  5
58F
330
1F
100
AcDbEntity
  8
0226_下階梁情報
  6
Continuous
 62
     3
370
     5
100
AcDbLine
 10
541.2721215782019
 20
607.8607780911891
 30
0.0
 11
541.2721215782019
 21
597.6093462394152
 31
0.0
  0
LINE
  5
590
330
1F
100
AcDbEntity
  8
0226_下階梁情報
  6
Continuous
 62
     3
370
     5
100
AcDbLine
 10
541.2721215782019
 20
632.6097091511551
 30
0.0
 11
541.2721215782019
 21
622.3582772993816
 31
0.0
  0
LINE
  5
591
330
1F
100
AcDbEntity
  8
0226_下階梁情報
  6
Continuous
 62
     3
370
     5
100
AcDbLine
 10
551.523553429977
 20
632.6097091511551
 30
0.0
 11
541.2721215782019
 21
632.6097091511551
 31
0.0
  0
LINE
  5
592
330
1F
100
AcDbEntity
  8
0226_下階梁情報
  6
Continuous
 62
     3
370
     5
100
AcDbLine
 10
576.2724844899426
 20
632.6097091511551
 30
0.0
 11
566.0210526381686
 21
632.6097091511551
 31
0.0
  0
LINE
  5
593
330
1F
100
AcDbEntity
  8
0226_下階梁情報
  6
Continuous
 62
     3
370
     5
100
AcDbLine
 10
534.0233719741061
 20
615.1095276952851
 30
0.0
 11
558.7723030340728
 21
590.3605966353191
 31
0.0
  0
LINE
  5
594
330
1F
100
AcDbEntity
  8
0226_下階梁情報
  6
Continuous
 62
     3
370
     5
100
AcDbLine
 10
558.7723030340728
 20
639.8584587552516
 30
0.0
 11
534.0233719741061
 21
615.1095276952851
 31
0.0
  0
LINE
  5
595
330
1F
100
AcDbEntity
  8
0226_下階梁情報
  6
Continuous
 62
     3
370
     5
100
AcDbLine
 10
583.5212340940395
 20
615.1095276952851
 30
0.0
 11
558.7723030340728
 21
639.8584587552516
 31
0.0
  0
LINE
  5
596
330
1F
100
AcDbEntity
  8
0226_下階梁情報
  6
Continuous
 62
     3
370
     5
100
AcDbLine
 10
558.7723030340728
 20
590.3605966353191
 30
0.0
 11
583.5212340940395
 21
615.1095276952851
 31
0.0
  0
LINE
  5
597
330
1F
100
AcDbEntity
  8
0242_
  6
Continuous
 62
     7
370
     5
100
AcDbLine
 10
546.397466344355
 20
602.7350621653027
 30
0.0
 11
531.1784306191371
 21
582.9012286580216
 31
0.0
  0
LINE
  5
598
330
1F
100
AcDbEntity
  8
0242_
  6
Continuous
 62
     7
370
     5
100
AcDbLine
 10
546.397466344355
 20
602.7350621653027
 30
0.0
 11
417.559148111969
 21
473.8967439329164
 31
0.0
  0
LINE
  5
599
330
1F
100
AcDbEntity
  8
0242_
  6
Continuous
 62
     7
370
     5
100
AcDbLine
 10
240.9205545850247
 20
473.8967439329164
 30
0.0
 11
417.559148111969
 21
473.8967439329164
 31
0.0
  0
TEXT
  5
59A
330
1F
100
AcDbEntity
  8
0242_
  6
Continuous
 62
     7
370
     5
100
AcDbText
 10
240.9205545850247
 20
483.1267439329164
 30
0.0
 40
22.86
  1
クロスバー
 41
1.133333333333333
  7
ＭＳ ゴシック
100
AcDbText
  0
LINE
  5
59B
330
1F
100
AcDbEntity
  8
0242_
  6
Continuous
 62
     7
370
     5
100
AcDbLine
 10
546.397466344355
 20
602.7350621653027
 30
0.0
 11
526.563632837074
 21
587.5160264400846
 31
0.0
  0
LINE
  5
59C
330
1F
100
AcDbEntity
  8
0226_下階梁情報
  6
JWW_CENTER1
 62
     3
370
     5
100
AcDbLine
 10
588.9524144809686
 20
615.1095276952851
 30
0.0
 11
528.5918204274426
 21
615.1095276952851
 31
0.0
  0
ENDSEC
  0
SECTION
  2
OBJECTS
  0
DICTIONARY
  5
C
330
0
100
AcDbDictionary
281
     1
  3
ACAD_GROUP
350
D
  3
ACAD_LAYOUT
350
1A
  3
ACAD_MLEADERSTYLE
350
59E
  3
ACAD_MLINESTYLE
350
17
  3
ACAD_PLOTSETTINGS
350
19
  3
ACAD_PLOTSTYLENAME
350
E
  3
ACAD_TABLESTYLE
350
59D
  3
ACAD_VISUALSTYLE
350
2A
  0
DICTIONARY
  5
D
102
{ACAD_REACTORS
330
C
102
}
330
C
100
AcDbDictionary
281
     1
  0
DICTIONARY
  5
1A
102
{ACAD_REACTORS
330
C
102
}
330
C
100
AcDbDictionary
281
     1
  3
Layout1
350
1E
  3
Layout2
350
26
  3
Model
350
22
  0
DICTIONARY
  5
59E
102
{ACAD_REACTORS
330
C
102
}
330
C
100
AcDbDictionary
281
     1
  0
DICTIONARY
  5
17
102
{ACAD_REACTORS
330
C
102
}
330
C
100
AcDbDictionary
281
     1
  3
Standard
350
18
  0
DICTIONARY
  5
19
102
{ACAD_REACTORS
330
C
102
}
330
C
100
AcDbDictionary
281
     1
  0
ACDBDICTIONARYWDFLT
  5
E
102
{ACAD_REACTORS
330
C
102
}
330
C
100
AcDbDictionary
281
     1
  3
Normal
350
F
100
AcDbDictionaryWithDefault
340
F
  0
DICTIONARY
  5
59D
102
{ACAD_REACTORS
330
C
102
}
330
C
100
AcDbDictionary
281
     1
  0
DICTIONARY
  5
2A
102
{ACAD_REACTORS
330
C
102
}
330
C
100
AcDbDictionary
281
     1
  3
2dWireframe
350
2F
  3
3D Hidden
350
31
  3
3dWireframe
350
30
  3
Basic
350
32
  3
Brighten
350
36
  3
ColorChange
350
3A
  3
Conceptual
350
34
  3
Dim
350
35
  3
Facepattern
350
39
  3
Flat
350
2B
  3
FlatWithEdges
350
2C
  3
Gouraud
350
2D
  3
GouraudWithEdges
350
2E
  3
Linepattern
350
38
  3
Realistic
350
33
  3
Thicken
350
37
  0
LAYOUT
  5
1E
102
{ACAD_REACTORS
330
1A
102
}
330
1A
100
AcDbPlotSettings
  1

  2
none_device
  4

  6

 40
0.0
 41
0.0
 42
0.0
 43
0.0
 44
0.0
 45
0.0
 46
0.0
 47
0.0
 48
0.0
 49
0.0
140
0.0
141
0.0
142
1.0
143
1.0
 70
   688
 72
     0
 73
     0
 74
     5
  7

 75
    16
 76
     0
 77
     5
 78
   300
147
1.0
148
0.0
149
0.0
100
AcDbLayout
  1
Layout1
 70
     1
 71
     1
 10
0.0
 20
0.0
 11
420.0
 21
297.0
 12
0.0
 22
0.0
 32
0.0
 14
1.000000000000000E+20
 24
1.000000000000000E+20
 34
1.000000000000000E+20
 15
-1.000000000000000E+20
 25
-1.000000000000000E+20
 35
-1.000000000000000E+20
146
0.0
 13
0.0
 23
0.0
 33
0.0
 16
1.0
 26
0.0
 36
0.0
 17
0.0
 27
1.0
 37
0.0
 76
     0
330
1B
  0
LAYOUT
  5
26
102
{ACAD_REACTORS
330
1A
102
}
330
1A
100
AcDbPlotSettings
  1

  2
none_device
  4

  6

 40
0.0
 41
0.0
 42
0.0
 43
0.0
 44
0.0
 45
0.0
 46
0.0
 47
0.0
 48
0.0
 49
0.0
140
0.0
141
0.0
142
1.0
143
1.0
 70
   688
 72
     0
 73
     0
 74
     5
  7

 75
    16
 76
     0
 77
     5
 78
   300
147
1.0
148
0.0
149
0.0
100
AcDbLayout
  1
Layout2
 70
     1
 71
     2
 10
0.0
 20
0.0
 11
0.0
 21
0.0
 12
0.0
 22
0.0
 32
0.0
 14
0.0
 24
0.0
 34
0.0
 15
0.0
 25
0.0
 35
0.0
146
0.0
 13
0.0
 23
0.0
 33
0.0
 16
1.0
 26
0.0
 36
0.0
 17
0.0
 27
1.0
 37
0.0
 76
     0
330
23
  0
LAYOUT
  5
22
102
{ACAD_REACTORS
330
1A
102
}
330
1A
100
AcDbPlotSettings
  1

  2
none_device
  4

  6

 40
0.0
 41
0.0
 42
0.0
 43
0.0
 44
0.0
 45
0.0
 46
0.0
 47
0.0
 48
0.0
 49
0.0
140
0.0
141
0.0
142
1.0
143
1.0
 70
  1712
 72
     0
 73
     0
 74
     0
  7

 75
     0
 76
     0
 77
     5
 78
   300
147
1.0
148
0.0
149
0.0
100
AcDbLayout
  1
Model
 70
     1
 71
     0
 10
-2100.0
 20
-1485.0
 11
2100.0
 21
1485.0
 12
0.0
 22
0.0
 32
0.0
 14
-2100.0
 24
-1485.0
 34
0.0
 15
2100.0
 25
1485.0
 35
0.0
146
0.0
 13
0.0
 23
0.0
 33
0.0
 16
1.0
 26
0.0
 36
0.0
 17
0.0
 27
1.0
 37
0.0
 76
     0
330
1F
331
29
  0
MLINESTYLE
  5
18
102
{ACAD_REACTORS
330
17
102
}
330
17
100
AcDbMlineStyle
  2
Standard
 70
     0
  3

 62
   256
 51
90.0
 52
90.0
 71
     2
 49
0.5
 62
   256
  6
BYLAYER
 49
-0.5
 62
   256
  6
BYLAYER
  0
ACDBPLACEHOLDER
  5
F
102
{ACAD_REACTORS
330
E
102
}
330
E
  0
VISUALSTYLE
  5
2F
102
{ACAD_REACTORS
330
2A
102
}
330
2A
100
AcDbVisualStyle
  2
2dWireframe
 70
     4
 71
     0
 72
     2
 73
     0
 90
        0
 40
-0.6
 41
-30.0
 62
     5
 63
     7
421
 16777215
 74
     1
 91
        4
 64
     7
 65
   257
 75
     1
175
     1
 42
1.0
 92
        0
 66
   257
 43
1.0
 76
     1
 77
     6
 78
     2
 67
     7
 79
     5
170
     0
171
     0
290
     0
174
     0
 93
        1
 44
0.0
173
     0
291
     0
 45
0.0
  0
VISUALSTYLE
  5
31
102
{ACAD_REACTORS
330
2A
102
}
330
2A
100
AcDbVisualStyle
  2
3D Hidden
 70
     6
 71
     1
 72
     2
 73
     2
 90
        0
 40
-0.6
 41
-30.0
 62
     5
 63
     7
421
 16777215
 74
     2
 91
        2
 64
     7
 65
   257
 75
     2
175
     1
 42
40.0
 92
        0
 66
   257
 43
1.0
 76
     1
 77
     6
 78
     2
 67
     7
 79
     3
170
     0
171
     0
290
     0
174
     0
 93
        1
 44
0.0
173
     0
291
     0
 45
0.0
  0
VISUALSTYLE
  5
30
102
{ACAD_REACTORS
330
2A
102
}
330
2A
100
AcDbVisualStyle
  2
3dWireframe
 70
     5
 71
     0
 72
     2
 73
     0
 90
        0
 40
-0.6
 41
-30.0
 62
     5
 63
     7
421
 16777215
 74
     1
 91
        4
 64
     7
 65
   257
 75
     1
175
     1
 42
1.0
 92
        0
 66
   257
 43
1.0
 76
     1
 77
     6
 78
     2
 67
     7
 79
     5
170
     0
171
     0
290
     0
174
     0
 93
        1
 44
0.0
173
     0
291
     0
 45
0.0
  0
VISUALSTYLE
  5
32
102
{ACAD_REACTORS
330
2A
102
}
330
2A
100
AcDbVisualStyle
  2
Basic
 70
     7
 71
     1
 72
     0
 73
     1
 90
        0
 40
-0.6
 41
-30.0
 62
     5
 63
     7
421
 16777215
 74
     0
 91
        4
 64
     7
 65
   257
 75
     1
175
     1
 42
1.0
 92
        8
 66
     7
 43
1.0
 76
     1
 77
     6
 78
     2
 67
     7
 79
     5
170
     0
171
     0
290
     0
174
     0
 93
        1
 44
0.0
173
     0
291
     1
 45
0.0
  0
VISUALSTYLE
  5
36
102
{ACAD_REACTORS
330
2A
102
}
330
2A
100
AcDbVisualStyle
  2
Brighten
 70
    12
 71
     2
 72
     2
 73
     0
 90
        0
 40
-0.6
 41
-30.0
 62
     5
 63
     7
421
 16777215
 74
     1
 91
        4
 64
     7
 65
   257
 75
     1
175
     1
 42
1.0
 92
        8
 66
     7
 43
1.0
 76
     1
 77
     6
 78
     2
 67
     7
 79
     5
170
     0
171
     0
290
     0
174
     0
 93
        1
 44
50.0
173
     0
291
     1
 45
0.0
  0
VISUALSTYLE
  5
3A
102
{ACAD_REACTORS
330
2A
102
}
330
2A
100
AcDbVisualStyle
  2
ColorChange
 70
    16
 71
     2
 72
     2
 73
     3
 90
        0
 40
-0.6
 41
-30.0
 62
     5
 63
     8
421
  8421504
 74
     1
 91
        4
 64
     7
 65
   257
 75
     1
175
     1
 42
1.0
 92
        8
 66
     8
424
  8421504
 43
1.0
 76
     1
 77
     6
 78
     2
 67
     7
 79
     5
170
     0
171
     0
290
     0
174
     0
 93
        1
 44
0.0
173
     0
291
     1
 45
0.0
  0
VISUALSTYLE
  5
34
102
{ACAD_REACTORS
330
2A
102
}
330
2A
100
AcDbVisualStyle
  2
Conceptual
 70
     9
 71
     3
 72
     2
 73
     0
 90
        0
 40
-0.6
 41
-30.0
 62
     5
 63
     7
421
 16777215
 74
     2
 91
        2
 64
     7
 65
   257
 75
     1
175
     1
 42
40.0
 92
        8
 66
     7
 43
1.0
 76
     1
 77
     6
 78
     2
 67
     7
 79
     3
170
     0
171
     0
290
     0
174
     0
 93
        1
 44
0.0
173
     0
291
     0
 45
0.0
  0
VISUALSTYLE
  5
35
102
{ACAD_REACTORS
330
2A
102
}
330
2A
100
AcDbVisualStyle
  2
Dim
 70
    11
 71
     2
 72
     2
 73
     0
 90
        0
 40
-0.6
 41
-30.0
 62
     5
 63
     7
421
 16777215
 74
     1
 91
        4
 64
     7
 65
   257
 75
     1
175
     1
 42
1.0
 92
        8
 66
     7
 43
1.0
 76
     1
 77
     6
 78
     2
 67
     7
 79
     5
170
     0
171
     0
290
     0
174
     0
 93
        1
 44
-50.0
173
     0
291
     1
 45
0.0
  0
VISUALSTYLE
  5
39
102
{ACAD_REACTORS
330
2A
102
}
330
2A
100
AcDbVisualStyle
  2
Facepattern
 70
    15
 71
     2
 72
     2
 73
     0
 90
        0
 40
-0.6
 41
-30.0
 62
     5
 63
     7
421
 16777215
 74
     1
 91
        4
 64
     7
 65
   257
 75
     1
175
     1
 42
1.0
 92
        8
 66
     7
 43
1.0
 76
     1
 77
     6
 78
     2
 67
     7
 79
     5
170
     0
171
     0
290
     0
174
     0
 93
        1
 44
0.0
173
     0
291
     1
 45
0.0
  0
VISUALSTYLE
  5
2B
102
{ACAD_REACTORS
330
2A
102
}
330
2A
100
AcDbVisualStyle
  2
Flat
 70
     0
 71
     2
 72
     1
 73
     1
 90
        2
 40
-0.6
 41
30.0
 62
     5
 63
     7
421
 16777215
 74
     0
 91
        4
 64
     7
 65
   257
 75
     1
175
     1
 42
1.0
 92
        8
 66
     7
 43
1.0
 76
     1
 77
     6
 78
     2
 67
     7
 79
     5
170
     0
171
     0
290
     0
174
     0
 93
       13
 44
0.0
173
     0
291
     1
 45
0.0
  0
VISUALSTYLE
  5
2C
102
{ACAD_REACTORS
330
2A
102
}
330
2A
100
AcDbVisualStyle
  2
FlatWithEdges
 70
     1
 71
     2
 72
     1
 73
     1
 90
        2
 40
-0.6
 41
30.0
 62
     5
 63
     7
421
 16777215
 74
     1
 91
        4
 64
     7
 65
   257
 75
     1
175
     1
 42
1.0
 92
        0
 66
   257
 43
1.0
 76
     1
 77
     6
 78
     2
 67
     7
 79
     5
170
     0
171
     0
290
     0
174
     0
 93
       13
 44
0.0
173
     0
291
     1
 45
0.0
  0
VISUALSTYLE
  5
2D
102
{ACAD_REACTORS
330
2A
102
}
330
2A
100
AcDbVisualStyle
  2
Gouraud
 70
     2
 71
     2
 72
     2
 73
     1
 90
        2
 40
-0.6
 41
30.0
 62
     5
 63
     7
421
 16777215
 74
     0
 91
        4
 64
     7
 65
   257
 75
     1
175
     1
 42
1.0
 92
        0
 66
     7
 43
1.0
 76
     1
 77
     6
 78
     2
 67
     7
 79
     5
170
     0
171
     0
290
     0
174
     0
 93
       13
 44
0.0
173
     0
291
     1
 45
0.0
  0
VISUALSTYLE
  5
2E
102
{ACAD_REACTORS
330
2A
102
}
330
2A
100
AcDbVisualStyle
  2
GouraudWithEdges
 70
     3
 71
     2
 72
     2
 73
     1
 90
        2
 40
-0.6
 41
30.0
 62
     5
 63
     7
421
 16777215
 74
     1
 91
        4
 64
     7
 65
   257
 75
     1
175
     1
 42
1.0
 92
        0
 66
   257
 43
1.0
 76
     1
 77
     6
 78
     2
 67
     7
 79
     5
170
     0
171
     0
290
     0
174
     0
 93
       13
 44
0.0
173
     0
291
     1
 45
0.0
  0
VISUALSTYLE
  5
38
102
{ACAD_REACTORS
330
2A
102
}
330
2A
100
AcDbVisualStyle
  2
Linepattern
 70
    14
 71
     2
 72
     2
 73
     0
 90
        0
 40
-0.6
 41
-30.0
 62
     5
 63
     7
421
 16777215
 74
     1
 91
        4
 64
     7
 65
   257
 75
     7
175
     7
 42
1.0
 92
        8
 66
     7
 43
1.0
 76
     1
 77
     6
 78
     2
 67
     7
 79
     5
170
     0
171
     0
290
     0
174
     0
 93
        1
 44
0.0
173
     0
291
     1
 45
0.0
  0
VISUALSTYLE
  5
33
102
{ACAD_REACTORS
330
2A
102
}
330
2A
100
AcDbVisualStyle
  2
Realistic
 70
     8
 71
     2
 72
     2
 73
     0
 90
        0
 40
-0.6
 41
-30.0
 62
     5
 63
     7
421
 16777215
 74
     1
 91
        0
 64
     7
 65
   257
 75
     1
175
     1
 42
1.0
 92
        8
 66
     8
424
  7895160
 43
1.0
 76
     1
 77
     6
 78
     2
 67
     7
 79
     5
170
     0
171
     0
290
     0
174
     0
 93
       13
 44
0.0
173
     0
291
     0
 45
0.0
  0
VISUALSTYLE
  5
37
102
{ACAD_REACTORS
330
2A
102
}
330
2A
100
AcDbVisualStyle
  2
Thicken
 70
    13
 71
     2
 72
     2
 73
     0
 90
        0
 40
-0.6
 41
-30.0
 62
     5
 63
     7
421
 16777215
 74
     1
 91
        4
 64
     7
 65
   257
 75
     1
175
     1
 42
1.0
 92
       12
 66
     7
 43
1.0
 76
     1
 77
     6
 78
     2
 67
     7
 79
     5
170
     0
171
     0
290
     0
174
     0
 93
        1
 44
0.0
173
     0
291
     1
 45
0.0
  0
ENDSEC
  0
EOF
