  0
SECTION
  2
HEADER
  9
$ACADVER
  1
AC1018
  9
$ACADMAINTVER
 70
     0
  9
$DWGCODEPAGE
  3
ANSI_932
  9
$INSBASE
 10
0.0
 20
0.0
 30
0.0
  9
$EXTMIN
 10
-2100.0
 20
-1485.0
 30
0.0
  9
$EXTMAX
 10
2100.0
 20
1485.0
 30
0.0
  9
$LIMMIN
 10
-2100.0
 20
-1485.0
  9
$LIMMAX
 10
2100.0
 20
1485.0
  9
$ORTHOMODE
 70
     0
  9
$REGENMODE
 70
     1
  9
$FILLMODE
 70
     1
  9
$QTEXTMODE
 70
     0
  9
$MIRRTEXT
 70
     1
  9
$LTSCALE
 40
10.0
  9
$ATTMODE
 70
     1
  9
$TEXTSIZE
 40
2.5
  9
$TRACEWID
 40
1.0
  9
$TEXTSTYLE
  7
Standard
  9
$CLAYER
  8
0
  9
$CELTYPE
  6
ByLayer
  9
$CECOLOR
 62
   256
  9
$CELTSCALE
 40
1.0
  9
$DISPSILH
 70
     0
  9
$DIMSCALE
 40
1.0
  9
$DIMASZ
 40
2.5
  9
$DIMEXO
 40
0.625
  9
$DIMDLI
 40
3.75
  9
$DIMRND
 40
0.0
  9
$DIMDLE
 40
0.0
  9
$DIMEXE
 40
1.25
  9
$DIMTP
 40
0.0
  9
$DIMTM
 40
0.0
  9
$DIMTXT
 40
2.5
  9
$DIMCEN
 40
2.5
  9
$DIMTSZ
 40
0.0
  9
$DIMTOL
 70
     0
  9
$DIMLIM
 70
     0
  9
$DIMTIH
 70
     0
  9
$DIMTOH
 70
     0
  9
$DIMSE1
 70
     0
  9
$DIMSE2
 70
     0
  9
$DIMTAD
 70
     1
  9
$DIMZIN
 70
     8
  9
$DIMBLK
  1

  9
$DIMASO
 70
     1
  9
$DIMSHO
 70
     1
  9
$DIMPOST
  1

  9
$DIMAPOST
  1

  9
$DIMALT
 70
     0
  9
$DIMALTD
 70
     3
  9
$DIMALTF
 40
0.03937007874016
  9
$DIMLFAC
 40
1.0
  9
$DIMTOFL
 70
     1
  9
$DIMTVP
 40
0.0
  9
$DIMTIX
 70
     0
  9
$DIMSOXD
 70
     0
  9
$DIMSAH
 70
     0
  9
$DIMBLK1
  1

  9
$DIMBLK2
  1

  9
$DIMSTYLE
  2
ISO-25
  9
$DIMCLRD
 70
     0
  9
$DIMCLRE
 70
     0
  9
$DIMCLRT
 70
     0
  9
$DIMTFAC
 40
1.0
  9
$DIMGAP
 40
0.625
  9
$DIMJUST
 70
     0
  9
$DIMSD1
 70
     0
  9
$DIMSD2
 70
     0
  9
$DIMTOLJ
 70
     0
  9
$DIMTZIN
 70
     8
  9
$DIMALTZ
 70
     0
  9
$DIMALTTZ
 70
     0
  9
$DIMUPT
 70
     0
  9
$DIMDEC
 70
     2
  9
$DIMTDEC
 70
     2
  9
$DIMALTU
 70
     2
  9
$DIMALTTD
 70
     3
  9
$DIMTXSTY
  7
Standard
  9
$DIMAUNIT
 70
     0
  9
$DIMADEC
 70
     0
  9
$DIMALTRND
 40
0.0
  9
$DIMAZIN
 70
     0
  9
$DIMDSEP
 70
    44
  9
$DIMATFIT
 70
     3
  9
$DIMFRAC
 70
     0
  9
$DIMLDRBLK
  1

  9
$DIMLUNIT
 70
     2
  9
$DIMLWD
 70
    -2
  9
$DIMLWE
 70
    -2
  9
$DIMTMOVE
 70
     0
  9
$LUNITS
 70
     2
  9
$LUPREC
 70
     4
  9
$SKETCHINC
 40
1.0
  9
$FILLETRAD
 40
10.0
  9
$AUNITS
 70
     0
  9
$AUPREC
 70
     0
  9
$MENU
  1
.
  9
$ELEVATION
 40
0.0
  9
$PELEVATION
 40
0.0
  9
$THICKNESS
 40
0.0
  9
$LIMCHECK
 70
     0
  9
$CHAMFERA
 40
10.0
  9
$CHAMFERB
 40
10.0
  9
$CHAMFERC
 40
20.0
  9
$CHAMFERD
 40
0.0
  9
$SKPOLY
 70
     0
  9
$TDCREATE
 40
2458442.395143102
  9
$TDUCREATE
 40
2458442.020143102
  9
$TDUPDATE
 40
2458442.395143114
  9
$TDUUPDATE
 40
2458442.020143114
  9
$TDINDWG
 40
0.0000000116
  9
$TDUSRTIMER
 40
0.0000000116
  9
$USRTIMER
 70
     1
  9
$ANGBASE
 50
0.0
  9
$ANGDIR
 70
     0
  9
$PDMODE
 70
     0
  9
$PDSIZE
 40
0.0
  9
$PLINEWID
 40
0.0
  9
$SPLFRAME
 70
     0
  9
$SPLINETYPE
 70
     6
  9
$SPLINESEGS
 70
     8
  9
$HANDSEED
  5
59E
  9
$SURFTAB1
 70
     6
  9
$SURFTAB2
 70
     6
  9
$SURFTYPE
 70
     6
  9
$SURFU
 70
     6
  9
$SURFV
 70
     6
  9
$UCSBASE
  2

  9
$UCSNAME
  2

  9
$UCSORG
 10
0.0
 20
0.0
 30
0.0
  9
$UCSXDIR
 10
1.0
 20
0.0
 30
0.0
  9
$UCSYDIR
 10
0.0
 20
1.0
 30
0.0
  9
$UCSORTHOREF
  2

  9
$UCSORTHOVIEW
 70
     0
  9
$UCSORGTOP
 10
0.0
 20
0.0
 30
0.0
  9
$UCSORGBOTTOM
 10
0.0
 20
0.0
 30
0.0
  9
$UCSORGLEFT
 10
0.0
 20
0.0
 30
0.0
  9
$UCSORGRIGHT
 10
0.0
 20
0.0
 30
0.0
  9
$UCSORGFRONT
 10
0.0
 20
0.0
 30
0.0
  9
$UCSORGBACK
 10
0.0
 20
0.0
 30
0.0
  9
$PUCSBASE
  2

  9
$PUCSNAME
  2

  9
$PUCSORG
 10
0.0
 20
0.0
 30
0.0
  9
$PUCSXDIR
 10
1.0
 20
0.0
 30
0.0
  9
$PUCSYDIR
 10
0.0
 20
1.0
 30
0.0
  9
$PUCSORTHOREF
  2

  9
$PUCSORTHOVIEW
 70
     0
  9
$PUCSORGTOP
 10
0.0
 20
0.0
 30
0.0
  9
$PUCSORGBOTTOM
 10
0.0
 20
0.0
 30
0.0
  9
$PUCSORGLEFT
 10
0.0
 20
0.0
 30
0.0
  9
$PUCSORGRIGHT
 10
0.0
 20
0.0
 30
0.0
  9
$PUCSORGFRONT
 10
0.0
 20
0.0
 30
0.0
  9
$PUCSORGBACK
 10
0.0
 20
0.0
 30
0.0
  9
$USERI1
 70
     0
  9
$USERI2
 70
     0
  9
$USERI3
 70
     0
  9
$USERI4
 70
     0
  9
$USERI5
 70
     0
  9
$USERR1
 40
0.0
  9
$USERR2
 40
0.0
  9
$USERR3
 40
0.0
  9
$USERR4
 40
0.0
  9
$USERR5
 40
0.0
  9
$WORLDVIEW
 70
     1
  9
$SHADEDGE
 70
     3
  9
$SHADEDIF
 70
    70
  9
$TILEMODE
 70
     1
  9
$MAXACTVP
 70
    64
  9
$PINSBASE
 10
0.0
 20
0.0
 30
0.0
  9
$PLIMCHECK
 70
     0
  9
$PEXTMIN
 10
1.000000000000000E+20
 20
1.000000000000000E+20
 30
1.000000000000000E+20
  9
$PEXTMAX
 10
-1.000000000000000E+20
 20
-1.000000000000000E+20
 30
-1.000000000000000E+20
  9
$PLIMMIN
 10
0.0
 20
0.0
  9
$PLIMMAX
 10
420.0
 20
297.0
  9
$UNITMODE
 70
     0
  9
$VISRETAIN
 70
     1
  9
$PLINEGEN
 70
     0
  9
$PSLTSCALE
 70
     1
  9
$TREEDEPTH
 70
  3020
  9
$CMLSTYLE
  2
Standard
  9
$CMLJUST
 70
     0
  9
$CMLSCALE
 40
20.0
  9
$PROXYGRAPHICS
 70
     1
  9
$MEASUREMENT
 70
     1
  9
$CELWEIGHT
370
    -1
  9
$ENDCAPS
280
     0
  9
$JOINSTYLE
280
     0
  9
$LWDISPLAY
290
     0
  9
$INSUNITS
 70
     4
  9
$HYPERLINKBASE
  1

  9
$STYLESHEET
  1

  9
$XEDIT
290
     1
  9
$CEPSNTYPE
380
     0
  9
$PSTYLEMODE
290
     1
  9
$FINGERPRINTGUID
  2
{5FCCB221-8BA6-45D5-A74B-2F03C0BF80FF}
  9
$VERSIONGUID
  2
{FAEB1C32-E019-11D5-929B-00C0DF256EC4}
  9
$EXTNAMES
290
     1
  9
$PSVPSCALE
 40
0.0
  9
$OLESTARTUP
290
     0
  9
$SORTENTS
280
   127
  9
$INDEXCTL
280
     0
  9
$HIDETEXT
280
     1
  9
$XCLIPFRAME
290
     0
  9
$HALOGAP
280
     0
  9
$OBSCOLOR
 70
   257
  9
$OBSLTYPE
280
     0
  9
$INTERSECTIONDISPLAY
280
     0
  9
$INTERSECTIONCOLOR
 70
   257
  9
$DIMASSOC
280
     2
  9
$PROJECTNAME
  1

  0
ENDSEC
  0
SECTION
  2
CLASSES
  0
CLASS
  1
ACDBDICTIONARYWDFLT
  2
AcDbDictionaryWithDefault
  3
ObjectDBX Classes
 90
        0
 91
        4
280
     0
281
     0
  0
CLASS
  1
VISUALSTYLE
  2
AcDbVisualStyle
  3
ObjectDBX Classes
 90
     4095
 91
        4
280
     0
281
     0
  0
ENDSEC
  0
SECTION
  2
TABLES
  0
TABLE
  2
VPORT
  5
8
330
0
100
AcDbSymbolTable
 70
     1
  0
VPORT
  5
29
330
8
100
AcDbSymbolTableRecord
100
AcDbViewportTableRecord
  2
*Active
 70
     0
 10
0.0
 20
0.0
 11
1.0
 21
1.0
 12
0.0
 22
0.0
 13
0.0
 23
0.0
 14
10.0
 24
10.0
 15
10.0
 25
10.0
 16
0.0
 26
0.0
 36
1.0
 17
0.0
 27
0.0
 37
0.0
 40
3267.0
 41
1.414141414141414
 42
50.0
 43
0.0
 44
0.0
 50
0.0
 51
0.0
 71
     0
 72
 10000
 73
     1
 74
     3
 75
     0
 76
     0
 77
     0
 78
     0
281
     0
 65
     1
110
0.0
120
0.0
130
0.0
111
1.0
121
0.0
131
0.0
112
0.0
122
1.0
132
0.0
 79
     0
146
0.0
  0
ENDTAB
  0
TABLE
  2
LTYPE
  5
5
330
0
100
AcDbSymbolTable
 70
     5
  0
LTYPE
  5
14
330
5
100
AcDbSymbolTableRecord
100
AcDbLinetypeTableRecord
  2
ByBlock
 70
     0
  3

 72
    65
 73
     0
 40
0.0
  0
LTYPE
  5
15
330
5
100
AcDbSymbolTableRecord
100
AcDbLinetypeTableRecord
  2
ByLayer
 70
     0
  3

 72
    65
 73
     0
 40
0.0
  0
LTYPE
  5
16
330
5
100
AcDbSymbolTableRecord
100
AcDbLinetypeTableRecord
  2
Continuous
 70
     0
  3
Solid line
 72
    65
 73
     0
 40
0.0
  0
LTYPE
  5
3C
330
5
100
AcDbSymbolTableRecord
100
AcDbLinetypeTableRecord
  2
JWW_CENTER1
 70
     0
  3
-----  --  ----------  --  -----
 72
    65
 73
     4
 40
6.773333333333333
 49
4.233333333333333
 74
     0
 49
-0.8466666666666667
 74
     0
 49
0.8466666666666667
 74
     0
 49
-0.8466666666666667
 74
     0
  0
LTYPE
  5
3D
330
5
100
AcDbSymbolTableRecord
100
AcDbLinetypeTableRecord
  2
JWW_DASHED2
 70
     0
  3
--    ----    ----    ----    --
 72
    65
 73
     2
 40
3.386666666666667
 49
1.693333333333333
 74
     0
 49
-1.693333333333333
 74
     0
  0
LTYPE
  5
3E
330
5
100
AcDbSymbolTableRecord
100
AcDbLinetypeTableRecord
  2
JWW_DASHED3
 70
     0
  3
---  ------  ------  ------  ---
 72
    65
 73
     2
 40
3.386666666666667
 49
2.54
 74
     0
 49
-0.8466666666666667
 74
     0
  0
LTYPE
  5
3F
330
5
100
AcDbSymbolTableRecord
100
AcDbLinetypeTableRecord
  2
JWW_CENTER2
 70
     0
  3
-------------  --  -------------
 72
    65
 73
     4
 40
13.54666666666667
 49
11.00666666666667
 74
     0
 49
-0.8466666666666667
 74
     0
 49
0.8466666666666667
 74
     0
 49
-0.8466666666666667
 74
     0
  0
ENDTAB
  0
TABLE
  2
LAYER
  5
2
330
0
100
AcDbSymbolTable
 70
    15
  0
LAYER
  5
10
330
2
100
AcDbSymbolTableRecord
100
AcDbLayerTableRecord
  2
0
 70
     0
 62
     7
  6
Continuous
370
    -3
390
F
  0
LAYER
  5
40
330
2
100
AcDbSymbolTableRecord
100
AcDbLayerTableRecord
  2
F-5ﾚｲﾔ
 70
     0
 62
     7
  6
Continuous
370
    -1
390
F
  0
LAYER
  5
41
330
2
100
AcDbSymbolTableRecord
100
AcDbLayerTableRecord
  2
D-5
 70
     0
 62
     7
  6
Continuous
370
    -1
390
F
  0
LAYER
  5
42
330
2
100
AcDbSymbolTableRecord
100
AcDbLayerTableRecord
  2
D-4
 70
     0
 62
     7
  6
Continuous
370
    -1
390
F
  0
LAYER
  5
43
330
2
100
AcDbSymbolTableRecord
100
AcDbLayerTableRecord
  2
D-2
 70
     0
 62
     7
  6
Continuous
370
    -1
390
F
  0
LAYER
  5
44
330
2
100
AcDbSymbolTableRecord
100
AcDbLayerTableRecord
  2
D-A
 70
     0
 62
     7
  6
Continuous
370
    -1
390
F
  0
LAYER
  5
45
330
2
100
AcDbSymbolTableRecord
100
AcDbLayerTableRecord
  2
D-0
 70
     0
 62
     7
  6
Continuous
370
    -1
390
F
  0
LAYER
  5
46
330
2
100
AcDbSymbolTableRecord
100
AcDbLayerTableRecord
  2
D-1
 70
     0
 62
     7
  6
Continuous
370
    -1
390
F
  0
LAYER
  5
47
330
2
100
AcDbSymbolTableRecord
100
AcDbLayerTableRecord
  2
D-6
 70
     0
 62
     7
  6
Continuous
370
    -1
390
F
  0
LAYER
  5
48
330
2
100
AcDbSymbolTableRecord
100
AcDbLayerTableRecord
  2
D-9
 70
     0
 62
     7
  6
Continuous
370
    -1
390
F
  0
LAYER
  5
49
330
2
100
AcDbSymbolTableRecord
100
AcDbLayerTableRecord
  2
C-A
 70
     0
 62
     7
  6
Continuous
370
    -1
390
F
  0
LAYER
  5
4A
330
2
100
AcDbSymbolTableRecord
100
AcDbLayerTableRecord
  2
C-9
 70
     0
 62
     7
  6
Continuous
370
    -1
390
F
  0
LAYER
  5
4B
330
2
100
AcDbSymbolTableRecord
100
AcDbLayerTableRecord
  2
C-4
 70
     0
 62
     7
  6
Continuous
370
    -1
390
F
  0
LAYER
  5
4C
330
2
100
AcDbSymbolTableRecord
100
AcDbLayerTableRecord
  2
C-5
 70
     0
 62
     7
  6
Continuous
370
    -1
390
F
  0
LAYER
  5
4D
330
2
100
AcDbSymbolTableRecord
100
AcDbLayerTableRecord
  2
F-4ﾚｲﾔ
 70
     0
 62
     7
  6
Continuous
370
    -1
390
F
  0
ENDTAB
  0
TABLE
  2
STYLE
  5
3
330
0
100
AcDbSymbolTable
 70
     2
  0
STYLE
  5
11
330
3
100
AcDbSymbolTableRecord
100
AcDbTextStyleTableRecord
  2
Standard
 70
     0
 40
0.0
 41
1.0
 50
0.0
 71
     0
 42
2.5
  3
txt
  4

1001
ACAD
1000

1071
        0
  0
STYLE
  5
3B
330
3
100
AcDbSymbolTableRecord
100
AcDbTextStyleTableRecord
  2
ＭＳ ゴシック
 70
     0
 40
1.0
 41
1.0
 50
0.0
 71
     0
 42
10.0
  3

  4

1001
ACAD
1000
MS Gothic
1071
    32817
  0
ENDTAB
  0
TABLE
  2
VIEW
  5
6
330
0
100
AcDbSymbolTable
 70
     0
  0
ENDTAB
  0
TABLE
  2
UCS
  5
7
330
0
100
AcDbSymbolTable
 70
     0
  0
ENDTAB
  0
TABLE
  2
APPID
  5
9
330
0
100
AcDbSymbolTable
 70
     1
  0
APPID
  5
12
330
9
100
AcDbSymbolTableRecord
100
AcDbRegAppTableRecord
  2
ACAD
 70
     0
  0
ENDTAB
  0
TABLE
  2
DIMSTYLE
  5
A
330
0
100
AcDbSymbolTable
 70
     1
100
AcDbDimStyleTable
  0
DIMSTYLE
105
27
330
A
100
AcDbSymbolTableRecord
100
AcDbDimStyleTableRecord
  2
ISO-25
 70
     0
 41
2.5
 42
0.625
 43
3.75
 44
1.25
 73
     0
 74
     0
 77
     1
 78
     8
140
2.5
141
2.5
143
0.03937007874016
147
0.625
171
     3
172
     1
271
     2
272
     2
274
     3
278
    44
283
     0
284
     8
340
11
  0
ENDTAB
  0
TABLE
  2
BLOCK_RECORD
  5
1
330
0
100
AcDbSymbolTable
 70
     1
  0
BLOCK_RECORD
  5
1F
330
1
100
AcDbSymbolTableRecord
100
AcDbBlockTableRecord
  2
*Model_Space
340
22
  0
BLOCK_RECORD
  5
1B
330
1
100
AcDbSymbolTableRecord
100
AcDbBlockTableRecord
  2
*Paper_Space
340
1E
  0
BLOCK_RECORD
  5
23
330
1
100
AcDbSymbolTableRecord
100
AcDbBlockTableRecord
  2
*Paper_Space0
340
26
  0
ENDTAB
  0
ENDSEC
  0
SECTION
  2
BLOCKS
  0
BLOCK
  5
20
330
1F
100
AcDbEntity
  8
0
100
AcDbBlockBegin
  2
*Model_Space
 70
     0
 10
0.0
 20
0.0
 30
0.0
  3
*Model_Space
  1

  0
ENDBLK
  5
21
330
1F
100
AcDbEntity
  8
0
100
AcDbBlockEnd
  0
BLOCK
  5
1C
330
1B
100
AcDbEntity
 67
     1
  8
0
100
AcDbBlockBegin
  2
*Paper_Space
 70
     0
 10
0.0
 20
0.0
 30
0.0
  3
*Paper_Space
  1

  0
ENDBLK
  5
1D
330
1B
100
AcDbEntity
 67
     1
  8
0
100
AcDbBlockEnd
  0
BLOCK
  5
24
330
23
100
AcDbEntity
  8
0
100
AcDbBlockBegin
  2
*Paper_Space0
 70
     0
 10
0.0
 20
0.0
 30
0.0
  3
*Paper_Space0
  1

  0
ENDBLK
  5
25
330
23
100
AcDbEntity
  8
0
100
AcDbBlockEnd
  0
ENDSEC
  0
SECTION
  2
ENTITIES
  0
TEXT
  5
4E
330
1F
100
AcDbEntity
  8
F-5ﾚｲﾔ
  6
Continuous
 62
     2
370
     9
100
AcDbText
 10
-833.1653373972165
 20
-1325.085615606012
 30
0.0
 40
30.48
  1
ステンレス製　細目滑り止め模様付（ローレット模様）グレーチング（すきま9mm）
 41
0.7743333333333332
  7
ＭＳ ゴシック
100
AcDbText
  0
LINE
  5
4F
330
1F
100
AcDbEntity
  8
D-5
  6
Continuous
 62
     7
370
     9
100
AcDbLine
 10
401.5747977114761
 20
66.47175814954281
 30
0.0
 11
619.5132180595347
 21
66.47175814954281
 31
0.0
  0
TEXT
  5
50
330
1F
100
AcDbEntity
  8
D-5
  6
Continuous
 62
     2
370
     9
100
AcDbText
 10
411.7940078855055
 20
87.11175814954281
 30
0.0
 40
30.48
  1
B-B断面図
 41
1.097222222222222
  7
ＭＳ ゴシック
100
AcDbText
  0
LINE
  5
51
330
1F
100
AcDbEntity
  8
D-4
  6
Continuous
 62
     7
370
     9
100
AcDbLine
 10
770.209800069049
 20
355.2245626599881
 30
0.0
 11
770.209800069049
 21
280.2246863798995
 31
0.0
  0
LWPOLYLINE
  5
52
330
1F
100
AcDbEntity
  8
D-4
  6
Continuous
 62
     7
370
     9
100
AcDbPolyline
 90
        4
 70
     1
 43
1.0
 10
770.709800069049
 20
355.2245626599881
 42
0.4142135623731
 10
770.209800069049
 20
355.7245626599881
 42
0.4142135623731
 10
769.7098000690492
 20
355.2245626599881
 42
0.4142135623731
 10
770.209800069049
 20
354.7245626599881
 42
0.4142135623731
  0
LWPOLYLINE
  5
53
330
1F
100
AcDbEntity
  8
D-4
  6
Continuous
 62
     7
370
     9
100
AcDbPolyline
 90
        4
 70
     1
 43
1.0
 10
770.709800069049
 20
280.2246863798995
 42
0.4142135623731
 10
770.209800069049
 20
280.7246863798995
 42
0.4142135623731
 10
769.7098000690492
 20
280.2246863798995
 42
0.4142135623731
 10
770.209800069049
 20
279.7246863798994
 42
0.4142135623731
  0
LINE
  5
54
330
1F
100
AcDbEntity
  8
D-4
  6
Continuous
 62
     7
370
     9
100
AcDbLine
 10
773.2098000690492
 20
355.2245626599881
 30
0.0
 11
686.1004979003827
 21
355.2245626599881
 31
0.0
  0
LINE
  5
55
330
1F
100
AcDbEntity
  8
D-4
  6
Continuous
 62
     7
370
     9
100
AcDbLine
 10
773.2098000690492
 20
280.2246863798995
 30
0.0
 11
686.1004979003827
 21
280.2246863798995
 31
0.0
  0
TEXT
  5
56
330
1F
100
AcDbEntity
  8
D-4
  6
Continuous
 62
     2
370
   211
100
AcDbText
 10
758.5698000690494
 20
296.4746245199439
 30
0.0
 40
30.48
  1
15
 50
90.0
 41
1.0625
  7
ＭＳ ゴシック
100
AcDbText
  0
LINE
  5
57
330
1F
100
AcDbEntity
  8
D-2
  6
Continuous
 62
     3
370
     9
100
AcDbLine
 10
389.1671399477395
 20
355.2245626599881
 30
0.0
 11
658.9269227285645
 21
355.2245626599881
 31
0.0
  0
LINE
  5
58
330
1F
100
AcDbEntity
  8
D-2
  6
Continuous
 62
     3
370
     9
100
AcDbLine
 10
389.1671399477395
 20
280.2246863798995
 30
0.0
 11
658.9269227285645
 21
280.2246863798995
 31
0.0
  0
LINE
  5
59
330
1F
100
AcDbEntity
  8
D-2
  6
Continuous
 62
     3
370
     9
100
AcDbLine
 10
419.1265680648196
 20
355.2245626599881
 30
0.0
 11
419.1265680648196
 21
348.2244900776405
 31
0.0
  0
LINE
  5
5A
330
1F
100
AcDbEntity
  8
D-2
  6
Continuous
 62
     3
370
     9
100
AcDbLine
 10
459.1260814331686
 20
348.2244900776405
 30
0.0
 11
419.1265680648196
 21
348.2244900776405
 31
0.0
  0
LINE
  5
5B
330
1F
100
AcDbEntity
  8
D-2
  6
Continuous
 62
     3
370
     9
100
AcDbLine
 10
459.1260814331686
 20
348.2244900776405
 30
0.0
 11
459.1260814331686
 21
355.2245626599881
 31
0.0
  0
LINE
  5
5C
330
1F
100
AcDbEntity
  8
D-2
  6
Continuous
 62
     3
370
     9
100
AcDbLine
 10
435.6264740376868
 20
348.2244900776405
 30
0.0
 11
435.6264740376868
 21
280.2246863798995
 31
0.0
  0
LINE
  5
5D
330
1F
100
AcDbEntity
  8
D-2
  6
Continuous
 62
     3
370
     9
100
AcDbLine
 10
442.6265466200347
 20
348.2244900776405
 30
0.0
 11
442.6265466200347
 21
280.2246863798995
 31
0.0
  0
ARC
  5
5E
330
1F
100
AcDbEntity
  8
D-2
  6
Continuous
 62
     3
370
     9
100
AcDbCircle
 10
447.6265466200347
 20
343.2244900776405
 30
0.0
 40
5.0
100
AcDbArc
 50
90.0
 51
180.0
  0
ARC
  5
5F
330
1F
100
AcDbEntity
  8
D-2
  6
Continuous
 62
     3
370
     9
100
AcDbCircle
 10
430.6264740376868
 20
343.2244900776405
 30
0.0
 40
5.0
100
AcDbArc
 50
0.0
 51
90.0
  0
LINE
  5
60
330
1F
100
AcDbEntity
  8
D-2
  6
Continuous
 62
     3
370
     9
100
AcDbLine
 10
544.0260814331687
 20
348.2244900776405
 30
0.0
 11
504.0265680648197
 21
348.2244900776405
 31
0.0
  0
LINE
  5
61
330
1F
100
AcDbEntity
  8
D-2
  6
Continuous
 62
     3
370
     9
100
AcDbLine
 10
504.0265680648197
 20
355.2245626599881
 30
0.0
 11
504.0265680648197
 21
348.2244900776405
 31
0.0
  0
LINE
  5
62
330
1F
100
AcDbEntity
  8
D-2
  6
Continuous
 62
     3
370
     9
100
AcDbLine
 10
544.0260814331687
 20
348.2244900776405
 30
0.0
 11
544.0260814331687
 21
355.2245626599881
 31
0.0
  0
LINE
  5
63
330
1F
100
AcDbEntity
  8
D-2
  6
Continuous
 62
     3
370
     9
100
AcDbLine
 10
520.5264740376869
 20
348.2244900776405
 30
0.0
 11
520.5264740376869
 21
280.2246863798995
 31
0.0
  0
LINE
  5
64
330
1F
100
AcDbEntity
  8
D-2
  6
Continuous
 62
     3
370
     9
100
AcDbLine
 10
527.5265466200348
 20
348.2244900776405
 30
0.0
 11
527.5265466200348
 21
280.2246863798995
 31
0.0
  0
ARC
  5
65
330
1F
100
AcDbEntity
  8
D-2
  6
Continuous
 62
     3
370
     9
100
AcDbCircle
 10
515.5264740376869
 20
343.2244900776405
 30
0.0
 40
5.0
100
AcDbArc
 50
0.0
 51
90.0
  0
ARC
  5
66
330
1F
100
AcDbEntity
  8
D-2
  6
Continuous
 62
     3
370
     9
100
AcDbCircle
 10
532.5265466200348
 20
343.2244900776405
 30
0.0
 40
5.0
100
AcDbArc
 50
90.0
 51
180.0
  0
LINE
  5
67
330
1F
100
AcDbEntity
  8
D-2
  6
Continuous
 62
     3
370
     9
100
AcDbLine
 10
588.9265680648198
 20
355.2245626599881
 30
0.0
 11
588.9265680648198
 21
348.2244900776405
 31
0.0
  0
LINE
  5
68
330
1F
100
AcDbEntity
  8
D-2
  6
Continuous
 62
     3
370
     9
100
AcDbLine
 10
628.9260814331687
 20
348.2244900776405
 30
0.0
 11
588.9265680648198
 21
348.2244900776405
 31
0.0
  0
LINE
  5
69
330
1F
100
AcDbEntity
  8
D-2
  6
Continuous
 62
     3
370
     9
100
AcDbLine
 10
628.9260814331687
 20
348.2244900776405
 30
0.0
 11
628.9260814331687
 21
355.2245626599881
 31
0.0
  0
LINE
  5
6A
330
1F
100
AcDbEntity
  8
D-2
  6
Continuous
 62
     3
370
     9
100
AcDbLine
 10
605.426474037687
 20
348.2244900776405
 30
0.0
 11
605.426474037687
 21
280.2246863798995
 31
0.0
  0
LINE
  5
6B
330
1F
100
AcDbEntity
  8
D-2
  6
Continuous
 62
     3
370
     9
100
AcDbLine
 10
612.4265466200349
 20
348.2244900776405
 30
0.0
 11
612.4265466200349
 21
280.2246863798995
 31
0.0
  0
ARC
  5
6C
330
1F
100
AcDbEntity
  8
D-2
  6
Continuous
 62
     3
370
     9
100
AcDbCircle
 10
600.426474037687
 20
343.2244900776405
 30
0.0
 40
5.0
100
AcDbArc
 50
0.0
 51
90.0
  0
ARC
  5
6D
330
1F
100
AcDbEntity
  8
D-2
  6
Continuous
 62
     3
370
     9
100
AcDbCircle
 10
617.4265466200349
 20
343.2244900776405
 30
0.0
 40
5.0
100
AcDbArc
 50
90.0
 51
180.0
  0
LINE
  5
6E
330
1F
100
AcDbEntity
  8
D-4
  6
Continuous
 62
     7
370
     9
100
AcDbLine
 10
419.1265680648196
 20
451.1916208146885
 30
0.0
 11
459.1260814331686
 21
451.1916208146885
 31
0.0
  0
LWPOLYLINE
  5
6F
330
1F
100
AcDbEntity
  8
D-4
  6
Continuous
 62
     7
370
     9
100
AcDbPolyline
 90
        4
 70
     1
 43
1.0
 10
419.6265680648196
 20
451.1916208146885
 42
0.4142135623731
 10
419.1265680648196
 20
451.6916208146884
 42
0.4142135623731
 10
418.6265680648197
 20
451.1916208146885
 42
0.4142135623731
 10
419.1265680648196
 20
450.6916208146885
 42
0.4142135623731
  0
LWPOLYLINE
  5
70
330
1F
100
AcDbEntity
  8
D-4
  6
Continuous
 62
     7
370
     9
100
AcDbPolyline
 90
        4
 70
     1
 43
1.0
 10
459.6260814331686
 20
451.1916208146885
 42
0.4142135623731
 10
459.1260814331686
 20
451.6916208146884
 42
0.4142135623731
 10
458.6260814331686
 20
451.1916208146885
 42
0.4142135623731
 10
459.1260814331686
 20
450.6916208146885
 42
0.4142135623731
  0
LINE
  5
71
330
1F
100
AcDbEntity
  8
D-4
  6
Continuous
 62
     7
370
     9
100
AcDbLine
 10
419.1265680648196
 20
454.1916208146884
 30
0.0
 11
419.1265680648196
 21
375.2245626599881
 31
0.0
  0
LINE
  5
72
330
1F
100
AcDbEntity
  8
D-4
  6
Continuous
 62
     7
370
     9
100
AcDbLine
 10
459.1260814331686
 20
454.1916208146884
 30
0.0
 11
459.1260814331686
 21
375.2245626599881
 31
0.0
  0
TEXT
  5
73
330
1F
100
AcDbEntity
  8
D-4
  6
Continuous
 62
     2
370
   211
100
AcDbText
 10
429.1263247489941
 20
462.8316208146884
 30
0.0
 40
30.48
  1
8
 41
0.9999999999999998
  7
ＭＳ ゴシック
100
AcDbText
  0
LINE
  5
74
330
1F
100
AcDbEntity
  8
D-4
  6
Continuous
 62
     7
370
     9
100
AcDbLine
 10
459.1260814331686
 20
451.1916208146885
 30
0.0
 11
504.0265680648197
 21
451.1916208146885
 31
0.0
  0
LWPOLYLINE
  5
75
330
1F
100
AcDbEntity
  8
D-4
  6
Continuous
 62
     7
370
     9
100
AcDbPolyline
 90
        4
 70
     1
 43
1.0
 10
504.5265680648197
 20
451.1916208146885
 42
0.4142135623731
 10
504.0265680648197
 20
451.6916208146884
 42
0.4142135623731
 10
503.5265680648197
 20
451.1916208146885
 42
0.4142135623731
 10
504.0265680648197
 20
450.6916208146885
 42
0.4142135623731
  0
LINE
  5
76
330
1F
100
AcDbEntity
  8
D-4
  6
Continuous
 62
     7
370
     9
100
AcDbLine
 10
504.0265680648197
 20
454.1916208146884
 30
0.0
 11
504.0265680648197
 21
375.2245626599881
 31
0.0
  0
LINE
  5
77
330
1F
100
AcDbEntity
  8
D-4
  6
Continuous
 62
     7
370
     9
100
AcDbLine
 10
504.0265680648197
 20
451.1916208146885
 30
0.0
 11
544.0260814331687
 21
451.1916208146885
 31
0.0
  0
LWPOLYLINE
  5
78
330
1F
100
AcDbEntity
  8
D-4
  6
Continuous
 62
     7
370
     9
100
AcDbPolyline
 90
        4
 70
     1
 43
1.0
 10
544.5260814331687
 20
451.1916208146885
 42
0.4142135623731
 10
544.0260814331687
 20
451.6916208146884
 42
0.4142135623731
 10
543.5260814331687
 20
451.1916208146885
 42
0.4142135623731
 10
544.0260814331687
 20
450.6916208146885
 42
0.4142135623731
  0
LINE
  5
79
330
1F
100
AcDbEntity
  8
D-4
  6
Continuous
 62
     7
370
     9
100
AcDbLine
 10
544.0260814331687
 20
454.1916208146884
 30
0.0
 11
544.0260814331687
 21
375.2245626599881
 31
0.0
  0
TEXT
  5
7A
330
1F
100
AcDbEntity
  8
D-4
  6
Continuous
 62
     2
370
   211
100
AcDbText
 10
514.0263247489942
 20
462.8316208146884
 30
0.0
 40
30.48
  1
8
 41
0.9999999999999998
  7
ＭＳ ゴシック
100
AcDbText
  0
LINE
  5
7B
330
1F
100
AcDbEntity
  8
D-4
  6
Continuous
 62
     7
370
     9
100
AcDbLine
 10
544.0260814331687
 20
451.1916208146885
 30
0.0
 11
588.9265680648198
 21
451.1916208146885
 31
0.0
  0
LWPOLYLINE
  5
7C
330
1F
100
AcDbEntity
  8
D-4
  6
Continuous
 62
     7
370
     9
100
AcDbPolyline
 90
        4
 70
     1
 43
1.0
 10
589.4265680648198
 20
451.1916208146885
 42
0.4142135623731
 10
588.9265680648198
 20
451.6916208146884
 42
0.4142135623731
 10
588.4265680648198
 20
451.1916208146885
 42
0.4142135623731
 10
588.9265680648198
 20
450.6916208146885
 42
0.4142135623731
  0
LINE
  5
7D
330
1F
100
AcDbEntity
  8
D-4
  6
Continuous
 62
     7
370
     9
100
AcDbLine
 10
588.9265680648198
 20
454.1916208146884
 30
0.0
 11
588.9265680648198
 21
375.2245626599881
 31
0.0
  0
LINE
  5
7E
330
1F
100
AcDbEntity
  8
D-4
  6
Continuous
 62
     7
370
     9
100
AcDbLine
 10
588.9265680648198
 20
451.1916208146885
 30
0.0
 11
628.9260814331687
 21
451.1916208146885
 31
0.0
  0
LWPOLYLINE
  5
7F
330
1F
100
AcDbEntity
  8
D-4
  6
Continuous
 62
     7
370
     9
100
AcDbPolyline
 90
        4
 70
     1
 43
1.0
 10
629.4260814331687
 20
451.1916208146885
 42
0.4142135623731
 10
628.9260814331687
 20
451.6916208146884
 42
0.4142135623731
 10
628.4260814331687
 20
451.1916208146885
 42
0.4142135623731
 10
628.9260814331687
 20
450.6916208146885
 42
0.4142135623731
  0
LINE
  5
80
330
1F
100
AcDbEntity
  8
D-4
  6
Continuous
 62
     7
370
     9
100
AcDbLine
 10
628.9260814331687
 20
454.1916208146884
 30
0.0
 11
628.9260814331687
 21
375.2245626599881
 31
0.0
  0
TEXT
  5
81
330
1F
100
AcDbEntity
  8
D-4
  6
Continuous
 62
     2
370
   211
100
AcDbText
 10
598.9263247489943
 20
462.8316208146884
 30
0.0
 40
30.48
  1
8
 41
0.9999999999999998
  7
ＭＳ ゴシック
100
AcDbText
  0
TEXT
  5
82
330
1F
100
AcDbEntity
  8
D-4
  6
Continuous
 62
     2
370
   211
100
AcDbText
 10
556.8565696829812
 20
462.8316208146884
 30
0.0
 40
30.48
  1
9
 41
0.9999999999999998
  7
ＭＳ ゴシック
100
AcDbText
  0
TEXT
  5
83
330
1F
100
AcDbEntity
  8
D-4
  6
Continuous
 62
     2
370
   211
100
AcDbText
 10
472.1773243999622
 20
462.8316208146884
 30
0.0
 40
30.48
  1
9
 41
0.9999999999999998
  7
ＭＳ ゴシック
100
AcDbText
  0
LINE
  5
84
330
1F
100
AcDbEntity
  8
D-A
  6
Continuous
 62
     3
370
     9
100
AcDbLine
 10
389.1671399477395
 20
686.9379708374674
 30
0.0
 11
419.1260814331691
 21
686.9379708374674
 31
0.0
  0
LINE
  5
85
330
1F
100
AcDbEntity
  8
D-A
  6
Continuous
 62
     3
370
     9
100
AcDbLine
 10
389.1671399477395
 20
722.4379708374693
 30
0.0
 11
419.1260814331691
 21
722.4379708374693
 31
0.0
  0
LINE
  5
86
330
1F
100
AcDbEntity
  8
D-A
  6
Continuous
 62
     3
370
     9
100
AcDbLine
 10
389.1671399477395
 20
704.6879708374667
 30
0.0
 11
419.1260814331691
 21
704.6879708374667
 31
0.0
  0
LINE
  5
87
330
1F
100
AcDbEntity
  8
D-A
  6
Continuous
 62
     3
370
     9
100
AcDbLine
 10
459.1260814331686
 20
686.9379708374674
 30
0.0
 11
504.0268155046426
 21
686.9379708374674
 31
0.0
  0
LINE
  5
88
330
1F
100
AcDbEntity
  8
D-A
  6
Continuous
 62
     3
370
     9
100
AcDbLine
 10
459.1260814331686
 20
722.4379708374693
 30
0.0
 11
504.0268155046426
 21
722.4379708374693
 31
0.0
  0
LINE
  5
89
330
1F
100
AcDbEntity
  8
D-A
  6
Continuous
 62
     3
370
     9
100
AcDbLine
 10
459.1260814331686
 20
704.6879708374667
 30
0.0
 11
504.0268155046426
 21
704.6879708374667
 31
0.0
  0
LINE
  5
8A
330
1F
100
AcDbEntity
  8
D-5
  6
Continuous
 62
     7
370
     9
100
AcDbLine
 10
628.9260814331687
 20
914.6879708374668
 30
0.0
 11
648.7599149404498
 21
929.9070065626848
 31
0.0
  0
LINE
  5
8B
330
1F
100
AcDbEntity
  8
D-5
  6
Continuous
 62
     7
370
     9
100
AcDbLine
 10
628.9260814331687
 20
914.6879708374668
 30
0.0
 11
644.1451171583868
 21
934.5218043447472
 31
0.0
  0
LINE
  5
8C
330
1F
100
AcDbEntity
  8
D-5
  6
Continuous
 62
     7
370
     9
100
AcDbLine
 10
628.9260814331687
 20
914.6879708374668
 30
0.0
 11
684.0983039259067
 21
969.8601933302045
 31
0.0
  0
LINE
  5
8D
330
1F
100
AcDbEntity
  8
D-5
  6
Continuous
 62
     7
370
     9
100
AcDbLine
 10
684.0983039259067
 20
969.8601933302045
 30
0.0
 11
923.0155322422816
 21
969.8601933302045
 31
0.0
  0
TEXT
  5
8E
330
1F
100
AcDbEntity
  8
D-5
  6
Continuous
 62
     7
370
     9
100
AcDbText
 10
684.0983039259067
 20
979.0901933302046
 30
0.0
 40
22.86
  1
ローレット模様
 41
1.142857142857143
  7
ＭＳ ゴシック
100
AcDbText
  0
LINE
  5
8F
330
1F
100
AcDbEntity
  8
D-A
  6
Continuous
 62
     3
370
     9
100
AcDbLine
 10
628.9236070349416
 20
686.9379708374674
 30
0.0
 11
658.9269227285645
 21
686.9379708374674
 31
0.0
  0
LINE
  5
90
330
1F
100
AcDbEntity
  8
D-A
  6
Continuous
 62
     3
370
     9
100
AcDbLine
 10
544.0236070349415
 20
686.9379708374674
 30
0.0
 11
588.9243411064156
 21
686.9379708374674
 31
0.0
  0
LINE
  5
91
330
1F
100
AcDbEntity
  8
D-A
  6
Continuous
 62
     3
370
     9
100
AcDbLine
 10
628.9236070349416
 20
722.4379708374693
 30
0.0
 11
658.9269227285645
 21
722.4379708374693
 31
0.0
  0
LINE
  5
92
330
1F
100
AcDbEntity
  8
D-A
  6
Continuous
 62
     3
370
     9
100
AcDbLine
 10
544.0236070349415
 20
722.4379708374693
 30
0.0
 11
588.9243411064156
 21
722.4379708374693
 31
0.0
  0
LINE
  5
93
330
1F
100
AcDbEntity
  8
D-A
  6
Continuous
 62
     3
370
     9
100
AcDbLine
 10
544.0236070349415
 20
704.6879708374667
 30
0.0
 11
588.9243411064156
 21
704.6879708374667
 31
0.0
  0
LINE
  5
94
330
1F
100
AcDbEntity
  8
D-A
  6
Continuous
 62
     3
370
     9
100
AcDbLine
 10
628.9236070349416
 20
704.6879708374667
 30
0.0
 11
658.9269227285645
 21
704.6879708374667
 31
0.0
  0
LINE
  5
95
330
1F
100
AcDbEntity
  8
D-2
  6
Continuous
 62
     3
370
     9
100
AcDbLine
 10
588.9136092525923
 20
634.0071329604336
 30
0.0
 11
623.853428727365
 21
604.6878471175552
 31
0.0
  0
LINE
  5
96
330
1F
100
AcDbEntity
  8
D-2
  6
Continuous
 62
     3
370
     9
100
AcDbLine
 10
588.9132511607143
 20
623.7530350854274
 30
0.0
 11
611.6332529172327
 21
604.6878471175552
 31
0.0
  0
LINE
  5
97
330
1F
100
AcDbEntity
  8
D-2
  6
Continuous
 62
     3
370
     9
100
AcDbLine
 10
588.9128930688362
 20
613.4989372104218
 30
0.0
 11
599.4130771071009
 21
604.6878471175552
 31
0.0
  0
LINE
  5
98
330
1F
100
AcDbEntity
  8
D-2
  6
Continuous
 62
     3
370
     9
100
AcDbLine
 10
621.1919229350526
 20
604.6878471175552
 30
0.0
 11
628.9260814331687
 21
611.177569582652
 31
0.0
  0
LINE
  5
99
330
1F
100
AcDbEntity
  8
D-2
  6
Continuous
 62
     3
370
     9
100
AcDbLine
 10
588.9242766165758
 20
813.4494467365648
 30
0.0
 11
628.9260814331687
 21
847.0149097957842
 31
0.0
  0
LINE
  5
9A
330
1F
100
AcDbEntity
  8
D-2
  6
Continuous
 62
     3
370
     9
100
AcDbLine
 10
588.9207710901537
 20
839.0890904605551
 30
0.0
 11
628.9260814331687
 21
805.5191651772604
 31
0.0
  0
LINE
  5
9B
330
1F
100
AcDbEntity
  8
D-2
  6
Continuous
 62
     3
370
     9
100
AcDbLine
 10
588.9239185246977
 20
803.1953488615586
 30
0.0
 11
628.9260814331687
 21
836.7611123952134
 31
0.0
  0
LINE
  5
9C
330
1F
100
AcDbEntity
  8
D-2
  6
Continuous
 62
     3
370
     9
100
AcDbLine
 10
588.9204129982757
 20
828.8349925855492
 30
0.0
 11
628.9260814331687
 21
795.2647668142067
 31
0.0
  0
LINE
  5
9D
330
1F
100
AcDbEntity
  8
D-2
  6
Continuous
 62
     3
370
     9
100
AcDbLine
 10
588.9235604328196
 20
792.9412509865527
 30
0.0
 11
628.9260814331687
 21
826.5073149946427
 31
0.0
  0
LINE
  5
9E
330
1F
100
AcDbEntity
  8
D-2
  6
Continuous
 62
     3
370
     9
100
AcDbLine
 10
588.9200549063976
 20
818.5808947105432
 30
0.0
 11
628.9260814331687
 21
785.0103684511532
 31
0.0
  0
LINE
  5
9F
330
1F
100
AcDbEntity
  8
D-2
  6
Continuous
 62
     3
370
     9
100
AcDbLine
 10
588.9232023409415
 20
782.6871531115466
 30
0.0
 11
628.9260814331687
 21
816.2535175940714
 31
0.0
  0
LINE
  5
A0
330
1F
100
AcDbEntity
  8
D-2
  6
Continuous
 62
     3
370
     9
100
AcDbLine
 10
588.9196968145195
 20
808.326796835537
 30
0.0
 11
628.9260814331687
 21
774.7559700880998
 31
0.0
  0
LINE
  5
A1
330
1F
100
AcDbEntity
  8
D-2
  6
Continuous
 62
     3
370
     9
100
AcDbLine
 10
588.9228442490635
 20
772.4330552365404
 30
0.0
 11
628.9260814331687
 21
805.9997201935006
 31
0.0
  0
LINE
  5
A2
330
1F
100
AcDbEntity
  8
D-2
  6
Continuous
 62
     3
370
     9
100
AcDbLine
 10
588.9193387226414
 20
798.0726989605308
 30
0.0
 11
628.9260814331687
 21
764.5015717250465
 31
0.0
  0
LINE
  5
A3
330
1F
100
AcDbEntity
  8
D-2
  6
Continuous
 62
     3
370
     9
100
AcDbLine
 10
588.9224861571854
 20
762.1789573615342
 30
0.0
 11
628.9260814331687
 21
795.7459227929296
 31
0.0
  0
LINE
  5
A4
330
1F
100
AcDbEntity
  8
D-2
  6
Continuous
 62
     3
370
     9
100
AcDbLine
 10
588.9189806307634
 20
787.818601085525
 30
0.0
 11
628.9260814331687
 21
754.2471733619927
 31
0.0
  0
LINE
  5
A5
330
1F
100
AcDbEntity
  8
D-2
  6
Continuous
 62
     3
370
     9
100
AcDbLine
 10
588.9221280653073
 20
751.9248594865282
 30
0.0
 11
628.9260814331687
 21
785.4921253923584
 31
0.0
  0
LINE
  5
A6
330
1F
100
AcDbEntity
  8
D-2
  6
Continuous
 62
     3
370
     9
100
AcDbLine
 10
588.9186225388853
 20
777.5645032105189
 30
0.0
 11
628.9260814331687
 21
743.9927749989391
 31
0.0
  0
LINE
  5
A7
330
1F
100
AcDbEntity
  8
D-2
  6
Continuous
 62
     3
370
     9
100
AcDbLine
 10
588.9217699734293
 20
741.6707616115224
 30
0.0
 11
628.9260814331687
 21
775.2383279917876
 31
0.0
  0
LINE
  5
A8
330
1F
100
AcDbEntity
  8
D-2
  6
Continuous
 62
     3
370
     9
100
AcDbLine
 10
588.9182644470072
 20
767.3104053355127
 30
0.0
 11
628.9260814331687
 21
733.7383766358857
 31
0.0
  0
LINE
  5
A9
330
1F
100
AcDbEntity
  8
D-2
  6
Continuous
 62
     3
370
     9
100
AcDbLine
 10
588.9214118815512
 20
731.4166637365162
 30
0.0
 11
628.9260814331687
 21
764.9845305912165
 31
0.0
  0
LINE
  5
AA
330
1F
100
AcDbEntity
  8
D-2
  6
Continuous
 62
     3
370
     9
100
AcDbLine
 10
588.9179063551292
 20
757.0563074605064
 30
0.0
 11
628.9260814331687
 21
723.4839782728324
 31
0.0
  0
LINE
  5
AB
330
1F
100
AcDbEntity
  8
D-2
  6
Continuous
 62
     3
370
     9
100
AcDbLine
 10
588.9210537896731
 20
721.16256586151
 30
0.0
 11
628.9260814331687
 21
754.7307331906455
 31
0.0
  0
LINE
  5
AC
330
1F
100
AcDbEntity
  8
D-2
  6
Continuous
 62
     3
370
     9
100
AcDbLine
 10
588.9175482632511
 20
746.8022095855006
 30
0.0
 11
628.9260814331687
 21
713.229579909779
 31
0.0
  0
LINE
  5
AD
330
1F
100
AcDbEntity
  8
D-2
  6
Continuous
 62
     3
370
     9
100
AcDbLine
 10
588.920695697795
 20
710.9084679865038
 30
0.0
 11
628.9260814331687
 21
744.4769357900748
 31
0.0
  0
LINE
  5
AE
330
1F
100
AcDbEntity
  8
D-2
  6
Continuous
 62
     3
370
     9
100
AcDbLine
 10
588.917190171373
 20
736.5481117104946
 30
0.0
 11
628.9260814331687
 21
702.9751815467256
 31
0.0
  0
LINE
  5
AF
330
1F
100
AcDbEntity
  8
D-2
  6
Continuous
 62
     3
370
     9
100
AcDbLine
 10
588.920337605917
 20
700.6543701114981
 30
0.0
 11
628.9260814331687
 21
734.2231383895034
 31
0.0
  0
LINE
  5
B0
330
1F
100
AcDbEntity
  8
D-2
  6
Continuous
 62
     3
370
     9
100
AcDbLine
 10
588.916832079495
 20
726.2940138354884
 30
0.0
 11
628.9260814331687
 21
692.7207831836716
 31
0.0
  0
LINE
  5
B1
330
1F
100
AcDbEntity
  8
D-2
  6
Continuous
 62
     3
370
     9
100
AcDbLine
 10
588.9199795140389
 20
690.4002722364919
 30
0.0
 11
628.9260814331687
 21
723.9693409889327
 31
0.0
  0
LINE
  5
B2
330
1F
100
AcDbEntity
  8
D-2
  6
Continuous
 62
     3
370
     9
100
AcDbLine
 10
588.9164739876169
 20
716.0399159604822
 30
0.0
 11
628.9260814331687
 21
682.4663848206183
 31
0.0
  0
LINE
  5
B3
330
1F
100
AcDbEntity
  8
D-2
  6
Continuous
 62
     3
370
     9
100
AcDbLine
 10
588.9196214221608
 20
680.1461743614857
 30
0.0
 11
628.9260814331687
 21
713.7155435883614
 31
0.0
  0
LINE
  5
B4
330
1F
100
AcDbEntity
  8
D-2
  6
Continuous
 62
     3
370
     9
100
AcDbLine
 10
588.9161158957388
 20
705.785818085476
 30
0.0
 11
628.9260814331687
 21
672.2119864575649
 31
0.0
  0
LINE
  5
B5
330
1F
100
AcDbEntity
  8
D-2
  6
Continuous
 62
     3
370
     9
100
AcDbLine
 10
588.9192633302828
 20
669.8920764864795
 30
0.0
 11
628.9260814331687
 21
703.4617461877906
 31
0.0
  0
LINE
  5
B6
330
1F
100
AcDbEntity
  8
D-2
  6
Continuous
 62
     3
370
     9
100
AcDbLine
 10
588.9157578038607
 20
695.5317202104703
 30
0.0
 11
628.9260814331687
 21
661.9575880945115
 31
0.0
  0
LINE
  5
B7
330
1F
100
AcDbEntity
  8
D-2
  6
Continuous
 62
     3
370
     9
100
AcDbLine
 10
588.9189052384047
 20
659.6379786114738
 30
0.0
 11
628.9260814331687
 21
693.2079487872198
 31
0.0
  0
LINE
  5
B8
330
1F
100
AcDbEntity
  8
D-2
  6
Continuous
 62
     3
370
     9
100
AcDbLine
 10
588.9153997119827
 20
685.2776223354641
 30
0.0
 11
628.9260814331687
 21
651.7031897314581
 31
0.0
  0
LINE
  5
B9
330
1F
100
AcDbEntity
  8
D-2
  6
Continuous
 62
     3
370
     9
100
AcDbLine
 10
588.9185471465266
 20
649.3838807364676
 30
0.0
 11
628.9260814331687
 21
682.9541513866485
 31
0.0
  0
LINE
  5
BA
330
1F
100
AcDbEntity
  8
D-2
  6
Continuous
 62
     3
370
     9
100
AcDbLine
 10
588.9181890546486
 20
639.1297828614614
 30
0.0
 11
628.9260814331687
 21
672.7003539860777
 31
0.0
  0
LINE
  5
BB
330
1F
100
AcDbEntity
  8
D-2
  6
Continuous
 62
     3
370
     9
100
AcDbLine
 10
588.9178309627705
 20
628.8756849864552
 30
0.0
 11
628.9260814331687
 21
662.446556585507
 31
0.0
  0
LINE
  5
BC
330
1F
100
AcDbEntity
  8
D-2
  6
Continuous
 62
     3
370
     9
100
AcDbLine
 10
588.9174728708924
 20
618.6215871114496
 30
0.0
 11
628.9260814331687
 21
652.1927591849357
 31
0.0
  0
LINE
  5
BD
330
1F
100
AcDbEntity
  8
D-2
  6
Continuous
 62
     3
370
     9
100
AcDbLine
 10
588.9171147790144
 20
608.3674892364434
 30
0.0
 11
628.9260814331687
 21
641.9389617843649
 31
0.0
  0
LINE
  5
BE
330
1F
100
AcDbEntity
  8
D-2
  6
Continuous
 62
     3
370
     9
100
AcDbLine
 10
608.9719097172145
 20
604.6878471175552
 30
0.0
 11
628.9260814331687
 21
621.4313669832228
 31
0.0
  0
LINE
  5
BF
330
1F
100
AcDbEntity
  8
D-2
  6
Continuous
 62
     3
370
     9
100
AcDbLine
 10
596.7518964993759
 20
604.6878471175552
 30
0.0
 11
628.9260814331687
 21
631.6851643837941
 31
0.0
  0
LINE
  5
C0
330
1F
100
AcDbEntity
  8
D-2
  6
Continuous
 62
     3
370
     9
100
AcDbLine
 10
588.9139673444704
 20
644.2612308354398
 30
0.0
 11
628.9260814331687
 21
610.685596279244
 31
0.0
  0
LINE
  5
C1
330
1F
100
AcDbEntity
  8
D-2
  6
Continuous
 62
     3
370
     9
100
AcDbLine
 10
588.9143254363485
 20
654.515328710446
 30
0.0
 11
628.9260814331687
 21
620.9399946422974
 31
0.0
  0
LINE
  5
C2
330
1F
100
AcDbEntity
  8
D-2
  6
Continuous
 62
     3
370
     9
100
AcDbLine
 10
588.9146835282265
 20
664.7694265854517
 30
0.0
 11
628.9260814331687
 21
631.1943930053508
 31
0.0
  0
LINE
  5
C3
330
1F
100
AcDbEntity
  8
D-2
  6
Continuous
 62
     3
370
     9
100
AcDbLine
 10
588.9150416201046
 20
675.0235244604579
 30
0.0
 11
628.9260814331687
 21
641.4487913684042
 31
0.0
  0
LINE
  5
C4
330
1F
100
AcDbEntity
  8
D-2
  6
Continuous
 62
     3
370
     9
100
AcDbLine
 10
588.9292899028687
 20
849.3363403749681
 30
0.0
 11
628.9260814331687
 21
815.7735635403141
 31
0.0
  0
LINE
  5
C5
330
1F
100
AcDbEntity
  8
D-5
  6
JWW_CENTER1
 62
     4
370
     9
100
AcDbLine
 10
716.0635513733878
 20
664.8134649745037
 30
0.0
 11
678.9468478720069
 21
664.8134649745037
 31
0.0
  0
SOLID
  5
C6
330
1F
100
AcDbEntity
  8
D-5
  6
Continuous
 62
     4
370
     9
100
AcDbTrace
 10
716.0635513733878
 20
666.8134649745036
 30
0.0
 11
756.0635513733878
 21
666.8134649745036
 31
0.0
 12
716.0635513733878
 22
662.8134649745039
 32
0.0
 13
756.0635513733878
 23
662.8134649745039
 33
0.0
  0
LINE
  5
C7
330
1F
100
AcDbEntity
  8
D-5
  6
JWW_CENTER1
 62
     4
370
     9
100
AcDbLine
 10
331.8276587807714
 20
664.8134649745037
 30
0.0
 11
368.9443622821529
 21
664.8134649745037
 31
0.0
  0
SOLID
  5
C8
330
1F
100
AcDbEntity
  8
D-5
  6
Continuous
 62
     4
370
     9
100
AcDbTrace
 10
331.8276587807714
 20
662.8134649745039
 30
0.0
 11
291.8276587807714
 21
662.8134649745039
 31
0.0
 12
331.8276587807714
 22
666.8134649745036
 32
0.0
 13
291.8276587807714
 23
666.8134649745036
 33
0.0
  0
LINE
  5
C9
330
1F
100
AcDbEntity
  8
D-5
  6
Continuous
 62
     4
370
     9
100
AcDbLine
 10
310.8466619072977
 20
655.1473751767918
 30
0.0
 11
310.8466619072977
 21
605.8979824938499
 31
0.0
  0
LINE
  5
CA
330
1F
100
AcDbEntity
  8
D-5
  6
Continuous
 62
     4
370
     9
100
AcDbLine
 10
310.8466619072977
 20
655.1473751767918
 30
0.0
 11
314.109816712799
 21
630.3612536424464
 31
0.0
  0
LINE
  5
CB
330
1F
100
AcDbEntity
  8
D-5
  6
Continuous
 62
     4
370
     9
100
AcDbLine
 10
310.8466619072977
 20
655.1473751767918
 30
0.0
 11
307.5835071017963
 21
630.3612536424464
 31
0.0
  0
TEXT
  5
CC
330
1F
100
AcDbEntity
  8
D-5
  6
Continuous
 62
     2
370
     9
100
AcDbText
 10
300.8466619072977
 20
565.5718826564377
 30
0.0
 40
30.48
  1
B
 41
0.9999999999999998
  7
ＭＳ ゴシック
100
AcDbText
  0
SOLID
  5
CD
330
1F
100
AcDbEntity
  8
D-5
  6
Continuous
 62
     4
370
     9
100
AcDbTrace
 10
483.5764484689055
 20
574.0416599694698
 30
0.0
 11
483.5764484689055
 21
534.0416599694698
 31
0.0
 12
479.5764484689057
 22
574.0416599694698
 32
0.0
 13
479.5764484689057
 23
534.0416599694698
 33
0.0
  0
LINE
  5
CE
330
1F
100
AcDbEntity
  8
D-5
  6
JWW_CENTER1
 62
     4
370
     9
100
AcDbLine
 10
481.5764484689056
 20
574.0416599694698
 30
0.0
 11
481.5764484689056
 21
654.8451086962115
 31
0.0
  0
LINE
  5
CF
330
1F
100
AcDbEntity
  8
D-5
  6
Continuous
 62
     4
370
     9
100
AcDbLine
 10
491.2425382666175
 20
553.0606630959961
 30
0.0
 11
540.4919309495592
 21
553.0606630959961
 31
0.0
  0
LINE
  5
D0
330
1F
100
AcDbEntity
  8
D-5
  6
Continuous
 62
     4
370
     9
100
AcDbLine
 10
491.2425382666175
 20
553.0606630959961
 30
0.0
 11
516.0286598009629
 21
556.3238179014975
 31
0.0
  0
LINE
  5
D1
330
1F
100
AcDbEntity
  8
D-5
  6
Continuous
 62
     4
370
     9
100
AcDbLine
 10
491.2425382666175
 20
553.0606630959961
 30
0.0
 11
516.0286598009629
 21
549.7975082904948
 31
0.0
  0
TEXT
  5
D2
330
1F
100
AcDbEntity
  8
D-5
  6
Continuous
 62
     2
370
     9
100
AcDbText
 10
548.2027020835095
 20
540.8554810757925
 30
0.0
 40
30.48
  1
C
 41
0.9999999999999998
  7
ＭＳ ゴシック
100
AcDbText
  0
TEXT
  5
D3
330
1F
100
AcDbEntity
  8
D-5
  6
Continuous
 62
     2
370
     9
100
AcDbText
 10
-1270.060617066905
 20
-1034.925395643564
 30
0.0
 40
30.48
  1
A断面詳細図　Ｓ＝１：２
 50
0.00002676319048
 41
1.114130434782608
  7
ＭＳ ゴシック
100
AcDbText
  0
LINE
  5
D4
330
1F
100
AcDbEntity
  8
D-5
  6
Continuous
 62
     7
370
     9
100
AcDbLine
 10
-764.1359600398773
 20
-1053.065090467782
 30
0.0
 11
-1278.272927425275
 21
-1053.065090467782
 31
0.0
  0
LINE
  5
D5
330
1F
100
AcDbEntity
  8
D-2
  6
Continuous
 62
     3
370
     9
100
AcDbLine
 10
658.9269227285645
 20
1079.687970837467
 30
0.0
 11
389.1671399477395
 21
1079.687970837467
 31
0.0
  0
LINE
  5
D6
330
1F
100
AcDbEntity
  8
D-A
  6
Continuous
 62
     3
370
     9
100
AcDbLine
 10
658.9269227285645
 20
1064.688168789324
 30
0.0
 11
389.1671399477395
 21
1064.688168789324
 31
0.0
  0
LINE
  5
D7
330
1F
100
AcDbEntity
  8
D-4
  6
Continuous
 62
     7
370
     9
100
AcDbLine
 10
439.1260814331689
 20
1143.606351279648
 30
0.0
 11
524.0264484689056
 21
1143.606351279648
 31
0.0
  0
LWPOLYLINE
  5
D8
330
1F
100
AcDbEntity
  8
D-4
  6
Continuous
 62
     7
370
     9
100
AcDbPolyline
 90
        4
 70
     1
 43
1.0
 10
439.6260814331688
 20
1143.606351279648
 42
0.4142135623731
 10
439.1260814331689
 20
1144.106351279648
 42
0.4142135623731
 10
438.6260814331689
 20
1143.606351279648
 42
0.4142135623731
 10
439.1260814331689
 20
1143.106351279648
 42
0.4142135623731
  0
LWPOLYLINE
  5
D9
330
1F
100
AcDbEntity
  8
D-4
  6
Continuous
 62
     7
370
     9
100
AcDbPolyline
 90
        4
 70
     1
 43
1.0
 10
524.5264484689056
 20
1143.606351279648
 42
0.4142135623731
 10
524.0264484689056
 20
1144.106351279648
 42
0.4142135623731
 10
523.5264484689058
 20
1143.606351279648
 42
0.4142135623731
 10
524.0264484689056
 20
1143.106351279648
 42
0.4142135623731
  0
TEXT
  5
DA
330
1F
100
AcDbEntity
  8
D-4
  6
Continuous
 62
     2
370
   211
100
AcDbText
 10
460.3262649510373
 20
1155.246351279648
 30
0.0
 40
30.48
  1
17
 41
1.0625
  7
ＭＳ ゴシック
100
AcDbText
  0
LINE
  5
DB
330
1F
100
AcDbEntity
  8
D-4
  6
Continuous
 62
     7
370
     9
100
AcDbLine
 10
524.0264484689056
 20
1143.606351279648
 30
0.0
 11
608.9276856680187
 21
1143.606351279648
 31
0.0
  0
LWPOLYLINE
  5
DC
330
1F
100
AcDbEntity
  8
D-4
  6
Continuous
 62
     7
370
     9
100
AcDbPolyline
 90
        4
 70
     1
 43
1.0
 10
609.4276856680187
 20
1143.606351279648
 42
0.4142135623731
 10
608.9276856680187
 20
1144.106351279648
 42
0.4142135623731
 10
608.4276856680187
 20
1143.606351279648
 42
0.4142135623731
 10
608.9276856680187
 20
1143.106351279648
 42
0.4142135623731
  0
TEXT
  5
DD
330
1F
100
AcDbEntity
  8
D-4
  6
Continuous
 62
     2
370
   211
100
AcDbText
 10
545.2270670684622
 20
1155.246351279648
 30
0.0
 40
30.48
  1
17
 41
1.0625
  7
ＭＳ ゴシック
100
AcDbText
  0
LINE
  5
DE
330
1F
100
AcDbEntity
  8
D-5
  6
JWW_CENTER1
 62
     4
370
     9
100
AcDbLine
 10
481.5764484689056
 20
1251.001034818369
 30
0.0
 11
481.5764484689056
 21
1213.697709996884
 31
0.0
  0
SOLID
  5
DF
330
1F
100
AcDbEntity
  8
D-5
  6
Continuous
 62
     4
370
     9
100
AcDbTrace
 10
483.5764484689055
 20
1251.001034818369
 30
0.0
 11
483.5764484689055
 21
1291.001034818368
 31
0.0
 12
479.5764484689057
 22
1251.001034818369
 32
0.0
 13
479.5764484689057
 23
1291.001034818368
 33
0.0
  0
LINE
  5
E0
330
1F
100
AcDbEntity
  8
D-5
  6
Continuous
 62
     4
370
     9
100
AcDbLine
 10
491.2425382666175
 20
1271.982031691842
 30
0.0
 11
516.0286598009629
 21
1275.245186497344
 31
0.0
  0
LINE
  5
E1
330
1F
100
AcDbEntity
  8
D-5
  6
Continuous
 62
     4
370
     9
100
AcDbLine
 10
491.2425382666175
 20
1271.982031691842
 30
0.0
 11
540.4919309495592
 21
1271.982031691842
 31
0.0
  0
LINE
  5
E2
330
1F
100
AcDbEntity
  8
D-5
  6
Continuous
 62
     4
370
     9
100
AcDbLine
 10
491.2425382666175
 20
1271.982031691842
 30
0.0
 11
516.0286598009629
 21
1268.718876886341
 31
0.0
  0
TEXT
  5
E3
330
1F
100
AcDbEntity
  8
D-5
  6
Continuous
 62
     2
370
     9
100
AcDbText
 10
548.2027020835095
 20
1259.776849671639
 30
0.0
 40
30.48
  1
C
 41
0.9999999999999998
  7
ＭＳ ゴシック
100
AcDbText
  0
LINE
  5
E4
330
1F
100
AcDbEntity
  8
D-4
  6
Continuous
 62
     7
370
     9
100
AcDbLine
 10
608.9276856680187
 20
1146.606351279647
 30
0.0
 11
608.9276856680187
 21
1093.688168789324
 31
0.0
  0
LINE
  5
E5
330
1F
100
AcDbEntity
  8
D-4
  6
Continuous
 62
     7
370
     9
100
AcDbLine
 10
524.0264484689056
 20
1146.606351279647
 30
0.0
 11
524.0264484689056
 21
1093.688168789324
 31
0.0
  0
LINE
  5
E6
330
1F
100
AcDbEntity
  8
D-4
  6
Continuous
 62
     7
370
     9
100
AcDbLine
 10
439.1260814331689
 20
1146.606351279647
 30
0.0
 11
439.1260814331689
 21
1093.688168789324
 31
0.0
  0
LINE
  5
E7
330
1F
100
AcDbEntity
  8
D-A
  6
Continuous
 62
     3
370
     9
100
AcDbLine
 10
588.9292899028687
 20
604.6878471175552
 30
0.0
 11
588.9292899028687
 21
1064.688168789324
 31
0.0
  0
LINE
  5
E8
330
1F
100
AcDbEntity
  8
D-A
  6
Continuous
 62
     3
370
     9
100
AcDbLine
 10
628.9260814331687
 20
604.6878471175552
 30
0.0
 11
628.9260814331687
 21
1064.688168789324
 31
0.0
  0
LINE
  5
E9
330
1F
100
AcDbEntity
  8
D-2
  6
Continuous
 62
     3
370
     9
100
AcDbLine
 10
588.9257089840879
 20
854.4658382365889
 30
0.0
 11
628.9260814331687
 21
888.0300993980694
 31
0.0
  0
LINE
  5
EA
330
1F
100
AcDbEntity
  8
D-2
  6
Continuous
 62
     3
370
     9
100
AcDbLine
 10
588.9292899028687
 20
859.5907387380215
 30
0.0
 11
628.9260814331687
 21
826.0279619033674
 31
0.0
  0
LINE
  5
EB
330
1F
100
AcDbEntity
  8
D-2
  6
Continuous
 62
     3
370
     9
100
AcDbLine
 10
588.92535089221
 20
844.2117403615829
 30
0.0
 11
628.9260814331687
 21
877.7763019974973
 31
0.0
  0
LINE
  5
EC
330
1F
100
AcDbEntity
  8
D-2
  6
Continuous
 62
     3
370
     9
100
AcDbLine
 10
588.9292899028687
 20
869.8451371010749
 30
0.0
 11
628.9260814331687
 21
836.2823602664208
 31
0.0
  0
LINE
  5
ED
330
1F
100
AcDbEntity
  8
D-2
  6
Continuous
 62
     3
370
     9
100
AcDbLine
 10
588.9249928003319
 20
833.957642486577
 30
0.0
 11
628.9260814331687
 21
867.5225045969263
 31
0.0
  0
LINE
  5
EE
330
1F
100
AcDbEntity
  8
D-2
  6
Continuous
 62
     3
370
     9
100
AcDbLine
 10
588.9292899028687
 20
880.0995354641282
 30
0.0
 11
628.9260814331687
 21
846.5367586294742
 31
0.0
  0
LINE
  5
EF
330
1F
100
AcDbEntity
  8
D-2
  6
Continuous
 62
     3
370
     9
100
AcDbLine
 10
588.9246347084538
 20
823.703544611571
 30
0.0
 11
628.9260814331687
 21
857.2687071963554
 31
0.0
  0
LINE
  5
F0
330
1F
100
AcDbEntity
  8
D-2
  6
Continuous
 62
     3
370
     9
100
AcDbLine
 10
588.9296479947465
 20
890.3536333391344
 30
0.0
 11
628.9264395250465
 21
856.7908565044804
 31
0.0
  0
LINE
  5
F1
330
1F
100
AcDbEntity
  8
D-2
  6
Continuous
 62
     3
370
     9
100
AcDbLine
 10
588.9260670759656
 20
864.7199361115951
 30
0.0
 11
628.9264395250465
 21
898.2841972730756
 31
0.0
  0
LINE
  5
F2
330
1F
100
AcDbEntity
  8
D-2
  6
Continuous
 62
     3
370
     9
100
AcDbLine
 10
588.9300060866242
 20
900.6077312141406
 30
0.0
 11
628.9267976169242
 21
867.0449543794866
 31
0.0
  0
LINE
  5
F3
330
1F
100
AcDbEntity
  8
D-2
  6
Continuous
 62
     3
370
     9
100
AcDbLine
 10
588.9264251678434
 20
874.9740339866013
 30
0.0
 11
628.9267976169242
 21
908.5382951480818
 31
0.0
  0
LINE
  5
F4
330
1F
100
AcDbEntity
  8
D-2
  6
Continuous
 62
     3
370
     9
100
AcDbLine
 10
588.9303641785019
 20
910.8618290891468
 30
0.0
 11
628.9271557088019
 21
877.2990522544928
 31
0.0
  0
LINE
  5
F5
330
1F
100
AcDbEntity
  8
D-2
  6
Continuous
 62
     3
370
     9
100
AcDbLine
 10
588.9267832597211
 20
885.2281318616075
 30
0.0
 11
628.9271557088019
 21
918.792393023088
 31
0.0
  0
LINE
  5
F6
330
1F
100
AcDbEntity
  8
D-2
  6
Continuous
 62
     3
370
     9
100
AcDbLine
 10
588.9307222703796
 20
921.115926964153
 30
0.0
 11
628.9275138006797
 21
887.553150129499
 31
0.0
  0
LINE
  5
F7
330
1F
100
AcDbEntity
  8
D-2
  6
Continuous
 62
     3
370
     9
100
AcDbLine
 10
588.9271413515987
 20
895.4822297366137
 30
0.0
 11
628.9275138006797
 21
929.0464908980942
 31
0.0
  0
LINE
  5
F8
330
1F
100
AcDbEntity
  8
D-2
  6
Continuous
 62
     3
370
     9
100
AcDbLine
 10
588.9310803622574
 20
931.3700248391592
 30
0.0
 11
628.9278718925574
 21
897.8072480045053
 31
0.0
  0
LINE
  5
F9
330
1F
100
AcDbEntity
  8
D-2
  6
Continuous
 62
     3
370
     9
100
AcDbLine
 10
588.9274994434764
 20
905.7363276116199
 30
0.0
 11
628.9278718925574
 21
939.3005887731005
 31
0.0
  0
LINE
  5
FA
330
1F
100
AcDbEntity
  8
D-2
  6
Continuous
 62
     3
370
     9
100
AcDbLine
 10
588.9314384541351
 20
941.6241227141654
 30
0.0
 11
628.9282299844351
 21
908.0613458795115
 31
0.0
  0
LINE
  5
FB
330
1F
100
AcDbEntity
  8
D-2
  6
Continuous
 62
     3
370
     9
100
AcDbLine
 10
588.9278575353542
 20
915.9904254866261
 30
0.0
 11
628.9282299844351
 21
949.5546866481067
 31
0.0
  0
LINE
  5
FC
330
1F
100
AcDbEntity
  8
D-2
  6
Continuous
 62
     3
370
     9
100
AcDbLine
 10
588.9317965460127
 20
951.8782205891716
 30
0.0
 11
628.9285880763127
 21
918.3154437545177
 31
0.0
  0
LINE
  5
FD
330
1F
100
AcDbEntity
  8
D-2
  6
Continuous
 62
     3
370
     9
100
AcDbLine
 10
588.9282156272319
 20
926.2445233616323
 30
0.0
 11
628.9285880763127
 21
959.8087845231129
 31
0.0
  0
LINE
  5
FE
330
1F
100
AcDbEntity
  8
D-2
  6
Continuous
 62
     3
370
     9
100
AcDbLine
 10
588.9321546378904
 20
962.1323184641778
 30
0.0
 11
628.9289461681905
 21
928.5695416295239
 31
0.0
  0
LINE
  5
FF
330
1F
100
AcDbEntity
  8
D-2
  6
Continuous
 62
     3
370
     9
100
AcDbLine
 10
588.9285737191096
 20
936.4986212366385
 30
0.0
 11
628.9289461681905
 21
970.0628823981191
 31
0.0
  0
LINE
  5
100
330
1F
100
AcDbEntity
  8
D-2
  6
Continuous
 62
     3
370
     9
100
AcDbLine
 10
588.9325127297682
 20
972.386416339184
 30
0.0
 11
628.9293042600682
 21
938.8236395045301
 31
0.0
  0
LINE
  5
101
330
1F
100
AcDbEntity
  8
D-2
  6
Continuous
 62
     3
370
     9
100
AcDbLine
 10
588.9289318109874
 20
946.7527191116448
 30
0.0
 11
628.9293042600682
 21
980.3169802731253
 31
0.0
  0
LINE
  5
102
330
1F
100
AcDbEntity
  8
D-2
  6
Continuous
 62
     3
370
     9
100
AcDbLine
 10
588.9328708216459
 20
982.6405142141903
 30
0.0
 11
628.9296623519459
 21
949.0777373795363
 31
0.0
  0
LINE
  5
103
330
1F
100
AcDbEntity
  8
D-2
  6
Continuous
 62
     3
370
     9
100
AcDbLine
 10
588.9292899028651
 20
957.006816986651
 30
0.0
 11
628.9296623519459
 21
990.5710781481315
 31
0.0
  0
LINE
  5
104
330
1F
100
AcDbEntity
  8
D-2
  6
Continuous
 62
     3
370
     9
100
AcDbLine
 10
588.9332289135236
 20
992.8946120891965
 30
0.0
 11
628.9300204438237
 21
959.3318352545425
 31
0.0
  0
LINE
  5
105
330
1F
100
AcDbEntity
  8
D-2
  6
Continuous
 62
     3
370
     9
100
AcDbLine
 10
588.9296479947428
 20
967.2609148616572
 30
0.0
 11
628.9300204438237
 21
1000.825176023138
 31
0.0
  0
LINE
  5
106
330
1F
100
AcDbEntity
  8
D-2
  6
Continuous
 62
     3
370
     9
100
AcDbLine
 10
588.9335870054014
 20
1003.148709964203
 30
0.0
 11
628.9303785357014
 21
969.5859331295487
 31
0.0
  0
LINE
  5
107
330
1F
100
AcDbEntity
  8
D-2
  6
Continuous
 62
     3
370
     9
100
AcDbLine
 10
588.9300060866206
 20
977.5150127366634
 30
0.0
 11
628.9303785357014
 21
1011.079273898144
 31
0.0
  0
LINE
  5
108
330
1F
100
AcDbEntity
  8
D-2
  6
Continuous
 62
     3
370
     9
100
AcDbLine
 10
588.9339450972791
 20
1013.402807839209
 30
0.0
 11
628.9307366275791
 21
979.8400310045549
 31
0.0
  0
LINE
  5
109
330
1F
100
AcDbEntity
  8
D-2
  6
Continuous
 62
     3
370
     9
100
AcDbLine
 10
588.9303641784982
 20
987.7691106116696
 30
0.0
 11
628.9307366275791
 21
1021.33337177315
 31
0.0
  0
LINE
  5
10A
330
1F
100
AcDbEntity
  8
D-2
  6
Continuous
 62
     3
370
     9
100
AcDbLine
 10
588.9343031891567
 20
1023.656905714215
 30
0.0
 11
628.9310947194567
 21
990.0941288795611
 31
0.0
  0
LINE
  5
10B
330
1F
100
AcDbEntity
  8
D-2
  6
Continuous
 62
     3
370
     9
100
AcDbLine
 10
588.9307222703759
 20
998.0232084866758
 30
0.0
 11
628.9310947194567
 21
1031.587469648156
 31
0.0
  0
LINE
  5
10C
330
1F
100
AcDbEntity
  8
D-2
  6
Continuous
 62
     3
370
     9
100
AcDbLine
 10
588.9346612810344
 20
1033.911003589221
 30
0.0
 11
628.9314528113345
 21
1000.348226754567
 31
0.0
  0
LINE
  5
10D
330
1F
100
AcDbEntity
  8
D-2
  6
Continuous
 62
     3
370
     9
100
AcDbLine
 10
588.9310803622536
 20
1008.277306361682
 30
0.0
 11
628.9314528113345
 21
1041.841567523163
 31
0.0
  0
LINE
  5
10E
330
1F
100
AcDbEntity
  8
D-2
  6
Continuous
 62
     3
370
     9
100
AcDbLine
 10
588.9350193729122
 20
1044.165101464228
 30
0.0
 11
628.9318109032122
 21
1010.602324629574
 31
0.0
  0
LINE
  5
10F
330
1F
100
AcDbEntity
  8
D-2
  6
Continuous
 62
     3
370
     9
100
AcDbLine
 10
588.9314384541314
 20
1018.531404236688
 30
0.0
 11
628.9318109032122
 21
1052.095665398169
 31
0.0
  0
LINE
  5
110
330
1F
100
AcDbEntity
  8
D-2
  6
Continuous
 62
     3
370
     9
100
AcDbLine
 10
588.9353774647899
 20
1054.419199339234
 30
0.0
 11
628.9321689950899
 21
1020.85642250458
 31
0.0
  0
LINE
  5
111
330
1F
100
AcDbEntity
  8
D-2
  6
Continuous
 62
     3
370
     9
100
AcDbLine
 10
588.9317965460091
 20
1028.785502111694
 30
0.0
 11
628.9321689950899
 21
1062.349763273175
 31
0.0
  0
LINE
  5
112
330
1F
100
AcDbEntity
  8
D-2
  6
Continuous
 62
     3
370
     9
100
AcDbLine
 10
588.9357355566676
 20
1064.67329721424
 30
0.0
 11
628.9325270869676
 21
1031.110520379586
 31
0.0
  0
LINE
  5
113
330
1F
100
AcDbEntity
  8
D-2
  6
Continuous
 62
     3
370
     9
100
AcDbLine
 10
625.5785405175754
 20
1064.688168789324
 30
0.0
 11
628.9336013626008
 21
1061.872814004605
 31
0.0
  0
LINE
  5
114
330
1F
100
AcDbEntity
  8
D-2
  6
Continuous
 62
     3
370
     9
100
AcDbLine
 10
588.9321546378868
 20
1039.039599986701
 30
0.0
 11
619.4989619915443
 21
1064.688168789324
 31
0.0
  0
LINE
  5
115
330
1F
100
AcDbEntity
  8
D-2
  6
Continuous
 62
     3
370
     9
100
AcDbLine
 10
613.3583647074436
 20
1064.688168789324
 30
0.0
 11
628.9332432707231
 21
1051.618716129598
 31
0.0
  0
LINE
  5
116
330
1F
100
AcDbEntity
  8
D-2
  6
Continuous
 62
     3
370
     9
100
AcDbLine
 10
588.9325127297645
 20
1049.293697861707
 30
0.0
 11
607.2789487737059
 21
1064.688168789324
 31
0.0
  0
LINE
  5
117
330
1F
100
AcDbEntity
  8
D-2
  6
Continuous
 62
     3
370
     9
100
AcDbLine
 10
601.1381888973117
 20
1064.688168789324
 30
0.0
 11
628.9328851788454
 21
1041.364618254592
 31
0.0
  0
LINE
  5
118
330
1F
100
AcDbEntity
  8
D-2
  6
Continuous
 62
     3
370
     9
100
AcDbLine
 10
588.9328708216422
 20
1059.547795736713
 30
0.0
 11
595.0589355558675
 21
1064.688168789324
 31
0.0
  0
LINE
  5
119
330
1F
100
AcDbEntity
  8
D-2
  6
Continuous
 62
     3
370
     9
100
AcDbLine
 10
504.0111348543651
 20
634.0071329604336
 30
0.0
 11
538.9509543291377
 21
604.6878471175552
 31
0.0
  0
LINE
  5
11A
330
1F
100
AcDbEntity
  8
D-2
  6
Continuous
 62
     3
370
     9
100
AcDbLine
 10
504.010776762487
 20
623.7530350854274
 30
0.0
 11
526.7307785190054
 21
604.6878471175552
 31
0.0
  0
LINE
  5
11B
330
1F
100
AcDbEntity
  8
D-2
  6
Continuous
 62
     3
370
     9
100
AcDbLine
 10
504.0104186706089
 20
613.4989372104218
 30
0.0
 11
514.5106027088736
 21
604.6878471175552
 31
0.0
  0
LINE
  5
11C
330
1F
100
AcDbEntity
  8
D-2
  6
Continuous
 62
     3
370
     9
100
AcDbLine
 10
536.2894485368254
 20
604.6878471175552
 30
0.0
 11
544.0236070349415
 21
611.177569582652
 31
0.0
  0
LINE
  5
11D
330
1F
100
AcDbEntity
  8
D-2
  6
Continuous
 62
     3
370
     9
100
AcDbLine
 10
504.0218022183485
 20
813.4494467365648
 30
0.0
 11
544.0236070349415
 21
847.0149097957842
 31
0.0
  0
LINE
  5
11E
330
1F
100
AcDbEntity
  8
D-2
  6
Continuous
 62
     3
370
     9
100
AcDbLine
 10
504.0182966919265
 20
839.0890904605551
 30
0.0
 11
544.0236070349415
 21
805.5191651772604
 31
0.0
  0
LINE
  5
11F
330
1F
100
AcDbEntity
  8
D-2
  6
Continuous
 62
     3
370
     9
100
AcDbLine
 10
504.0214441264704
 20
803.1953488615586
 30
0.0
 11
544.0236070349415
 21
836.7611123952134
 31
0.0
  0
LINE
  5
120
330
1F
100
AcDbEntity
  8
D-2
  6
Continuous
 62
     3
370
     9
100
AcDbLine
 10
504.0179386000484
 20
828.8349925855492
 30
0.0
 11
544.0236070349415
 21
795.2647668142067
 31
0.0
  0
LINE
  5
121
330
1F
100
AcDbEntity
  8
D-2
  6
Continuous
 62
     3
370
     9
100
AcDbLine
 10
504.0210860345924
 20
792.9412509865527
 30
0.0
 11
544.0236070349415
 21
826.5073149946427
 31
0.0
  0
LINE
  5
122
330
1F
100
AcDbEntity
  8
D-2
  6
Continuous
 62
     3
370
     9
100
AcDbLine
 10
504.0175805081703
 20
818.5808947105432
 30
0.0
 11
544.0236070349415
 21
785.0103684511532
 31
0.0
  0
LINE
  5
123
330
1F
100
AcDbEntity
  8
D-2
  6
Continuous
 62
     3
370
     9
100
AcDbLine
 10
504.0207279427143
 20
782.6871531115466
 30
0.0
 11
544.0236070349415
 21
816.2535175940714
 31
0.0
  0
LINE
  5
124
330
1F
100
AcDbEntity
  8
D-2
  6
Continuous
 62
     3
370
     9
100
AcDbLine
 10
504.0172224162923
 20
808.326796835537
 30
0.0
 11
544.0236070349415
 21
774.7559700880998
 31
0.0
  0
LINE
  5
125
330
1F
100
AcDbEntity
  8
D-2
  6
Continuous
 62
     3
370
     9
100
AcDbLine
 10
504.0203698508362
 20
772.4330552365404
 30
0.0
 11
544.0236070349415
 21
805.9997201935006
 31
0.0
  0
LINE
  5
126
330
1F
100
AcDbEntity
  8
D-2
  6
Continuous
 62
     3
370
     9
100
AcDbLine
 10
504.0168643244142
 20
798.0726989605308
 30
0.0
 11
544.0236070349415
 21
764.5015717250465
 31
0.0
  0
LINE
  5
127
330
1F
100
AcDbEntity
  8
D-2
  6
Continuous
 62
     3
370
     9
100
AcDbLine
 10
504.0200117589582
 20
762.1789573615342
 30
0.0
 11
544.0236070349415
 21
795.7459227929296
 31
0.0
  0
LINE
  5
128
330
1F
100
AcDbEntity
  8
D-2
  6
Continuous
 62
     3
370
     9
100
AcDbLine
 10
504.0165062325361
 20
787.818601085525
 30
0.0
 11
544.0236070349415
 21
754.2471733619927
 31
0.0
  0
LINE
  5
129
330
1F
100
AcDbEntity
  8
D-2
  6
Continuous
 62
     3
370
     9
100
AcDbLine
 10
504.0196536670801
 20
751.9248594865282
 30
0.0
 11
544.0236070349415
 21
785.4921253923584
 31
0.0
  0
LINE
  5
12A
330
1F
100
AcDbEntity
  8
D-2
  6
Continuous
 62
     3
370
     9
100
AcDbLine
 10
504.0161481406581
 20
777.5645032105189
 30
0.0
 11
544.0236070349415
 21
743.9927749989391
 31
0.0
  0
LINE
  5
12B
330
1F
100
AcDbEntity
  8
D-2
  6
Continuous
 62
     3
370
     9
100
AcDbLine
 10
504.019295575202
 20
741.6707616115224
 30
0.0
 11
544.0236070349415
 21
775.2383279917876
 31
0.0
  0
LINE
  5
12C
330
1F
100
AcDbEntity
  8
D-2
  6
Continuous
 62
     3
370
     9
100
AcDbLine
 10
504.01579004878
 20
767.3104053355127
 30
0.0
 11
544.0236070349415
 21
733.7383766358857
 31
0.0
  0
LINE
  5
12D
330
1F
100
AcDbEntity
  8
D-2
  6
Continuous
 62
     3
370
     9
100
AcDbLine
 10
504.018937483324
 20
731.4166637365162
 30
0.0
 11
544.0236070349415
 21
764.9845305912165
 31
0.0
  0
LINE
  5
12E
330
1F
100
AcDbEntity
  8
D-2
  6
Continuous
 62
     3
370
     9
100
AcDbLine
 10
504.0154319569019
 20
757.0563074605064
 30
0.0
 11
544.0236070349415
 21
723.4839782728324
 31
0.0
  0
LINE
  5
12F
330
1F
100
AcDbEntity
  8
D-2
  6
Continuous
 62
     3
370
     9
100
AcDbLine
 10
504.0185793914459
 20
721.16256586151
 30
0.0
 11
544.0236070349415
 21
754.7307331906455
 31
0.0
  0
LINE
  5
130
330
1F
100
AcDbEntity
  8
D-2
  6
Continuous
 62
     3
370
     9
100
AcDbLine
 10
504.0150738650239
 20
746.8022095855006
 30
0.0
 11
544.0236070349415
 21
713.229579909779
 31
0.0
  0
LINE
  5
131
330
1F
100
AcDbEntity
  8
D-2
  6
Continuous
 62
     3
370
     9
100
AcDbLine
 10
504.0182212995678
 20
710.9084679865038
 30
0.0
 11
544.0236070349415
 21
744.4769357900748
 31
0.0
  0
LINE
  5
132
330
1F
100
AcDbEntity
  8
D-2
  6
Continuous
 62
     3
370
     9
100
AcDbLine
 10
504.0147157731458
 20
736.5481117104946
 30
0.0
 11
544.0236070349415
 21
702.9751815467256
 31
0.0
  0
LINE
  5
133
330
1F
100
AcDbEntity
  8
D-2
  6
Continuous
 62
     3
370
     9
100
AcDbLine
 10
504.0178632076897
 20
700.6543701114981
 30
0.0
 11
544.0236070349415
 21
734.2231383895034
 31
0.0
  0
LINE
  5
134
330
1F
100
AcDbEntity
  8
D-2
  6
Continuous
 62
     3
370
     9
100
AcDbLine
 10
504.0143576812677
 20
726.2940138354884
 30
0.0
 11
544.0236070349415
 21
692.7207831836716
 31
0.0
  0
LINE
  5
135
330
1F
100
AcDbEntity
  8
D-2
  6
Continuous
 62
     3
370
     9
100
AcDbLine
 10
504.0175051158117
 20
690.4002722364919
 30
0.0
 11
544.0236070349415
 21
723.9693409889327
 31
0.0
  0
LINE
  5
136
330
1F
100
AcDbEntity
  8
D-2
  6
Continuous
 62
     3
370
     9
100
AcDbLine
 10
504.0139995893896
 20
716.0399159604822
 30
0.0
 11
544.0236070349415
 21
682.4663848206183
 31
0.0
  0
LINE
  5
137
330
1F
100
AcDbEntity
  8
D-2
  6
Continuous
 62
     3
370
     9
100
AcDbLine
 10
504.0171470239336
 20
680.1461743614857
 30
0.0
 11
544.0236070349415
 21
713.7155435883614
 31
0.0
  0
LINE
  5
138
330
1F
100
AcDbEntity
  8
D-2
  6
Continuous
 62
     3
370
     9
100
AcDbLine
 10
504.0136414975116
 20
705.785818085476
 30
0.0
 11
544.0236070349415
 21
672.2119864575649
 31
0.0
  0
LINE
  5
139
330
1F
100
AcDbEntity
  8
D-2
  6
Continuous
 62
     3
370
     9
100
AcDbLine
 10
504.0167889320555
 20
669.8920764864795
 30
0.0
 11
544.0236070349415
 21
703.4617461877906
 31
0.0
  0
LINE
  5
13A
330
1F
100
AcDbEntity
  8
D-2
  6
Continuous
 62
     3
370
     9
100
AcDbLine
 10
504.0132834056335
 20
695.5317202104703
 30
0.0
 11
544.0236070349415
 21
661.9575880945115
 31
0.0
  0
LINE
  5
13B
330
1F
100
AcDbEntity
  8
D-2
  6
Continuous
 62
     3
370
     9
100
AcDbLine
 10
504.0164308401775
 20
659.6379786114738
 30
0.0
 11
544.0236070349415
 21
693.2079487872198
 31
0.0
  0
LINE
  5
13C
330
1F
100
AcDbEntity
  8
D-2
  6
Continuous
 62
     3
370
     9
100
AcDbLine
 10
504.0129253137554
 20
685.2776223354641
 30
0.0
 11
544.0236070349415
 21
651.7031897314581
 31
0.0
  0
LINE
  5
13D
330
1F
100
AcDbEntity
  8
D-2
  6
Continuous
 62
     3
370
     9
100
AcDbLine
 10
504.0160727482994
 20
649.3838807364676
 30
0.0
 11
544.0236070349415
 21
682.9541513866485
 31
0.0
  0
LINE
  5
13E
330
1F
100
AcDbEntity
  8
D-2
  6
Continuous
 62
     3
370
     9
100
AcDbLine
 10
504.0157146564213
 20
639.1297828614614
 30
0.0
 11
544.0236070349415
 21
672.7003539860777
 31
0.0
  0
LINE
  5
13F
330
1F
100
AcDbEntity
  8
D-2
  6
Continuous
 62
     3
370
     9
100
AcDbLine
 10
504.0153565645433
 20
628.8756849864552
 30
0.0
 11
544.0236070349415
 21
662.446556585507
 31
0.0
  0
LINE
  5
140
330
1F
100
AcDbEntity
  8
D-2
  6
Continuous
 62
     3
370
     9
100
AcDbLine
 10
504.0149984726652
 20
618.6215871114496
 30
0.0
 11
544.0236070349415
 21
652.1927591849357
 31
0.0
  0
LINE
  5
141
330
1F
100
AcDbEntity
  8
D-2
  6
Continuous
 62
     3
370
     9
100
AcDbLine
 10
504.0146403807871
 20
608.3674892364434
 30
0.0
 11
544.0236070349415
 21
641.9389617843649
 31
0.0
  0
LINE
  5
142
330
1F
100
AcDbEntity
  8
D-2
  6
Continuous
 62
     3
370
     9
100
AcDbLine
 10
524.0694353189873
 20
604.6878471175552
 30
0.0
 11
544.0236070349415
 21
621.4313669832228
 31
0.0
  0
LINE
  5
143
330
1F
100
AcDbEntity
  8
D-2
  6
Continuous
 62
     3
370
     9
100
AcDbLine
 10
511.8494221011487
 20
604.6878471175552
 30
0.0
 11
544.0236070349415
 21
631.6851643837941
 31
0.0
  0
LINE
  5
144
330
1F
100
AcDbEntity
  8
D-2
  6
Continuous
 62
     3
370
     9
100
AcDbLine
 10
504.0114929462432
 20
644.2612308354398
 30
0.0
 11
544.0236070349415
 21
610.685596279244
 31
0.0
  0
LINE
  5
145
330
1F
100
AcDbEntity
  8
D-2
  6
Continuous
 62
     3
370
     9
100
AcDbLine
 10
504.0118510381212
 20
654.515328710446
 30
0.0
 11
544.0236070349415
 21
620.9399946422974
 31
0.0
  0
LINE
  5
146
330
1F
100
AcDbEntity
  8
D-2
  6
Continuous
 62
     3
370
     9
100
AcDbLine
 10
504.0122091299993
 20
664.7694265854517
 30
0.0
 11
544.0236070349415
 21
631.1943930053508
 31
0.0
  0
LINE
  5
147
330
1F
100
AcDbEntity
  8
D-2
  6
Continuous
 62
     3
370
     9
100
AcDbLine
 10
504.0125672218774
 20
675.0235244604579
 30
0.0
 11
544.0236070349415
 21
641.4487913684042
 31
0.0
  0
LINE
  5
148
330
1F
100
AcDbEntity
  8
D-2
  6
Continuous
 62
     3
370
     9
100
AcDbLine
 10
504.0268155046415
 20
849.3363403749681
 30
0.0
 11
544.0236070349415
 21
815.7735635403141
 31
0.0
  0
LINE
  5
149
330
1F
100
AcDbEntity
  8
D-A
  6
Continuous
 62
     3
370
     9
100
AcDbLine
 10
504.0268155046415
 20
604.6878471175552
 30
0.0
 11
504.0268155046415
 21
1064.688168789324
 31
0.0
  0
LINE
  5
14A
330
1F
100
AcDbEntity
  8
D-A
  6
Continuous
 62
     3
370
     9
100
AcDbLine
 10
544.0236070349415
 20
604.6878471175552
 30
0.0
 11
544.0236070349415
 21
1064.688168789324
 31
0.0
  0
LINE
  5
14B
330
1F
100
AcDbEntity
  8
D-2
  6
Continuous
 62
     3
370
     9
100
AcDbLine
 10
504.0232345858607
 20
854.4658382365889
 30
0.0
 11
544.0236070349415
 21
888.0300993980694
 31
0.0
  0
LINE
  5
14C
330
1F
100
AcDbEntity
  8
D-2
  6
Continuous
 62
     3
370
     9
100
AcDbLine
 10
504.0268155046415
 20
859.5907387380215
 30
0.0
 11
544.0236070349415
 21
826.0279619033674
 31
0.0
  0
LINE
  5
14D
330
1F
100
AcDbEntity
  8
D-2
  6
Continuous
 62
     3
370
     9
100
AcDbLine
 10
504.0228764939827
 20
844.2117403615829
 30
0.0
 11
544.0236070349415
 21
877.7763019974973
 31
0.0
  0
LINE
  5
14E
330
1F
100
AcDbEntity
  8
D-2
  6
Continuous
 62
     3
370
     9
100
AcDbLine
 10
504.0268155046415
 20
869.8451371010749
 30
0.0
 11
544.0236070349415
 21
836.2823602664208
 31
0.0
  0
LINE
  5
14F
330
1F
100
AcDbEntity
  8
D-2
  6
Continuous
 62
     3
370
     9
100
AcDbLine
 10
504.0225184021047
 20
833.957642486577
 30
0.0
 11
544.0236070349415
 21
867.5225045969263
 31
0.0
  0
LINE
  5
150
330
1F
100
AcDbEntity
  8
D-2
  6
Continuous
 62
     3
370
     9
100
AcDbLine
 10
504.0268155046415
 20
880.0995354641282
 30
0.0
 11
544.0236070349415
 21
846.5367586294742
 31
0.0
  0
LINE
  5
151
330
1F
100
AcDbEntity
  8
D-2
  6
Continuous
 62
     3
370
     9
100
AcDbLine
 10
504.0221603102266
 20
823.703544611571
 30
0.0
 11
544.0236070349415
 21
857.2687071963554
 31
0.0
  0
LINE
  5
152
330
1F
100
AcDbEntity
  8
D-2
  6
Continuous
 62
     3
370
     9
100
AcDbLine
 10
504.0271735965192
 20
890.3536333391344
 30
0.0
 11
544.0239651268192
 21
856.7908565044804
 31
0.0
  0
LINE
  5
153
330
1F
100
AcDbEntity
  8
D-2
  6
Continuous
 62
     3
370
     9
100
AcDbLine
 10
504.0235926777384
 20
864.7199361115951
 30
0.0
 11
544.0239651268192
 21
898.2841972730756
 31
0.0
  0
LINE
  5
154
330
1F
100
AcDbEntity
  8
D-2
  6
Continuous
 62
     3
370
     9
100
AcDbLine
 10
504.0275316883969
 20
900.6077312141406
 30
0.0
 11
544.024323218697
 21
867.0449543794866
 31
0.0
  0
LINE
  5
155
330
1F
100
AcDbEntity
  8
D-2
  6
Continuous
 62
     3
370
     9
100
AcDbLine
 10
504.0239507696161
 20
874.9740339866013
 30
0.0
 11
544.024323218697
 21
908.5382951480818
 31
0.0
  0
LINE
  5
156
330
1F
100
AcDbEntity
  8
D-2
  6
Continuous
 62
     3
370
     9
100
AcDbLine
 10
504.0278897802747
 20
910.8618290891468
 30
0.0
 11
544.0246813105747
 21
877.2990522544928
 31
0.0
  0
LINE
  5
157
330
1F
100
AcDbEntity
  8
D-2
  6
Continuous
 62
     3
370
     9
100
AcDbLine
 10
504.0243088614938
 20
885.2281318616075
 30
0.0
 11
544.0246813105747
 21
918.792393023088
 31
0.0
  0
LINE
  5
158
330
1F
100
AcDbEntity
  8
D-2
  6
Continuous
 62
     3
370
     9
100
AcDbLine
 10
504.0282478721524
 20
921.115926964153
 30
0.0
 11
544.0250394024524
 21
887.553150129499
 31
0.0
  0
LINE
  5
159
330
1F
100
AcDbEntity
  8
D-2
  6
Continuous
 62
     3
370
     9
100
AcDbLine
 10
504.0246669533715
 20
895.4822297366137
 30
0.0
 11
544.0250394024524
 21
929.0464908980942
 31
0.0
  0
LINE
  5
15A
330
1F
100
AcDbEntity
  8
D-2
  6
Continuous
 62
     3
370
     9
100
AcDbLine
 10
504.0286059640301
 20
931.3700248391592
 30
0.0
 11
544.0253974943302
 21
897.8072480045053
 31
0.0
  0
LINE
  5
15B
330
1F
100
AcDbEntity
  8
D-2
  6
Continuous
 62
     3
370
     9
100
AcDbLine
 10
504.0250250452493
 20
905.7363276116199
 30
0.0
 11
544.0253974943302
 21
939.3005887731005
 31
0.0
  0
LINE
  5
15C
330
1F
100
AcDbEntity
  8
D-2
  6
Continuous
 62
     3
370
     9
100
AcDbLine
 10
504.0289640559078
 20
941.6241227141654
 30
0.0
 11
544.0257555862079
 21
908.0613458795115
 31
0.0
  0
LINE
  5
15D
330
1F
100
AcDbEntity
  8
D-2
  6
Continuous
 62
     3
370
     9
100
AcDbLine
 10
504.0253831371269
 20
915.9904254866261
 30
0.0
 11
544.0257555862079
 21
949.5546866481067
 31
0.0
  0
LINE
  5
15E
330
1F
100
AcDbEntity
  8
D-2
  6
Continuous
 62
     3
370
     9
100
AcDbLine
 10
504.0293221477855
 20
951.8782205891716
 30
0.0
 11
544.0261136780855
 21
918.3154437545177
 31
0.0
  0
LINE
  5
15F
330
1F
100
AcDbEntity
  8
D-2
  6
Continuous
 62
     3
370
     9
100
AcDbLine
 10
504.0257412290047
 20
926.2445233616323
 30
0.0
 11
544.0261136780855
 21
959.8087845231129
 31
0.0
  0
LINE
  5
160
330
1F
100
AcDbEntity
  8
D-2
  6
Continuous
 62
     3
370
     9
100
AcDbLine
 10
504.0296802396632
 20
962.1323184641778
 30
0.0
 11
544.0264717699632
 21
928.5695416295239
 31
0.0
  0
LINE
  5
161
330
1F
100
AcDbEntity
  8
D-2
  6
Continuous
 62
     3
370
     9
100
AcDbLine
 10
504.0260993208824
 20
936.4986212366385
 30
0.0
 11
544.0264717699632
 21
970.0628823981191
 31
0.0
  0
LINE
  5
162
330
1F
100
AcDbEntity
  8
D-2
  6
Continuous
 62
     3
370
     9
100
AcDbLine
 10
504.0300383315409
 20
972.386416339184
 30
0.0
 11
544.026829861841
 21
938.8236395045301
 31
0.0
  0
LINE
  5
163
330
1F
100
AcDbEntity
  8
D-2
  6
Continuous
 62
     3
370
     9
100
AcDbLine
 10
504.0264574127601
 20
946.7527191116448
 30
0.0
 11
544.026829861841
 21
980.3169802731253
 31
0.0
  0
LINE
  5
164
330
1F
100
AcDbEntity
  8
D-2
  6
Continuous
 62
     3
370
     9
100
AcDbLine
 10
504.0303964234187
 20
982.6405142141903
 30
0.0
 11
544.0271879537187
 21
949.0777373795363
 31
0.0
  0
LINE
  5
165
330
1F
100
AcDbEntity
  8
D-2
  6
Continuous
 62
     3
370
     9
100
AcDbLine
 10
504.0268155046379
 20
957.006816986651
 30
0.0
 11
544.0271879537187
 21
990.5710781481315
 31
0.0
  0
LINE
  5
166
330
1F
100
AcDbEntity
  8
D-2
  6
Continuous
 62
     3
370
     9
100
AcDbLine
 10
504.0307545152964
 20
992.8946120891965
 30
0.0
 11
544.0275460455964
 21
959.3318352545425
 31
0.0
  0
LINE
  5
167
330
1F
100
AcDbEntity
  8
D-2
  6
Continuous
 62
     3
370
     9
100
AcDbLine
 10
504.0271735965155
 20
967.2609148616572
 30
0.0
 11
544.0275460455964
 21
1000.825176023138
 31
0.0
  0
LINE
  5
168
330
1F
100
AcDbEntity
  8
D-2
  6
Continuous
 62
     3
370
     9
100
AcDbLine
 10
504.0311126071741
 20
1003.148709964203
 30
0.0
 11
544.0279041374741
 21
969.5859331295487
 31
0.0
  0
LINE
  5
169
330
1F
100
AcDbEntity
  8
D-2
  6
Continuous
 62
     3
370
     9
100
AcDbLine
 10
504.0275316883933
 20
977.5150127366634
 30
0.0
 11
544.0279041374741
 21
1011.079273898144
 31
0.0
  0
LINE
  5
16A
330
1F
100
AcDbEntity
  8
D-2
  6
Continuous
 62
     3
370
     9
100
AcDbLine
 10
504.0314706990518
 20
1013.402807839209
 30
0.0
 11
544.0282622293519
 21
979.8400310045549
 31
0.0
  0
LINE
  5
16B
330
1F
100
AcDbEntity
  8
D-2
  6
Continuous
 62
     3
370
     9
100
AcDbLine
 10
504.027889780271
 20
987.7691106116696
 30
0.0
 11
544.0282622293519
 21
1021.33337177315
 31
0.0
  0
LINE
  5
16C
330
1F
100
AcDbEntity
  8
D-2
  6
Continuous
 62
     3
370
     9
100
AcDbLine
 10
504.0318287909295
 20
1023.656905714215
 30
0.0
 11
544.0286203212295
 21
990.0941288795611
 31
0.0
  0
LINE
  5
16D
330
1F
100
AcDbEntity
  8
D-2
  6
Continuous
 62
     3
370
     9
100
AcDbLine
 10
504.0282478721487
 20
998.0232084866758
 30
0.0
 11
544.0286203212295
 21
1031.587469648156
 31
0.0
  0
LINE
  5
16E
330
1F
100
AcDbEntity
  8
D-2
  6
Continuous
 62
     3
370
     9
100
AcDbLine
 10
504.0321868828073
 20
1033.911003589221
 30
0.0
 11
544.0289784131072
 21
1000.348226754567
 31
0.0
  0
LINE
  5
16F
330
1F
100
AcDbEntity
  8
D-2
  6
Continuous
 62
     3
370
     9
100
AcDbLine
 10
504.0286059640264
 20
1008.277306361682
 30
0.0
 11
544.0289784131072
 21
1041.841567523163
 31
0.0
  0
LINE
  5
170
330
1F
100
AcDbEntity
  8
D-2
  6
Continuous
 62
     3
370
     9
100
AcDbLine
 10
504.0325449746849
 20
1044.165101464228
 30
0.0
 11
544.0293365049849
 21
1010.602324629574
 31
0.0
  0
LINE
  5
171
330
1F
100
AcDbEntity
  8
D-2
  6
Continuous
 62
     3
370
     9
100
AcDbLine
 10
504.0289640559041
 20
1018.531404236688
 30
0.0
 11
544.0293365049849
 21
1052.095665398169
 31
0.0
  0
LINE
  5
172
330
1F
100
AcDbEntity
  8
D-2
  6
Continuous
 62
     3
370
     9
100
AcDbLine
 10
504.0329030665627
 20
1054.419199339234
 30
0.0
 11
544.0296945968627
 21
1020.85642250458
 31
0.0
  0
LINE
  5
173
330
1F
100
AcDbEntity
  8
D-2
  6
Continuous
 62
     3
370
     9
100
AcDbLine
 10
504.0293221477818
 20
1028.785502111694
 30
0.0
 11
544.0296945968627
 21
1062.349763273175
 31
0.0
  0
LINE
  5
174
330
1F
100
AcDbEntity
  8
D-2
  6
Continuous
 62
     3
370
     9
100
AcDbLine
 10
504.0332611584404
 20
1064.67329721424
 30
0.0
 11
544.0300526887404
 21
1031.110520379586
 31
0.0
  0
LINE
  5
175
330
1F
100
AcDbEntity
  8
D-2
  6
Continuous
 62
     3
370
     9
100
AcDbLine
 10
540.6760661193482
 20
1064.688168789324
 30
0.0
 11
544.0311269643736
 21
1061.872814004605
 31
0.0
  0
LINE
  5
176
330
1F
100
AcDbEntity
  8
D-2
  6
Continuous
 62
     3
370
     9
100
AcDbLine
 10
504.0296802396596
 20
1039.039599986701
 30
0.0
 11
534.5964875933171
 21
1064.688168789324
 31
0.0
  0
LINE
  5
177
330
1F
100
AcDbEntity
  8
D-2
  6
Continuous
 62
     3
370
     9
100
AcDbLine
 10
528.4558903092163
 20
1064.688168789324
 30
0.0
 11
544.0307688724959
 21
1051.618716129598
 31
0.0
  0
LINE
  5
178
330
1F
100
AcDbEntity
  8
D-2
  6
Continuous
 62
     3
370
     9
100
AcDbLine
 10
504.0300383315372
 20
1049.293697861707
 30
0.0
 11
522.3764743754787
 21
1064.688168789324
 31
0.0
  0
LINE
  5
179
330
1F
100
AcDbEntity
  8
D-2
  6
Continuous
 62
     3
370
     9
100
AcDbLine
 10
516.2357144990845
 20
1064.688168789324
 30
0.0
 11
544.0304107806181
 21
1041.364618254592
 31
0.0
  0
LINE
  5
17A
330
1F
100
AcDbEntity
  8
D-2
  6
Continuous
 62
     3
370
     9
100
AcDbLine
 10
504.030396423415
 20
1059.547795736713
 30
0.0
 11
510.1564611576403
 21
1064.688168789324
 31
0.0
  0
LINE
  5
17B
330
1F
100
AcDbEntity
  8
D-2
  6
Continuous
 62
     3
370
     9
100
AcDbLine
 10
419.1136092525921
 20
634.0071329604336
 30
0.0
 11
454.0534287273648
 21
604.6878471175552
 31
0.0
  0
LINE
  5
17C
330
1F
100
AcDbEntity
  8
D-2
  6
Continuous
 62
     3
370
     9
100
AcDbLine
 10
419.1132511607141
 20
623.7530350854274
 30
0.0
 11
441.8332529172325
 21
604.6878471175552
 31
0.0
  0
LINE
  5
17D
330
1F
100
AcDbEntity
  8
D-2
  6
Continuous
 62
     3
370
     9
100
AcDbLine
 10
419.112893068836
 20
613.4989372104218
 30
0.0
 11
429.6130771071007
 21
604.6878471175552
 31
0.0
  0
LINE
  5
17E
330
1F
100
AcDbEntity
  8
D-2
  6
Continuous
 62
     3
370
     9
100
AcDbLine
 10
451.3919229350524
 20
604.6878471175552
 30
0.0
 11
459.1260814331686
 21
611.177569582652
 31
0.0
  0
LINE
  5
17F
330
1F
100
AcDbEntity
  8
D-2
  6
Continuous
 62
     3
370
     9
100
AcDbLine
 10
419.1242766165756
 20
813.4494467365648
 30
0.0
 11
459.1260814331686
 21
847.0149097957842
 31
0.0
  0
LINE
  5
180
330
1F
100
AcDbEntity
  8
D-2
  6
Continuous
 62
     3
370
     9
100
AcDbLine
 10
419.1207710901535
 20
839.0890904605551
 30
0.0
 11
459.1260814331686
 21
805.5191651772604
 31
0.0
  0
LINE
  5
181
330
1F
100
AcDbEntity
  8
D-2
  6
Continuous
 62
     3
370
     9
100
AcDbLine
 10
419.1239185246975
 20
803.1953488615586
 30
0.0
 11
459.1260814331686
 21
836.7611123952134
 31
0.0
  0
LINE
  5
182
330
1F
100
AcDbEntity
  8
D-2
  6
Continuous
 62
     3
370
     9
100
AcDbLine
 10
419.1204129982755
 20
828.8349925855492
 30
0.0
 11
459.1260814331686
 21
795.2647668142067
 31
0.0
  0
LINE
  5
183
330
1F
100
AcDbEntity
  8
D-2
  6
Continuous
 62
     3
370
     9
100
AcDbLine
 10
419.1235604328194
 20
792.9412509865527
 30
0.0
 11
459.1260814331686
 21
826.5073149946427
 31
0.0
  0
LINE
  5
184
330
1F
100
AcDbEntity
  8
D-2
  6
Continuous
 62
     3
370
     9
100
AcDbLine
 10
419.1200549063974
 20
818.5808947105432
 30
0.0
 11
459.1260814331686
 21
785.0103684511532
 31
0.0
  0
LINE
  5
185
330
1F
100
AcDbEntity
  8
D-2
  6
Continuous
 62
     3
370
     9
100
AcDbLine
 10
419.1232023409414
 20
782.6871531115466
 30
0.0
 11
459.1260814331686
 21
816.2535175940714
 31
0.0
  0
LINE
  5
186
330
1F
100
AcDbEntity
  8
D-2
  6
Continuous
 62
     3
370
     9
100
AcDbLine
 10
419.1196968145193
 20
808.326796835537
 30
0.0
 11
459.1260814331686
 21
774.7559700880998
 31
0.0
  0
LINE
  5
187
330
1F
100
AcDbEntity
  8
D-2
  6
Continuous
 62
     3
370
     9
100
AcDbLine
 10
419.1228442490633
 20
772.4330552365404
 30
0.0
 11
459.1260814331686
 21
805.9997201935006
 31
0.0
  0
LINE
  5
188
330
1F
100
AcDbEntity
  8
D-2
  6
Continuous
 62
     3
370
     9
100
AcDbLine
 10
419.1193387226413
 20
798.0726989605308
 30
0.0
 11
459.1260814331686
 21
764.5015717250465
 31
0.0
  0
LINE
  5
189
330
1F
100
AcDbEntity
  8
D-2
  6
Continuous
 62
     3
370
     9
100
AcDbLine
 10
419.1224861571852
 20
762.1789573615342
 30
0.0
 11
459.1260814331686
 21
795.7459227929296
 31
0.0
  0
LINE
  5
18A
330
1F
100
AcDbEntity
  8
D-2
  6
Continuous
 62
     3
370
     9
100
AcDbLine
 10
419.1189806307632
 20
787.818601085525
 30
0.0
 11
459.1260814331686
 21
754.2471733619927
 31
0.0
  0
LINE
  5
18B
330
1F
100
AcDbEntity
  8
D-2
  6
Continuous
 62
     3
370
     9
100
AcDbLine
 10
419.1221280653072
 20
751.9248594865282
 30
0.0
 11
459.1260814331686
 21
785.4921253923584
 31
0.0
  0
LINE
  5
18C
330
1F
100
AcDbEntity
  8
D-2
  6
Continuous
 62
     3
370
     9
100
AcDbLine
 10
419.1186225388851
 20
777.5645032105189
 30
0.0
 11
459.1260814331686
 21
743.9927749989391
 31
0.0
  0
LINE
  5
18D
330
1F
100
AcDbEntity
  8
D-2
  6
Continuous
 62
     3
370
     9
100
AcDbLine
 10
419.1217699734291
 20
741.6707616115224
 30
0.0
 11
459.1260814331686
 21
775.2383279917876
 31
0.0
  0
LINE
  5
18E
330
1F
100
AcDbEntity
  8
D-2
  6
Continuous
 62
     3
370
     9
100
AcDbLine
 10
419.118264447007
 20
767.3104053355127
 30
0.0
 11
459.1260814331686
 21
733.7383766358857
 31
0.0
  0
LINE
  5
18F
330
1F
100
AcDbEntity
  8
D-2
  6
Continuous
 62
     3
370
     9
100
AcDbLine
 10
419.121411881551
 20
731.4166637365162
 30
0.0
 11
459.1260814331686
 21
764.9845305912165
 31
0.0
  0
LINE
  5
190
330
1F
100
AcDbEntity
  8
D-2
  6
Continuous
 62
     3
370
     9
100
AcDbLine
 10
419.117906355129
 20
757.0563074605064
 30
0.0
 11
459.1260814331686
 21
723.4839782728324
 31
0.0
  0
LINE
  5
191
330
1F
100
AcDbEntity
  8
D-2
  6
Continuous
 62
     3
370
     9
100
AcDbLine
 10
419.1210537896729
 20
721.16256586151
 30
0.0
 11
459.1260814331686
 21
754.7307331906455
 31
0.0
  0
LINE
  5
192
330
1F
100
AcDbEntity
  8
D-2
  6
Continuous
 62
     3
370
     9
100
AcDbLine
 10
419.1175482632509
 20
746.8022095855006
 30
0.0
 11
459.1260814331686
 21
713.229579909779
 31
0.0
  0
LINE
  5
193
330
1F
100
AcDbEntity
  8
D-2
  6
Continuous
 62
     3
370
     9
100
AcDbLine
 10
419.1206956977949
 20
710.9084679865038
 30
0.0
 11
459.1260814331686
 21
744.4769357900748
 31
0.0
  0
LINE
  5
194
330
1F
100
AcDbEntity
  8
D-2
  6
Continuous
 62
     3
370
     9
100
AcDbLine
 10
419.1171901713728
 20
736.5481117104946
 30
0.0
 11
459.1260814331686
 21
702.9751815467256
 31
0.0
  0
LINE
  5
195
330
1F
100
AcDbEntity
  8
D-2
  6
Continuous
 62
     3
370
     9
100
AcDbLine
 10
419.1203376059168
 20
700.6543701114981
 30
0.0
 11
459.1260814331686
 21
734.2231383895034
 31
0.0
  0
LINE
  5
196
330
1F
100
AcDbEntity
  8
D-2
  6
Continuous
 62
     3
370
     9
100
AcDbLine
 10
419.1168320794948
 20
726.2940138354884
 30
0.0
 11
459.1260814331686
 21
692.7207831836716
 31
0.0
  0
LINE
  5
197
330
1F
100
AcDbEntity
  8
D-2
  6
Continuous
 62
     3
370
     9
100
AcDbLine
 10
419.1199795140387
 20
690.4002722364919
 30
0.0
 11
459.1260814331686
 21
723.9693409889327
 31
0.0
  0
LINE
  5
198
330
1F
100
AcDbEntity
  8
D-2
  6
Continuous
 62
     3
370
     9
100
AcDbLine
 10
419.1164739876167
 20
716.0399159604822
 30
0.0
 11
459.1260814331686
 21
682.4663848206183
 31
0.0
  0
LINE
  5
199
330
1F
100
AcDbEntity
  8
D-2
  6
Continuous
 62
     3
370
     9
100
AcDbLine
 10
419.1196214221607
 20
680.1461743614857
 30
0.0
 11
459.1260814331686
 21
713.7155435883614
 31
0.0
  0
LINE
  5
19A
330
1F
100
AcDbEntity
  8
D-2
  6
Continuous
 62
     3
370
     9
100
AcDbLine
 10
419.1161158957386
 20
705.785818085476
 30
0.0
 11
459.1260814331686
 21
672.2119864575649
 31
0.0
  0
LINE
  5
19B
330
1F
100
AcDbEntity
  8
D-2
  6
Continuous
 62
     3
370
     9
100
AcDbLine
 10
419.1192633302826
 20
669.8920764864795
 30
0.0
 11
459.1260814331686
 21
703.4617461877906
 31
0.0
  0
LINE
  5
19C
330
1F
100
AcDbEntity
  8
D-2
  6
Continuous
 62
     3
370
     9
100
AcDbLine
 10
419.1157578038606
 20
695.5317202104703
 30
0.0
 11
459.1260814331686
 21
661.9575880945115
 31
0.0
  0
LINE
  5
19D
330
1F
100
AcDbEntity
  8
D-2
  6
Continuous
 62
     3
370
     9
100
AcDbLine
 10
419.1189052384045
 20
659.6379786114738
 30
0.0
 11
459.1260814331686
 21
693.2079487872198
 31
0.0
  0
LINE
  5
19E
330
1F
100
AcDbEntity
  8
D-2
  6
Continuous
 62
     3
370
     9
100
AcDbLine
 10
419.1153997119825
 20
685.2776223354641
 30
0.0
 11
459.1260814331686
 21
651.7031897314581
 31
0.0
  0
LINE
  5
19F
330
1F
100
AcDbEntity
  8
D-2
  6
Continuous
 62
     3
370
     9
100
AcDbLine
 10
419.1185471465265
 20
649.3838807364676
 30
0.0
 11
459.1260814331686
 21
682.9541513866485
 31
0.0
  0
LINE
  5
1A0
330
1F
100
AcDbEntity
  8
D-2
  6
Continuous
 62
     3
370
     9
100
AcDbLine
 10
419.1181890546484
 20
639.1297828614614
 30
0.0
 11
459.1260814331686
 21
672.7003539860777
 31
0.0
  0
LINE
  5
1A1
330
1F
100
AcDbEntity
  8
D-2
  6
Continuous
 62
     3
370
     9
100
AcDbLine
 10
419.1178309627703
 20
628.8756849864552
 30
0.0
 11
459.1260814331686
 21
662.446556585507
 31
0.0
  0
LINE
  5
1A2
330
1F
100
AcDbEntity
  8
D-2
  6
Continuous
 62
     3
370
     9
100
AcDbLine
 10
419.1174728708922
 20
618.6215871114496
 30
0.0
 11
459.1260814331686
 21
652.1927591849357
 31
0.0
  0
LINE
  5
1A3
330
1F
100
AcDbEntity
  8
D-2
  6
Continuous
 62
     3
370
     9
100
AcDbLine
 10
419.1171147790142
 20
608.3674892364434
 30
0.0
 11
459.1260814331686
 21
641.9389617843649
 31
0.0
  0
LINE
  5
1A4
330
1F
100
AcDbEntity
  8
D-2
  6
Continuous
 62
     3
370
     9
100
AcDbLine
 10
439.1719097172144
 20
604.6878471175552
 30
0.0
 11
459.1260814331686
 21
621.4313669832228
 31
0.0
  0
LINE
  5
1A5
330
1F
100
AcDbEntity
  8
D-2
  6
Continuous
 62
     3
370
     9
100
AcDbLine
 10
426.9518964993757
 20
604.6878471175552
 30
0.0
 11
459.1260814331686
 21
631.6851643837941
 31
0.0
  0
LINE
  5
1A6
330
1F
100
AcDbEntity
  8
D-2
  6
Continuous
 62
     3
370
     9
100
AcDbLine
 10
419.1139673444702
 20
644.2612308354398
 30
0.0
 11
459.1260814331686
 21
610.685596279244
 31
0.0
  0
LINE
  5
1A7
330
1F
100
AcDbEntity
  8
D-2
  6
Continuous
 62
     3
370
     9
100
AcDbLine
 10
419.1143254363483
 20
654.515328710446
 30
0.0
 11
459.1260814331686
 21
620.9399946422974
 31
0.0
  0
LINE
  5
1A8
330
1F
100
AcDbEntity
  8
D-2
  6
Continuous
 62
     3
370
     9
100
AcDbLine
 10
419.1146835282264
 20
664.7694265854517
 30
0.0
 11
459.1260814331686
 21
631.1943930053508
 31
0.0
  0
LINE
  5
1A9
330
1F
100
AcDbEntity
  8
D-2
  6
Continuous
 62
     3
370
     9
100
AcDbLine
 10
419.1150416201044
 20
675.0235244604579
 30
0.0
 11
459.1260814331686
 21
641.4487913684042
 31
0.0
  0
LINE
  5
1AA
330
1F
100
AcDbEntity
  8
D-2
  6
Continuous
 62
     3
370
     9
100
AcDbLine
 10
419.1292899028685
 20
849.3363403749681
 30
0.0
 11
459.1260814331686
 21
815.7735635403141
 31
0.0
  0
LINE
  5
1AB
330
1F
100
AcDbEntity
  8
D-A
  6
Continuous
 62
     3
370
     9
100
AcDbLine
 10
419.1292899028685
 20
604.6878471175552
 30
0.0
 11
419.1292899028685
 21
1064.688168789324
 31
0.0
  0
LINE
  5
1AC
330
1F
100
AcDbEntity
  8
D-A
  6
Continuous
 62
     3
370
     9
100
AcDbLine
 10
459.1260814331686
 20
604.6878471175552
 30
0.0
 11
459.1260814331686
 21
1064.688168789324
 31
0.0
  0
LINE
  5
1AD
330
1F
100
AcDbEntity
  8
D-2
  6
Continuous
 62
     3
370
     9
100
AcDbLine
 10
419.1257089840877
 20
854.4658382365889
 30
0.0
 11
459.1260814331686
 21
888.0300993980694
 31
0.0
  0
LINE
  5
1AE
330
1F
100
AcDbEntity
  8
D-2
  6
Continuous
 62
     3
370
     9
100
AcDbLine
 10
419.1292899028685
 20
859.5907387380215
 30
0.0
 11
459.1260814331686
 21
826.0279619033674
 31
0.0
  0
LINE
  5
1AF
330
1F
100
AcDbEntity
  8
D-2
  6
Continuous
 62
     3
370
     9
100
AcDbLine
 10
419.1253508922098
 20
844.2117403615829
 30
0.0
 11
459.1260814331686
 21
877.7763019974973
 31
0.0
  0
LINE
  5
1B0
330
1F
100
AcDbEntity
  8
D-2
  6
Continuous
 62
     3
370
     9
100
AcDbLine
 10
419.1292899028685
 20
869.8451371010749
 30
0.0
 11
459.1260814331686
 21
836.2823602664208
 31
0.0
  0
LINE
  5
1B1
330
1F
100
AcDbEntity
  8
D-2
  6
Continuous
 62
     3
370
     9
100
AcDbLine
 10
419.1249928003317
 20
833.957642486577
 30
0.0
 11
459.1260814331686
 21
867.5225045969263
 31
0.0
  0
LINE
  5
1B2
330
1F
100
AcDbEntity
  8
D-2
  6
Continuous
 62
     3
370
     9
100
AcDbLine
 10
419.1292899028685
 20
880.0995354641282
 30
0.0
 11
459.1260814331686
 21
846.5367586294742
 31
0.0
  0
LINE
  5
1B3
330
1F
100
AcDbEntity
  8
D-2
  6
Continuous
 62
     3
370
     9
100
AcDbLine
 10
419.1246347084536
 20
823.703544611571
 30
0.0
 11
459.1260814331686
 21
857.2687071963554
 31
0.0
  0
LINE
  5
1B4
330
1F
100
AcDbEntity
  8
D-2
  6
Continuous
 62
     3
370
     9
100
AcDbLine
 10
419.1296479947463
 20
890.3536333391344
 30
0.0
 11
459.1264395250463
 21
856.7908565044804
 31
0.0
  0
LINE
  5
1B5
330
1F
100
AcDbEntity
  8
D-2
  6
Continuous
 62
     3
370
     9
100
AcDbLine
 10
419.1260670759655
 20
864.7199361115951
 30
0.0
 11
459.1264395250463
 21
898.2841972730756
 31
0.0
  0
LINE
  5
1B6
330
1F
100
AcDbEntity
  8
D-2
  6
Continuous
 62
     3
370
     9
100
AcDbLine
 10
419.130006086624
 20
900.6077312141406
 30
0.0
 11
459.126797616924
 21
867.0449543794866
 31
0.0
  0
LINE
  5
1B7
330
1F
100
AcDbEntity
  8
D-2
  6
Continuous
 62
     3
370
     9
100
AcDbLine
 10
419.1264251678432
 20
874.9740339866013
 30
0.0
 11
459.126797616924
 21
908.5382951480818
 31
0.0
  0
LINE
  5
1B8
330
1F
100
AcDbEntity
  8
D-2
  6
Continuous
 62
     3
370
     9
100
AcDbLine
 10
419.1303641785017
 20
910.8618290891468
 30
0.0
 11
459.1271557088018
 21
877.2990522544928
 31
0.0
  0
LINE
  5
1B9
330
1F
100
AcDbEntity
  8
D-2
  6
Continuous
 62
     3
370
     9
100
AcDbLine
 10
419.1267832597209
 20
885.2281318616075
 30
0.0
 11
459.1271557088018
 21
918.792393023088
 31
0.0
  0
LINE
  5
1BA
330
1F
100
AcDbEntity
  8
D-2
  6
Continuous
 62
     3
370
     9
100
AcDbLine
 10
419.1307222703795
 20
921.115926964153
 30
0.0
 11
459.1275138006795
 21
887.553150129499
 31
0.0
  0
LINE
  5
1BB
330
1F
100
AcDbEntity
  8
D-2
  6
Continuous
 62
     3
370
     9
100
AcDbLine
 10
419.1271413515986
 20
895.4822297366137
 30
0.0
 11
459.1275138006795
 21
929.0464908980942
 31
0.0
  0
LINE
  5
1BC
330
1F
100
AcDbEntity
  8
D-2
  6
Continuous
 62
     3
370
     9
100
AcDbLine
 10
419.1310803622571
 20
931.3700248391592
 30
0.0
 11
459.1278718925572
 21
897.8072480045053
 31
0.0
  0
LINE
  5
1BD
330
1F
100
AcDbEntity
  8
D-2
  6
Continuous
 62
     3
370
     9
100
AcDbLine
 10
419.1274994434763
 20
905.7363276116199
 30
0.0
 11
459.1278718925572
 21
939.3005887731005
 31
0.0
  0
LINE
  5
1BE
330
1F
100
AcDbEntity
  8
D-2
  6
Continuous
 62
     3
370
     9
100
AcDbLine
 10
419.1314384541349
 20
941.6241227141654
 30
0.0
 11
459.1282299844349
 21
908.0613458795115
 31
0.0
  0
LINE
  5
1BF
330
1F
100
AcDbEntity
  8
D-2
  6
Continuous
 62
     3
370
     9
100
AcDbLine
 10
419.127857535354
 20
915.9904254866261
 30
0.0
 11
459.1282299844349
 21
949.5546866481067
 31
0.0
  0
LINE
  5
1C0
330
1F
100
AcDbEntity
  8
D-2
  6
Continuous
 62
     3
370
     9
100
AcDbLine
 10
419.1317965460126
 20
951.8782205891716
 30
0.0
 11
459.1285880763126
 21
918.3154437545177
 31
0.0
  0
LINE
  5
1C1
330
1F
100
AcDbEntity
  8
D-2
  6
Continuous
 62
     3
370
     9
100
AcDbLine
 10
419.1282156272317
 20
926.2445233616323
 30
0.0
 11
459.1285880763126
 21
959.8087845231129
 31
0.0
  0
LINE
  5
1C2
330
1F
100
AcDbEntity
  8
D-2
  6
Continuous
 62
     3
370
     9
100
AcDbLine
 10
419.1321546378903
 20
962.1323184641778
 30
0.0
 11
459.1289461681903
 21
928.5695416295239
 31
0.0
  0
LINE
  5
1C3
330
1F
100
AcDbEntity
  8
D-2
  6
Continuous
 62
     3
370
     9
100
AcDbLine
 10
419.1285737191095
 20
936.4986212366385
 30
0.0
 11
459.1289461681903
 21
970.0628823981191
 31
0.0
  0
LINE
  5
1C4
330
1F
100
AcDbEntity
  8
D-2
  6
Continuous
 62
     3
370
     9
100
AcDbLine
 10
419.132512729768
 20
972.386416339184
 30
0.0
 11
459.129304260068
 21
938.8236395045301
 31
0.0
  0
LINE
  5
1C5
330
1F
100
AcDbEntity
  8
D-2
  6
Continuous
 62
     3
370
     9
100
AcDbLine
 10
419.1289318109872
 20
946.7527191116448
 30
0.0
 11
459.129304260068
 21
980.3169802731253
 31
0.0
  0
LINE
  5
1C6
330
1F
100
AcDbEntity
  8
D-2
  6
Continuous
 62
     3
370
     9
100
AcDbLine
 10
419.1328708216457
 20
982.6405142141903
 30
0.0
 11
459.1296623519457
 21
949.0777373795363
 31
0.0
  0
LINE
  5
1C7
330
1F
100
AcDbEntity
  8
D-2
  6
Continuous
 62
     3
370
     9
100
AcDbLine
 10
419.1292899028649
 20
957.006816986651
 30
0.0
 11
459.1296623519457
 21
990.5710781481315
 31
0.0
  0
LINE
  5
1C8
330
1F
100
AcDbEntity
  8
D-2
  6
Continuous
 62
     3
370
     9
100
AcDbLine
 10
419.1332289135235
 20
992.8946120891965
 30
0.0
 11
459.1300204438235
 21
959.3318352545425
 31
0.0
  0
LINE
  5
1C9
330
1F
100
AcDbEntity
  8
D-2
  6
Continuous
 62
     3
370
     9
100
AcDbLine
 10
419.1296479947426
 20
967.2609148616572
 30
0.0
 11
459.1300204438235
 21
1000.825176023138
 31
0.0
  0
LINE
  5
1CA
330
1F
100
AcDbEntity
  8
D-2
  6
Continuous
 62
     3
370
     9
100
AcDbLine
 10
419.1335870054012
 20
1003.148709964203
 30
0.0
 11
459.1303785357012
 21
969.5859331295487
 31
0.0
  0
LINE
  5
1CB
330
1F
100
AcDbEntity
  8
D-2
  6
Continuous
 62
     3
370
     9
100
AcDbLine
 10
419.1300060866203
 20
977.5150127366634
 30
0.0
 11
459.1303785357012
 21
1011.079273898144
 31
0.0
  0
LINE
  5
1CC
330
1F
100
AcDbEntity
  8
D-2
  6
Continuous
 62
     3
370
     9
100
AcDbLine
 10
419.1339450972789
 20
1013.402807839209
 30
0.0
 11
459.1307366275789
 21
979.8400310045549
 31
0.0
  0
LINE
  5
1CD
330
1F
100
AcDbEntity
  8
D-2
  6
Continuous
 62
     3
370
     9
100
AcDbLine
 10
419.130364178498
 20
987.7691106116696
 30
0.0
 11
459.1307366275789
 21
1021.33337177315
 31
0.0
  0
LINE
  5
1CE
330
1F
100
AcDbEntity
  8
D-2
  6
Continuous
 62
     3
370
     9
100
AcDbLine
 10
419.1343031891566
 20
1023.656905714215
 30
0.0
 11
459.1310947194566
 21
990.0941288795611
 31
0.0
  0
LINE
  5
1CF
330
1F
100
AcDbEntity
  8
D-2
  6
Continuous
 62
     3
370
     9
100
AcDbLine
 10
419.1307222703757
 20
998.0232084866758
 30
0.0
 11
459.1310947194566
 21
1031.587469648156
 31
0.0
  0
LINE
  5
1D0
330
1F
100
AcDbEntity
  8
D-2
  6
Continuous
 62
     3
370
     9
100
AcDbLine
 10
419.1346612810343
 20
1033.911003589221
 30
0.0
 11
459.1314528113343
 21
1000.348226754567
 31
0.0
  0
LINE
  5
1D1
330
1F
100
AcDbEntity
  8
D-2
  6
Continuous
 62
     3
370
     9
100
AcDbLine
 10
419.1310803622534
 20
1008.277306361682
 30
0.0
 11
459.1314528113343
 21
1041.841567523163
 31
0.0
  0
LINE
  5
1D2
330
1F
100
AcDbEntity
  8
D-2
  6
Continuous
 62
     3
370
     9
100
AcDbLine
 10
419.135019372912
 20
1044.165101464228
 30
0.0
 11
459.131810903212
 21
1010.602324629574
 31
0.0
  0
LINE
  5
1D3
330
1F
100
AcDbEntity
  8
D-2
  6
Continuous
 62
     3
370
     9
100
AcDbLine
 10
419.1314384541312
 20
1018.531404236688
 30
0.0
 11
459.131810903212
 21
1052.095665398169
 31
0.0
  0
LINE
  5
1D4
330
1F
100
AcDbEntity
  8
D-2
  6
Continuous
 62
     3
370
     9
100
AcDbLine
 10
419.1353774647897
 20
1054.419199339234
 30
0.0
 11
459.1321689950897
 21
1020.85642250458
 31
0.0
  0
LINE
  5
1D5
330
1F
100
AcDbEntity
  8
D-2
  6
Continuous
 62
     3
370
     9
100
AcDbLine
 10
419.1317965460089
 20
1028.785502111694
 30
0.0
 11
459.1321689950897
 21
1062.349763273175
 31
0.0
  0
LINE
  5
1D6
330
1F
100
AcDbEntity
  8
D-2
  6
Continuous
 62
     3
370
     9
100
AcDbLine
 10
419.1357355566674
 20
1064.67329721424
 30
0.0
 11
459.1325270869675
 21
1031.110520379586
 31
0.0
  0
LINE
  5
1D7
330
1F
100
AcDbEntity
  8
D-2
  6
Continuous
 62
     3
370
     9
100
AcDbLine
 10
455.7785405175753
 20
1064.688168789324
 30
0.0
 11
459.1336013626006
 21
1061.872814004605
 31
0.0
  0
LINE
  5
1D8
330
1F
100
AcDbEntity
  8
D-2
  6
Continuous
 62
     3
370
     9
100
AcDbLine
 10
419.1321546378866
 20
1039.039599986701
 30
0.0
 11
449.6989619915442
 21
1064.688168789324
 31
0.0
  0
LINE
  5
1D9
330
1F
100
AcDbEntity
  8
D-2
  6
Continuous
 62
     3
370
     9
100
AcDbLine
 10
443.5583647074434
 20
1064.688168789324
 30
0.0
 11
459.1332432707229
 21
1051.618716129598
 31
0.0
  0
LINE
  5
1DA
330
1F
100
AcDbEntity
  8
D-2
  6
Continuous
 62
     3
370
     9
100
AcDbLine
 10
419.1325127297643
 20
1049.293697861707
 30
0.0
 11
437.4789487737058
 21
1064.688168789324
 31
0.0
  0
LINE
  5
1DB
330
1F
100
AcDbEntity
  8
D-2
  6
Continuous
 62
     3
370
     9
100
AcDbLine
 10
431.3381888973115
 20
1064.688168789324
 30
0.0
 11
459.1328851788452
 21
1041.364618254592
 31
0.0
  0
LINE
  5
1DC
330
1F
100
AcDbEntity
  8
D-2
  6
Continuous
 62
     3
370
     9
100
AcDbLine
 10
419.132870821642
 20
1059.547795736713
 30
0.0
 11
425.2589355558673
 21
1064.688168789324
 31
0.0
  0
LINE
  5
1DD
330
1F
100
AcDbEntity
  8
D-5
  6
Continuous
 62
     4
370
     9
100
AcDbLine
 10
734.1076971966073
 20
655.1473751767918
 30
0.0
 11
734.1076971966073
 21
605.8979824938499
 31
0.0
  0
LINE
  5
1DE
330
1F
100
AcDbEntity
  8
D-5
  6
Continuous
 62
     4
370
     9
100
AcDbLine
 10
734.1076971966073
 20
655.1473751767918
 30
0.0
 11
737.3708520021092
 21
630.3612536424466
 31
0.0
  0
LINE
  5
1DF
330
1F
100
AcDbEntity
  8
D-5
  6
Continuous
 62
     4
370
     9
100
AcDbLine
 10
734.1076971966073
 20
655.1473751767918
 30
0.0
 11
730.8445423911065
 21
630.3612536424466
 31
0.0
  0
TEXT
  5
1E0
330
1F
100
AcDbEntity
  8
D-5
  6
Continuous
 62
     2
370
     9
100
AcDbText
 10
724.1076971966073
 20
564.852675442549
 30
0.0
 40
30.48
  1
B
 41
0.9999999999999998
  7
ＭＳ ゴシック
100
AcDbText
  0
LINE
  5
1E1
330
1F
100
AcDbEntity
  8
D-2
  6
Continuous
 62
     3
370
     9
100
AcDbLine
 10
520.5264740376869
 20
332.4025296284213
 30
0.0
 11
442.6265466200347
 21
332.4025296284213
 31
0.0
  0
LINE
  5
1E2
330
1F
100
AcDbEntity
  8
D-2
  6
Continuous
 62
     3
370
     9
100
AcDbLine
 10
520.5264740376869
 20
314.7245626599881
 30
0.0
 11
442.6265466200347
 21
314.7245626599881
 31
0.0
  0
LINE
  5
1E3
330
1F
100
AcDbEntity
  8
D-2
  6
Continuous
 62
     3
370
     9
100
AcDbLine
 10
520.5264740376869
 20
297.0469668512885
 30
0.0
 11
442.6265466200347
 21
297.0469668512885
 31
0.0
  0
LINE
  5
1E4
330
1F
100
AcDbEntity
  8
D-2
  6
Continuous
 62
     3
370
     9
100
AcDbLine
 10
605.426474037687
 20
297.0469668512885
 30
0.0
 11
527.5265466200348
 21
297.0469668512885
 31
0.0
  0
LINE
  5
1E5
330
1F
100
AcDbEntity
  8
D-2
  6
Continuous
 62
     3
370
     9
100
AcDbLine
 10
605.426474037687
 20
314.7245626599881
 30
0.0
 11
527.5265466200348
 21
314.7245626599881
 31
0.0
  0
LINE
  5
1E6
330
1F
100
AcDbEntity
  8
D-2
  6
Continuous
 62
     3
370
     9
100
AcDbLine
 10
605.426474037687
 20
332.4025296284213
 30
0.0
 11
527.5265466200348
 21
332.4025296284213
 31
0.0
  0
LINE
  5
1E7
330
1F
100
AcDbEntity
  8
D-2
  6
Continuous
 62
     3
370
     9
100
AcDbLine
 10
612.4265466200349
 20
332.4025296284213
 30
0.0
 11
658.9269227285645
 21
332.4025296284213
 31
0.0
  0
LINE
  5
1E8
330
1F
100
AcDbEntity
  8
D-2
  6
Continuous
 62
     3
370
     9
100
AcDbLine
 10
612.4265466200349
 20
314.7245626599881
 30
0.0
 11
658.9269227285645
 21
314.7245626599881
 31
0.0
  0
LINE
  5
1E9
330
1F
100
AcDbEntity
  8
D-2
  6
Continuous
 62
     3
370
     9
100
AcDbLine
 10
612.4265466200349
 20
297.0469668512885
 30
0.0
 11
658.9269227285645
 21
297.0469668512885
 31
0.0
  0
LINE
  5
1EA
330
1F
100
AcDbEntity
  8
D-2
  6
Continuous
 62
     3
370
     9
100
AcDbLine
 10
435.6264740376868
 20
297.0469668512885
 30
0.0
 11
389.1671399477395
 21
297.0469668512885
 31
0.0
  0
LINE
  5
1EB
330
1F
100
AcDbEntity
  8
D-2
  6
Continuous
 62
     3
370
     9
100
AcDbLine
 10
435.6264740376868
 20
314.7245626599881
 30
0.0
 11
389.1671399477395
 21
314.7245626599881
 31
0.0
  0
LINE
  5
1EC
330
1F
100
AcDbEntity
  8
D-2
  6
Continuous
 62
     3
370
     9
100
AcDbLine
 10
435.6264740376868
 20
332.4025296284213
 30
0.0
 11
389.1671399477395
 21
332.4025296284213
 31
0.0
  0
LINE
  5
1ED
330
1F
100
AcDbEntity
  8
D-5
  6
Continuous
 62
     7
370
     9
100
AcDbLine
 10
528.8499413938565
 20
-106.224944598471
 30
0.0
 11
1174.480148851896
 21
-106.224944598471
 31
0.0
  0
TEXT
  5
1EE
330
1F
100
AcDbEntity
  8
D-5
  6
Continuous
 62
     2
370
     9
100
AcDbText
 10
543.8504296751066
 20
-85.58494459847097
 30
0.0
 40
30.48
  1
メインバー詳細図　Ｓ＝１：２
 41
1.116071428571428
  7
ＭＳ ゴシック
100
AcDbText
  0
LINE
  5
1EF
330
1F
100
AcDbEntity
  8
D-4
  6
Continuous
 62
     7
370
     9
100
AcDbLine
 10
929.008115830389
 20
451.0373937012224
 30
0.0
 11
1119.755925932616
 21
451.0373937012224
 31
0.0
  0
LWPOLYLINE
  5
1F0
330
1F
100
AcDbEntity
  8
D-4
  6
Continuous
 62
     7
370
     9
100
AcDbPolyline
 90
        4
 70
     1
 43
1.0
 10
1120.255925932616
 20
451.0373937012224
 42
0.4142135623731
 10
1119.755925932616
 20
451.5373937012224
 42
0.4142135623731
 10
1119.255925932616
 20
451.0373937012224
 42
0.4142135623731
 10
1119.755925932616
 20
450.5373937012224
 42
0.4142135623731
  0
LINE
  5
1F1
330
1F
100
AcDbEntity
  8
D-4
  6
Continuous
 62
     7
370
     9
100
AcDbLine
 10
1119.755925932616
 20
454.0373937012224
 30
0.0
 11
1119.755925932616
 21
368.23199575226
 31
0.0
  0
TEXT
  5
1F2
330
1F
100
AcDbEntity
  8
D-4
  6
Continuous
 62
     2
370
   211
100
AcDbText
 10
929.008115830389
 20
462.6773937012224
 30
0.0
 40
30.48
  1
100
 41
1.083333333333333
  7
ＭＳ ゴシック
100
AcDbText
  0
LINE
  5
1F3
330
1F
100
AcDbEntity
  8
D-0
  6
Continuous
 62
     3
370
     9
100
AcDbLine
 10
1494.755925932616
 20
280.2243152201656
 30
0.0
 11
929.0082623147641
 21
280.2243152201656
 31
0.0
  0
LINE
  5
1F4
330
1F
100
AcDbEntity
  8
D-0
  6
Continuous
 62
     3
370
     9
100
AcDbLine
 10
1494.755925932616
 20
355.2245626599881
 30
0.0
 11
1494.755925932616
 21
280.2243152201656
 31
0.0
  0
LINE
  5
1F5
330
1F
100
AcDbEntity
  8
D-0
  6
Continuous
 62
     3
370
     9
100
AcDbLine
 10
1479.755876444653
 20
355.2245626599881
 30
0.0
 11
1479.755876444653
 21
280.2243152201656
 31
0.0
  0
LINE
  5
1F6
330
1F
100
AcDbEntity
  8
D-0
  6
Continuous
 62
     3
370
     9
100
AcDbLine
 10
1494.755925932616
 20
355.2245626599881
 30
0.0
 11
929.0082623147641
 21
355.2245626599881
 31
0.0
  0
LINE
  5
1F7
330
1F
100
AcDbEntity
  8
D-0
  6
Continuous
 62
     3
370
     9
100
AcDbLine
 10
929.0082623147641
 20
348.2244900776401
 30
0.0
 11
1479.755876444653
 21
348.2244900776401
 31
0.0
  0
LINE
  5
1F8
330
1F
100
AcDbEntity
  8
D-2
  6
Continuous
 62
     3
370
     9
100
AcDbLine
 10
1124.933604221257
 20
302.224645139929
 30
0.0
 11
1132.255472292942
 21
302.224645139929
 31
0.0
  0
LINE
  5
1F9
330
1F
100
AcDbEntity
  8
D-2
  6
Continuous
 62
     3
370
     9
100
AcDbLine
 10
1132.255472292942
 20
309.5472555310819
 30
0.0
 11
1132.255472292942
 21
302.224645139929
 31
0.0
  0
LINE
  5
1FA
330
1F
100
AcDbEntity
  8
D-2
  6
Continuous
 62
     3
370
     9
100
AcDbLine
 10
1137.433521741316
 20
314.7245626599881
 30
0.0
 11
1119.755554772883
 21
297.0473380110227
 31
0.0
  0
LINE
  5
1FB
330
1F
100
AcDbEntity
  8
D-2
  6
Continuous
 62
     3
370
     9
100
AcDbLine
 10
1119.755925932616
 20
332.4025296284213
 30
0.0
 11
1137.433521741316
 21
314.7245626599881
 31
0.0
  0
LINE
  5
1FC
330
1F
100
AcDbEntity
  8
D-2
  6
Continuous
 62
     3
370
     9
100
AcDbLine
 10
1132.255472292942
 20
327.2252224995151
 30
0.0
 11
1132.255472292942
 21
319.9029832680961
 31
0.0
  0
LINE
  5
1FD
330
1F
100
AcDbEntity
  8
D-2
  6
Continuous
 62
     3
370
     9
100
AcDbLine
 10
1124.933604221257
 20
327.2252224995151
 30
0.0
 11
1132.255472292942
 21
327.2252224995151
 31
0.0
  0
LINE
  5
1FE
330
1F
100
AcDbEntity
  8
D-2
  6
Continuous
 62
     3
370
     9
100
AcDbLine
 10
1102.077958964183
 20
314.7245626599881
 30
0.0
 11
1119.755925932616
 21
332.4025296284213
 31
0.0
  0
LINE
  5
1FF
330
1F
100
AcDbEntity
  8
D-2
  6
Continuous
 62
     3
370
     9
100
AcDbLine
 10
1107.255637252823
 20
327.2252224995151
 30
0.0
 11
1114.57861880371
 21
327.2252224995151
 31
0.0
  0
LINE
  5
200
330
1F
100
AcDbEntity
  8
D-2
  6
Continuous
 62
     3
370
     9
100
AcDbLine
 10
1107.255637252823
 20
327.2252224995151
 30
0.0
 11
1107.255637252823
 21
319.9026121083621
 31
0.0
  0
LINE
  5
201
330
1F
100
AcDbEntity
  8
D-2
  6
Continuous
 62
     3
370
     9
100
AcDbLine
 10
1119.755554772883
 20
297.0473380110227
 30
0.0
 11
1102.077958964183
 21
314.7245626599881
 31
0.0
  0
LINE
  5
202
330
1F
100
AcDbEntity
  8
D-2
  6
Continuous
 62
     3
370
     9
100
AcDbLine
 10
1107.255637252823
 20
309.5472555310819
 30
0.0
 11
1107.255637252823
 21
302.224645139929
 31
0.0
  0
LINE
  5
203
330
1F
100
AcDbEntity
  8
D-2
  6
Continuous
 62
     3
370
     9
100
AcDbLine
 10
1107.255637252823
 20
302.224645139929
 30
0.0
 11
1114.577876484243
 21
302.224645139929
 31
0.0
  0
LINE
  5
204
330
1F
100
AcDbEntity
  8
D-2
  6
JWW_CENTER1
 62
     3
370
     9
100
AcDbLine
 10
1146.263411812051
 20
314.7245626599881
 30
0.0
 11
1093.248068893448
 21
314.7245626599881
 31
0.0
  0
LINE
  5
205
330
1F
100
AcDbEntity
  8
D-4
  6
Continuous
 62
     7
370
     9
100
AcDbLine
 10
1110.916756868533
 20
305.8859503355054
 30
0.0
 11
1095.697721143316
 21
286.0521168282246
 31
0.0
  0
LINE
  5
206
330
1F
100
AcDbEntity
  8
D-4
  6
Continuous
 62
     7
370
     9
100
AcDbLine
 10
1110.916756868533
 20
305.8859503355054
 30
0.0
 11
1091.082923361252
 21
290.6669146102873
 31
0.0
  0
LINE
  5
207
330
1F
100
AcDbEntity
  8
D-2
  6
JWW_CENTER1
 62
     3
370
     9
100
AcDbLine
 10
1119.755925932616
 20
288.2174479402879
 30
0.0
 11
1119.755925932616
 21
341.2327908588901
 31
0.0
  0
LINE
  5
208
330
1F
100
AcDbEntity
  8
D-4
  6
Continuous
 62
     7
370
     9
100
AcDbLine
 10
1110.916756868533
 20
305.8859503355054
 30
0.0
 11
992.2109396059865
 21
187.1801330729588
 31
0.0
  0
LINE
  5
209
330
1F
100
AcDbEntity
  8
D-4
  6
Continuous
 62
     7
370
     9
100
AcDbLine
 10
820.903148985155
 20
187.1801330729588
 30
0.0
 11
992.2109396059865
 21
187.1801330729588
 31
0.0
  0
TEXT
  5
20A
330
1F
100
AcDbEntity
  8
D-5
  6
Continuous
 62
     7
370
     9
100
AcDbText
 10
822.8947708903287
 20
196.4101330729588
 30
0.0
 40
22.86
  1
クロスバー
 41
1.133333333333333
  7
ＭＳ ゴシック
100
AcDbText
  0
LINE
  5
20B
330
1F
100
AcDbEntity
  8
D-4
  6
Continuous
 62
     7
370
     9
100
AcDbLine
 10
1185.598321323077
 20
355.2245626599881
 30
0.0
 11
1200.817357048295
 21
375.0583961672691
 31
0.0
  0
LINE
  5
20C
330
1F
100
AcDbEntity
  8
D-4
  6
Continuous
 62
     7
370
     9
100
AcDbLine
 10
1185.598321323077
 20
355.2245626599881
 30
0.0
 11
1205.432154830358
 21
370.4435983852062
 31
0.0
  0
LINE
  5
20D
330
1F
100
AcDbEntity
  8
D-4
  6
Continuous
 62
     7
370
     9
100
AcDbLine
 10
1185.598321323077
 20
355.2245626599881
 30
0.0
 11
1254.5165038134
 21
424.1427451503113
 31
0.0
  0
LINE
  5
20E
330
1F
100
AcDbEntity
  8
D-4
  6
Continuous
 62
     7
370
     9
100
AcDbLine
 10
1423.067939027919
 20
424.1427451503113
 30
0.0
 11
1254.5165038134
 21
424.1427451503113
 31
0.0
  0
TEXT
  5
20F
330
1F
100
AcDbEntity
  8
D-5
  6
Continuous
 62
     7
370
     9
100
AcDbText
 10
1253.77027026601
 20
433.3727451503113
 30
0.0
 40
22.86
  1
メインバー
 41
1.133333333333332
  7
ＭＳ ゴシック
100
AcDbText
  0
LINE
  5
210
330
1F
100
AcDbEntity
  8
D-5
  6
Continuous
 62
     7
370
     9
100
AcDbLine
 10
1109.520555372178
 20
66.47175814954281
 30
0.0
 11
1306.440677086507
 21
66.47175814954281
 31
0.0
  0
TEXT
  5
211
330
1F
100
AcDbEntity
  8
D-5
  6
Continuous
 62
     2
370
     9
100
AcDbText
 10
1111.757669805069
 20
87.11175814954281
 30
0.0
 40
30.48
  1
C-C断面図
 41
1.097222222222219
  7
ＭＳ ゴシック
100
AcDbText
  0
LINE
  5
212
330
1F
100
AcDbEntity
  8
D-2
  6
Continuous
 62
     3
370
     9
100
AcDbLine
 10
929.008115830389
 20
254.6695421035545
 30
0.0
 11
929.008115830389
 21
304.8396169145545
 31
0.0
  0
LINE
  5
213
330
1F
100
AcDbEntity
  8
D-2
  6
Continuous
 62
     3
370
     9
100
AcDbLine
 10
944.0089703225767
 20
324.8407002885782
 30
0.0
 11
929.008115830389
 21
324.8407002885782
 31
0.0
  0
LINE
  5
214
330
1F
100
AcDbEntity
  8
D-2
  6
Continuous
 62
     3
370
     9
100
AcDbLine
 10
944.0089703225767
 20
324.8407002885782
 30
0.0
 11
914.0079937600758
 21
304.8396169145545
 31
0.0
  0
LINE
  5
215
330
1F
100
AcDbEntity
  8
D-2
  6
Continuous
 62
     3
370
     9
100
AcDbLine
 10
929.008115830389
 20
304.8396169145545
 30
0.0
 11
914.0079937600758
 21
304.8396169145545
 31
0.0
  0
LINE
  5
216
330
1F
100
AcDbEntity
  8
D-2
  6
Continuous
 62
     3
370
     9
100
AcDbLine
 10
929.008115830389
 20
324.8407002885782
 30
0.0
 11
929.008115830389
 21
368.8532155729425
 31
0.0
  0
LINE
  5
217
330
1F
100
AcDbEntity
  8
D-4
  6
Continuous
 62
     7
370
     9
100
AcDbLine
 10
1494.755925932616
 20
327.9220267231524
 30
0.0
 11
1509.974961657835
 21
347.7558602304333
 31
0.0
  0
LINE
  5
218
330
1F
100
AcDbEntity
  8
D-4
  6
Continuous
 62
     7
370
     9
100
AcDbLine
 10
1494.755925932616
 20
327.9220267231524
 30
0.0
 11
1514.589759439898
 21
343.1410624483705
 31
0.0
  0
LINE
  5
219
330
1F
100
AcDbEntity
  8
D-4
  6
Continuous
 62
     7
370
     9
100
AcDbLine
 10
1494.755925932616
 20
327.9220267231524
 30
0.0
 11
1563.674108422941
 21
396.8402092134755
 31
0.0
  0
LINE
  5
21A
330
1F
100
AcDbEntity
  8
D-4
  6
Continuous
 62
     7
370
     9
100
AcDbLine
 10
1563.674108422941
 20
396.8402092134755
 30
0.0
 11
1733.719750365415
 21
396.8402092134755
 31
0.0
  0
TEXT
  5
21B
330
1F
100
AcDbEntity
  8
D-5
  6
Continuous
 62
     7
370
     9
100
AcDbText
 10
1563.674108422941
 20
406.0702092134756
 30
0.0
 40
22.86
  1
サイドバー
 41
1.133333333333333
  7
ＭＳ ゴシック
100
AcDbText
  0
LINE
  5
21C
330
1F
100
AcDbEntity
  8
D-2
  6
Continuous
 62
     3
370
     9
100
AcDbLine
 10
-1012.685679998307
 20
-280.6047716903861
 30
0.0
 11
-1012.685679998307
 21
-355.6050191302091
 31
0.0
  0
LINE
  5
21D
330
1F
100
AcDbEntity
  8
D-2
  6
Continuous
 62
     3
370
     9
100
AcDbLine
 10
-997.6856305103428
 20
-280.6047716903861
 30
0.0
 11
-997.6856305103428
 21
-355.6050191302091
 31
0.0
  0
LINE
  5
21E
330
1F
100
AcDbEntity
  8
D-2
  6
Continuous
 62
     3
370
     9
100
AcDbLine
 10
-1012.685679998307
 20
-280.6047716903861
 30
0.0
 11
-997.6856305103428
 21
-280.6047716903861
 31
0.0
  0
LINE
  5
21F
330
1F
100
AcDbEntity
  8
D-2
  6
Continuous
 62
     3
370
     9
100
AcDbLine
 10
-997.6856305103428
 20
-355.6050191302091
 30
0.0
 11
-1012.685679998307
 21
-355.6050191302091
 31
0.0
  0
LINE
  5
220
330
1F
100
AcDbEntity
  8
D-2
  6
Continuous
 62
     3
370
     9
100
AcDbLine
 10
-1012.685679998307
 20
-355.6050191302091
 30
0.0
 11
-1695.147078618223
 21
-355.6050191302091
 31
0.0
  0
LINE
  5
221
330
1F
100
AcDbEntity
  8
D-2
  6
Continuous
 62
     3
370
     9
100
AcDbLine
 10
-1695.147078618223
 20
-287.6048442727343
 30
0.0
 11
-1012.685679998307
 21
-287.6048442727343
 31
0.0
  0
LINE
  5
222
330
1F
100
AcDbEntity
  8
D-2
  6
Continuous
 62
     3
370
     9
100
AcDbLine
 10
-1012.685679998307
 20
-280.6047716903861
 30
0.0
 11
-1695.147078618223
 21
-280.6047716903861
 31
0.0
  0
LINE
  5
223
330
1F
100
AcDbEntity
  8
D-4
  6
Continuous
 62
     7
370
     9
100
AcDbLine
 10
-1524.792754777068
 20
-280.6047716903861
 30
0.0
 11
-1524.792754777068
 21
-355.6050191302091
 31
0.0
  0
LWPOLYLINE
  5
224
330
1F
100
AcDbEntity
  8
D-4
  6
Continuous
 62
     7
370
     9
100
AcDbPolyline
 90
        4
 70
     1
 43
1.0
 10
-1524.292754777068
 20
-280.6047716903861
 42
0.4142135623731
 10
-1524.792754777068
 20
-280.1047716903861
 42
0.4142135623731
 10
-1525.292754777068
 20
-280.6047716903861
 42
0.4142135623731
 10
-1524.792754777068
 20
-281.1047716903861
 42
0.4142135623731
  0
LWPOLYLINE
  5
225
330
1F
100
AcDbEntity
  8
D-4
  6
Continuous
 62
     7
370
     9
100
AcDbPolyline
 90
        4
 70
     1
 43
1.0
 10
-1524.292754777068
 20
-355.6050191302091
 42
0.4142135623731
 10
-1524.792754777068
 20
-355.1050191302091
 42
0.4142135623731
 10
-1525.292754777068
 20
-355.6050191302091
 42
0.4142135623731
 10
-1524.792754777068
 20
-356.105019130209
 42
0.4142135623731
  0
TEXT
  5
226
330
1F
100
AcDbEntity
  8
D-4
  6
Continuous
 62
     2
370
   211
100
AcDbText
 10
-1535.690616412288
 20
-342.8549317014717
 30
0.0
 40
30.48
  1
15
 50
90.0
 41
1.0625
  7
ＭＳ ゴシック
100
AcDbText
  0
TEXT
  5
227
330
1F
100
AcDbEntity
  8
D-4
  6
Continuous
 62
     2
370
   211
100
AcDbText
 10
-1695.147078618223
 20
-36.79277791927157
 30
0.0
 40
30.48
  1
□450
 41
1.1
  7
ＭＳ ゴシック
100
AcDbText
  0
TEXT
  5
228
330
1F
100
AcDbEntity
  8
D-4
  6
Continuous
 62
     2
370
   211
100
AcDbText
 10
-1695.147078618223
 20
-145.5452002520353
 30
0.0
 40
30.48
  1
□400
 41
1.1
  7
ＭＳ ゴシック
100
AcDbText
  0
LINE
  5
229
330
1F
100
AcDbEntity
  8
D-2
  6
Continuous
 62
     3
370
     9
100
AcDbLine
 10
-1385.184527681024
 20
-326.2823969562072
 30
0.0
 11
-1385.184527681024
 21
-333.6050073473601
 31
0.0
  0
LINE
  5
22A
330
1F
100
AcDbEntity
  8
D-2
  6
Continuous
 62
     3
370
     9
100
AcDbLine
 10
-1385.184527681024
 20
-333.6050073473601
 30
0.0
 11
-1377.862288449604
 21
-333.6050073473601
 31
0.0
  0
LINE
  5
22B
330
1F
100
AcDbEntity
  8
D-2
  6
Continuous
 62
     3
370
     9
100
AcDbLine
 10
-1360.184692640905
 20
-326.2823969562072
 30
0.0
 11
-1360.184692640905
 21
-333.6050073473601
 31
0.0
  0
LINE
  5
22C
330
1F
100
AcDbEntity
  8
D-2
  6
Continuous
 62
     3
370
     9
100
AcDbLine
 10
-1367.50656071259
 20
-333.6050073473601
 30
0.0
 11
-1360.184692640905
 21
-333.6050073473601
 31
0.0
  0
LINE
  5
22D
330
1F
100
AcDbEntity
  8
D-2
  6
Continuous
 62
     3
370
     9
100
AcDbLine
 10
-1360.184692640905
 20
-308.6044299877739
 30
0.0
 11
-1360.184692640905
 21
-315.9266692191929
 31
0.0
  0
LINE
  5
22E
330
1F
100
AcDbEntity
  8
D-2
  6
Continuous
 62
     3
370
     9
100
AcDbLine
 10
-1367.50656071259
 20
-308.6044299877739
 30
0.0
 11
-1360.184692640905
 21
-308.6044299877739
 31
0.0
  0
LINE
  5
22F
330
1F
100
AcDbEntity
  8
D-2
  6
Continuous
 62
     3
370
     9
100
AcDbLine
 10
-1385.184527681024
 20
-308.6044299877739
 30
0.0
 11
-1377.861546130137
 21
-308.6044299877739
 31
0.0
  0
LINE
  5
230
330
1F
100
AcDbEntity
  8
D-2
  6
Continuous
 62
     3
370
     9
100
AcDbLine
 10
-1385.184527681024
 20
-308.6044299877739
 30
0.0
 11
-1385.184527681024
 21
-315.927040378927
 31
0.0
  0
LINE
  5
231
330
1F
100
AcDbEntity
  8
D-2
  6
Continuous
 62
     3
370
     9
100
AcDbLine
 10
-1355.006643192531
 20
-321.105089827301
 30
0.0
 11
-1372.684610160964
 21
-338.7823144762663
 31
0.0
  0
LINE
  5
232
330
1F
100
AcDbEntity
  8
D-2
  6
Continuous
 62
     3
370
     9
100
AcDbLine
 10
-1372.684610160964
 20
-338.7823144762663
 30
0.0
 11
-1390.362205969664
 21
-321.105089827301
 31
0.0
  0
LINE
  5
233
330
1F
100
AcDbEntity
  8
D-2
  6
Continuous
 62
     3
370
     9
100
AcDbLine
 10
-1390.362205969664
 20
-321.105089827301
 30
0.0
 11
-1372.68423900123
 21
-303.4271228588676
 31
0.0
  0
LINE
  5
234
330
1F
100
AcDbEntity
  8
D-2
  6
Continuous
 62
     3
370
     9
100
AcDbLine
 10
-1372.68423900123
 20
-303.4271228588676
 30
0.0
 11
-1355.006643192531
 21
-321.105089827301
 31
0.0
  0
LINE
  5
235
330
1F
100
AcDbEntity
  8
D-2
  6
JWW_CENTER1
 62
     3
370
     9
100
AcDbLine
 10
-1346.176753121796
 20
-321.105089827301
 30
0.0
 11
-1399.192096040399
 21
-321.105089827301
 31
0.0
  0
LINE
  5
236
330
1F
100
AcDbEntity
  8
D-2
  6
JWW_CENTER1
 62
     3
370
     9
100
AcDbLine
 10
-1372.68423900123
 20
-347.6122045470012
 30
0.0
 11
-1372.68423900123
 21
-294.5968616283989
 31
0.0
  0
LINE
  5
237
330
1F
100
AcDbEntity
  8
D-2
  6
Continuous
 62
     3
370
     9
100
AcDbLine
 10
-1715.146877202208
 20
-336.0516269727792
 30
0.0
 11
-1675.146694096739
 21
-306.0509861036387
 31
0.0
  0
LINE
  5
238
330
1F
100
AcDbEntity
  8
D-2
  6
Continuous
 62
     3
370
     9
100
AcDbLine
 10
-1715.146877202208
 20
-336.0516269727792
 30
0.0
 11
-1695.147273930723
 21
-336.0516269727792
 31
0.0
  0
LINE
  5
239
330
1F
100
AcDbEntity
  8
D-2
  6
Continuous
 62
     3
370
     9
100
AcDbLine
 10
-1695.147273930723
 20
-306.0509861036387
 30
0.0
 11
-1675.146694096739
 21
-306.0509861036387
 31
0.0
  0
LINE
  5
23A
330
1F
100
AcDbEntity
  8
D-2
  6
Continuous
 62
     3
370
     9
100
AcDbLine
 10
-1695.147273930723
 20
-306.0509861036387
 30
0.0
 11
-1695.147273930723
 21
-268.3858461578843
 31
0.0
  0
LINE
  5
23B
330
1F
100
AcDbEntity
  8
D-2
  6
Continuous
 62
     3
370
     9
100
AcDbLine
 10
-1695.147273930723
 20
-379.2530185511612
 30
0.0
 11
-1695.147273930723
 21
-336.0516269727792
 31
0.0
  0
TEXT
  5
23C
330
1F
100
AcDbEntity
  8
D-4
  6
Continuous
 62
     2
370
   211
100
AcDbText
 10
-1695.147078618223
 20
73.90288934757415
 30
0.0
 40
30.48
  1
□460
 41
1.1
  7
ＭＳ ゴシック
100
AcDbText
  0
LINE
  5
23D
330
1F
100
AcDbEntity
  8
D-1
  6
Continuous
 62
     2
370
     9
100
AcDbLine
 10
-992.6859863500721
 20
-370.6034556198295
 30
0.0
 11
-1122.695014665616
 21
-370.6044474411186
 31
0.0
  0
LINE
  5
23E
330
1F
100
AcDbEntity
  8
D-1
  6
Continuous
 62
     2
370
     9
100
AcDbLine
 10
-1122.694022844327
 20
-355.603632049578
 30
0.0
 11
-992.6859863500721
 21
-355.6046238708671
 31
0.0
  0
LINE
  5
23F
330
1F
100
AcDbEntity
  8
D-1
  6
Continuous
 62
     2
370
     9
100
AcDbLine
 10
-987.6857157449848
 20
-280.6045237350639
 30
0.0
 11
-972.6858951549656
 21
-280.6045237350639
 31
0.0
  0
LINE
  5
240
330
1F
100
AcDbEntity
  8
D-1
  6
Continuous
 62
     2
370
     9
100
AcDbLine
 10
-1122.686097810758
 20
-370.6044474411186
 30
0.0
 11
-1122.686097810758
 21
-355.6046238708671
 31
0.0
  0
LINE
  5
241
330
1F
100
AcDbEntity
  8
D-1
  6
Continuous
 62
     2
370
     9
100
AcDbLine
 10
-987.686706374181
 20
-350.6043520736869
 30
0.0
 11
-987.6857157449848
 21
-280.6045237350639
 31
0.0
  0
LINE
  5
242
330
1F
100
AcDbEntity
  8
D-1
  6
Continuous
 62
     2
370
     9
100
AcDbLine
 10
-972.6858951549656
 20
-280.6045237350639
 30
0.0
 11
-972.6868845920688
 21
-350.6033650207694
 31
0.0
  0
LINE
  5
243
330
1F
100
AcDbEntity
  8
D-4
  6
Continuous
 62
     7
370
     9
100
AcDbLine
 10
-1695.353858659757
 20
-162.1855059433158
 30
0.0
 11
-1122.686097810758
 21
-162.1855059433158
 31
0.0
  0
LINE
  5
244
330
1F
100
AcDbEntity
  8
D-4
  6
Continuous
 62
     7
370
     9
100
AcDbLine
 10
-1122.686097810758
 20
-162.1855059433158
 30
0.0
 11
-997.6862569551594
 21
-162.1855059433158
 31
0.0
  0
LINE
  5
245
330
1F
100
AcDbEntity
  8
D-4
  6
Continuous
 62
     7
370
     9
100
AcDbLine
 10
-997.6862569551594
 20
-267.649005966204
 30
0.0
 11
-997.6862569551594
 21
-50.4335108566459
 31
0.0
  0
LINE
  5
246
330
1F
100
AcDbEntity
  8
D-4
  6
Continuous
 62
     7
370
     9
100
AcDbLine
 10
-987.6857157449848
 20
-267.649005966204
 30
0.0
 11
-987.6857157449848
 21
-50.4335108566459
 31
0.0
  0
LINE
  5
247
330
1F
100
AcDbEntity
  8
D-4
  6
Continuous
 62
     7
370
     9
100
AcDbLine
 10
-972.6868845920688
 20
-267.649005966204
 30
0.0
 11
-972.6868845920688
 21
60.26311008451621
 31
0.0
  0
LINE
  5
248
330
1F
100
AcDbEntity
  8
D-4
  6
Continuous
 62
     7
370
     9
100
AcDbLine
 10
-1122.686097810758
 20
-815.6875124740776
 30
0.0
 11
-722.6852299671299
 21
-815.6875124740776
 31
0.0
  0
LINE
  5
249
330
1F
100
AcDbEntity
  8
D-4
  6
Continuous
 62
     7
370
     9
100
AcDbLine
 10
-1122.686097810758
 20
-661.2226382064995
 30
0.0
 11
-972.6858951549656
 21
-661.2226382064995
 31
0.0
  0
LINE
  5
24A
330
1F
100
AcDbEntity
  8
D-4
  6
Continuous
 62
     7
370
     9
100
AcDbLine
 10
-546.6560437183506
 20
-280.6045237350639
 30
0.0
 11
-448.0012967090732
 21
-280.6045237350639
 31
0.0
  0
LINE
  5
24B
330
1F
100
AcDbEntity
  8
D-6
  6
Continuous
 62
     6
370
     9
100
AcDbLine
 10
-722.686221788419
 20
-405.6043616104301
 30
0.0
 11
-557.6852108936436
 21
-405.6043616104301
 31
0.0
  0
LINE
  5
24C
330
1F
100
AcDbEntity
  8
D-6
  6
Continuous
 62
     6
370
     9
100
AcDbLine
 10
-1122.686097810758
 20
-370.6044474411186
 30
0.0
 11
-1122.686097810758
 21
-755.6035128402885
 31
0.0
  0
LINE
  5
24D
330
1F
100
AcDbEntity
  8
D-6
  6
Continuous
 62
     6
370
     9
100
AcDbLine
 10
-972.6858951549656
 20
-580.6039324569876
 30
0.0
 11
-972.6858951549656
 21
-755.6035128402885
 31
0.0
  0
LINE
  5
24E
330
1F
100
AcDbEntity
  8
D-6
  6
Continuous
 62
     6
370
     9
100
AcDbLine
 10
-722.686221788419
 20
-405.6043616104301
 30
0.0
 11
-722.686221788419
 21
-580.6039324569876
 31
0.0
  0
LINE
  5
24F
330
1F
100
AcDbEntity
  8
D-6
  6
Continuous
 62
     6
370
     9
100
AcDbLine
 10
-972.6858951549656
 20
-580.6039324569876
 30
0.0
 11
-722.686221788419
 21
-580.6039324569876
 31
0.0
  0
LINE
  5
250
330
1F
100
AcDbEntity
  8
D-4
  6
Continuous
 62
     7
370
     9
100
AcDbLine
 10
-451.0008694629795
 20
-580.6044283676322
 30
0.0
 11
-451.0008694629795
 21
-280.6045237350639
 31
0.0
  0
LINE
  5
251
330
1F
100
AcDbEntity
  8
D-4
  6
Continuous
 62
     7
370
     9
100
AcDbLine
 10
-700.4495884876377
 20
-580.6044283676322
 30
0.0
 11
-448.0012967090732
 21
-580.6044283676322
 31
0.0
  0
LINE
  5
252
330
1F
100
AcDbEntity
  8
D-4
  6
Continuous
 62
     7
370
     9
100
AcDbLine
 10
-1122.686097810758
 20
-267.649005966204
 30
0.0
 11
-1122.686097810758
 21
-159.1849509048637
 31
0.0
  0
LINE
  5
253
330
1F
100
AcDbEntity
  8
D-4
  6
Continuous
 62
     7
370
     9
100
AcDbLine
 10
-1695.353858659757
 20
57.26258365629356
 30
0.0
 11
-972.6868845920688
 21
57.26258365629356
 31
0.0
  0
LINE
  5
254
330
1F
100
AcDbEntity
  8
D-6
  6
Continuous
 62
     6
370
     9
100
AcDbLine
 10
-972.6858951549656
 20
-280.6045237350639
 30
0.0
 11
-557.6852108936436
 21
-280.6045237350639
 31
0.0
  0
LINE
  5
255
330
1F
100
AcDbEntity
  8
D-4
  6
Continuous
 62
     7
370
     9
100
AcDbLine
 10
-1695.353858659757
 20
-53.43308361055215
 30
0.0
 11
-927.0006968479282
 21
-53.43308361055215
 31
0.0
  0
LINE
  5
256
330
1F
100
AcDbEntity
  8
D-4
  6
Continuous
 62
     7
370
     9
100
AcDbLine
 10
-1122.686097810758
 20
-780.6038561630425
 30
0.0
 11
-1122.686097810758
 21
-818.6870852279839
 31
0.0
  0
LINE
  5
257
330
1F
100
AcDbEntity
  8
D-0
  6
Continuous
 62
     7
370
     9
100
AcDbLine
 10
-810.9901501636631
 20
-529.3164721298392
 30
0.0
 11
-810.9901501636631
 21
-527.8161898422416
 31
0.0
  0
LINE
  5
258
330
1F
100
AcDbEntity
  8
D-0
  6
Continuous
 62
     7
370
     9
100
AcDbLine
 10
-810.9901501636631
 20
-527.8161898422416
 30
0.0
 11
-809.4898869495518
 21
-527.8161898422416
 31
0.0
  0
LINE
  5
259
330
1F
100
AcDbEntity
  8
D-0
  6
Continuous
 62
     7
370
     9
100
AcDbLine
 10
-809.4898869495518
 20
-527.8161898422416
 30
0.0
 11
-809.4898869495518
 21
-529.3164721298392
 31
0.0
  0
LINE
  5
25A
330
1F
100
AcDbEntity
  8
D-0
  6
Continuous
 62
     7
370
     9
100
AcDbLine
 10
-809.4898869495518
 20
-529.3164721298392
 30
0.0
 11
-810.9901501636631
 21
-529.3164721298392
 31
0.0
  0
LINE
  5
25B
330
1F
100
AcDbEntity
  8
D-0
  6
Continuous
 62
     7
370
     9
100
AcDbLine
 10
-777.8170277576572
 20
-513.6209574508841
 30
0.0
 11
-777.8170277576572
 21
-512.1206751632865
 31
0.0
  0
LINE
  5
25C
330
1F
100
AcDbEntity
  8
D-0
  6
Continuous
 62
     7
370
     9
100
AcDbLine
 10
-777.8170277576572
 20
-512.1206751632865
 30
0.0
 11
-776.3167645435459
 21
-512.1206751632865
 31
0.0
  0
LINE
  5
25D
330
1F
100
AcDbEntity
  8
D-0
  6
Continuous
 62
     7
370
     9
100
AcDbLine
 10
-776.3167645435459
 20
-512.1206751632865
 30
0.0
 11
-776.3167645435459
 21
-513.6209574508841
 31
0.0
  0
LINE
  5
25E
330
1F
100
AcDbEntity
  8
D-0
  6
Continuous
 62
     7
370
     9
100
AcDbLine
 10
-776.3167645435459
 20
-513.6209574508841
 30
0.0
 11
-777.8170277576572
 21
-513.6209574508841
 31
0.0
  0
LINE
  5
25F
330
1F
100
AcDbEntity
  8
D-0
  6
Continuous
 62
     7
370
     9
100
AcDbLine
 10
-742.5753285389072
 20
-498.6558047104057
 30
0.0
 11
-742.5753285389072
 21
-497.1555414962943
 31
0.0
  0
LINE
  5
260
330
1F
100
AcDbEntity
  8
D-0
  6
Continuous
 62
     7
370
     9
100
AcDbLine
 10
-742.5753285389072
 20
-497.1555414962943
 30
0.0
 11
-741.0760380725986
 21
-497.1555414962943
 31
0.0
  0
LINE
  5
261
330
1F
100
AcDbEntity
  8
D-0
  6
Continuous
 62
     7
370
     9
100
AcDbLine
 10
-741.0760380725986
 20
-497.1555414962943
 30
0.0
 11
-741.0760380725986
 21
-498.6558047104057
 31
0.0
  0
LINE
  5
262
330
1F
100
AcDbEntity
  8
D-0
  6
Continuous
 62
     7
370
     9
100
AcDbLine
 10
-741.0760380725986
 20
-498.6558047104057
 30
0.0
 11
-742.5753285389072
 21
-498.6558047104057
 31
0.0
  0
LINE
  5
263
330
1F
100
AcDbEntity
  8
D-0
  6
Continuous
 62
     7
370
     9
100
AcDbLine
 10
-781.2000920276768
 20
-549.4884386825736
 30
0.0
 11
-781.2000920276768
 21
-547.9881563949759
 31
0.0
  0
LINE
  5
264
330
1F
100
AcDbEntity
  8
D-0
  6
Continuous
 62
     7
370
     9
100
AcDbLine
 10
-781.2000920276768
 20
-547.9881563949759
 30
0.0
 11
-779.7008015613682
 21
-547.9881563949759
 31
0.0
  0
LINE
  5
265
330
1F
100
AcDbEntity
  8
D-0
  6
Continuous
 62
     7
370
     9
100
AcDbLine
 10
-779.7008015613682
 20
-547.9881563949759
 30
0.0
 11
-779.7008015613682
 21
-549.4884386825736
 31
0.0
  0
LINE
  5
266
330
1F
100
AcDbEntity
  8
D-0
  6
Continuous
 62
     7
370
     9
100
AcDbLine
 10
-779.7008015613682
 20
-549.4884386825736
 30
0.0
 11
-781.2000920276768
 21
-549.4884386825736
 31
0.0
  0
LINE
  5
267
330
1F
100
AcDbEntity
  8
D-0
  6
Continuous
 62
     7
370
     9
100
AcDbLine
 10
-827.9872204761631
 20
-565.521992759722
 30
0.0
 11
-827.9872204761631
 21
-564.0217104721244
 31
0.0
  0
LINE
  5
268
330
1F
100
AcDbEntity
  8
D-0
  6
Continuous
 62
     7
370
     9
100
AcDbLine
 10
-827.9872204761631
 20
-564.0217104721244
 30
0.0
 11
-826.4869381885654
 21
-564.0217104721244
 31
0.0
  0
LINE
  5
269
330
1F
100
AcDbEntity
  8
D-0
  6
Continuous
 62
     7
370
     9
100
AcDbLine
 10
-826.4869381885654
 20
-564.0217104721244
 30
0.0
 11
-826.4869381885654
 21
-565.521992759722
 31
0.0
  0
LINE
  5
26A
330
1F
100
AcDbEntity
  8
D-0
  6
Continuous
 62
     7
370
     9
100
AcDbLine
 10
-826.4869381885654
 20
-565.521992759722
 30
0.0
 11
-827.9872204761631
 21
-565.521992759722
 31
0.0
  0
LINE
  5
26B
330
1F
100
AcDbEntity
  8
D-0
  6
Continuous
 62
     7
370
     9
100
AcDbLine
 10
-749.3434407215244
 20
-560.2396097946341
 30
0.0
 11
-749.3434407215244
 21
-558.7393275070365
 31
0.0
  0
LINE
  5
26C
330
1F
100
AcDbEntity
  8
D-0
  6
Continuous
 62
     7
370
     9
100
AcDbLine
 10
-749.3434407215244
 20
-558.7393275070365
 30
0.0
 11
-747.8431584339268
 21
-558.7393275070365
 31
0.0
  0
LINE
  5
26D
330
1F
100
AcDbEntity
  8
D-0
  6
Continuous
 62
     7
370
     9
100
AcDbLine
 10
-747.8431584339268
 20
-558.7393275070365
 30
0.0
 11
-747.8431584339268
 21
-560.2396097946341
 31
0.0
  0
LINE
  5
26E
330
1F
100
AcDbEntity
  8
D-0
  6
Continuous
 62
     7
370
     9
100
AcDbLine
 10
-747.8431584339268
 20
-560.2396097946341
 30
0.0
 11
-749.3434407215244
 21
-560.2396097946341
 31
0.0
  0
LINE
  5
26F
330
1F
100
AcDbEntity
  8
D-0
  6
Continuous
 62
     7
370
     9
100
AcDbLine
 10
-945.5599667530186
 20
-301.5534392166313
 30
0.0
 11
-945.5599667530186
 21
-300.0531593132194
 31
0.0
  0
LINE
  5
270
330
1F
100
AcDbEntity
  8
D-0
  6
Continuous
 62
     7
370
     9
100
AcDbLine
 10
-945.5599667530186
 20
-300.0531593132194
 30
0.0
 11
-944.06067628671
 21
-300.0531593132194
 31
0.0
  0
LINE
  5
271
330
1F
100
AcDbEntity
  8
D-0
  6
Continuous
 62
     7
370
     9
100
AcDbLine
 10
-944.06067628671
 20
-300.0531593132194
 30
0.0
 11
-944.06067628671
 21
-301.5534392166313
 31
0.0
  0
LINE
  5
272
330
1F
100
AcDbEntity
  8
D-0
  6
Continuous
 62
     7
370
     9
100
AcDbLine
 10
-944.06067628671
 20
-301.5534392166313
 30
0.0
 11
-945.5599667530186
 21
-301.5534392166313
 31
0.0
  0
LINE
  5
273
330
1F
100
AcDbEntity
  8
D-0
  6
Continuous
 62
     7
370
     9
100
AcDbLine
 10
-907.1715428333408
 20
-294.3135872650321
 30
0.0
 11
-907.1715428333408
 21
-292.8133073616203
 31
0.0
  0
LINE
  5
274
330
1F
100
AcDbEntity
  8
D-0
  6
Continuous
 62
     7
370
     9
100
AcDbLine
 10
-907.1715428333408
 20
-292.8133073616203
 30
0.0
 11
-905.6722619037754
 21
-292.8133073616203
 31
0.0
  0
LINE
  5
275
330
1F
100
AcDbEntity
  8
D-0
  6
Continuous
 62
     7
370
     9
100
AcDbLine
 10
-905.6722619037754
 20
-292.8133073616203
 30
0.0
 11
-905.6722619037754
 21
-294.3135872650321
 31
0.0
  0
LINE
  5
276
330
1F
100
AcDbEntity
  8
D-0
  6
Continuous
 62
     7
370
     9
100
AcDbLine
 10
-905.6722619037754
 20
-294.3135872650321
 30
0.0
 11
-907.1715428333408
 21
-294.3135872650321
 31
0.0
  0
LINE
  5
277
330
1F
100
AcDbEntity
  8
D-0
  6
Continuous
 62
     7
370
     9
100
AcDbLine
 10
-848.7859990100986
 20
-324.563011245745
 30
0.0
 11
-848.7859990100986
 21
-323.062733726519
 31
0.0
  0
LINE
  5
278
330
1F
100
AcDbEntity
  8
D-0
  6
Continuous
 62
     7
370
     9
100
AcDbLine
 10
-848.7859990100986
 20
-323.062733726519
 30
0.0
 11
-847.2857262592441
 21
-323.062733726519
 31
0.0
  0
LINE
  5
279
330
1F
100
AcDbEntity
  8
D-0
  6
Continuous
 62
     7
370
     9
100
AcDbLine
 10
-847.2857262592441
 20
-323.062733726519
 30
0.0
 11
-847.2857262592441
 21
-324.563011245745
 31
0.0
  0
LINE
  5
27A
330
1F
100
AcDbEntity
  8
D-0
  6
Continuous
 62
     7
370
     9
100
AcDbLine
 10
-847.2857262592441
 20
-324.563011245745
 30
0.0
 11
-848.7859990100986
 21
-324.563011245745
 31
0.0
  0
LINE
  5
27B
330
1F
100
AcDbEntity
  8
D-0
  6
Continuous
 62
     7
370
     9
100
AcDbLine
 10
-825.0996281604893
 20
-303.5838690567192
 30
0.0
 11
-825.0996281604893
 21
-302.0835891533073
 31
0.0
  0
LINE
  5
27C
330
1F
100
AcDbEntity
  8
D-0
  6
Continuous
 62
     7
370
     9
100
AcDbLine
 10
-825.0996281604893
 20
-302.0835891533073
 30
0.0
 11
-823.5993458728916
 21
-302.0835891533073
 31
0.0
  0
LINE
  5
27D
330
1F
100
AcDbEntity
  8
D-0
  6
Continuous
 62
     7
370
     9
100
AcDbLine
 10
-823.5993458728916
 20
-302.0835891533073
 30
0.0
 11
-823.5993458728916
 21
-303.5838690567192
 31
0.0
  0
LINE
  5
27E
330
1F
100
AcDbEntity
  8
D-0
  6
Continuous
 62
     7
370
     9
100
AcDbLine
 10
-823.5993458728916
 20
-303.5838690567192
 30
0.0
 11
-825.0996281604893
 21
-303.5838690567192
 31
0.0
  0
LINE
  5
27F
330
1F
100
AcDbEntity
  8
D-0
  6
Continuous
 62
     7
370
     9
100
AcDbLine
 10
-817.4812962513096
 20
-456.500119285601
 30
0.0
 11
-817.4812962513096
 21
-454.9998369980033
 31
0.0
  0
LINE
  5
280
330
1F
100
AcDbEntity
  8
D-0
  6
Continuous
 62
     7
370
     9
100
AcDbLine
 10
-817.4812962513096
 20
-454.9998369980033
 30
0.0
 11
-815.9810139637119
 21
-454.9998369980033
 31
0.0
  0
LINE
  5
281
330
1F
100
AcDbEntity
  8
D-0
  6
Continuous
 62
     7
370
     9
100
AcDbLine
 10
-815.9810139637119
 20
-454.9998369980033
 30
0.0
 11
-815.9810139637119
 21
-456.500119285601
 31
0.0
  0
LINE
  5
282
330
1F
100
AcDbEntity
  8
D-0
  6
Continuous
 62
     7
370
     9
100
AcDbLine
 10
-815.9810139637119
 20
-456.500119285601
 30
0.0
 11
-817.4812962513096
 21
-456.500119285601
 31
0.0
  0
LINE
  5
283
330
1F
100
AcDbEntity
  8
D-0
  6
Continuous
 62
     7
370
     9
100
AcDbLine
 10
-695.8407284717686
 20
-301.5534392166313
 30
0.0
 11
-695.8407284717686
 21
-300.0531593132194
 31
0.0
  0
LINE
  5
284
330
1F
100
AcDbEntity
  8
D-0
  6
Continuous
 62
     7
370
     9
100
AcDbLine
 10
-695.8407284717686
 20
-300.0531593132194
 30
0.0
 11
-694.3404652576572
 21
-300.0531593132194
 31
0.0
  0
LINE
  5
285
330
1F
100
AcDbEntity
  8
D-0
  6
Continuous
 62
     7
370
     9
100
AcDbLine
 10
-694.3404652576572
 20
-300.0531593132194
 30
0.0
 11
-694.3404652576572
 21
-301.5534392166313
 31
0.0
  0
LINE
  5
286
330
1F
100
AcDbEntity
  8
D-0
  6
Continuous
 62
     7
370
     9
100
AcDbLine
 10
-694.3404652576572
 20
-301.5534392166313
 30
0.0
 11
-695.8407284717686
 21
-301.5534392166313
 31
0.0
  0
LINE
  5
287
330
1F
100
AcDbEntity
  8
D-0
  6
Continuous
 62
     7
370
     9
100
AcDbLine
 10
-645.0848843555576
 20
-304.2606797981437
 30
0.0
 11
-645.0848843555576
 21
-302.7603998947318
 31
0.0
  0
LINE
  5
288
330
1F
100
AcDbEntity
  8
D-0
  6
Continuous
 62
     7
370
     9
100
AcDbLine
 10
-645.0848843555576
 20
-302.7603998947318
 30
0.0
 11
-643.58460206796
 21
-302.7603998947318
 31
0.0
  0
LINE
  5
289
330
1F
100
AcDbEntity
  8
D-0
  6
Continuous
 62
     7
370
     9
100
AcDbLine
 10
-643.58460206796
 20
-302.7603998947318
 30
0.0
 11
-643.58460206796
 21
-304.2606797981437
 31
0.0
  0
LINE
  5
28A
330
1F
100
AcDbEntity
  8
D-0
  6
Continuous
 62
     7
370
     9
100
AcDbLine
 10
-643.58460206796
 20
-304.2606797981437
 30
0.0
 11
-645.0848843555576
 21
-304.2606797981437
 31
0.0
  0
LINE
  5
28B
330
1F
100
AcDbEntity
  8
D-0
  6
Continuous
 62
     7
370
     9
100
AcDbLine
 10
-580.1170422535068
 20
-302.2302499580558
 30
0.0
 11
-580.1170422535068
 21
-300.729970054644
 31
0.0
  0
LINE
  5
28C
330
1F
100
AcDbEntity
  8
D-0
  6
Continuous
 62
     7
370
     9
100
AcDbLine
 10
-580.1170422535068
 20
-300.729970054644
 30
0.0
 11
-578.6167599659092
 21
-300.729970054644
 31
0.0
  0
LINE
  5
28D
330
1F
100
AcDbEntity
  8
D-0
  6
Continuous
 62
     7
370
     9
100
AcDbLine
 10
-578.6167599659092
 20
-300.729970054644
 30
0.0
 11
-578.6167599659092
 21
-302.2302499580558
 31
0.0
  0
LINE
  5
28E
330
1F
100
AcDbEntity
  8
D-0
  6
Continuous
 62
     7
370
     9
100
AcDbLine
 10
-578.6167599659092
 20
-302.2302499580558
 30
0.0
 11
-580.1170422535068
 21
-302.2302499580558
 31
0.0
  0
LINE
  5
28F
330
1F
100
AcDbEntity
  8
D-0
  6
Continuous
 62
     7
370
     9
100
AcDbLine
 10
-614.8910214405186
 20
-332.9790726471122
 30
0.0
 11
-614.8910214405186
 21
-331.4787951278861
 31
0.0
  0
LINE
  5
290
330
1F
100
AcDbEntity
  8
D-0
  6
Continuous
 62
     7
370
     9
100
AcDbLine
 10
-614.8910214405186
 20
-331.4787951278861
 30
0.0
 11
-613.3907391529209
 21
-331.4787951278861
 31
0.0
  0
LINE
  5
291
330
1F
100
AcDbEntity
  8
D-0
  6
Continuous
 62
     7
370
     9
100
AcDbLine
 10
-613.3907391529209
 20
-331.4787951278861
 30
0.0
 11
-613.3907391529209
 21
-332.9790726471122
 31
0.0
  0
LINE
  5
292
330
1F
100
AcDbEntity
  8
D-0
  6
Continuous
 62
     7
370
     9
100
AcDbLine
 10
-613.3907391529209
 20
-332.9790726471122
 30
0.0
 11
-614.8910214405186
 21
-332.9790726471122
 31
0.0
  0
LINE
  5
293
330
1F
100
AcDbEntity
  8
D-0
  6
Continuous
 62
     7
370
     9
100
AcDbLine
 10
-644.4080807666904
 20
-358.400057868975
 30
0.0
 11
-644.4080807666904
 21
-356.8997803497489
 31
0.0
  0
LINE
  5
294
330
1F
100
AcDbEntity
  8
D-0
  6
Continuous
 62
     7
370
     9
100
AcDbLine
 10
-644.4080807666904
 20
-356.8997803497489
 30
0.0
 11
-642.9077984790928
 21
-356.8997803497489
 31
0.0
  0
LINE
  5
295
330
1F
100
AcDbEntity
  8
D-0
  6
Continuous
 62
     7
370
     9
100
AcDbLine
 10
-642.9077984790928
 20
-356.8997803497489
 30
0.0
 11
-642.9077984790928
 21
-358.400057868975
 31
0.0
  0
LINE
  5
296
330
1F
100
AcDbEntity
  8
D-0
  6
Continuous
 62
     7
370
     9
100
AcDbLine
 10
-642.9077984790928
 20
-358.400057868975
 30
0.0
 11
-644.4080807666904
 21
-358.400057868975
 31
0.0
  0
LINE
  5
297
330
1F
100
AcDbEntity
  8
D-0
  6
Continuous
 62
     7
370
     9
100
AcDbLine
 10
-682.240607927335
 20
-379.8166838455375
 30
0.0
 11
-682.240607927335
 21
-378.3164015579399
 31
0.0
  0
LINE
  5
298
330
1F
100
AcDbEntity
  8
D-0
  6
Continuous
 62
     7
370
     9
100
AcDbLine
 10
-682.240607927335
 20
-378.3164015579399
 30
0.0
 11
-680.7413174610264
 21
-378.3164015579399
 31
0.0
  0
LINE
  5
299
330
1F
100
AcDbEntity
  8
D-0
  6
Continuous
 62
     7
370
     9
100
AcDbLine
 10
-680.7413174610264
 20
-378.3164015579399
 30
0.0
 11
-680.7413174610264
 21
-379.8166838455375
 31
0.0
  0
LINE
  5
29A
330
1F
100
AcDbEntity
  8
D-0
  6
Continuous
 62
     7
370
     9
100
AcDbLine
 10
-680.7413174610264
 20
-379.8166838455375
 30
0.0
 11
-682.240607927335
 21
-379.8166838455375
 31
0.0
  0
LINE
  5
29B
330
1F
100
AcDbEntity
  8
D-0
  6
Continuous
 62
     7
370
     9
100
AcDbLine
 10
-697.1943547229893
 20
-343.5117188263114
 30
0.0
 11
-697.1943547229893
 21
-342.0114413070854
 31
0.0
  0
LINE
  5
29C
330
1F
100
AcDbEntity
  8
D-0
  6
Continuous
 62
     7
370
     9
100
AcDbLine
 10
-697.1943547229893
 20
-342.0114413070854
 30
0.0
 11
-695.6940724353916
 21
-342.0114413070854
 31
0.0
  0
LINE
  5
29D
330
1F
100
AcDbEntity
  8
D-0
  6
Continuous
 62
     7
370
     9
100
AcDbLine
 10
-695.6940724353916
 20
-342.0114413070854
 30
0.0
 11
-695.6940724353916
 21
-343.5117188263114
 31
0.0
  0
LINE
  5
29E
330
1F
100
AcDbEntity
  8
D-0
  6
Continuous
 62
     7
370
     9
100
AcDbLine
 10
-695.6940724353916
 20
-343.5117188263114
 30
0.0
 11
-697.1943547229893
 21
-343.5117188263114
 31
0.0
  0
LINE
  5
29F
330
1F
100
AcDbEntity
  8
D-0
  6
Continuous
 62
     7
370
     9
100
AcDbLine
 10
-613.6042859058506
 20
-389.1581240463432
 30
0.0
 11
-613.6042859058506
 21
-387.6578512954887
 31
0.0
  0
LINE
  5
2A0
330
1F
100
AcDbEntity
  8
D-0
  6
Continuous
 62
     7
370
     9
100
AcDbLine
 10
-613.6042859058506
 20
-387.6578512954887
 30
0.0
 11
-612.104995439542
 21
-387.6578512954887
 31
0.0
  0
LINE
  5
2A1
330
1F
100
AcDbEntity
  8
D-0
  6
Continuous
 62
     7
370
     9
100
AcDbLine
 10
-612.104995439542
 20
-387.6578512954887
 30
0.0
 11
-612.104995439542
 21
-389.1581240463432
 31
0.0
  0
LINE
  5
2A2
330
1F
100
AcDbEntity
  8
D-0
  6
Continuous
 62
     7
370
     9
100
AcDbLine
 10
-612.104995439542
 20
-389.1581240463432
 30
0.0
 11
-613.6042859058506
 21
-389.1581240463432
 31
0.0
  0
LINE
  5
2A3
330
1F
100
AcDbEntity
  8
D-0
  6
Continuous
 62
     7
370
     9
100
AcDbLine
 10
-570.6863095264561
 20
-390.6426897812065
 30
0.0
 11
-570.6863095264561
 21
-389.1424074936088
 31
0.0
  0
LINE
  5
2A4
330
1F
100
AcDbEntity
  8
D-0
  6
Continuous
 62
     7
370
     9
100
AcDbLine
 10
-570.6863095264561
 20
-389.1424074936088
 30
0.0
 11
-569.1860272388584
 21
-389.1424074936088
 31
0.0
  0
LINE
  5
2A5
330
1F
100
AcDbEntity
  8
D-0
  6
Continuous
 62
     7
370
     9
100
AcDbLine
 10
-569.1860272388584
 20
-389.1424074936088
 30
0.0
 11
-569.1860272388584
 21
-390.6426897812065
 31
0.0
  0
LINE
  5
2A6
330
1F
100
AcDbEntity
  8
D-0
  6
Continuous
 62
     7
370
     9
100
AcDbLine
 10
-569.1860272388584
 20
-390.6426897812065
 30
0.0
 11
-570.6863095264561
 21
-390.6426897812065
 31
0.0
  0
LINE
  5
2A7
330
1F
100
AcDbEntity
  8
D-0
  6
Continuous
 62
     7
370
     9
100
AcDbLine
 10
-571.3407971363193
 20
-352.1557608413871
 30
0.0
 11
-571.3407971363193
 21
-350.6554785537895
 31
0.0
  0
LINE
  5
2A8
330
1F
100
AcDbEntity
  8
D-0
  6
Continuous
 62
     7
370
     9
100
AcDbLine
 10
-571.3407971363193
 20
-350.6554785537895
 30
0.0
 11
-569.8405148487217
 21
-350.6554785537895
 31
0.0
  0
LINE
  5
2A9
330
1F
100
AcDbEntity
  8
D-0
  6
Continuous
 62
     7
370
     9
100
AcDbLine
 10
-569.8405148487217
 20
-350.6554785537895
 30
0.0
 11
-569.8405148487217
 21
-352.1557608413871
 31
0.0
  0
LINE
  5
2AA
330
1F
100
AcDbEntity
  8
D-0
  6
Continuous
 62
     7
370
     9
100
AcDbLine
 10
-569.8405148487217
 20
-352.1557608413871
 30
0.0
 11
-571.3407971363193
 21
-352.1557608413871
 31
0.0
  0
LINE
  5
2AB
330
1F
100
AcDbEntity
  8
D-0
  6
Continuous
 62
     7
370
     9
100
AcDbLine
 10
-1099.900481889737
 20
-412.1541968155082
 30
0.0
 11
-1099.900481889737
 21
-410.6539145279106
 31
0.0
  0
LINE
  5
2AC
330
1F
100
AcDbEntity
  8
D-0
  6
Continuous
 62
     7
370
     9
100
AcDbLine
 10
-1099.900481889737
 20
-410.6539145279106
 30
0.0
 11
-1098.401191423429
 21
-410.6539145279106
 31
0.0
  0
LINE
  5
2AD
330
1F
100
AcDbEntity
  8
D-0
  6
Continuous
 62
     7
370
     9
100
AcDbLine
 10
-1098.401191423429
 20
-410.6539145279106
 30
0.0
 11
-1098.401191423429
 21
-412.1541968155082
 31
0.0
  0
LINE
  5
2AE
330
1F
100
AcDbEntity
  8
D-0
  6
Continuous
 62
     7
370
     9
100
AcDbLine
 10
-1098.401191423429
 20
-412.1541968155082
 30
0.0
 11
-1099.900481889737
 21
-412.1541968155082
 31
0.0
  0
LINE
  5
2AF
330
1F
100
AcDbEntity
  8
D-0
  6
Continuous
 62
     7
370
     9
100
AcDbLine
 10
-1059.549496362699
 20
-428.5229960251029
 30
0.0
 11
-1059.549496362699
 21
-427.0227137375053
 31
0.0
  0
LINE
  5
2B0
330
1F
100
AcDbEntity
  8
D-0
  6
Continuous
 62
     7
370
     9
100
AcDbLine
 10
-1059.549496362699
 20
-427.0227137375053
 30
0.0
 11
-1058.05020589639
 21
-427.0227137375053
 31
0.0
  0
LINE
  5
2B1
330
1F
100
AcDbEntity
  8
D-0
  6
Continuous
 62
     7
370
     9
100
AcDbLine
 10
-1058.05020589639
 20
-427.0227137375053
 30
0.0
 11
-1058.05020589639
 21
-428.5229960251029
 31
0.0
  0
LINE
  5
2B2
330
1F
100
AcDbEntity
  8
D-0
  6
Continuous
 62
     7
370
     9
100
AcDbLine
 10
-1058.05020589639
 20
-428.5229960251029
 30
0.0
 11
-1059.549496362699
 21
-428.5229960251029
 31
0.0
  0
LINE
  5
2B3
330
1F
100
AcDbEntity
  8
D-0
  6
Continuous
 62
     7
370
     9
100
AcDbLine
 10
-1006.255884955419
 20
-435.7553568649467
 30
0.0
 11
-1006.255884955419
 21
-434.255074577349
 31
0.0
  0
LINE
  5
2B4
330
1F
100
AcDbEntity
  8
D-0
  6
Continuous
 62
     7
370
     9
100
AcDbLine
 10
-1006.255884955419
 20
-434.255074577349
 30
0.0
 11
-1004.755605648053
 21
-434.255074577349
 31
0.0
  0
LINE
  5
2B5
330
1F
100
AcDbEntity
  8
D-0
  6
Continuous
 62
     7
370
     9
100
AcDbLine
 10
-1004.755605648053
 20
-434.255074577349
 30
0.0
 11
-1004.755605648053
 21
-435.7553568649467
 31
0.0
  0
LINE
  5
2B6
330
1F
100
AcDbEntity
  8
D-0
  6
Continuous
 62
     7
370
     9
100
AcDbLine
 10
-1004.755605648053
 20
-435.7553568649467
 30
0.0
 11
-1006.255884955419
 21
-435.7553568649467
 31
0.0
  0
LINE
  5
2B7
330
1F
100
AcDbEntity
  8
D-0
  6
Continuous
 62
     7
370
     9
100
AcDbLine
 10
-1005.113333652509
 20
-574.1994181442435
 30
0.0
 11
-1005.113333652509
 21
-572.6991358566459
 31
0.0
  0
LINE
  5
2B8
330
1F
100
AcDbEntity
  8
D-0
  6
Continuous
 62
     7
370
     9
100
AcDbLine
 10
-1005.113333652509
 20
-572.6991358566459
 30
0.0
 11
-1003.613054345143
 21
-572.6991358566459
 31
0.0
  0
LINE
  5
2B9
330
1F
100
AcDbEntity
  8
D-0
  6
Continuous
 62
     7
370
     9
100
AcDbLine
 10
-1003.613054345143
 20
-572.6991358566459
 30
0.0
 11
-1003.613054345143
 21
-574.1994181442435
 31
0.0
  0
LINE
  5
2BA
330
1F
100
AcDbEntity
  8
D-0
  6
Continuous
 62
     7
370
     9
100
AcDbLine
 10
-1003.613054345143
 20
-574.1994181442435
 30
0.0
 11
-1005.113333652509
 21
-574.1994181442435
 31
0.0
  0
LINE
  5
2BB
330
1F
100
AcDbEntity
  8
D-0
  6
Continuous
 62
     7
370
     9
100
AcDbLine
 10
-1001.556858907235
 20
-527.4648943710501
 30
0.0
 11
-1001.556858907235
 21
-525.9646120834525
 31
0.0
  0
LINE
  5
2BC
330
1F
100
AcDbEntity
  8
D-0
  6
Continuous
 62
     7
370
     9
100
AcDbLine
 10
-1001.556858907235
 20
-525.9646120834525
 30
0.0
 11
-1000.05657959987
 21
-525.9646120834525
 31
0.0
  0
LINE
  5
2BD
330
1F
100
AcDbEntity
  8
D-0
  6
Continuous
 62
     7
370
     9
100
AcDbLine
 10
-1000.05657959987
 20
-525.9646120834525
 30
0.0
 11
-1000.05657959987
 21
-527.4648943710501
 31
0.0
  0
LINE
  5
2BE
330
1F
100
AcDbEntity
  8
D-0
  6
Continuous
 62
     7
370
     9
100
AcDbLine
 10
-1000.05657959987
 20
-527.4648943710501
 30
0.0
 11
-1001.556858907235
 21
-527.4648943710501
 31
0.0
  0
LINE
  5
2BF
330
1F
100
AcDbEntity
  8
D-0
  6
Continuous
 62
     7
370
     9
100
AcDbLine
 10
-1101.423547456754
 20
-577.7458277511771
 30
0.0
 11
-1101.423547456754
 21
-576.2455454635794
 31
0.0
  0
LINE
  5
2C0
330
1F
100
AcDbEntity
  8
D-0
  6
Continuous
 62
     7
370
     9
100
AcDbLine
 10
-1101.423547456754
 20
-576.2455454635794
 30
0.0
 11
-1099.923265169156
 21
-576.2455454635794
 31
0.0
  0
LINE
  5
2C1
330
1F
100
AcDbEntity
  8
D-0
  6
Continuous
 62
     7
370
     9
100
AcDbLine
 10
-1099.923265169156
 20
-576.2455454635794
 30
0.0
 11
-1099.923265169156
 21
-577.7458277511771
 31
0.0
  0
LINE
  5
2C2
330
1F
100
AcDbEntity
  8
D-0
  6
Continuous
 62
     7
370
     9
100
AcDbLine
 10
-1099.923265169156
 20
-577.7458277511771
 30
0.0
 11
-1101.423547456754
 21
-577.7458277511771
 31
0.0
  0
LINE
  5
2C3
330
1F
100
AcDbEntity
  8
D-0
  6
Continuous
 62
     7
370
     9
100
AcDbLine
 10
-1053.899171541227
 20
-581.6324892807181
 30
0.0
 11
-1053.899171541227
 21
-580.1322069931205
 31
0.0
  0
LINE
  5
2C4
330
1F
100
AcDbEntity
  8
D-0
  6
Continuous
 62
     7
370
     9
100
AcDbLine
 10
-1053.899171541227
 20
-580.1322069931205
 30
0.0
 11
-1052.399881074918
 21
-580.1322069931205
 31
0.0
  0
LINE
  5
2C5
330
1F
100
AcDbEntity
  8
D-0
  6
Continuous
 62
     7
370
     9
100
AcDbLine
 10
-1052.399881074918
 20
-580.1322069931205
 30
0.0
 11
-1052.399881074918
 21
-581.6324892807181
 31
0.0
  0
LINE
  5
2C6
330
1F
100
AcDbEntity
  8
D-0
  6
Continuous
 62
     7
370
     9
100
AcDbLine
 10
-1052.399881074918
 20
-581.6324892807181
 30
0.0
 11
-1053.899171541227
 21
-581.6324892807181
 31
0.0
  0
LINE
  5
2C7
330
1F
100
AcDbEntity
  8
D-0
  6
Continuous
 62
     7
370
     9
100
AcDbLine
 10
-1103.839452455533
 20
-523.3195582199271
 30
0.0
 11
-1103.839452455533
 21
-521.8192759323294
 31
0.0
  0
LINE
  5
2C8
330
1F
100
AcDbEntity
  8
D-0
  6
Continuous
 62
     7
370
     9
100
AcDbLine
 10
-1103.839452455533
 20
-521.8192759323294
 30
0.0
 11
-1102.339170167936
 21
-521.8192759323294
 31
0.0
  0
LINE
  5
2C9
330
1F
100
AcDbEntity
  8
D-0
  6
Continuous
 62
     7
370
     9
100
AcDbLine
 10
-1102.339170167936
 20
-521.8192759323294
 30
0.0
 11
-1102.339170167936
 21
-523.3195582199271
 31
0.0
  0
LINE
  5
2CA
330
1F
100
AcDbEntity
  8
D-0
  6
Continuous
 62
     7
370
     9
100
AcDbLine
 10
-1102.339170167936
 20
-523.3195582199271
 30
0.0
 11
-1103.839452455533
 21
-523.3195582199271
 31
0.0
  0
LINE
  5
2CB
330
1F
100
AcDbEntity
  8
D-0
  6
Continuous
 62
     7
370
     9
100
AcDbLine
 10
-1094.950740526212
 20
-686.7222109604057
 30
0.0
 11
-1094.950740526212
 21
-685.2219668197807
 31
0.0
  0
LINE
  5
2CC
330
1F
100
AcDbEntity
  8
D-0
  6
Continuous
 62
     7
370
     9
100
AcDbLine
 10
-1094.950740526212
 20
-685.2219668197807
 30
0.0
 11
-1093.450467775358
 21
-685.2219668197807
 31
0.0
  0
LINE
  5
2CD
330
1F
100
AcDbEntity
  8
D-0
  6
Continuous
 62
     7
370
     9
100
AcDbLine
 10
-1093.450467775358
 20
-685.2219668197807
 30
0.0
 11
-1093.450467775358
 21
-686.7222109604057
 31
0.0
  0
LINE
  5
2CE
330
1F
100
AcDbEntity
  8
D-0
  6
Continuous
 62
     7
370
     9
100
AcDbLine
 10
-1093.450467775358
 20
-686.7222109604057
 30
0.0
 11
-1094.950740526212
 21
-686.7222109604057
 31
0.0
  0
LINE
  5
2CF
330
1F
100
AcDbEntity
  8
D-0
  6
Continuous
 62
     7
370
     9
100
AcDbLine
 10
-1043.179209421171
 20
-682.915028648394
 30
0.0
 11
-1043.179209421171
 21
-681.414784507769
 31
0.0
  0
LINE
  5
2D0
330
1F
100
AcDbEntity
  8
D-0
  6
Continuous
 62
     7
370
     9
100
AcDbLine
 10
-1043.179209421171
 20
-681.414784507769
 30
0.0
 11
-1041.679918954862
 21
-681.414784507769
 31
0.0
  0
LINE
  5
2D1
330
1F
100
AcDbEntity
  8
D-0
  6
Continuous
 62
     7
370
     9
100
AcDbLine
 10
-1041.679918954862
 20
-681.414784507769
 30
0.0
 11
-1041.679918954862
 21
-682.915028648394
 31
0.0
  0
LINE
  5
2D2
330
1F
100
AcDbEntity
  8
D-0
  6
Continuous
 62
     7
370
     9
100
AcDbLine
 10
-1041.679918954862
 20
-682.915028648394
 30
0.0
 11
-1043.179209421171
 21
-682.915028648394
 31
0.0
  0
LINE
  5
2D3
330
1F
100
AcDbEntity
  8
D-0
  6
Continuous
 62
     7
370
     9
100
AcDbLine
 10
-993.3112676839954
 20
-684.8186388778862
 30
0.0
 11
-993.3112676839954
 21
-683.3183565902885
 31
0.0
  0
LINE
  5
2D4
330
1F
100
AcDbEntity
  8
D-0
  6
Continuous
 62
     7
370
     9
100
AcDbLine
 10
-993.3112676839954
 20
-683.3183565902885
 30
0.0
 11
-991.8119790058262
 21
-683.3183565902885
 31
0.0
  0
LINE
  5
2D5
330
1F
100
AcDbEntity
  8
D-0
  6
Continuous
 62
     7
370
     9
100
AcDbLine
 10
-991.8119790058262
 20
-683.3183565902885
 30
0.0
 11
-991.8119790058262
 21
-684.8186388778862
 31
0.0
  0
LINE
  5
2D6
330
1F
100
AcDbEntity
  8
D-0
  6
Continuous
 62
     7
370
     9
100
AcDbLine
 10
-991.8119790058262
 20
-684.8186388778862
 30
0.0
 11
-993.3112676839954
 21
-684.8186388778862
 31
0.0
  0
LINE
  5
2D7
330
1F
100
AcDbEntity
  8
D-0
  6
Continuous
 62
     7
370
     9
100
AcDbLine
 10
-1018.054979036344
 20
-710.7039156723198
 30
0.0
 11
-1018.054979036344
 21
-709.2036333847221
 31
0.0
  0
LINE
  5
2D8
330
1F
100
AcDbEntity
  8
D-0
  6
Continuous
 62
     7
370
     9
100
AcDbLine
 10
-1018.054979036344
 20
-709.2036333847221
 30
0.0
 11
-1016.554699132932
 21
-709.2036333847221
 31
0.0
  0
LINE
  5
2D9
330
1F
100
AcDbEntity
  8
D-0
  6
Continuous
 62
     7
370
     9
100
AcDbLine
 10
-1016.554699132932
 20
-709.2036333847221
 30
0.0
 11
-1016.554699132932
 21
-710.7039156723198
 31
0.0
  0
LINE
  5
2DA
330
1F
100
AcDbEntity
  8
D-0
  6
Continuous
 62
     7
370
     9
100
AcDbLine
 10
-1016.554699132932
 20
-710.7039156723198
 30
0.0
 11
-1018.054979036344
 21
-710.7039156723198
 31
0.0
  0
LINE
  5
2DB
330
1F
100
AcDbEntity
  8
D-0
  6
Continuous
 62
     7
370
     9
100
AcDbLine
 10
-1058.405955026639
 20
-722.504986839312
 30
0.0
 11
-1058.405955026639
 21
-721.0047045517143
 31
0.0
  0
LINE
  5
2DC
330
1F
100
AcDbEntity
  8
D-0
  6
Continuous
 62
     7
370
     9
100
AcDbLine
 10
-1058.405955026639
 20
-721.0047045517143
 30
0.0
 11
-1056.906664560331
 21
-721.0047045517143
 31
0.0
  0
LINE
  5
2DD
330
1F
100
AcDbEntity
  8
D-0
  6
Continuous
 62
     7
370
     9
100
AcDbLine
 10
-1056.906664560331
 20
-721.0047045517143
 30
0.0
 11
-1056.906664560331
 21
-722.504986839312
 31
0.0
  0
LINE
  5
2DE
330
1F
100
AcDbEntity
  8
D-0
  6
Continuous
 62
     7
370
     9
100
AcDbLine
 10
-1056.906664560331
 20
-722.504986839312
 30
0.0
 11
-1058.405955026639
 21
-722.504986839312
 31
0.0
  0
LINE
  5
2DF
330
1F
100
AcDbEntity
  8
D-0
  6
Continuous
 62
     7
370
     9
100
AcDbLine
 10
-1105.609271715177
 20
-720.2208605575737
 30
0.0
 11
-1105.609271715177
 21
-718.720578269976
 31
0.0
  0
LINE
  5
2E0
330
1F
100
AcDbEntity
  8
D-0
  6
Continuous
 62
     7
370
     9
100
AcDbLine
 10
-1105.609271715177
 20
-718.720578269976
 30
0.0
 11
-1104.108989427579
 21
-718.720578269976
 31
0.0
  0
LINE
  5
2E1
330
1F
100
AcDbEntity
  8
D-0
  6
Continuous
 62
     7
370
     9
100
AcDbLine
 10
-1104.108989427579
 20
-718.720578269976
 30
0.0
 11
-1104.108989427579
 21
-720.2208605575737
 31
0.0
  0
LINE
  5
2E2
330
1F
100
AcDbEntity
  8
D-0
  6
Continuous
 62
     7
370
     9
100
AcDbLine
 10
-1104.108989427579
 20
-720.2208605575737
 30
0.0
 11
-1105.609271715177
 21
-720.2208605575737
 31
0.0
  0
LINE
  5
2E3
330
1F
100
AcDbEntity
  8
D-0
  6
Continuous
 62
     7
370
     9
100
AcDbLine
 10
-1089.240958879484
 20
-748.7712755966362
 30
0.0
 11
-1089.240958879484
 21
-747.2709933090385
 31
0.0
  0
LINE
  5
2E4
330
1F
100
AcDbEntity
  8
D-0
  6
Continuous
 62
     7
370
     9
100
AcDbLine
 10
-1089.240958879484
 20
-747.2709933090385
 30
0.0
 11
-1087.740686128629
 21
-747.2709933090385
 31
0.0
  0
LINE
  5
2E5
330
1F
100
AcDbEntity
  8
D-0
  6
Continuous
 62
     7
370
     9
100
AcDbLine
 10
-1087.740686128629
 20
-747.2709933090385
 30
0.0
 11
-1087.740686128629
 21
-748.7712755966362
 31
0.0
  0
LINE
  5
2E6
330
1F
100
AcDbEntity
  8
D-0
  6
Continuous
 62
     7
370
     9
100
AcDbLine
 10
-1087.740686128629
 20
-748.7712755966362
 30
0.0
 11
-1089.240958879484
 21
-748.7712755966362
 31
0.0
  0
LINE
  5
2E7
330
1F
100
AcDbEntity
  8
D-0
  6
Continuous
 62
     7
370
     9
100
AcDbLine
 10
-1037.469427774442
 20
-747.2486773300346
 30
0.0
 11
-1037.469427774442
 21
-745.748395042437
 31
0.0
  0
LINE
  5
2E8
330
1F
100
AcDbEntity
  8
D-0
  6
Continuous
 62
     7
370
     9
100
AcDbLine
 10
-1037.469427774442
 20
-745.748395042437
 30
0.0
 11
-1035.96914787103
 21
-745.748395042437
 31
0.0
  0
LINE
  5
2E9
330
1F
100
AcDbEntity
  8
D-0
  6
Continuous
 62
     7
370
     9
100
AcDbLine
 10
-1035.96914787103
 20
-745.748395042437
 30
0.0
 11
-1035.96914787103
 21
-747.2486773300346
 31
0.0
  0
LINE
  5
2EA
330
1F
100
AcDbEntity
  8
D-0
  6
Continuous
 62
     7
370
     9
100
AcDbLine
 10
-1035.96914787103
 20
-747.2486773300346
 30
0.0
 11
-1037.469427774442
 21
-747.2486773300346
 31
0.0
  0
LINE
  5
2EB
330
1F
100
AcDbEntity
  8
D-0
  6
Continuous
 62
     7
370
     9
100
AcDbLine
 10
-999.4025607805378
 20
-747.2486773300346
 30
0.0
 11
-999.4025607805378
 21
-745.748395042437
 31
0.0
  0
LINE
  5
2EC
330
1F
100
AcDbEntity
  8
D-0
  6
Continuous
 62
     7
370
     9
100
AcDbLine
 10
-999.4025607805378
 20
-745.748395042437
 30
0.0
 11
-997.9022813427872
 21
-745.748395042437
 31
0.0
  0
LINE
  5
2ED
330
1F
100
AcDbEntity
  8
D-0
  6
Continuous
 62
     7
370
     9
100
AcDbLine
 10
-997.9022813427872
 20
-745.748395042437
 30
0.0
 11
-997.9022813427872
 21
-747.2486773300346
 31
0.0
  0
LINE
  5
2EE
330
1F
100
AcDbEntity
  8
D-0
  6
Continuous
 62
     7
370
     9
100
AcDbLine
 10
-997.9022813427872
 20
-747.2486773300346
 30
0.0
 11
-999.4025607805378
 21
-747.2486773300346
 31
0.0
  0
LINE
  5
2EF
330
1F
100
AcDbEntity
  8
D-0
  6
Continuous
 62
     7
370
     9
100
AcDbLine
 10
-939.90220804025
 20
-504.365052299517
 30
0.0
 11
-939.90220804025
 21
-502.8642741012748
 31
0.0
  0
LINE
  5
2F0
330
1F
100
AcDbEntity
  8
D-0
  6
Continuous
 62
     7
370
     9
100
AcDbLine
 10
-939.90220804025
 20
-502.8642741012748
 30
0.0
 11
-938.4019305210239
 21
-502.8642741012748
 31
0.0
  0
LINE
  5
2F1
330
1F
100
AcDbEntity
  8
D-0
  6
Continuous
 62
     7
370
     9
100
AcDbLine
 10
-938.4019305210239
 20
-502.8642741012748
 30
0.0
 11
-938.4019305210239
 21
-504.365052299517
 31
0.0
  0
LINE
  5
2F2
330
1F
100
AcDbEntity
  8
D-0
  6
Continuous
 62
     7
370
     9
100
AcDbLine
 10
-938.4019305210239
 20
-504.365052299517
 30
0.0
 11
-939.90220804025
 21
-504.365052299517
 31
0.0
  0
LINE
  5
2F3
330
1F
100
AcDbEntity
  8
D-0
  6
Continuous
 62
     7
370
     9
100
AcDbLine
 10
-933.6568238239414
 20
-434.5835867691215
 30
0.0
 11
-933.6568238239414
 21
-433.0833044815238
 31
0.0
  0
LINE
  5
2F4
330
1F
100
AcDbEntity
  8
D-0
  6
Continuous
 62
     7
370
     9
100
AcDbLine
 10
-933.6568238239414
 20
-433.0833044815238
 30
0.0
 11
-932.1575381260044
 21
-433.0833044815238
 31
0.0
  0
LINE
  5
2F5
330
1F
100
AcDbEntity
  8
D-0
  6
Continuous
 62
     7
370
     9
100
AcDbLine
 10
-932.1575381260044
 20
-433.0833044815238
 30
0.0
 11
-932.1575381260044
 21
-434.5835867691215
 31
0.0
  0
LINE
  5
2F6
330
1F
100
AcDbEntity
  8
D-0
  6
Continuous
 62
     7
370
     9
100
AcDbLine
 10
-932.1575381260044
 20
-434.5835867691215
 30
0.0
 11
-933.6568238239414
 21
-434.5835867691215
 31
0.0
  0
LINE
  5
2F7
330
1F
100
AcDbEntity
  8
D-0
  6
Continuous
 62
     7
370
     9
100
AcDbLine
 10
-1079.988582323087
 20
-604.3253603744681
 30
0.0
 11
-1079.988582323087
 21
-602.8250780868705
 31
0.0
  0
LINE
  5
2F8
330
1F
100
AcDbEntity
  8
D-0
  6
Continuous
 62
     7
370
     9
100
AcDbLine
 10
-1079.988582323087
 20
-602.8250780868705
 30
0.0
 11
-1078.488300035489
 21
-602.8250780868705
 31
0.0
  0
LINE
  5
2F9
330
1F
100
AcDbEntity
  8
D-0
  6
Continuous
 62
     7
370
     9
100
AcDbLine
 10
-1078.488300035489
 20
-602.8250780868705
 30
0.0
 11
-1078.488300035489
 21
-604.3253603744681
 31
0.0
  0
LINE
  5
2FA
330
1F
100
AcDbEntity
  8
D-0
  6
Continuous
 62
     7
370
     9
100
AcDbLine
 10
-1078.488300035489
 20
-604.3253603744681
 30
0.0
 11
-1079.988582323087
 21
-604.3253603744681
 31
0.0
  0
LINE
  5
2FB
330
1F
100
AcDbEntity
  8
D-0
  6
Continuous
 62
     7
370
     9
100
AcDbLine
 10
-1022.971019933713
 20
-606.897610740679
 30
0.0
 11
-1022.971019933713
 21
-605.3973284530814
 31
0.0
  0
LINE
  5
2FC
330
1F
100
AcDbEntity
  8
D-0
  6
Continuous
 62
     7
370
     9
100
AcDbLine
 10
-1022.971019933713
 20
-605.3973284530814
 30
0.0
 11
-1021.470740030301
 21
-605.3973284530814
 31
0.0
  0
LINE
  5
2FD
330
1F
100
AcDbEntity
  8
D-0
  6
Continuous
 62
     7
370
     9
100
AcDbLine
 10
-1021.470740030301
 20
-605.3973284530814
 30
0.0
 11
-1021.470740030301
 21
-606.897610740679
 31
0.0
  0
LINE
  5
2FE
330
1F
100
AcDbEntity
  8
D-0
  6
Continuous
 62
     7
370
     9
100
AcDbLine
 10
-1021.470740030301
 20
-606.897610740679
 30
0.0
 11
-1022.971019933713
 21
-606.897610740679
 31
0.0
  0
LINE
  5
2FF
330
1F
100
AcDbEntity
  8
D-4
  6
Continuous
 62
     7
370
     9
100
AcDbLine
 10
-722.6852299671299
 20
-599.74818141939
 30
0.0
 11
-722.6852299671299
 21
-818.6870852279839
 31
0.0
  0
LINE
  5
300
330
1F
100
AcDbEntity
  8
D-0
  6
Continuous
 62
     7
370
     9
100
AcDbLine
 10
-945.4009224872715
 20
-334.2214337158378
 30
0.0
 11
-945.4009224872715
 21
-332.7211514282401
 31
0.0
  0
LINE
  5
301
330
1F
100
AcDbEntity
  8
D-0
  6
Continuous
 62
     7
370
     9
100
AcDbLine
 10
-945.4009224872715
 20
-332.7211514282401
 30
0.0
 11
-943.9006401996738
 21
-332.7211514282401
 31
0.0
  0
LINE
  5
302
330
1F
100
AcDbEntity
  8
D-0
  6
Continuous
 62
     7
370
     9
100
AcDbLine
 10
-943.9006401996738
 20
-332.7211514282401
 30
0.0
 11
-943.9006401996738
 21
-334.2214337158378
 31
0.0
  0
LINE
  5
303
330
1F
100
AcDbEntity
  8
D-0
  6
Continuous
 62
     7
370
     9
100
AcDbLine
 10
-943.9006401996738
 20
-334.2214337158378
 30
0.0
 11
-945.4009224872715
 21
-334.2214337158378
 31
0.0
  0
LINE
  5
304
330
1F
100
AcDbEntity
  8
D-0
  6
Continuous
 62
     7
370
     9
100
AcDbLine
 10
-825.159080217374
 20
-349.5025387573417
 30
0.0
 11
-825.159080217374
 21
-348.0022612381156
 31
0.0
  0
LINE
  5
305
330
1F
100
AcDbEntity
  8
D-0
  6
Continuous
 62
     7
370
     9
100
AcDbLine
 10
-825.159080217374
 20
-348.0022612381156
 30
0.0
 11
-823.6587979297764
 21
-348.0022612381156
 31
0.0
  0
LINE
  5
306
330
1F
100
AcDbEntity
  8
D-0
  6
Continuous
 62
     7
370
     9
100
AcDbLine
 10
-823.6587979297764
 20
-348.0022612381156
 30
0.0
 11
-823.6587979297764
 21
-349.5025387573417
 31
0.0
  0
LINE
  5
307
330
1F
100
AcDbEntity
  8
D-0
  6
Continuous
 62
     7
370
     9
100
AcDbLine
 10
-823.6587979297764
 20
-349.5025387573417
 30
0.0
 11
-825.159080217374
 21
-349.5025387573417
 31
0.0
  0
LINE
  5
308
330
1F
100
AcDbEntity
  8
D-0
  6
Continuous
 62
     7
370
     9
100
AcDbLine
 10
-875.0384118061191
 20
-302.9049840736564
 30
0.0
 11
-875.0384118061191
 21
-301.4047041702445
 31
0.0
  0
LINE
  5
309
330
1F
100
AcDbEntity
  8
D-0
  6
Continuous
 62
     7
370
     9
100
AcDbLine
 10
-875.0384118061191
 20
-301.4047041702445
 30
0.0
 11
-873.5381390552647
 21
-301.4047041702445
 31
0.0
  0
LINE
  5
30A
330
1F
100
AcDbEntity
  8
D-0
  6
Continuous
 62
     7
370
     9
100
AcDbLine
 10
-873.5381390552647
 20
-301.4047041702445
 30
0.0
 11
-873.5381390552647
 21
-302.9049840736564
 31
0.0
  0
LINE
  5
30B
330
1F
100
AcDbEntity
  8
D-0
  6
Continuous
 62
     7
370
     9
100
AcDbLine
 10
-873.5381390552647
 20
-302.9049840736564
 30
0.0
 11
-875.0384118061191
 21
-302.9049840736564
 31
0.0
  0
LINE
  5
30C
330
1F
100
AcDbEntity
  8
D-6
  6
Continuous
 62
     6
370
     9
100
AcDbLine
 10
-722.686221788419
 20
-501.6133204269584
 30
0.0
 11
-626.6752697925693
 21
-405.603369789141
 31
0.0
  0
LINE
  5
30D
330
1F
100
AcDbEntity
  8
D-6
  6
Continuous
 62
     6
370
     9
100
AcDbLine
 10
-722.686221788419
 20
-515.7549944687064
 30
0.0
 11
-612.534568498624
 21
-405.603369789141
 31
0.0
  0
LINE
  5
30E
330
1F
100
AcDbEntity
  8
D-6
  6
Continuous
 62
     6
370
     9
100
AcDbLine
 10
-972.6858951549656
 20
-751.6120043564018
 30
0.0
 11
-801.6768338184482
 21
-580.6039324569876
 31
0.0
  0
LINE
  5
30F
330
1F
100
AcDbEntity
  8
D-6
  6
Continuous
 62
     6
370
     9
100
AcDbLine
 10
-962.5357200603611
 20
-755.6035128402885
 30
0.0
 11
-787.5361515979893
 21
-580.6039324569876
 31
0.0
  0
LINE
  5
310
330
1F
100
AcDbEntity
  8
D-6
  6
Continuous
 62
     6
370
     9
100
AcDbLine
 10
-722.686221788419
 20
-529.8956766891654
 30
0.0
 11
-598.3939053516514
 21
-405.603369789141
 31
0.0
  0
LINE
  5
311
330
1F
100
AcDbEntity
  8
D-6
  6
Continuous
 62
     6
370
     9
100
AcDbLine
 10
-948.396032045377
 20
-755.6035128402885
 30
0.0
 11
-773.3954693775303
 21
-580.6039324569876
 31
0.0
  0
LINE
  5
312
330
1F
100
AcDbEntity
  8
D-4
  6
Continuous
 62
     7
370
     9
100
AcDbLine
 10
-1122.686097810758
 20
-488.7067309189018
 30
0.0
 11
-972.6859857540256
 21
-488.7067309189018
 31
0.0
  0
LINE
  5
313
330
1F
100
AcDbEntity
  8
D-4
  6
Continuous
 62
     7
370
     9
100
AcDbLine
 10
-972.6859857540256
 20
-488.7067309189018
 30
0.0
 11
-802.6857640247471
 21
-488.7067309189018
 31
0.0
  0
LINE
  5
314
330
1F
100
AcDbEntity
  8
D-4
  6
Continuous
 62
     7
370
     9
100
AcDbLine
 10
-802.6857640247471
 20
-491.7067423629936
 30
0.0
 11
-802.6857640247471
 21
-407.1030607986625
 31
0.0
  0
LINE
  5
315
330
1F
100
AcDbEntity
  8
D-4
  6
Continuous
 62
     7
370
     9
100
AcDbLine
 10
-938.6838509540684
 20
-370.603951530474
 30
0.0
 11
-739.7292210559971
 21
-370.603951530474
 31
0.0
  0
LINE
  5
316
330
1F
100
AcDbEntity
  8
D-4
  6
Continuous
 62
     7
370
     9
100
AcDbLine
 10
-742.7297856311924
 20
-280.6045237350639
 30
0.0
 11
-742.7297856311924
 21
-370.603951530474
 31
0.0
  0
LINE
  5
317
330
1F
100
AcDbEntity
  8
D-4
  6
Continuous
 62
     7
370
     9
100
AcDbLine
 10
-739.7297932605869
 20
-402.1031275558647
 30
0.0
 11
-797.6857640247471
 21
-402.1031275558647
 31
0.0
  0
LINE
  5
318
330
1F
100
AcDbEntity
  8
D-4
  6
Continuous
 62
     7
370
     9
100
AcDbLine
 10
-742.7297856311924
 20
-370.603951530474
 30
0.0
 11
-742.7297856311924
 21
-487.3540774154838
 31
0.0
  0
LINE
  5
319
330
1F
100
AcDbEntity
  8
D-4
  6
Continuous
 62
     7
370
     9
100
AcDbLine
 10
-972.6859857540256
 20
-491.7067423629936
 30
0.0
 11
-972.6859857540256
 21
-407.1030607986625
 31
0.0
  0
LINE
  5
31A
330
1F
100
AcDbEntity
  8
D-5
  6
Continuous
 62
     7
370
     9
100
AcDbLine
 10
-954.5670487384922
 20
-373.1030932235893
 30
0.0
 11
-940.7553603153355
 21
-352.2646704483207
 31
0.0
  0
LINE
  5
31B
330
1F
100
AcDbEntity
  8
D-5
  6
Continuous
 62
     7
370
     9
100
AcDbLine
 10
-954.5670487384922
 20
-373.1030932235893
 30
0.0
 11
-935.8333708744175
 21
-356.5489855575736
 31
0.0
  0
LINE
  5
31C
330
1F
100
AcDbEntity
  8
D-5
  6
Continuous
 62
     7
370
     9
100
AcDbLine
 10
-780.0179173450596
 20
-172.5556650924858
 30
0.0
 11
-954.5670487384922
 21
-373.1030932235893
 31
0.0
  0
LINE
  5
31D
330
1F
100
AcDbEntity
  8
D-9
  6
Continuous
 62
     4
370
     9
100
AcDbLine
 10
-932.6858069400913
 20
-402.1031275558647
 30
0.0
 11
-817.6857640247471
 21
-402.1031275558647
 31
0.0
  0
LINE
  5
31E
330
1F
100
AcDbEntity
  8
D-9
  6
Continuous
 62
     4
370
     9
100
AcDbLine
 10
-947.685878465665
 20
-387.1030607986625
 30
0.0
 11
-947.685878465665
 21
-373.1030932235893
 31
0.0
  0
LINE
  5
31F
330
1F
100
AcDbEntity
  8
D-9
  6
Continuous
 62
     4
370
     9
100
AcDbLine
 10
-802.6859547596104
 20
-387.1030607986625
 30
0.0
 11
-802.6859547596104
 21
-373.1030932235893
 31
0.0
  0
LINE
  5
320
330
1F
100
AcDbEntity
  8
D-9
  6
Continuous
 62
     4
370
     9
100
AcDbLine
 10
-967.6859714489109
 20
-383.1031409073051
 30
0.0
 11
-967.6859714489109
 21
-373.1030932235893
 31
0.0
  0
LINE
  5
321
330
1F
100
AcDbEntity
  8
D-9
  6
Continuous
 62
     4
370
     9
100
AcDbLine
 10
-947.6608540516025
 20
-383.1031409073051
 30
0.0
 11
-997.6856824308214
 21
-383.1031409073051
 31
0.0
  0
LINE
  5
322
330
1F
100
AcDbEntity
  8
D-9
  6
Continuous
 62
     4
370
     9
100
AcDbLine
 10
-802.6859547596104
 20
-373.1030932235893
 30
0.0
 11
-997.6856824308214
 21
-373.1030932235893
 31
0.0
  0
LINE
  5
323
330
1F
100
AcDbEntity
  8
D-9
  6
Continuous
 62
     3
370
     9
100
AcDbLine
 10
-1097.686011980069
 20
-370.6044474411186
 30
0.0
 11
-1097.686011980069
 21
-393.1044283676322
 31
0.0
  0
LINE
  5
324
330
1F
100
AcDbEntity
  8
D-9
  6
Continuous
 62
     3
370
     9
100
AcDbLine
 10
-997.6856824308214
 20
-393.1044283676322
 30
0.0
 11
-1097.686011980069
 21
-393.1044283676322
 31
0.0
  0
LINE
  5
325
330
1F
100
AcDbEntity
  8
D-9
  6
Continuous
 62
     3
370
     9
100
AcDbLine
 10
-997.6856824308214
 20
-370.6044474411186
 30
0.0
 11
-1097.686011980069
 21
-370.6044474411186
 31
0.0
  0
LINE
  5
326
330
1F
100
AcDbEntity
  8
D-9
  6
Continuous
 62
     2
370
     9
100
AcDbLine
 10
-1033.936112115873
 20
-395.6030741501029
 30
0.0
 11
-1033.936112115873
 21
-393.1044283676322
 31
0.0
  0
LINE
  5
327
330
1F
100
AcDbEntity
  8
D-9
  6
Continuous
 62
     2
370
     9
100
AcDbLine
 10
-1042.686822603238
 20
-403.1024828720268
 30
0.0
 11
-1033.936112115873
 21
-395.6030741501029
 31
0.0
  0
LINE
  5
328
330
1F
100
AcDbEntity
  8
D-9
  6
Continuous
 62
     2
370
     9
100
AcDbLine
 10
-1052.685740182889
 20
-403.1024828720268
 30
0.0
 11
-1042.686822603238
 21
-403.1024828720268
 31
0.0
  0
LINE
  5
329
330
1F
100
AcDbEntity
  8
D-9
  6
Continuous
 62
     2
370
     9
100
AcDbLine
 10
-1061.436202714933
 20
-395.6030741501029
 30
0.0
 11
-1052.685740182889
 21
-403.1024828720268
 31
0.0
  0
LINE
  5
32A
330
1F
100
AcDbEntity
  8
D-9
  6
Continuous
 62
     2
370
     9
100
AcDbLine
 10
-1061.436202714933
 20
-395.6030741501029
 30
0.0
 11
-1061.436202714933
 21
-393.1044283676322
 31
0.0
  0
LINE
  5
32B
330
1F
100
AcDbEntity
  8
D-9
  6
Continuous
 62
     2
370
     9
100
AcDbLine
 10
-1061.436202714933
 20
-395.6030741501029
 30
0.0
 11
-1033.936112115873
 21
-395.6030741501029
 31
0.0
  0
LINE
  5
32C
330
1F
100
AcDbEntity
  8
D-9
  6
Continuous
 62
     3
370
     9
100
AcDbLine
 10
-997.6856824308214
 20
-370.6044474411186
 30
0.0
 11
-997.6856824308214
 21
-393.1044283676322
 31
0.0
  0
LINE
  5
32D
330
1F
100
AcDbEntity
  8
D-9
  6
Continuous
 62
     3
370
     9
100
AcDbLine
 10
-997.6856824308214
 20
-380.6044474411186
 30
0.0
 11
-1097.686011980069
 21
-380.6044474411186
 31
0.0
  0
LINE
  5
32E
330
1F
100
AcDbEntity
  8
D-9
  6
JWW_DASHED2
 62
     3
370
     9
100
AcDbLine
 10
-997.6856824308214
 20
-383.1044283676322
 30
0.0
 11
-1097.686011980069
 21
-383.1044283676322
 31
0.0
  0
LINE
  5
32F
330
1F
100
AcDbEntity
  8
D-9
  6
JWW_CENTER1
 62
     4
370
     9
100
AcDbLine
 10
-1047.685845087064
 20
-410.8434477615531
 30
0.0
 11
-1047.685845087064
 21
-370.6044474411186
 31
0.0
  0
ARC
  5
330
330
1F
100
AcDbEntity
  8
D-1
  6
Continuous
 62
     2
370
     9
100
AcDbCircle
 10
-992.6879679064876
 20
-350.605343894976
 30
0.0
 40
5.0
100
AcDbArc
 50
270.0244750976562
 51
0.0107421875000158
  0
ARC
  5
331
330
1F
100
AcDbEntity
  8
D-1
  6
Continuous
 62
     2
370
     9
100
AcDbCircle
 10
-992.6859863500721
 20
-350.6033650207694
 30
0.0
 40
20.0
100
AcDbArc
 50
270.0
 51
0.0002441406249917
  0
ARC
  5
332
330
1F
100
AcDbEntity
  8
D-1
  6
Continuous
 62
     2
370
     9
100
AcDbCircle
 10
-992.6859863500721
 20
-350.6043520736869
 30
0.0
 40
5.0
100
AcDbArc
 50
270.0
 51
0.0001983642578153
  0
ARC
  5
333
330
1F
100
AcDbEntity
  8
D-9
  6
Continuous
 62
     4
370
     9
100
AcDbCircle
 10
-932.6858069400913
 20
-387.1030607986625
 30
0.0
 40
15.00000238418579
100
AcDbArc
 50
180.0
 51
270.0
  0
ARC
  5
334
330
1F
100
AcDbEntity
  8
D-9
  6
Continuous
 62
     4
370
     9
100
AcDbCircle
 10
-817.6857640247471
 20
-387.1030607986625
 30
0.0
 40
15.00000238418579
100
AcDbArc
 50
270.0
 51
0.0
  0
LWPOLYLINE
  5
335
330
1F
100
AcDbEntity
  8
D-4
  6
Continuous
 62
     7
370
     9
100
AcDbPolyline
 90
        4
 70
     1
 43
1.0
 10
-972.1868845920688
 20
57.26258365629356
 42
0.4142135623731
 10
-972.6868845920688
 20
57.76258365629356
 42
0.4142135623731
 10
-973.1868845920688
 20
57.26258365629356
 42
0.4142135623731
 10
-972.6868845920688
 20
56.76258365629356
 42
0.4142135623731
  0
LWPOLYLINE
  5
336
330
1F
100
AcDbEntity
  8
D-4
  6
Continuous
 62
     7
370
     9
100
AcDbPolyline
 90
        4
 70
     1
 43
1.0
 10
-1122.186097810758
 20
-162.1855059433158
 42
0.4142135623731
 10
-1122.686097810758
 20
-161.6855059433158
 42
0.4142135623731
 10
-1123.186097810758
 20
-162.1855059433158
 42
0.4142135623731
 10
-1122.686097810758
 20
-162.6855059433158
 42
0.4142135623731
  0
LWPOLYLINE
  5
337
330
1F
100
AcDbEntity
  8
D-4
  6
Continuous
 62
     7
370
     9
100
AcDbPolyline
 90
        4
 70
     1
 43
1.0
 10
-997.1862569551594
 20
-162.1855059433158
 42
0.4142135623731
 10
-997.6862569551594
 20
-161.6855059433158
 42
0.4142135623731
 10
-998.1862569551594
 20
-162.1855059433158
 42
0.4142135623731
 10
-997.6862569551594
 20
-162.6855059433158
 42
0.4142135623731
  0
LWPOLYLINE
  5
338
330
1F
100
AcDbEntity
  8
D-4
  6
Continuous
 62
     7
370
     9
100
AcDbPolyline
 90
        4
 70
     1
 43
1.0
 10
-997.1862569551594
 20
-53.43308361055215
 42
0.4142135623731
 10
-997.6862569551594
 20
-52.93308361055215
 42
0.4142135623731
 10
-998.1862569551594
 20
-53.43308361055215
 42
0.4142135623731
 10
-997.6862569551594
 20
-53.93308361055215
 42
0.4142135623731
  0
LWPOLYLINE
  5
339
330
1F
100
AcDbEntity
  8
D-4
  6
Continuous
 62
     7
370
     9
100
AcDbPolyline
 90
        4
 70
     1
 43
1.0
 10
-987.1857157449848
 20
-53.43308361055215
 42
0.4142135623731
 10
-987.6857157449848
 20
-52.93308361055215
 42
0.4142135623731
 10
-988.1857157449848
 20
-53.43308361055215
 42
0.4142135623731
 10
-987.6857157449848
 20
-53.93308361055215
 42
0.4142135623731
  0
LWPOLYLINE
  5
33A
330
1F
100
AcDbEntity
  8
D-4
  6
Continuous
 62
     7
370
     9
100
AcDbPolyline
 90
        4
 70
     1
 43
1.0
 10
-972.1868845920688
 20
-53.43308361055215
 42
0.4142135623731
 10
-972.6868845920688
 20
-52.93308361055215
 42
0.4142135623731
 10
-973.1868845920688
 20
-53.43308361055215
 42
0.4142135623731
 10
-972.6868845920688
 20
-53.93308361055215
 42
0.4142135623731
  0
LWPOLYLINE
  5
33B
330
1F
100
AcDbEntity
  8
D-4
  6
Continuous
 62
     7
370
     9
100
AcDbPolyline
 90
        4
 70
     1
 43
1.0
 10
-1122.186097810758
 20
-661.2226382064995
 42
0.4142135623731
 10
-1122.686097810758
 20
-660.7226382064995
 42
0.4142135623731
 10
-1123.186097810758
 20
-661.2226382064995
 42
0.4142135623731
 10
-1122.686097810758
 20
-661.7226382064995
 42
0.4142135623731
  0
LWPOLYLINE
  5
33C
330
1F
100
AcDbEntity
  8
D-4
  6
Continuous
 62
     7
370
     9
100
AcDbPolyline
 90
        4
 70
     1
 43
1.0
 10
-972.1858951549656
 20
-661.2226382064995
 42
0.4142135623731
 10
-972.6858951549656
 20
-660.7226382064995
 42
0.4142135623731
 10
-973.1858951549656
 20
-661.2226382064995
 42
0.4142135623731
 10
-972.6858951549656
 20
-661.7226382064995
 42
0.4142135623731
  0
LWPOLYLINE
  5
33D
330
1F
100
AcDbEntity
  8
D-4
  6
Continuous
 62
     7
370
     9
100
AcDbPolyline
 90
        4
 70
     1
 43
1.0
 10
-1122.186097810758
 20
-815.6875124740776
 42
0.4142135623731
 10
-1122.686097810758
 20
-815.1875124740776
 42
0.4142135623731
 10
-1123.186097810758
 20
-815.6875124740776
 42
0.4142135623731
 10
-1122.686097810758
 20
-816.1875124740776
 42
0.4142135623731
  0
LWPOLYLINE
  5
33E
330
1F
100
AcDbEntity
  8
D-4
  6
Continuous
 62
     7
370
     9
100
AcDbPolyline
 90
        4
 70
     1
 43
1.0
 10
-722.1852299671299
 20
-815.6875124740776
 42
0.4142135623731
 10
-722.6852299671299
 20
-815.1875124740776
 42
0.4142135623731
 10
-723.1852299671299
 20
-815.6875124740776
 42
0.4142135623731
 10
-722.6852299671299
 20
-816.1875124740776
 42
0.4142135623731
  0
LWPOLYLINE
  5
33F
330
1F
100
AcDbEntity
  8
D-4
  6
Continuous
 62
     7
370
     9
100
AcDbPolyline
 90
        4
 70
     1
 43
1.0
 10
-450.5008694629795
 20
-580.6044283676322
 42
0.4142135623731
 10
-451.0008694629795
 20
-580.1044283676323
 42
0.4142135623731
 10
-451.5008694629795
 20
-580.6044283676322
 42
0.4142135623731
 10
-451.0008694629795
 20
-581.1044283676322
 42
0.4142135623731
  0
LWPOLYLINE
  5
340
330
1F
100
AcDbEntity
  8
D-4
  6
Continuous
 62
     7
370
     9
100
AcDbPolyline
 90
        4
 70
     1
 43
1.0
 10
-450.5008694629795
 20
-280.6045237350639
 42
0.4142135623731
 10
-451.0008694629795
 20
-280.1045237350639
 42
0.4142135623731
 10
-451.5008694629795
 20
-280.6045237350639
 42
0.4142135623731
 10
-451.0008694629795
 20
-281.1045237350639
 42
0.4142135623731
  0
LWPOLYLINE
  5
341
330
1F
100
AcDbEntity
  8
D-4
  6
Continuous
 62
     7
370
     9
100
AcDbPolyline
 90
        4
 70
     1
 43
1.0
 10
-1122.186097810758
 20
-488.7067309189018
 42
0.4142135623731
 10
-1122.686097810758
 20
-488.2067309189018
 42
0.4142135623731
 10
-1123.186097810758
 20
-488.7067309189018
 42
0.4142135623731
 10
-1122.686097810758
 20
-489.2067309189017
 42
0.4142135623731
  0
LWPOLYLINE
  5
342
330
1F
100
AcDbEntity
  8
D-4
  6
Continuous
 62
     7
370
     9
100
AcDbPolyline
 90
        4
 70
     1
 43
1.0
 10
-972.1859857540256
 20
-488.7067309189018
 42
0.4142135623731
 10
-972.6859857540256
 20
-488.2067309189018
 42
0.4142135623731
 10
-973.1859857540256
 20
-488.7067309189018
 42
0.4142135623731
 10
-972.6859857540256
 20
-489.2067309189017
 42
0.4142135623731
  0
LWPOLYLINE
  5
343
330
1F
100
AcDbEntity
  8
D-4
  6
Continuous
 62
     7
370
     9
100
AcDbPolyline
 90
        4
 70
     1
 43
1.0
 10
-802.1857640247471
 20
-488.7067309189018
 42
0.4142135623731
 10
-802.6857640247471
 20
-488.2067309189018
 42
0.4142135623731
 10
-803.1857640247471
 20
-488.7067309189018
 42
0.4142135623731
 10
-802.6857640247471
 20
-489.2067309189017
 42
0.4142135623731
  0
LWPOLYLINE
  5
344
330
1F
100
AcDbEntity
  8
D-4
  6
Continuous
 62
     7
370
     9
100
AcDbPolyline
 90
        4
 70
     1
 43
1.0
 10
-742.2297856311924
 20
-280.6040284204658
 42
0.4142135623731
 10
-742.7297856311924
 20
-280.1040284204658
 42
0.4142135623731
 10
-743.2297856311924
 20
-280.6040284204658
 42
0.4142135623731
 10
-742.7297856311924
 20
-281.1040284204658
 42
0.4142135623731
  0
LWPOLYLINE
  5
345
330
1F
100
AcDbEntity
  8
D-4
  6
Continuous
 62
     7
370
     9
100
AcDbPolyline
 90
        4
 70
     1
 43
1.0
 10
-742.2297856311924
 20
-370.603951530474
 42
0.4142135623731
 10
-742.7297856311924
 20
-370.103951530474
 42
0.4142135623731
 10
-743.2297856311924
 20
-370.603951530474
 42
0.4142135623731
 10
-742.7297856311924
 20
-371.103951530474
 42
0.4142135623731
  0
LWPOLYLINE
  5
346
330
1F
100
AcDbEntity
  8
D-4
  6
Continuous
 62
     7
370
     9
100
AcDbPolyline
 90
        4
 70
     1
 43
1.0
 10
-742.2297856311924
 20
-402.1031275558647
 42
0.4142135623731
 10
-742.7297856311924
 20
-401.6031275558647
 42
0.4142135623731
 10
-743.2297856311924
 20
-402.1031275558647
 42
0.4142135623731
 10
-742.7297856311924
 20
-402.6031275558646
 42
0.4142135623731
  0
TEXT
  5
347
330
1F
100
AcDbEntity
  8
D-4
  6
Continuous
 62
     2
370
     9
100
AcDbText
 10
-1081.435344408048
 20
-151.5452389145073
 30
0.0
 40
30.48
  1
25
 41
1.0625
  7
ＭＳ ゴシック
100
AcDbText
  0
TEXT
  5
348
330
1F
100
AcDbEntity
  8
D-4
  6
Continuous
 62
     2
370
     9
100
AcDbText
 10
-1113.936116884244
 20
-650.58336299898
 30
0.0
 40
30.48
  1
25～30
 41
1.104166666666667
  7
ＭＳ ゴシック
100
AcDbText
  0
TEXT
  5
349
330
1F
100
AcDbEntity
  8
D-4
  6
Continuous
 62
     2
370
     9
100
AcDbText
 10
-990.554500658372
 20
-805.0472454453085
 30
0.0
 40
30.48
  1
75～80
 50
0.0002144421685898
 41
1.104166666666669
  7
ＭＳ ゴシック
100
AcDbText
  0
TEXT
  5
34A
330
1F
100
AcDbEntity
  8
D-4
  6
Continuous
 62
     2
370
     9
100
AcDbText
 10
-467.1715701465732
 20
-496.8543523202193
 30
0.0
 40
30.48
  1
55～65
 50
90.00000250447953
 41
1.104166666666667
  7
ＭＳ ゴシック
100
AcDbText
  0
TEXT
  5
34B
330
1F
100
AcDbEntity
  8
D-4
  6
Continuous
 62
     2
370
     9
100
AcDbText
 10
-1030.630967805875
 20
-42.79380840303261
 30
0.0
 40
30.48
  1
2
 41
0.9999999999999998
  7
ＭＳ ゴシック
100
AcDbText
  0
TEXT
  5
34C
330
1F
100
AcDbEntity
  8
D-4
  6
Continuous
 62
     2
370
     9
100
AcDbText
 10
-959.3845339374668
 20
-42.79380840303518
 30
0.0
 40
30.48
  1
3
 50
359.9999453584866
 41
0.9999999999999998
  7
ＭＳ ゴシック
100
AcDbText
  0
TEXT
  5
34D
330
1F
100
AcDbEntity
  8
D-4
  6
Continuous
 62
     2
370
     9
100
AcDbText
 10
-1068.936040590299
 20
-477.0667271042045
 30
0.0
 40
30.48
  1
30
 41
1.0625
  7
ＭＳ ゴシック
100
AcDbText
  0
TEXT
  5
34E
330
1F
100
AcDbEntity
  8
D-4
  6
Continuous
 62
     2
370
     9
100
AcDbText
 10
-962.319793890012
 20
-477.0667271042045
 30
0.0
 40
30.48
  1
34
 41
1.0625
  7
ＭＳ ゴシック
100
AcDbText
  0
TEXT
  5
34F
330
1F
100
AcDbEntity
  8
D-4
  6
Continuous
 62
     2
370
     9
100
AcDbText
 10
-753.370052660001
 20
-346.8536561379682
 30
0.0
 40
30.48
  1
18
 50
90.00000250447789
 41
1.062500000000001
  7
ＭＳ ゴシック
100
AcDbText
  0
TEXT
  5
350
330
1F
100
AcDbEntity
  8
D-4
  6
Continuous
 62
     2
370
     9
100
AcDbText
 10
-754.3697894458896
 20
-473.7983411202683
 30
0.0
 40
30.48
  1
6.5
 50
90.00000250448076
 41
1.083333333333334
  7
ＭＳ ゴシック
100
AcDbText
  0
LINE
  5
351
330
1F
100
AcDbEntity
  8
D-5
  6
Continuous
 62
     7
370
     9
100
AcDbLine
 10
-1031.922138864349
 20
-279.4715500744581
 30
0.0
 11
-1018.111442262481
 21
-258.6336190375089
 31
0.0
  0
LINE
  5
352
330
1F
100
AcDbEntity
  8
D-5
  6
Continuous
 62
     7
370
     9
100
AcDbLine
 10
-1031.922138864349
 20
-279.4715500744581
 30
0.0
 11
-1013.18846338446
 21
-262.917938319087
 31
0.0
  0
LINE
  5
353
330
1F
100
AcDbEntity
  8
D-5
  6
Continuous
 62
     7
370
     9
100
AcDbLine
 10
-789.4232026323215
 20
-0.8542353988439544
 30
0.0
 11
-1031.922138864349
 21
-279.4715500744581
 31
0.0
  0
TEXT
  5
354
330
1F
100
AcDbEntity
  8
D-5
  6
Continuous
 62
     7
370
     9
100
AcDbText
 10
-778.2090907822178
 20
-82.3767854381364
 30
0.0
 40
22.86
  1
ステンレス製受枠ＲＬ－１５
 50
359.9999368586928
 41
1.153846153846155
  7
ＭＳ ゴシック
100
AcDbText
  0
LINE
  5
355
330
1F
100
AcDbEntity
  8
D-5
  6
Continuous
 62
     7
370
     9
100
AcDbLine
 10
-972.6858951549656
 20
-309.7675415337579
 30
0.0
 11
-958.8751985530979
 21
-288.9296104968087
 31
0.0
  0
LINE
  5
356
330
1F
100
AcDbEntity
  8
D-5
  6
Continuous
 62
     7
370
     9
100
AcDbLine
 10
-972.6858951549656
 20
-309.7675415337579
 30
0.0
 11
-953.9522196750767
 21
-293.2139297783868
 31
0.0
  0
LINE
  5
357
330
1F
100
AcDbEntity
  8
D-5
  6
Continuous
 62
     7
370
     9
100
AcDbLine
 10
-782.5964843071341
 20
-91.36575379140531
 30
0.0
 11
-972.6858951549656
 21
-309.7675415337579
 31
0.0
  0
LINE
  5
358
330
1F
100
AcDbEntity
  8
D-5
  6
Continuous
 62
     7
370
     9
100
AcDbLine
 10
-782.5964843071341
 20
-91.36575379140531
 30
0.0
 11
-327.9994206085729
 21
-91.36575379140531
 31
0.0
  0
LINE
  5
359
330
1F
100
AcDbEntity
  8
D-5
  6
Continuous
 62
     7
370
     9
100
AcDbLine
 10
-780.0179173450596
 20
-172.5556650924858
 30
0.0
 11
-162.2795373260914
 21
-172.5556650924858
 31
0.0
  0
LINE
  5
35A
330
1F
100
AcDbEntity
  8
D-6
  6
JWW_DASHED3
 62
     6
370
     9
100
AcDbLine
 10
-875.1861836414463
 20
-693.9364519882378
 30
0.0
 11
-875.1861836414463
 21
-580.6039324569876
 31
0.0
  0
LINE
  5
35B
330
1F
100
AcDbEntity
  8
D-6
  6
JWW_DASHED3
 62
     6
370
     9
100
AcDbLine
 10
-830.1857258777744
 20
-580.6039324569876
 30
0.0
 11
-830.1857258777744
 21
-693.9364519882378
 31
0.0
  0
LINE
  5
35C
330
1F
100
AcDbEntity
  8
D-6
  6
Continuous
 62
     6
370
     9
100
AcDbLine
 10
-875.1861836414463
 20
-580.6039324569876
 30
0.0
 11
-875.1861836414463
 21
-402.1031275558647
 31
0.0
  0
LINE
  5
35D
330
1F
100
AcDbEntity
  8
D-6
  6
Continuous
 62
     6
370
     9
100
AcDbLine
 10
-830.1857258777744
 20
-580.6039324569876
 30
0.0
 11
-830.1857258777744
 21
-402.1031275558647
 31
0.0
  0
LINE
  5
35E
330
1F
100
AcDbEntity
  8
D-6
  6
Continuous
 62
     6
370
     9
100
AcDbLine
 10
-875.1861836414463
 20
-338.1030932235893
 30
0.0
 11
-830.1857258777744
 21
-338.1030932235893
 31
0.0
  0
LINE
  5
35F
330
1F
100
AcDbEntity
  8
D-6
  6
JWW_CENTER2
 62
     6
370
     9
100
AcDbLine
 10
-852.6859547596104
 20
-329.6394911575492
 30
0.0
 11
-852.6859547596104
 21
-693.9364519882378
 31
0.0
  0
LINE
  5
360
330
1F
100
AcDbEntity
  8
D-6
  6
Continuous
 62
     6
370
     9
100
AcDbLine
 10
-830.1857258777744
 20
-373.1030932235893
 30
0.0
 11
-830.1857258777744
 21
-338.1030932235893
 31
0.0
  0
LINE
  5
361
330
1F
100
AcDbEntity
  8
D-6
  6
Continuous
 62
     6
370
     9
100
AcDbLine
 10
-875.1861836414463
 20
-373.1030932235893
 30
0.0
 11
-875.1861836414463
 21
-338.1030932235893
 31
0.0
  0
TEXT
  5
362
330
1F
100
AcDbEntity
  8
D-5
  6
Continuous
 62
     7
370
     9
100
AcDbText
 10
-766.373679826749
 20
-163.666775321978
 30
0.0
 40
22.86
  1
アンカー
 41
1.125
  7
ＭＳ ゴシック
100
AcDbText
  0
TEXT
  5
363
330
1F
100
AcDbEntity
  8
D-5
  6
Continuous
 62
     7
370
     9
100
AcDbText
 10
-669.9001459338814
 20
-671.6421385984762
 30
0.0
 40
22.86
  1
差筋φ9程度
 41
1.136363636363636
  7
ＭＳ ゴシック
100
AcDbText
  0
LINE
  5
364
330
1F
100
AcDbEntity
  8
D-5
  6
Continuous
 62
     7
370
     9
100
AcDbLine
 10
-670.3420976855904
 20
-683.3358799009665
 30
0.0
 11
-482.0178873227695
 21
-683.3358799009665
 31
0.0
  0
LINE
  5
365
330
1F
100
AcDbEntity
  8
D-5
  6
Continuous
 62
     7
370
     9
100
AcDbLine
 10
-830.1857258777744
 20
-523.49225170878
 30
0.0
 11
-670.3420976855904
 21
-683.3358799009665
 31
0.0
  0
LINE
  5
366
330
1F
100
AcDbEntity
  8
D-5
  6
Continuous
 62
     7
370
     9
100
AcDbLine
 10
-830.1857258777744
 20
-523.49225170878
 30
0.0
 11
-814.9666901525569
 21
-543.3260852160622
 31
0.0
  0
LINE
  5
367
330
1F
100
AcDbEntity
  8
D-5
  6
Continuous
 62
     7
370
     9
100
AcDbLine
 10
-830.1857258777744
 20
-523.49225170878
 30
0.0
 11
-810.3518923704922
 21
-538.7112874339975
 31
0.0
  0
TEXT
  5
368
330
1F
100
AcDbEntity
  8
D-5
  6
Continuous
 62
     7
370
     9
100
AcDbText
 10
-766.373679826749
 20
-202.984697914141
 30
0.0
 40
22.86
  1
ｔ＝２．０（ＳＥＣＣまたはＳＧＨＣ）
 41
1.157407407407407
  7
ＭＳ ゴシック
100
AcDbText
  0
LINE
  5
369
330
1F
100
AcDbEntity
  8
C-A
  6
Continuous
 62
     3
370
     9
100
AcDbLine
 10
-1062.929343473368
 20
929.3718621278816
 30
0.0
 11
-612.9293434733684
 21
929.3718621278816
 31
0.0
  0
LINE
  5
36A
330
1F
100
AcDbEntity
  8
C-A
  6
Continuous
 62
     3
370
     9
100
AcDbLine
 10
-1062.929343473368
 20
929.3718621278816
 30
0.0
 11
-1062.929343473368
 21
479.3718621278816
 31
0.0
  0
LINE
  5
36B
330
1F
100
AcDbEntity
  8
C-A
  6
Continuous
 62
     3
370
     9
100
AcDbLine
 10
-1054.929343473368
 20
857.9718621278818
 30
0.0
 11
-1052.929343473368
 21
857.9718621278818
 31
0.0
  0
LINE
  5
36C
330
1F
100
AcDbEntity
  8
C-A
  6
Continuous
 62
     3
370
     9
100
AcDbLine
 10
-1054.929343473368
 20
854.4218621278816
 30
0.0
 11
-1052.929343473368
 21
854.4218621278816
 31
0.0
  0
LINE
  5
36D
330
1F
100
AcDbEntity
  8
C-A
  6
Continuous
 62
     3
370
     9
100
AcDbLine
 10
-1054.929343473368
 20
850.8718621278814
 30
0.0
 11
-1052.929343473368
 21
850.8718621278814
 31
0.0
  0
LINE
  5
36E
330
1F
100
AcDbEntity
  8
C-A
  6
Continuous
 62
     3
370
     9
100
AcDbLine
 10
-1044.929343473368
 20
857.9718621278818
 30
0.0
 11
-1036.049343473368
 21
857.9718621278818
 31
0.0
  0
LINE
  5
36F
330
1F
100
AcDbEntity
  8
C-A
  6
Continuous
 62
     3
370
     9
100
AcDbLine
 10
-1044.929343473368
 20
854.4218621278816
 30
0.0
 11
-1036.049343473368
 21
854.4218621278816
 31
0.0
  0
LINE
  5
370
330
1F
100
AcDbEntity
  8
C-A
  6
Continuous
 62
     3
370
     9
100
AcDbLine
 10
-1044.929343473368
 20
850.8718621278814
 30
0.0
 11
-1036.049343473368
 21
850.8718621278814
 31
0.0
  0
LINE
  5
371
330
1F
100
AcDbEntity
  8
C-A
  6
Continuous
 62
     3
370
     9
100
AcDbLine
 10
-1028.049343473368
 20
857.9718621278818
 30
0.0
 11
-1019.169343473368
 21
857.9718621278818
 31
0.0
  0
LINE
  5
372
330
1F
100
AcDbEntity
  8
C-A
  6
Continuous
 62
     3
370
     9
100
AcDbLine
 10
-1028.049343473368
 20
854.4218621278816
 30
0.0
 11
-1019.169343473368
 21
854.4218621278816
 31
0.0
  0
LINE
  5
373
330
1F
100
AcDbEntity
  8
C-A
  6
Continuous
 62
     3
370
     9
100
AcDbLine
 10
-1028.049343473368
 20
850.8718621278814
 30
0.0
 11
-1019.169343473368
 21
850.8718621278814
 31
0.0
  0
LINE
  5
374
330
1F
100
AcDbEntity
  8
C-A
  6
Continuous
 62
     3
370
     9
100
AcDbLine
 10
-1011.169343473368
 20
857.9718621278818
 30
0.0
 11
-1002.289343473368
 21
857.9718621278818
 31
0.0
  0
LINE
  5
375
330
1F
100
AcDbEntity
  8
C-A
  6
Continuous
 62
     3
370
     9
100
AcDbLine
 10
-1011.169343473368
 20
854.4218621278816
 30
0.0
 11
-1002.289343473368
 21
854.4218621278816
 31
0.0
  0
LINE
  5
376
330
1F
100
AcDbEntity
  8
C-A
  6
Continuous
 62
     3
370
     9
100
AcDbLine
 10
-1011.169343473368
 20
850.8718621278814
 30
0.0
 11
-1002.289343473368
 21
850.8718621278814
 31
0.0
  0
LINE
  5
377
330
1F
100
AcDbEntity
  8
C-A
  6
Continuous
 62
     3
370
     9
100
AcDbLine
 10
-994.2893434733684
 20
857.9718621278818
 30
0.0
 11
-985.4093434733683
 21
857.9718621278818
 31
0.0
  0
LINE
  5
378
330
1F
100
AcDbEntity
  8
C-A
  6
Continuous
 62
     3
370
     9
100
AcDbLine
 10
-994.2893434733684
 20
854.4218621278816
 30
0.0
 11
-985.4093434733683
 21
854.4218621278816
 31
0.0
  0
LINE
  5
379
330
1F
100
AcDbEntity
  8
C-A
  6
Continuous
 62
     3
370
     9
100
AcDbLine
 10
-994.2893434733684
 20
850.8718621278814
 30
0.0
 11
-985.4093434733683
 21
850.8718621278814
 31
0.0
  0
LINE
  5
37A
330
1F
100
AcDbEntity
  8
C-A
  6
Continuous
 62
     3
370
     9
100
AcDbLine
 10
-977.4093434733684
 20
857.9718621278818
 30
0.0
 11
-968.5293434733683
 21
857.9718621278818
 31
0.0
  0
LINE
  5
37B
330
1F
100
AcDbEntity
  8
C-A
  6
Continuous
 62
     3
370
     9
100
AcDbLine
 10
-977.4093434733684
 20
854.4218621278816
 30
0.0
 11
-968.5293434733683
 21
854.4218621278816
 31
0.0
  0
LINE
  5
37C
330
1F
100
AcDbEntity
  8
C-A
  6
Continuous
 62
     3
370
     9
100
AcDbLine
 10
-977.4093434733684
 20
850.8718621278814
 30
0.0
 11
-968.5293434733683
 21
850.8718621278814
 31
0.0
  0
LINE
  5
37D
330
1F
100
AcDbEntity
  8
C-A
  6
Continuous
 62
     3
370
     9
100
AcDbLine
 10
-960.5293434733683
 20
857.9718621278818
 30
0.0
 11
-951.6493434733683
 21
857.9718621278818
 31
0.0
  0
LINE
  5
37E
330
1F
100
AcDbEntity
  8
C-A
  6
Continuous
 62
     3
370
     9
100
AcDbLine
 10
-960.5293434733683
 20
854.4218621278816
 30
0.0
 11
-951.6493434733683
 21
854.4218621278816
 31
0.0
  0
LINE
  5
37F
330
1F
100
AcDbEntity
  8
C-A
  6
Continuous
 62
     3
370
     9
100
AcDbLine
 10
-960.5293434733683
 20
850.8718621278814
 30
0.0
 11
-951.6493434733683
 21
850.8718621278814
 31
0.0
  0
LINE
  5
380
330
1F
100
AcDbEntity
  8
C-A
  6
Continuous
 62
     3
370
     9
100
AcDbLine
 10
-943.6493434733683
 20
857.9718621278818
 30
0.0
 11
-934.7693434733683
 21
857.9718621278818
 31
0.0
  0
LINE
  5
381
330
1F
100
AcDbEntity
  8
C-A
  6
Continuous
 62
     3
370
     9
100
AcDbLine
 10
-943.6493434733683
 20
854.4218621278816
 30
0.0
 11
-934.7693434733683
 21
854.4218621278816
 31
0.0
  0
LINE
  5
382
330
1F
100
AcDbEntity
  8
C-A
  6
Continuous
 62
     3
370
     9
100
AcDbLine
 10
-943.6493434733683
 20
850.8718621278814
 30
0.0
 11
-934.7693434733683
 21
850.8718621278814
 31
0.0
  0
LINE
  5
383
330
1F
100
AcDbEntity
  8
C-A
  6
Continuous
 62
     3
370
     9
100
AcDbLine
 10
-926.7693434733683
 20
857.9718621278818
 30
0.0
 11
-917.8893434733682
 21
857.9718621278818
 31
0.0
  0
LINE
  5
384
330
1F
100
AcDbEntity
  8
C-A
  6
Continuous
 62
     3
370
     9
100
AcDbLine
 10
-926.7693434733683
 20
854.4218621278816
 30
0.0
 11
-917.8893434733682
 21
854.4218621278816
 31
0.0
  0
LINE
  5
385
330
1F
100
AcDbEntity
  8
C-A
  6
Continuous
 62
     3
370
     9
100
AcDbLine
 10
-926.7693434733683
 20
850.8718621278814
 30
0.0
 11
-917.8893434733682
 21
850.8718621278814
 31
0.0
  0
LINE
  5
386
330
1F
100
AcDbEntity
  8
C-A
  6
Continuous
 62
     3
370
     9
100
AcDbLine
 10
-909.8893434733682
 20
857.9718621278818
 30
0.0
 11
-901.0093434733682
 21
857.9718621278818
 31
0.0
  0
LINE
  5
387
330
1F
100
AcDbEntity
  8
C-A
  6
Continuous
 62
     3
370
     9
100
AcDbLine
 10
-909.8893434733682
 20
854.4218621278816
 30
0.0
 11
-901.0093434733682
 21
854.4218621278816
 31
0.0
  0
LINE
  5
388
330
1F
100
AcDbEntity
  8
C-A
  6
Continuous
 62
     3
370
     9
100
AcDbLine
 10
-909.8893434733682
 20
850.8718621278814
 30
0.0
 11
-901.0093434733682
 21
850.8718621278814
 31
0.0
  0
LINE
  5
389
330
1F
100
AcDbEntity
  8
C-A
  6
Continuous
 62
     3
370
     9
100
AcDbLine
 10
-893.0093434733682
 20
857.9718621278818
 30
0.0
 11
-884.1293434733682
 21
857.9718621278818
 31
0.0
  0
LINE
  5
38A
330
1F
100
AcDbEntity
  8
C-A
  6
Continuous
 62
     3
370
     9
100
AcDbLine
 10
-893.0093434733682
 20
854.4218621278816
 30
0.0
 11
-884.1293434733682
 21
854.4218621278816
 31
0.0
  0
LINE
  5
38B
330
1F
100
AcDbEntity
  8
C-A
  6
Continuous
 62
     3
370
     9
100
AcDbLine
 10
-893.0093434733682
 20
850.8718621278814
 30
0.0
 11
-884.1293434733682
 21
850.8718621278814
 31
0.0
  0
LINE
  5
38C
330
1F
100
AcDbEntity
  8
C-A
  6
Continuous
 62
     3
370
     9
100
AcDbLine
 10
-876.1293434733682
 20
857.9718621278818
 30
0.0
 11
-867.2493434733681
 21
857.9718621278818
 31
0.0
  0
LINE
  5
38D
330
1F
100
AcDbEntity
  8
C-A
  6
Continuous
 62
     3
370
     9
100
AcDbLine
 10
-876.1293434733682
 20
854.4218621278816
 30
0.0
 11
-867.2493434733681
 21
854.4218621278816
 31
0.0
  0
LINE
  5
38E
330
1F
100
AcDbEntity
  8
C-A
  6
Continuous
 62
     3
370
     9
100
AcDbLine
 10
-876.1293434733682
 20
850.8718621278814
 30
0.0
 11
-867.2493434733681
 21
850.8718621278814
 31
0.0
  0
LINE
  5
38F
330
1F
100
AcDbEntity
  8
C-A
  6
Continuous
 62
     3
370
     9
100
AcDbLine
 10
-859.2493434733682
 20
857.9718621278818
 30
0.0
 11
-850.3693434733681
 21
857.9718621278818
 31
0.0
  0
LINE
  5
390
330
1F
100
AcDbEntity
  8
C-A
  6
Continuous
 62
     3
370
     9
100
AcDbLine
 10
-859.2493434733682
 20
854.4218621278816
 30
0.0
 11
-850.3693434733681
 21
854.4218621278816
 31
0.0
  0
LINE
  5
391
330
1F
100
AcDbEntity
  8
C-A
  6
Continuous
 62
     3
370
     9
100
AcDbLine
 10
-859.2493434733682
 20
850.8718621278814
 30
0.0
 11
-850.3693434733681
 21
850.8718621278814
 31
0.0
  0
LINE
  5
392
330
1F
100
AcDbEntity
  8
C-A
  6
Continuous
 62
     3
370
     9
100
AcDbLine
 10
-842.3693434733682
 20
857.9718621278818
 30
0.0
 11
-833.4893434733681
 21
857.9718621278818
 31
0.0
  0
LINE
  5
393
330
1F
100
AcDbEntity
  8
C-A
  6
Continuous
 62
     3
370
     9
100
AcDbLine
 10
-842.3693434733682
 20
854.4218621278816
 30
0.0
 11
-833.4893434733681
 21
854.4218621278816
 31
0.0
  0
LINE
  5
394
330
1F
100
AcDbEntity
  8
C-A
  6
Continuous
 62
     3
370
     9
100
AcDbLine
 10
-842.3693434733682
 20
850.8718621278814
 30
0.0
 11
-833.4893434733681
 21
850.8718621278814
 31
0.0
  0
LINE
  5
395
330
1F
100
AcDbEntity
  8
C-A
  6
Continuous
 62
     3
370
     9
100
AcDbLine
 10
-825.4893434733681
 20
857.9718621278818
 30
0.0
 11
-816.6093434733681
 21
857.9718621278818
 31
0.0
  0
LINE
  5
396
330
1F
100
AcDbEntity
  8
C-A
  6
Continuous
 62
     3
370
     9
100
AcDbLine
 10
-825.4893434733681
 20
854.4218621278816
 30
0.0
 11
-816.6093434733681
 21
854.4218621278816
 31
0.0
  0
LINE
  5
397
330
1F
100
AcDbEntity
  8
C-A
  6
Continuous
 62
     3
370
     9
100
AcDbLine
 10
-825.4893434733681
 20
850.8718621278814
 30
0.0
 11
-816.6093434733681
 21
850.8718621278814
 31
0.0
  0
LINE
  5
398
330
1F
100
AcDbEntity
  8
C-A
  6
Continuous
 62
     3
370
     9
100
AcDbLine
 10
-808.6093434733681
 20
857.9718621278818
 30
0.0
 11
-799.7293434733681
 21
857.9718621278818
 31
0.0
  0
LINE
  5
399
330
1F
100
AcDbEntity
  8
C-A
  6
Continuous
 62
     3
370
     9
100
AcDbLine
 10
-808.6093434733681
 20
854.4218621278816
 30
0.0
 11
-799.7293434733681
 21
854.4218621278816
 31
0.0
  0
LINE
  5
39A
330
1F
100
AcDbEntity
  8
C-A
  6
Continuous
 62
     3
370
     9
100
AcDbLine
 10
-808.6093434733681
 20
850.8718621278814
 30
0.0
 11
-799.7293434733681
 21
850.8718621278814
 31
0.0
  0
LINE
  5
39B
330
1F
100
AcDbEntity
  8
C-A
  6
Continuous
 62
     3
370
     9
100
AcDbLine
 10
-791.7293434733681
 20
857.9718621278818
 30
0.0
 11
-782.849343473368
 21
857.9718621278818
 31
0.0
  0
LINE
  5
39C
330
1F
100
AcDbEntity
  8
C-A
  6
Continuous
 62
     3
370
     9
100
AcDbLine
 10
-791.7293434733681
 20
854.4218621278816
 30
0.0
 11
-782.849343473368
 21
854.4218621278816
 31
0.0
  0
LINE
  5
39D
330
1F
100
AcDbEntity
  8
C-A
  6
Continuous
 62
     3
370
     9
100
AcDbLine
 10
-791.7293434733681
 20
850.8718621278814
 30
0.0
 11
-782.849343473368
 21
850.8718621278814
 31
0.0
  0
LINE
  5
39E
330
1F
100
AcDbEntity
  8
C-A
  6
Continuous
 62
     3
370
     9
100
AcDbLine
 10
-774.849343473368
 20
857.9718621278818
 30
0.0
 11
-765.969343473368
 21
857.9718621278818
 31
0.0
  0
LINE
  5
39F
330
1F
100
AcDbEntity
  8
C-A
  6
Continuous
 62
     3
370
     9
100
AcDbLine
 10
-774.849343473368
 20
854.4218621278816
 30
0.0
 11
-765.969343473368
 21
854.4218621278816
 31
0.0
  0
LINE
  5
3A0
330
1F
100
AcDbEntity
  8
C-A
  6
Continuous
 62
     3
370
     9
100
AcDbLine
 10
-774.849343473368
 20
850.8718621278814
 30
0.0
 11
-765.969343473368
 21
850.8718621278814
 31
0.0
  0
LINE
  5
3A1
330
1F
100
AcDbEntity
  8
C-A
  6
Continuous
 62
     3
370
     9
100
AcDbLine
 10
-757.969343473368
 20
857.9718621278818
 30
0.0
 11
-749.089343473368
 21
857.9718621278818
 31
0.0
  0
LINE
  5
3A2
330
1F
100
AcDbEntity
  8
C-A
  6
Continuous
 62
     3
370
     9
100
AcDbLine
 10
-757.969343473368
 20
854.4218621278816
 30
0.0
 11
-749.089343473368
 21
854.4218621278816
 31
0.0
  0
LINE
  5
3A3
330
1F
100
AcDbEntity
  8
C-A
  6
Continuous
 62
     3
370
     9
100
AcDbLine
 10
-757.969343473368
 20
850.8718621278814
 30
0.0
 11
-749.089343473368
 21
850.8718621278814
 31
0.0
  0
LINE
  5
3A4
330
1F
100
AcDbEntity
  8
C-A
  6
Continuous
 62
     3
370
     9
100
AcDbLine
 10
-741.089343473368
 20
857.9718621278818
 30
0.0
 11
-732.2093434733679
 21
857.9718621278818
 31
0.0
  0
LINE
  5
3A5
330
1F
100
AcDbEntity
  8
C-A
  6
Continuous
 62
     3
370
     9
100
AcDbLine
 10
-741.089343473368
 20
854.4218621278816
 30
0.0
 11
-732.2093434733679
 21
854.4218621278816
 31
0.0
  0
LINE
  5
3A6
330
1F
100
AcDbEntity
  8
C-A
  6
Continuous
 62
     3
370
     9
100
AcDbLine
 10
-741.089343473368
 20
850.8718621278814
 30
0.0
 11
-732.2093434733679
 21
850.8718621278814
 31
0.0
  0
LINE
  5
3A7
330
1F
100
AcDbEntity
  8
C-A
  6
Continuous
 62
     3
370
     9
100
AcDbLine
 10
-724.209343473368
 20
857.9718621278818
 30
0.0
 11
-715.3293434733679
 21
857.9718621278818
 31
0.0
  0
LINE
  5
3A8
330
1F
100
AcDbEntity
  8
C-A
  6
Continuous
 62
     3
370
     9
100
AcDbLine
 10
-724.209343473368
 20
854.4218621278816
 30
0.0
 11
-715.3293434733679
 21
854.4218621278816
 31
0.0
  0
LINE
  5
3A9
330
1F
100
AcDbEntity
  8
C-A
  6
Continuous
 62
     3
370
     9
100
AcDbLine
 10
-724.209343473368
 20
850.8718621278814
 30
0.0
 11
-715.3293434733679
 21
850.8718621278814
 31
0.0
  0
LINE
  5
3AA
330
1F
100
AcDbEntity
  8
C-A
  6
Continuous
 62
     3
370
     9
100
AcDbLine
 10
-707.329343473368
 20
857.9718621278818
 30
0.0
 11
-698.4493434733679
 21
857.9718621278818
 31
0.0
  0
LINE
  5
3AB
330
1F
100
AcDbEntity
  8
C-A
  6
Continuous
 62
     3
370
     9
100
AcDbLine
 10
-707.329343473368
 20
854.4218621278816
 30
0.0
 11
-698.4493434733679
 21
854.4218621278816
 31
0.0
  0
LINE
  5
3AC
330
1F
100
AcDbEntity
  8
C-A
  6
Continuous
 62
     3
370
     9
100
AcDbLine
 10
-707.329343473368
 20
850.8718621278814
 30
0.0
 11
-698.4493434733679
 21
850.8718621278814
 31
0.0
  0
LINE
  5
3AD
330
1F
100
AcDbEntity
  8
C-A
  6
Continuous
 62
     3
370
     9
100
AcDbLine
 10
-690.4493434733679
 20
857.9718621278818
 30
0.0
 11
-681.5693434733679
 21
857.9718621278818
 31
0.0
  0
LINE
  5
3AE
330
1F
100
AcDbEntity
  8
C-A
  6
Continuous
 62
     3
370
     9
100
AcDbLine
 10
-690.4493434733679
 20
854.4218621278816
 30
0.0
 11
-681.5693434733679
 21
854.4218621278816
 31
0.0
  0
LINE
  5
3AF
330
1F
100
AcDbEntity
  8
C-A
  6
Continuous
 62
     3
370
     9
100
AcDbLine
 10
-690.4493434733679
 20
850.8718621278814
 30
0.0
 11
-681.5693434733679
 21
850.8718621278814
 31
0.0
  0
LINE
  5
3B0
330
1F
100
AcDbEntity
  8
C-A
  6
Continuous
 62
     3
370
     9
100
AcDbLine
 10
-673.5693434733679
 20
857.9718621278818
 30
0.0
 11
-664.6893434733679
 21
857.9718621278818
 31
0.0
  0
LINE
  5
3B1
330
1F
100
AcDbEntity
  8
C-A
  6
Continuous
 62
     3
370
     9
100
AcDbLine
 10
-673.5693434733679
 20
854.4218621278816
 30
0.0
 11
-664.6893434733679
 21
854.4218621278816
 31
0.0
  0
LINE
  5
3B2
330
1F
100
AcDbEntity
  8
C-A
  6
Continuous
 62
     3
370
     9
100
AcDbLine
 10
-673.5693434733679
 20
850.8718621278814
 30
0.0
 11
-664.6893434733679
 21
850.8718621278814
 31
0.0
  0
LINE
  5
3B3
330
1F
100
AcDbEntity
  8
C-A
  6
Continuous
 62
     3
370
     9
100
AcDbLine
 10
-656.6893434733679
 20
857.9718621278818
 30
0.0
 11
-647.8093434733678
 21
857.9718621278818
 31
0.0
  0
LINE
  5
3B4
330
1F
100
AcDbEntity
  8
C-A
  6
Continuous
 62
     3
370
     9
100
AcDbLine
 10
-656.6893434733679
 20
854.4218621278816
 30
0.0
 11
-647.8093434733678
 21
854.4218621278816
 31
0.0
  0
LINE
  5
3B5
330
1F
100
AcDbEntity
  8
C-A
  6
Continuous
 62
     3
370
     9
100
AcDbLine
 10
-656.6893434733679
 20
850.8718621278814
 30
0.0
 11
-647.8093434733678
 21
850.8718621278814
 31
0.0
  0
LINE
  5
3B6
330
1F
100
AcDbEntity
  8
C-A
  6
Continuous
 62
     3
370
     9
100
AcDbLine
 10
-639.8093434733678
 20
857.9718621278818
 30
0.0
 11
-630.9293434733678
 21
857.9718621278818
 31
0.0
  0
LINE
  5
3B7
330
1F
100
AcDbEntity
  8
C-A
  6
Continuous
 62
     3
370
     9
100
AcDbLine
 10
-639.8093434733678
 20
854.4218621278816
 30
0.0
 11
-630.9293434733678
 21
854.4218621278816
 31
0.0
  0
LINE
  5
3B8
330
1F
100
AcDbEntity
  8
C-A
  6
Continuous
 62
     3
370
     9
100
AcDbLine
 10
-639.8093434733678
 20
850.8718621278814
 30
0.0
 11
-630.9293434733678
 21
850.8718621278814
 31
0.0
  0
LINE
  5
3B9
330
1F
100
AcDbEntity
  8
C-A
  6
Continuous
 62
     3
370
     9
100
AcDbLine
 10
-622.9293434733678
 20
857.9718621278818
 30
0.0
 11
-620.9293434733678
 21
857.9718621278818
 31
0.0
  0
LINE
  5
3BA
330
1F
100
AcDbEntity
  8
C-A
  6
Continuous
 62
     3
370
     9
100
AcDbLine
 10
-622.9293434733678
 20
854.4218621278816
 30
0.0
 11
-620.9293434733678
 21
854.4218621278816
 31
0.0
  0
LINE
  5
3BB
330
1F
100
AcDbEntity
  8
C-A
  6
Continuous
 62
     3
370
     9
100
AcDbLine
 10
-622.9293434733678
 20
850.8718621278814
 30
0.0
 11
-620.9293434733678
 21
850.8718621278814
 31
0.0
  0
LINE
  5
3BC
330
1F
100
AcDbEntity
  8
C-A
  6
Continuous
 62
     3
370
     9
100
AcDbLine
 10
-1054.929343473368
 20
757.9718621278818
 30
0.0
 11
-1052.929343473368
 21
757.9718621278818
 31
0.0
  0
LINE
  5
3BD
330
1F
100
AcDbEntity
  8
C-A
  6
Continuous
 62
     3
370
     9
100
AcDbLine
 10
-1054.929343473368
 20
754.4218621278816
 30
0.0
 11
-1052.929343473368
 21
754.4218621278816
 31
0.0
  0
LINE
  5
3BE
330
1F
100
AcDbEntity
  8
C-A
  6
Continuous
 62
     3
370
     9
100
AcDbLine
 10
-1054.929343473368
 20
750.8718621278814
 30
0.0
 11
-1052.929343473368
 21
750.8718621278814
 31
0.0
  0
LINE
  5
3BF
330
1F
100
AcDbEntity
  8
C-A
  6
Continuous
 62
     3
370
     9
100
AcDbLine
 10
-1044.929343473368
 20
757.9718621278818
 30
0.0
 11
-1036.049343473368
 21
757.9718621278818
 31
0.0
  0
LINE
  5
3C0
330
1F
100
AcDbEntity
  8
C-A
  6
Continuous
 62
     3
370
     9
100
AcDbLine
 10
-1044.929343473368
 20
754.4218621278816
 30
0.0
 11
-1036.049343473368
 21
754.4218621278816
 31
0.0
  0
LINE
  5
3C1
330
1F
100
AcDbEntity
  8
C-A
  6
Continuous
 62
     3
370
     9
100
AcDbLine
 10
-1044.929343473368
 20
750.8718621278814
 30
0.0
 11
-1036.049343473368
 21
750.8718621278814
 31
0.0
  0
LINE
  5
3C2
330
1F
100
AcDbEntity
  8
C-A
  6
Continuous
 62
     3
370
     9
100
AcDbLine
 10
-1028.049343473368
 20
757.9718621278818
 30
0.0
 11
-1019.169343473368
 21
757.9718621278818
 31
0.0
  0
LINE
  5
3C3
330
1F
100
AcDbEntity
  8
C-A
  6
Continuous
 62
     3
370
     9
100
AcDbLine
 10
-1028.049343473368
 20
754.4218621278816
 30
0.0
 11
-1019.169343473368
 21
754.4218621278816
 31
0.0
  0
LINE
  5
3C4
330
1F
100
AcDbEntity
  8
C-A
  6
Continuous
 62
     3
370
     9
100
AcDbLine
 10
-1028.049343473368
 20
750.8718621278814
 30
0.0
 11
-1019.169343473368
 21
750.8718621278814
 31
0.0
  0
LINE
  5
3C5
330
1F
100
AcDbEntity
  8
C-A
  6
Continuous
 62
     3
370
     9
100
AcDbLine
 10
-1011.169343473368
 20
757.9718621278818
 30
0.0
 11
-1002.289343473368
 21
757.9718621278818
 31
0.0
  0
LINE
  5
3C6
330
1F
100
AcDbEntity
  8
C-A
  6
Continuous
 62
     3
370
     9
100
AcDbLine
 10
-1011.169343473368
 20
754.4218621278816
 30
0.0
 11
-1002.289343473368
 21
754.4218621278816
 31
0.0
  0
LINE
  5
3C7
330
1F
100
AcDbEntity
  8
C-A
  6
Continuous
 62
     3
370
     9
100
AcDbLine
 10
-1011.169343473368
 20
750.8718621278814
 30
0.0
 11
-1002.289343473368
 21
750.8718621278814
 31
0.0
  0
LINE
  5
3C8
330
1F
100
AcDbEntity
  8
C-A
  6
Continuous
 62
     3
370
     9
100
AcDbLine
 10
-994.2893434733684
 20
757.9718621278818
 30
0.0
 11
-985.4093434733683
 21
757.9718621278818
 31
0.0
  0
LINE
  5
3C9
330
1F
100
AcDbEntity
  8
C-A
  6
Continuous
 62
     3
370
     9
100
AcDbLine
 10
-994.2893434733684
 20
754.4218621278816
 30
0.0
 11
-985.4093434733683
 21
754.4218621278816
 31
0.0
  0
LINE
  5
3CA
330
1F
100
AcDbEntity
  8
C-A
  6
Continuous
 62
     3
370
     9
100
AcDbLine
 10
-994.2893434733684
 20
750.8718621278814
 30
0.0
 11
-985.4093434733683
 21
750.8718621278814
 31
0.0
  0
LINE
  5
3CB
330
1F
100
AcDbEntity
  8
C-A
  6
Continuous
 62
     3
370
     9
100
AcDbLine
 10
-977.4093434733684
 20
757.9718621278818
 30
0.0
 11
-968.5293434733683
 21
757.9718621278818
 31
0.0
  0
LINE
  5
3CC
330
1F
100
AcDbEntity
  8
C-A
  6
Continuous
 62
     3
370
     9
100
AcDbLine
 10
-977.4093434733684
 20
754.4218621278816
 30
0.0
 11
-968.5293434733683
 21
754.4218621278816
 31
0.0
  0
LINE
  5
3CD
330
1F
100
AcDbEntity
  8
C-A
  6
Continuous
 62
     3
370
     9
100
AcDbLine
 10
-977.4093434733684
 20
750.8718621278814
 30
0.0
 11
-968.5293434733683
 21
750.8718621278814
 31
0.0
  0
LINE
  5
3CE
330
1F
100
AcDbEntity
  8
C-A
  6
Continuous
 62
     3
370
     9
100
AcDbLine
 10
-960.5293434733683
 20
757.9718621278818
 30
0.0
 11
-951.6493434733683
 21
757.9718621278818
 31
0.0
  0
LINE
  5
3CF
330
1F
100
AcDbEntity
  8
C-A
  6
Continuous
 62
     3
370
     9
100
AcDbLine
 10
-960.5293434733683
 20
754.4218621278816
 30
0.0
 11
-951.6493434733683
 21
754.4218621278816
 31
0.0
  0
LINE
  5
3D0
330
1F
100
AcDbEntity
  8
C-A
  6
Continuous
 62
     3
370
     9
100
AcDbLine
 10
-960.5293434733683
 20
750.8718621278814
 30
0.0
 11
-951.6493434733683
 21
750.8718621278814
 31
0.0
  0
LINE
  5
3D1
330
1F
100
AcDbEntity
  8
C-A
  6
Continuous
 62
     3
370
     9
100
AcDbLine
 10
-943.6493434733683
 20
757.9718621278818
 30
0.0
 11
-934.7693434733683
 21
757.9718621278818
 31
0.0
  0
LINE
  5
3D2
330
1F
100
AcDbEntity
  8
C-A
  6
Continuous
 62
     3
370
     9
100
AcDbLine
 10
-943.6493434733683
 20
754.4218621278816
 30
0.0
 11
-934.7693434733683
 21
754.4218621278816
 31
0.0
  0
LINE
  5
3D3
330
1F
100
AcDbEntity
  8
C-A
  6
Continuous
 62
     3
370
     9
100
AcDbLine
 10
-943.6493434733683
 20
750.8718621278814
 30
0.0
 11
-934.7693434733683
 21
750.8718621278814
 31
0.0
  0
LINE
  5
3D4
330
1F
100
AcDbEntity
  8
C-A
  6
Continuous
 62
     3
370
     9
100
AcDbLine
 10
-926.7693434733683
 20
757.9718621278818
 30
0.0
 11
-917.8893434733682
 21
757.9718621278818
 31
0.0
  0
LINE
  5
3D5
330
1F
100
AcDbEntity
  8
C-A
  6
Continuous
 62
     3
370
     9
100
AcDbLine
 10
-926.7693434733683
 20
754.4218621278816
 30
0.0
 11
-917.8893434733682
 21
754.4218621278816
 31
0.0
  0
LINE
  5
3D6
330
1F
100
AcDbEntity
  8
C-A
  6
Continuous
 62
     3
370
     9
100
AcDbLine
 10
-926.7693434733683
 20
750.8718621278814
 30
0.0
 11
-917.8893434733682
 21
750.8718621278814
 31
0.0
  0
LINE
  5
3D7
330
1F
100
AcDbEntity
  8
C-A
  6
Continuous
 62
     3
370
     9
100
AcDbLine
 10
-909.8893434733682
 20
757.9718621278818
 30
0.0
 11
-901.0093434733682
 21
757.9718621278818
 31
0.0
  0
LINE
  5
3D8
330
1F
100
AcDbEntity
  8
C-A
  6
Continuous
 62
     3
370
     9
100
AcDbLine
 10
-909.8893434733682
 20
754.4218621278816
 30
0.0
 11
-901.0093434733682
 21
754.4218621278816
 31
0.0
  0
LINE
  5
3D9
330
1F
100
AcDbEntity
  8
C-A
  6
Continuous
 62
     3
370
     9
100
AcDbLine
 10
-909.8893434733682
 20
750.8718621278814
 30
0.0
 11
-901.0093434733682
 21
750.8718621278814
 31
0.0
  0
LINE
  5
3DA
330
1F
100
AcDbEntity
  8
C-A
  6
Continuous
 62
     3
370
     9
100
AcDbLine
 10
-893.0093434733682
 20
757.9718621278818
 30
0.0
 11
-884.1293434733682
 21
757.9718621278818
 31
0.0
  0
LINE
  5
3DB
330
1F
100
AcDbEntity
  8
C-A
  6
Continuous
 62
     3
370
     9
100
AcDbLine
 10
-893.0093434733682
 20
754.4218621278816
 30
0.0
 11
-884.1293434733682
 21
754.4218621278816
 31
0.0
  0
LINE
  5
3DC
330
1F
100
AcDbEntity
  8
C-A
  6
Continuous
 62
     3
370
     9
100
AcDbLine
 10
-893.0093434733682
 20
750.8718621278814
 30
0.0
 11
-884.1293434733682
 21
750.8718621278814
 31
0.0
  0
LINE
  5
3DD
330
1F
100
AcDbEntity
  8
C-A
  6
Continuous
 62
     3
370
     9
100
AcDbLine
 10
-876.1293434733682
 20
757.9718621278818
 30
0.0
 11
-867.2493434733681
 21
757.9718621278818
 31
0.0
  0
LINE
  5
3DE
330
1F
100
AcDbEntity
  8
C-A
  6
Continuous
 62
     3
370
     9
100
AcDbLine
 10
-876.1293434733682
 20
754.4218621278816
 30
0.0
 11
-867.2493434733681
 21
754.4218621278816
 31
0.0
  0
LINE
  5
3DF
330
1F
100
AcDbEntity
  8
C-A
  6
Continuous
 62
     3
370
     9
100
AcDbLine
 10
-876.1293434733682
 20
750.8718621278814
 30
0.0
 11
-867.2493434733681
 21
750.8718621278814
 31
0.0
  0
LINE
  5
3E0
330
1F
100
AcDbEntity
  8
C-A
  6
Continuous
 62
     3
370
     9
100
AcDbLine
 10
-859.2493434733682
 20
757.9718621278818
 30
0.0
 11
-850.3693434733681
 21
757.9718621278818
 31
0.0
  0
LINE
  5
3E1
330
1F
100
AcDbEntity
  8
C-A
  6
Continuous
 62
     3
370
     9
100
AcDbLine
 10
-859.2493434733682
 20
754.4218621278816
 30
0.0
 11
-850.3693434733681
 21
754.4218621278816
 31
0.0
  0
LINE
  5
3E2
330
1F
100
AcDbEntity
  8
C-A
  6
Continuous
 62
     3
370
     9
100
AcDbLine
 10
-859.2493434733682
 20
750.8718621278814
 30
0.0
 11
-850.3693434733681
 21
750.8718621278814
 31
0.0
  0
LINE
  5
3E3
330
1F
100
AcDbEntity
  8
C-A
  6
Continuous
 62
     3
370
     9
100
AcDbLine
 10
-842.3693434733682
 20
757.9718621278818
 30
0.0
 11
-833.4893434733681
 21
757.9718621278818
 31
0.0
  0
LINE
  5
3E4
330
1F
100
AcDbEntity
  8
C-A
  6
Continuous
 62
     3
370
     9
100
AcDbLine
 10
-842.3693434733682
 20
754.4218621278816
 30
0.0
 11
-833.4893434733681
 21
754.4218621278816
 31
0.0
  0
LINE
  5
3E5
330
1F
100
AcDbEntity
  8
C-A
  6
Continuous
 62
     3
370
     9
100
AcDbLine
 10
-842.3693434733682
 20
750.8718621278814
 30
0.0
 11
-833.4893434733681
 21
750.8718621278814
 31
0.0
  0
LINE
  5
3E6
330
1F
100
AcDbEntity
  8
C-A
  6
Continuous
 62
     3
370
     9
100
AcDbLine
 10
-825.4893434733681
 20
757.9718621278818
 30
0.0
 11
-816.6093434733681
 21
757.9718621278818
 31
0.0
  0
LINE
  5
3E7
330
1F
100
AcDbEntity
  8
C-A
  6
Continuous
 62
     3
370
     9
100
AcDbLine
 10
-825.4893434733681
 20
754.4218621278816
 30
0.0
 11
-816.6093434733681
 21
754.4218621278816
 31
0.0
  0
LINE
  5
3E8
330
1F
100
AcDbEntity
  8
C-A
  6
Continuous
 62
     3
370
     9
100
AcDbLine
 10
-825.4893434733681
 20
750.8718621278814
 30
0.0
 11
-816.6093434733681
 21
750.8718621278814
 31
0.0
  0
LINE
  5
3E9
330
1F
100
AcDbEntity
  8
C-A
  6
Continuous
 62
     3
370
     9
100
AcDbLine
 10
-808.6093434733681
 20
757.9718621278818
 30
0.0
 11
-799.7293434733681
 21
757.9718621278818
 31
0.0
  0
LINE
  5
3EA
330
1F
100
AcDbEntity
  8
C-A
  6
Continuous
 62
     3
370
     9
100
AcDbLine
 10
-808.6093434733681
 20
754.4218621278816
 30
0.0
 11
-799.7293434733681
 21
754.4218621278816
 31
0.0
  0
LINE
  5
3EB
330
1F
100
AcDbEntity
  8
C-A
  6
Continuous
 62
     3
370
     9
100
AcDbLine
 10
-808.6093434733681
 20
750.8718621278814
 30
0.0
 11
-799.7293434733681
 21
750.8718621278814
 31
0.0
  0
LINE
  5
3EC
330
1F
100
AcDbEntity
  8
C-A
  6
Continuous
 62
     3
370
     9
100
AcDbLine
 10
-791.7293434733681
 20
757.9718621278818
 30
0.0
 11
-782.849343473368
 21
757.9718621278818
 31
0.0
  0
LINE
  5
3ED
330
1F
100
AcDbEntity
  8
C-A
  6
Continuous
 62
     3
370
     9
100
AcDbLine
 10
-791.7293434733681
 20
754.4218621278816
 30
0.0
 11
-782.849343473368
 21
754.4218621278816
 31
0.0
  0
LINE
  5
3EE
330
1F
100
AcDbEntity
  8
C-A
  6
Continuous
 62
     3
370
     9
100
AcDbLine
 10
-791.7293434733681
 20
750.8718621278814
 30
0.0
 11
-782.849343473368
 21
750.8718621278814
 31
0.0
  0
LINE
  5
3EF
330
1F
100
AcDbEntity
  8
C-A
  6
Continuous
 62
     3
370
     9
100
AcDbLine
 10
-774.849343473368
 20
757.9718621278818
 30
0.0
 11
-765.969343473368
 21
757.9718621278818
 31
0.0
  0
LINE
  5
3F0
330
1F
100
AcDbEntity
  8
C-A
  6
Continuous
 62
     3
370
     9
100
AcDbLine
 10
-774.849343473368
 20
754.4218621278816
 30
0.0
 11
-765.969343473368
 21
754.4218621278816
 31
0.0
  0
LINE
  5
3F1
330
1F
100
AcDbEntity
  8
C-A
  6
Continuous
 62
     3
370
     9
100
AcDbLine
 10
-774.849343473368
 20
750.8718621278814
 30
0.0
 11
-765.969343473368
 21
750.8718621278814
 31
0.0
  0
LINE
  5
3F2
330
1F
100
AcDbEntity
  8
C-A
  6
Continuous
 62
     3
370
     9
100
AcDbLine
 10
-757.969343473368
 20
757.9718621278818
 30
0.0
 11
-749.089343473368
 21
757.9718621278818
 31
0.0
  0
LINE
  5
3F3
330
1F
100
AcDbEntity
  8
C-A
  6
Continuous
 62
     3
370
     9
100
AcDbLine
 10
-757.969343473368
 20
754.4218621278816
 30
0.0
 11
-749.089343473368
 21
754.4218621278816
 31
0.0
  0
LINE
  5
3F4
330
1F
100
AcDbEntity
  8
C-A
  6
Continuous
 62
     3
370
     9
100
AcDbLine
 10
-757.969343473368
 20
750.8718621278814
 30
0.0
 11
-749.089343473368
 21
750.8718621278814
 31
0.0
  0
LINE
  5
3F5
330
1F
100
AcDbEntity
  8
C-A
  6
Continuous
 62
     3
370
     9
100
AcDbLine
 10
-741.089343473368
 20
757.9718621278818
 30
0.0
 11
-732.2093434733679
 21
757.9718621278818
 31
0.0
  0
LINE
  5
3F6
330
1F
100
AcDbEntity
  8
C-A
  6
Continuous
 62
     3
370
     9
100
AcDbLine
 10
-741.089343473368
 20
754.4218621278816
 30
0.0
 11
-732.2093434733679
 21
754.4218621278816
 31
0.0
  0
LINE
  5
3F7
330
1F
100
AcDbEntity
  8
C-A
  6
Continuous
 62
     3
370
     9
100
AcDbLine
 10
-741.089343473368
 20
750.8718621278814
 30
0.0
 11
-732.2093434733679
 21
750.8718621278814
 31
0.0
  0
LINE
  5
3F8
330
1F
100
AcDbEntity
  8
C-A
  6
Continuous
 62
     3
370
     9
100
AcDbLine
 10
-724.209343473368
 20
757.9718621278818
 30
0.0
 11
-715.3293434733679
 21
757.9718621278818
 31
0.0
  0
LINE
  5
3F9
330
1F
100
AcDbEntity
  8
C-A
  6
Continuous
 62
     3
370
     9
100
AcDbLine
 10
-724.209343473368
 20
754.4218621278816
 30
0.0
 11
-715.3293434733679
 21
754.4218621278816
 31
0.0
  0
LINE
  5
3FA
330
1F
100
AcDbEntity
  8
C-A
  6
Continuous
 62
     3
370
     9
100
AcDbLine
 10
-724.209343473368
 20
750.8718621278814
 30
0.0
 11
-715.3293434733679
 21
750.8718621278814
 31
0.0
  0
LINE
  5
3FB
330
1F
100
AcDbEntity
  8
C-A
  6
Continuous
 62
     3
370
     9
100
AcDbLine
 10
-1054.929343473368
 20
657.9718621278818
 30
0.0
 11
-1052.929343473368
 21
657.9718621278818
 31
0.0
  0
LINE
  5
3FC
330
1F
100
AcDbEntity
  8
C-A
  6
Continuous
 62
     3
370
     9
100
AcDbLine
 10
-1054.929343473368
 20
654.4218621278816
 30
0.0
 11
-1052.929343473368
 21
654.4218621278816
 31
0.0
  0
LINE
  5
3FD
330
1F
100
AcDbEntity
  8
C-A
  6
Continuous
 62
     3
370
     9
100
AcDbLine
 10
-1054.929343473368
 20
650.8718621278814
 30
0.0
 11
-1052.929343473368
 21
650.8718621278814
 31
0.0
  0
LINE
  5
3FE
330
1F
100
AcDbEntity
  8
C-A
  6
Continuous
 62
     3
370
     9
100
AcDbLine
 10
-1044.929343473368
 20
657.9718621278818
 30
0.0
 11
-1036.049343473368
 21
657.9718621278818
 31
0.0
  0
LINE
  5
3FF
330
1F
100
AcDbEntity
  8
C-A
  6
Continuous
 62
     3
370
     9
100
AcDbLine
 10
-1044.929343473368
 20
654.4218621278816
 30
0.0
 11
-1036.049343473368
 21
654.4218621278816
 31
0.0
  0
LINE
  5
400
330
1F
100
AcDbEntity
  8
C-A
  6
Continuous
 62
     3
370
     9
100
AcDbLine
 10
-1044.929343473368
 20
650.8718621278814
 30
0.0
 11
-1036.049343473368
 21
650.8718621278814
 31
0.0
  0
LINE
  5
401
330
1F
100
AcDbEntity
  8
C-A
  6
Continuous
 62
     3
370
     9
100
AcDbLine
 10
-1028.049343473368
 20
657.9718621278818
 30
0.0
 11
-1019.169343473368
 21
657.9718621278818
 31
0.0
  0
LINE
  5
402
330
1F
100
AcDbEntity
  8
C-A
  6
Continuous
 62
     3
370
     9
100
AcDbLine
 10
-1028.049343473368
 20
654.4218621278816
 30
0.0
 11
-1019.169343473368
 21
654.4218621278816
 31
0.0
  0
LINE
  5
403
330
1F
100
AcDbEntity
  8
C-A
  6
Continuous
 62
     3
370
     9
100
AcDbLine
 10
-1028.049343473368
 20
650.8718621278814
 30
0.0
 11
-1019.169343473368
 21
650.8718621278814
 31
0.0
  0
LINE
  5
404
330
1F
100
AcDbEntity
  8
C-A
  6
Continuous
 62
     3
370
     9
100
AcDbLine
 10
-1011.169343473368
 20
657.9718621278818
 30
0.0
 11
-1002.289343473368
 21
657.9718621278818
 31
0.0
  0
LINE
  5
405
330
1F
100
AcDbEntity
  8
C-A
  6
Continuous
 62
     3
370
     9
100
AcDbLine
 10
-1011.169343473368
 20
654.4218621278816
 30
0.0
 11
-1002.289343473368
 21
654.4218621278816
 31
0.0
  0
LINE
  5
406
330
1F
100
AcDbEntity
  8
C-A
  6
Continuous
 62
     3
370
     9
100
AcDbLine
 10
-1011.169343473368
 20
650.8718621278814
 30
0.0
 11
-1002.289343473368
 21
650.8718621278814
 31
0.0
  0
LINE
  5
407
330
1F
100
AcDbEntity
  8
C-A
  6
Continuous
 62
     3
370
     9
100
AcDbLine
 10
-994.2893434733684
 20
657.9718621278818
 30
0.0
 11
-985.4093434733683
 21
657.9718621278818
 31
0.0
  0
LINE
  5
408
330
1F
100
AcDbEntity
  8
C-A
  6
Continuous
 62
     3
370
     9
100
AcDbLine
 10
-994.2893434733684
 20
654.4218621278816
 30
0.0
 11
-985.4093434733683
 21
654.4218621278816
 31
0.0
  0
LINE
  5
409
330
1F
100
AcDbEntity
  8
C-A
  6
Continuous
 62
     3
370
     9
100
AcDbLine
 10
-994.2893434733684
 20
650.8718621278814
 30
0.0
 11
-985.4093434733683
 21
650.8718621278814
 31
0.0
  0
LINE
  5
40A
330
1F
100
AcDbEntity
  8
C-A
  6
Continuous
 62
     3
370
     9
100
AcDbLine
 10
-977.4093434733684
 20
657.9718621278818
 30
0.0
 11
-968.5293434733683
 21
657.9718621278818
 31
0.0
  0
LINE
  5
40B
330
1F
100
AcDbEntity
  8
C-A
  6
Continuous
 62
     3
370
     9
100
AcDbLine
 10
-977.4093434733684
 20
654.4218621278816
 30
0.0
 11
-968.5293434733683
 21
654.4218621278816
 31
0.0
  0
LINE
  5
40C
330
1F
100
AcDbEntity
  8
C-A
  6
Continuous
 62
     3
370
     9
100
AcDbLine
 10
-977.4093434733684
 20
650.8718621278814
 30
0.0
 11
-968.5293434733683
 21
650.8718621278814
 31
0.0
  0
LINE
  5
40D
330
1F
100
AcDbEntity
  8
C-A
  6
Continuous
 62
     3
370
     9
100
AcDbLine
 10
-960.5293434733683
 20
657.9718621278818
 30
0.0
 11
-951.6493434733683
 21
657.9718621278818
 31
0.0
  0
LINE
  5
40E
330
1F
100
AcDbEntity
  8
C-A
  6
Continuous
 62
     3
370
     9
100
AcDbLine
 10
-960.5293434733683
 20
654.4218621278816
 30
0.0
 11
-951.6493434733683
 21
654.4218621278816
 31
0.0
  0
LINE
  5
40F
330
1F
100
AcDbEntity
  8
C-A
  6
Continuous
 62
     3
370
     9
100
AcDbLine
 10
-960.5293434733683
 20
650.8718621278814
 30
0.0
 11
-951.6493434733683
 21
650.8718621278814
 31
0.0
  0
LINE
  5
410
330
1F
100
AcDbEntity
  8
C-A
  6
Continuous
 62
     3
370
     9
100
AcDbLine
 10
-943.6493434733683
 20
657.9718621278818
 30
0.0
 11
-934.7693434733683
 21
657.9718621278818
 31
0.0
  0
LINE
  5
411
330
1F
100
AcDbEntity
  8
C-A
  6
Continuous
 62
     3
370
     9
100
AcDbLine
 10
-943.6493434733683
 20
654.4218621278816
 30
0.0
 11
-934.7693434733683
 21
654.4218621278816
 31
0.0
  0
LINE
  5
412
330
1F
100
AcDbEntity
  8
C-A
  6
Continuous
 62
     3
370
     9
100
AcDbLine
 10
-943.6493434733683
 20
650.8718621278814
 30
0.0
 11
-934.7693434733683
 21
650.8718621278814
 31
0.0
  0
LINE
  5
413
330
1F
100
AcDbEntity
  8
C-A
  6
Continuous
 62
     3
370
     9
100
AcDbLine
 10
-926.7693434733683
 20
657.9718621278818
 30
0.0
 11
-917.8893434733682
 21
657.9718621278818
 31
0.0
  0
LINE
  5
414
330
1F
100
AcDbEntity
  8
C-A
  6
Continuous
 62
     3
370
     9
100
AcDbLine
 10
-926.7693434733683
 20
654.4218621278816
 30
0.0
 11
-917.8893434733682
 21
654.4218621278816
 31
0.0
  0
LINE
  5
415
330
1F
100
AcDbEntity
  8
C-A
  6
Continuous
 62
     3
370
     9
100
AcDbLine
 10
-926.7693434733683
 20
650.8718621278814
 30
0.0
 11
-917.8893434733682
 21
650.8718621278814
 31
0.0
  0
LINE
  5
416
330
1F
100
AcDbEntity
  8
C-A
  6
Continuous
 62
     3
370
     9
100
AcDbLine
 10
-909.8893434733682
 20
657.9718621278818
 30
0.0
 11
-901.0093434733682
 21
657.9718621278818
 31
0.0
  0
LINE
  5
417
330
1F
100
AcDbEntity
  8
C-A
  6
Continuous
 62
     3
370
     9
100
AcDbLine
 10
-909.8893434733682
 20
654.4218621278816
 30
0.0
 11
-901.0093434733682
 21
654.4218621278816
 31
0.0
  0
LINE
  5
418
330
1F
100
AcDbEntity
  8
C-A
  6
Continuous
 62
     3
370
     9
100
AcDbLine
 10
-909.8893434733682
 20
650.8718621278814
 30
0.0
 11
-901.0093434733682
 21
650.8718621278814
 31
0.0
  0
LINE
  5
419
330
1F
100
AcDbEntity
  8
C-A
  6
Continuous
 62
     3
370
     9
100
AcDbLine
 10
-893.0093434733682
 20
657.9718621278818
 30
0.0
 11
-884.1293434733682
 21
657.9718621278818
 31
0.0
  0
LINE
  5
41A
330
1F
100
AcDbEntity
  8
C-A
  6
Continuous
 62
     3
370
     9
100
AcDbLine
 10
-893.0093434733682
 20
654.4218621278816
 30
0.0
 11
-884.1293434733682
 21
654.4218621278816
 31
0.0
  0
LINE
  5
41B
330
1F
100
AcDbEntity
  8
C-A
  6
Continuous
 62
     3
370
     9
100
AcDbLine
 10
-893.0093434733682
 20
650.8718621278814
 30
0.0
 11
-884.1293434733682
 21
650.8718621278814
 31
0.0
  0
LINE
  5
41C
330
1F
100
AcDbEntity
  8
C-A
  6
Continuous
 62
     3
370
     9
100
AcDbLine
 10
-876.1293434733682
 20
657.9718621278818
 30
0.0
 11
-867.2493434733681
 21
657.9718621278818
 31
0.0
  0
LINE
  5
41D
330
1F
100
AcDbEntity
  8
C-A
  6
Continuous
 62
     3
370
     9
100
AcDbLine
 10
-876.1293434733682
 20
654.4218621278816
 30
0.0
 11
-867.2493434733681
 21
654.4218621278816
 31
0.0
  0
LINE
  5
41E
330
1F
100
AcDbEntity
  8
C-A
  6
Continuous
 62
     3
370
     9
100
AcDbLine
 10
-876.1293434733682
 20
650.8718621278814
 30
0.0
 11
-867.2493434733681
 21
650.8718621278814
 31
0.0
  0
LINE
  5
41F
330
1F
100
AcDbEntity
  8
C-A
  6
Continuous
 62
     3
370
     9
100
AcDbLine
 10
-859.2493434733682
 20
657.9718621278818
 30
0.0
 11
-850.3693434733681
 21
657.9718621278818
 31
0.0
  0
LINE
  5
420
330
1F
100
AcDbEntity
  8
C-A
  6
Continuous
 62
     3
370
     9
100
AcDbLine
 10
-859.2493434733682
 20
654.4218621278816
 30
0.0
 11
-850.3693434733681
 21
654.4218621278816
 31
0.0
  0
LINE
  5
421
330
1F
100
AcDbEntity
  8
C-A
  6
Continuous
 62
     3
370
     9
100
AcDbLine
 10
-859.2493434733682
 20
650.8718621278814
 30
0.0
 11
-850.3693434733681
 21
650.8718621278814
 31
0.0
  0
LINE
  5
422
330
1F
100
AcDbEntity
  8
C-A
  6
Continuous
 62
     3
370
     9
100
AcDbLine
 10
-842.3693434733682
 20
657.9718621278818
 30
0.0
 11
-833.4893434733681
 21
657.9718621278818
 31
0.0
  0
LINE
  5
423
330
1F
100
AcDbEntity
  8
C-A
  6
Continuous
 62
     3
370
     9
100
AcDbLine
 10
-842.3693434733682
 20
654.4218621278816
 30
0.0
 11
-833.4893434733681
 21
654.4218621278816
 31
0.0
  0
LINE
  5
424
330
1F
100
AcDbEntity
  8
C-A
  6
Continuous
 62
     3
370
     9
100
AcDbLine
 10
-842.3693434733682
 20
650.8718621278814
 30
0.0
 11
-833.4893434733681
 21
650.8718621278814
 31
0.0
  0
LINE
  5
425
330
1F
100
AcDbEntity
  8
C-A
  6
Continuous
 62
     3
370
     9
100
AcDbLine
 10
-825.4893434733681
 20
657.9718621278818
 30
0.0
 11
-816.6093434733681
 21
657.9718621278818
 31
0.0
  0
LINE
  5
426
330
1F
100
AcDbEntity
  8
C-A
  6
Continuous
 62
     3
370
     9
100
AcDbLine
 10
-825.4893434733681
 20
654.4218621278816
 30
0.0
 11
-816.6093434733681
 21
654.4218621278816
 31
0.0
  0
LINE
  5
427
330
1F
100
AcDbEntity
  8
C-A
  6
Continuous
 62
     3
370
     9
100
AcDbLine
 10
-825.4893434733681
 20
650.8718621278814
 30
0.0
 11
-816.6093434733681
 21
650.8718621278814
 31
0.0
  0
LINE
  5
428
330
1F
100
AcDbEntity
  8
C-A
  6
Continuous
 62
     3
370
     9
100
AcDbLine
 10
-808.6093434733681
 20
657.9718621278818
 30
0.0
 11
-799.7293434733681
 21
657.9718621278818
 31
0.0
  0
LINE
  5
429
330
1F
100
AcDbEntity
  8
C-A
  6
Continuous
 62
     3
370
     9
100
AcDbLine
 10
-1054.929343473368
 20
557.9618621278817
 30
0.0
 11
-1052.929343473368
 21
557.9618621278817
 31
0.0
  0
LINE
  5
42A
330
1F
100
AcDbEntity
  8
C-A
  6
Continuous
 62
     3
370
     9
100
AcDbLine
 10
-1054.929343473368
 20
554.4118621278815
 30
0.0
 11
-1052.929343473368
 21
554.4118621278815
 31
0.0
  0
LINE
  5
42B
330
1F
100
AcDbEntity
  8
C-A
  6
Continuous
 62
     3
370
     9
100
AcDbLine
 10
-1054.929343473368
 20
550.8618621278813
 30
0.0
 11
-1052.929343473368
 21
550.8618621278813
 31
0.0
  0
LINE
  5
42C
330
1F
100
AcDbEntity
  8
C-A
  6
Continuous
 62
     3
370
     9
100
AcDbLine
 10
-1044.929343473368
 20
557.9618621278817
 30
0.0
 11
-1036.049343473368
 21
557.9618621278817
 31
0.0
  0
LINE
  5
42D
330
1F
100
AcDbEntity
  8
C-A
  6
Continuous
 62
     3
370
     9
100
AcDbLine
 10
-1044.929343473368
 20
554.4118621278815
 30
0.0
 11
-1036.049343473368
 21
554.4118621278815
 31
0.0
  0
LINE
  5
42E
330
1F
100
AcDbEntity
  8
C-A
  6
Continuous
 62
     3
370
     9
100
AcDbLine
 10
-1044.929343473368
 20
550.8618621278813
 30
0.0
 11
-1036.049343473368
 21
550.8618621278813
 31
0.0
  0
LINE
  5
42F
330
1F
100
AcDbEntity
  8
C-A
  6
Continuous
 62
     3
370
     9
100
AcDbLine
 10
-1028.049343473368
 20
557.9618621278817
 30
0.0
 11
-1019.169343473368
 21
557.9618621278817
 31
0.0
  0
LINE
  5
430
330
1F
100
AcDbEntity
  8
C-A
  6
Continuous
 62
     3
370
     9
100
AcDbLine
 10
-1028.049343473368
 20
554.4118621278815
 30
0.0
 11
-1019.169343473368
 21
554.4118621278815
 31
0.0
  0
LINE
  5
431
330
1F
100
AcDbEntity
  8
C-A
  6
Continuous
 62
     3
370
     9
100
AcDbLine
 10
-1028.049343473368
 20
550.8618621278813
 30
0.0
 11
-1019.169343473368
 21
550.8618621278813
 31
0.0
  0
LINE
  5
432
330
1F
100
AcDbEntity
  8
C-A
  6
Continuous
 62
     3
370
     9
100
AcDbLine
 10
-1011.169343473368
 20
557.9618621278817
 30
0.0
 11
-1002.289343473368
 21
557.9618621278817
 31
0.0
  0
LINE
  5
433
330
1F
100
AcDbEntity
  8
C-A
  6
Continuous
 62
     3
370
     9
100
AcDbLine
 10
-1011.169343473368
 20
554.4118621278815
 30
0.0
 11
-1002.289343473368
 21
554.4118621278815
 31
0.0
  0
LINE
  5
434
330
1F
100
AcDbEntity
  8
C-A
  6
Continuous
 62
     3
370
     9
100
AcDbLine
 10
-1011.169343473368
 20
550.8618621278813
 30
0.0
 11
-1002.289343473368
 21
550.8618621278813
 31
0.0
  0
LINE
  5
435
330
1F
100
AcDbEntity
  8
C-A
  6
Continuous
 62
     3
370
     9
100
AcDbLine
 10
-994.2893434733684
 20
557.9618621278817
 30
0.0
 11
-985.4093434733683
 21
557.9618621278817
 31
0.0
  0
LINE
  5
436
330
1F
100
AcDbEntity
  8
C-A
  6
Continuous
 62
     3
370
     9
100
AcDbLine
 10
-994.2893434733684
 20
554.4118621278815
 30
0.0
 11
-985.4093434733683
 21
554.4118621278815
 31
0.0
  0
LINE
  5
437
330
1F
100
AcDbEntity
  8
C-A
  6
Continuous
 62
     3
370
     9
100
AcDbLine
 10
-994.2893434733684
 20
550.8618621278813
 30
0.0
 11
-985.4093434733683
 21
550.8618621278813
 31
0.0
  0
LINE
  5
438
330
1F
100
AcDbEntity
  8
C-A
  6
Continuous
 62
     3
370
     9
100
AcDbLine
 10
-977.4093434733684
 20
557.9618621278817
 30
0.0
 11
-968.5293434733683
 21
557.9618621278817
 31
0.0
  0
LINE
  5
439
330
1F
100
AcDbEntity
  8
C-A
  6
Continuous
 62
     3
370
     9
100
AcDbLine
 10
-977.4093434733684
 20
554.4118621278815
 30
0.0
 11
-968.5293434733683
 21
554.4118621278815
 31
0.0
  0
LINE
  5
43A
330
1F
100
AcDbEntity
  8
C-A
  6
Continuous
 62
     3
370
     9
100
AcDbLine
 10
-977.4093434733684
 20
550.8618621278813
 30
0.0
 11
-968.5293434733683
 21
550.8618621278813
 31
0.0
  0
LINE
  5
43B
330
1F
100
AcDbEntity
  8
C-A
  6
Continuous
 62
     3
370
     9
100
AcDbLine
 10
-960.5293434733683
 20
557.9618621278817
 30
0.0
 11
-951.6493434733683
 21
557.9618621278817
 31
0.0
  0
LINE
  5
43C
330
1F
100
AcDbEntity
  8
C-A
  6
Continuous
 62
     3
370
     9
100
AcDbLine
 10
-960.5293434733683
 20
554.4118621278815
 30
0.0
 11
-951.6493434733683
 21
554.4118621278815
 31
0.0
  0
LINE
  5
43D
330
1F
100
AcDbEntity
  8
C-A
  6
Continuous
 62
     3
370
     9
100
AcDbLine
 10
-960.5293434733683
 20
550.8618621278813
 30
0.0
 11
-951.6493434733683
 21
550.8618621278813
 31
0.0
  0
LINE
  5
43E
330
1F
100
AcDbEntity
  8
C-A
  6
Continuous
 62
     3
370
     9
100
AcDbLine
 10
-943.6493434733683
 20
557.9618621278817
 30
0.0
 11
-934.7693434733683
 21
557.9618621278817
 31
0.0
  0
LINE
  5
43F
330
1F
100
AcDbEntity
  8
C-A
  6
Continuous
 62
     3
370
     9
100
AcDbLine
 10
-943.6493434733683
 20
554.4118621278815
 30
0.0
 11
-934.7693434733683
 21
554.4118621278815
 31
0.0
  0
LINE
  5
440
330
1F
100
AcDbEntity
  8
C-A
  6
Continuous
 62
     3
370
     9
100
AcDbLine
 10
-943.6493434733683
 20
550.8618621278813
 30
0.0
 11
-934.7693434733683
 21
550.8618621278813
 31
0.0
  0
LINE
  5
441
330
1F
100
AcDbEntity
  8
C-A
  6
Continuous
 62
     3
370
     9
100
AcDbLine
 10
-926.7693434733683
 20
557.9618621278817
 30
0.0
 11
-917.8893434733682
 21
557.9618621278817
 31
0.0
  0
LINE
  5
442
330
1F
100
AcDbEntity
  8
C-A
  6
Continuous
 62
     3
370
     9
100
AcDbLine
 10
-926.7693434733683
 20
554.4118621278815
 30
0.0
 11
-917.8893434733682
 21
554.4118621278815
 31
0.0
  0
LINE
  5
443
330
1F
100
AcDbEntity
  8
C-A
  6
Continuous
 62
     3
370
     9
100
AcDbLine
 10
-926.7693434733683
 20
550.8618621278813
 30
0.0
 11
-917.8893434733682
 21
550.8618621278813
 31
0.0
  0
LINE
  5
444
330
1F
100
AcDbEntity
  8
C-A
  6
Continuous
 62
     3
370
     9
100
AcDbLine
 10
-909.8893434733682
 20
557.9618621278817
 30
0.0
 11
-901.0093434733682
 21
557.9618621278817
 31
0.0
  0
LINE
  5
445
330
1F
100
AcDbEntity
  8
C-A
  6
Continuous
 62
     3
370
     9
100
AcDbLine
 10
-909.8893434733682
 20
554.4118621278815
 30
0.0
 11
-901.0093434733682
 21
554.4118621278815
 31
0.0
  0
LINE
  5
446
330
1F
100
AcDbEntity
  8
C-A
  6
Continuous
 62
     3
370
     9
100
AcDbLine
 10
-1062.929343473368
 20
926.3718621278815
 30
0.0
 11
-612.9293434733684
 21
926.3718621278815
 31
0.0
  0
LINE
  5
447
330
1F
100
AcDbEntity
  8
C-A
  6
JWW_DASHED3
 62
     2
370
     9
100
AcDbLine
 10
-1037.929343473368
 20
904.3718621278816
 30
0.0
 11
-1037.929343473368
 21
504.3718621278816
 31
0.0
  0
LINE
  5
448
330
1F
100
AcDbEntity
  8
C-A
  6
JWW_DASHED3
 62
     2
370
     9
100
AcDbLine
 10
-1037.929343473368
 20
504.3718621278816
 30
0.0
 11
-637.9293434733684
 21
504.3718621278816
 31
0.0
  0
LINE
  5
449
330
1F
100
AcDbEntity
  8
C-A
  6
JWW_DASHED3
 62
     2
370
     9
100
AcDbLine
 10
-1037.929343473368
 20
904.3718621278816
 30
0.0
 11
-637.9293434733684
 21
904.3718621278816
 31
0.0
  0
LINE
  5
44A
330
1F
100
AcDbEntity
  8
C-A
  6
JWW_DASHED3
 62
     2
370
     9
100
AcDbLine
 10
-637.9293434733684
 20
504.3718621278816
 30
0.0
 11
-637.9293434733684
 21
904.3718621278816
 31
0.0
  0
LINE
  5
44B
330
1F
100
AcDbEntity
  8
C-A
  6
Continuous
 62
     3
370
     9
100
AcDbLine
 10
-909.8893434733682
 20
550.8618621278813
 30
0.0
 11
-901.0093434733682
 21
550.8618621278813
 31
0.0
  0
LINE
  5
44C
330
1F
100
AcDbEntity
  8
C-A
  6
Continuous
 62
     3
370
     9
100
AcDbLine
 10
-808.6093434733681
 20
654.4218621278816
 30
0.0
 11
-799.7293434733681
 21
654.4218621278816
 31
0.0
  0
LINE
  5
44D
330
1F
100
AcDbEntity
  8
C-A
  6
Continuous
 62
     3
370
     9
100
AcDbLine
 10
-808.6093434733681
 20
650.8718621278814
 30
0.0
 11
-799.7293434733681
 21
650.8718621278814
 31
0.0
  0
LINE
  5
44E
330
1F
100
AcDbEntity
  8
C-A
  6
Continuous
 62
     3
370
     9
100
AcDbLine
 10
-707.329343473368
 20
757.9718621278818
 30
0.0
 11
-698.4493434733679
 21
757.9718621278818
 31
0.0
  0
LINE
  5
44F
330
1F
100
AcDbEntity
  8
C-A
  6
Continuous
 62
     3
370
     9
100
AcDbLine
 10
-707.329343473368
 20
754.4218621278816
 30
0.0
 11
-698.4493434733679
 21
754.4218621278816
 31
0.0
  0
LINE
  5
450
330
1F
100
AcDbEntity
  8
C-A
  6
Continuous
 62
     3
370
     9
100
AcDbLine
 10
-1054.929343473368
 20
926.3718621278815
 30
0.0
 11
-1054.929343473368
 21
482.3718621278816
 31
0.0
  0
LINE
  5
451
330
1F
100
AcDbEntity
  8
C-A
  6
Continuous
 62
     3
370
     9
100
AcDbLine
 10
-960.5293434733683
 20
926.3718621278815
 30
0.0
 11
-960.5293434733683
 21
482.3718621278816
 31
0.0
  0
LINE
  5
452
330
1F
100
AcDbEntity
  8
C-A
  6
Continuous
 62
     3
370
     9
100
AcDbLine
 10
-985.4093434733683
 20
926.3718621278815
 30
0.0
 11
-985.4093434733683
 21
482.3718621278816
 31
0.0
  0
LINE
  5
453
330
1F
100
AcDbEntity
  8
C-A
  6
Continuous
 62
     3
370
     9
100
AcDbLine
 10
-977.4093434733684
 20
926.3718621278815
 30
0.0
 11
-977.4093434733684
 21
482.3718621278816
 31
0.0
  0
LINE
  5
454
330
1F
100
AcDbEntity
  8
C-A
  6
Continuous
 62
     3
370
     9
100
AcDbLine
 10
-968.5293434733683
 20
926.3718621278815
 30
0.0
 11
-968.5293434733683
 21
482.3718621278816
 31
0.0
  0
LINE
  5
455
330
1F
100
AcDbEntity
  8
C-A
  6
Continuous
 62
     3
370
     9
100
AcDbLine
 10
-1028.049343473368
 20
926.3718621278815
 30
0.0
 11
-1028.049343473368
 21
482.3718621278816
 31
0.0
  0
LINE
  5
456
330
1F
100
AcDbEntity
  8
C-A
  6
Continuous
 62
     3
370
     9
100
AcDbLine
 10
-1019.169343473368
 20
926.3718621278815
 30
0.0
 11
-1019.169343473368
 21
482.3718621278816
 31
0.0
  0
LINE
  5
457
330
1F
100
AcDbEntity
  8
C-A
  6
Continuous
 62
     3
370
     9
100
AcDbLine
 10
-1011.169343473368
 20
926.3718621278815
 30
0.0
 11
-1011.169343473368
 21
482.3718621278816
 31
0.0
  0
LINE
  5
458
330
1F
100
AcDbEntity
  8
C-A
  6
Continuous
 62
     3
370
     9
100
AcDbLine
 10
-1002.289343473368
 20
926.3718621278815
 30
0.0
 11
-1002.289343473368
 21
482.3718621278816
 31
0.0
  0
LINE
  5
459
330
1F
100
AcDbEntity
  8
C-A
  6
Continuous
 62
     3
370
     9
100
AcDbLine
 10
-994.2893434733684
 20
926.3718621278815
 30
0.0
 11
-994.2893434733684
 21
482.3718621278816
 31
0.0
  0
LINE
  5
45A
330
1F
100
AcDbEntity
  8
C-A
  6
Continuous
 62
     3
370
     9
100
AcDbLine
 10
-1052.929343473368
 20
926.3718621278815
 30
0.0
 11
-1052.929343473368
 21
482.3718621278816
 31
0.0
  0
LINE
  5
45B
330
1F
100
AcDbEntity
  8
C-A
  6
Continuous
 62
     3
370
     9
100
AcDbLine
 10
-1044.929343473368
 20
926.3718621278815
 30
0.0
 11
-1044.929343473368
 21
482.3718621278816
 31
0.0
  0
LINE
  5
45C
330
1F
100
AcDbEntity
  8
C-A
  6
Continuous
 62
     3
370
     9
100
AcDbLine
 10
-1036.049343473368
 20
926.3718621278815
 30
0.0
 11
-1036.049343473368
 21
482.3718621278816
 31
0.0
  0
LINE
  5
45D
330
1F
100
AcDbEntity
  8
C-A
  6
Continuous
 62
     3
370
     9
100
AcDbLine
 10
-1062.929343473368
 20
479.3718621278816
 30
0.0
 11
-612.9293434733684
 21
479.3718621278816
 31
0.0
  0
LINE
  5
45E
330
1F
100
AcDbEntity
  8
C-A
  6
Continuous
 62
     3
370
     9
100
AcDbLine
 10
-612.9293434733684
 20
929.3718621278816
 30
0.0
 11
-612.9293434733684
 21
479.3718621278816
 31
0.0
  0
LINE
  5
45F
330
1F
100
AcDbEntity
  8
C-A
  6
Continuous
 62
     3
370
     9
100
AcDbLine
 10
-943.6493434733683
 20
926.3718621278815
 30
0.0
 11
-943.6493434733683
 21
482.3718621278816
 31
0.0
  0
LINE
  5
460
330
1F
100
AcDbEntity
  8
C-A
  6
Continuous
 62
     3
370
     9
100
AcDbLine
 10
-799.7293434733681
 20
926.3718621278815
 30
0.0
 11
-799.7293434733681
 21
482.3718621278816
 31
0.0
  0
LINE
  5
461
330
1F
100
AcDbEntity
  8
C-A
  6
Continuous
 62
     3
370
     9
100
AcDbLine
 10
-934.7693434733683
 20
926.3718621278815
 30
0.0
 11
-934.7693434733683
 21
482.3718621278816
 31
0.0
  0
LINE
  5
462
330
1F
100
AcDbEntity
  8
C-A
  6
Continuous
 62
     3
370
     9
100
AcDbLine
 10
-926.7693434733683
 20
926.3718621278815
 30
0.0
 11
-926.7693434733683
 21
482.3718621278816
 31
0.0
  0
LINE
  5
463
330
1F
100
AcDbEntity
  8
C-A
  6
Continuous
 62
     3
370
     9
100
AcDbLine
 10
-917.8893434733682
 20
926.3718621278815
 30
0.0
 11
-917.8893434733682
 21
482.3718621278816
 31
0.0
  0
LINE
  5
464
330
1F
100
AcDbEntity
  8
C-A
  6
Continuous
 62
     3
370
     9
100
AcDbLine
 10
-909.8893434733682
 20
926.3718621278815
 30
0.0
 11
-909.8893434733682
 21
482.3718621278816
 31
0.0
  0
LINE
  5
465
330
1F
100
AcDbEntity
  8
C-A
  6
Continuous
 62
     3
370
     9
100
AcDbLine
 10
-876.1293434733682
 20
926.3718621278815
 30
0.0
 11
-876.1293434733682
 21
482.3718621278816
 31
0.0
  0
LINE
  5
466
330
1F
100
AcDbEntity
  8
C-A
  6
Continuous
 62
     3
370
     9
100
AcDbLine
 10
-867.2493434733681
 20
926.3718621278815
 30
0.0
 11
-867.2493434733681
 21
482.3718621278816
 31
0.0
  0
LINE
  5
467
330
1F
100
AcDbEntity
  8
C-A
  6
Continuous
 62
     3
370
     9
100
AcDbLine
 10
-859.2493434733682
 20
926.3718621278815
 30
0.0
 11
-859.2493434733682
 21
482.3718621278816
 31
0.0
  0
LINE
  5
468
330
1F
100
AcDbEntity
  8
C-A
  6
Continuous
 62
     3
370
     9
100
AcDbLine
 10
-850.3693434733681
 20
926.3718621278815
 30
0.0
 11
-850.3693434733681
 21
482.3718621278816
 31
0.0
  0
LINE
  5
469
330
1F
100
AcDbEntity
  8
C-A
  6
Continuous
 62
     3
370
     9
100
AcDbLine
 10
-842.3693434733682
 20
926.3718621278815
 30
0.0
 11
-842.3693434733682
 21
482.3718621278816
 31
0.0
  0
LINE
  5
46A
330
1F
100
AcDbEntity
  8
C-A
  6
Continuous
 62
     3
370
     9
100
AcDbLine
 10
-833.4893434733681
 20
926.3718621278815
 30
0.0
 11
-833.4893434733681
 21
482.3718621278816
 31
0.0
  0
LINE
  5
46B
330
1F
100
AcDbEntity
  8
C-A
  6
Continuous
 62
     3
370
     9
100
AcDbLine
 10
-825.4893434733681
 20
926.3718621278815
 30
0.0
 11
-825.4893434733681
 21
482.3718621278816
 31
0.0
  0
LINE
  5
46C
330
1F
100
AcDbEntity
  8
C-A
  6
Continuous
 62
     3
370
     9
100
AcDbLine
 10
-816.6093434733681
 20
926.3718621278815
 30
0.0
 11
-816.6093434733681
 21
482.3718621278816
 31
0.0
  0
LINE
  5
46D
330
1F
100
AcDbEntity
  8
C-A
  6
Continuous
 62
     3
370
     9
100
AcDbLine
 10
-808.6093434733681
 20
926.3718621278815
 30
0.0
 11
-808.6093434733681
 21
482.3718621278816
 31
0.0
  0
LINE
  5
46E
330
1F
100
AcDbEntity
  8
C-A
  6
Continuous
 62
     3
370
     9
100
AcDbLine
 10
-774.849343473368
 20
926.3718621278815
 30
0.0
 11
-774.849343473368
 21
482.3718621278816
 31
0.0
  0
LINE
  5
46F
330
1F
100
AcDbEntity
  8
C-A
  6
Continuous
 62
     3
370
     9
100
AcDbLine
 10
-765.969343473368
 20
926.3718621278815
 30
0.0
 11
-765.969343473368
 21
482.3718621278816
 31
0.0
  0
LINE
  5
470
330
1F
100
AcDbEntity
  8
C-A
  6
Continuous
 62
     3
370
     9
100
AcDbLine
 10
-757.969343473368
 20
926.3718621278815
 30
0.0
 11
-757.969343473368
 21
482.3718621278816
 31
0.0
  0
LINE
  5
471
330
1F
100
AcDbEntity
  8
C-A
  6
Continuous
 62
     3
370
     9
100
AcDbLine
 10
-749.089343473368
 20
926.3718621278815
 30
0.0
 11
-749.089343473368
 21
482.3718621278816
 31
0.0
  0
LINE
  5
472
330
1F
100
AcDbEntity
  8
C-A
  6
Continuous
 62
     3
370
     9
100
AcDbLine
 10
-741.089343473368
 20
926.3718621278815
 30
0.0
 11
-741.089343473368
 21
482.3718621278816
 31
0.0
  0
LINE
  5
473
330
1F
100
AcDbEntity
  8
C-A
  6
Continuous
 62
     3
370
     9
100
AcDbLine
 10
-732.2093434733679
 20
926.3718621278815
 30
0.0
 11
-732.2093434733679
 21
482.3718621278816
 31
0.0
  0
LINE
  5
474
330
1F
100
AcDbEntity
  8
C-A
  6
Continuous
 62
     3
370
     9
100
AcDbLine
 10
-724.209343473368
 20
926.3718621278815
 30
0.0
 11
-724.209343473368
 21
482.3718621278816
 31
0.0
  0
LINE
  5
475
330
1F
100
AcDbEntity
  8
C-A
  6
Continuous
 62
     3
370
     9
100
AcDbLine
 10
-715.3293434733679
 20
926.3718621278815
 30
0.0
 11
-715.3293434733679
 21
482.3718621278816
 31
0.0
  0
LINE
  5
476
330
1F
100
AcDbEntity
  8
C-A
  6
Continuous
 62
     3
370
     9
100
AcDbLine
 10
-673.5693434733679
 20
926.3718621278815
 30
0.0
 11
-673.5693434733679
 21
482.3718621278816
 31
0.0
  0
LINE
  5
477
330
1F
100
AcDbEntity
  8
C-A
  6
Continuous
 62
     3
370
     9
100
AcDbLine
 10
-664.6893434733679
 20
926.3718621278815
 30
0.0
 11
-664.6893434733679
 21
482.3718621278816
 31
0.0
  0
LINE
  5
478
330
1F
100
AcDbEntity
  8
C-A
  6
Continuous
 62
     3
370
     9
100
AcDbLine
 10
-656.6893434733679
 20
926.3718621278815
 30
0.0
 11
-656.6893434733679
 21
482.3718621278816
 31
0.0
  0
LINE
  5
479
330
1F
100
AcDbEntity
  8
C-A
  6
Continuous
 62
     3
370
     9
100
AcDbLine
 10
-647.8093434733678
 20
926.3718621278815
 30
0.0
 11
-647.8093434733678
 21
482.3718621278816
 31
0.0
  0
LINE
  5
47A
330
1F
100
AcDbEntity
  8
C-A
  6
Continuous
 62
     3
370
     9
100
AcDbLine
 10
-630.9293434733678
 20
926.3718621278815
 30
0.0
 11
-630.9293434733678
 21
482.3718621278816
 31
0.0
  0
LINE
  5
47B
330
1F
100
AcDbEntity
  8
C-A
  6
Continuous
 62
     3
370
     9
100
AcDbLine
 10
-622.9293434733678
 20
926.3718621278815
 30
0.0
 11
-622.9293434733678
 21
482.3718621278816
 31
0.0
  0
LINE
  5
47C
330
1F
100
AcDbEntity
  8
C-A
  6
Continuous
 62
     3
370
     9
100
AcDbLine
 10
-639.8093434733678
 20
926.3718621278815
 30
0.0
 11
-639.8093434733678
 21
482.3718621278816
 31
0.0
  0
LINE
  5
47D
330
1F
100
AcDbEntity
  8
C-A
  6
Continuous
 62
     3
370
     9
100
AcDbLine
 10
-901.0093434733682
 20
926.3718621278815
 30
0.0
 11
-901.0093434733682
 21
482.3718621278816
 31
0.0
  0
LINE
  5
47E
330
1F
100
AcDbEntity
  8
C-A
  6
Continuous
 62
     3
370
     9
100
AcDbLine
 10
-951.6493434733683
 20
926.3718621278815
 30
0.0
 11
-951.6493434733683
 21
482.3718621278816
 31
0.0
  0
LINE
  5
47F
330
1F
100
AcDbEntity
  8
C-A
  6
Continuous
 62
     3
370
     9
100
AcDbLine
 10
-893.0093434733682
 20
926.3718621278815
 30
0.0
 11
-893.0093434733682
 21
482.3718621278816
 31
0.0
  0
LINE
  5
480
330
1F
100
AcDbEntity
  8
C-A
  6
Continuous
 62
     3
370
     9
100
AcDbLine
 10
-884.1293434733682
 20
550.8618621278813
 30
0.0
 11
-893.0093434733682
 21
550.8618621278813
 31
0.0
  0
LINE
  5
481
330
1F
100
AcDbEntity
  8
C-A
  6
Continuous
 62
     3
370
     9
100
AcDbLine
 10
-893.0093434733682
 20
554.4118621278815
 30
0.0
 11
-884.1293434733682
 21
554.4118621278815
 31
0.0
  0
LINE
  5
482
330
1F
100
AcDbEntity
  8
C-A
  6
Continuous
 62
     3
370
     9
100
AcDbLine
 10
-791.7293434733681
 20
926.3718621278815
 30
0.0
 11
-791.7293434733681
 21
482.3718621278816
 31
0.0
  0
LINE
  5
483
330
1F
100
AcDbEntity
  8
C-A
  6
Continuous
 62
     3
370
     9
100
AcDbLine
 10
-782.849343473368
 20
926.3718621278815
 30
0.0
 11
-782.849343473368
 21
482.3718621278816
 31
0.0
  0
LINE
  5
484
330
1F
100
AcDbEntity
  8
C-A
  6
Continuous
 62
     3
370
     9
100
AcDbLine
 10
-791.7293434733681
 20
650.8718621278814
 30
0.0
 11
-782.849343473368
 21
650.8718621278814
 31
0.0
  0
LINE
  5
485
330
1F
100
AcDbEntity
  8
C-A
  6
Continuous
 62
     3
370
     9
100
AcDbLine
 10
-791.7293434733681
 20
657.9718621278818
 30
0.0
 11
-782.849343473368
 21
657.9718621278818
 31
0.0
  0
LINE
  5
486
330
1F
100
AcDbEntity
  8
C-A
  6
Continuous
 62
     3
370
     9
100
AcDbLine
 10
-791.7293434733681
 20
654.4218621278816
 30
0.0
 11
-782.849343473368
 21
654.4218621278816
 31
0.0
  0
LINE
  5
487
330
1F
100
AcDbEntity
  8
C-A
  6
Continuous
 62
     3
370
     9
100
AcDbLine
 10
-681.5693434733679
 20
926.3718621278815
 30
0.0
 11
-681.5693434733679
 21
482.3718621278816
 31
0.0
  0
LINE
  5
488
330
1F
100
AcDbEntity
  8
C-A
  6
Continuous
 62
     3
370
     9
100
AcDbLine
 10
-690.4493434733679
 20
926.3718621278815
 30
0.0
 11
-690.4493434733679
 21
482.3718621278816
 31
0.0
  0
LINE
  5
489
330
1F
100
AcDbEntity
  8
C-A
  6
Continuous
 62
     3
370
     9
100
AcDbLine
 10
-707.329343473368
 20
926.3718621278815
 30
0.0
 11
-707.329343473368
 21
482.3718621278816
 31
0.0
  0
LINE
  5
48A
330
1F
100
AcDbEntity
  8
C-A
  6
Continuous
 62
     3
370
     9
100
AcDbLine
 10
-698.4493434733679
 20
926.3718621278815
 30
0.0
 11
-698.4493434733679
 21
482.3718621278816
 31
0.0
  0
LINE
  5
48B
330
1F
100
AcDbEntity
  8
C-A
  6
Continuous
 62
     3
370
     9
100
AcDbLine
 10
-707.329343473368
 20
750.8718621278814
 30
0.0
 11
-698.4493434733679
 21
750.8718621278814
 31
0.0
  0
LINE
  5
48C
330
1F
100
AcDbEntity
  8
C-A
  6
Continuous
 62
     3
370
     9
100
AcDbLine
 10
-690.4493434733679
 20
757.9718621278818
 30
0.0
 11
-681.5693434733679
 21
757.9718621278818
 31
0.0
  0
LINE
  5
48D
330
1F
100
AcDbEntity
  8
C-A
  6
Continuous
 62
     3
370
     9
100
AcDbLine
 10
-690.4493434733679
 20
754.4218621278816
 30
0.0
 11
-681.5693434733679
 21
754.4218621278816
 31
0.0
  0
LINE
  5
48E
330
1F
100
AcDbEntity
  8
C-A
  6
Continuous
 62
     3
370
     9
100
AcDbLine
 10
-690.4493434733679
 20
750.8718621278814
 30
0.0
 11
-681.5693434733679
 21
750.8718621278814
 31
0.0
  0
LINE
  5
48F
330
1F
100
AcDbEntity
  8
C-A
  6
Continuous
 62
     3
370
     9
100
AcDbLine
 10
-673.5693434733679
 20
757.9718621278818
 30
0.0
 11
-664.6893434733679
 21
757.9718621278818
 31
0.0
  0
LINE
  5
490
330
1F
100
AcDbEntity
  8
C-A
  6
Continuous
 62
     3
370
     9
100
AcDbLine
 10
-673.5693434733679
 20
754.4218621278816
 30
0.0
 11
-664.6893434733679
 21
754.4218621278816
 31
0.0
  0
LINE
  5
491
330
1F
100
AcDbEntity
  8
C-A
  6
Continuous
 62
     3
370
     9
100
AcDbLine
 10
-673.5693434733679
 20
750.8718621278814
 30
0.0
 11
-664.6893434733679
 21
750.8718621278814
 31
0.0
  0
LINE
  5
492
330
1F
100
AcDbEntity
  8
C-A
  6
Continuous
 62
     3
370
     9
100
AcDbLine
 10
-656.6893434733679
 20
757.9718621278818
 30
0.0
 11
-647.8093434733678
 21
757.9718621278818
 31
0.0
  0
LINE
  5
493
330
1F
100
AcDbEntity
  8
C-A
  6
Continuous
 62
     3
370
     9
100
AcDbLine
 10
-656.6893434733679
 20
754.4218621278816
 30
0.0
 11
-647.8093434733678
 21
754.4218621278816
 31
0.0
  0
LINE
  5
494
330
1F
100
AcDbEntity
  8
C-A
  6
Continuous
 62
     3
370
     9
100
AcDbLine
 10
-656.6893434733679
 20
750.8718621278814
 30
0.0
 11
-647.8093434733678
 21
750.8718621278814
 31
0.0
  0
LINE
  5
495
330
1F
100
AcDbEntity
  8
C-A
  6
Continuous
 62
     3
370
     9
100
AcDbLine
 10
-639.8093434733678
 20
757.9718621278818
 30
0.0
 11
-630.9293434733678
 21
757.9718621278818
 31
0.0
  0
LINE
  5
496
330
1F
100
AcDbEntity
  8
C-A
  6
Continuous
 62
     3
370
     9
100
AcDbLine
 10
-639.8093434733678
 20
754.4218621278816
 30
0.0
 11
-630.9293434733678
 21
754.4218621278816
 31
0.0
  0
LINE
  5
497
330
1F
100
AcDbEntity
  8
C-A
  6
Continuous
 62
     3
370
     9
100
AcDbLine
 10
-639.8093434733678
 20
750.8718621278814
 30
0.0
 11
-630.9293434733678
 21
750.8718621278814
 31
0.0
  0
LINE
  5
498
330
1F
100
AcDbEntity
  8
C-A
  6
Continuous
 62
     3
370
     9
100
AcDbLine
 10
-622.9293434733678
 20
757.9718621278818
 30
0.0
 11
-620.9293434733678
 21
757.9718621278818
 31
0.0
  0
LINE
  5
499
330
1F
100
AcDbEntity
  8
C-A
  6
Continuous
 62
     3
370
     9
100
AcDbLine
 10
-622.9293434733678
 20
754.4218621278816
 30
0.0
 11
-620.9293434733678
 21
754.4218621278816
 31
0.0
  0
LINE
  5
49A
330
1F
100
AcDbEntity
  8
C-A
  6
Continuous
 62
     3
370
     9
100
AcDbLine
 10
-622.9293434733678
 20
750.8718621278814
 30
0.0
 11
-620.9293434733678
 21
750.8718621278814
 31
0.0
  0
LINE
  5
49B
330
1F
100
AcDbEntity
  8
C-A
  6
Continuous
 62
     3
370
     9
100
AcDbLine
 10
-774.849343473368
 20
650.8718621278814
 30
0.0
 11
-765.969343473368
 21
650.8718621278814
 31
0.0
  0
LINE
  5
49C
330
1F
100
AcDbEntity
  8
C-A
  6
Continuous
 62
     3
370
     9
100
AcDbLine
 10
-774.849343473368
 20
657.9718621278818
 30
0.0
 11
-765.969343473368
 21
657.9718621278818
 31
0.0
  0
LINE
  5
49D
330
1F
100
AcDbEntity
  8
C-A
  6
Continuous
 62
     3
370
     9
100
AcDbLine
 10
-774.849343473368
 20
654.4218621278816
 30
0.0
 11
-765.969343473368
 21
654.4218621278816
 31
0.0
  0
LINE
  5
49E
330
1F
100
AcDbEntity
  8
C-A
  6
Continuous
 62
     3
370
     9
100
AcDbLine
 10
-757.969343473368
 20
650.8718621278814
 30
0.0
 11
-749.089343473368
 21
650.8718621278814
 31
0.0
  0
LINE
  5
49F
330
1F
100
AcDbEntity
  8
C-A
  6
Continuous
 62
     3
370
     9
100
AcDbLine
 10
-757.969343473368
 20
657.9718621278818
 30
0.0
 11
-749.089343473368
 21
657.9718621278818
 31
0.0
  0
LINE
  5
4A0
330
1F
100
AcDbEntity
  8
C-A
  6
Continuous
 62
     3
370
     9
100
AcDbLine
 10
-757.969343473368
 20
654.4218621278816
 30
0.0
 11
-749.089343473368
 21
654.4218621278816
 31
0.0
  0
LINE
  5
4A1
330
1F
100
AcDbEntity
  8
C-A
  6
Continuous
 62
     3
370
     9
100
AcDbLine
 10
-741.089343473368
 20
650.8718621278814
 30
0.0
 11
-732.2093434733679
 21
650.8718621278814
 31
0.0
  0
LINE
  5
4A2
330
1F
100
AcDbEntity
  8
C-A
  6
Continuous
 62
     3
370
     9
100
AcDbLine
 10
-741.089343473368
 20
657.9718621278818
 30
0.0
 11
-732.2093434733679
 21
657.9718621278818
 31
0.0
  0
LINE
  5
4A3
330
1F
100
AcDbEntity
  8
C-A
  6
Continuous
 62
     3
370
     9
100
AcDbLine
 10
-741.089343473368
 20
654.4218621278816
 30
0.0
 11
-732.2093434733679
 21
654.4218621278816
 31
0.0
  0
LINE
  5
4A4
330
1F
100
AcDbEntity
  8
C-A
  6
Continuous
 62
     3
370
     9
100
AcDbLine
 10
-724.209343473368
 20
650.8718621278814
 30
0.0
 11
-715.3293434733679
 21
650.8718621278814
 31
0.0
  0
LINE
  5
4A5
330
1F
100
AcDbEntity
  8
C-A
  6
Continuous
 62
     3
370
     9
100
AcDbLine
 10
-724.209343473368
 20
657.9718621278818
 30
0.0
 11
-715.3293434733679
 21
657.9718621278818
 31
0.0
  0
LINE
  5
4A6
330
1F
100
AcDbEntity
  8
C-A
  6
Continuous
 62
     3
370
     9
100
AcDbLine
 10
-724.209343473368
 20
654.4218621278816
 30
0.0
 11
-715.3293434733679
 21
654.4218621278816
 31
0.0
  0
LINE
  5
4A7
330
1F
100
AcDbEntity
  8
C-A
  6
Continuous
 62
     3
370
     9
100
AcDbLine
 10
-707.329343473368
 20
650.8718621278814
 30
0.0
 11
-698.4493434733679
 21
650.8718621278814
 31
0.0
  0
LINE
  5
4A8
330
1F
100
AcDbEntity
  8
C-A
  6
Continuous
 62
     3
370
     9
100
AcDbLine
 10
-707.329343473368
 20
657.9718621278818
 30
0.0
 11
-698.4493434733679
 21
657.9718621278818
 31
0.0
  0
LINE
  5
4A9
330
1F
100
AcDbEntity
  8
C-A
  6
Continuous
 62
     3
370
     9
100
AcDbLine
 10
-707.329343473368
 20
654.4218621278816
 30
0.0
 11
-698.4493434733679
 21
654.4218621278816
 31
0.0
  0
LINE
  5
4AA
330
1F
100
AcDbEntity
  8
C-A
  6
Continuous
 62
     3
370
     9
100
AcDbLine
 10
-690.4493434733679
 20
650.8718621278814
 30
0.0
 11
-681.5693434733679
 21
650.8718621278814
 31
0.0
  0
LINE
  5
4AB
330
1F
100
AcDbEntity
  8
C-A
  6
Continuous
 62
     3
370
     9
100
AcDbLine
 10
-690.4493434733679
 20
657.9718621278818
 30
0.0
 11
-681.5693434733679
 21
657.9718621278818
 31
0.0
  0
LINE
  5
4AC
330
1F
100
AcDbEntity
  8
C-A
  6
Continuous
 62
     3
370
     9
100
AcDbLine
 10
-690.4493434733679
 20
654.4218621278816
 30
0.0
 11
-681.5693434733679
 21
654.4218621278816
 31
0.0
  0
LINE
  5
4AD
330
1F
100
AcDbEntity
  8
C-A
  6
Continuous
 62
     3
370
     9
100
AcDbLine
 10
-673.5693434733679
 20
650.8718621278814
 30
0.0
 11
-664.6893434733679
 21
650.8718621278814
 31
0.0
  0
LINE
  5
4AE
330
1F
100
AcDbEntity
  8
C-A
  6
Continuous
 62
     3
370
     9
100
AcDbLine
 10
-673.5693434733679
 20
657.9718621278818
 30
0.0
 11
-664.6893434733679
 21
657.9718621278818
 31
0.0
  0
LINE
  5
4AF
330
1F
100
AcDbEntity
  8
C-A
  6
Continuous
 62
     3
370
     9
100
AcDbLine
 10
-673.5693434733679
 20
654.4218621278816
 30
0.0
 11
-664.6893434733679
 21
654.4218621278816
 31
0.0
  0
LINE
  5
4B0
330
1F
100
AcDbEntity
  8
C-A
  6
Continuous
 62
     3
370
     9
100
AcDbLine
 10
-656.6893434733679
 20
650.8718621278814
 30
0.0
 11
-647.8093434733678
 21
650.8718621278814
 31
0.0
  0
LINE
  5
4B1
330
1F
100
AcDbEntity
  8
C-A
  6
Continuous
 62
     3
370
     9
100
AcDbLine
 10
-656.6893434733679
 20
657.9718621278818
 30
0.0
 11
-647.8093434733678
 21
657.9718621278818
 31
0.0
  0
LINE
  5
4B2
330
1F
100
AcDbEntity
  8
C-A
  6
Continuous
 62
     3
370
     9
100
AcDbLine
 10
-656.6893434733679
 20
654.4218621278816
 30
0.0
 11
-647.8093434733678
 21
654.4218621278816
 31
0.0
  0
LINE
  5
4B3
330
1F
100
AcDbEntity
  8
C-A
  6
Continuous
 62
     3
370
     9
100
AcDbLine
 10
-639.8093434733678
 20
650.8718621278814
 30
0.0
 11
-630.9293434733678
 21
650.8718621278814
 31
0.0
  0
LINE
  5
4B4
330
1F
100
AcDbEntity
  8
C-A
  6
Continuous
 62
     3
370
     9
100
AcDbLine
 10
-639.8093434733678
 20
657.9718621278818
 30
0.0
 11
-630.9293434733678
 21
657.9718621278818
 31
0.0
  0
LINE
  5
4B5
330
1F
100
AcDbEntity
  8
C-A
  6
Continuous
 62
     3
370
     9
100
AcDbLine
 10
-639.8093434733678
 20
654.4218621278816
 30
0.0
 11
-630.9293434733678
 21
654.4218621278816
 31
0.0
  0
LINE
  5
4B6
330
1F
100
AcDbEntity
  8
C-A
  6
Continuous
 62
     3
370
     9
100
AcDbLine
 10
-893.0093434733682
 20
557.9618621278817
 30
0.0
 11
-884.1293434733682
 21
557.9618621278817
 31
0.0
  0
LINE
  5
4B7
330
1F
100
AcDbEntity
  8
C-A
  6
Continuous
 62
     3
370
     9
100
AcDbLine
 10
-884.1293434733682
 20
926.3718621278815
 30
0.0
 11
-884.1293434733682
 21
482.3718621278816
 31
0.0
  0
LINE
  5
4B8
330
1F
100
AcDbEntity
  8
C-A
  6
Continuous
 62
     3
370
     9
100
AcDbLine
 10
-622.9293434733678
 20
650.8718621278814
 30
0.0
 11
-620.9293434733678
 21
650.8718621278814
 31
0.0
  0
LINE
  5
4B9
330
1F
100
AcDbEntity
  8
C-A
  6
Continuous
 62
     3
370
     9
100
AcDbLine
 10
-622.9293434733678
 20
657.9718621278818
 30
0.0
 11
-620.9293434733678
 21
657.9718621278818
 31
0.0
  0
LINE
  5
4BA
330
1F
100
AcDbEntity
  8
C-A
  6
Continuous
 62
     3
370
     9
100
AcDbLine
 10
-622.9293434733678
 20
654.4218621278816
 30
0.0
 11
-620.9293434733678
 21
654.4218621278816
 31
0.0
  0
LINE
  5
4BB
330
1F
100
AcDbEntity
  8
C-A
  6
Continuous
 62
     3
370
     9
100
AcDbLine
 10
-867.2493434733681
 20
550.8618621278813
 30
0.0
 11
-876.1293434733682
 21
550.8618621278813
 31
0.0
  0
LINE
  5
4BC
330
1F
100
AcDbEntity
  8
C-A
  6
Continuous
 62
     3
370
     9
100
AcDbLine
 10
-876.1293434733682
 20
554.4118621278815
 30
0.0
 11
-867.2493434733681
 21
554.4118621278815
 31
0.0
  0
LINE
  5
4BD
330
1F
100
AcDbEntity
  8
C-A
  6
Continuous
 62
     3
370
     9
100
AcDbLine
 10
-876.1293434733682
 20
557.9618621278817
 30
0.0
 11
-867.2493434733681
 21
557.9618621278817
 31
0.0
  0
LINE
  5
4BE
330
1F
100
AcDbEntity
  8
C-A
  6
Continuous
 62
     3
370
     9
100
AcDbLine
 10
-850.3693434733681
 20
550.8618621278813
 30
0.0
 11
-859.2493434733682
 21
550.8618621278813
 31
0.0
  0
LINE
  5
4BF
330
1F
100
AcDbEntity
  8
C-A
  6
Continuous
 62
     3
370
     9
100
AcDbLine
 10
-859.2493434733682
 20
554.4118621278815
 30
0.0
 11
-850.3693434733681
 21
554.4118621278815
 31
0.0
  0
LINE
  5
4C0
330
1F
100
AcDbEntity
  8
C-A
  6
Continuous
 62
     3
370
     9
100
AcDbLine
 10
-859.2493434733682
 20
557.9618621278817
 30
0.0
 11
-850.3693434733681
 21
557.9618621278817
 31
0.0
  0
LINE
  5
4C1
330
1F
100
AcDbEntity
  8
C-A
  6
Continuous
 62
     3
370
     9
100
AcDbLine
 10
-833.4893434733681
 20
550.8618621278813
 30
0.0
 11
-842.3693434733682
 21
550.8618621278813
 31
0.0
  0
LINE
  5
4C2
330
1F
100
AcDbEntity
  8
C-A
  6
Continuous
 62
     3
370
     9
100
AcDbLine
 10
-842.3693434733682
 20
554.4118621278815
 30
0.0
 11
-833.4893434733681
 21
554.4118621278815
 31
0.0
  0
LINE
  5
4C3
330
1F
100
AcDbEntity
  8
C-A
  6
Continuous
 62
     3
370
     9
100
AcDbLine
 10
-842.3693434733682
 20
557.9618621278817
 30
0.0
 11
-833.4893434733681
 21
557.9618621278817
 31
0.0
  0
LINE
  5
4C4
330
1F
100
AcDbEntity
  8
C-A
  6
Continuous
 62
     3
370
     9
100
AcDbLine
 10
-816.6093434733681
 20
550.8618621278813
 30
0.0
 11
-825.4893434733681
 21
550.8618621278813
 31
0.0
  0
LINE
  5
4C5
330
1F
100
AcDbEntity
  8
C-A
  6
Continuous
 62
     3
370
     9
100
AcDbLine
 10
-825.4893434733681
 20
554.4118621278815
 30
0.0
 11
-816.6093434733681
 21
554.4118621278815
 31
0.0
  0
LINE
  5
4C6
330
1F
100
AcDbEntity
  8
C-A
  6
Continuous
 62
     3
370
     9
100
AcDbLine
 10
-825.4893434733681
 20
557.9618621278817
 30
0.0
 11
-816.6093434733681
 21
557.9618621278817
 31
0.0
  0
LINE
  5
4C7
330
1F
100
AcDbEntity
  8
C-A
  6
Continuous
 62
     3
370
     9
100
AcDbLine
 10
-799.7293434733681
 20
550.8618621278813
 30
0.0
 11
-808.6093434733681
 21
550.8618621278813
 31
0.0
  0
LINE
  5
4C8
330
1F
100
AcDbEntity
  8
C-A
  6
Continuous
 62
     3
370
     9
100
AcDbLine
 10
-808.6093434733681
 20
554.4118621278815
 30
0.0
 11
-799.7293434733681
 21
554.4118621278815
 31
0.0
  0
LINE
  5
4C9
330
1F
100
AcDbEntity
  8
C-A
  6
Continuous
 62
     3
370
     9
100
AcDbLine
 10
-808.6093434733681
 20
557.9618621278817
 30
0.0
 11
-799.7293434733681
 21
557.9618621278817
 31
0.0
  0
LINE
  5
4CA
330
1F
100
AcDbEntity
  8
C-A
  6
Continuous
 62
     3
370
     9
100
AcDbLine
 10
-782.849343473368
 20
550.8618621278813
 30
0.0
 11
-791.7293434733681
 21
550.8618621278813
 31
0.0
  0
LINE
  5
4CB
330
1F
100
AcDbEntity
  8
C-A
  6
Continuous
 62
     3
370
     9
100
AcDbLine
 10
-791.7293434733681
 20
554.4118621278815
 30
0.0
 11
-782.849343473368
 21
554.4118621278815
 31
0.0
  0
LINE
  5
4CC
330
1F
100
AcDbEntity
  8
C-A
  6
Continuous
 62
     3
370
     9
100
AcDbLine
 10
-791.7293434733681
 20
557.9618621278817
 30
0.0
 11
-782.849343473368
 21
557.9618621278817
 31
0.0
  0
LINE
  5
4CD
330
1F
100
AcDbEntity
  8
C-A
  6
Continuous
 62
     3
370
     9
100
AcDbLine
 10
-765.969343473368
 20
550.8618621278813
 30
0.0
 11
-774.849343473368
 21
550.8618621278813
 31
0.0
  0
LINE
  5
4CE
330
1F
100
AcDbEntity
  8
C-A
  6
Continuous
 62
     3
370
     9
100
AcDbLine
 10
-774.849343473368
 20
554.4118621278815
 30
0.0
 11
-765.969343473368
 21
554.4118621278815
 31
0.0
  0
LINE
  5
4CF
330
1F
100
AcDbEntity
  8
C-A
  6
Continuous
 62
     3
370
     9
100
AcDbLine
 10
-774.849343473368
 20
557.9618621278817
 30
0.0
 11
-765.969343473368
 21
557.9618621278817
 31
0.0
  0
LINE
  5
4D0
330
1F
100
AcDbEntity
  8
C-A
  6
Continuous
 62
     3
370
     9
100
AcDbLine
 10
-749.089343473368
 20
550.8618621278813
 30
0.0
 11
-757.969343473368
 21
550.8618621278813
 31
0.0
  0
LINE
  5
4D1
330
1F
100
AcDbEntity
  8
C-A
  6
Continuous
 62
     3
370
     9
100
AcDbLine
 10
-757.969343473368
 20
554.4118621278815
 30
0.0
 11
-749.089343473368
 21
554.4118621278815
 31
0.0
  0
LINE
  5
4D2
330
1F
100
AcDbEntity
  8
C-A
  6
Continuous
 62
     3
370
     9
100
AcDbLine
 10
-757.969343473368
 20
557.9618621278817
 30
0.0
 11
-749.089343473368
 21
557.9618621278817
 31
0.0
  0
LINE
  5
4D3
330
1F
100
AcDbEntity
  8
C-A
  6
Continuous
 62
     3
370
     9
100
AcDbLine
 10
-732.2093434733679
 20
550.8618621278813
 30
0.0
 11
-741.089343473368
 21
550.8618621278813
 31
0.0
  0
LINE
  5
4D4
330
1F
100
AcDbEntity
  8
C-A
  6
Continuous
 62
     3
370
     9
100
AcDbLine
 10
-741.089343473368
 20
554.4118621278815
 30
0.0
 11
-732.2093434733679
 21
554.4118621278815
 31
0.0
  0
LINE
  5
4D5
330
1F
100
AcDbEntity
  8
C-A
  6
Continuous
 62
     3
370
     9
100
AcDbLine
 10
-741.089343473368
 20
557.9618621278817
 30
0.0
 11
-732.2093434733679
 21
557.9618621278817
 31
0.0
  0
LINE
  5
4D6
330
1F
100
AcDbEntity
  8
C-A
  6
Continuous
 62
     3
370
     9
100
AcDbLine
 10
-715.3293434733679
 20
550.8618621278813
 30
0.0
 11
-724.209343473368
 21
550.8618621278813
 31
0.0
  0
LINE
  5
4D7
330
1F
100
AcDbEntity
  8
C-A
  6
Continuous
 62
     3
370
     9
100
AcDbLine
 10
-724.209343473368
 20
554.4118621278815
 30
0.0
 11
-715.3293434733679
 21
554.4118621278815
 31
0.0
  0
LINE
  5
4D8
330
1F
100
AcDbEntity
  8
C-A
  6
Continuous
 62
     3
370
     9
100
AcDbLine
 10
-724.209343473368
 20
557.9618621278817
 30
0.0
 11
-715.3293434733679
 21
557.9618621278817
 31
0.0
  0
LINE
  5
4D9
330
1F
100
AcDbEntity
  8
C-A
  6
Continuous
 62
     3
370
     9
100
AcDbLine
 10
-698.4493434733679
 20
550.8618621278813
 30
0.0
 11
-707.329343473368
 21
550.8618621278813
 31
0.0
  0
LINE
  5
4DA
330
1F
100
AcDbEntity
  8
C-A
  6
Continuous
 62
     3
370
     9
100
AcDbLine
 10
-707.329343473368
 20
554.4118621278815
 30
0.0
 11
-698.4493434733679
 21
554.4118621278815
 31
0.0
  0
LINE
  5
4DB
330
1F
100
AcDbEntity
  8
C-A
  6
Continuous
 62
     3
370
     9
100
AcDbLine
 10
-707.329343473368
 20
557.9618621278817
 30
0.0
 11
-698.4493434733679
 21
557.9618621278817
 31
0.0
  0
LINE
  5
4DC
330
1F
100
AcDbEntity
  8
C-A
  6
Continuous
 62
     3
370
     9
100
AcDbLine
 10
-681.5693434733679
 20
550.8618621278813
 30
0.0
 11
-690.4493434733679
 21
550.8618621278813
 31
0.0
  0
LINE
  5
4DD
330
1F
100
AcDbEntity
  8
C-A
  6
Continuous
 62
     3
370
     9
100
AcDbLine
 10
-690.4493434733679
 20
554.4118621278815
 30
0.0
 11
-681.5693434733679
 21
554.4118621278815
 31
0.0
  0
LINE
  5
4DE
330
1F
100
AcDbEntity
  8
C-A
  6
Continuous
 62
     3
370
     9
100
AcDbLine
 10
-690.4493434733679
 20
557.9618621278817
 30
0.0
 11
-681.5693434733679
 21
557.9618621278817
 31
0.0
  0
LINE
  5
4DF
330
1F
100
AcDbEntity
  8
C-A
  6
Continuous
 62
     3
370
     9
100
AcDbLine
 10
-664.6893434733679
 20
550.8618621278813
 30
0.0
 11
-673.5693434733679
 21
550.8618621278813
 31
0.0
  0
LINE
  5
4E0
330
1F
100
AcDbEntity
  8
C-A
  6
Continuous
 62
     3
370
     9
100
AcDbLine
 10
-673.5693434733679
 20
554.4118621278815
 30
0.0
 11
-664.6893434733679
 21
554.4118621278815
 31
0.0
  0
LINE
  5
4E1
330
1F
100
AcDbEntity
  8
C-A
  6
Continuous
 62
     3
370
     9
100
AcDbLine
 10
-673.5693434733679
 20
557.9618621278817
 30
0.0
 11
-664.6893434733679
 21
557.9618621278817
 31
0.0
  0
LINE
  5
4E2
330
1F
100
AcDbEntity
  8
C-A
  6
Continuous
 62
     3
370
     9
100
AcDbLine
 10
-647.8093434733678
 20
550.8618621278813
 30
0.0
 11
-656.6893434733679
 21
550.8618621278813
 31
0.0
  0
LINE
  5
4E3
330
1F
100
AcDbEntity
  8
C-A
  6
Continuous
 62
     3
370
     9
100
AcDbLine
 10
-656.6893434733679
 20
554.4118621278815
 30
0.0
 11
-647.8093434733678
 21
554.4118621278815
 31
0.0
  0
LINE
  5
4E4
330
1F
100
AcDbEntity
  8
C-A
  6
Continuous
 62
     3
370
     9
100
AcDbLine
 10
-656.6893434733679
 20
557.9618621278817
 30
0.0
 11
-647.8093434733678
 21
557.9618621278817
 31
0.0
  0
LINE
  5
4E5
330
1F
100
AcDbEntity
  8
C-A
  6
Continuous
 62
     3
370
     9
100
AcDbLine
 10
-630.9293434733678
 20
550.8618621278813
 30
0.0
 11
-639.8093434733678
 21
550.8618621278813
 31
0.0
  0
LINE
  5
4E6
330
1F
100
AcDbEntity
  8
C-A
  6
Continuous
 62
     3
370
     9
100
AcDbLine
 10
-639.8093434733678
 20
554.4118621278815
 30
0.0
 11
-630.9293434733678
 21
554.4118621278815
 31
0.0
  0
LINE
  5
4E7
330
1F
100
AcDbEntity
  8
C-A
  6
Continuous
 62
     3
370
     9
100
AcDbLine
 10
-639.8093434733678
 20
557.9618621278817
 30
0.0
 11
-630.9293434733678
 21
557.9618621278817
 31
0.0
  0
LINE
  5
4E8
330
1F
100
AcDbEntity
  8
C-A
  6
Continuous
 62
     3
370
     9
100
AcDbLine
 10
-622.9293434733678
 20
550.8618621278813
 30
0.0
 11
-620.9293434733678
 21
550.8618621278813
 31
0.0
  0
LINE
  5
4E9
330
1F
100
AcDbEntity
  8
C-A
  6
Continuous
 62
     3
370
     9
100
AcDbLine
 10
-622.9293434733678
 20
554.4118621278815
 30
0.0
 11
-620.9293434733678
 21
554.4118621278815
 31
0.0
  0
LINE
  5
4EA
330
1F
100
AcDbEntity
  8
C-A
  6
Continuous
 62
     3
370
     9
100
AcDbLine
 10
-622.9293434733678
 20
557.9618621278817
 30
0.0
 11
-620.9293434733678
 21
557.9618621278817
 31
0.0
  0
LINE
  5
4EB
330
1F
100
AcDbEntity
  8
C-A
  6
Continuous
 62
     3
370
     9
100
AcDbLine
 10
-620.9293434733678
 20
926.3718621278815
 30
0.0
 11
-620.9293434733678
 21
482.3718621278816
 31
0.0
  0
LINE
  5
4EC
330
1F
100
AcDbEntity
  8
C-A
  6
Continuous
 62
     3
370
     9
100
AcDbLine
 10
-612.9293434733684
 20
482.3718621278816
 30
0.0
 11
-1062.929343473368
 21
482.3718621278816
 31
0.0
  0
LINE
  5
4ED
330
1F
100
AcDbEntity
  8
C-A
  6
Continuous
 62
     2
370
     9
100
AcDbLine
 10
-1067.929343473369
 20
474.3718621278817
 30
0.0
 11
-607.9293434733684
 21
474.3718621278817
 31
0.0
  0
LINE
  5
4EE
330
1F
100
AcDbEntity
  8
C-A
  6
Continuous
 62
     2
370
     9
100
AcDbLine
 10
-1064.929343473368
 20
477.3718621278817
 30
0.0
 11
-610.9293434733684
 21
477.3718621278817
 31
0.0
  0
LINE
  5
4EF
330
1F
100
AcDbEntity
  8
C-A
  6
Continuous
 62
     2
370
     9
100
AcDbLine
 10
-1064.929343473368
 20
931.3718621278815
 30
0.0
 11
-1064.929343473368
 21
477.3718621278817
 31
0.0
  0
LINE
  5
4F0
330
1F
100
AcDbEntity
  8
C-A
  6
Continuous
 62
     2
370
     9
100
AcDbLine
 10
-1067.929343473369
 20
934.3718621278816
 30
0.0
 11
-1067.929343473369
 21
474.3718621278817
 31
0.0
  0
LINE
  5
4F1
330
1F
100
AcDbEntity
  8
C-A
  6
Continuous
 62
     2
370
     9
100
AcDbLine
 10
-1064.929343473368
 20
931.3718621278815
 30
0.0
 11
-610.9293434733684
 21
931.3718621278815
 31
0.0
  0
LINE
  5
4F2
330
1F
100
AcDbEntity
  8
C-A
  6
Continuous
 62
     2
370
     9
100
AcDbLine
 10
-610.9293434733684
 20
931.3718621278815
 30
0.0
 11
-610.9293434733684
 21
477.3718621278817
 31
0.0
  0
LINE
  5
4F3
330
1F
100
AcDbEntity
  8
C-A
  6
Continuous
 62
     2
370
     9
100
AcDbLine
 10
-1067.929343473369
 20
934.3718621278816
 30
0.0
 11
-607.9293434733684
 21
934.3718621278816
 31
0.0
  0
LINE
  5
4F4
330
1F
100
AcDbEntity
  8
C-A
  6
Continuous
 62
     2
370
     9
100
AcDbLine
 10
-607.9293434733684
 20
934.3718621278816
 30
0.0
 11
-607.9293434733684
 21
474.3718621278817
 31
0.0
  0
LINE
  5
4F5
330
1F
100
AcDbEntity
  8
C-9
  6
Continuous
 62
     3
370
     9
100
AcDbLine
 10
-699.1787407511999
 20
939.3720923566599
 30
0.0
 11
-700.4287407511999
 21
939.3720923566599
 31
0.0
  0
LINE
  5
4F6
330
1F
100
AcDbEntity
  8
C-9
  6
Continuous
 62
     3
370
     9
100
AcDbLine
 10
-699.1787407511999
 20
939.3720923566599
 30
0.0
 11
-699.1787407511999
 21
968.3720766210337
 31
0.0
  0
LINE
  5
4F7
330
1F
100
AcDbEntity
  8
C-9
  6
Continuous
 62
     3
370
     9
100
AcDbLine
 10
-700.4334099406522
 20
935.3720790052176
 30
0.0
 11
-699.9202568644803
 21
935.3720790052176
 31
0.0
  0
LINE
  5
4F8
330
1F
100
AcDbEntity
  8
C-9
  6
Continuous
 62
     3
370
     9
100
AcDbLine
 10
-715.9286797160423
 20
935.3720790052176
 30
0.0
 11
-715.4287102336214
 21
935.3720790052176
 31
0.0
  0
LINE
  5
4F9
330
1F
100
AcDbEntity
  8
C-9
  6
Continuous
 62
     3
370
     9
100
AcDbLine
 10
-716.6788017863548
 20
939.3720923566599
 30
0.0
 11
-715.4288323039334
 21
939.3720923566599
 31
0.0
  0
LINE
  5
4FA
330
1F
100
AcDbEntity
  8
C-9
  6
Continuous
 62
     3
370
     9
100
AcDbLine
 10
-716.6788017863548
 20
939.3720923566599
 30
0.0
 11
-716.6788017863548
 21
968.3720766210337
 31
0.0
  0
LINE
  5
4FB
330
1F
100
AcDbEntity
  8
C-9
  6
Continuous
 62
     3
370
     9
100
AcDbLine
 10
-699.1787407511999
 20
968.3720766210337
 30
0.0
 11
-716.6788017863548
 21
968.3720766210337
 31
0.0
  0
LINE
  5
4FC
330
1F
100
AcDbEntity
  8
C-9
  6
JWW_DASHED2
 62
     3
370
     9
100
AcDbLine
 10
-701.1787712687767
 20
939.2261768483883
 30
0.0
 11
-701.1787712687767
 21
968.3720766210337
 31
0.0
  0
LINE
  5
4FD
330
1F
100
AcDbEntity
  8
C-9
  6
JWW_DASHED2
 62
     3
370
     9
100
AcDbLine
 10
-714.6788017863566
 20
939.2261768483883
 30
0.0
 11
-714.6788017863566
 21
968.3720766210337
 31
0.0
  0
LINE
  5
4FE
330
1F
100
AcDbEntity
  8
C-9
  6
JWW_CENTER2
 62
     7
370
     9
100
AcDbLine
 10
-707.9287407511999
 20
925.9038978719474
 30
0.0
 11
-707.9287407511999
 21
973.3042970800176
 31
0.0
  0
LINE
  5
4FF
330
1F
100
AcDbEntity
  8
C-9
  6
JWW_CENTER2
 62
     7
370
     9
100
AcDbLine
 10
-713.7047417277615
 20
958.3720308446647
 30
0.0
 11
-702.1527092570598
 21
958.3720308446647
 31
0.0
  0
ARC
  5
500
330
1F
100
AcDbEntity
  8
C-9
  6
Continuous
 62
     3
370
     9
100
AcDbCircle
 10
-699.9286797160432
 20
933.3720971250301
 30
0.0
 40
1.999999642372131
100
AcDbArc
 50
29.99926757812499
 51
89.75836181640622
  0
ARC
  5
501
330
1F
100
AcDbEntity
  8
C-9
  6
Continuous
 62
     3
370
     9
100
AcDbCircle
 10
-700.4287407511999
 20
937.3720732831731
 30
0.0
 40
1.999999642372131
100
AcDbArc
 50
90.0
 51
269.86669921875
  0
ARC
  5
502
330
1F
100
AcDbEntity
  8
C-9
  6
Continuous
 62
     3
370
     9
100
AcDbCircle
 10
-715.9286797160423
 20
933.3720971250301
 30
0.0
 40
1.999999642372131
100
AcDbArc
 50
90.27595520019531
 51
150.0004730224609
  0
ARC
  5
503
330
1F
100
AcDbEntity
  8
C-9
  6
Continuous
 62
     3
370
     9
100
AcDbCircle
 10
-715.4288323039334
 20
937.3720732831731
 30
0.0
 40
1.999999642372131
100
AcDbArc
 50
270.0
 51
90.0
  0
CIRCLE
  5
504
330
1F
100
AcDbEntity
  8
C-9
  6
Continuous
 62
     3
370
     9
100
AcDbCircle
 10
-707.9287407511999
 20
958.3720308446647
 30
0.0
 40
4.249999523162842
  0
LINE
  5
505
330
1F
100
AcDbEntity
  8
C-9
  6
Continuous
 62
     3
370
     9
100
AcDbLine
 10
-699.1787407511999
 20
469.3716409590076
 30
0.0
 11
-700.4287407511999
 21
469.3716409590076
 31
0.0
  0
LINE
  5
506
330
1F
100
AcDbEntity
  8
C-9
  6
Continuous
 62
     3
370
     9
100
AcDbLine
 10
-699.1787407511999
 20
469.3716409590076
 30
0.0
 11
-699.1787407511999
 21
440.3716562177993
 31
0.0
  0
LINE
  5
507
330
1F
100
AcDbEntity
  8
C-9
  6
Continuous
 62
     3
370
     9
100
AcDbLine
 10
-700.4334099406522
 20
473.3716562177966
 30
0.0
 11
-699.9202568644803
 21
473.3716562177966
 31
0.0
  0
LINE
  5
508
330
1F
100
AcDbEntity
  8
C-9
  6
Continuous
 62
     3
370
     9
100
AcDbLine
 10
-715.9286797160423
 20
473.3716562177966
 30
0.0
 11
-715.4287102336214
 21
473.3716562177966
 31
0.0
  0
LINE
  5
509
330
1F
100
AcDbEntity
  8
C-9
  6
Continuous
 62
     3
370
     9
100
AcDbLine
 10
-716.6788017863548
 20
469.3716409590076
 30
0.0
 11
-715.4288323039334
 21
469.3716409590076
 31
0.0
  0
LINE
  5
50A
330
1F
100
AcDbEntity
  8
C-9
  6
Continuous
 62
     3
370
     9
100
AcDbLine
 10
-716.6788017863548
 20
469.3716409590076
 30
0.0
 11
-716.6788017863548
 21
440.3716562177993
 31
0.0
  0
LINE
  5
50B
330
1F
100
AcDbEntity
  8
C-9
  6
Continuous
 62
     3
370
     9
100
AcDbLine
 10
-699.1787407511999
 20
440.3716562177993
 30
0.0
 11
-716.6788017863548
 21
440.3716562177993
 31
0.0
  0
LINE
  5
50C
330
1F
100
AcDbEntity
  8
C-9
  6
JWW_DASHED2
 62
     3
370
     9
100
AcDbLine
 10
-701.1787712687767
 20
469.5175455000259
 30
0.0
 11
-701.1787712687767
 21
440.3716562177993
 31
0.0
  0
LINE
  5
50D
330
1F
100
AcDbEntity
  8
C-9
  6
JWW_DASHED2
 62
     3
370
     9
100
AcDbLine
 10
-714.6788017863566
 20
469.5175455000259
 30
0.0
 11
-714.6788017863566
 21
440.3716562177993
 31
0.0
  0
LINE
  5
50E
330
1F
100
AcDbEntity
  8
C-9
  6
JWW_CENTER2
 62
     7
370
     9
100
AcDbLine
 10
-713.7047417277615
 20
450.3717019941638
 30
0.0
 11
-702.1527092570598
 21
450.3717019941638
 31
0.0
  0
LINE
  5
50F
330
1F
100
AcDbEntity
  8
C-9
  6
JWW_CENTER2
 62
     7
370
     9
100
AcDbLine
 10
-707.9287407511999
 20
482.8398263838159
 30
0.0
 11
-707.9287407511999
 21
435.4394357588131
 31
0.0
  0
ARC
  5
510
330
1F
100
AcDbEntity
  8
C-9
  6
Continuous
 62
     3
370
     9
100
AcDbCircle
 10
-699.9286797160432
 20
475.3716257002185
 30
0.0
 40
1.999999642372131
100
AcDbArc
 50
270.2416229248047
 51
330.0007171630859
  0
ARC
  5
511
330
1F
100
AcDbEntity
  8
C-9
  6
Continuous
 62
     3
370
     9
100
AcDbCircle
 10
-700.4287407511999
 20
471.3716562177984
 30
0.0
 40
1.999999642372131
100
AcDbArc
 50
90.13328552246094
 51
270.0
  0
ARC
  5
512
330
1F
100
AcDbEntity
  8
C-9
  6
Continuous
 62
     3
370
     9
100
AcDbCircle
 10
-715.9286797160423
 20
475.3716257002185
 30
0.0
 40
1.999999642372131
100
AcDbArc
 50
209.99951171875
 51
269.7240295410156
  0
ARC
  5
513
330
1F
100
AcDbEntity
  8
C-9
  6
Continuous
 62
     3
370
     9
100
AcDbCircle
 10
-715.4288323039334
 20
471.3716562177984
 30
0.0
 40
1.999999642372131
100
AcDbArc
 50
270.0
 51
90.0
  0
CIRCLE
  5
514
330
1F
100
AcDbEntity
  8
C-9
  6
Continuous
 62
     3
370
     9
100
AcDbCircle
 10
-707.9287407511999
 20
450.3717019941638
 30
0.0
 40
4.249999523162842
  0
LINE
  5
515
330
1F
100
AcDbEntity
  8
C-9
  6
Continuous
 62
     3
370
     9
100
AcDbLine
 10
-959.1799461955356
 20
939.3720923566599
 30
0.0
 11
-960.4299461955356
 21
939.3720923566599
 31
0.0
  0
LINE
  5
516
330
1F
100
AcDbEntity
  8
C-9
  6
Continuous
 62
     3
370
     9
100
AcDbLine
 10
-959.1799461955356
 20
939.3720923566599
 30
0.0
 11
-959.1799461955356
 21
968.3720766210337
 31
0.0
  0
LINE
  5
517
330
1F
100
AcDbEntity
  8
C-9
  6
Continuous
 62
     3
370
     9
100
AcDbLine
 10
-960.4346153849879
 20
935.3720790052176
 30
0.0
 11
-959.921462308816
 21
935.3720790052176
 31
0.0
  0
LINE
  5
518
330
1F
100
AcDbEntity
  8
C-9
  6
Continuous
 62
     3
370
     9
100
AcDbLine
 10
-975.929885160378
 20
935.3720790052176
 30
0.0
 11
-975.4299156779571
 21
935.3720790052176
 31
0.0
  0
LINE
  5
519
330
1F
100
AcDbEntity
  8
C-9
  6
Continuous
 62
     3
370
     9
100
AcDbLine
 10
-976.6800072306905
 20
939.3720923566599
 30
0.0
 11
-975.4300377482691
 21
939.3720923566599
 31
0.0
  0
LINE
  5
51A
330
1F
100
AcDbEntity
  8
C-9
  6
Continuous
 62
     3
370
     9
100
AcDbLine
 10
-976.6800072306905
 20
939.3720923566599
 30
0.0
 11
-976.6800072306905
 21
968.3720766210337
 31
0.0
  0
LINE
  5
51B
330
1F
100
AcDbEntity
  8
C-9
  6
Continuous
 62
     3
370
     9
100
AcDbLine
 10
-959.1799461955356
 20
968.3720766210337
 30
0.0
 11
-976.6800072306905
 21
968.3720766210337
 31
0.0
  0
LINE
  5
51C
330
1F
100
AcDbEntity
  8
C-9
  6
JWW_DASHED2
 62
     3
370
     9
100
AcDbLine
 10
-961.1799767131124
 20
939.2261768483883
 30
0.0
 11
-961.1799767131124
 21
968.3720766210337
 31
0.0
  0
LINE
  5
51D
330
1F
100
AcDbEntity
  8
C-9
  6
JWW_DASHED2
 62
     3
370
     9
100
AcDbLine
 10
-974.6800072306924
 20
939.2261768483883
 30
0.0
 11
-974.6800072306924
 21
968.3720766210337
 31
0.0
  0
LINE
  5
51E
330
1F
100
AcDbEntity
  8
C-9
  6
JWW_CENTER2
 62
     7
370
     9
100
AcDbLine
 10
-967.9299461955356
 20
925.9038978719474
 30
0.0
 11
-967.9299461955356
 21
973.3042970800176
 31
0.0
  0
LINE
  5
51F
330
1F
100
AcDbEntity
  8
C-9
  6
JWW_CENTER2
 62
     7
370
     9
100
AcDbLine
 10
-973.7059471720972
 20
958.3720308446647
 30
0.0
 11
-962.1539147013955
 21
958.3720308446647
 31
0.0
  0
ARC
  5
520
330
1F
100
AcDbEntity
  8
C-9
  6
Continuous
 62
     3
370
     9
100
AcDbCircle
 10
-959.929885160379
 20
933.3720971250301
 30
0.0
 40
1.999999642372131
100
AcDbArc
 50
29.99926757812499
 51
89.75836181640622
  0
ARC
  5
521
330
1F
100
AcDbEntity
  8
C-9
  6
Continuous
 62
     3
370
     9
100
AcDbCircle
 10
-960.4299461955356
 20
937.3720732831731
 30
0.0
 40
1.999999642372131
100
AcDbArc
 50
90.0
 51
269.86669921875
  0
ARC
  5
522
330
1F
100
AcDbEntity
  8
C-9
  6
Continuous
 62
     3
370
     9
100
AcDbCircle
 10
-975.929885160378
 20
933.3720971250301
 30
0.0
 40
1.999999642372131
100
AcDbArc
 50
90.27595520019531
 51
150.0004730224609
  0
ARC
  5
523
330
1F
100
AcDbEntity
  8
C-9
  6
Continuous
 62
     3
370
     9
100
AcDbCircle
 10
-975.4300377482691
 20
937.3720732831731
 30
0.0
 40
1.999999642372131
100
AcDbArc
 50
270.0
 51
90.0
  0
CIRCLE
  5
524
330
1F
100
AcDbEntity
  8
C-9
  6
Continuous
 62
     3
370
     9
100
AcDbCircle
 10
-967.9299461955356
 20
958.3720308446647
 30
0.0
 40
4.249999523162842
  0
LINE
  5
525
330
1F
100
AcDbEntity
  8
C-9
  6
Continuous
 62
     3
370
     9
100
AcDbLine
 10
-959.1799461955356
 20
469.3716409590076
 30
0.0
 11
-960.4299461955356
 21
469.3716409590076
 31
0.0
  0
LINE
  5
526
330
1F
100
AcDbEntity
  8
C-9
  6
Continuous
 62
     3
370
     9
100
AcDbLine
 10
-959.1799461955356
 20
469.3716409590076
 30
0.0
 11
-959.1799461955356
 21
440.3716562177993
 31
0.0
  0
LINE
  5
527
330
1F
100
AcDbEntity
  8
C-9
  6
Continuous
 62
     3
370
     9
100
AcDbLine
 10
-960.4346153849879
 20
473.3716562177966
 30
0.0
 11
-959.921462308816
 21
473.3716562177966
 31
0.0
  0
LINE
  5
528
330
1F
100
AcDbEntity
  8
C-9
  6
Continuous
 62
     3
370
     9
100
AcDbLine
 10
-975.929885160378
 20
473.3716562177966
 30
0.0
 11
-975.4299156779571
 21
473.3716562177966
 31
0.0
  0
LINE
  5
529
330
1F
100
AcDbEntity
  8
C-9
  6
Continuous
 62
     3
370
     9
100
AcDbLine
 10
-976.6800072306905
 20
469.3716409590076
 30
0.0
 11
-975.4300377482691
 21
469.3716409590076
 31
0.0
  0
LINE
  5
52A
330
1F
100
AcDbEntity
  8
C-9
  6
Continuous
 62
     3
370
     9
100
AcDbLine
 10
-976.6800072306905
 20
469.3716409590076
 30
0.0
 11
-976.6800072306905
 21
440.3716562177993
 31
0.0
  0
LINE
  5
52B
330
1F
100
AcDbEntity
  8
C-9
  6
Continuous
 62
     3
370
     9
100
AcDbLine
 10
-959.1799461955356
 20
440.3716562177993
 30
0.0
 11
-976.6800072306905
 21
440.3716562177993
 31
0.0
  0
LINE
  5
52C
330
1F
100
AcDbEntity
  8
C-9
  6
JWW_DASHED2
 62
     3
370
     9
100
AcDbLine
 10
-961.1799767131124
 20
469.5175455000259
 30
0.0
 11
-961.1799767131124
 21
440.3716562177993
 31
0.0
  0
LINE
  5
52D
330
1F
100
AcDbEntity
  8
C-9
  6
JWW_DASHED2
 62
     3
370
     9
100
AcDbLine
 10
-974.6800072306924
 20
469.5175455000259
 30
0.0
 11
-974.6800072306924
 21
440.3716562177993
 31
0.0
  0
LINE
  5
52E
330
1F
100
AcDbEntity
  8
C-9
  6
JWW_CENTER2
 62
     7
370
     9
100
AcDbLine
 10
-973.7059471720972
 20
450.3717019941638
 30
0.0
 11
-962.1539147013955
 21
450.3717019941638
 31
0.0
  0
LINE
  5
52F
330
1F
100
AcDbEntity
  8
C-9
  6
JWW_CENTER2
 62
     7
370
     9
100
AcDbLine
 10
-967.9299461955356
 20
482.8398263838159
 30
0.0
 11
-967.9299461955356
 21
435.4394357588131
 31
0.0
  0
ARC
  5
530
330
1F
100
AcDbEntity
  8
C-9
  6
Continuous
 62
     3
370
     9
100
AcDbCircle
 10
-959.929885160379
 20
475.3716257002185
 30
0.0
 40
1.999999642372131
100
AcDbArc
 50
270.2416229248047
 51
330.0007171630859
  0
ARC
  5
531
330
1F
100
AcDbEntity
  8
C-9
  6
Continuous
 62
     3
370
     9
100
AcDbCircle
 10
-960.4299461955356
 20
471.3716562177984
 30
0.0
 40
1.999999642372131
100
AcDbArc
 50
90.13328552246094
 51
270.0
  0
ARC
  5
532
330
1F
100
AcDbEntity
  8
C-9
  6
Continuous
 62
     3
370
     9
100
AcDbCircle
 10
-975.929885160378
 20
475.3716257002185
 30
0.0
 40
1.999999642372131
100
AcDbArc
 50
209.99951171875
 51
269.7240295410156
  0
ARC
  5
533
330
1F
100
AcDbEntity
  8
C-9
  6
Continuous
 62
     3
370
     9
100
AcDbCircle
 10
-975.4300377482691
 20
471.3716562177984
 30
0.0
 40
1.999999642372131
100
AcDbArc
 50
270.0
 51
90.0
  0
CIRCLE
  5
534
330
1F
100
AcDbEntity
  8
C-9
  6
Continuous
 62
     3
370
     9
100
AcDbCircle
 10
-967.9299461955356
 20
450.3717019941638
 30
0.0
 40
4.249999523162842
  0
LINE
  5
535
330
1F
100
AcDbEntity
  8
C-4
  6
Continuous
 62
     7
370
     9
100
AcDbLine
 10
-1067.929343473369
 20
1202.490563179414
 30
0.0
 11
-607.9292197534571
 21
1202.490563179414
 31
0.0
  0
LWPOLYLINE
  5
536
330
1F
100
AcDbEntity
  8
C-4
  6
Continuous
 62
     7
370
     9
100
AcDbPolyline
 90
        4
 70
     1
 43
1.0
 10
-1067.429343473369
 20
1202.490563179414
 42
0.4142135623731
 10
-1067.929343473369
 20
1202.990563179414
 42
0.4142135623731
 10
-1068.429343473369
 20
1202.490563179414
 42
0.4142135623731
 10
-1067.929343473369
 20
1201.990563179414
 42
0.4142135623731
  0
LWPOLYLINE
  5
537
330
1F
100
AcDbEntity
  8
C-4
  6
Continuous
 62
     7
370
     9
100
AcDbPolyline
 90
        4
 70
     1
 43
1.0
 10
-607.4292197534571
 20
1202.490563179414
 42
0.4142135623731
 10
-607.9292197534571
 20
1202.990563179414
 42
0.4142135623731
 10
-608.429219753457
 20
1202.490563179414
 42
0.4142135623731
 10
-607.9292197534571
 20
1201.990563179414
 42
0.4142135623731
  0
TEXT
  5
538
330
1F
100
AcDbEntity
  8
C-4
  6
Continuous
 62
     2
370
   211
100
AcDbText
 10
-870.4292816134134
 20
1214.130563179415
 30
0.0
 40
30.48
  1
460
 41
1.083333333333333
  7
ＭＳ ゴシック
100
AcDbText
  0
LINE
  5
539
330
1F
100
AcDbEntity
  8
C-4
  6
Continuous
 62
     7
370
     9
100
AcDbLine
 10
-1037.929508433251
 20
1048.276012974641
 30
0.0
 11
-637.9296733931321
 21
1048.276012974641
 31
0.0
  0
LWPOLYLINE
  5
53A
330
1F
100
AcDbEntity
  8
C-4
  6
Continuous
 62
     7
370
     9
100
AcDbPolyline
 90
        4
 70
     1
 43
1.0
 10
-1037.429508433251
 20
1048.276012974641
 42
0.4142135623731
 10
-1037.929508433251
 20
1048.776012974641
 42
0.4142135623731
 10
-1038.429508433251
 20
1048.276012974641
 42
0.4142135623731
 10
-1037.929508433251
 20
1047.776012974641
 42
0.4142135623731
  0
LWPOLYLINE
  5
53B
330
1F
100
AcDbEntity
  8
C-4
  6
Continuous
 62
     7
370
     9
100
AcDbPolyline
 90
        4
 70
     1
 43
1.0
 10
-637.4296733931321
 20
1048.276012974641
 42
0.4142135623731
 10
-637.9296733931321
 20
1048.776012974641
 42
0.4142135623731
 10
-638.429673393132
 20
1048.276012974641
 42
0.4142135623731
 10
-637.9296733931321
 20
1047.776012974641
 42
0.4142135623731
  0
TEXT
  5
53C
330
1F
100
AcDbEntity
  8
C-4
  6
Continuous
 62
     2
370
   211
100
AcDbText
 10
-1103.372515260352
 20
1137.023288077027
 30
0.0
 40
30.48
  1
3
 41
0.9999999999999998
  7
ＭＳ ゴシック
100
AcDbText
  0
LWPOLYLINE
  5
53D
330
1F
100
AcDbEntity
  8
C-4
  6
Continuous
 62
     7
370
     9
100
AcDbPolyline
 90
        4
 70
     1
 43
1.0
 10
-1067.429343473369
 20
1125.383288077028
 42
0.4142135623731
 10
-1067.929343473369
 20
1125.883288077028
 42
0.4142135623731
 10
-1068.429343473369
 20
1125.383288077028
 42
0.4142135623731
 10
-1067.929343473369
 20
1124.883288077029
 42
0.4142135623731
  0
LWPOLYLINE
  5
53E
330
1F
100
AcDbEntity
  8
C-4
  6
Continuous
 62
     7
370
     9
100
AcDbPolyline
 90
        4
 70
     1
 43
1.0
 10
-1064.429343473369
 20
1125.383288077028
 42
0.4142135623731
 10
-1064.929343473369
 20
1125.883288077028
 42
0.4142135623731
 10
-1065.429343473369
 20
1125.383288077028
 42
0.4142135623731
 10
-1064.929343473369
 20
1124.883288077029
 42
0.4142135623731
  0
LINE
  5
53F
330
1F
100
AcDbEntity
  8
C-4
  6
Continuous
 62
     7
370
     9
100
AcDbLine
 10
-1064.929343473369
 20
1125.383288077028
 30
0.0
 11
-1062.929343473369
 21
1125.383288077028
 31
0.0
  0
LWPOLYLINE
  5
540
330
1F
100
AcDbEntity
  8
C-4
  6
Continuous
 62
     7
370
     9
100
AcDbPolyline
 90
        4
 70
     1
 43
1.0
 10
-1062.429343473369
 20
1125.383288077028
 42
0.4142135623731
 10
-1062.929343473369
 20
1125.883288077028
 42
0.4142135623731
 10
-1063.429343473369
 20
1125.383288077028
 42
0.4142135623731
 10
-1062.929343473369
 20
1124.883288077029
 42
0.4142135623731
  0
LINE
  5
541
330
1F
100
AcDbEntity
  8
C-4
  6
Continuous
 62
     7
370
     9
100
AcDbLine
 10
-1062.929343473369
 20
1125.383288077028
 30
0.0
 11
-612.9292197534571
 21
1125.383288077028
 31
0.0
  0
LWPOLYLINE
  5
542
330
1F
100
AcDbEntity
  8
C-4
  6
Continuous
 62
     7
370
     9
100
AcDbPolyline
 90
        4
 70
     1
 43
1.0
 10
-612.4292197534571
 20
1125.383288077028
 42
0.4142135623731
 10
-612.9292197534571
 20
1125.883288077028
 42
0.4142135623731
 10
-613.429219753457
 20
1125.383288077028
 42
0.4142135623731
 10
-612.9292197534571
 20
1124.883288077029
 42
0.4142135623731
  0
TEXT
  5
543
330
1F
100
AcDbEntity
  8
C-4
  6
Continuous
 62
     2
370
   211
100
AcDbText
 10
-1056.783496957523
 20
1137.023288077027
 30
0.0
 40
30.48
  1
2
 41
0.9999999999999998
  7
ＭＳ ゴシック
100
AcDbText
  0
LINE
  5
544
330
1F
100
AcDbEntity
  8
C-4
  6
Continuous
 62
     7
370
     9
100
AcDbLine
 10
-612.9292197534571
 20
1125.383288077028
 30
0.0
 11
-610.9292197534578
 21
1125.383288077028
 31
0.0
  0
LWPOLYLINE
  5
545
330
1F
100
AcDbEntity
  8
C-4
  6
Continuous
 62
     7
370
     9
100
AcDbPolyline
 90
        4
 70
     1
 43
1.0
 10
-610.4292197534578
 20
1125.383288077028
 42
0.4142135623731
 10
-610.9292197534578
 20
1125.883288077028
 42
0.4142135623731
 10
-611.4292197534577
 20
1125.383288077028
 42
0.4142135623731
 10
-610.9292197534578
 20
1124.883288077029
 42
0.4142135623731
  0
LWPOLYLINE
  5
546
330
1F
100
AcDbEntity
  8
C-4
  6
Continuous
 62
     7
370
     9
100
AcDbPolyline
 90
        4
 70
     1
 43
1.0
 10
-607.4292197534571
 20
1125.383288077028
 42
0.4142135623731
 10
-607.9292197534571
 20
1125.883288077028
 42
0.4142135623731
 10
-608.429219753457
 20
1125.383288077028
 42
0.4142135623731
 10
-607.9292197534571
 20
1124.883288077029
 42
0.4142135623731
  0
LINE
  5
547
330
1F
100
AcDbEntity
  8
C-4
  6
Continuous
 62
     7
370
     9
100
AcDbLine
 10
-1067.929343473369
 20
1205.490563179414
 30
0.0
 11
-1067.929343473369
 21
949.3718621278816
 31
0.0
  0
LINE
  5
548
330
1F
100
AcDbEntity
  8
C-4
  6
Continuous
 62
     7
370
     9
100
AcDbLine
 10
-607.9292197534571
 20
1205.490563179414
 30
0.0
 11
-607.9292197534571
 21
949.3718621278816
 31
0.0
  0
LINE
  5
549
330
1F
100
AcDbEntity
  8
C-4
  6
Continuous
 62
     7
370
     9
100
AcDbLine
 10
-1037.929508433251
 20
1051.276012974642
 30
0.0
 11
-1037.929508433251
 21
949.3718621278816
 31
0.0
  0
LINE
  5
54A
330
1F
100
AcDbEntity
  8
C-4
  6
Continuous
 62
     7
370
     9
100
AcDbLine
 10
-637.9296733931321
 20
1051.276012974642
 30
0.0
 11
-637.9296733931321
 21
949.3718621278816
 31
0.0
  0
LINE
  5
54B
330
1F
100
AcDbEntity
  8
C-4
  6
Continuous
 62
     7
370
     9
100
AcDbLine
 10
-1064.929343473369
 20
1128.383288077028
 30
0.0
 11
-1064.929343473369
 21
949.3718621278816
 31
0.0
  0
LINE
  5
54C
330
1F
100
AcDbEntity
  8
C-4
  6
Continuous
 62
     7
370
     9
100
AcDbLine
 10
-1062.929343473369
 20
1128.383288077028
 30
0.0
 11
-1062.929343473369
 21
949.3718621278816
 31
0.0
  0
LINE
  5
54D
330
1F
100
AcDbEntity
  8
C-4
  6
Continuous
 62
     7
370
     9
100
AcDbLine
 10
-612.9292197534571
 20
1128.383288077028
 30
0.0
 11
-612.9292197534571
 21
949.3718621278816
 31
0.0
  0
LINE
  5
54E
330
1F
100
AcDbEntity
  8
C-4
  6
Continuous
 62
     7
370
     9
100
AcDbLine
 10
-610.9292197534578
 20
1128.383288077028
 30
0.0
 11
-610.9292197534578
 21
949.3718621278816
 31
0.0
  0
TEXT
  5
54F
330
1F
100
AcDbEntity
  8
C-4
  6
Continuous
 62
     2
370
   211
100
AcDbText
 10
-870.4292816134134
 20
1137.023288077027
 30
0.0
 40
30.48
  1
450
 41
1.083333333333333
  7
ＭＳ ゴシック
100
AcDbText
  0
TEXT
  5
550
330
1F
100
AcDbEntity
  8
C-4
  6
Continuous
 62
     2
370
   211
100
AcDbText
 10
-637.482332232066
 20
1137.023288077027
 30
0.0
 40
30.48
  1
2
 41
0.9999999999999998
  7
ＭＳ ゴシック
100
AcDbText
  0
TEXT
  5
551
330
1F
100
AcDbEntity
  8
C-4
  6
Continuous
 62
     2
370
   211
100
AcDbText
 10
-590.8933139292376
 20
1137.023288077027
 30
0.0
 40
30.48
  1
3
 41
0.9999999999999998
  7
ＭＳ ゴシック
100
AcDbText
  0
TEXT
  5
552
330
1F
100
AcDbEntity
  8
C-4
  6
Continuous
 62
     2
370
   211
100
AcDbText
 10
-870.4295909131915
 20
1059.916012974642
 30
0.0
 40
30.48
  1
400
 41
1.083333333333333
  7
ＭＳ ゴシック
100
AcDbText
  0
LINE
  5
553
330
1F
100
AcDbEntity
  8
C-4
  6
Continuous
 62
     7
370
     9
100
AcDbLine
 10
-1103.802320180821
 20
1125.383288077028
 30
0.0
 11
-1064.929343473369
 21
1125.383288077028
 31
0.0
  0
LINE
  5
554
330
1F
100
AcDbEntity
  8
C-4
  6
Continuous
 62
     7
370
     9
100
AcDbLine
 10
-610.9292197534578
 20
1125.383288077028
 30
0.0
 11
-572.0356487210447
 21
1125.383288077028
 31
0.0
  0
LINE
  5
555
330
1F
100
AcDbEntity
  8
C-4
  6
Continuous
 62
     7
370
     9
100
AcDbLine
 10
-1307.098305305445
 20
934.3718621278816
 30
0.0
 11
-1307.098305305445
 21
474.3717384079713
 31
0.0
  0
LWPOLYLINE
  5
556
330
1F
100
AcDbEntity
  8
C-4
  6
Continuous
 62
     7
370
     9
100
AcDbPolyline
 90
        4
 70
     1
 43
1.0
 10
-1306.598305305445
 20
934.3718621278816
 42
0.4142135623731
 10
-1307.098305305445
 20
934.8718621278816
 42
0.4142135623731
 10
-1307.598305305445
 20
934.3718621278816
 42
0.4142135623731
 10
-1307.098305305445
 20
933.8718621278816
 42
0.4142135623731
  0
LWPOLYLINE
  5
557
330
1F
100
AcDbEntity
  8
C-4
  6
Continuous
 62
     7
370
     9
100
AcDbPolyline
 90
        4
 70
     1
 43
1.0
 10
-1306.598305305445
 20
474.3717384079713
 42
0.4142135623731
 10
-1307.098305305445
 20
474.8717384079713
 42
0.4142135623731
 10
-1307.598305305445
 20
474.3717384079713
 42
0.4142135623731
 10
-1307.098305305445
 20
473.8717384079713
 42
0.4142135623731
  0
TEXT
  5
558
330
1F
100
AcDbEntity
  8
C-4
  6
Continuous
 62
     2
370
   211
100
AcDbText
 10
-1242.614150090885
 20
953.2473265984078
 30
0.0
 40
30.48
  1
3
 50
90.0
 41
0.9999999999999998
  7
ＭＳ ゴシック
100
AcDbText
  0
LINE
  5
559
330
1F
100
AcDbEntity
  8
C-4
  6
Continuous
 62
     7
370
     9
100
AcDbLine
 10
-1154.849994876325
 20
904.372027087764
 30
0.0
 11
-1154.849994876325
 21
504.3723157675566
 31
0.0
  0
LWPOLYLINE
  5
55A
330
1F
100
AcDbEntity
  8
C-4
  6
Continuous
 62
     7
370
     9
100
AcDbPolyline
 90
        4
 70
     1
 43
1.0
 10
-1154.349994876325
 20
904.372027087764
 42
0.4142135623731
 10
-1154.849994876325
 20
904.872027087764
 42
0.4142135623731
 10
-1155.349994876325
 20
904.372027087764
 42
0.4142135623731
 10
-1154.849994876325
 20
903.872027087764
 42
0.4142135623731
  0
LWPOLYLINE
  5
55B
330
1F
100
AcDbEntity
  8
C-4
  6
Continuous
 62
     7
370
     9
100
AcDbPolyline
 90
        4
 70
     1
 43
1.0
 10
-1154.349994876325
 20
504.3723157675566
 42
0.4142135623731
 10
-1154.849994876325
 20
504.8723157675566
 42
0.4142135623731
 10
-1155.349994876325
 20
504.3723157675566
 42
0.4142135623731
 10
-1154.849994876325
 20
503.8723157675566
 42
0.4142135623731
  0
TEXT
  5
55C
330
1F
100
AcDbEntity
  8
C-4
  6
Continuous
 62
     2
370
   211
100
AcDbText
 10
-1242.614150090885
 20
905.8530660039258
 30
0.0
 40
30.48
  1
2
 50
90.0
 41
0.9999999999999998
  7
ＭＳ ゴシック
100
AcDbText
  0
LWPOLYLINE
  5
55D
330
1F
100
AcDbEntity
  8
C-4
  6
Continuous
 62
     7
370
     9
100
AcDbPolyline
 90
        4
 70
     1
 43
1.0
 10
-1230.474150090885
 20
934.3718621278816
 42
0.4142135623731
 10
-1230.974150090885
 20
934.8718621278816
 42
0.4142135623731
 10
-1231.474150090885
 20
934.3718621278816
 42
0.4142135623731
 10
-1230.974150090885
 20
933.8718621278816
 42
0.4142135623731
  0
LWPOLYLINE
  5
55E
330
1F
100
AcDbEntity
  8
C-4
  6
Continuous
 62
     7
370
     9
100
AcDbPolyline
 90
        4
 70
     1
 43
1.0
 10
-1230.474150090885
 20
931.3718621278821
 42
0.4142135623731
 10
-1230.974150090885
 20
931.8718621278821
 42
0.4142135623731
 10
-1231.474150090885
 20
931.3718621278821
 42
0.4142135623731
 10
-1230.974150090885
 20
930.8718621278821
 42
0.4142135623731
  0
LINE
  5
55F
330
1F
100
AcDbEntity
  8
C-4
  6
Continuous
 62
     7
370
     9
100
AcDbLine
 10
-1230.974150090885
 20
931.3718621278821
 30
0.0
 11
-1230.974150090885
 21
929.3718621278816
 31
0.0
  0
LWPOLYLINE
  5
560
330
1F
100
AcDbEntity
  8
C-4
  6
Continuous
 62
     7
370
     9
100
AcDbPolyline
 90
        4
 70
     1
 43
1.0
 10
-1230.474150090885
 20
929.3718621278816
 42
0.4142135623731
 10
-1230.974150090885
 20
929.8718621278816
 42
0.4142135623731
 10
-1231.474150090885
 20
929.3718621278816
 42
0.4142135623731
 10
-1230.974150090885
 20
928.8718621278816
 42
0.4142135623731
  0
LINE
  5
561
330
1F
100
AcDbEntity
  8
C-4
  6
Continuous
 62
     7
370
     9
100
AcDbLine
 10
-1230.974150090885
 20
929.3718621278816
 30
0.0
 11
-1230.974150090885
 21
479.3717384079713
 31
0.0
  0
LWPOLYLINE
  5
562
330
1F
100
AcDbEntity
  8
C-4
  6
Continuous
 62
     7
370
     9
100
AcDbPolyline
 90
        4
 70
     1
 43
1.0
 10
-1230.474150090885
 20
479.3717384079713
 42
0.4142135623731
 10
-1230.974150090885
 20
479.8717384079713
 42
0.4142135623731
 10
-1231.474150090885
 20
479.3717384079713
 42
0.4142135623731
 10
-1230.974150090885
 20
478.8717384079713
 42
0.4142135623731
  0
TEXT
  5
563
330
1F
100
AcDbEntity
  8
C-4
  6
Continuous
 62
     2
370
   211
100
AcDbText
 10
-1166.489994876324
 20
671.8721714276609
 30
0.0
 40
30.48
  1
400
 50
90.0
 41
1.083333333333333
  7
ＭＳ ゴシック
100
AcDbText
  0
LINE
  5
564
330
1F
100
AcDbEntity
  8
C-4
  6
Continuous
 62
     7
370
     9
100
AcDbLine
 10
-1230.974150090885
 20
479.3717384079713
 30
0.0
 11
-1230.974150090885
 21
477.3717384079708
 31
0.0
  0
LWPOLYLINE
  5
565
330
1F
100
AcDbEntity
  8
C-4
  6
Continuous
 62
     7
370
     9
100
AcDbPolyline
 90
        4
 70
     1
 43
1.0
 10
-1230.474150090885
 20
477.3717384079708
 42
0.4142135623731
 10
-1230.974150090885
 20
477.8717384079708
 42
0.4142135623731
 10
-1231.474150090885
 20
477.3717384079708
 42
0.4142135623731
 10
-1230.974150090885
 20
476.8717384079708
 42
0.4142135623731
  0
LWPOLYLINE
  5
566
330
1F
100
AcDbEntity
  8
C-4
  6
Continuous
 62
     7
370
     9
100
AcDbPolyline
 90
        4
 70
     1
 43
1.0
 10
-1230.474150090885
 20
474.3717384079713
 42
0.4142135623731
 10
-1230.974150090885
 20
474.8717384079713
 42
0.4142135623731
 10
-1231.474150090885
 20
474.3717384079713
 42
0.4142135623731
 10
-1230.974150090885
 20
473.8717384079713
 42
0.4142135623731
  0
TEXT
  5
567
330
1F
100
AcDbEntity
  8
C-4
  6
Continuous
 62
     2
370
   211
100
AcDbText
 10
-1318.738305305445
 20
671.8718002679265
 30
0.0
 40
30.48
  1
460
 50
90.0
 41
1.083333333333333
  7
ＭＳ ゴシック
100
AcDbText
  0
TEXT
  5
568
330
1F
100
AcDbEntity
  8
C-4
  6
Continuous
 62
     2
370
   211
100
AcDbText
 10
-1242.614150090885
 20
671.8718002679265
 30
0.0
 40
30.48
  1
450
 50
90.0
 41
1.083333333333333
  7
ＭＳ ゴシック
100
AcDbText
  0
LINE
  5
569
330
1F
100
AcDbEntity
  8
C-4
  6
Continuous
 62
     7
370
     9
100
AcDbLine
 10
-1230.974150090885
 20
477.3717384079708
 30
0.0
 11
-1230.974150090885
 21
436.0053499203065
 31
0.0
  0
TEXT
  5
56A
330
1F
100
AcDbEntity
  8
C-4
  6
Continuous
 62
     2
370
   211
100
AcDbText
 10
-1242.614150090885
 20
479.2706363237784
 30
0.0
 40
30.48
  1
2
 50
90.0
 41
0.9999999999999998
  7
ＭＳ ゴシック
100
AcDbText
  0
TEXT
  5
56B
330
1F
100
AcDbEntity
  8
C-4
  6
Continuous
 62
     2
370
   211
100
AcDbText
 10
-1242.614150090885
 20
436.7078294792185
 30
0.0
 40
30.48
  1
3
 50
90.0
 41
0.9999999999999998
  7
ＭＳ ゴシック
100
AcDbText
  0
LINE
  5
56C
330
1F
100
AcDbEntity
  8
C-4
  6
Continuous
 62
     7
370
     9
100
AcDbLine
 10
-1230.974150090885
 20
971.3934814219107
 30
0.0
 11
-1230.974150090885
 21
931.3718621278821
 31
0.0
  0
LINE
  5
56D
330
1F
100
AcDbEntity
  8
C-4
  6
Continuous
 62
     7
370
     9
100
AcDbLine
 10
-1310.098305305445
 20
934.3718621278816
 30
0.0
 11
-1082.929343473369
 21
934.3718621278816
 31
0.0
  0
LINE
  5
56E
330
1F
100
AcDbEntity
  8
C-4
  6
Continuous
 62
     7
370
     9
100
AcDbLine
 10
-1310.098305305445
 20
474.3717384079713
 30
0.0
 11
-1082.929343473369
 21
474.3717384079713
 31
0.0
  0
LINE
  5
56F
330
1F
100
AcDbEntity
  8
C-4
  6
Continuous
 62
     7
370
     9
100
AcDbLine
 10
-1157.849994876325
 20
904.372027087764
 30
0.0
 11
-1082.929343473369
 21
904.372027087764
 31
0.0
  0
LINE
  5
570
330
1F
100
AcDbEntity
  8
C-4
  6
Continuous
 62
     7
370
     9
100
AcDbLine
 10
-1157.849994876325
 20
504.3723157675566
 30
0.0
 11
-1082.929343473369
 21
504.3723157675566
 31
0.0
  0
LINE
  5
571
330
1F
100
AcDbEntity
  8
C-4
  6
Continuous
 62
     7
370
     9
100
AcDbLine
 10
-1233.974150090885
 20
931.3718621278821
 30
0.0
 11
-1082.929343473369
 21
931.3718621278821
 31
0.0
  0
LINE
  5
572
330
1F
100
AcDbEntity
  8
C-4
  6
Continuous
 62
     7
370
     9
100
AcDbLine
 10
-1233.974150090885
 20
929.3718621278816
 30
0.0
 11
-1082.929343473369
 21
929.3718621278816
 31
0.0
  0
LINE
  5
573
330
1F
100
AcDbEntity
  8
C-4
  6
Continuous
 62
     7
370
     9
100
AcDbLine
 10
-1233.974150090885
 20
479.3717384079713
 30
0.0
 11
-1082.929343473369
 21
479.3717384079713
 31
0.0
  0
LINE
  5
574
330
1F
100
AcDbEntity
  8
C-4
  6
Continuous
 62
     7
370
     9
100
AcDbLine
 10
-1233.974150090885
 20
477.3717384079708
 30
0.0
 11
-1082.929343473369
 21
477.3717384079708
 31
0.0
  0
LINE
  5
575
330
1F
100
AcDbEntity
  8
C-4
  6
Continuous
 62
     7
370
     9
100
AcDbLine
 10
-1067.929343473369
 20
344.7343591818827
 30
0.0
 11
-967.9299930544526
 21
344.7343591818827
 31
0.0
  0
LWPOLYLINE
  5
576
330
1F
100
AcDbEntity
  8
C-4
  6
Continuous
 62
     7
370
     9
100
AcDbPolyline
 90
        4
 70
     1
 43
1.0
 10
-1067.429343473369
 20
344.7343591818827
 42
0.4142135623731
 10
-1067.929343473369
 20
345.2343591818827
 42
0.4142135623731
 10
-1068.429343473369
 20
344.7343591818827
 42
0.4142135623731
 10
-1067.929343473369
 20
344.2343591818827
 42
0.4142135623731
  0
LWPOLYLINE
  5
577
330
1F
100
AcDbEntity
  8
C-4
  6
Continuous
 62
     7
370
     9
100
AcDbPolyline
 90
        4
 70
     1
 43
1.0
 10
-967.4299930544526
 20
344.7343591818827
 42
0.4142135623731
 10
-967.9299930544526
 20
345.2343591818827
 42
0.4142135623731
 10
-968.4299930544524
 20
344.7343591818827
 42
0.4142135623731
 10
-967.9299930544526
 20
344.2343591818827
 42
0.4142135623731
  0
LINE
  5
578
330
1F
100
AcDbEntity
  8
C-4
  6
Continuous
 62
     7
370
     9
100
AcDbLine
 10
-1067.929343473369
 20
341.7343591818832
 30
0.0
 11
-1067.929343473369
 21
454.3717384079713
 31
0.0
  0
LINE
  5
579
330
1F
100
AcDbEntity
  8
C-4
  6
Continuous
 62
     7
370
     9
100
AcDbLine
 10
-967.9299930544526
 20
341.7343591818832
 30
0.0
 11
-967.9299930544526
 21
415.4393707100138
 31
0.0
  0
TEXT
  5
57A
330
1F
100
AcDbEntity
  8
C-4
  6
Continuous
 62
     2
370
   211
100
AcDbText
 10
-1050.429668263911
 20
356.3743591818829
 30
0.0
 40
30.48
  1
100
 41
1.083333333333333
  7
ＭＳ ゴシック
100
AcDbText
  0
LINE
  5
57B
330
1F
100
AcDbEntity
  8
C-4
  6
Continuous
 62
     7
370
     9
100
AcDbLine
 10
-967.9299930544526
 20
344.7343591818827
 30
0.0
 11
-707.9287876101168
 21
344.7343591818827
 31
0.0
  0
LWPOLYLINE
  5
57C
330
1F
100
AcDbEntity
  8
C-4
  6
Continuous
 62
     7
370
     9
100
AcDbPolyline
 90
        4
 70
     1
 43
1.0
 10
-707.4287876101168
 20
344.7343591818827
 42
0.4142135623731
 10
-707.9287876101168
 20
345.2343591818827
 42
0.4142135623731
 10
-708.4287876101167
 20
344.7343591818827
 42
0.4142135623731
 10
-707.9287876101168
 20
344.2343591818827
 42
0.4142135623731
  0
LINE
  5
57D
330
1F
100
AcDbEntity
  8
C-4
  6
Continuous
 62
     7
370
     9
100
AcDbLine
 10
-707.9287876101168
 20
341.7343591818832
 30
0.0
 11
-707.9287876101168
 21
415.4393707100138
 31
0.0
  0
TEXT
  5
57E
330
1F
100
AcDbEntity
  8
C-4
  6
Continuous
 62
     2
370
   211
100
AcDbText
 10
-870.4293903322841
 20
356.3743591818829
 30
0.0
 40
30.48
  1
260
 41
1.083333333333333
  7
ＭＳ ゴシック
100
AcDbText
  0
LINE
  5
57F
330
1F
100
AcDbEntity
  8
C-4
  6
Continuous
 62
     7
370
     9
100
AcDbLine
 10
-707.9287876101168
 20
344.7343591818827
 30
0.0
 11
-607.9292197534571
 21
344.7343591818827
 31
0.0
  0
LWPOLYLINE
  5
580
330
1F
100
AcDbEntity
  8
C-4
  6
Continuous
 62
     7
370
     9
100
AcDbPolyline
 90
        4
 70
     1
 43
1.0
 10
-607.4292197534571
 20
344.7343591818827
 42
0.4142135623731
 10
-607.9292197534571
 20
345.2343591818827
 42
0.4142135623731
 10
-608.429219753457
 20
344.7343591818827
 42
0.4142135623731
 10
-607.9292197534571
 20
344.2343591818827
 42
0.4142135623731
  0
LINE
  5
581
330
1F
100
AcDbEntity
  8
C-4
  6
Continuous
 62
     7
370
     9
100
AcDbLine
 10
-607.9292197534571
 20
341.7343591818832
 30
0.0
 11
-607.9292197534571
 21
454.3717384079713
 31
0.0
  0
TEXT
  5
582
330
1F
100
AcDbEntity
  8
C-4
  6
Continuous
 62
     2
370
   211
100
AcDbText
 10
-690.429003681787
 20
356.3743591818829
 30
0.0
 40
30.48
  1
100
 41
1.083333333333333
  7
ＭＳ ゴシック
100
AcDbText
  0
LINE
  5
583
330
1F
100
AcDbEntity
  8
C-5
  6
Continuous
 62
     7
370
     9
100
AcDbLine
 10
-550.4291298503215
 20
241.7612843710387
 30
0.0
 11
-1125.429557096415
 21
241.7612843710387
 31
0.0
  0
TEXT
  5
584
330
1F
100
AcDbEntity
  8
C-5
  6
Continuous
 62
     2
370
     9
100
AcDbText
 10
-1105.429475080424
 20
259.9009543997252
 30
0.0
 40
30.48
  1
平面詳細図　Ｓ＝１：１０
 41
1.114583333333333
  7
ＭＳ ゴシック
100
AcDbText
  0
SOLID
  5
585
330
1F
100
AcDbEntity
  8
C-5
  6
Continuous
 62
     4
370
     9
100
AcDbTrace
 10
-886.5693434733682
 20
979.6881687893245
 30
0.0
 11
-886.5693434733682
 21
1019.688168789325
 31
0.0
 12
-890.569343473368
 22
979.6881687893245
 32
0.0
 13
-890.569343473368
 23
1019.688168789325
 33
0.0
  0
LINE
  5
586
330
1F
100
AcDbEntity
  8
C-5
  6
Continuous
 62
     4
370
     9
100
AcDbLine
 10
-878.9032536756567
 20
1000.669165662798
 30
0.0
 11
-829.6538609927145
 21
1000.669165662798
 31
0.0
  0
LINE
  5
587
330
1F
100
AcDbEntity
  8
C-5
  6
Continuous
 62
     4
370
     9
100
AcDbLine
 10
-878.9032536756567
 20
1000.669165662798
 30
0.0
 11
-854.1171321413108
 21
997.4060108572969
 31
0.0
  0
LINE
  5
588
330
1F
100
AcDbEntity
  8
C-5
  6
Continuous
 62
     4
370
     9
100
AcDbLine
 10
-878.9032536756567
 20
1000.669165662798
 30
0.0
 11
-854.1171321413108
 21
1003.9323204683
 31
0.0
  0
TEXT
  5
589
330
1F
100
AcDbEntity
  8
C-5
  6
Continuous
 62
     2
370
     9
100
AcDbText
 10
-821.9430898587641
 20
988.4639836425946
 30
0.0
 40
30.48
  1
A
 41
0.9999999999999998
  7
ＭＳ ゴシック
100
AcDbText
  0
LINE
  5
58A
330
1F
100
AcDbEntity
  8
C-5
  6
JWW_CENTER1
 62
     4
370
     9
100
AcDbLine
 10
-888.5693434733682
 20
979.6881687893245
 30
0.0
 11
-888.5693434733682
 21
793.4569566402935
 31
0.0
  0
TEXT
  5
58B
330
1F
100
AcDbEntity
  8
F-4ﾚｲﾔ
  6
Continuous
 62
     2
370
     9
100
AcDbText
 10
-834.6159328672712
 20
-1371.783728813559
 30
0.0
 40
30.48
  1
ＺＱ－１５　４５０×４５０×１５　ステンレス製受枠ＲＬ－１５（四方枠）
 41
0.7742857142857141
  7
ＭＳ ゴシック
100
AcDbText
  0
LINE
  5
58C
330
1F
100
AcDbEntity
  8
D-5
  6
Continuous
 62
     2
370
     9
100
AcDbLine
 10
114.8635238241593
 20
-381.0846565409167
 30
0.0
 11
-110.1362472940047
 21
-381.0846565409167
 31
0.0
  0
LINE
  5
58D
330
1F
100
AcDbEntity
  8
D-5
  6
Continuous
 62
     2
370
     9
100
AcDbLine
 10
114.8635238241593
 20
-331.0844932241901
 30
0.0
 11
114.8635238241593
 21
-381.0846565409167
 31
0.0
  0
LINE
  5
58E
330
1F
100
AcDbEntity
  8
D-5
  6
Continuous
 62
     2
370
     9
100
AcDbLine
 10
-110.1362472940047
 20
-331.0844932241901
 30
0.0
 11
114.8635238241593
 21
-331.0844932241901
 31
0.0
  0
LINE
  5
58F
330
1F
100
AcDbEntity
  8
D-5
  6
Continuous
 62
     2
370
     9
100
AcDbLine
 10
-110.1362472940047
 20
-381.0846565409167
 30
0.0
 11
-110.1362472940047
 21
-331.0844932241901
 31
0.0
  0
TEXT
  5
590
330
1F
100
AcDbEntity
  8
D-5
  6
Continuous
 62
     2
370
     9
100
AcDbText
 10
51.66551051849513
 20
-693.3647441168292
 30
0.0
 40
30.48
  1
　　　サイドバー　ＳＵＳ３０４
 41
1.116666666666667
  7
ＭＳ ゴシック
100
AcDbText
  0
TEXT
  5
591
330
1F
100
AcDbEntity
  8
D-5
  6
Continuous
 62
     2
370
     9
100
AcDbText
 10
-62.6367050576766
 20
-370.444391896294
 30
0.0
 40
30.48
  1
仕　様
 41
1.083333333333333
  7
ＭＳ ゴシック
100
AcDbText
  0
TEXT
  5
592
330
1F
100
AcDbEntity
  8
D-5
  6
Continuous
 62
     2
370
     9
100
AcDbText
 10
51.66551051849513
 20
-628.3645343084797
 30
0.0
 40
30.48
  1
　　　クロスバー　ＳＵＳ３０４　＠１００
 41
1.11875
  7
ＭＳ ゴシック
100
AcDbText
  0
TEXT
  5
593
330
1F
100
AcDbEntity
  8
D-5
  6
Continuous
 62
     2
370
     9
100
AcDbText
 10
51.66551051849513
 20
-563.364801337288
 30
0.0
 40
30.48
  1
材質：メインバー　ＳＵＳ３０４　＠１７
 41
1.118421052631579
  7
ＭＳ ゴシック
100
AcDbText
  0
TEXT
  5
594
330
1F
100
AcDbEntity
  8
D-5
  6
Continuous
 62
     2
370
     9
100
AcDbText
 10
-8.046403544004868
 20
-433.3648728628619
 30
0.0
 40
30.48
  1
ステンレス製　細目滑り止め模様付（ローレット模様）
 41
1.12
  7
ＭＳ ゴシック
100
AcDbText
  0
TEXT
  5
595
330
1F
100
AcDbEntity
  8
D-5
  6
Continuous
 62
     2
370
     9
100
AcDbText
 10
-8.046403544004939
 20
-498.3648394842608
 30
0.0
 40
30.48
  1
グレーチング（すきま9mm）　ＺＱ－１５　４５０×４５０×１５
 41
1.120762711864407
  7
ＭＳ ゴシック
100
AcDbText
  0
TEXT
  5
596
330
1F
100
AcDbEntity
  8
D-5
  6
Continuous
 62
     2
370
     9
100
AcDbText
 10
-8.046403544004868
 20
-754.4914842660025
 30
0.0
 40
30.48
  1
ステンレス製受枠　ＲＬ－１５（四方枠）
 41
1.118421052631579
  7
ＭＳ ゴシック
100
AcDbText
  0
TEXT
  5
597
330
1F
100
AcDbEntity
  8
D-5
  6
Continuous
 62
     2
370
     9
100
AcDbText
 10
51.66551051849513
 20
-809.4915224129752
 30
0.0
 40
30.48
  1
材質：ステンレス鋼板ｔ＝３．０（ＳＵＳ３０４）
 41
1.119565217391304
  7
ＭＳ ゴシック
100
AcDbText
  0
TEXT
  5
598
330
1F
100
AcDbEntity
  8
D-5
  6
Continuous
 62
     2
370
     9
100
AcDbText
 10
51.66551051849513
 20
-919.4915605599479
 30
0.0
 40
30.48
  1
施工場所の状況に合わせて、アンカーをプライヤー等で折り曲げてご使用ください。
 41
1.121710526315789
  7
ＭＳ ゴシック
100
AcDbText
  0
LINE
  5
599
330
1F
100
AcDbEntity
  8
D-5
  6
Continuous
 62
     7
370
     9
100
AcDbLine
 10
-789.4232026323215
 20
-0.8542353988439544
 30
0.0
 11
67.08020481002222
 21
-0.8542353988439544
 31
0.0
  0
TEXT
  5
59A
330
1F
100
AcDbEntity
  8
D-5
  6
Continuous
 62
     7
370
     9
100
AcDbText
 10
-785.2093934120143
 20
49.44220916002349
 30
0.0
 40
22.86
  1
ステンレス製　細目滑り止め模様付（ローレット模様）
 41
1.16
  7
ＭＳ ゴシック
100
AcDbText
  0
TEXT
  5
59B
330
1F
100
AcDbEntity
  8
D-5
  6
Continuous
 62
     7
370
     9
100
AcDbText
 10
-785.2093970265167
 20
11.66702657488905
 30
0.0
 40
22.86
  1
グレーチング（すきま9mm）ＺＱー１５
 50
0.00004895879748
 41
1.157142857142857
  7
ＭＳ ゴシック
100
AcDbText
  0
ENDSEC
  0
SECTION
  2
OBJECTS
  0
DICTIONARY
  5
C
330
0
100
AcDbDictionary
281
     1
  3
ACAD_GROUP
350
D
  3
ACAD_LAYOUT
350
1A
  3
ACAD_MLEADERSTYLE
350
59D
  3
ACAD_MLINESTYLE
350
17
  3
ACAD_PLOTSETTINGS
350
19
  3
ACAD_PLOTSTYLENAME
350
E
  3
ACAD_TABLESTYLE
350
59C
  3
ACAD_VISUALSTYLE
350
2A
  0
DICTIONARY
  5
D
102
{ACAD_REACTORS
330
C
102
}
330
C
100
AcDbDictionary
281
     1
  0
DICTIONARY
  5
1A
102
{ACAD_REACTORS
330
C
102
}
330
C
100
AcDbDictionary
281
     1
  3
Layout1
350
1E
  3
Layout2
350
26
  3
Model
350
22
  0
DICTIONARY
  5
59D
102
{ACAD_REACTORS
330
C
102
}
330
C
100
AcDbDictionary
281
     1
  0
DICTIONARY
  5
17
102
{ACAD_REACTORS
330
C
102
}
330
C
100
AcDbDictionary
281
     1
  3
Standard
350
18
  0
DICTIONARY
  5
19
102
{ACAD_REACTORS
330
C
102
}
330
C
100
AcDbDictionary
281
     1
  0
ACDBDICTIONARYWDFLT
  5
E
102
{ACAD_REACTORS
330
C
102
}
330
C
100
AcDbDictionary
281
     1
  3
Normal
350
F
100
AcDbDictionaryWithDefault
340
F
  0
DICTIONARY
  5
59C
102
{ACAD_REACTORS
330
C
102
}
330
C
100
AcDbDictionary
281
     1
  0
DICTIONARY
  5
2A
102
{ACAD_REACTORS
330
C
102
}
330
C
100
AcDbDictionary
281
     1
  3
2dWireframe
350
2F
  3
3D Hidden
350
31
  3
3dWireframe
350
30
  3
Basic
350
32
  3
Brighten
350
36
  3
ColorChange
350
3A
  3
Conceptual
350
34
  3
Dim
350
35
  3
Facepattern
350
39
  3
Flat
350
2B
  3
FlatWithEdges
350
2C
  3
Gouraud
350
2D
  3
GouraudWithEdges
350
2E
  3
Linepattern
350
38
  3
Realistic
350
33
  3
Thicken
350
37
  0
LAYOUT
  5
1E
102
{ACAD_REACTORS
330
1A
102
}
330
1A
100
AcDbPlotSettings
  1

  2
none_device
  4

  6

 40
0.0
 41
0.0
 42
0.0
 43
0.0
 44
0.0
 45
0.0
 46
0.0
 47
0.0
 48
0.0
 49
0.0
140
0.0
141
0.0
142
1.0
143
1.0
 70
   688
 72
     0
 73
     0
 74
     5
  7

 75
    16
 76
     0
 77
     5
 78
   300
147
1.0
148
0.0
149
0.0
100
AcDbLayout
  1
Layout1
 70
     1
 71
     1
 10
0.0
 20
0.0
 11
420.0
 21
297.0
 12
0.0
 22
0.0
 32
0.0
 14
1.000000000000000E+20
 24
1.000000000000000E+20
 34
1.000000000000000E+20
 15
-1.000000000000000E+20
 25
-1.000000000000000E+20
 35
-1.000000000000000E+20
146
0.0
 13
0.0
 23
0.0
 33
0.0
 16
1.0
 26
0.0
 36
0.0
 17
0.0
 27
1.0
 37
0.0
 76
     0
330
1B
  0
LAYOUT
  5
26
102
{ACAD_REACTORS
330
1A
102
}
330
1A
100
AcDbPlotSettings
  1

  2
none_device
  4

  6

 40
0.0
 41
0.0
 42
0.0
 43
0.0
 44
0.0
 45
0.0
 46
0.0
 47
0.0
 48
0.0
 49
0.0
140
0.0
141
0.0
142
1.0
143
1.0
 70
   688
 72
     0
 73
     0
 74
     5
  7

 75
    16
 76
     0
 77
     5
 78
   300
147
1.0
148
0.0
149
0.0
100
AcDbLayout
  1
Layout2
 70
     1
 71
     2
 10
0.0
 20
0.0
 11
0.0
 21
0.0
 12
0.0
 22
0.0
 32
0.0
 14
0.0
 24
0.0
 34
0.0
 15
0.0
 25
0.0
 35
0.0
146
0.0
 13
0.0
 23
0.0
 33
0.0
 16
1.0
 26
0.0
 36
0.0
 17
0.0
 27
1.0
 37
0.0
 76
     0
330
23
  0
LAYOUT
  5
22
102
{ACAD_REACTORS
330
1A
102
}
330
1A
100
AcDbPlotSettings
  1

  2
none_device
  4

  6

 40
0.0
 41
0.0
 42
0.0
 43
0.0
 44
0.0
 45
0.0
 46
0.0
 47
0.0
 48
0.0
 49
0.0
140
0.0
141
0.0
142
1.0
143
1.0
 70
  1712
 72
     0
 73
     0
 74
     0
  7

 75
     0
 76
     0
 77
     5
 78
   300
147
1.0
148
0.0
149
0.0
100
AcDbLayout
  1
Model
 70
     1
 71
     0
 10
-2100.0
 20
-1485.0
 11
2100.0
 21
1485.0
 12
0.0
 22
0.0
 32
0.0
 14
-2100.0
 24
-1485.0
 34
0.0
 15
2100.0
 25
1485.0
 35
0.0
146
0.0
 13
0.0
 23
0.0
 33
0.0
 16
1.0
 26
0.0
 36
0.0
 17
0.0
 27
1.0
 37
0.0
 76
     0
330
1F
331
29
  0
MLINESTYLE
  5
18
102
{ACAD_REACTORS
330
17
102
}
330
17
100
AcDbMlineStyle
  2
Standard
 70
     0
  3

 62
   256
 51
90.0
 52
90.0
 71
     2
 49
0.5
 62
   256
  6
BYLAYER
 49
-0.5
 62
   256
  6
BYLAYER
  0
ACDBPLACEHOLDER
  5
F
102
{ACAD_REACTORS
330
E
102
}
330
E
  0
VISUALSTYLE
  5
2F
102
{ACAD_REACTORS
330
2A
102
}
330
2A
100
AcDbVisualStyle
  2
2dWireframe
 70
     4
 71
     0
 72
     2
 73
     0
 90
        0
 40
-0.6
 41
-30.0
 62
     5
 63
     7
421
 16777215
 74
     1
 91
        4
 64
     7
 65
   257
 75
     1
175
     1
 42
1.0
 92
        0
 66
   257
 43
1.0
 76
     1
 77
     6
 78
     2
 67
     7
 79
     5
170
     0
171
     0
290
     0
174
     0
 93
        1
 44
0.0
173
     0
291
     0
 45
0.0
1001
ACAD
1000
AcDbSavedByObjectVersion
1070
     0
  0
VISUALSTYLE
  5
31
102
{ACAD_REACTORS
330
2A
102
}
330
2A
100
AcDbVisualStyle
  2
3D Hidden
 70
     6
 71
     1
 72
     2
 73
     2
 90
        0
 40
-0.6
 41
-30.0
 62
     5
 63
     7
421
 16777215
 74
     2
 91
        2
 64
     7
 65
   257
 75
     2
175
     1
 42
40.0
 92
        0
 66
   257
 43
1.0
 76
     1
 77
     6
 78
     2
 67
     7
 79
     3
170
     0
171
     0
290
     0
174
     0
 93
        1
 44
0.0
173
     0
291
     0
 45
0.0
1001
ACAD
1000
AcDbSavedByObjectVersion
1070
     0
  0
VISUALSTYLE
  5
30
102
{ACAD_REACTORS
330
2A
102
}
330
2A
100
AcDbVisualStyle
  2
3dWireframe
 70
     5
 71
     0
 72
     2
 73
     0
 90
        0
 40
-0.6
 41
-30.0
 62
     5
 63
     7
421
 16777215
 74
     1
 91
        4
 64
     7
 65
   257
 75
     1
175
     1
 42
1.0
 92
        0
 66
   257
 43
1.0
 76
     1
 77
     6
 78
     2
 67
     7
 79
     5
170
     0
171
     0
290
     0
174
     0
 93
        1
 44
0.0
173
     0
291
     0
 45
0.0
1001
ACAD
1000
AcDbSavedByObjectVersion
1070
     0
  0
VISUALSTYLE
  5
32
102
{ACAD_REACTORS
330
2A
102
}
330
2A
100
AcDbVisualStyle
  2
Basic
 70
     7
 71
     1
 72
     0
 73
     1
 90
        0
 40
-0.6
 41
-30.0
 62
     5
 63
     7
421
 16777215
 74
     0
 91
        4
 64
     7
 65
   257
 75
     1
175
     1
 42
1.0
 92
        8
 66
     7
 43
1.0
 76
     1
 77
     6
 78
     2
 67
     7
 79
     5
170
     0
171
     0
290
     0
174
     0
 93
        1
 44
0.0
173
     0
291
     1
 45
0.0
1001
ACAD
1000
AcDbSavedByObjectVersion
1070
     0
  0
VISUALSTYLE
  5
36
102
{ACAD_REACTORS
330
2A
102
}
330
2A
100
AcDbVisualStyle
  2
Brighten
 70
    12
 71
     2
 72
     2
 73
     0
 90
        0
 40
-0.6
 41
-30.0
 62
     5
 63
     7
421
 16777215
 74
     1
 91
        4
 64
     7
 65
   257
 75
     1
175
     1
 42
1.0
 92
        8
 66
     7
 43
1.0
 76
     1
 77
     6
 78
     2
 67
     7
 79
     5
170
     0
171
     0
290
     0
174
     0
 93
        1
 44
50.0
173
     0
291
     1
 45
0.0
1001
ACAD
1000
AcDbSavedByObjectVersion
1070
     0
  0
VISUALSTYLE
  5
3A
102
{ACAD_REACTORS
330
2A
102
}
330
2A
100
AcDbVisualStyle
  2
ColorChange
 70
    16
 71
     2
 72
     2
 73
     3
 90
        0
 40
-0.6
 41
-30.0
 62
     5
 63
     8
421
  8421504
 74
     1
 91
        4
 64
     7
 65
   257
 75
     1
175
     1
 42
1.0
 92
        8
 66
     8
424
  8421504
 43
1.0
 76
     1
 77
     6
 78
     2
 67
     7
 79
     5
170
     0
171
     0
290
     0
174
     0
 93
        1
 44
0.0
173
     0
291
     1
 45
0.0
1001
ACAD
1000
AcDbSavedByObjectVersion
1070
     0
  0
VISUALSTYLE
  5
34
102
{ACAD_REACTORS
330
2A
102
}
330
2A
100
AcDbVisualStyle
  2
Conceptual
 70
     9
 71
     3
 72
     2
 73
     0
 90
        0
 40
-0.6
 41
-30.0
 62
     5
 63
     7
421
 16777215
 74
     2
 91
        2
 64
     7
 65
   257
 75
     1
175
     1
 42
40.0
 92
        8
 66
     7
 43
1.0
 76
     1
 77
     6
 78
     2
 67
     7
 79
     3
170
     0
171
     0
290
     0
174
     0
 93
        1
 44
0.0
173
     0
291
     0
 45
0.0
1001
ACAD
1000
AcDbSavedByObjectVersion
1070
     0
  0
VISUALSTYLE
  5
35
102
{ACAD_REACTORS
330
2A
102
}
330
2A
100
AcDbVisualStyle
  2
Dim
 70
    11
 71
     2
 72
     2
 73
     0
 90
        0
 40
-0.6
 41
-30.0
 62
     5
 63
     7
421
 16777215
 74
     1
 91
        4
 64
     7
 65
   257
 75
     1
175
     1
 42
1.0
 92
        8
 66
     7
 43
1.0
 76
     1
 77
     6
 78
     2
 67
     7
 79
     5
170
     0
171
     0
290
     0
174
     0
 93
        1
 44
-50.0
173
     0
291
     1
 45
0.0
1001
ACAD
1000
AcDbSavedByObjectVersion
1070
     0
  0
VISUALSTYLE
  5
39
102
{ACAD_REACTORS
330
2A
102
}
330
2A
100
AcDbVisualStyle
  2
Facepattern
 70
    15
 71
     2
 72
     2
 73
     0
 90
        0
 40
-0.6
 41
-30.0
 62
     5
 63
     7
421
 16777215
 74
     1
 91
        4
 64
     7
 65
   257
 75
     1
175
     1
 42
1.0
 92
        8
 66
     7
 43
1.0
 76
     1
 77
     6
 78
     2
 67
     7
 79
     5
170
     0
171
     0
290
     0
174
     0
 93
        1
 44
0.0
173
     0
291
     1
 45
0.0
1001
ACAD
1000
AcDbSavedByObjectVersion
1070
     0
  0
VISUALSTYLE
  5
2B
102
{ACAD_REACTORS
330
2A
102
}
330
2A
100
AcDbVisualStyle
  2
Flat
 70
     0
 71
     2
 72
     1
 73
     1
 90
        2
 40
-0.6
 41
30.0
 62
     5
 63
     7
421
 16777215
 74
     0
 91
        4
 64
     7
 65
   257
 75
     1
175
     1
 42
1.0
 92
        8
 66
     7
 43
1.0
 76
     1
 77
     6
 78
     2
 67
     7
 79
     5
170
     0
171
     0
290
     0
174
     0
 93
       13
 44
0.0
173
     0
291
     1
 45
0.0
1001
ACAD
1000
AcDbSavedByObjectVersion
1070
     0
  0
VISUALSTYLE
  5
2C
102
{ACAD_REACTORS
330
2A
102
}
330
2A
100
AcDbVisualStyle
  2
FlatWithEdges
 70
     1
 71
     2
 72
     1
 73
     1
 90
        2
 40
-0.6
 41
30.0
 62
     5
 63
     7
421
 16777215
 74
     1
 91
        4
 64
     7
 65
   257
 75
     1
175
     1
 42
1.0
 92
        0
 66
   257
 43
1.0
 76
     1
 77
     6
 78
     2
 67
     7
 79
     5
170
     0
171
     0
290
     0
174
     0
 93
       13
 44
0.0
173
     0
291
     1
 45
0.0
1001
ACAD
1000
AcDbSavedByObjectVersion
1070
     0
  0
VISUALSTYLE
  5
2D
102
{ACAD_REACTORS
330
2A
102
}
330
2A
100
AcDbVisualStyle
  2
Gouraud
 70
     2
 71
     2
 72
     2
 73
     1
 90
        2
 40
-0.6
 41
30.0
 62
     5
 63
     7
421
 16777215
 74
     0
 91
        4
 64
     7
 65
   257
 75
     1
175
     1
 42
1.0
 92
        0
 66
     7
 43
1.0
 76
     1
 77
     6
 78
     2
 67
     7
 79
     5
170
     0
171
     0
290
     0
174
     0
 93
       13
 44
0.0
173
     0
291
     1
 45
0.0
1001
ACAD
1000
AcDbSavedByObjectVersion
1070
     0
  0
VISUALSTYLE
  5
2E
102
{ACAD_REACTORS
330
2A
102
}
330
2A
100
AcDbVisualStyle
  2
GouraudWithEdges
 70
     3
 71
     2
 72
     2
 73
     1
 90
        2
 40
-0.6
 41
30.0
 62
     5
 63
     7
421
 16777215
 74
     1
 91
        4
 64
     7
 65
   257
 75
     1
175
     1
 42
1.0
 92
        0
 66
   257
 43
1.0
 76
     1
 77
     6
 78
     2
 67
     7
 79
     5
170
     0
171
     0
290
     0
174
     0
 93
       13
 44
0.0
173
     0
291
     1
 45
0.0
1001
ACAD
1000
AcDbSavedByObjectVersion
1070
     0
  0
VISUALSTYLE
  5
38
102
{ACAD_REACTORS
330
2A
102
}
330
2A
100
AcDbVisualStyle
  2
Linepattern
 70
    14
 71
     2
 72
     2
 73
     0
 90
        0
 40
-0.6
 41
-30.0
 62
     5
 63
     7
421
 16777215
 74
     1
 91
        4
 64
     7
 65
   257
 75
     7
175
     7
 42
1.0
 92
        8
 66
     7
 43
1.0
 76
     1
 77
     6
 78
     2
 67
     7
 79
     5
170
     0
171
     0
290
     0
174
     0
 93
        1
 44
0.0
173
     0
291
     1
 45
0.0
1001
ACAD
1000
AcDbSavedByObjectVersion
1070
     0
  0
VISUALSTYLE
  5
33
102
{ACAD_REACTORS
330
2A
102
}
330
2A
100
AcDbVisualStyle
  2
Realistic
 70
     8
 71
     2
 72
     2
 73
     0
 90
        0
 40
-0.6
 41
-30.0
 62
     5
 63
     7
421
 16777215
 74
     1
 91
        0
 64
     7
 65
   257
 75
     1
175
     1
 42
1.0
 92
        8
 66
     8
424
  7895160
 43
1.0
 76
     1
 77
     6
 78
     2
 67
     7
 79
     5
170
     0
171
     0
290
     0
174
     0
 93
       13
 44
0.0
173
     0
291
     0
 45
0.0
1001
ACAD
1000
AcDbSavedByObjectVersion
1070
     0
  0
VISUALSTYLE
  5
37
102
{ACAD_REACTORS
330
2A
102
}
330
2A
100
AcDbVisualStyle
  2
Thicken
 70
    13
 71
     2
 72
     2
 73
     0
 90
        0
 40
-0.6
 41
-30.0
 62
     5
 63
     7
421
 16777215
 74
     1
 91
        4
 64
     7
 65
   257
 75
     1
175
     1
 42
1.0
 92
       12
 66
     7
 43
1.0
 76
     1
 77
     6
 78
     2
 67
     7
 79
     5
170
     0
171
     0
290
     0
174
     0
 93
        1
 44
0.0
173
     0
291
     1
 45
0.0
1001
ACAD
1000
AcDbSavedByObjectVersion
1070
     0
  0
ENDSEC
  0
EOF
