  0
SECTION
  2
HEADER
  9
$ACADVER
  1
AC1018
  9
$ACADMAINTVER
 70
     0
  9
$DWGCODEPAGE
  3
ANSI_932
  9
$INSBASE
 10
0.0
 20
0.0
 30
0.0
  9
$EXTMIN
 10
-2100.0
 20
-1485.0
 30
0.0
  9
$EXTMAX
 10
2100.0
 20
1485.0
 30
0.0
  9
$LIMMIN
 10
-2100.0
 20
-1485.0
  9
$LIMMAX
 10
2100.0
 20
1485.0
  9
$ORTHOMODE
 70
     0
  9
$REGENMODE
 70
     1
  9
$FILLMODE
 70
     1
  9
$QTEXTMODE
 70
     0
  9
$MIRRTEXT
 70
     1
  9
$LTSCALE
 40
10.0
  9
$ATTMODE
 70
     1
  9
$TEXTSIZE
 40
2.5
  9
$TRACEWID
 40
1.0
  9
$TEXTSTYLE
  7
Standard
  9
$CLAYER
  8
0
  9
$CELTYPE
  6
ByLayer
  9
$CECOLOR
 62
   256
  9
$CELTSCALE
 40
1.0
  9
$DISPSILH
 70
     0
  9
$DIMSCALE
 40
1.0
  9
$DIMASZ
 40
2.5
  9
$DIMEXO
 40
0.625
  9
$DIMDLI
 40
3.75
  9
$DIMRND
 40
0.0
  9
$DIMDLE
 40
0.0
  9
$DIMEXE
 40
1.25
  9
$DIMTP
 40
0.0
  9
$DIMTM
 40
0.0
  9
$DIMTXT
 40
2.5
  9
$DIMCEN
 40
2.5
  9
$DIMTSZ
 40
0.0
  9
$DIMTOL
 70
     0
  9
$DIMLIM
 70
     0
  9
$DIMTIH
 70
     0
  9
$DIMTOH
 70
     0
  9
$DIMSE1
 70
     0
  9
$DIMSE2
 70
     0
  9
$DIMTAD
 70
     1
  9
$DIMZIN
 70
     8
  9
$DIMBLK
  1

  9
$DIMASO
 70
     1
  9
$DIMSHO
 70
     1
  9
$DIMPOST
  1

  9
$DIMAPOST
  1

  9
$DIMALT
 70
     0
  9
$DIMALTD
 70
     3
  9
$DIMALTF
 40
0.03937007874016
  9
$DIMLFAC
 40
1.0
  9
$DIMTOFL
 70
     1
  9
$DIMTVP
 40
0.0
  9
$DIMTIX
 70
     0
  9
$DIMSOXD
 70
     0
  9
$DIMSAH
 70
     0
  9
$DIMBLK1
  1

  9
$DIMBLK2
  1

  9
$DIMSTYLE
  2
ISO-25
  9
$DIMCLRD
 70
     0
  9
$DIMCLRE
 70
     0
  9
$DIMCLRT
 70
     0
  9
$DIMTFAC
 40
1.0
  9
$DIMGAP
 40
0.625
  9
$DIMJUST
 70
     0
  9
$DIMSD1
 70
     0
  9
$DIMSD2
 70
     0
  9
$DIMTOLJ
 70
     0
  9
$DIMTZIN
 70
     8
  9
$DIMALTZ
 70
     0
  9
$DIMALTTZ
 70
     0
  9
$DIMUPT
 70
     0
  9
$DIMDEC
 70
     2
  9
$DIMTDEC
 70
     2
  9
$DIMALTU
 70
     2
  9
$DIMALTTD
 70
     3
  9
$DIMTXSTY
  7
Standard
  9
$DIMAUNIT
 70
     0
  9
$DIMADEC
 70
     0
  9
$DIMALTRND
 40
0.0
  9
$DIMAZIN
 70
     0
  9
$DIMDSEP
 70
    44
  9
$DIMATFIT
 70
     3
  9
$DIMFRAC
 70
     0
  9
$DIMLDRBLK
  1

  9
$DIMLUNIT
 70
     2
  9
$DIMLWD
 70
    -2
  9
$DIMLWE
 70
    -2
  9
$DIMTMOVE
 70
     0
  9
$LUNITS
 70
     2
  9
$LUPREC
 70
     4
  9
$SKETCHINC
 40
1.0
  9
$FILLETRAD
 40
10.0
  9
$AUNITS
 70
     0
  9
$AUPREC
 70
     0
  9
$MENU
  1
.
  9
$ELEVATION
 40
0.0
  9
$PELEVATION
 40
0.0
  9
$THICKNESS
 40
0.0
  9
$LIMCHECK
 70
     0
  9
$CHAMFERA
 40
10.0
  9
$CHAMFERB
 40
10.0
  9
$CHAMFERC
 40
20.0
  9
$CHAMFERD
 40
0.0
  9
$SKPOLY
 70
     0
  9
$TDCREATE
 40
2458442.395148669
  9
$TDUCREATE
 40
2458442.020148669
  9
$TDUPDATE
 40
2458442.395148681
  9
$TDUUPDATE
 40
2458442.020148681
  9
$TDINDWG
 40
0.0000000116
  9
$TDUSRTIMER
 40
0.0000000116
  9
$USRTIMER
 70
     1
  9
$ANGBASE
 50
0.0
  9
$ANGDIR
 70
     0
  9
$PDMODE
 70
     0
  9
$PDSIZE
 40
0.0
  9
$PLINEWID
 40
0.0
  9
$SPLFRAME
 70
     0
  9
$SPLINETYPE
 70
     6
  9
$SPLINESEGS
 70
     8
  9
$HANDSEED
  5
5C5
  9
$SURFTAB1
 70
     6
  9
$SURFTAB2
 70
     6
  9
$SURFTYPE
 70
     6
  9
$SURFU
 70
     6
  9
$SURFV
 70
     6
  9
$UCSBASE
  2

  9
$UCSNAME
  2

  9
$UCSORG
 10
0.0
 20
0.0
 30
0.0
  9
$UCSXDIR
 10
1.0
 20
0.0
 30
0.0
  9
$UCSYDIR
 10
0.0
 20
1.0
 30
0.0
  9
$UCSORTHOREF
  2

  9
$UCSORTHOVIEW
 70
     0
  9
$UCSORGTOP
 10
0.0
 20
0.0
 30
0.0
  9
$UCSORGBOTTOM
 10
0.0
 20
0.0
 30
0.0
  9
$UCSORGLEFT
 10
0.0
 20
0.0
 30
0.0
  9
$UCSORGRIGHT
 10
0.0
 20
0.0
 30
0.0
  9
$UCSORGFRONT
 10
0.0
 20
0.0
 30
0.0
  9
$UCSORGBACK
 10
0.0
 20
0.0
 30
0.0
  9
$PUCSBASE
  2

  9
$PUCSNAME
  2

  9
$PUCSORG
 10
0.0
 20
0.0
 30
0.0
  9
$PUCSXDIR
 10
1.0
 20
0.0
 30
0.0
  9
$PUCSYDIR
 10
0.0
 20
1.0
 30
0.0
  9
$PUCSORTHOREF
  2

  9
$PUCSORTHOVIEW
 70
     0
  9
$PUCSORGTOP
 10
0.0
 20
0.0
 30
0.0
  9
$PUCSORGBOTTOM
 10
0.0
 20
0.0
 30
0.0
  9
$PUCSORGLEFT
 10
0.0
 20
0.0
 30
0.0
  9
$PUCSORGRIGHT
 10
0.0
 20
0.0
 30
0.0
  9
$PUCSORGFRONT
 10
0.0
 20
0.0
 30
0.0
  9
$PUCSORGBACK
 10
0.0
 20
0.0
 30
0.0
  9
$USERI1
 70
     0
  9
$USERI2
 70
     0
  9
$USERI3
 70
     0
  9
$USERI4
 70
     0
  9
$USERI5
 70
     0
  9
$USERR1
 40
0.0
  9
$USERR2
 40
0.0
  9
$USERR3
 40
0.0
  9
$USERR4
 40
0.0
  9
$USERR5
 40
0.0
  9
$WORLDVIEW
 70
     1
  9
$SHADEDGE
 70
     3
  9
$SHADEDIF
 70
    70
  9
$TILEMODE
 70
     1
  9
$MAXACTVP
 70
    64
  9
$PINSBASE
 10
0.0
 20
0.0
 30
0.0
  9
$PLIMCHECK
 70
     0
  9
$PEXTMIN
 10
1.000000000000000E+20
 20
1.000000000000000E+20
 30
1.000000000000000E+20
  9
$PEXTMAX
 10
-1.000000000000000E+20
 20
-1.000000000000000E+20
 30
-1.000000000000000E+20
  9
$PLIMMIN
 10
0.0
 20
0.0
  9
$PLIMMAX
 10
420.0
 20
297.0
  9
$UNITMODE
 70
     0
  9
$VISRETAIN
 70
     1
  9
$PLINEGEN
 70
     0
  9
$PSLTSCALE
 70
     1
  9
$TREEDEPTH
 70
  3020
  9
$CMLSTYLE
  2
Standard
  9
$CMLJUST
 70
     0
  9
$CMLSCALE
 40
20.0
  9
$PROXYGRAPHICS
 70
     1
  9
$MEASUREMENT
 70
     1
  9
$CELWEIGHT
370
    -1
  9
$ENDCAPS
280
     0
  9
$JOINSTYLE
280
     0
  9
$LWDISPLAY
290
     0
  9
$INSUNITS
 70
     4
  9
$HYPERLINKBASE
  1

  9
$STYLESHEET
  1

  9
$XEDIT
290
     1
  9
$CEPSNTYPE
380
     0
  9
$PSTYLEMODE
290
     1
  9
$FINGERPRINTGUID
  2
{A304EB11-3672-4763-922D-BDA936B51F56}
  9
$VERSIONGUID
  2
{FAEB1C32-E019-11D5-929B-00C0DF256EC4}
  9
$EXTNAMES
290
     1
  9
$PSVPSCALE
 40
0.0
  9
$OLESTARTUP
290
     0
  9
$SORTENTS
280
   127
  9
$INDEXCTL
280
     0
  9
$HIDETEXT
280
     1
  9
$XCLIPFRAME
290
     0
  9
$HALOGAP
280
     0
  9
$OBSCOLOR
 70
   257
  9
$OBSLTYPE
280
     0
  9
$INTERSECTIONDISPLAY
280
     0
  9
$INTERSECTIONCOLOR
 70
   257
  9
$DIMASSOC
280
     2
  9
$PROJECTNAME
  1

  0
ENDSEC
  0
SECTION
  2
CLASSES
  0
CLASS
  1
ACDBDICTIONARYWDFLT
  2
AcDbDictionaryWithDefault
  3
ObjectDBX Classes
 90
        0
 91
        4
280
     0
281
     0
  0
CLASS
  1
VISUALSTYLE
  2
AcDbVisualStyle
  3
ObjectDBX Classes
 90
     4095
 91
        4
280
     0
281
     0
  0
ENDSEC
  0
SECTION
  2
TABLES
  0
TABLE
  2
VPORT
  5
8
330
0
100
AcDbSymbolTable
 70
     1
  0
VPORT
  5
29
330
8
100
AcDbSymbolTableRecord
100
AcDbViewportTableRecord
  2
*Active
 70
     0
 10
0.0
 20
0.0
 11
1.0
 21
1.0
 12
0.0
 22
0.0
 13
0.0
 23
0.0
 14
10.0
 24
10.0
 15
10.0
 25
10.0
 16
0.0
 26
0.0
 36
1.0
 17
0.0
 27
0.0
 37
0.0
 40
3267.0
 41
1.414141414141414
 42
50.0
 43
0.0
 44
0.0
 50
0.0
 51
0.0
 71
     0
 72
 10000
 73
     1
 74
     3
 75
     0
 76
     0
 77
     0
 78
     0
281
     0
 65
     1
110
0.0
120
0.0
130
0.0
111
1.0
121
0.0
131
0.0
112
0.0
122
1.0
132
0.0
 79
     0
146
0.0
  0
ENDTAB
  0
TABLE
  2
LTYPE
  5
5
330
0
100
AcDbSymbolTable
 70
     5
  0
LTYPE
  5
14
330
5
100
AcDbSymbolTableRecord
100
AcDbLinetypeTableRecord
  2
ByBlock
 70
     0
  3

 72
    65
 73
     0
 40
0.0
  0
LTYPE
  5
15
330
5
100
AcDbSymbolTableRecord
100
AcDbLinetypeTableRecord
  2
ByLayer
 70
     0
  3

 72
    65
 73
     0
 40
0.0
  0
LTYPE
  5
16
330
5
100
AcDbSymbolTableRecord
100
AcDbLinetypeTableRecord
  2
Continuous
 70
     0
  3
Solid line
 72
    65
 73
     0
 40
0.0
  0
LTYPE
  5
3C
330
5
100
AcDbSymbolTableRecord
100
AcDbLinetypeTableRecord
  2
JWW_CENTER1
 70
     0
  3
-----  --  ----------  --  -----
 72
    65
 73
     4
 40
6.773333333333333
 49
4.233333333333333
 74
     0
 49
-0.8466666666666667
 74
     0
 49
0.8466666666666667
 74
     0
 49
-0.8466666666666667
 74
     0
  0
LTYPE
  5
3D
330
5
100
AcDbSymbolTableRecord
100
AcDbLinetypeTableRecord
  2
JWW_DASHED3
 70
     0
  3
---  ------  ------  ------  ---
 72
    65
 73
     2
 40
3.386666666666667
 49
2.54
 74
     0
 49
-0.8466666666666667
 74
     0
  0
LTYPE
  5
3E
330
5
100
AcDbSymbolTableRecord
100
AcDbLinetypeTableRecord
  2
JWW_DASHED2
 70
     0
  3
--    ----    ----    ----    --
 72
    65
 73
     2
 40
3.386666666666667
 49
1.693333333333333
 74
     0
 49
-1.693333333333333
 74
     0
  0
LTYPE
  5
3F
330
5
100
AcDbSymbolTableRecord
100
AcDbLinetypeTableRecord
  2
JWW_CENTER2
 70
     0
  3
-------------  --  -------------
 72
    65
 73
     4
 40
13.54666666666667
 49
11.00666666666667
 74
     0
 49
-0.8466666666666667
 74
     0
 49
0.8466666666666667
 74
     0
 49
-0.8466666666666667
 74
     0
  0
ENDTAB
  0
TABLE
  2
LAYER
  5
2
330
0
100
AcDbSymbolTable
 70
    16
  0
LAYER
  5
10
330
2
100
AcDbSymbolTableRecord
100
AcDbLayerTableRecord
  2
0
 70
     0
 62
     7
  6
Continuous
370
    -3
390
F
  0
LAYER
  5
40
330
2
100
AcDbSymbolTableRecord
100
AcDbLayerTableRecord
  2
F-5ﾚｲﾔ
 70
     0
 62
     7
  6
Continuous
370
    -1
390
F
  0
LAYER
  5
41
330
2
100
AcDbSymbolTableRecord
100
AcDbLayerTableRecord
  2
D-5
 70
     0
 62
     7
  6
Continuous
370
    -1
390
F
  0
LAYER
  5
42
330
2
100
AcDbSymbolTableRecord
100
AcDbLayerTableRecord
  2
D-2
 70
     0
 62
     7
  6
Continuous
370
    -1
390
F
  0
LAYER
  5
43
330
2
100
AcDbSymbolTableRecord
100
AcDbLayerTableRecord
  2
D-A
 70
     0
 62
     7
  6
Continuous
370
    -1
390
F
  0
LAYER
  5
44
330
2
100
AcDbSymbolTableRecord
100
AcDbLayerTableRecord
  2
D-4
 70
     0
 62
     7
  6
Continuous
370
    -1
390
F
  0
LAYER
  5
45
330
2
100
AcDbSymbolTableRecord
100
AcDbLayerTableRecord
  2
D-0
 70
     0
 62
     7
  6
Continuous
370
    -1
390
F
  0
LAYER
  5
46
330
2
100
AcDbSymbolTableRecord
100
AcDbLayerTableRecord
  2
C-2
 70
     0
 62
     7
  6
Continuous
370
    -1
390
F
  0
LAYER
  5
47
330
2
100
AcDbSymbolTableRecord
100
AcDbLayerTableRecord
  2
C-A
 70
     0
 62
     7
  6
Continuous
370
    -1
390
F
  0
LAYER
  5
48
330
2
100
AcDbSymbolTableRecord
100
AcDbLayerTableRecord
  2
C-5
 70
     0
 62
     7
  6
Continuous
370
    -1
390
F
  0
LAYER
  5
49
330
2
100
AcDbSymbolTableRecord
100
AcDbLayerTableRecord
  2
C-9
 70
     0
 62
     7
  6
Continuous
370
    -1
390
F
  0
LAYER
  5
4A
330
2
100
AcDbSymbolTableRecord
100
AcDbLayerTableRecord
  2
C-4
 70
     0
 62
     7
  6
Continuous
370
    -1
390
F
  0
LAYER
  5
4B
330
2
100
AcDbSymbolTableRecord
100
AcDbLayerTableRecord
  2
D-1
 70
     0
 62
     7
  6
Continuous
370
    -1
390
F
  0
LAYER
  5
4C
330
2
100
AcDbSymbolTableRecord
100
AcDbLayerTableRecord
  2
D-6
 70
     0
 62
     7
  6
Continuous
370
    -1
390
F
  0
LAYER
  5
4D
330
2
100
AcDbSymbolTableRecord
100
AcDbLayerTableRecord
  2
D-9
 70
     0
 62
     7
  6
Continuous
370
    -1
390
F
  0
LAYER
  5
4E
330
2
100
AcDbSymbolTableRecord
100
AcDbLayerTableRecord
  2
F-4ﾚｲﾔ
 70
     0
 62
     7
  6
Continuous
370
    -1
390
F
  0
ENDTAB
  0
TABLE
  2
STYLE
  5
3
330
0
100
AcDbSymbolTable
 70
     2
  0
STYLE
  5
11
330
3
100
AcDbSymbolTableRecord
100
AcDbTextStyleTableRecord
  2
Standard
 70
     0
 40
0.0
 41
1.0
 50
0.0
 71
     0
 42
2.5
  3
txt
  4

1001
ACAD
1000

1071
        0
  0
STYLE
  5
3B
330
3
100
AcDbSymbolTableRecord
100
AcDbTextStyleTableRecord
  2
ＭＳ ゴシック
 70
     0
 40
1.0
 41
1.0
 50
0.0
 71
     0
 42
10.0
  3

  4

1001
ACAD
1000
MS Gothic
1071
    32817
  0
ENDTAB
  0
TABLE
  2
VIEW
  5
6
330
0
100
AcDbSymbolTable
 70
     0
  0
ENDTAB
  0
TABLE
  2
UCS
  5
7
330
0
100
AcDbSymbolTable
 70
     0
  0
ENDTAB
  0
TABLE
  2
APPID
  5
9
330
0
100
AcDbSymbolTable
 70
     1
  0
APPID
  5
12
330
9
100
AcDbSymbolTableRecord
100
AcDbRegAppTableRecord
  2
ACAD
 70
     0
  0
ENDTAB
  0
TABLE
  2
DIMSTYLE
  5
A
330
0
100
AcDbSymbolTable
 70
     1
100
AcDbDimStyleTable
  0
DIMSTYLE
105
27
330
A
100
AcDbSymbolTableRecord
100
AcDbDimStyleTableRecord
  2
ISO-25
 70
     0
 41
2.5
 42
0.625
 43
3.75
 44
1.25
 73
     0
 74
     0
 77
     1
 78
     8
140
2.5
141
2.5
143
0.03937007874016
147
0.625
171
     3
172
     1
271
     2
272
     2
274
     3
278
    44
283
     0
284
     8
340
11
  0
ENDTAB
  0
TABLE
  2
BLOCK_RECORD
  5
1
330
0
100
AcDbSymbolTable
 70
     1
  0
BLOCK_RECORD
  5
1F
330
1
100
AcDbSymbolTableRecord
100
AcDbBlockTableRecord
  2
*Model_Space
340
22
  0
BLOCK_RECORD
  5
1B
330
1
100
AcDbSymbolTableRecord
100
AcDbBlockTableRecord
  2
*Paper_Space
340
1E
  0
BLOCK_RECORD
  5
23
330
1
100
AcDbSymbolTableRecord
100
AcDbBlockTableRecord
  2
*Paper_Space0
340
26
  0
ENDTAB
  0
ENDSEC
  0
SECTION
  2
BLOCKS
  0
BLOCK
  5
20
330
1F
100
AcDbEntity
  8
0
100
AcDbBlockBegin
  2
*Model_Space
 70
     0
 10
0.0
 20
0.0
 30
0.0
  3
*Model_Space
  1

  0
ENDBLK
  5
21
330
1F
100
AcDbEntity
  8
0
100
AcDbBlockEnd
  0
BLOCK
  5
1C
330
1B
100
AcDbEntity
 67
     1
  8
0
100
AcDbBlockBegin
  2
*Paper_Space
 70
     0
 10
0.0
 20
0.0
 30
0.0
  3
*Paper_Space
  1

  0
ENDBLK
  5
1D
330
1B
100
AcDbEntity
 67
     1
  8
0
100
AcDbBlockEnd
  0
BLOCK
  5
24
330
23
100
AcDbEntity
  8
0
100
AcDbBlockBegin
  2
*Paper_Space0
 70
     0
 10
0.0
 20
0.0
 30
0.0
  3
*Paper_Space0
  1

  0
ENDBLK
  5
25
330
23
100
AcDbEntity
  8
0
100
AcDbBlockEnd
  0
ENDSEC
  0
SECTION
  2
ENTITIES
  0
TEXT
  5
4F
330
1F
100
AcDbEntity
  8
F-5ﾚｲﾔ
  6
Continuous
 62
     2
370
     9
100
AcDbText
 10
-833.1653373972165
 20
-1325.085615606012
 30
0.0
 40
30.48
  1
ステンレス製　細目滑り止め模様付（ローレット模様）グレーチング（すきま9mm）
 41
0.7743333333333332
  7
ＭＳ ゴシック
100
AcDbText
  0
LINE
  5
50
330
1F
100
AcDbEntity
  8
D-5
  6
Continuous
 62
     7
370
     9
100
AcDbLine
 10
-705.3838717102578
 20
-1068.637897808668
 30
0.0
 11
-1232.040680827523
 21
-1068.637897808668
 31
0.0
  0
TEXT
  5
51
330
1F
100
AcDbEntity
  8
D-5
  6
Continuous
 62
     2
370
     9
100
AcDbText
 10
-1224.962278903339
 20
-1050.49820298445
 30
0.0
 40
30.48
  1
A断面詳細図　Ｓ＝１：２
 50
0.00002676319048
 41
1.114130434782608
  7
ＭＳ ゴシック
100
AcDbText
  0
LINE
  5
52
330
1F
100
AcDbEntity
  8
D-5
  6
Continuous
 62
     7
370
     9
100
AcDbLine
 10
398.9718102900921
 20
66.47175814954288
 30
0.0
 11
616.9102306381508
 21
66.47175814954288
 31
0.0
  0
TEXT
  5
53
330
1F
100
AcDbEntity
  8
D-5
  6
Continuous
 62
     2
370
     9
100
AcDbText
 10
409.1910204641216
 20
87.11175814954288
 30
0.0
 40
30.48
  1
B-B断面図
 41
1.097222222222222
  7
ＭＳ ゴシック
100
AcDbText
  0
LINE
  5
54
330
1F
100
AcDbEntity
  8
D-2
  6
Continuous
 62
     3
370
     9
100
AcDbLine
 10
511.3274369773139
 20
899.6888253296547
 30
0.0
 11
511.3274369773139
 21
884.687970837467
 31
0.0
  0
LINE
  5
55
330
1F
100
AcDbEntity
  8
D-2
  6
Continuous
 62
     3
370
     9
100
AcDbLine
 10
511.3274369773139
 20
899.6888253296547
 30
0.0
 11
531.3285203513376
 21
869.6878487671538
 31
0.0
  0
LINE
  5
56
330
1F
100
AcDbEntity
  8
D-2
  6
Continuous
 62
     3
370
     9
100
AcDbLine
 10
531.3285203513376
 20
884.687970837467
 30
0.0
 11
531.3285203513376
 21
869.6878487671538
 31
0.0
  0
LINE
  5
57
330
1F
100
AcDbEntity
  8
D-A
  6
Continuous
 62
     3
370
     9
100
AcDbLine
 10
541.4230940117848
 20
884.687970837467
 30
0.0
 11
541.4230940117848
 21
1019.688168789325
 31
0.0
  0
LINE
  5
58
330
1F
100
AcDbEntity
  8
D-A
  6
Continuous
 62
     3
370
     9
100
AcDbLine
 10
501.4238280832587
 20
884.687970837467
 30
0.0
 11
501.4238280832587
 21
1019.688168789325
 31
0.0
  0
LINE
  5
59
330
1F
100
AcDbEntity
  8
D-2
  6
Continuous
 62
     3
370
     9
100
AcDbLine
 10
501.4206806487147
 20
935.6939456020395
 30
0.0
 11
541.4206196135588
 21
902.1304690395393
 31
0.0
  0
LINE
  5
5A
330
1F
100
AcDbEntity
  8
D-2
  6
Continuous
 62
     3
370
     9
100
AcDbLine
 10
501.4206806487147
 20
945.947796443975
 30
0.0
 11
541.4206196135588
 21
912.3843198814748
 31
0.0
  0
LINE
  5
5B
330
1F
100
AcDbEntity
  8
D-2
  6
Continuous
 62
     3
370
     9
100
AcDbLine
 10
501.4206806487147
 20
910.0513120689752
 30
0.0
 11
541.4206196135588
 21
943.6151853599906
 31
0.0
  0
LINE
  5
5C
330
1F
100
AcDbEntity
  8
D-2
  6
Continuous
 62
     3
370
     9
100
AcDbLine
 10
501.4206806487147
 20
956.20164728591
 30
0.0
 11
541.4206196135588
 21
922.6381707234102
 31
0.0
  0
LINE
  5
5D
330
1F
100
AcDbEntity
  8
D-2
  6
Continuous
 62
     3
370
     9
100
AcDbLine
 10
501.4206806487147
 20
920.30516291091
 30
0.0
 11
541.4206196135588
 21
953.8690362019256
 31
0.0
  0
LINE
  5
5E
330
1F
100
AcDbEntity
  8
D-2
  6
Continuous
 62
     3
370
     9
100
AcDbLine
 10
501.4206806487147
 20
966.4554981278454
 30
0.0
 11
541.4206196135588
 21
932.8920215653457
 31
0.0
  0
LINE
  5
5F
330
1F
100
AcDbEntity
  8
D-2
  6
Continuous
 62
     3
370
     9
100
AcDbLine
 10
501.4206806487147
 20
930.5590137528454
 30
0.0
 11
541.4206196135588
 21
964.122887043861
 31
0.0
  0
LINE
  5
60
330
1F
100
AcDbEntity
  8
D-2
  6
Continuous
 62
     3
370
     9
100
AcDbLine
 10
501.4206806487147
 20
976.7093489697809
 30
0.0
 11
541.4206196135588
 21
943.1458724072806
 31
0.0
  0
LINE
  5
61
330
1F
100
AcDbEntity
  8
D-2
  6
Continuous
 62
     3
370
     9
100
AcDbLine
 10
501.4206806487147
 20
940.8128645947809
 30
0.0
 11
541.4206196135588
 21
974.3767378857965
 31
0.0
  0
LINE
  5
62
330
1F
100
AcDbEntity
  8
D-2
  6
Continuous
 62
     3
370
     9
100
AcDbLine
 10
501.4206806487147
 20
986.9631998117163
 30
0.0
 11
541.4206196135588
 21
953.3997232492161
 31
0.0
  0
LINE
  5
63
330
1F
100
AcDbEntity
  8
D-2
  6
Continuous
 62
     3
370
     9
100
AcDbLine
 10
501.4206806487147
 20
951.0667154367163
 30
0.0
 11
541.4206196135588
 21
984.630588727732
 31
0.0
  0
LINE
  5
64
330
1F
100
AcDbEntity
  8
D-2
  6
Continuous
 62
     3
370
     9
100
AcDbLine
 10
501.4206806487147
 20
997.2170506536511
 30
0.0
 11
541.4206196135588
 21
963.6535740911515
 31
0.0
  0
LINE
  5
65
330
1F
100
AcDbEntity
  8
D-2
  6
Continuous
 62
     3
370
     9
100
AcDbLine
 10
501.4206806487147
 20
961.3205662786513
 30
0.0
 11
541.4206196135588
 21
994.8844395696667
 31
0.0
  0
LINE
  5
66
330
1F
100
AcDbEntity
  8
D-2
  6
Continuous
 62
     3
370
     9
100
AcDbLine
 10
501.4206806487147
 20
1007.470901495587
 30
0.0
 11
541.4206196135588
 21
973.907424933087
 31
0.0
  0
LINE
  5
67
330
1F
100
AcDbEntity
  8
D-2
  6
Continuous
 62
     3
370
     9
100
AcDbLine
 10
501.4206806487147
 20
971.5744171205868
 30
0.0
 11
541.4206196135588
 21
1005.138290411602
 31
0.0
  0
LINE
  5
68
330
1F
100
AcDbEntity
  8
D-2
  6
Continuous
 62
     3
370
     9
100
AcDbLine
 10
501.4206806487147
 20
1017.724752337522
 30
0.0
 11
541.4206196135588
 21
984.1612757750217
 31
0.0
  0
LINE
  5
69
330
1F
100
AcDbEntity
  8
D-2
  6
Continuous
 62
     3
370
     9
100
AcDbLine
 10
501.4206806487147
 20
981.8282679625222
 30
0.0
 11
541.4206196135588
 21
1015.392141253538
 31
0.0
  0
LINE
  5
6A
330
1F
100
AcDbEntity
  8
D-2
  6
Continuous
 62
     3
370
     9
100
AcDbLine
 10
535.7414305601953
 20
1019.688168789325
 30
0.0
 11
541.4206196135588
 21
1014.922828300828
 31
0.0
  0
LINE
  5
6B
330
1F
100
AcDbEntity
  8
D-2
  6
Continuous
 62
     3
370
     9
100
AcDbLine
 10
501.4206806487147
 20
992.0821188044577
 30
0.0
 11
534.3203494348775
 21
1019.688168789325
 31
0.0
  0
LINE
  5
6C
330
1F
100
AcDbEntity
  8
D-2
  6
Continuous
 62
     3
370
     9
100
AcDbLine
 10
523.5212004219893
 20
1019.688168789325
 30
0.0
 11
541.4206196135588
 21
1004.668977458893
 31
0.0
  0
LINE
  5
6D
330
1F
100
AcDbEntity
  8
D-2
  6
Continuous
 62
     3
370
     9
100
AcDbLine
 10
501.4206806487147
 20
1002.335969646392
 30
0.0
 11
522.1002637410784
 21
1019.688168789325
 31
0.0
  0
LINE
  5
6E
330
1F
100
AcDbEntity
  8
D-2
  6
Continuous
 62
     3
370
     9
100
AcDbLine
 10
511.3009702837838
 20
1019.688168789325
 30
0.0
 11
541.4206196135588
 21
994.4151266169572
 31
0.0
  0
LINE
  5
6F
330
1F
100
AcDbEntity
  8
D-2
  6
Continuous
 62
     3
370
     9
100
AcDbLine
 10
501.4206806487147
 20
1012.589820488328
 30
0.0
 11
509.8801780472787
 21
1019.688168789325
 31
0.0
  0
LINE
  5
70
330
1F
100
AcDbEntity
  8
D-2
  6
Continuous
 62
     3
370
     9
100
AcDbLine
 10
501.4206806487147
 20
915.1862439181687
 30
0.0
 11
537.7676025621686
 21
884.687970837467
 31
0.0
  0
LINE
  5
71
330
1F
100
AcDbEntity
  8
D-2
  6
Continuous
 62
     3
370
     9
100
AcDbLine
 10
501.4238280832587
 20
899.8001022334254
 30
0.0
 11
541.4206196135588
 21
933.3613345180552
 31
0.0
  0
LINE
  5
72
330
1F
100
AcDbEntity
  8
D-2
  6
Continuous
 62
     3
370
     9
100
AcDbLine
 10
501.4206806487147
 20
925.4400947601041
 30
0.0
 11
541.4206196135588
 21
891.8766181976048
 31
0.0
  0
LINE
  5
73
330
1F
100
AcDbEntity
  8
D-2
  6
Continuous
 62
     3
370
     9
100
AcDbLine
 10
501.4206806487144
 20
894.6785422342987
 30
0.0
 11
511.3274369773139
 21
886.3658999540794
 31
0.0
  0
LINE
  5
74
330
1F
100
AcDbEntity
  8
D-2
  6
Continuous
 62
     3
370
     9
100
AcDbLine
 10
507.854029994872
 20
884.687970837467
 30
0.0
 11
511.3274369773139
 21
887.6025000808559
 31
0.0
  0
LINE
  5
75
330
1F
100
AcDbEntity
  8
D-2
  6
Continuous
 62
     3
370
     9
100
AcDbLine
 10
501.4206806487147
 20
904.9323930762339
 30
0.0
 11
511.3274369773139
 21
896.6197507960148
 31
0.0
  0
LINE
  5
76
330
1F
100
AcDbEntity
  8
D-2
  6
Continuous
 62
     3
370
     9
100
AcDbLine
 10
501.4238280832587
 20
889.5462513914899
 30
0.0
 11
511.3274369773139
 21
897.8563509227913
 31
0.0
  0
LINE
  5
77
330
1F
100
AcDbEntity
  8
D-2
  6
Continuous
 62
     3
370
     9
100
AcDbLine
 10
512.1108585011792
 20
898.5137184448663
 30
0.0
 11
541.4206196135588
 21
923.1074836761197
 31
0.0
  0
LINE
  5
78
330
1F
100
AcDbEntity
  8
D-2
  6
Continuous
 62
     3
370
     9
100
AcDbLine
 10
520.8783342399827
 20
885.3627891060211
 30
0.0
 11
541.4206196135588
 21
902.5997819922495
 31
0.0
  0
LINE
  5
79
330
1F
100
AcDbEntity
  8
D-2
  6
Continuous
 62
     3
370
     9
100
AcDbLine
 10
516.4945963705811
 20
891.9382537754436
 30
0.0
 11
541.4206196135588
 21
912.8536328341843
 31
0.0
  0
LINE
  5
7A
330
1F
100
AcDbEntity
  8
D-2
  6
Continuous
 62
     3
370
     9
100
AcDbLine
 10
515.9713623520183
 20
892.7230878383818
 30
0.0
 11
531.3285203513376
 21
879.8370778614719
 31
0.0
  0
LINE
  5
7B
330
1F
100
AcDbEntity
  8
D-2
  6
Continuous
 62
     3
370
     9
100
AcDbLine
 10
532.2942013824696
 20
884.687970837467
 30
0.0
 11
541.4206196135584
 21
892.3459311503143
 31
0.0
  0
LINE
  5
7C
330
1F
100
AcDbEntity
  8
D-2
  6
Continuous
 62
     3
370
     9
100
AcDbLine
 10
525.2620721093845
 20
878.7873244365985
 30
0.0
 11
531.3285203513376
 21
883.8776697068342
 31
0.0
  0
LINE
  5
7D
330
1F
100
AcDbEntity
  8
D-2
  6
Continuous
 62
     3
370
     9
100
AcDbLine
 10
501.4081474329823
 20
634.0071329604338
 30
0.0
 11
536.347966907755
 21
604.6878471175553
 31
0.0
  0
LINE
  5
7E
330
1F
100
AcDbEntity
  8
D-2
  6
Continuous
 62
     3
370
     9
100
AcDbLine
 10
501.4077893411042
 20
623.7530350854275
 30
0.0
 11
524.1277910976227
 21
604.6878471175553
 31
0.0
  0
LINE
  5
7F
330
1F
100
AcDbEntity
  8
D-2
  6
Continuous
 62
     3
370
     9
100
AcDbLine
 10
501.4074312492261
 20
613.4989372104219
 30
0.0
 11
511.9076152874908
 21
604.6878471175553
 31
0.0
  0
LINE
  5
80
330
1F
100
AcDbEntity
  8
D-2
  6
Continuous
 62
     3
370
     9
100
AcDbLine
 10
533.6864611154426
 20
604.6878471175553
 30
0.0
 11
541.4206196135588
 21
611.1775695826522
 31
0.0
  0
LINE
  5
81
330
1F
100
AcDbEntity
  8
D-2
  6
Continuous
 62
     3
370
     9
100
AcDbLine
 10
501.4188147969657
 20
813.449446736565
 30
0.0
 11
541.4206196135588
 21
847.0149097957844
 31
0.0
  0
LINE
  5
82
330
1F
100
AcDbEntity
  8
D-2
  6
Continuous
 62
     3
370
     9
100
AcDbLine
 10
501.4153092705437
 20
839.0890904605553
 30
0.0
 11
541.4206196135588
 21
805.5191651772606
 31
0.0
  0
LINE
  5
83
330
1F
100
AcDbEntity
  8
D-2
  6
Continuous
 62
     3
370
     9
100
AcDbLine
 10
501.4184567050876
 20
803.1953488615588
 30
0.0
 11
541.4206196135588
 21
836.7611123952136
 31
0.0
  0
LINE
  5
84
330
1F
100
AcDbEntity
  8
D-2
  6
Continuous
 62
     3
370
     9
100
AcDbLine
 10
501.4149511786656
 20
828.8349925855493
 30
0.0
 11
541.4206196135588
 21
795.264766814207
 31
0.0
  0
LINE
  5
85
330
1F
100
AcDbEntity
  8
D-2
  6
Continuous
 62
     3
370
     9
100
AcDbLine
 10
501.4180986132096
 20
792.9412509865529
 30
0.0
 11
541.4206196135588
 21
826.5073149946429
 31
0.0
  0
LINE
  5
86
330
1F
100
AcDbEntity
  8
D-2
  6
Continuous
 62
     3
370
     9
100
AcDbLine
 10
501.4145930867875
 20
818.5808947105434
 30
0.0
 11
541.4206196135588
 21
785.0103684511532
 31
0.0
  0
LINE
  5
87
330
1F
100
AcDbEntity
  8
D-2
  6
Continuous
 62
     3
370
     9
100
AcDbLine
 10
501.4177405213315
 20
782.6871531115466
 30
0.0
 11
541.4206196135588
 21
816.2535175940716
 31
0.0
  0
LINE
  5
88
330
1F
100
AcDbEntity
  8
D-2
  6
Continuous
 62
     3
370
     9
100
AcDbLine
 10
501.4142349949095
 20
808.3267968355372
 30
0.0
 11
541.4206196135588
 21
774.7559700880998
 31
0.0
  0
LINE
  5
89
330
1F
100
AcDbEntity
  8
D-2
  6
Continuous
 62
     3
370
     9
100
AcDbLine
 10
501.4173824294534
 20
772.4330552365404
 30
0.0
 11
541.4206196135588
 21
805.9997201935007
 31
0.0
  0
LINE
  5
8A
330
1F
100
AcDbEntity
  8
D-2
  6
Continuous
 62
     3
370
     9
100
AcDbLine
 10
501.4138769030314
 20
798.0726989605309
 30
0.0
 11
541.4206196135588
 21
764.5015717250465
 31
0.0
  0
LINE
  5
8B
330
1F
100
AcDbEntity
  8
D-2
  6
Continuous
 62
     3
370
     9
100
AcDbLine
 10
501.4170243375754
 20
762.1789573615342
 30
0.0
 11
541.4206196135588
 21
795.7459227929297
 31
0.0
  0
LINE
  5
8C
330
1F
100
AcDbEntity
  8
D-2
  6
Continuous
 62
     3
370
     9
100
AcDbLine
 10
501.4135188111533
 20
787.8186010855251
 30
0.0
 11
541.4206196135588
 21
754.2471733619927
 31
0.0
  0
LINE
  5
8D
330
1F
100
AcDbEntity
  8
D-2
  6
Continuous
 62
     3
370
     9
100
AcDbLine
 10
501.4166662456973
 20
751.9248594865282
 30
0.0
 11
541.4206196135588
 21
785.4921253923584
 31
0.0
  0
LINE
  5
8E
330
1F
100
AcDbEntity
  8
D-2
  6
Continuous
 62
     3
370
     9
100
AcDbLine
 10
501.4131607192753
 20
777.5645032105189
 30
0.0
 11
541.4206196135588
 21
743.9927749989391
 31
0.0
  0
LINE
  5
8F
330
1F
100
AcDbEntity
  8
D-2
  6
Continuous
 62
     3
370
     9
100
AcDbLine
 10
501.4163081538192
 20
741.6707616115224
 30
0.0
 11
541.4206196135588
 21
775.2383279917876
 31
0.0
  0
LINE
  5
90
330
1F
100
AcDbEntity
  8
D-2
  6
Continuous
 62
     3
370
     9
100
AcDbLine
 10
501.4128026273972
 20
767.3104053355127
 30
0.0
 11
541.4206196135588
 21
733.7383766358857
 31
0.0
  0
LINE
  5
91
330
1F
100
AcDbEntity
  8
D-2
  6
Continuous
 62
     3
370
     9
100
AcDbLine
 10
501.4159500619411
 20
731.4166637365162
 30
0.0
 11
541.4206196135588
 21
764.9845305912165
 31
0.0
  0
LINE
  5
92
330
1F
100
AcDbEntity
  8
D-2
  6
Continuous
 62
     3
370
     9
100
AcDbLine
 10
501.4124445355191
 20
757.0563074605064
 30
0.0
 11
541.4206196135588
 21
723.4839782728324
 31
0.0
  0
LINE
  5
93
330
1F
100
AcDbEntity
  8
D-2
  6
Continuous
 62
     3
370
     9
100
AcDbLine
 10
501.4155919700631
 20
721.16256586151
 30
0.0
 11
541.4206196135588
 21
754.7307331906455
 31
0.0
  0
LINE
  5
94
330
1F
100
AcDbEntity
  8
D-2
  6
Continuous
 62
     3
370
     9
100
AcDbLine
 10
501.412086443641
 20
746.8022095855006
 30
0.0
 11
541.4206196135588
 21
713.229579909779
 31
0.0
  0
LINE
  5
95
330
1F
100
AcDbEntity
  8
D-2
  6
Continuous
 62
     3
370
     9
100
AcDbLine
 10
501.415233878185
 20
710.9084679865038
 30
0.0
 11
541.4206196135588
 21
744.4769357900748
 31
0.0
  0
LINE
  5
96
330
1F
100
AcDbEntity
  8
D-2
  6
Continuous
 62
     3
370
     9
100
AcDbLine
 10
501.411728351763
 20
736.5481117104946
 30
0.0
 11
541.4206196135588
 21
702.9751815467256
 31
0.0
  0
LINE
  5
97
330
1F
100
AcDbEntity
  8
D-2
  6
Continuous
 62
     3
370
     9
100
AcDbLine
 10
501.4148757863069
 20
700.6543701114981
 30
0.0
 11
541.4206196135588
 21
734.2231383895034
 31
0.0
  0
LINE
  5
98
330
1F
100
AcDbEntity
  8
D-2
  6
Continuous
 62
     3
370
     9
100
AcDbLine
 10
501.4113702598849
 20
726.2940138354884
 30
0.0
 11
541.4206196135588
 21
692.7207831836716
 31
0.0
  0
LINE
  5
99
330
1F
100
AcDbEntity
  8
D-2
  6
Continuous
 62
     3
370
     9
100
AcDbLine
 10
501.4145176944289
 20
690.4002722364919
 30
0.0
 11
541.4206196135588
 21
723.9693409889327
 31
0.0
  0
LINE
  5
9A
330
1F
100
AcDbEntity
  8
D-2
  6
Continuous
 62
     3
370
     9
100
AcDbLine
 10
501.4110121680068
 20
716.0399159604822
 30
0.0
 11
541.4206196135588
 21
682.4663848206183
 31
0.0
  0
LINE
  5
9B
330
1F
100
AcDbEntity
  8
D-2
  6
Continuous
 62
     3
370
     9
100
AcDbLine
 10
501.4141596025508
 20
680.1461743614857
 30
0.0
 11
541.4206196135588
 21
713.7155435883614
 31
0.0
  0
LINE
  5
9C
330
1F
100
AcDbEntity
  8
D-2
  6
Continuous
 62
     3
370
     9
100
AcDbLine
 10
501.4106540761288
 20
705.785818085476
 30
0.0
 11
541.4206196135588
 21
672.2119864575649
 31
0.0
  0
LINE
  5
9D
330
1F
100
AcDbEntity
  8
D-2
  6
Continuous
 62
     3
370
     9
100
AcDbLine
 10
501.4138015106727
 20
669.8920764864795
 30
0.0
 11
541.4206196135588
 21
703.4617461877906
 31
0.0
  0
LINE
  5
9E
330
1F
100
AcDbEntity
  8
D-2
  6
Continuous
 62
     3
370
     9
100
AcDbLine
 10
501.4102959842507
 20
695.5317202104703
 30
0.0
 11
541.4206196135588
 21
661.9575880945115
 31
0.0
  0
LINE
  5
9F
330
1F
100
AcDbEntity
  8
D-2
  6
Continuous
 62
     3
370
     9
100
AcDbLine
 10
501.4134434187947
 20
659.6379786114738
 30
0.0
 11
541.4206196135588
 21
693.2079487872198
 31
0.0
  0
LINE
  5
A0
330
1F
100
AcDbEntity
  8
D-2
  6
Continuous
 62
     3
370
     9
100
AcDbLine
 10
501.4099378923726
 20
685.2776223354641
 30
0.0
 11
541.4206196135588
 21
651.7031897314581
 31
0.0
  0
LINE
  5
A1
330
1F
100
AcDbEntity
  8
D-2
  6
Continuous
 62
     3
370
     9
100
AcDbLine
 10
501.4130853269166
 20
649.3838807364676
 30
0.0
 11
541.4206196135588
 21
682.9541513866485
 31
0.0
  0
LINE
  5
A2
330
1F
100
AcDbEntity
  8
D-2
  6
Continuous
 62
     3
370
     9
100
AcDbLine
 10
501.4127272350385
 20
639.1297828614615
 30
0.0
 11
541.4206196135588
 21
672.7003539860777
 31
0.0
  0
LINE
  5
A3
330
1F
100
AcDbEntity
  8
D-2
  6
Continuous
 62
     3
370
     9
100
AcDbLine
 10
501.4123691431604
 20
628.8756849864553
 30
0.0
 11
541.4206196135588
 21
662.446556585507
 31
0.0
  0
LINE
  5
A4
330
1F
100
AcDbEntity
  8
D-2
  6
Continuous
 62
     3
370
     9
100
AcDbLine
 10
501.4120110512824
 20
618.6215871114497
 30
0.0
 11
541.4206196135588
 21
652.1927591849357
 31
0.0
  0
LINE
  5
A5
330
1F
100
AcDbEntity
  8
D-2
  6
Continuous
 62
     3
370
     9
100
AcDbLine
 10
501.4116529594043
 20
608.3674892364435
 30
0.0
 11
541.4206196135588
 21
641.9389617843649
 31
0.0
  0
LINE
  5
A6
330
1F
100
AcDbEntity
  8
D-2
  6
Continuous
 62
     3
370
     9
100
AcDbLine
 10
521.4664478976046
 20
604.6878471175553
 30
0.0
 11
541.4206196135588
 21
621.4313669832229
 31
0.0
  0
LINE
  5
A7
330
1F
100
AcDbEntity
  8
D-2
  6
Continuous
 62
     3
370
     9
100
AcDbLine
 10
509.2464346797659
 20
604.6878471175553
 30
0.0
 11
541.4206196135588
 21
631.6851643837942
 31
0.0
  0
LINE
  5
A8
330
1F
100
AcDbEntity
  8
D-2
  6
Continuous
 62
     3
370
     9
100
AcDbLine
 10
501.4085055248603
 20
644.2612308354398
 30
0.0
 11
541.4206196135588
 21
610.6855962792441
 31
0.0
  0
LINE
  5
A9
330
1F
100
AcDbEntity
  8
D-2
  6
Continuous
 62
     3
370
     9
100
AcDbLine
 10
501.4088636167384
 20
654.515328710446
 30
0.0
 11
541.4206196135588
 21
620.9399946422975
 31
0.0
  0
LINE
  5
AA
330
1F
100
AcDbEntity
  8
D-2
  6
Continuous
 62
     3
370
     9
100
AcDbLine
 10
501.4092217086165
 20
664.7694265854517
 30
0.0
 11
541.4206196135588
 21
631.1943930053509
 31
0.0
  0
LINE
  5
AB
330
1F
100
AcDbEntity
  8
D-2
  6
Continuous
 62
     3
370
     9
100
AcDbLine
 10
501.4095798004946
 20
675.0235244604579
 30
0.0
 11
541.4206196135588
 21
641.4487913684042
 31
0.0
  0
LINE
  5
AC
330
1F
100
AcDbEntity
  8
D-2
  6
Continuous
 62
     3
370
     9
100
AcDbLine
 10
501.4238280832587
 20
849.3363403749684
 30
0.0
 11
541.4206196135588
 21
815.7735635403142
 31
0.0
  0
LINE
  5
AD
330
1F
100
AcDbEntity
  8
D-2
  6
Continuous
 62
     3
370
     9
100
AcDbLine
 10
511.3274369773139
 20
869.6888253296547
 30
0.0
 11
511.3274369773139
 21
854.687970837467
 31
0.0
  0
LINE
  5
AE
330
1F
100
AcDbEntity
  8
D-2
  6
Continuous
 62
     3
370
     9
100
AcDbLine
 10
511.3274369773139
 20
869.6888253296547
 30
0.0
 11
531.3177160443295
 21
839.704054877356
 31
0.0
  0
LINE
  5
AF
330
1F
100
AcDbEntity
  8
D-2
  6
Continuous
 62
     3
370
     9
100
AcDbLine
 10
531.3285203513376
 20
854.687970837467
 30
0.0
 11
531.3285203513376
 21
839.704054877356
 31
0.0
  0
LINE
  5
B0
330
1F
100
AcDbEntity
  8
D-A
  6
Continuous
 62
     3
370
     9
100
AcDbLine
 10
541.4230940117848
 20
604.6878471175553
 30
0.0
 11
541.4230940117848
 21
854.687970837467
 31
0.0
  0
LINE
  5
B1
330
1F
100
AcDbEntity
  8
D-2
  6
Continuous
 62
     3
370
     9
100
AcDbLine
 10
531.7068126479297
 20
854.687970837467
 30
0.0
 11
541.4206196135588
 21
846.5367586294744
 31
0.0
  0
LINE
  5
B2
330
1F
100
AcDbEntity
  8
D-2
  6
Continuous
 62
     3
370
     9
100
AcDbLine
 10
507.2664610276659
 20
854.687970837467
 30
0.0
 11
541.4206196135588
 21
826.0279619033677
 31
0.0
  0
LINE
  5
B3
330
1F
100
AcDbEntity
  8
D-2
  6
Continuous
 62
     3
370
     9
100
AcDbLine
 10
501.4202471644779
 20
854.465838236589
 30
0.0
 11
501.6849747783363
 21
854.687970837467
 31
0.0
  0
LINE
  5
B4
330
1F
100
AcDbEntity
  8
D-A
  6
Continuous
 62
     3
370
     9
100
AcDbLine
 10
501.4238280832587
 20
604.6878471175553
 30
0.0
 11
501.4238280832587
 21
854.687970837467
 31
0.0
  0
LINE
  5
B5
330
1F
100
AcDbEntity
  8
D-2
  6
Continuous
 62
     3
370
     9
100
AcDbLine
 10
531.3285203513376
 20
844.7510114349654
 30
0.0
 11
541.4206196135588
 21
836.2823602664209
 31
0.0
  0
LINE
  5
B6
330
1F
100
AcDbEntity
  8
D-2
  6
Continuous
 62
     3
370
     9
100
AcDbLine
 10
531.3285203513376
 20
848.8004396636982
 30
0.0
 11
538.3450144318512
 21
854.687970837467
 31
0.0
  0
LINE
  5
B7
330
1F
100
AcDbEntity
  8
D-2
  6
Continuous
 62
     3
370
     9
100
AcDbLine
 10
501.4191728888438
 20
823.7035446115713
 30
0.0
 11
527.4326962250675
 21
845.5314586415896
 31
0.0
  0
LINE
  5
B8
330
1F
100
AcDbEntity
  8
D-2
  6
Continuous
 62
     3
370
     9
100
AcDbLine
 10
501.4195309807218
 20
833.9576424865771
 30
0.0
 11
523.0489823337549
 21
852.1068873446558
 31
0.0
  0
LINE
  5
B9
330
1F
100
AcDbEntity
  8
D-2
  6
Continuous
 62
     3
370
     9
100
AcDbLine
 10
501.4198890725999
 20
844.211740361583
 30
0.0
 11
518.6652684424423
 21
858.6823160477223
 31
0.0
  0
LINE
  5
BA
330
1F
100
AcDbEntity
  8
D-2
  6
Continuous
 62
     3
370
     9
100
AcDbLine
 10
511.3274369773139
 20
861.534655123613
 30
0.0
 11
523.6667069112392
 21
851.1803205070186
 31
0.0
  0
LINE
  5
BB
330
1F
100
AcDbEntity
  8
D-A
  6
Continuous
 62
     3
370
     9
100
AcDbLine
 10
386.5641525263556
 20
686.9379708374674
 30
0.0
 11
416.5230940117852
 21
686.9379708374674
 31
0.0
  0
LINE
  5
BC
330
1F
100
AcDbEntity
  8
D-A
  6
Continuous
 62
     3
370
     9
100
AcDbLine
 10
456.5230940117846
 20
884.687970837467
 30
0.0
 11
456.5230940117846
 21
1019.688168789325
 31
0.0
  0
LINE
  5
BD
330
1F
100
AcDbEntity
  8
D-A
  6
Continuous
 62
     3
370
     9
100
AcDbLine
 10
416.5230940117852
 20
884.687970837467
 30
0.0
 11
416.5230940117852
 21
1019.688168789325
 31
0.0
  0
LINE
  5
BE
330
1F
100
AcDbEntity
  8
D-2
  6
Continuous
 62
     3
370
     9
100
AcDbLine
 10
416.5199465772412
 20
935.6939456020395
 30
0.0
 11
456.5198855420852
 21
902.1304690395393
 31
0.0
  0
LINE
  5
BF
330
1F
100
AcDbEntity
  8
D-2
  6
Continuous
 62
     3
370
     9
100
AcDbLine
 10
416.5199465772412
 20
945.947796443975
 30
0.0
 11
456.5198855420852
 21
912.3843198814748
 31
0.0
  0
LINE
  5
C0
330
1F
100
AcDbEntity
  8
D-2
  6
Continuous
 62
     3
370
     9
100
AcDbLine
 10
416.5199465772412
 20
910.0513120689752
 30
0.0
 11
456.5198855420852
 21
943.6151853599906
 31
0.0
  0
LINE
  5
C1
330
1F
100
AcDbEntity
  8
D-2
  6
Continuous
 62
     3
370
     9
100
AcDbLine
 10
416.5199465772412
 20
956.20164728591
 30
0.0
 11
456.5198855420852
 21
922.6381707234102
 31
0.0
  0
LINE
  5
C2
330
1F
100
AcDbEntity
  8
D-2
  6
Continuous
 62
     3
370
     9
100
AcDbLine
 10
416.5199465772412
 20
920.30516291091
 30
0.0
 11
456.5198855420852
 21
953.8690362019256
 31
0.0
  0
LINE
  5
C3
330
1F
100
AcDbEntity
  8
D-2
  6
Continuous
 62
     3
370
     9
100
AcDbLine
 10
416.5199465772412
 20
966.4554981278454
 30
0.0
 11
456.5198855420852
 21
932.8920215653457
 31
0.0
  0
LINE
  5
C4
330
1F
100
AcDbEntity
  8
D-2
  6
Continuous
 62
     3
370
     9
100
AcDbLine
 10
416.5199465772412
 20
930.5590137528454
 30
0.0
 11
456.5198855420852
 21
964.122887043861
 31
0.0
  0
LINE
  5
C5
330
1F
100
AcDbEntity
  8
D-2
  6
Continuous
 62
     3
370
     9
100
AcDbLine
 10
416.5199465772412
 20
976.7093489697809
 30
0.0
 11
456.5198855420852
 21
943.1458724072806
 31
0.0
  0
LINE
  5
C6
330
1F
100
AcDbEntity
  8
D-2
  6
Continuous
 62
     3
370
     9
100
AcDbLine
 10
416.5199465772412
 20
940.8128645947809
 30
0.0
 11
456.5198855420852
 21
974.3767378857965
 31
0.0
  0
LINE
  5
C7
330
1F
100
AcDbEntity
  8
D-2
  6
Continuous
 62
     3
370
     9
100
AcDbLine
 10
416.5199465772412
 20
986.9631998117163
 30
0.0
 11
456.5198855420852
 21
953.3997232492161
 31
0.0
  0
LINE
  5
C8
330
1F
100
AcDbEntity
  8
D-2
  6
Continuous
 62
     3
370
     9
100
AcDbLine
 10
416.5199465772412
 20
951.0667154367163
 30
0.0
 11
456.5198855420852
 21
984.630588727732
 31
0.0
  0
LINE
  5
C9
330
1F
100
AcDbEntity
  8
D-2
  6
Continuous
 62
     3
370
     9
100
AcDbLine
 10
416.5199465772412
 20
997.2170506536511
 30
0.0
 11
456.5198855420852
 21
963.6535740911515
 31
0.0
  0
LINE
  5
CA
330
1F
100
AcDbEntity
  8
D-2
  6
Continuous
 62
     3
370
     9
100
AcDbLine
 10
416.5199465772412
 20
961.3205662786513
 30
0.0
 11
456.5198855420852
 21
994.8844395696667
 31
0.0
  0
LINE
  5
CB
330
1F
100
AcDbEntity
  8
D-2
  6
Continuous
 62
     3
370
     9
100
AcDbLine
 10
416.5199465772412
 20
1007.470901495587
 30
0.0
 11
456.5198855420852
 21
973.907424933087
 31
0.0
  0
LINE
  5
CC
330
1F
100
AcDbEntity
  8
D-2
  6
Continuous
 62
     3
370
     9
100
AcDbLine
 10
416.5199465772412
 20
971.5744171205868
 30
0.0
 11
456.5198855420852
 21
1005.138290411602
 31
0.0
  0
LINE
  5
CD
330
1F
100
AcDbEntity
  8
D-2
  6
Continuous
 62
     3
370
     9
100
AcDbLine
 10
416.5199465772412
 20
1017.724752337522
 30
0.0
 11
456.5198855420852
 21
984.1612757750217
 31
0.0
  0
LINE
  5
CE
330
1F
100
AcDbEntity
  8
D-2
  6
Continuous
 62
     3
370
     9
100
AcDbLine
 10
416.5199465772412
 20
981.8282679625222
 30
0.0
 11
456.5198855420852
 21
1015.392141253538
 31
0.0
  0
LINE
  5
CF
330
1F
100
AcDbEntity
  8
D-2
  6
Continuous
 62
     3
370
     9
100
AcDbLine
 10
450.8406964887218
 20
1019.688168789325
 30
0.0
 11
456.5198855420852
 21
1014.922828300828
 31
0.0
  0
LINE
  5
D0
330
1F
100
AcDbEntity
  8
D-2
  6
Continuous
 62
     3
370
     9
100
AcDbLine
 10
416.5199465772412
 20
992.0821188044577
 30
0.0
 11
449.4196153634039
 21
1019.688168789325
 31
0.0
  0
LINE
  5
D1
330
1F
100
AcDbEntity
  8
D-2
  6
Continuous
 62
     3
370
     9
100
AcDbLine
 10
438.6204663505158
 20
1019.688168789325
 30
0.0
 11
456.5198855420852
 21
1004.668977458893
 31
0.0
  0
LINE
  5
D2
330
1F
100
AcDbEntity
  8
D-2
  6
Continuous
 62
     3
370
     9
100
AcDbLine
 10
416.5199465772412
 20
1002.335969646392
 30
0.0
 11
437.1995296696048
 21
1019.688168789325
 31
0.0
  0
LINE
  5
D3
330
1F
100
AcDbEntity
  8
D-2
  6
Continuous
 62
     3
370
     9
100
AcDbLine
 10
426.4002362123103
 20
1019.688168789325
 30
0.0
 11
456.5198855420852
 21
994.4151266169572
 31
0.0
  0
LINE
  5
D4
330
1F
100
AcDbEntity
  8
D-2
  6
Continuous
 62
     3
370
     9
100
AcDbLine
 10
416.5199465772412
 20
1012.589820488328
 30
0.0
 11
424.9794439758052
 21
1019.688168789325
 31
0.0
  0
LINE
  5
D5
330
1F
100
AcDbEntity
  8
D-2
  6
Continuous
 62
     3
370
     9
100
AcDbLine
 10
422.9532959233984
 20
884.687970837467
 30
0.0
 11
456.5198855420852
 21
912.8536328341843
 31
0.0
  0
LINE
  5
D6
330
1F
100
AcDbEntity
  8
D-2
  6
Continuous
 62
     3
370
     9
100
AcDbLine
 10
416.5199465772412
 20
915.1862439181687
 30
0.0
 11
452.866868490695
 21
884.687970837467
 31
0.0
  0
LINE
  5
D7
330
1F
100
AcDbEntity
  8
D-2
  6
Continuous
 62
     3
370
     9
100
AcDbLine
 10
416.5199465772412
 20
904.9323930762339
 30
0.0
 11
440.6466383524893
 21
884.687970837467
 31
0.0
  0
LINE
  5
D8
330
1F
100
AcDbEntity
  8
D-2
  6
Continuous
 62
     3
370
     9
100
AcDbLine
 10
416.5230940117852
 20
899.8001022334254
 30
0.0
 11
456.5198855420852
 21
933.3613345180552
 31
0.0
  0
LINE
  5
D9
330
1F
100
AcDbEntity
  8
D-2
  6
Continuous
 62
     3
370
     9
100
AcDbLine
 10
416.5230940117852
 20
889.5462513914899
 30
0.0
 11
456.5198855420852
 21
923.1074836761197
 31
0.0
  0
LINE
  5
DA
330
1F
100
AcDbEntity
  8
D-2
  6
Continuous
 62
     3
370
     9
100
AcDbLine
 10
416.5199465772412
 20
925.4400947601041
 30
0.0
 11
456.5198855420852
 21
891.8766181976048
 31
0.0
  0
LINE
  5
DB
330
1F
100
AcDbEntity
  8
D-2
  6
Continuous
 62
     3
370
     9
100
AcDbLine
 10
435.1733816171973
 20
884.687970837467
 30
0.0
 11
456.5198855420852
 21
902.5997819922495
 31
0.0
  0
LINE
  5
DC
330
1F
100
AcDbEntity
  8
D-2
  6
Continuous
 62
     3
370
     9
100
AcDbLine
 10
447.393467310996
 20
884.687970837467
 30
0.0
 11
456.5198855420849
 21
892.3459311503143
 31
0.0
  0
LINE
  5
DD
330
1F
100
AcDbEntity
  8
D-2
  6
Continuous
 62
     3
370
     9
100
AcDbLine
 10
416.5199465772409
 20
894.6785422342987
 30
0.0
 11
428.4264082142834
 21
884.687970837467
 31
0.0
  0
LINE
  5
DE
330
1F
100
AcDbEntity
  8
D-A
  6
Continuous
 62
     3
370
     9
100
AcDbLine
 10
386.5641525263556
 20
722.4379708374693
 30
0.0
 11
416.5230940117852
 21
722.4379708374693
 31
0.0
  0
LINE
  5
DF
330
1F
100
AcDbEntity
  8
D-A
  6
Continuous
 62
     3
370
     9
100
AcDbLine
 10
386.5641525263556
 20
704.6879708374667
 30
0.0
 11
416.5230940117852
 21
704.6879708374667
 31
0.0
  0
LINE
  5
E0
330
1F
100
AcDbEntity
  8
D-2
  6
Continuous
 62
     3
370
     9
100
AcDbLine
 10
416.5074133615088
 20
634.0071329604338
 30
0.0
 11
451.4472328362814
 21
604.6878471175553
 31
0.0
  0
LINE
  5
E1
330
1F
100
AcDbEntity
  8
D-2
  6
Continuous
 62
     3
370
     9
100
AcDbLine
 10
416.5070552696307
 20
623.7530350854275
 30
0.0
 11
439.2270570261491
 21
604.6878471175553
 31
0.0
  0
LINE
  5
E2
330
1F
100
AcDbEntity
  8
D-2
  6
Continuous
 62
     3
370
     9
100
AcDbLine
 10
416.5066971777526
 20
613.4989372104219
 30
0.0
 11
427.0068812160173
 21
604.6878471175553
 31
0.0
  0
LINE
  5
E3
330
1F
100
AcDbEntity
  8
D-2
  6
Continuous
 62
     3
370
     9
100
AcDbLine
 10
448.7857270439691
 20
604.6878471175553
 30
0.0
 11
456.5198855420852
 21
611.1775695826522
 31
0.0
  0
LINE
  5
E4
330
1F
100
AcDbEntity
  8
D-2
  6
Continuous
 62
     3
370
     9
100
AcDbLine
 10
416.5180807254922
 20
813.449446736565
 30
0.0
 11
456.5198855420852
 21
847.0149097957844
 31
0.0
  0
LINE
  5
E5
330
1F
100
AcDbEntity
  8
D-2
  6
Continuous
 62
     3
370
     9
100
AcDbLine
 10
416.5145751990702
 20
839.0890904605553
 30
0.0
 11
456.5198855420852
 21
805.5191651772606
 31
0.0
  0
LINE
  5
E6
330
1F
100
AcDbEntity
  8
D-2
  6
Continuous
 62
     3
370
     9
100
AcDbLine
 10
416.5177226336141
 20
803.1953488615588
 30
0.0
 11
456.5198855420852
 21
836.7611123952136
 31
0.0
  0
LINE
  5
E7
330
1F
100
AcDbEntity
  8
D-2
  6
Continuous
 62
     3
370
     9
100
AcDbLine
 10
416.5142171071921
 20
828.8349925855493
 30
0.0
 11
456.5198855420852
 21
795.264766814207
 31
0.0
  0
LINE
  5
E8
330
1F
100
AcDbEntity
  8
D-2
  6
Continuous
 62
     3
370
     9
100
AcDbLine
 10
416.5173645417361
 20
792.9412509865529
 30
0.0
 11
456.5198855420852
 21
826.5073149946429
 31
0.0
  0
LINE
  5
E9
330
1F
100
AcDbEntity
  8
D-2
  6
Continuous
 62
     3
370
     9
100
AcDbLine
 10
416.513859015314
 20
818.5808947105434
 30
0.0
 11
456.5198855420852
 21
785.0103684511532
 31
0.0
  0
LINE
  5
EA
330
1F
100
AcDbEntity
  8
D-2
  6
Continuous
 62
     3
370
     9
100
AcDbLine
 10
416.517006449858
 20
782.6871531115466
 30
0.0
 11
456.5198855420852
 21
816.2535175940716
 31
0.0
  0
LINE
  5
EB
330
1F
100
AcDbEntity
  8
D-2
  6
Continuous
 62
     3
370
     9
100
AcDbLine
 10
416.513500923436
 20
808.3267968355372
 30
0.0
 11
456.5198855420852
 21
774.7559700880998
 31
0.0
  0
LINE
  5
EC
330
1F
100
AcDbEntity
  8
D-2
  6
Continuous
 62
     3
370
     9
100
AcDbLine
 10
416.5166483579799
 20
772.4330552365404
 30
0.0
 11
456.5198855420852
 21
805.9997201935007
 31
0.0
  0
LINE
  5
ED
330
1F
100
AcDbEntity
  8
D-2
  6
Continuous
 62
     3
370
     9
100
AcDbLine
 10
416.5131428315579
 20
798.0726989605309
 30
0.0
 11
456.5198855420852
 21
764.5015717250465
 31
0.0
  0
LINE
  5
EE
330
1F
100
AcDbEntity
  8
D-2
  6
Continuous
 62
     3
370
     9
100
AcDbLine
 10
416.5162902661019
 20
762.1789573615342
 30
0.0
 11
456.5198855420852
 21
795.7459227929297
 31
0.0
  0
LINE
  5
EF
330
1F
100
AcDbEntity
  8
D-2
  6
Continuous
 62
     3
370
     9
100
AcDbLine
 10
416.5127847396798
 20
787.8186010855251
 30
0.0
 11
456.5198855420852
 21
754.2471733619927
 31
0.0
  0
LINE
  5
F0
330
1F
100
AcDbEntity
  8
D-2
  6
Continuous
 62
     3
370
     9
100
AcDbLine
 10
416.5159321742238
 20
751.9248594865282
 30
0.0
 11
456.5198855420852
 21
785.4921253923584
 31
0.0
  0
LINE
  5
F1
330
1F
100
AcDbEntity
  8
D-2
  6
Continuous
 62
     3
370
     9
100
AcDbLine
 10
416.5124266478018
 20
777.5645032105189
 30
0.0
 11
456.5198855420852
 21
743.9927749989391
 31
0.0
  0
LINE
  5
F2
330
1F
100
AcDbEntity
  8
D-2
  6
Continuous
 62
     3
370
     9
100
AcDbLine
 10
416.5155740823457
 20
741.6707616115224
 30
0.0
 11
456.5198855420852
 21
775.2383279917876
 31
0.0
  0
LINE
  5
F3
330
1F
100
AcDbEntity
  8
D-2
  6
Continuous
 62
     3
370
     9
100
AcDbLine
 10
416.5120685559237
 20
767.3104053355127
 30
0.0
 11
456.5198855420852
 21
733.7383766358857
 31
0.0
  0
LINE
  5
F4
330
1F
100
AcDbEntity
  8
D-2
  6
Continuous
 62
     3
370
     9
100
AcDbLine
 10
416.5152159904677
 20
731.4166637365162
 30
0.0
 11
456.5198855420852
 21
764.9845305912165
 31
0.0
  0
LINE
  5
F5
330
1F
100
AcDbEntity
  8
D-2
  6
Continuous
 62
     3
370
     9
100
AcDbLine
 10
416.5117104640456
 20
757.0563074605064
 30
0.0
 11
456.5198855420852
 21
723.4839782728324
 31
0.0
  0
LINE
  5
F6
330
1F
100
AcDbEntity
  8
D-2
  6
Continuous
 62
     3
370
     9
100
AcDbLine
 10
416.5148578985896
 20
721.16256586151
 30
0.0
 11
456.5198855420852
 21
754.7307331906455
 31
0.0
  0
LINE
  5
F7
330
1F
100
AcDbEntity
  8
D-2
  6
Continuous
 62
     3
370
     9
100
AcDbLine
 10
416.5113523721676
 20
746.8022095855006
 30
0.0
 11
456.5198855420852
 21
713.229579909779
 31
0.0
  0
LINE
  5
F8
330
1F
100
AcDbEntity
  8
D-2
  6
Continuous
 62
     3
370
     9
100
AcDbLine
 10
416.5144998067115
 20
710.9084679865038
 30
0.0
 11
456.5198855420852
 21
744.4769357900748
 31
0.0
  0
LINE
  5
F9
330
1F
100
AcDbEntity
  8
D-2
  6
Continuous
 62
     3
370
     9
100
AcDbLine
 10
416.5109942802895
 20
736.5481117104946
 30
0.0
 11
456.5198855420852
 21
702.9751815467256
 31
0.0
  0
LINE
  5
FA
330
1F
100
AcDbEntity
  8
D-2
  6
Continuous
 62
     3
370
     9
100
AcDbLine
 10
416.5141417148334
 20
700.6543701114981
 30
0.0
 11
456.5198855420852
 21
734.2231383895034
 31
0.0
  0
LINE
  5
FB
330
1F
100
AcDbEntity
  8
D-2
  6
Continuous
 62
     3
370
     9
100
AcDbLine
 10
416.5106361884114
 20
726.2940138354884
 30
0.0
 11
456.5198855420852
 21
692.7207831836716
 31
0.0
  0
LINE
  5
FC
330
1F
100
AcDbEntity
  8
D-2
  6
Continuous
 62
     3
370
     9
100
AcDbLine
 10
416.5137836229554
 20
690.4002722364919
 30
0.0
 11
456.5198855420852
 21
723.9693409889327
 31
0.0
  0
LINE
  5
FD
330
1F
100
AcDbEntity
  8
D-2
  6
Continuous
 62
     3
370
     9
100
AcDbLine
 10
416.5102780965333
 20
716.0399159604822
 30
0.0
 11
456.5198855420852
 21
682.4663848206183
 31
0.0
  0
LINE
  5
FE
330
1F
100
AcDbEntity
  8
D-2
  6
Continuous
 62
     3
370
     9
100
AcDbLine
 10
416.5134255310773
 20
680.1461743614857
 30
0.0
 11
456.5198855420852
 21
713.7155435883614
 31
0.0
  0
LINE
  5
FF
330
1F
100
AcDbEntity
  8
D-2
  6
Continuous
 62
     3
370
     9
100
AcDbLine
 10
416.5099200046553
 20
705.785818085476
 30
0.0
 11
456.5198855420852
 21
672.2119864575649
 31
0.0
  0
LINE
  5
100
330
1F
100
AcDbEntity
  8
D-2
  6
Continuous
 62
     3
370
     9
100
AcDbLine
 10
416.5130674391992
 20
669.8920764864795
 30
0.0
 11
456.5198855420852
 21
703.4617461877906
 31
0.0
  0
LINE
  5
101
330
1F
100
AcDbEntity
  8
D-2
  6
Continuous
 62
     3
370
     9
100
AcDbLine
 10
416.5095619127772
 20
695.5317202104703
 30
0.0
 11
456.5198855420852
 21
661.9575880945115
 31
0.0
  0
LINE
  5
102
330
1F
100
AcDbEntity
  8
D-2
  6
Continuous
 62
     3
370
     9
100
AcDbLine
 10
416.5127093473212
 20
659.6379786114738
 30
0.0
 11
456.5198855420852
 21
693.2079487872198
 31
0.0
  0
LINE
  5
103
330
1F
100
AcDbEntity
  8
D-2
  6
Continuous
 62
     3
370
     9
100
AcDbLine
 10
416.5092038208991
 20
685.2776223354641
 30
0.0
 11
456.5198855420852
 21
651.7031897314581
 31
0.0
  0
LINE
  5
104
330
1F
100
AcDbEntity
  8
D-2
  6
Continuous
 62
     3
370
     9
100
AcDbLine
 10
416.5123512554431
 20
649.3838807364676
 30
0.0
 11
456.5198855420852
 21
682.9541513866485
 31
0.0
  0
LINE
  5
105
330
1F
100
AcDbEntity
  8
D-2
  6
Continuous
 62
     3
370
     9
100
AcDbLine
 10
416.511993163565
 20
639.1297828614615
 30
0.0
 11
456.5198855420852
 21
672.7003539860777
 31
0.0
  0
LINE
  5
106
330
1F
100
AcDbEntity
  8
D-2
  6
Continuous
 62
     3
370
     9
100
AcDbLine
 10
416.511635071687
 20
628.8756849864553
 30
0.0
 11
456.5198855420852
 21
662.446556585507
 31
0.0
  0
LINE
  5
107
330
1F
100
AcDbEntity
  8
D-2
  6
Continuous
 62
     3
370
     9
100
AcDbLine
 10
416.5112769798089
 20
618.6215871114497
 30
0.0
 11
456.5198855420852
 21
652.1927591849357
 31
0.0
  0
LINE
  5
108
330
1F
100
AcDbEntity
  8
D-2
  6
Continuous
 62
     3
370
     9
100
AcDbLine
 10
416.5109188879308
 20
608.3674892364435
 30
0.0
 11
456.5198855420852
 21
641.9389617843649
 31
0.0
  0
LINE
  5
109
330
1F
100
AcDbEntity
  8
D-2
  6
Continuous
 62
     3
370
     9
100
AcDbLine
 10
436.565713826131
 20
604.6878471175553
 30
0.0
 11
456.5198855420852
 21
621.4313669832229
 31
0.0
  0
LINE
  5
10A
330
1F
100
AcDbEntity
  8
D-2
  6
Continuous
 62
     3
370
     9
100
AcDbLine
 10
424.3457006082924
 20
604.6878471175553
 30
0.0
 11
456.5198855420852
 21
631.6851643837942
 31
0.0
  0
LINE
  5
10B
330
1F
100
AcDbEntity
  8
D-2
  6
Continuous
 62
     3
370
     9
100
AcDbLine
 10
416.5077714533869
 20
644.2612308354398
 30
0.0
 11
456.5198855420852
 21
610.6855962792441
 31
0.0
  0
LINE
  5
10C
330
1F
100
AcDbEntity
  8
D-2
  6
Continuous
 62
     3
370
     9
100
AcDbLine
 10
416.5081295452649
 20
654.515328710446
 30
0.0
 11
456.5198855420852
 21
620.9399946422975
 31
0.0
  0
LINE
  5
10D
330
1F
100
AcDbEntity
  8
D-2
  6
Continuous
 62
     3
370
     9
100
AcDbLine
 10
416.508487637143
 20
664.7694265854517
 30
0.0
 11
456.5198855420852
 21
631.1943930053509
 31
0.0
  0
LINE
  5
10E
330
1F
100
AcDbEntity
  8
D-2
  6
Continuous
 62
     3
370
     9
100
AcDbLine
 10
416.5088457290211
 20
675.0235244604579
 30
0.0
 11
456.5198855420852
 21
641.4487913684042
 31
0.0
  0
LINE
  5
10F
330
1F
100
AcDbEntity
  8
D-2
  6
Continuous
 62
     3
370
     9
100
AcDbLine
 10
416.5230940117852
 20
849.3363403749684
 30
0.0
 11
456.5198855420852
 21
815.7735635403142
 31
0.0
  0
LINE
  5
110
330
1F
100
AcDbEntity
  8
D-A
  6
Continuous
 62
     3
370
     9
100
AcDbLine
 10
456.5230940117846
 20
604.6878471175553
 30
0.0
 11
456.5230940117846
 21
854.687970837467
 31
0.0
  0
LINE
  5
111
330
1F
100
AcDbEntity
  8
D-2
  6
Continuous
 62
     3
370
     9
100
AcDbLine
 10
416.5184388173703
 20
823.7035446115713
 30
0.0
 11
453.4442803603777
 21
854.687970837467
 31
0.0
  0
LINE
  5
112
330
1F
100
AcDbEntity
  8
D-2
  6
Continuous
 62
     3
370
     9
100
AcDbLine
 10
446.8060785764562
 20
854.687970837467
 30
0.0
 11
456.5198855420852
 21
846.5367586294744
 31
0.0
  0
LINE
  5
113
330
1F
100
AcDbEntity
  8
D-2
  6
Continuous
 62
     3
370
     9
100
AcDbLine
 10
416.5187969092484
 20
833.9576424865771
 30
0.0
 11
441.2242671425394
 21
854.687970837467
 31
0.0
  0
LINE
  5
114
330
1F
100
AcDbEntity
  8
D-2
  6
Continuous
 62
     3
370
     9
100
AcDbLine
 10
434.5859027663243
 20
854.687970837467
 30
0.0
 11
456.5198855420852
 21
836.2823602664209
 31
0.0
  0
LINE
  5
115
330
1F
100
AcDbEntity
  8
D-2
  6
Continuous
 62
     3
370
     9
100
AcDbLine
 10
416.5191550011264
 20
844.211740361583
 30
0.0
 11
429.0042539247011
 21
854.687970837467
 31
0.0
  0
LINE
  5
116
330
1F
100
AcDbEntity
  8
D-2
  6
Continuous
 62
     3
370
     9
100
AcDbLine
 10
422.3657269561924
 20
854.687970837467
 30
0.0
 11
456.5198855420852
 21
826.0279619033677
 31
0.0
  0
LINE
  5
117
330
1F
100
AcDbEntity
  8
D-2
  6
Continuous
 62
     3
370
     9
100
AcDbLine
 10
416.5195130930044
 20
854.465838236589
 30
0.0
 11
416.7842407068628
 21
854.687970837467
 31
0.0
  0
LINE
  5
118
330
1F
100
AcDbEntity
  8
D-A
  6
Continuous
 62
     3
370
     9
100
AcDbLine
 10
416.5230940117852
 20
604.6878471175553
 30
0.0
 11
416.5230940117852
 21
854.687970837467
 31
0.0
  0
LINE
  5
119
330
1F
100
AcDbEntity
  8
D-2
  6
Continuous
 62
     3
370
     9
100
AcDbLine
 10
511.3274369773139
 20
884.687970837467
 30
0.0
 11
386.5641525263556
 21
884.687970837467
 31
0.0
  0
LINE
  5
11A
330
1F
100
AcDbEntity
  8
D-A
  6
Continuous
 62
     3
370
     9
100
AcDbLine
 10
456.5230940117846
 20
686.9379708374674
 30
0.0
 11
501.4238280832587
 21
686.9379708374674
 31
0.0
  0
LINE
  5
11B
330
1F
100
AcDbEntity
  8
D-A
  6
Continuous
 62
     3
370
     9
100
AcDbLine
 10
456.5230940117846
 20
722.4379708374693
 30
0.0
 11
501.4238280832587
 21
722.4379708374693
 31
0.0
  0
LINE
  5
11C
330
1F
100
AcDbEntity
  8
D-A
  6
Continuous
 62
     3
370
     9
100
AcDbLine
 10
456.5230940117846
 20
704.6879708374667
 30
0.0
 11
501.4238280832587
 21
704.6879708374667
 31
0.0
  0
LINE
  5
11D
330
1F
100
AcDbEntity
  8
D-2
  6
Continuous
 62
     3
370
     9
100
AcDbLine
 10
511.3274369773139
 20
854.687970837467
 30
0.0
 11
386.5641525263556
 21
854.687970837467
 31
0.0
  0
LINE
  5
11E
330
1F
100
AcDbEntity
  8
D-2
  6
Continuous
 62
     3
370
     9
100
AcDbLine
 10
586.3231550469409
 20
935.6939456020395
 30
0.0
 11
626.3230940117849
 21
902.1304690395393
 31
0.0
  0
LINE
  5
11F
330
1F
100
AcDbEntity
  8
D-2
  6
Continuous
 62
     3
370
     9
100
AcDbLine
 10
586.3231550469409
 20
945.947796443975
 30
0.0
 11
626.3230940117849
 21
912.3843198814748
 31
0.0
  0
LINE
  5
120
330
1F
100
AcDbEntity
  8
D-2
  6
Continuous
 62
     3
370
     9
100
AcDbLine
 10
586.3231550469409
 20
910.0513120689752
 30
0.0
 11
626.3230940117849
 21
943.6151853599906
 31
0.0
  0
LINE
  5
121
330
1F
100
AcDbEntity
  8
D-2
  6
Continuous
 62
     3
370
     9
100
AcDbLine
 10
586.3231550469409
 20
956.20164728591
 30
0.0
 11
626.3230940117849
 21
922.6381707234102
 31
0.0
  0
LINE
  5
122
330
1F
100
AcDbEntity
  8
D-2
  6
Continuous
 62
     3
370
     9
100
AcDbLine
 10
586.3231550469409
 20
920.30516291091
 30
0.0
 11
626.3230940117849
 21
953.8690362019256
 31
0.0
  0
LINE
  5
123
330
1F
100
AcDbEntity
  8
D-2
  6
Continuous
 62
     3
370
     9
100
AcDbLine
 10
586.3231550469409
 20
966.4554981278454
 30
0.0
 11
626.3230940117849
 21
932.8920215653457
 31
0.0
  0
LINE
  5
124
330
1F
100
AcDbEntity
  8
D-2
  6
Continuous
 62
     3
370
     9
100
AcDbLine
 10
586.3231550469409
 20
930.5590137528454
 30
0.0
 11
626.3230940117849
 21
964.122887043861
 31
0.0
  0
LINE
  5
125
330
1F
100
AcDbEntity
  8
D-2
  6
Continuous
 62
     3
370
     9
100
AcDbLine
 10
586.3231550469409
 20
976.7093489697809
 30
0.0
 11
626.3230940117849
 21
943.1458724072806
 31
0.0
  0
LINE
  5
126
330
1F
100
AcDbEntity
  8
D-2
  6
Continuous
 62
     3
370
     9
100
AcDbLine
 10
586.3231550469409
 20
940.8128645947809
 30
0.0
 11
626.3230940117849
 21
974.3767378857965
 31
0.0
  0
LINE
  5
127
330
1F
100
AcDbEntity
  8
D-2
  6
Continuous
 62
     3
370
     9
100
AcDbLine
 10
586.3231550469409
 20
986.9631998117163
 30
0.0
 11
626.3230940117849
 21
953.3997232492161
 31
0.0
  0
LINE
  5
128
330
1F
100
AcDbEntity
  8
D-2
  6
Continuous
 62
     3
370
     9
100
AcDbLine
 10
586.3231550469409
 20
951.0667154367163
 30
0.0
 11
626.3230940117849
 21
984.630588727732
 31
0.0
  0
LINE
  5
129
330
1F
100
AcDbEntity
  8
D-2
  6
Continuous
 62
     3
370
     9
100
AcDbLine
 10
586.3231550469409
 20
997.2170506536511
 30
0.0
 11
626.3230940117849
 21
963.6535740911515
 31
0.0
  0
LINE
  5
12A
330
1F
100
AcDbEntity
  8
D-2
  6
Continuous
 62
     3
370
     9
100
AcDbLine
 10
586.3231550469409
 20
961.3205662786513
 30
0.0
 11
626.3230940117849
 21
994.8844395696667
 31
0.0
  0
LINE
  5
12B
330
1F
100
AcDbEntity
  8
D-2
  6
Continuous
 62
     3
370
     9
100
AcDbLine
 10
586.3231550469409
 20
1007.470901495587
 30
0.0
 11
626.3230940117849
 21
973.907424933087
 31
0.0
  0
LINE
  5
12C
330
1F
100
AcDbEntity
  8
D-2
  6
Continuous
 62
     3
370
     9
100
AcDbLine
 10
586.3231550469409
 20
971.5744171205868
 30
0.0
 11
626.3230940117849
 21
1005.138290411602
 31
0.0
  0
LINE
  5
12D
330
1F
100
AcDbEntity
  8
D-2
  6
Continuous
 62
     3
370
     9
100
AcDbLine
 10
586.3231550469409
 20
1017.724752337522
 30
0.0
 11
626.3230940117849
 21
984.1612757750217
 31
0.0
  0
LINE
  5
12E
330
1F
100
AcDbEntity
  8
D-2
  6
Continuous
 62
     3
370
     9
100
AcDbLine
 10
586.3231550469409
 20
981.8282679625222
 30
0.0
 11
626.3230940117849
 21
1015.392141253538
 31
0.0
  0
LINE
  5
12F
330
1F
100
AcDbEntity
  8
D-2
  6
Continuous
 62
     3
370
     9
100
AcDbLine
 10
620.6439049584214
 20
1019.688168789325
 30
0.0
 11
626.3230940117849
 21
1014.922828300828
 31
0.0
  0
LINE
  5
130
330
1F
100
AcDbEntity
  8
D-2
  6
Continuous
 62
     3
370
     9
100
AcDbLine
 10
586.3231550469409
 20
992.0821188044577
 30
0.0
 11
619.2228238331036
 21
1019.688168789325
 31
0.0
  0
LINE
  5
131
330
1F
100
AcDbEntity
  8
D-2
  6
Continuous
 62
     3
370
     9
100
AcDbLine
 10
608.4236748202154
 20
1019.688168789325
 30
0.0
 11
626.3230940117849
 21
1004.668977458893
 31
0.0
  0
LINE
  5
132
330
1F
100
AcDbEntity
  8
D-2
  6
Continuous
 62
     3
370
     9
100
AcDbLine
 10
586.3231550469409
 20
1002.335969646392
 30
0.0
 11
607.0027381393045
 21
1019.688168789325
 31
0.0
  0
LINE
  5
133
330
1F
100
AcDbEntity
  8
D-2
  6
Continuous
 62
     3
370
     9
100
AcDbLine
 10
596.20344468201
 20
1019.688168789325
 30
0.0
 11
626.3230940117849
 21
994.4151266169572
 31
0.0
  0
LINE
  5
134
330
1F
100
AcDbEntity
  8
D-2
  6
Continuous
 62
     3
370
     9
100
AcDbLine
 10
586.3231550469409
 20
1012.589820488328
 30
0.0
 11
594.7826524455048
 21
1019.688168789325
 31
0.0
  0
LINE
  5
135
330
1F
100
AcDbEntity
  8
D-2
  6
Continuous
 62
     3
370
     9
100
AcDbLine
 10
656.3239353071805
 20
884.687970837467
 30
0.0
 11
531.3285203513376
 21
884.687970837467
 31
0.0
  0
LINE
  5
136
330
1F
100
AcDbEntity
  8
D-A
  6
Continuous
 62
     3
370
     9
100
AcDbLine
 10
626.3230940117849
 20
884.687970837467
 30
0.0
 11
626.3230940117849
 21
1019.688168789325
 31
0.0
  0
LINE
  5
137
330
1F
100
AcDbEntity
  8
D-A
  6
Continuous
 62
     3
370
     9
100
AcDbLine
 10
586.3263024814848
 20
884.687970837467
 30
0.0
 11
586.3263024814848
 21
1019.688168789325
 31
0.0
  0
LINE
  5
138
330
1F
100
AcDbEntity
  8
D-2
  6
Continuous
 62
     3
370
     9
100
AcDbLine
 10
592.7565043930981
 20
884.687970837467
 30
0.0
 11
626.3230940117849
 21
912.8536328341843
 31
0.0
  0
LINE
  5
139
330
1F
100
AcDbEntity
  8
D-2
  6
Continuous
 62
     3
370
     9
100
AcDbLine
 10
586.3231550469409
 20
915.1862439181687
 30
0.0
 11
622.6700769603947
 21
884.687970837467
 31
0.0
  0
LINE
  5
13A
330
1F
100
AcDbEntity
  8
D-2
  6
Continuous
 62
     3
370
     9
100
AcDbLine
 10
586.3231550469409
 20
904.9323930762339
 30
0.0
 11
610.4498468221889
 21
884.687970837467
 31
0.0
  0
LINE
  5
13B
330
1F
100
AcDbEntity
  8
D-2
  6
Continuous
 62
     3
370
     9
100
AcDbLine
 10
586.3263024814848
 20
899.8001022334254
 30
0.0
 11
626.3230940117849
 21
933.3613345180552
 31
0.0
  0
LINE
  5
13C
330
1F
100
AcDbEntity
  8
D-2
  6
Continuous
 62
     3
370
     9
100
AcDbLine
 10
586.3263024814848
 20
889.5462513914899
 30
0.0
 11
626.3230940117849
 21
923.1074836761197
 31
0.0
  0
LINE
  5
13D
330
1F
100
AcDbEntity
  8
D-2
  6
Continuous
 62
     3
370
     9
100
AcDbLine
 10
586.3231550469409
 20
925.4400947601041
 30
0.0
 11
626.3230940117849
 21
891.8766181976048
 31
0.0
  0
LINE
  5
13E
330
1F
100
AcDbEntity
  8
D-2
  6
Continuous
 62
     3
370
     9
100
AcDbLine
 10
604.9765900868969
 20
884.687970837467
 30
0.0
 11
626.3230940117849
 21
902.5997819922495
 31
0.0
  0
LINE
  5
13F
330
1F
100
AcDbEntity
  8
D-2
  6
Continuous
 62
     3
370
     9
100
AcDbLine
 10
617.1966757806955
 20
884.687970837467
 30
0.0
 11
626.3230940117845
 21
892.3459311503143
 31
0.0
  0
LINE
  5
140
330
1F
100
AcDbEntity
  8
D-2
  6
Continuous
 62
     3
370
     9
100
AcDbLine
 10
586.3231550469405
 20
894.6785422342987
 30
0.0
 11
598.2296166839828
 21
884.687970837467
 31
0.0
  0
LINE
  5
141
330
1F
100
AcDbEntity
  8
D-5
  6
Continuous
 62
     7
370
     9
100
AcDbLine
 10
626.3230940117849
 20
914.687970837467
 30
0.0
 11
646.1569275190658
 21
929.907006562685
 31
0.0
  0
LINE
  5
142
330
1F
100
AcDbEntity
  8
D-5
  6
Continuous
 62
     7
370
     9
100
AcDbLine
 10
626.3230940117849
 20
914.687970837467
 30
0.0
 11
641.5421297370028
 21
934.5218043447474
 31
0.0
  0
LINE
  5
143
330
1F
100
AcDbEntity
  8
D-5
  6
Continuous
 62
     7
370
     9
100
AcDbLine
 10
626.3230940117849
 20
914.687970837467
 30
0.0
 11
681.4953165045227
 21
969.8601933302047
 31
0.0
  0
LINE
  5
144
330
1F
100
AcDbEntity
  8
D-5
  6
Continuous
 62
     7
370
     9
100
AcDbLine
 10
681.4953165045227
 20
969.8601933302047
 30
0.0
 11
920.4125448208976
 21
969.8601933302047
 31
0.0
  0
TEXT
  5
145
330
1F
100
AcDbEntity
  8
D-5
  6
Continuous
 62
     7
370
     9
100
AcDbText
 10
681.4953165045227
 20
979.0901933302047
 30
0.0
 40
22.86
  1
ローレット模様
 41
1.142857142857143
  7
ＭＳ ゴシック
100
AcDbText
  0
LINE
  5
146
330
1F
100
AcDbEntity
  8
D-A
  6
Continuous
 62
     3
370
     9
100
AcDbLine
 10
626.3206196135577
 20
686.9379708374674
 30
0.0
 11
656.3239353071805
 21
686.9379708374674
 31
0.0
  0
LINE
  5
147
330
1F
100
AcDbEntity
  8
D-A
  6
Continuous
 62
     3
370
     9
100
AcDbLine
 10
541.4206196135576
 20
686.9379708374674
 30
0.0
 11
586.3213536850317
 21
686.9379708374674
 31
0.0
  0
LINE
  5
148
330
1F
100
AcDbEntity
  8
D-A
  6
Continuous
 62
     3
370
     9
100
AcDbLine
 10
626.3206196135577
 20
722.4379708374693
 30
0.0
 11
656.3239353071805
 21
722.4379708374693
 31
0.0
  0
LINE
  5
149
330
1F
100
AcDbEntity
  8
D-A
  6
Continuous
 62
     3
370
     9
100
AcDbLine
 10
541.4206196135576
 20
722.4379708374693
 30
0.0
 11
586.3213536850317
 21
722.4379708374693
 31
0.0
  0
LINE
  5
14A
330
1F
100
AcDbEntity
  8
D-A
  6
Continuous
 62
     3
370
     9
100
AcDbLine
 10
541.4206196135576
 20
704.6879708374667
 30
0.0
 11
586.3213536850317
 21
704.6879708374667
 31
0.0
  0
LINE
  5
14B
330
1F
100
AcDbEntity
  8
D-A
  6
Continuous
 62
     3
370
     9
100
AcDbLine
 10
626.3206196135577
 20
704.6879708374667
 30
0.0
 11
656.3239353071805
 21
704.6879708374667
 31
0.0
  0
LINE
  5
14C
330
1F
100
AcDbEntity
  8
D-2
  6
Continuous
 62
     3
370
     9
100
AcDbLine
 10
586.3106218312084
 20
634.0071329604338
 30
0.0
 11
621.2504413059811
 21
604.6878471175553
 31
0.0
  0
LINE
  5
14D
330
1F
100
AcDbEntity
  8
D-2
  6
Continuous
 62
     3
370
     9
100
AcDbLine
 10
586.3102637393304
 20
623.7530350854275
 30
0.0
 11
609.0302654958488
 21
604.6878471175553
 31
0.0
  0
LINE
  5
14E
330
1F
100
AcDbEntity
  8
D-2
  6
Continuous
 62
     3
370
     9
100
AcDbLine
 10
586.3099056474523
 20
613.4989372104219
 30
0.0
 11
596.810089685717
 21
604.6878471175553
 31
0.0
  0
LINE
  5
14F
330
1F
100
AcDbEntity
  8
D-2
  6
Continuous
 62
     3
370
     9
100
AcDbLine
 10
618.5889355136687
 20
604.6878471175553
 30
0.0
 11
626.3230940117849
 21
611.1775695826522
 31
0.0
  0
LINE
  5
150
330
1F
100
AcDbEntity
  8
D-2
  6
Continuous
 62
     3
370
     9
100
AcDbLine
 10
586.3212891951919
 20
813.449446736565
 30
0.0
 11
626.3230940117849
 21
847.0149097957844
 31
0.0
  0
LINE
  5
151
330
1F
100
AcDbEntity
  8
D-2
  6
Continuous
 62
     3
370
     9
100
AcDbLine
 10
586.3177836687698
 20
839.0890904605553
 30
0.0
 11
626.3230940117849
 21
805.5191651772606
 31
0.0
  0
LINE
  5
152
330
1F
100
AcDbEntity
  8
D-2
  6
Continuous
 62
     3
370
     9
100
AcDbLine
 10
586.3209311033138
 20
803.1953488615588
 30
0.0
 11
626.3230940117849
 21
836.7611123952136
 31
0.0
  0
LINE
  5
153
330
1F
100
AcDbEntity
  8
D-2
  6
Continuous
 62
     3
370
     9
100
AcDbLine
 10
586.3174255768918
 20
828.8349925855493
 30
0.0
 11
626.3230940117849
 21
795.264766814207
 31
0.0
  0
LINE
  5
154
330
1F
100
AcDbEntity
  8
D-2
  6
Continuous
 62
     3
370
     9
100
AcDbLine
 10
586.3205730114357
 20
792.9412509865529
 30
0.0
 11
626.3230940117849
 21
826.5073149946429
 31
0.0
  0
LINE
  5
155
330
1F
100
AcDbEntity
  8
D-2
  6
Continuous
 62
     3
370
     9
100
AcDbLine
 10
586.3170674850137
 20
818.5808947105434
 30
0.0
 11
626.3230940117849
 21
785.0103684511532
 31
0.0
  0
LINE
  5
156
330
1F
100
AcDbEntity
  8
D-2
  6
Continuous
 62
     3
370
     9
100
AcDbLine
 10
586.3202149195577
 20
782.6871531115466
 30
0.0
 11
626.3230940117849
 21
816.2535175940716
 31
0.0
  0
LINE
  5
157
330
1F
100
AcDbEntity
  8
D-2
  6
Continuous
 62
     3
370
     9
100
AcDbLine
 10
586.3167093931356
 20
808.3267968355372
 30
0.0
 11
626.3230940117849
 21
774.7559700880998
 31
0.0
  0
LINE
  5
158
330
1F
100
AcDbEntity
  8
D-2
  6
Continuous
 62
     3
370
     9
100
AcDbLine
 10
586.3198568276796
 20
772.4330552365404
 30
0.0
 11
626.3230940117849
 21
805.9997201935007
 31
0.0
  0
LINE
  5
159
330
1F
100
AcDbEntity
  8
D-2
  6
Continuous
 62
     3
370
     9
100
AcDbLine
 10
586.3163513012576
 20
798.0726989605309
 30
0.0
 11
626.3230940117849
 21
764.5015717250465
 31
0.0
  0
LINE
  5
15A
330
1F
100
AcDbEntity
  8
D-2
  6
Continuous
 62
     3
370
     9
100
AcDbLine
 10
586.3194987358015
 20
762.1789573615342
 30
0.0
 11
626.3230940117849
 21
795.7459227929297
 31
0.0
  0
LINE
  5
15B
330
1F
100
AcDbEntity
  8
D-2
  6
Continuous
 62
     3
370
     9
100
AcDbLine
 10
586.3159932093795
 20
787.8186010855251
 30
0.0
 11
626.3230940117849
 21
754.2471733619927
 31
0.0
  0
LINE
  5
15C
330
1F
100
AcDbEntity
  8
D-2
  6
Continuous
 62
     3
370
     9
100
AcDbLine
 10
586.3191406439234
 20
751.9248594865282
 30
0.0
 11
626.3230940117849
 21
785.4921253923584
 31
0.0
  0
LINE
  5
15D
330
1F
100
AcDbEntity
  8
D-2
  6
Continuous
 62
     3
370
     9
100
AcDbLine
 10
586.3156351175014
 20
777.5645032105189
 30
0.0
 11
626.3230940117849
 21
743.9927749989391
 31
0.0
  0
LINE
  5
15E
330
1F
100
AcDbEntity
  8
D-2
  6
Continuous
 62
     3
370
     9
100
AcDbLine
 10
586.3187825520454
 20
741.6707616115224
 30
0.0
 11
626.3230940117849
 21
775.2383279917876
 31
0.0
  0
LINE
  5
15F
330
1F
100
AcDbEntity
  8
D-2
  6
Continuous
 62
     3
370
     9
100
AcDbLine
 10
586.3152770256233
 20
767.3104053355127
 30
0.0
 11
626.3230940117849
 21
733.7383766358857
 31
0.0
  0
LINE
  5
160
330
1F
100
AcDbEntity
  8
D-2
  6
Continuous
 62
     3
370
     9
100
AcDbLine
 10
586.3184244601673
 20
731.4166637365162
 30
0.0
 11
626.3230940117849
 21
764.9845305912165
 31
0.0
  0
LINE
  5
161
330
1F
100
AcDbEntity
  8
D-2
  6
Continuous
 62
     3
370
     9
100
AcDbLine
 10
586.3149189337453
 20
757.0563074605064
 30
0.0
 11
626.3230940117849
 21
723.4839782728324
 31
0.0
  0
LINE
  5
162
330
1F
100
AcDbEntity
  8
D-2
  6
Continuous
 62
     3
370
     9
100
AcDbLine
 10
586.3180663682892
 20
721.16256586151
 30
0.0
 11
626.3230940117849
 21
754.7307331906455
 31
0.0
  0
LINE
  5
163
330
1F
100
AcDbEntity
  8
D-2
  6
Continuous
 62
     3
370
     9
100
AcDbLine
 10
586.3145608418672
 20
746.8022095855006
 30
0.0
 11
626.3230940117849
 21
713.229579909779
 31
0.0
  0
LINE
  5
164
330
1F
100
AcDbEntity
  8
D-2
  6
Continuous
 62
     3
370
     9
100
AcDbLine
 10
586.3177082764112
 20
710.9084679865038
 30
0.0
 11
626.3230940117849
 21
744.4769357900748
 31
0.0
  0
LINE
  5
165
330
1F
100
AcDbEntity
  8
D-2
  6
Continuous
 62
     3
370
     9
100
AcDbLine
 10
586.3142027499891
 20
736.5481117104946
 30
0.0
 11
626.3230940117849
 21
702.9751815467256
 31
0.0
  0
LINE
  5
166
330
1F
100
AcDbEntity
  8
D-2
  6
Continuous
 62
     3
370
     9
100
AcDbLine
 10
586.3173501845331
 20
700.6543701114981
 30
0.0
 11
626.3230940117849
 21
734.2231383895034
 31
0.0
  0
LINE
  5
167
330
1F
100
AcDbEntity
  8
D-2
  6
Continuous
 62
     3
370
     9
100
AcDbLine
 10
586.3138446581111
 20
726.2940138354884
 30
0.0
 11
626.3230940117849
 21
692.7207831836716
 31
0.0
  0
LINE
  5
168
330
1F
100
AcDbEntity
  8
D-2
  6
Continuous
 62
     3
370
     9
100
AcDbLine
 10
586.316992092655
 20
690.4002722364919
 30
0.0
 11
626.3230940117849
 21
723.9693409889327
 31
0.0
  0
LINE
  5
169
330
1F
100
AcDbEntity
  8
D-2
  6
Continuous
 62
     3
370
     9
100
AcDbLine
 10
586.313486566233
 20
716.0399159604822
 30
0.0
 11
626.3230940117849
 21
682.4663848206183
 31
0.0
  0
LINE
  5
16A
330
1F
100
AcDbEntity
  8
D-2
  6
Continuous
 62
     3
370
     9
100
AcDbLine
 10
586.316634000777
 20
680.1461743614857
 30
0.0
 11
626.3230940117849
 21
713.7155435883614
 31
0.0
  0
LINE
  5
16B
330
1F
100
AcDbEntity
  8
D-2
  6
Continuous
 62
     3
370
     9
100
AcDbLine
 10
586.3131284743549
 20
705.785818085476
 30
0.0
 11
626.3230940117849
 21
672.2119864575649
 31
0.0
  0
LINE
  5
16C
330
1F
100
AcDbEntity
  8
D-2
  6
Continuous
 62
     3
370
     9
100
AcDbLine
 10
586.3162759088989
 20
669.8920764864795
 30
0.0
 11
626.3230940117849
 21
703.4617461877906
 31
0.0
  0
LINE
  5
16D
330
1F
100
AcDbEntity
  8
D-2
  6
Continuous
 62
     3
370
     9
100
AcDbLine
 10
586.3127703824769
 20
695.5317202104703
 30
0.0
 11
626.3230940117849
 21
661.9575880945115
 31
0.0
  0
LINE
  5
16E
330
1F
100
AcDbEntity
  8
D-2
  6
Continuous
 62
     3
370
     9
100
AcDbLine
 10
586.3159178170208
 20
659.6379786114738
 30
0.0
 11
626.3230940117849
 21
693.2079487872198
 31
0.0
  0
LINE
  5
16F
330
1F
100
AcDbEntity
  8
D-2
  6
Continuous
 62
     3
370
     9
100
AcDbLine
 10
586.3124122905988
 20
685.2776223354641
 30
0.0
 11
626.3230940117849
 21
651.7031897314581
 31
0.0
  0
LINE
  5
170
330
1F
100
AcDbEntity
  8
D-2
  6
Continuous
 62
     3
370
     9
100
AcDbLine
 10
586.3155597251427
 20
649.3838807364676
 30
0.0
 11
626.3230940117849
 21
682.9541513866485
 31
0.0
  0
LINE
  5
171
330
1F
100
AcDbEntity
  8
D-2
  6
Continuous
 62
     3
370
     9
100
AcDbLine
 10
586.3152016332647
 20
639.1297828614615
 30
0.0
 11
626.3230940117849
 21
672.7003539860777
 31
0.0
  0
LINE
  5
172
330
1F
100
AcDbEntity
  8
D-2
  6
Continuous
 62
     3
370
     9
100
AcDbLine
 10
586.3148435413866
 20
628.8756849864553
 30
0.0
 11
626.3230940117849
 21
662.446556585507
 31
0.0
  0
LINE
  5
173
330
1F
100
AcDbEntity
  8
D-2
  6
Continuous
 62
     3
370
     9
100
AcDbLine
 10
586.3144854495085
 20
618.6215871114497
 30
0.0
 11
626.3230940117849
 21
652.1927591849357
 31
0.0
  0
LINE
  5
174
330
1F
100
AcDbEntity
  8
D-2
  6
Continuous
 62
     3
370
     9
100
AcDbLine
 10
586.3141273576305
 20
608.3674892364435
 30
0.0
 11
626.3230940117849
 21
641.9389617843649
 31
0.0
  0
LINE
  5
175
330
1F
100
AcDbEntity
  8
D-2
  6
Continuous
 62
     3
370
     9
100
AcDbLine
 10
606.3689222958307
 20
604.6878471175553
 30
0.0
 11
626.3230940117849
 21
621.4313669832229
 31
0.0
  0
LINE
  5
176
330
1F
100
AcDbEntity
  8
D-2
  6
Continuous
 62
     3
370
     9
100
AcDbLine
 10
594.148909077992
 20
604.6878471175553
 30
0.0
 11
626.3230940117849
 21
631.6851643837942
 31
0.0
  0
LINE
  5
177
330
1F
100
AcDbEntity
  8
D-2
  6
Continuous
 62
     3
370
     9
100
AcDbLine
 10
586.3109799230865
 20
644.2612308354398
 30
0.0
 11
626.3230940117849
 21
610.6855962792441
 31
0.0
  0
LINE
  5
178
330
1F
100
AcDbEntity
  8
D-2
  6
Continuous
 62
     3
370
     9
100
AcDbLine
 10
586.3113380149646
 20
654.515328710446
 30
0.0
 11
626.3230940117849
 21
620.9399946422975
 31
0.0
  0
LINE
  5
179
330
1F
100
AcDbEntity
  8
D-2
  6
Continuous
 62
     3
370
     9
100
AcDbLine
 10
586.3116961068426
 20
664.7694265854517
 30
0.0
 11
626.3230940117849
 21
631.1943930053509
 31
0.0
  0
LINE
  5
17A
330
1F
100
AcDbEntity
  8
D-2
  6
Continuous
 62
     3
370
     9
100
AcDbLine
 10
586.3120541987207
 20
675.0235244604579
 30
0.0
 11
626.3230940117849
 21
641.4487913684042
 31
0.0
  0
LINE
  5
17B
330
1F
100
AcDbEntity
  8
D-2
  6
Continuous
 62
     3
370
     9
100
AcDbLine
 10
586.3263024814848
 20
849.3363403749684
 30
0.0
 11
626.3230940117849
 21
815.7735635403142
 31
0.0
  0
LINE
  5
17C
330
1F
100
AcDbEntity
  8
D-2
  6
Continuous
 62
     3
370
     9
100
AcDbLine
 10
656.3239353071805
 20
854.687970837467
 30
0.0
 11
531.3285203513376
 21
854.687970837467
 31
0.0
  0
LINE
  5
17D
330
1F
100
AcDbEntity
  8
D-A
  6
Continuous
 62
     3
370
     9
100
AcDbLine
 10
626.3230940117849
 20
604.6878471175553
 30
0.0
 11
626.3230940117849
 21
854.687970837467
 31
0.0
  0
LINE
  5
17E
330
1F
100
AcDbEntity
  8
D-2
  6
Continuous
 62
     3
370
     9
100
AcDbLine
 10
586.3216472870699
 20
823.7035446115713
 30
0.0
 11
623.2474888300774
 21
854.687970837467
 31
0.0
  0
LINE
  5
17F
330
1F
100
AcDbEntity
  8
D-2
  6
Continuous
 62
     3
370
     9
100
AcDbLine
 10
616.6092870461558
 20
854.687970837467
 30
0.0
 11
626.3230940117849
 21
846.5367586294744
 31
0.0
  0
LINE
  5
180
330
1F
100
AcDbEntity
  8
D-2
  6
Continuous
 62
     3
370
     9
100
AcDbLine
 10
586.322005378948
 20
833.9576424865771
 30
0.0
 11
611.027475612239
 21
854.687970837467
 31
0.0
  0
LINE
  5
181
330
1F
100
AcDbEntity
  8
D-2
  6
Continuous
 62
     3
370
     9
100
AcDbLine
 10
604.3891112360238
 20
854.687970837467
 30
0.0
 11
626.3230940117849
 21
836.2823602664209
 31
0.0
  0
LINE
  5
182
330
1F
100
AcDbEntity
  8
D-2
  6
Continuous
 62
     3
370
     9
100
AcDbLine
 10
586.3223634708261
 20
844.211740361583
 30
0.0
 11
598.8074623944008
 21
854.687970837467
 31
0.0
  0
LINE
  5
183
330
1F
100
AcDbEntity
  8
D-2
  6
Continuous
 62
     3
370
     9
100
AcDbLine
 10
592.168935425892
 20
854.687970837467
 30
0.0
 11
626.3230940117849
 21
826.0279619033677
 31
0.0
  0
LINE
  5
184
330
1F
100
AcDbEntity
  8
D-A
  6
Continuous
 62
     3
370
     9
100
AcDbLine
 10
586.3263024814848
 20
604.6878471175553
 30
0.0
 11
586.3263024814848
 21
854.687970837467
 31
0.0
  0
LINE
  5
185
330
1F
100
AcDbEntity
  8
D-2
  6
Continuous
 62
     3
370
     9
100
AcDbLine
 10
586.3227215627039
 20
854.465838236589
 30
0.0
 11
586.5874491765625
 21
854.687970837467
 31
0.0
  0
LINE
  5
186
330
1F
100
AcDbEntity
  8
D-5
  6
JWW_CENTER1
 62
     4
370
     9
100
AcDbLine
 10
713.4605639520038
 20
664.8134649745037
 30
0.0
 11
676.3438604506229
 21
664.8134649745037
 31
0.0
  0
SOLID
  5
187
330
1F
100
AcDbEntity
  8
D-5
  6
Continuous
 62
     4
370
     9
100
AcDbTrace
 10
713.4605639520038
 20
666.8134649745036
 30
0.0
 11
753.4605639520038
 21
666.8134649745036
 31
0.0
 12
713.4605639520038
 22
662.8134649745039
 32
0.0
 13
753.4605639520038
 23
662.8134649745039
 33
0.0
  0
LINE
  5
188
330
1F
100
AcDbEntity
  8
D-2
  6
Continuous
 62
     3
370
     9
100
AcDbLine
 10
656.3239353071805
 20
1034.687970837467
 30
0.0
 11
386.5641525263556
 21
1034.687970837467
 31
0.0
  0
LINE
  5
189
330
1F
100
AcDbEntity
  8
D-A
  6
Continuous
 62
     3
370
     9
100
AcDbLine
 10
656.3239353071805
 20
1019.688168789325
 30
0.0
 11
386.5641525263556
 21
1019.688168789325
 31
0.0
  0
LINE
  5
18A
330
1F
100
AcDbEntity
  8
D-4
  6
Continuous
 62
     7
370
     9
100
AcDbLine
 10
436.5230940117849
 20
1098.606351279648
 30
0.0
 11
521.4234610475218
 21
1098.606351279648
 31
0.0
  0
LWPOLYLINE
  5
18B
330
1F
100
AcDbEntity
  8
D-4
  6
Continuous
 62
     7
370
     9
100
AcDbPolyline
 90
        4
 70
     1
 43
1.0
 10
437.0230940117849
 20
1098.606351279648
 42
0.4142135623731
 10
436.5230940117849
 20
1099.106351279648
 42
0.4142135623731
 10
436.023094011785
 20
1098.606351279648
 42
0.4142135623731
 10
436.5230940117849
 20
1098.106351279648
 42
0.4142135623731
  0
LWPOLYLINE
  5
18C
330
1F
100
AcDbEntity
  8
D-4
  6
Continuous
 62
     7
370
     9
100
AcDbPolyline
 90
        4
 70
     1
 43
1.0
 10
521.9234610475216
 20
1098.606351279648
 42
0.4142135623731
 10
521.4234610475218
 20
1099.106351279648
 42
0.4142135623731
 10
520.9234610475218
 20
1098.606351279648
 42
0.4142135623731
 10
521.4234610475218
 20
1098.106351279648
 42
0.4142135623731
  0
TEXT
  5
18D
330
1F
100
AcDbEntity
  8
D-4
  6
Continuous
 62
     2
370
   211
100
AcDbText
 10
457.7232775296533
 20
1110.246351279648
 30
0.0
 40
30.48
  1
17
 41
1.0625
  7
ＭＳ ゴシック
100
AcDbText
  0
LINE
  5
18E
330
1F
100
AcDbEntity
  8
D-4
  6
Continuous
 62
     7
370
     9
100
AcDbLine
 10
521.4234610475218
 20
1098.606351279648
 30
0.0
 11
606.3246982466349
 21
1098.606351279648
 31
0.0
  0
LWPOLYLINE
  5
18F
330
1F
100
AcDbEntity
  8
D-4
  6
Continuous
 62
     7
370
     9
100
AcDbPolyline
 90
        4
 70
     1
 43
1.0
 10
606.8246982466347
 20
1098.606351279648
 42
0.4142135623731
 10
606.3246982466349
 20
1099.106351279648
 42
0.4142135623731
 10
605.8246982466349
 20
1098.606351279648
 42
0.4142135623731
 10
606.3246982466349
 20
1098.106351279648
 42
0.4142135623731
  0
TEXT
  5
190
330
1F
100
AcDbEntity
  8
D-4
  6
Continuous
 62
     2
370
   211
100
AcDbText
 10
542.6240796470782
 20
1110.246351279648
 30
0.0
 40
30.48
  1
17
 41
1.0625
  7
ＭＳ ゴシック
100
AcDbText
  0
LINE
  5
191
330
1F
100
AcDbEntity
  8
D-5
  6
JWW_CENTER1
 62
     4
370
     9
100
AcDbLine
 10
329.2246713593875
 20
664.8134649745037
 30
0.0
 11
366.341374860769
 21
664.8134649745037
 31
0.0
  0
SOLID
  5
192
330
1F
100
AcDbEntity
  8
D-5
  6
Continuous
 62
     4
370
     9
100
AcDbTrace
 10
329.2246713593875
 20
662.8134649745039
 30
0.0
 11
289.2246713593875
 21
662.8134649745039
 31
0.0
 12
329.2246713593875
 22
666.8134649745036
 32
0.0
 13
289.2246713593875
 23
666.8134649745036
 33
0.0
  0
LINE
  5
193
330
1F
100
AcDbEntity
  8
D-5
  6
Continuous
 62
     4
370
     9
100
AcDbLine
 10
308.2436744859137
 20
655.1473751767918
 30
0.0
 11
308.2436744859137
 21
605.8979824938499
 31
0.0
  0
LINE
  5
194
330
1F
100
AcDbEntity
  8
D-5
  6
Continuous
 62
     4
370
     9
100
AcDbLine
 10
308.2436744859137
 20
655.1473751767918
 30
0.0
 11
311.5068292914151
 21
630.3612536424465
 31
0.0
  0
LINE
  5
195
330
1F
100
AcDbEntity
  8
D-5
  6
Continuous
 62
     4
370
     9
100
AcDbLine
 10
308.2436744859137
 20
655.1473751767918
 30
0.0
 11
304.9805196804124
 21
630.3612536424465
 31
0.0
  0
TEXT
  5
196
330
1F
100
AcDbEntity
  8
D-5
  6
Continuous
 62
     2
370
     9
100
AcDbText
 10
298.2436744859137
 20
565.5718826564378
 30
0.0
 40
30.48
  1
B
 41
0.9999999999999998
  7
ＭＳ ゴシック
100
AcDbText
  0
SOLID
  5
197
330
1F
100
AcDbEntity
  8
D-5
  6
Continuous
 62
     4
370
     9
100
AcDbTrace
 10
480.9734610475215
 20
574.04165996947
 30
0.0
 11
480.9734610475215
 21
534.0416599694698
 31
0.0
 12
476.9734610475218
 22
574.04165996947
 32
0.0
 13
476.9734610475218
 23
534.0416599694698
 33
0.0
  0
LINE
  5
198
330
1F
100
AcDbEntity
  8
D-5
  6
JWW_CENTER1
 62
     4
370
     9
100
AcDbLine
 10
478.9734610475217
 20
574.04165996947
 30
0.0
 11
478.9734610475217
 21
654.8451086962115
 31
0.0
  0
LINE
  5
199
330
1F
100
AcDbEntity
  8
D-5
  6
Continuous
 62
     4
370
     9
100
AcDbLine
 10
488.6395508452336
 20
553.0606630959962
 30
0.0
 11
537.8889435281753
 21
553.0606630959962
 31
0.0
  0
LINE
  5
19A
330
1F
100
AcDbEntity
  8
D-5
  6
Continuous
 62
     4
370
     9
100
AcDbLine
 10
488.6395508452336
 20
553.0606630959962
 30
0.0
 11
513.425672379579
 21
556.3238179014976
 31
0.0
  0
LINE
  5
19B
330
1F
100
AcDbEntity
  8
D-5
  6
Continuous
 62
     4
370
     9
100
AcDbLine
 10
488.6395508452336
 20
553.0606630959962
 30
0.0
 11
513.425672379579
 21
549.7975082904948
 31
0.0
  0
TEXT
  5
19C
330
1F
100
AcDbEntity
  8
D-5
  6
Continuous
 62
     2
370
     9
100
AcDbText
 10
545.5997146621255
 20
540.8554810757925
 30
0.0
 40
30.48
  1
C
 41
0.9999999999999998
  7
ＭＳ ゴシック
100
AcDbText
  0
LINE
  5
19D
330
1F
100
AcDbEntity
  8
D-5
  6
JWW_CENTER1
 62
     4
370
     9
100
AcDbLine
 10
478.9734610475217
 20
1206.001034818369
 30
0.0
 11
478.9734610475217
 21
1168.697709996884
 31
0.0
  0
SOLID
  5
19E
330
1F
100
AcDbEntity
  8
D-5
  6
Continuous
 62
     4
370
     9
100
AcDbTrace
 10
480.9734610475215
 20
1206.001034818369
 30
0.0
 11
480.9734610475215
 21
1246.001034818369
 31
0.0
 12
476.9734610475218
 22
1206.001034818369
 32
0.0
 13
476.9734610475218
 23
1246.001034818369
 33
0.0
  0
LINE
  5
19F
330
1F
100
AcDbEntity
  8
D-5
  6
Continuous
 62
     4
370
     9
100
AcDbLine
 10
488.6395508452336
 20
1226.982031691843
 30
0.0
 11
513.425672379579
 21
1230.245186497344
 31
0.0
  0
LINE
  5
1A0
330
1F
100
AcDbEntity
  8
D-5
  6
Continuous
 62
     4
370
     9
100
AcDbLine
 10
488.6395508452336
 20
1226.982031691843
 30
0.0
 11
537.8889435281753
 21
1226.982031691843
 31
0.0
  0
LINE
  5
1A1
330
1F
100
AcDbEntity
  8
D-5
  6
Continuous
 62
     4
370
     9
100
AcDbLine
 10
488.6395508452336
 20
1226.982031691843
 30
0.0
 11
513.425672379579
 21
1223.718876886341
 31
0.0
  0
TEXT
  5
1A2
330
1F
100
AcDbEntity
  8
D-5
  6
Continuous
 62
     2
370
     9
100
AcDbText
 10
545.5997146621255
 20
1214.776849671639
 30
0.0
 40
30.48
  1
C
 41
0.9999999999999998
  7
ＭＳ ゴシック
100
AcDbText
  0
LINE
  5
1A3
330
1F
100
AcDbEntity
  8
D-4
  6
Continuous
 62
     7
370
     9
100
AcDbLine
 10
606.3246982466349
 20
1101.606351279648
 30
0.0
 11
606.3246982466349
 21
1048.688168789325
 31
0.0
  0
LINE
  5
1A4
330
1F
100
AcDbEntity
  8
D-4
  6
Continuous
 62
     7
370
     9
100
AcDbLine
 10
521.4234610475218
 20
1101.606351279648
 30
0.0
 11
521.4234610475218
 21
1048.688168789325
 31
0.0
  0
LINE
  5
1A5
330
1F
100
AcDbEntity
  8
D-4
  6
Continuous
 62
     7
370
     9
100
AcDbLine
 10
436.5230940117849
 20
1101.606351279648
 30
0.0
 11
436.5230940117849
 21
1048.688168789325
 31
0.0
  0
LINE
  5
1A6
330
1F
100
AcDbEntity
  8
D-4
  6
Continuous
 62
     7
370
     9
100
AcDbLine
 10
767.606812647665
 20
355.3787897734542
 30
0.0
 11
767.606812647665
 21
280.3789134933655
 31
0.0
  0
LWPOLYLINE
  5
1A7
330
1F
100
AcDbEntity
  8
D-4
  6
Continuous
 62
     7
370
     9
100
AcDbPolyline
 90
        4
 70
     1
 43
1.0
 10
768.106812647665
 20
355.3787897734542
 42
0.4142135623731
 10
767.606812647665
 20
355.8787897734542
 42
0.4142135623731
 10
767.106812647665
 20
355.3787897734542
 42
0.4142135623731
 10
767.606812647665
 20
354.8787897734542
 42
0.4142135623731
  0
LWPOLYLINE
  5
1A8
330
1F
100
AcDbEntity
  8
D-4
  6
Continuous
 62
     7
370
     9
100
AcDbPolyline
 90
        4
 70
     1
 43
1.0
 10
768.106812647665
 20
280.3789134933655
 42
0.4142135623731
 10
767.606812647665
 20
280.8789134933655
 42
0.4142135623731
 10
767.106812647665
 20
280.3789134933655
 42
0.4142135623731
 10
767.606812647665
 20
279.8789134933655
 42
0.4142135623731
  0
LINE
  5
1A9
330
1F
100
AcDbEntity
  8
D-4
  6
Continuous
 62
     7
370
     9
100
AcDbLine
 10
770.6068126476652
 20
355.3787897734542
 30
0.0
 11
683.4975104789987
 21
355.3787897734542
 31
0.0
  0
LINE
  5
1AA
330
1F
100
AcDbEntity
  8
D-4
  6
Continuous
 62
     7
370
     9
100
AcDbLine
 10
770.6068126476652
 20
280.3789134933655
 30
0.0
 11
683.4975104789987
 21
280.3789134933655
 31
0.0
  0
TEXT
  5
1AB
330
1F
100
AcDbEntity
  8
D-4
  6
Continuous
 62
     2
370
   211
100
AcDbText
 10
755.9668126476654
 20
296.62885163341
 30
0.0
 40
30.48
  1
15
 50
90.0
 41
1.0625
  7
ＭＳ ゴシック
100
AcDbText
  0
LINE
  5
1AC
330
1F
100
AcDbEntity
  8
D-2
  6
Continuous
 62
     3
370
     9
100
AcDbLine
 10
386.5641525263556
 20
355.3787897734542
 30
0.0
 11
656.3239353071805
 21
355.3787897734542
 31
0.0
  0
LINE
  5
1AD
330
1F
100
AcDbEntity
  8
D-2
  6
Continuous
 62
     3
370
     9
100
AcDbLine
 10
386.5641525263556
 20
280.3789134933655
 30
0.0
 11
656.3239353071805
 21
280.3789134933655
 31
0.0
  0
LINE
  5
1AE
330
1F
100
AcDbEntity
  8
D-2
  6
Continuous
 62
     3
370
     9
100
AcDbLine
 10
416.5235806434357
 20
355.3787897734542
 30
0.0
 11
416.5235806434357
 21
348.3787171911066
 31
0.0
  0
LINE
  5
1AF
330
1F
100
AcDbEntity
  8
D-2
  6
Continuous
 62
     3
370
     9
100
AcDbLine
 10
456.5230940117846
 20
348.3787171911066
 30
0.0
 11
416.5235806434357
 21
348.3787171911066
 31
0.0
  0
LINE
  5
1B0
330
1F
100
AcDbEntity
  8
D-2
  6
Continuous
 62
     3
370
     9
100
AcDbLine
 10
456.5230940117846
 20
348.3787171911066
 30
0.0
 11
456.5230940117846
 21
355.3787897734542
 31
0.0
  0
LINE
  5
1B1
330
1F
100
AcDbEntity
  8
D-2
  6
Continuous
 62
     3
370
     9
100
AcDbLine
 10
433.0234866163028
 20
348.3787171911066
 30
0.0
 11
433.0234866163028
 21
280.3789134933655
 31
0.0
  0
LINE
  5
1B2
330
1F
100
AcDbEntity
  8
D-2
  6
Continuous
 62
     3
370
     9
100
AcDbLine
 10
440.0235591986507
 20
348.3787171911066
 30
0.0
 11
440.0235591986507
 21
280.3789134933655
 31
0.0
  0
ARC
  5
1B3
330
1F
100
AcDbEntity
  8
D-2
  6
Continuous
 62
     3
370
     9
100
AcDbCircle
 10
445.0235591986507
 20
343.3787171911066
 30
0.0
 40
5.0
100
AcDbArc
 50
90.0
 51
180.0
  0
ARC
  5
1B4
330
1F
100
AcDbEntity
  8
D-2
  6
Continuous
 62
     3
370
     9
100
AcDbCircle
 10
428.0234866163028
 20
343.3787171911066
 30
0.0
 40
5.0
100
AcDbArc
 50
0.0
 51
90.0
  0
LINE
  5
1B5
330
1F
100
AcDbEntity
  8
D-2
  6
Continuous
 62
     3
370
     9
100
AcDbLine
 10
541.4230940117848
 20
348.3787171911066
 30
0.0
 11
501.4235806434357
 21
348.3787171911066
 31
0.0
  0
LINE
  5
1B6
330
1F
100
AcDbEntity
  8
D-2
  6
Continuous
 62
     3
370
     9
100
AcDbLine
 10
501.4235806434357
 20
355.3787897734542
 30
0.0
 11
501.4235806434357
 21
348.3787171911066
 31
0.0
  0
LINE
  5
1B7
330
1F
100
AcDbEntity
  8
D-2
  6
Continuous
 62
     3
370
     9
100
AcDbLine
 10
541.4230940117848
 20
348.3787171911066
 30
0.0
 11
541.4230940117848
 21
355.3787897734542
 31
0.0
  0
LINE
  5
1B8
330
1F
100
AcDbEntity
  8
D-2
  6
Continuous
 62
     3
370
     9
100
AcDbLine
 10
517.923486616303
 20
348.3787171911066
 30
0.0
 11
517.923486616303
 21
280.3789134933655
 31
0.0
  0
LINE
  5
1B9
330
1F
100
AcDbEntity
  8
D-2
  6
Continuous
 62
     3
370
     9
100
AcDbLine
 10
524.9235591986509
 20
348.3787171911066
 30
0.0
 11
524.9235591986509
 21
280.3789134933655
 31
0.0
  0
ARC
  5
1BA
330
1F
100
AcDbEntity
  8
D-2
  6
Continuous
 62
     3
370
     9
100
AcDbCircle
 10
512.923486616303
 20
343.3787171911066
 30
0.0
 40
5.0
100
AcDbArc
 50
0.0
 51
90.0
  0
ARC
  5
1BB
330
1F
100
AcDbEntity
  8
D-2
  6
Continuous
 62
     3
370
     9
100
AcDbCircle
 10
529.9235591986509
 20
343.3787171911066
 30
0.0
 40
5.0
100
AcDbArc
 50
90.0
 51
180.0
  0
LINE
  5
1BC
330
1F
100
AcDbEntity
  8
D-2
  6
Continuous
 62
     3
370
     9
100
AcDbLine
 10
586.3235806434359
 20
355.3787897734542
 30
0.0
 11
586.3235806434359
 21
348.3787171911066
 31
0.0
  0
LINE
  5
1BD
330
1F
100
AcDbEntity
  8
D-2
  6
Continuous
 62
     3
370
     9
100
AcDbLine
 10
626.3230940117849
 20
348.3787171911066
 30
0.0
 11
586.3235806434359
 21
348.3787171911066
 31
0.0
  0
LINE
  5
1BE
330
1F
100
AcDbEntity
  8
D-2
  6
Continuous
 62
     3
370
     9
100
AcDbLine
 10
626.3230940117849
 20
348.3787171911066
 30
0.0
 11
626.3230940117849
 21
355.3787897734542
 31
0.0
  0
LINE
  5
1BF
330
1F
100
AcDbEntity
  8
D-2
  6
Continuous
 62
     3
370
     9
100
AcDbLine
 10
602.8234866163031
 20
348.3787171911066
 30
0.0
 11
602.8234866163031
 21
280.3789134933655
 31
0.0
  0
LINE
  5
1C0
330
1F
100
AcDbEntity
  8
D-2
  6
Continuous
 62
     3
370
     9
100
AcDbLine
 10
609.823559198651
 20
348.3787171911066
 30
0.0
 11
609.823559198651
 21
280.3789134933655
 31
0.0
  0
ARC
  5
1C1
330
1F
100
AcDbEntity
  8
D-2
  6
Continuous
 62
     3
370
     9
100
AcDbCircle
 10
597.8234866163031
 20
343.3787171911066
 30
0.0
 40
5.0
100
AcDbArc
 50
0.0
 51
90.0
  0
ARC
  5
1C2
330
1F
100
AcDbEntity
  8
D-2
  6
Continuous
 62
     3
370
     9
100
AcDbCircle
 10
614.823559198651
 20
343.3787171911066
 30
0.0
 40
5.0
100
AcDbArc
 50
90.0
 51
180.0
  0
LINE
  5
1C3
330
1F
100
AcDbEntity
  8
D-4
  6
Continuous
 62
     7
370
     9
100
AcDbLine
 10
416.5235806434357
 20
451.3458479281545
 30
0.0
 11
456.5230940117846
 21
451.3458479281545
 31
0.0
  0
LWPOLYLINE
  5
1C4
330
1F
100
AcDbEntity
  8
D-4
  6
Continuous
 62
     7
370
     9
100
AcDbPolyline
 90
        4
 70
     1
 43
1.0
 10
417.0235806434357
 20
451.3458479281545
 42
0.4142135623731
 10
416.5235806434357
 20
451.8458479281545
 42
0.4142135623731
 10
416.0235806434357
 20
451.3458479281545
 42
0.4142135623731
 10
416.5235806434357
 20
450.8458479281546
 42
0.4142135623731
  0
LWPOLYLINE
  5
1C5
330
1F
100
AcDbEntity
  8
D-4
  6
Continuous
 62
     7
370
     9
100
AcDbPolyline
 90
        4
 70
     1
 43
1.0
 10
457.0230940117846
 20
451.3458479281545
 42
0.4142135623731
 10
456.5230940117846
 20
451.8458479281545
 42
0.4142135623731
 10
456.0230940117847
 20
451.3458479281545
 42
0.4142135623731
 10
456.5230940117846
 20
450.8458479281546
 42
0.4142135623731
  0
LINE
  5
1C6
330
1F
100
AcDbEntity
  8
D-4
  6
Continuous
 62
     7
370
     9
100
AcDbLine
 10
416.5235806434357
 20
454.3458479281545
 30
0.0
 11
416.5235806434357
 21
375.3787897734542
 31
0.0
  0
LINE
  5
1C7
330
1F
100
AcDbEntity
  8
D-4
  6
Continuous
 62
     7
370
     9
100
AcDbLine
 10
456.5230940117846
 20
454.3458479281545
 30
0.0
 11
456.5230940117846
 21
375.3787897734542
 31
0.0
  0
TEXT
  5
1C8
330
1F
100
AcDbEntity
  8
D-4
  6
Continuous
 62
     2
370
   211
100
AcDbText
 10
426.5233373276101
 20
462.9858479281545
 30
0.0
 40
30.48
  1
8
 41
0.9999999999999998
  7
ＭＳ ゴシック
100
AcDbText
  0
LINE
  5
1C9
330
1F
100
AcDbEntity
  8
D-4
  6
Continuous
 62
     7
370
     9
100
AcDbLine
 10
456.5230940117846
 20
451.3458479281545
 30
0.0
 11
501.4235806434357
 21
451.3458479281545
 31
0.0
  0
LWPOLYLINE
  5
1CA
330
1F
100
AcDbEntity
  8
D-4
  6
Continuous
 62
     7
370
     9
100
AcDbPolyline
 90
        4
 70
     1
 43
1.0
 10
501.9235806434357
 20
451.3458479281545
 42
0.4142135623731
 10
501.4235806434357
 20
451.8458479281545
 42
0.4142135623731
 10
500.9235806434358
 20
451.3458479281545
 42
0.4142135623731
 10
501.4235806434357
 20
450.8458479281546
 42
0.4142135623731
  0
LINE
  5
1CB
330
1F
100
AcDbEntity
  8
D-4
  6
Continuous
 62
     7
370
     9
100
AcDbLine
 10
501.4235806434357
 20
454.3458479281545
 30
0.0
 11
501.4235806434357
 21
375.3787897734542
 31
0.0
  0
LINE
  5
1CC
330
1F
100
AcDbEntity
  8
D-4
  6
Continuous
 62
     7
370
     9
100
AcDbLine
 10
501.4235806434357
 20
451.3458479281545
 30
0.0
 11
541.4230940117848
 21
451.3458479281545
 31
0.0
  0
LWPOLYLINE
  5
1CD
330
1F
100
AcDbEntity
  8
D-4
  6
Continuous
 62
     7
370
     9
100
AcDbPolyline
 90
        4
 70
     1
 43
1.0
 10
541.9230940117847
 20
451.3458479281545
 42
0.4142135623731
 10
541.4230940117848
 20
451.8458479281545
 42
0.4142135623731
 10
540.9230940117848
 20
451.3458479281545
 42
0.4142135623731
 10
541.4230940117848
 20
450.8458479281546
 42
0.4142135623731
  0
LINE
  5
1CE
330
1F
100
AcDbEntity
  8
D-4
  6
Continuous
 62
     7
370
     9
100
AcDbLine
 10
541.4230940117848
 20
454.3458479281545
 30
0.0
 11
541.4230940117848
 21
375.3787897734542
 31
0.0
  0
TEXT
  5
1CF
330
1F
100
AcDbEntity
  8
D-4
  6
Continuous
 62
     2
370
   211
100
AcDbText
 10
511.4233373276102
 20
462.9858479281545
 30
0.0
 40
30.48
  1
8
 41
0.9999999999999998
  7
ＭＳ ゴシック
100
AcDbText
  0
LINE
  5
1D0
330
1F
100
AcDbEntity
  8
D-4
  6
Continuous
 62
     7
370
     9
100
AcDbLine
 10
541.4230940117848
 20
451.3458479281545
 30
0.0
 11
586.3235806434359
 21
451.3458479281545
 31
0.0
  0
LWPOLYLINE
  5
1D1
330
1F
100
AcDbEntity
  8
D-4
  6
Continuous
 62
     7
370
     9
100
AcDbPolyline
 90
        4
 70
     1
 43
1.0
 10
586.8235806434358
 20
451.3458479281545
 42
0.4142135623731
 10
586.3235806434359
 20
451.8458479281545
 42
0.4142135623731
 10
585.8235806434359
 20
451.3458479281545
 42
0.4142135623731
 10
586.3235806434359
 20
450.8458479281546
 42
0.4142135623731
  0
LINE
  5
1D2
330
1F
100
AcDbEntity
  8
D-4
  6
Continuous
 62
     7
370
     9
100
AcDbLine
 10
586.3235806434359
 20
454.3458479281545
 30
0.0
 11
586.3235806434359
 21
375.3787897734542
 31
0.0
  0
LINE
  5
1D3
330
1F
100
AcDbEntity
  8
D-4
  6
Continuous
 62
     7
370
     9
100
AcDbLine
 10
586.3235806434359
 20
451.3458479281545
 30
0.0
 11
626.3230940117849
 21
451.3458479281545
 31
0.0
  0
LWPOLYLINE
  5
1D4
330
1F
100
AcDbEntity
  8
D-4
  6
Continuous
 62
     7
370
     9
100
AcDbPolyline
 90
        4
 70
     1
 43
1.0
 10
626.8230940117847
 20
451.3458479281545
 42
0.4142135623731
 10
626.3230940117849
 20
451.8458479281545
 42
0.4142135623731
 10
625.8230940117849
 20
451.3458479281545
 42
0.4142135623731
 10
626.3230940117849
 20
450.8458479281546
 42
0.4142135623731
  0
LINE
  5
1D5
330
1F
100
AcDbEntity
  8
D-4
  6
Continuous
 62
     7
370
     9
100
AcDbLine
 10
626.3230940117849
 20
454.3458479281545
 30
0.0
 11
626.3230940117849
 21
375.3787897734542
 31
0.0
  0
TEXT
  5
1D6
330
1F
100
AcDbEntity
  8
D-4
  6
Continuous
 62
     2
370
   211
100
AcDbText
 10
596.3233373276104
 20
462.9858479281545
 30
0.0
 40
30.48
  1
8
 41
0.9999999999999998
  7
ＭＳ ゴシック
100
AcDbText
  0
TEXT
  5
1D7
330
1F
100
AcDbEntity
  8
D-4
  6
Continuous
 62
     2
370
   211
100
AcDbText
 10
554.2535822615972
 20
462.9858479281545
 30
0.0
 40
30.48
  1
9
 41
0.9999999999999998
  7
ＭＳ ゴシック
100
AcDbText
  0
TEXT
  5
1D8
330
1F
100
AcDbEntity
  8
D-4
  6
Continuous
 62
     2
370
   211
100
AcDbText
 10
469.5743369785783
 20
462.9858479281545
 30
0.0
 40
30.48
  1
9
 41
0.9999999999999998
  7
ＭＳ ゴシック
100
AcDbText
  0
LINE
  5
1D9
330
1F
100
AcDbEntity
  8
D-2
  6
Continuous
 62
     3
370
     9
100
AcDbLine
 10
517.923486616303
 20
332.5567567418874
 30
0.0
 11
440.0235591986507
 21
332.5567567418874
 31
0.0
  0
LINE
  5
1DA
330
1F
100
AcDbEntity
  8
D-2
  6
Continuous
 62
     3
370
     9
100
AcDbLine
 10
517.923486616303
 20
314.8787897734542
 30
0.0
 11
440.0235591986507
 21
314.8787897734542
 31
0.0
  0
LINE
  5
1DB
330
1F
100
AcDbEntity
  8
D-2
  6
Continuous
 62
     3
370
     9
100
AcDbLine
 10
517.923486616303
 20
297.2011939647546
 30
0.0
 11
440.0235591986507
 21
297.2011939647546
 31
0.0
  0
LINE
  5
1DC
330
1F
100
AcDbEntity
  8
D-2
  6
Continuous
 62
     3
370
     9
100
AcDbLine
 10
602.8234866163031
 20
297.2011939647546
 30
0.0
 11
524.9235591986509
 21
297.2011939647546
 31
0.0
  0
LINE
  5
1DD
330
1F
100
AcDbEntity
  8
D-2
  6
Continuous
 62
     3
370
     9
100
AcDbLine
 10
602.8234866163031
 20
314.8787897734542
 30
0.0
 11
524.9235591986509
 21
314.8787897734542
 31
0.0
  0
LINE
  5
1DE
330
1F
100
AcDbEntity
  8
D-2
  6
Continuous
 62
     3
370
     9
100
AcDbLine
 10
602.8234866163031
 20
332.5567567418874
 30
0.0
 11
524.9235591986509
 21
332.5567567418874
 31
0.0
  0
LINE
  5
1DF
330
1F
100
AcDbEntity
  8
D-2
  6
Continuous
 62
     3
370
     9
100
AcDbLine
 10
609.823559198651
 20
332.5567567418874
 30
0.0
 11
656.3239353071805
 21
332.5567567418874
 31
0.0
  0
LINE
  5
1E0
330
1F
100
AcDbEntity
  8
D-2
  6
Continuous
 62
     3
370
     9
100
AcDbLine
 10
609.823559198651
 20
314.8787897734542
 30
0.0
 11
656.3239353071805
 21
314.8787897734542
 31
0.0
  0
LINE
  5
1E1
330
1F
100
AcDbEntity
  8
D-2
  6
Continuous
 62
     3
370
     9
100
AcDbLine
 10
609.823559198651
 20
297.2011939647546
 30
0.0
 11
656.3239353071805
 21
297.2011939647546
 31
0.0
  0
LINE
  5
1E2
330
1F
100
AcDbEntity
  8
D-2
  6
Continuous
 62
     3
370
     9
100
AcDbLine
 10
433.0234866163028
 20
297.2011939647546
 30
0.0
 11
386.5641525263556
 21
297.2011939647546
 31
0.0
  0
LINE
  5
1E3
330
1F
100
AcDbEntity
  8
D-2
  6
Continuous
 62
     3
370
     9
100
AcDbLine
 10
433.0234866163028
 20
314.8787897734542
 30
0.0
 11
386.5641525263556
 21
314.8787897734542
 31
0.0
  0
LINE
  5
1E4
330
1F
100
AcDbEntity
  8
D-2
  6
Continuous
 62
     3
370
     9
100
AcDbLine
 10
433.0234866163028
 20
332.5567567418874
 30
0.0
 11
386.5641525263556
 21
332.5567567418874
 31
0.0
  0
LINE
  5
1E5
330
1F
100
AcDbEntity
  8
D-5
  6
Continuous
 62
     4
370
     9
100
AcDbLine
 10
731.5047097752233
 20
655.1473751767918
 30
0.0
 11
731.5047097752233
 21
605.8979824938499
 31
0.0
  0
LINE
  5
1E6
330
1F
100
AcDbEntity
  8
D-5
  6
Continuous
 62
     4
370
     9
100
AcDbLine
 10
731.5047097752233
 20
655.1473751767918
 30
0.0
 11
734.7678645807252
 21
630.3612536424467
 31
0.0
  0
LINE
  5
1E7
330
1F
100
AcDbEntity
  8
D-5
  6
Continuous
 62
     4
370
     9
100
AcDbLine
 10
731.5047097752233
 20
655.1473751767918
 30
0.0
 11
728.2415549697225
 21
630.3612536424467
 31
0.0
  0
TEXT
  5
1E8
330
1F
100
AcDbEntity
  8
D-5
  6
Continuous
 62
     2
370
     9
100
AcDbText
 10
721.5047097752233
 20
564.8526754425491
 30
0.0
 40
30.48
  1
B
 41
0.9999999999999998
  7
ＭＳ ゴシック
100
AcDbText
  0
LINE
  5
1E9
330
1F
100
AcDbEntity
  8
D-0
  6
Continuous
 62
     3
370
     9
100
AcDbLine
 10
1493.185652720452
 20
280.3785423336317
 30
0.0
 11
1478.185603232489
 21
280.3785423336317
 31
0.0
  0
LINE
  5
1EA
330
1F
100
AcDbEntity
  8
D-0
  6
Continuous
 62
     3
370
     9
100
AcDbLine
 10
1313.185652720452
 20
280.3785423336317
 30
0.0
 11
972.4379891025999
 21
280.3785423336317
 31
0.0
  0
LINE
  5
1EB
330
1F
100
AcDbEntity
  8
D-0
  6
Continuous
 62
     3
370
     9
100
AcDbLine
 10
1478.185603232489
 20
280.3785423336317
 30
0.0
 11
1343.185652720452
 21
280.3785423336317
 31
0.0
  0
LINE
  5
1EC
330
1F
100
AcDbEntity
  8
D-5
  6
Continuous
 62
     7
370
     9
100
AcDbLine
 10
1152.950282160014
 20
66.47175814954288
 30
0.0
 11
1349.870403874343
 21
66.47175814954288
 31
0.0
  0
TEXT
  5
1ED
330
1F
100
AcDbEntity
  8
D-5
  6
Continuous
 62
     2
370
     9
100
AcDbText
 10
1155.187396592905
 20
87.11175814954288
 30
0.0
 40
30.48
  1
C-C断面図
 41
1.097222222222219
  7
ＭＳ ゴシック
100
AcDbText
  0
LINE
  5
1EE
330
1F
100
AcDbEntity
  8
D-4
  6
Continuous
 62
     7
370
     9
100
AcDbLine
 10
972.4378426182247
 20
451.1916208146885
 30
0.0
 11
1163.185652720452
 21
451.1916208146885
 31
0.0
  0
LWPOLYLINE
  5
1EF
330
1F
100
AcDbEntity
  8
D-4
  6
Continuous
 62
     7
370
     9
100
AcDbPolyline
 90
        4
 70
     1
 43
1.0
 10
1163.685652720452
 20
451.1916208146885
 42
0.4142135623731
 10
1163.185652720452
 20
451.6916208146885
 42
0.4142135623731
 10
1162.685652720452
 20
451.1916208146885
 42
0.4142135623731
 10
1163.185652720452
 20
450.6916208146885
 42
0.4142135623731
  0
LINE
  5
1F0
330
1F
100
AcDbEntity
  8
D-4
  6
Continuous
 62
     7
370
     9
100
AcDbLine
 10
1163.185652720452
 20
454.1916208146885
 30
0.0
 11
1163.185652720452
 21
368.3862228657262
 31
0.0
  0
TEXT
  5
1F1
330
1F
100
AcDbEntity
  8
D-4
  6
Continuous
 62
     2
370
   211
100
AcDbText
 10
972.4378426182247
 20
462.8316208146885
 30
0.0
 40
30.48
  1
100
 41
1.083333333333333
  7
ＭＳ ゴシック
100
AcDbText
  0
LINE
  5
1F2
330
1F
100
AcDbEntity
  8
D-0
  6
Continuous
 62
     3
370
     9
100
AcDbLine
 10
1493.185652720452
 20
355.3787897734542
 30
0.0
 11
1493.185652720452
 21
280.3785423336317
 31
0.0
  0
LINE
  5
1F3
330
1F
100
AcDbEntity
  8
D-0
  6
Continuous
 62
     3
370
     9
100
AcDbLine
 10
1478.185603232489
 20
355.3787897734542
 30
0.0
 11
1478.185603232489
 21
280.3785423336317
 31
0.0
  0
LINE
  5
1F4
330
1F
100
AcDbEntity
  8
D-0
  6
Continuous
 62
     3
370
     9
100
AcDbLine
 10
1478.185603232489
 20
355.3787897734542
 30
0.0
 11
1493.185652720452
 21
355.3787897734542
 31
0.0
  0
LINE
  5
1F5
330
1F
100
AcDbEntity
  8
D-0
  6
Continuous
 62
     3
370
     9
100
AcDbLine
 10
972.4379891025999
 20
348.3787171911061
 30
0.0
 11
1313.185652720452
 21
348.3787171911061
 31
0.0
  0
LINE
  5
1F6
330
1F
100
AcDbEntity
  8
D-0
  6
Continuous
 62
     3
370
     9
100
AcDbLine
 10
1313.185652720452
 20
355.3787897734542
 30
0.0
 11
972.4379891025999
 21
355.3787897734542
 31
0.0
  0
LINE
  5
1F7
330
1F
100
AcDbEntity
  8
D-0
  6
Continuous
 62
     3
370
     9
100
AcDbLine
 10
1343.185652720452
 20
348.3787171911061
 30
0.0
 11
1478.185603232489
 21
348.3787171911061
 31
0.0
  0
LINE
  5
1F8
330
1F
100
AcDbEntity
  8
D-0
  6
Continuous
 62
     3
370
     9
100
AcDbLine
 10
1478.185603232489
 20
355.3787897734542
 30
0.0
 11
1343.185652720452
 21
355.3787897734542
 31
0.0
  0
LINE
  5
1F9
330
1F
100
AcDbEntity
  8
D-2
  6
Continuous
 62
     3
370
     9
100
AcDbLine
 10
1168.363331009092
 20
302.378872253395
 30
0.0
 11
1175.685199080778
 21
302.378872253395
 31
0.0
  0
LINE
  5
1FA
330
1F
100
AcDbEntity
  8
D-2
  6
Continuous
 62
     3
370
     9
100
AcDbLine
 10
1175.685199080778
 20
309.701482644548
 30
0.0
 11
1175.685199080778
 21
302.378872253395
 31
0.0
  0
LINE
  5
1FB
330
1F
100
AcDbEntity
  8
D-2
  6
Continuous
 62
     3
370
     9
100
AcDbLine
 10
1180.863248529152
 20
314.8787897734542
 30
0.0
 11
1163.185281560718
 21
297.2015651244888
 31
0.0
  0
LINE
  5
1FC
330
1F
100
AcDbEntity
  8
D-2
  6
Continuous
 62
     3
370
     9
100
AcDbLine
 10
1163.185652720452
 20
332.5567567418874
 30
0.0
 11
1180.863248529152
 21
314.8787897734542
 31
0.0
  0
LINE
  5
1FD
330
1F
100
AcDbEntity
  8
D-2
  6
Continuous
 62
     3
370
     9
100
AcDbLine
 10
1175.685199080778
 20
327.3794496129811
 30
0.0
 11
1175.685199080778
 21
320.0572103815622
 31
0.0
  0
LINE
  5
1FE
330
1F
100
AcDbEntity
  8
D-2
  6
Continuous
 62
     3
370
     9
100
AcDbLine
 10
1168.363331009092
 20
327.3794496129811
 30
0.0
 11
1175.685199080778
 21
327.3794496129811
 31
0.0
  0
LINE
  5
1FF
330
1F
100
AcDbEntity
  8
D-2
  6
Continuous
 62
     3
370
     9
100
AcDbLine
 10
1145.507685752019
 20
314.8787897734542
 30
0.0
 11
1163.185652720452
 21
332.5567567418874
 31
0.0
  0
LINE
  5
200
330
1F
100
AcDbEntity
  8
D-2
  6
Continuous
 62
     3
370
     9
100
AcDbLine
 10
1150.685364040659
 20
327.3794496129811
 30
0.0
 11
1158.008345591546
 21
327.3794496129811
 31
0.0
  0
LINE
  5
201
330
1F
100
AcDbEntity
  8
D-2
  6
Continuous
 62
     3
370
     9
100
AcDbLine
 10
1150.685364040659
 20
327.3794496129811
 30
0.0
 11
1150.685364040659
 21
320.0568392218282
 31
0.0
  0
LINE
  5
202
330
1F
100
AcDbEntity
  8
D-2
  6
Continuous
 62
     3
370
     9
100
AcDbLine
 10
1163.185281560718
 20
297.2015651244888
 30
0.0
 11
1145.507685752019
 21
314.8787897734542
 31
0.0
  0
LINE
  5
203
330
1F
100
AcDbEntity
  8
D-2
  6
Continuous
 62
     3
370
     9
100
AcDbLine
 10
1150.685364040659
 20
309.701482644548
 30
0.0
 11
1150.685364040659
 21
302.378872253395
 31
0.0
  0
LINE
  5
204
330
1F
100
AcDbEntity
  8
D-2
  6
Continuous
 62
     3
370
     9
100
AcDbLine
 10
1150.685364040659
 20
302.378872253395
 30
0.0
 11
1158.007603272078
 21
302.378872253395
 31
0.0
  0
LINE
  5
205
330
1F
100
AcDbEntity
  8
D-2
  6
JWW_CENTER1
 62
     3
370
     9
100
AcDbLine
 10
1189.693138599887
 20
314.8787897734542
 30
0.0
 11
1136.677795681284
 21
314.8787897734542
 31
0.0
  0
LINE
  5
206
330
1F
100
AcDbEntity
  8
D-2
  6
JWW_CENTER1
 62
     3
370
     9
100
AcDbLine
 10
1163.185652720452
 20
288.371675053754
 30
0.0
 11
1163.185652720452
 21
341.3870179723561
 31
0.0
  0
LINE
  5
207
330
1F
100
AcDbEntity
  8
D-4
  6
Continuous
 62
     7
370
     9
100
AcDbLine
 10
1154.346483656369
 20
306.0401774489715
 30
0.0
 11
1134.512650149088
 21
290.8211417237534
 31
0.0
  0
LINE
  5
208
330
1F
100
AcDbEntity
  8
D-4
  6
Continuous
 62
     7
370
     9
100
AcDbLine
 10
1154.346483656369
 20
306.0401774489715
 30
0.0
 11
1139.127447931151
 21
286.2063439416907
 31
0.0
  0
LINE
  5
209
330
1F
100
AcDbEntity
  8
D-4
  6
Continuous
 62
     7
370
     9
100
AcDbLine
 10
1154.346483656369
 20
306.0401774489715
 30
0.0
 11
1035.640666393822
 21
187.3343601864249
 31
0.0
  0
LINE
  5
20A
330
1F
100
AcDbEntity
  8
D-4
  6
Continuous
 62
     7
370
     9
100
AcDbLine
 10
1466.497665815755
 20
424.2969722637774
 30
0.0
 11
1297.946230601236
 21
424.2969722637774
 31
0.0
  0
TEXT
  5
20B
330
1F
100
AcDbEntity
  8
D-5
  6
Continuous
 62
     7
370
     9
100
AcDbText
 10
1297.199997053846
 20
433.5269722637775
 30
0.0
 40
22.86
  1
メインバー
 41
1.13333333333333
  7
ＭＳ ゴシック
100
AcDbText
  0
LINE
  5
20C
330
1F
100
AcDbEntity
  8
D-4
  6
Continuous
 62
     7
370
     9
100
AcDbLine
 10
1229.028048110912
 20
355.3787897734542
 30
0.0
 11
1297.946230601236
 21
424.2969722637774
 31
0.0
  0
LINE
  5
20D
330
1F
100
AcDbEntity
  8
D-4
  6
Continuous
 62
     7
370
     9
100
AcDbLine
 10
1229.028048110912
 20
355.3787897734542
 30
0.0
 11
1248.861881618193
 21
370.5978254986723
 31
0.0
  0
LINE
  5
20E
330
1F
100
AcDbEntity
  8
D-4
  6
Continuous
 62
     7
370
     9
100
AcDbLine
 10
1229.028048110912
 20
355.3787897734542
 30
0.0
 11
1244.247083836131
 21
375.2126232807352
 31
0.0
  0
LINE
  5
20F
330
1F
100
AcDbEntity
  8
D-4
  6
Continuous
 62
     7
370
     9
100
AcDbLine
 10
1493.185652720452
 20
355.3787897734542
 30
0.0
 11
1508.404688445671
 21
375.2126232807352
 31
0.0
  0
LINE
  5
210
330
1F
100
AcDbEntity
  8
D-4
  6
Continuous
 62
     7
370
     9
100
AcDbLine
 10
1493.185652720452
 20
355.3787897734542
 30
0.0
 11
1513.019486227734
 21
370.5978254986723
 31
0.0
  0
LINE
  5
211
330
1F
100
AcDbEntity
  8
D-4
  6
Continuous
 62
     7
370
     9
100
AcDbLine
 10
1493.185652720452
 20
355.3787897734542
 30
0.0
 11
1562.103835210776
 21
424.2969722637774
 31
0.0
  0
LINE
  5
212
330
1F
100
AcDbEntity
  8
D-4
  6
Continuous
 62
     7
370
     9
100
AcDbLine
 10
1562.103835210776
 20
424.2969722637774
 30
0.0
 11
1732.149477153251
 21
424.2969722637774
 31
0.0
  0
TEXT
  5
213
330
1F
100
AcDbEntity
  8
D-5
  6
Continuous
 62
     7
370
     9
100
AcDbText
 10
1562.103835210776
 20
433.5269722637775
 30
0.0
 40
22.86
  1
サイドバー
 41
1.133333333333333
  7
ＭＳ ゴシック
100
AcDbText
  0
LINE
  5
214
330
1F
100
AcDbEntity
  8
D-4
  6
Continuous
 62
     7
370
     9
100
AcDbLine
 10
864.3328757729907
 20
187.3343601864249
 30
0.0
 11
1035.640666393822
 21
187.3343601864249
 31
0.0
  0
TEXT
  5
215
330
1F
100
AcDbEntity
  8
D-5
  6
Continuous
 62
     7
370
     9
100
AcDbText
 10
866.3244976781643
 20
196.5643601864249
 30
0.0
 40
22.86
  1
クロスバー
 41
1.133333333333333
  7
ＭＳ ゴシック
100
AcDbText
  0
LINE
  5
216
330
1F
100
AcDbEntity
  8
D-5
  6
Continuous
 62
     7
370
     9
100
AcDbLine
 10
549.2633110770827
 20
-106.224944598471
 30
0.0
 11
1194.893518535122
 21
-106.224944598471
 31
0.0
  0
TEXT
  5
217
330
1F
100
AcDbEntity
  8
D-5
  6
Continuous
 62
     2
370
     9
100
AcDbText
 10
564.2637993583328
 20
-85.58494459847097
 30
0.0
 40
30.48
  1
メインバー詳細図　Ｓ＝１：２
 41
1.116071428571428
  7
ＭＳ ゴシック
100
AcDbText
  0
LINE
  5
218
330
1F
100
AcDbEntity
  8
D-2
  6
Continuous
 62
     3
370
     9
100
AcDbLine
 10
972.4378426182247
 20
254.8237692170207
 30
0.0
 11
972.4378426182247
 21
304.9938440280206
 31
0.0
  0
LINE
  5
219
330
1F
100
AcDbEntity
  8
D-2
  6
Continuous
 62
     3
370
     9
100
AcDbLine
 10
987.4386971104125
 20
324.9949274020443
 30
0.0
 11
972.4378426182247
 21
324.9949274020443
 31
0.0
  0
LINE
  5
21A
330
1F
100
AcDbEntity
  8
D-2
  6
Continuous
 62
     3
370
     9
100
AcDbLine
 10
987.4386971104125
 20
324.9949274020443
 30
0.0
 11
957.4377205479116
 21
304.9938440280206
 31
0.0
  0
LINE
  5
21B
330
1F
100
AcDbEntity
  8
D-2
  6
Continuous
 62
     3
370
     9
100
AcDbLine
 10
972.4378426182247
 20
304.9938440280206
 30
0.0
 11
957.4377205479116
 21
304.9938440280206
 31
0.0
  0
LINE
  5
21C
330
1F
100
AcDbEntity
  8
D-2
  6
Continuous
 62
     3
370
     9
100
AcDbLine
 10
972.4378426182247
 20
324.9949274020443
 30
0.0
 11
972.4378426182247
 21
369.0074426864086
 31
0.0
  0
LINE
  5
21D
330
1F
100
AcDbEntity
  8
D-2
  6
Continuous
 62
     3
370
     9
100
AcDbLine
 10
1313.185652720452
 20
254.8237692170206
 30
0.0
 11
1313.185652720452
 21
304.9938440280206
 31
0.0
  0
LINE
  5
21E
330
1F
100
AcDbEntity
  8
D-2
  6
Continuous
 62
     3
370
     9
100
AcDbLine
 10
1343.185652720452
 20
254.8237692170206
 30
0.0
 11
1343.185652720452
 21
304.9938440280206
 31
0.0
  0
LINE
  5
21F
330
1F
100
AcDbEntity
  8
D-2
  6
Continuous
 62
     3
370
     9
100
AcDbLine
 10
1358.18650721264
 20
324.9949274020443
 30
0.0
 11
1343.185652720452
 21
324.9949274020443
 31
0.0
  0
LINE
  5
220
330
1F
100
AcDbEntity
  8
D-2
  6
Continuous
 62
     3
370
     9
100
AcDbLine
 10
1358.18650721264
 20
324.9949274020443
 30
0.0
 11
1328.185530650139
 21
304.9938440280206
 31
0.0
  0
LINE
  5
221
330
1F
100
AcDbEntity
  8
D-2
  6
Continuous
 62
     3
370
     9
100
AcDbLine
 10
1343.185652720452
 20
304.9938440280206
 30
0.0
 11
1328.185530650139
 21
304.9938440280206
 31
0.0
  0
LINE
  5
222
330
1F
100
AcDbEntity
  8
D-2
  6
Continuous
 62
     3
370
     9
100
AcDbLine
 10
1328.18650721264
 20
324.9949274020443
 30
0.0
 11
1313.185652720452
 21
324.9949274020443
 31
0.0
  0
LINE
  5
223
330
1F
100
AcDbEntity
  8
D-2
  6
Continuous
 62
     3
370
     9
100
AcDbLine
 10
1328.18650721264
 20
324.9949274020443
 30
0.0
 11
1298.185530650139
 21
304.9938440280206
 31
0.0
  0
LINE
  5
224
330
1F
100
AcDbEntity
  8
D-2
  6
Continuous
 62
     3
370
     9
100
AcDbLine
 10
1313.185652720452
 20
304.9938440280206
 30
0.0
 11
1298.185530650139
 21
304.9938440280206
 31
0.0
  0
LINE
  5
225
330
1F
100
AcDbEntity
  8
D-2
  6
Continuous
 62
     3
370
     9
100
AcDbLine
 10
1313.185652720452
 20
324.9949274020443
 30
0.0
 11
1313.185652720452
 21
369.0074426864086
 31
0.0
  0
LINE
  5
226
330
1F
100
AcDbEntity
  8
D-2
  6
Continuous
 62
     3
370
     9
100
AcDbLine
 10
1343.185652720452
 20
324.9949274020443
 30
0.0
 11
1343.185652720452
 21
369.0074426864086
 31
0.0
  0
LINE
  5
227
330
1F
100
AcDbEntity
  8
C-2
  6
Continuous
 62
     3
370
     9
100
AcDbLine
 10
-1042.832395020092
 20
958.5717582449995
 30
0.0
 11
-1042.832395020092
 21
464.5717582449997
 31
0.0
  0
LINE
  5
228
330
1F
100
AcDbEntity
  8
C-2
  6
Continuous
 62
     3
370
     9
100
AcDbLine
 10
-1033.702395020093
 20
958.5717582449995
 30
0.0
 11
-1033.702395020093
 21
464.5717582449997
 31
0.0
  0
LINE
  5
229
330
1F
100
AcDbEntity
  8
C-2
  6
Continuous
 62
     3
370
     9
100
AcDbLine
 10
-1025.702395020093
 20
958.5717582449995
 30
0.0
 11
-1025.702395020093
 21
464.5717582449997
 31
0.0
  0
LINE
  5
22A
330
1F
100
AcDbEntity
  8
C-2
  6
Continuous
 62
     3
370
     9
100
AcDbLine
 10
-552.8323950200925
 20
958.5717582449995
 30
0.0
 11
-1050.832395020093
 21
958.5717582449995
 31
0.0
  0
LINE
  5
22B
330
1F
100
AcDbEntity
  8
C-A
  6
Continuous
 62
     3
370
     9
100
AcDbLine
 10
-1042.832395020092
 20
865.1217582449998
 30
0.0
 11
-1033.702395020093
 21
865.1217582449998
 31
0.0
  0
LINE
  5
22C
330
1F
100
AcDbEntity
  8
C-A
  6
Continuous
 62
     3
370
     9
100
AcDbLine
 10
-1042.832395020092
 20
861.5717582449996
 30
0.0
 11
-1033.702395020093
 21
861.5717582449996
 31
0.0
  0
LINE
  5
22D
330
1F
100
AcDbEntity
  8
C-A
  6
Continuous
 62
     3
370
     9
100
AcDbLine
 10
-1042.832395020092
 20
858.0217582449994
 30
0.0
 11
-1033.702395020093
 21
858.0217582449994
 31
0.0
  0
LINE
  5
22E
330
1F
100
AcDbEntity
  8
C-A
  6
Continuous
 62
     3
370
     9
100
AcDbLine
 10
-1025.702395020093
 20
865.1217582449998
 30
0.0
 11
-1016.822395020092
 21
865.1217582449998
 31
0.0
  0
LINE
  5
22F
330
1F
100
AcDbEntity
  8
C-A
  6
Continuous
 62
     3
370
     9
100
AcDbLine
 10
-1025.702395020093
 20
861.5717582449996
 30
0.0
 11
-1016.822395020092
 21
861.5717582449996
 31
0.0
  0
LINE
  5
230
330
1F
100
AcDbEntity
  8
C-A
  6
Continuous
 62
     3
370
     9
100
AcDbLine
 10
-1025.702395020093
 20
858.0217582449994
 30
0.0
 11
-1016.822395020092
 21
858.0217582449994
 31
0.0
  0
LINE
  5
231
330
1F
100
AcDbEntity
  8
C-A
  6
Continuous
 62
     3
370
     9
100
AcDbLine
 10
-1008.822395020093
 20
865.1217582449998
 30
0.0
 11
-999.9423950200926
 21
865.1217582449998
 31
0.0
  0
LINE
  5
232
330
1F
100
AcDbEntity
  8
C-A
  6
Continuous
 62
     3
370
     9
100
AcDbLine
 10
-1008.822395020093
 20
861.5717582449996
 30
0.0
 11
-999.9423950200926
 21
861.5717582449996
 31
0.0
  0
LINE
  5
233
330
1F
100
AcDbEntity
  8
C-A
  6
Continuous
 62
     3
370
     9
100
AcDbLine
 10
-1008.822395020093
 20
858.0217582449994
 30
0.0
 11
-999.9423950200926
 21
858.0217582449994
 31
0.0
  0
LINE
  5
234
330
1F
100
AcDbEntity
  8
C-A
  6
Continuous
 62
     3
370
     9
100
AcDbLine
 10
-991.9423950200926
 20
865.1217582449998
 30
0.0
 11
-983.0623950200925
 21
865.1217582449998
 31
0.0
  0
LINE
  5
235
330
1F
100
AcDbEntity
  8
C-A
  6
Continuous
 62
     3
370
     9
100
AcDbLine
 10
-991.9423950200926
 20
861.5717582449996
 30
0.0
 11
-983.0623950200925
 21
861.5717582449996
 31
0.0
  0
LINE
  5
236
330
1F
100
AcDbEntity
  8
C-A
  6
Continuous
 62
     3
370
     9
100
AcDbLine
 10
-991.9423950200926
 20
858.0217582449994
 30
0.0
 11
-983.0623950200925
 21
858.0217582449994
 31
0.0
  0
LINE
  5
237
330
1F
100
AcDbEntity
  8
C-A
  6
Continuous
 62
     3
370
     9
100
AcDbLine
 10
-975.0623950200925
 20
865.1217582449998
 30
0.0
 11
-966.1823950200925
 21
865.1217582449998
 31
0.0
  0
LINE
  5
238
330
1F
100
AcDbEntity
  8
C-A
  6
Continuous
 62
     3
370
     9
100
AcDbLine
 10
-975.0623950200925
 20
861.5717582449996
 30
0.0
 11
-966.1823950200925
 21
861.5717582449996
 31
0.0
  0
LINE
  5
239
330
1F
100
AcDbEntity
  8
C-A
  6
Continuous
 62
     3
370
     9
100
AcDbLine
 10
-975.0623950200925
 20
858.0217582449994
 30
0.0
 11
-966.1823950200925
 21
858.0217582449994
 31
0.0
  0
LINE
  5
23A
330
1F
100
AcDbEntity
  8
C-A
  6
Continuous
 62
     3
370
     9
100
AcDbLine
 10
-958.1823950200925
 20
865.1217582449998
 30
0.0
 11
-949.3023950200925
 21
865.1217582449998
 31
0.0
  0
LINE
  5
23B
330
1F
100
AcDbEntity
  8
C-A
  6
Continuous
 62
     3
370
     9
100
AcDbLine
 10
-958.1823950200925
 20
861.5717582449996
 30
0.0
 11
-949.3023950200925
 21
861.5717582449996
 31
0.0
  0
LINE
  5
23C
330
1F
100
AcDbEntity
  8
C-A
  6
Continuous
 62
     3
370
     9
100
AcDbLine
 10
-958.1823950200925
 20
858.0217582449994
 30
0.0
 11
-949.3023950200925
 21
858.0217582449994
 31
0.0
  0
LINE
  5
23D
330
1F
100
AcDbEntity
  8
C-A
  6
Continuous
 62
     3
370
     9
100
AcDbLine
 10
-941.3023950200925
 20
865.1217582449998
 30
0.0
 11
-932.4223950200924
 21
865.1217582449998
 31
0.0
  0
LINE
  5
23E
330
1F
100
AcDbEntity
  8
C-A
  6
Continuous
 62
     3
370
     9
100
AcDbLine
 10
-941.3023950200925
 20
861.5717582449996
 30
0.0
 11
-932.4223950200924
 21
861.5717582449996
 31
0.0
  0
LINE
  5
23F
330
1F
100
AcDbEntity
  8
C-A
  6
Continuous
 62
     3
370
     9
100
AcDbLine
 10
-941.3023950200925
 20
858.0217582449994
 30
0.0
 11
-932.4223950200924
 21
858.0217582449994
 31
0.0
  0
LINE
  5
240
330
1F
100
AcDbEntity
  8
C-A
  6
Continuous
 62
     3
370
     9
100
AcDbLine
 10
-924.4223950200924
 20
865.1217582449998
 30
0.0
 11
-915.5423950200924
 21
865.1217582449998
 31
0.0
  0
LINE
  5
241
330
1F
100
AcDbEntity
  8
C-A
  6
Continuous
 62
     3
370
     9
100
AcDbLine
 10
-924.4223950200924
 20
861.5717582449996
 30
0.0
 11
-915.5423950200924
 21
861.5717582449996
 31
0.0
  0
LINE
  5
242
330
1F
100
AcDbEntity
  8
C-A
  6
Continuous
 62
     3
370
     9
100
AcDbLine
 10
-924.4223950200924
 20
858.0217582449994
 30
0.0
 11
-915.5423950200924
 21
858.0217582449994
 31
0.0
  0
LINE
  5
243
330
1F
100
AcDbEntity
  8
C-A
  6
Continuous
 62
     3
370
     9
100
AcDbLine
 10
-907.5423950200924
 20
865.1217582449998
 30
0.0
 11
-898.6623950200924
 21
865.1217582449998
 31
0.0
  0
LINE
  5
244
330
1F
100
AcDbEntity
  8
C-A
  6
Continuous
 62
     3
370
     9
100
AcDbLine
 10
-907.5423950200924
 20
861.5717582449996
 30
0.0
 11
-898.6623950200924
 21
861.5717582449996
 31
0.0
  0
LINE
  5
245
330
1F
100
AcDbEntity
  8
C-A
  6
Continuous
 62
     3
370
     9
100
AcDbLine
 10
-907.5423950200924
 20
858.0217582449994
 30
0.0
 11
-898.6623950200924
 21
858.0217582449994
 31
0.0
  0
LINE
  5
246
330
1F
100
AcDbEntity
  8
C-A
  6
Continuous
 62
     3
370
     9
100
AcDbLine
 10
-890.6623950200924
 20
865.1217582449998
 30
0.0
 11
-881.7823950200923
 21
865.1217582449998
 31
0.0
  0
LINE
  5
247
330
1F
100
AcDbEntity
  8
C-A
  6
Continuous
 62
     3
370
     9
100
AcDbLine
 10
-890.6623950200924
 20
861.5717582449996
 30
0.0
 11
-881.7823950200923
 21
861.5717582449996
 31
0.0
  0
LINE
  5
248
330
1F
100
AcDbEntity
  8
C-A
  6
Continuous
 62
     3
370
     9
100
AcDbLine
 10
-890.6623950200924
 20
858.0217582449994
 30
0.0
 11
-881.7823950200923
 21
858.0217582449994
 31
0.0
  0
LINE
  5
249
330
1F
100
AcDbEntity
  8
C-A
  6
Continuous
 62
     3
370
     9
100
AcDbLine
 10
-873.7823950200924
 20
865.1217582449998
 30
0.0
 11
-864.9023950200923
 21
865.1217582449998
 31
0.0
  0
LINE
  5
24A
330
1F
100
AcDbEntity
  8
C-A
  6
Continuous
 62
     3
370
     9
100
AcDbLine
 10
-873.7823950200924
 20
861.5717582449996
 30
0.0
 11
-864.9023950200923
 21
861.5717582449996
 31
0.0
  0
LINE
  5
24B
330
1F
100
AcDbEntity
  8
C-A
  6
Continuous
 62
     3
370
     9
100
AcDbLine
 10
-873.7823950200924
 20
858.0217582449994
 30
0.0
 11
-864.9023950200923
 21
858.0217582449994
 31
0.0
  0
LINE
  5
24C
330
1F
100
AcDbEntity
  8
C-A
  6
Continuous
 62
     3
370
     9
100
AcDbLine
 10
-856.9023950200924
 20
865.1217582449998
 30
0.0
 11
-848.0223950200923
 21
865.1217582449998
 31
0.0
  0
LINE
  5
24D
330
1F
100
AcDbEntity
  8
C-A
  6
Continuous
 62
     3
370
     9
100
AcDbLine
 10
-856.9023950200924
 20
861.5717582449996
 30
0.0
 11
-848.0223950200923
 21
861.5717582449996
 31
0.0
  0
LINE
  5
24E
330
1F
100
AcDbEntity
  8
C-A
  6
Continuous
 62
     3
370
     9
100
AcDbLine
 10
-856.9023950200924
 20
858.0217582449994
 30
0.0
 11
-848.0223950200923
 21
858.0217582449994
 31
0.0
  0
LINE
  5
24F
330
1F
100
AcDbEntity
  8
C-A
  6
Continuous
 62
     3
370
     9
100
AcDbLine
 10
-840.0223950200923
 20
865.1217582449998
 30
0.0
 11
-831.1423950200923
 21
865.1217582449998
 31
0.0
  0
LINE
  5
250
330
1F
100
AcDbEntity
  8
C-A
  6
Continuous
 62
     3
370
     9
100
AcDbLine
 10
-840.0223950200923
 20
861.5717582449996
 30
0.0
 11
-831.1423950200923
 21
861.5717582449996
 31
0.0
  0
LINE
  5
251
330
1F
100
AcDbEntity
  8
C-A
  6
Continuous
 62
     3
370
     9
100
AcDbLine
 10
-840.0223950200923
 20
858.0217582449994
 30
0.0
 11
-831.1423950200923
 21
858.0217582449994
 31
0.0
  0
LINE
  5
252
330
1F
100
AcDbEntity
  8
C-A
  6
Continuous
 62
     3
370
     9
100
AcDbLine
 10
-823.1423950200923
 20
865.1217582449998
 30
0.0
 11
-814.2623950200923
 21
865.1217582449998
 31
0.0
  0
LINE
  5
253
330
1F
100
AcDbEntity
  8
C-A
  6
Continuous
 62
     3
370
     9
100
AcDbLine
 10
-823.1423950200923
 20
861.5717582449996
 30
0.0
 11
-814.2623950200923
 21
861.5717582449996
 31
0.0
  0
LINE
  5
254
330
1F
100
AcDbEntity
  8
C-A
  6
Continuous
 62
     3
370
     9
100
AcDbLine
 10
-823.1423950200923
 20
858.0217582449994
 30
0.0
 11
-814.2623950200923
 21
858.0217582449994
 31
0.0
  0
LINE
  5
255
330
1F
100
AcDbEntity
  8
C-A
  6
Continuous
 62
     3
370
     9
100
AcDbLine
 10
-806.2623950200923
 20
865.1217582449998
 30
0.0
 11
-797.3823950200922
 21
865.1217582449998
 31
0.0
  0
LINE
  5
256
330
1F
100
AcDbEntity
  8
C-A
  6
Continuous
 62
     3
370
     9
100
AcDbLine
 10
-806.2623950200923
 20
861.5717582449996
 30
0.0
 11
-797.3823950200922
 21
861.5717582449996
 31
0.0
  0
LINE
  5
257
330
1F
100
AcDbEntity
  8
C-A
  6
Continuous
 62
     3
370
     9
100
AcDbLine
 10
-806.2623950200923
 20
858.0217582449994
 30
0.0
 11
-797.3823950200922
 21
858.0217582449994
 31
0.0
  0
LINE
  5
258
330
1F
100
AcDbEntity
  8
C-A
  6
Continuous
 62
     3
370
     9
100
AcDbLine
 10
-789.3823950200922
 20
865.1217582449998
 30
0.0
 11
-780.5023950200922
 21
865.1217582449998
 31
0.0
  0
LINE
  5
259
330
1F
100
AcDbEntity
  8
C-A
  6
Continuous
 62
     3
370
     9
100
AcDbLine
 10
-789.3823950200922
 20
861.5717582449996
 30
0.0
 11
-780.5023950200922
 21
861.5717582449996
 31
0.0
  0
LINE
  5
25A
330
1F
100
AcDbEntity
  8
C-A
  6
Continuous
 62
     3
370
     9
100
AcDbLine
 10
-789.3823950200922
 20
858.0217582449994
 30
0.0
 11
-780.5023950200922
 21
858.0217582449994
 31
0.0
  0
LINE
  5
25B
330
1F
100
AcDbEntity
  8
C-A
  6
Continuous
 62
     3
370
     9
100
AcDbLine
 10
-772.5023950200922
 20
865.1217582449998
 30
0.0
 11
-763.6223950200922
 21
865.1217582449998
 31
0.0
  0
LINE
  5
25C
330
1F
100
AcDbEntity
  8
C-A
  6
Continuous
 62
     3
370
     9
100
AcDbLine
 10
-772.5023950200922
 20
861.5717582449996
 30
0.0
 11
-763.6223950200922
 21
861.5717582449996
 31
0.0
  0
LINE
  5
25D
330
1F
100
AcDbEntity
  8
C-A
  6
Continuous
 62
     3
370
     9
100
AcDbLine
 10
-772.5023950200922
 20
858.0217582449994
 30
0.0
 11
-763.6223950200922
 21
858.0217582449994
 31
0.0
  0
LINE
  5
25E
330
1F
100
AcDbEntity
  8
C-A
  6
Continuous
 62
     3
370
     9
100
AcDbLine
 10
-755.6223950200922
 20
865.1217582449998
 30
0.0
 11
-746.7423950200921
 21
865.1217582449998
 31
0.0
  0
LINE
  5
25F
330
1F
100
AcDbEntity
  8
C-A
  6
Continuous
 62
     3
370
     9
100
AcDbLine
 10
-755.6223950200922
 20
861.5717582449996
 30
0.0
 11
-746.7423950200921
 21
861.5717582449996
 31
0.0
  0
LINE
  5
260
330
1F
100
AcDbEntity
  8
C-A
  6
Continuous
 62
     3
370
     9
100
AcDbLine
 10
-755.6223950200922
 20
858.0217582449994
 30
0.0
 11
-746.7423950200921
 21
858.0217582449994
 31
0.0
  0
LINE
  5
261
330
1F
100
AcDbEntity
  8
C-A
  6
Continuous
 62
     3
370
     9
100
AcDbLine
 10
-738.7423950200922
 20
865.1217582449998
 30
0.0
 11
-729.8623950200921
 21
865.1217582449998
 31
0.0
  0
LINE
  5
262
330
1F
100
AcDbEntity
  8
C-A
  6
Continuous
 62
     3
370
     9
100
AcDbLine
 10
-738.7423950200922
 20
861.5717582449996
 30
0.0
 11
-729.8623950200921
 21
861.5717582449996
 31
0.0
  0
LINE
  5
263
330
1F
100
AcDbEntity
  8
C-A
  6
Continuous
 62
     3
370
     9
100
AcDbLine
 10
-738.7423950200922
 20
858.0217582449994
 30
0.0
 11
-729.8623950200921
 21
858.0217582449994
 31
0.0
  0
LINE
  5
264
330
1F
100
AcDbEntity
  8
C-A
  6
Continuous
 62
     3
370
     9
100
AcDbLine
 10
-721.8623950200922
 20
865.1217582449998
 30
0.0
 11
-712.9823950200921
 21
865.1217582449998
 31
0.0
  0
LINE
  5
265
330
1F
100
AcDbEntity
  8
C-A
  6
Continuous
 62
     3
370
     9
100
AcDbLine
 10
-721.8623950200922
 20
861.5717582449996
 30
0.0
 11
-712.9823950200921
 21
861.5717582449996
 31
0.0
  0
LINE
  5
266
330
1F
100
AcDbEntity
  8
C-A
  6
Continuous
 62
     3
370
     9
100
AcDbLine
 10
-721.8623950200922
 20
858.0217582449994
 30
0.0
 11
-712.9823950200921
 21
858.0217582449994
 31
0.0
  0
LINE
  5
267
330
1F
100
AcDbEntity
  8
C-A
  6
Continuous
 62
     3
370
     9
100
AcDbLine
 10
-704.9823950200921
 20
865.1217582449998
 30
0.0
 11
-696.1023950200921
 21
865.1217582449998
 31
0.0
  0
LINE
  5
268
330
1F
100
AcDbEntity
  8
C-A
  6
Continuous
 62
     3
370
     9
100
AcDbLine
 10
-704.9823950200921
 20
861.5717582449996
 30
0.0
 11
-696.1023950200921
 21
861.5717582449996
 31
0.0
  0
LINE
  5
269
330
1F
100
AcDbEntity
  8
C-A
  6
Continuous
 62
     3
370
     9
100
AcDbLine
 10
-704.9823950200921
 20
858.0217582449994
 30
0.0
 11
-696.1023950200921
 21
858.0217582449994
 31
0.0
  0
LINE
  5
26A
330
1F
100
AcDbEntity
  8
C-A
  6
Continuous
 62
     3
370
     9
100
AcDbLine
 10
-688.1023950200921
 20
865.1217582449998
 30
0.0
 11
-679.2223950200921
 21
865.1217582449998
 31
0.0
  0
LINE
  5
26B
330
1F
100
AcDbEntity
  8
C-A
  6
Continuous
 62
     3
370
     9
100
AcDbLine
 10
-688.1023950200921
 20
861.5717582449996
 30
0.0
 11
-679.2223950200921
 21
861.5717582449996
 31
0.0
  0
LINE
  5
26C
330
1F
100
AcDbEntity
  8
C-A
  6
Continuous
 62
     3
370
     9
100
AcDbLine
 10
-688.1023950200921
 20
858.0217582449994
 30
0.0
 11
-679.2223950200921
 21
858.0217582449994
 31
0.0
  0
LINE
  5
26D
330
1F
100
AcDbEntity
  8
C-A
  6
Continuous
 62
     3
370
     9
100
AcDbLine
 10
-671.2223950200921
 20
865.1217582449998
 30
0.0
 11
-662.342395020092
 21
865.1217582449998
 31
0.0
  0
LINE
  5
26E
330
1F
100
AcDbEntity
  8
C-A
  6
Continuous
 62
     3
370
     9
100
AcDbLine
 10
-671.2223950200921
 20
861.5717582449996
 30
0.0
 11
-662.342395020092
 21
861.5717582449996
 31
0.0
  0
LINE
  5
26F
330
1F
100
AcDbEntity
  8
C-A
  6
Continuous
 62
     3
370
     9
100
AcDbLine
 10
-671.2223950200921
 20
858.0217582449994
 30
0.0
 11
-662.342395020092
 21
858.0217582449994
 31
0.0
  0
LINE
  5
270
330
1F
100
AcDbEntity
  8
C-A
  6
Continuous
 62
     3
370
     9
100
AcDbLine
 10
-654.342395020092
 20
865.1217582449998
 30
0.0
 11
-645.462395020092
 21
865.1217582449998
 31
0.0
  0
LINE
  5
271
330
1F
100
AcDbEntity
  8
C-A
  6
Continuous
 62
     3
370
     9
100
AcDbLine
 10
-654.342395020092
 20
861.5717582449996
 30
0.0
 11
-645.462395020092
 21
861.5717582449996
 31
0.0
  0
LINE
  5
272
330
1F
100
AcDbEntity
  8
C-A
  6
Continuous
 62
     3
370
     9
100
AcDbLine
 10
-654.342395020092
 20
858.0217582449994
 30
0.0
 11
-645.462395020092
 21
858.0217582449994
 31
0.0
  0
LINE
  5
273
330
1F
100
AcDbEntity
  8
C-A
  6
Continuous
 62
     3
370
     9
100
AcDbLine
 10
-637.462395020092
 20
865.1217582449998
 30
0.0
 11
-628.582395020092
 21
865.1217582449998
 31
0.0
  0
LINE
  5
274
330
1F
100
AcDbEntity
  8
C-A
  6
Continuous
 62
     3
370
     9
100
AcDbLine
 10
-637.462395020092
 20
861.5717582449996
 30
0.0
 11
-628.582395020092
 21
861.5717582449996
 31
0.0
  0
LINE
  5
275
330
1F
100
AcDbEntity
  8
C-A
  6
Continuous
 62
     3
370
     9
100
AcDbLine
 10
-637.462395020092
 20
858.0217582449994
 30
0.0
 11
-628.582395020092
 21
858.0217582449994
 31
0.0
  0
LINE
  5
276
330
1F
100
AcDbEntity
  8
C-A
  6
Continuous
 62
     3
370
     9
100
AcDbLine
 10
-620.582395020092
 20
865.1217582449998
 30
0.0
 11
-611.7023950200919
 21
865.1217582449998
 31
0.0
  0
LINE
  5
277
330
1F
100
AcDbEntity
  8
C-A
  6
Continuous
 62
     3
370
     9
100
AcDbLine
 10
-620.582395020092
 20
861.5717582449996
 30
0.0
 11
-611.7023950200919
 21
861.5717582449996
 31
0.0
  0
LINE
  5
278
330
1F
100
AcDbEntity
  8
C-A
  6
Continuous
 62
     3
370
     9
100
AcDbLine
 10
-620.582395020092
 20
858.0217582449994
 30
0.0
 11
-611.7023950200919
 21
858.0217582449994
 31
0.0
  0
LINE
  5
279
330
1F
100
AcDbEntity
  8
C-A
  6
Continuous
 62
     3
370
     9
100
AcDbLine
 10
-603.702395020092
 20
865.1217582449998
 30
0.0
 11
-594.8223950200919
 21
865.1217582449998
 31
0.0
  0
LINE
  5
27A
330
1F
100
AcDbEntity
  8
C-A
  6
Continuous
 62
     3
370
     9
100
AcDbLine
 10
-603.702395020092
 20
861.5717582449996
 30
0.0
 11
-594.8223950200919
 21
861.5717582449996
 31
0.0
  0
LINE
  5
27B
330
1F
100
AcDbEntity
  8
C-A
  6
Continuous
 62
     3
370
     9
100
AcDbLine
 10
-603.702395020092
 20
858.0217582449994
 30
0.0
 11
-594.8223950200919
 21
858.0217582449994
 31
0.0
  0
LINE
  5
27C
330
1F
100
AcDbEntity
  8
C-A
  6
Continuous
 62
     3
370
     9
100
AcDbLine
 10
-586.822395020092
 20
865.1217582449998
 30
0.0
 11
-577.9423950200919
 21
865.1217582449998
 31
0.0
  0
LINE
  5
27D
330
1F
100
AcDbEntity
  8
C-A
  6
Continuous
 62
     3
370
     9
100
AcDbLine
 10
-586.822395020092
 20
861.5717582449996
 30
0.0
 11
-577.9423950200919
 21
861.5717582449996
 31
0.0
  0
LINE
  5
27E
330
1F
100
AcDbEntity
  8
C-A
  6
Continuous
 62
     3
370
     9
100
AcDbLine
 10
-586.822395020092
 20
858.0217582449994
 30
0.0
 11
-577.9423950200919
 21
858.0217582449994
 31
0.0
  0
LINE
  5
27F
330
1F
100
AcDbEntity
  8
C-A
  6
Continuous
 62
     3
370
     9
100
AcDbLine
 10
-569.9423950200919
 20
865.1217582449998
 30
0.0
 11
-560.8123950200918
 21
865.1217582449998
 31
0.0
  0
LINE
  5
280
330
1F
100
AcDbEntity
  8
C-A
  6
Continuous
 62
     3
370
     9
100
AcDbLine
 10
-569.9423950200919
 20
861.5717582449996
 30
0.0
 11
-560.8123950200918
 21
861.5717582449996
 31
0.0
  0
LINE
  5
281
330
1F
100
AcDbEntity
  8
C-A
  6
Continuous
 62
     3
370
     9
100
AcDbLine
 10
-569.9423950200919
 20
858.0217582449994
 30
0.0
 11
-560.8123950200918
 21
858.0217582449994
 31
0.0
  0
LINE
  5
282
330
1F
100
AcDbEntity
  8
C-A
  6
Continuous
 62
     3
370
     9
100
AcDbLine
 10
-1042.832395020092
 20
765.1217582449998
 30
0.0
 11
-1033.702395020093
 21
765.1217582449998
 31
0.0
  0
LINE
  5
283
330
1F
100
AcDbEntity
  8
C-A
  6
Continuous
 62
     3
370
     9
100
AcDbLine
 10
-1042.832395020092
 20
761.5717582449996
 30
0.0
 11
-1033.702395020093
 21
761.5717582449996
 31
0.0
  0
LINE
  5
284
330
1F
100
AcDbEntity
  8
C-A
  6
Continuous
 62
     3
370
     9
100
AcDbLine
 10
-1042.832395020092
 20
758.0217582449994
 30
0.0
 11
-1033.702395020093
 21
758.0217582449994
 31
0.0
  0
LINE
  5
285
330
1F
100
AcDbEntity
  8
C-A
  6
Continuous
 62
     3
370
     9
100
AcDbLine
 10
-1025.702395020093
 20
765.1217582449998
 30
0.0
 11
-1016.822395020092
 21
765.1217582449998
 31
0.0
  0
LINE
  5
286
330
1F
100
AcDbEntity
  8
C-A
  6
Continuous
 62
     3
370
     9
100
AcDbLine
 10
-1025.702395020093
 20
761.5717582449996
 30
0.0
 11
-1016.822395020092
 21
761.5717582449996
 31
0.0
  0
LINE
  5
287
330
1F
100
AcDbEntity
  8
C-A
  6
Continuous
 62
     3
370
     9
100
AcDbLine
 10
-1025.702395020093
 20
758.0217582449994
 30
0.0
 11
-1016.822395020092
 21
758.0217582449994
 31
0.0
  0
LINE
  5
288
330
1F
100
AcDbEntity
  8
C-A
  6
Continuous
 62
     3
370
     9
100
AcDbLine
 10
-1008.822395020093
 20
765.1217582449998
 30
0.0
 11
-999.9423950200926
 21
765.1217582449998
 31
0.0
  0
LINE
  5
289
330
1F
100
AcDbEntity
  8
C-A
  6
Continuous
 62
     3
370
     9
100
AcDbLine
 10
-1008.822395020093
 20
761.5717582449996
 30
0.0
 11
-999.9423950200926
 21
761.5717582449996
 31
0.0
  0
LINE
  5
28A
330
1F
100
AcDbEntity
  8
C-A
  6
Continuous
 62
     3
370
     9
100
AcDbLine
 10
-1008.822395020093
 20
758.0217582449994
 30
0.0
 11
-999.9423950200926
 21
758.0217582449994
 31
0.0
  0
LINE
  5
28B
330
1F
100
AcDbEntity
  8
C-A
  6
Continuous
 62
     3
370
     9
100
AcDbLine
 10
-991.9423950200926
 20
765.1217582449998
 30
0.0
 11
-983.0623950200925
 21
765.1217582449998
 31
0.0
  0
LINE
  5
28C
330
1F
100
AcDbEntity
  8
C-A
  6
Continuous
 62
     3
370
     9
100
AcDbLine
 10
-991.9423950200926
 20
761.5717582449996
 30
0.0
 11
-983.0623950200925
 21
761.5717582449996
 31
0.0
  0
LINE
  5
28D
330
1F
100
AcDbEntity
  8
C-A
  6
Continuous
 62
     3
370
     9
100
AcDbLine
 10
-991.9423950200926
 20
758.0217582449994
 30
0.0
 11
-983.0623950200925
 21
758.0217582449994
 31
0.0
  0
LINE
  5
28E
330
1F
100
AcDbEntity
  8
C-A
  6
Continuous
 62
     3
370
     9
100
AcDbLine
 10
-975.0623950200925
 20
765.1217582449998
 30
0.0
 11
-966.1823950200925
 21
765.1217582449998
 31
0.0
  0
LINE
  5
28F
330
1F
100
AcDbEntity
  8
C-A
  6
Continuous
 62
     3
370
     9
100
AcDbLine
 10
-975.0623950200925
 20
761.5717582449996
 30
0.0
 11
-966.1823950200925
 21
761.5717582449996
 31
0.0
  0
LINE
  5
290
330
1F
100
AcDbEntity
  8
C-A
  6
Continuous
 62
     3
370
     9
100
AcDbLine
 10
-975.0623950200925
 20
758.0217582449994
 30
0.0
 11
-966.1823950200925
 21
758.0217582449994
 31
0.0
  0
LINE
  5
291
330
1F
100
AcDbEntity
  8
C-A
  6
Continuous
 62
     3
370
     9
100
AcDbLine
 10
-958.1823950200925
 20
765.1217582449998
 30
0.0
 11
-949.3023950200925
 21
765.1217582449998
 31
0.0
  0
LINE
  5
292
330
1F
100
AcDbEntity
  8
C-A
  6
Continuous
 62
     3
370
     9
100
AcDbLine
 10
-958.1823950200925
 20
761.5717582449996
 30
0.0
 11
-949.3023950200925
 21
761.5717582449996
 31
0.0
  0
LINE
  5
293
330
1F
100
AcDbEntity
  8
C-A
  6
Continuous
 62
     3
370
     9
100
AcDbLine
 10
-958.1823950200925
 20
758.0217582449994
 30
0.0
 11
-949.3023950200925
 21
758.0217582449994
 31
0.0
  0
LINE
  5
294
330
1F
100
AcDbEntity
  8
C-A
  6
Continuous
 62
     3
370
     9
100
AcDbLine
 10
-941.3023950200925
 20
765.1217582449998
 30
0.0
 11
-932.4223950200924
 21
765.1217582449998
 31
0.0
  0
LINE
  5
295
330
1F
100
AcDbEntity
  8
C-A
  6
Continuous
 62
     3
370
     9
100
AcDbLine
 10
-941.3023950200925
 20
761.5717582449996
 30
0.0
 11
-932.4223950200924
 21
761.5717582449996
 31
0.0
  0
LINE
  5
296
330
1F
100
AcDbEntity
  8
C-A
  6
Continuous
 62
     3
370
     9
100
AcDbLine
 10
-941.3023950200925
 20
758.0217582449994
 30
0.0
 11
-932.4223950200924
 21
758.0217582449994
 31
0.0
  0
LINE
  5
297
330
1F
100
AcDbEntity
  8
C-A
  6
Continuous
 62
     3
370
     9
100
AcDbLine
 10
-924.4223950200924
 20
765.1217582449998
 30
0.0
 11
-915.5423950200924
 21
765.1217582449998
 31
0.0
  0
LINE
  5
298
330
1F
100
AcDbEntity
  8
C-A
  6
Continuous
 62
     3
370
     9
100
AcDbLine
 10
-924.4223950200924
 20
761.5717582449996
 30
0.0
 11
-915.5423950200924
 21
761.5717582449996
 31
0.0
  0
LINE
  5
299
330
1F
100
AcDbEntity
  8
C-A
  6
Continuous
 62
     3
370
     9
100
AcDbLine
 10
-924.4223950200924
 20
758.0217582449994
 30
0.0
 11
-915.5423950200924
 21
758.0217582449994
 31
0.0
  0
LINE
  5
29A
330
1F
100
AcDbEntity
  8
C-A
  6
Continuous
 62
     3
370
     9
100
AcDbLine
 10
-907.5423950200924
 20
765.1217582449998
 30
0.0
 11
-898.6623950200924
 21
765.1217582449998
 31
0.0
  0
LINE
  5
29B
330
1F
100
AcDbEntity
  8
C-A
  6
Continuous
 62
     3
370
     9
100
AcDbLine
 10
-907.5423950200924
 20
761.5717582449996
 30
0.0
 11
-898.6623950200924
 21
761.5717582449996
 31
0.0
  0
LINE
  5
29C
330
1F
100
AcDbEntity
  8
C-A
  6
Continuous
 62
     3
370
     9
100
AcDbLine
 10
-907.5423950200924
 20
758.0217582449994
 30
0.0
 11
-898.6623950200924
 21
758.0217582449994
 31
0.0
  0
LINE
  5
29D
330
1F
100
AcDbEntity
  8
C-A
  6
Continuous
 62
     3
370
     9
100
AcDbLine
 10
-890.6623950200924
 20
765.1217582449998
 30
0.0
 11
-881.7823950200923
 21
765.1217582449998
 31
0.0
  0
LINE
  5
29E
330
1F
100
AcDbEntity
  8
C-A
  6
Continuous
 62
     3
370
     9
100
AcDbLine
 10
-890.6623950200924
 20
761.5717582449996
 30
0.0
 11
-881.7823950200923
 21
761.5717582449996
 31
0.0
  0
LINE
  5
29F
330
1F
100
AcDbEntity
  8
C-A
  6
Continuous
 62
     3
370
     9
100
AcDbLine
 10
-890.6623950200924
 20
758.0217582449994
 30
0.0
 11
-881.7823950200923
 21
758.0217582449994
 31
0.0
  0
LINE
  5
2A0
330
1F
100
AcDbEntity
  8
C-A
  6
Continuous
 62
     3
370
     9
100
AcDbLine
 10
-873.7823950200924
 20
765.1217582449998
 30
0.0
 11
-864.9023950200923
 21
765.1217582449998
 31
0.0
  0
LINE
  5
2A1
330
1F
100
AcDbEntity
  8
C-A
  6
Continuous
 62
     3
370
     9
100
AcDbLine
 10
-873.7823950200924
 20
761.5717582449996
 30
0.0
 11
-864.9023950200923
 21
761.5717582449996
 31
0.0
  0
LINE
  5
2A2
330
1F
100
AcDbEntity
  8
C-A
  6
Continuous
 62
     3
370
     9
100
AcDbLine
 10
-873.7823950200924
 20
758.0217582449994
 30
0.0
 11
-864.9023950200923
 21
758.0217582449994
 31
0.0
  0
LINE
  5
2A3
330
1F
100
AcDbEntity
  8
C-A
  6
Continuous
 62
     3
370
     9
100
AcDbLine
 10
-856.9023950200924
 20
765.1217582449998
 30
0.0
 11
-848.0223950200923
 21
765.1217582449998
 31
0.0
  0
LINE
  5
2A4
330
1F
100
AcDbEntity
  8
C-A
  6
Continuous
 62
     3
370
     9
100
AcDbLine
 10
-856.9023950200924
 20
761.5717582449996
 30
0.0
 11
-848.0223950200923
 21
761.5717582449996
 31
0.0
  0
LINE
  5
2A5
330
1F
100
AcDbEntity
  8
C-A
  6
Continuous
 62
     3
370
     9
100
AcDbLine
 10
-856.9023950200924
 20
758.0217582449994
 30
0.0
 11
-848.0223950200923
 21
758.0217582449994
 31
0.0
  0
LINE
  5
2A6
330
1F
100
AcDbEntity
  8
C-A
  6
Continuous
 62
     3
370
     9
100
AcDbLine
 10
-840.0223950200923
 20
765.1217582449998
 30
0.0
 11
-831.1423950200923
 21
765.1217582449998
 31
0.0
  0
LINE
  5
2A7
330
1F
100
AcDbEntity
  8
C-A
  6
Continuous
 62
     3
370
     9
100
AcDbLine
 10
-840.0223950200923
 20
761.5717582449996
 30
0.0
 11
-831.1423950200923
 21
761.5717582449996
 31
0.0
  0
LINE
  5
2A8
330
1F
100
AcDbEntity
  8
C-A
  6
Continuous
 62
     3
370
     9
100
AcDbLine
 10
-840.0223950200923
 20
758.0217582449994
 30
0.0
 11
-831.1423950200923
 21
758.0217582449994
 31
0.0
  0
LINE
  5
2A9
330
1F
100
AcDbEntity
  8
C-A
  6
Continuous
 62
     3
370
     9
100
AcDbLine
 10
-823.1423950200923
 20
765.1217582449998
 30
0.0
 11
-814.2623950200923
 21
765.1217582449998
 31
0.0
  0
LINE
  5
2AA
330
1F
100
AcDbEntity
  8
C-A
  6
Continuous
 62
     3
370
     9
100
AcDbLine
 10
-823.1423950200923
 20
761.5717582449996
 30
0.0
 11
-814.2623950200923
 21
761.5717582449996
 31
0.0
  0
LINE
  5
2AB
330
1F
100
AcDbEntity
  8
C-A
  6
Continuous
 62
     3
370
     9
100
AcDbLine
 10
-823.1423950200923
 20
758.0217582449994
 30
0.0
 11
-814.2623950200923
 21
758.0217582449994
 31
0.0
  0
LINE
  5
2AC
330
1F
100
AcDbEntity
  8
C-A
  6
Continuous
 62
     3
370
     9
100
AcDbLine
 10
-806.2623950200923
 20
765.1217582449998
 30
0.0
 11
-797.3823950200922
 21
765.1217582449998
 31
0.0
  0
LINE
  5
2AD
330
1F
100
AcDbEntity
  8
C-A
  6
Continuous
 62
     3
370
     9
100
AcDbLine
 10
-806.2623950200923
 20
761.5717582449996
 30
0.0
 11
-797.3823950200922
 21
761.5717582449996
 31
0.0
  0
LINE
  5
2AE
330
1F
100
AcDbEntity
  8
C-A
  6
Continuous
 62
     3
370
     9
100
AcDbLine
 10
-806.2623950200923
 20
758.0217582449994
 30
0.0
 11
-797.3823950200922
 21
758.0217582449994
 31
0.0
  0
LINE
  5
2AF
330
1F
100
AcDbEntity
  8
C-A
  6
Continuous
 62
     3
370
     9
100
AcDbLine
 10
-789.3823950200922
 20
765.1217582449998
 30
0.0
 11
-780.5023950200922
 21
765.1217582449998
 31
0.0
  0
LINE
  5
2B0
330
1F
100
AcDbEntity
  8
C-A
  6
Continuous
 62
     3
370
     9
100
AcDbLine
 10
-789.3823950200922
 20
761.5717582449996
 30
0.0
 11
-780.5023950200922
 21
761.5717582449996
 31
0.0
  0
LINE
  5
2B1
330
1F
100
AcDbEntity
  8
C-A
  6
Continuous
 62
     3
370
     9
100
AcDbLine
 10
-789.3823950200922
 20
758.0217582449994
 30
0.0
 11
-780.5023950200922
 21
758.0217582449994
 31
0.0
  0
LINE
  5
2B2
330
1F
100
AcDbEntity
  8
C-A
  6
Continuous
 62
     3
370
     9
100
AcDbLine
 10
-772.5023950200922
 20
765.1217582449998
 30
0.0
 11
-763.6223950200922
 21
765.1217582449998
 31
0.0
  0
LINE
  5
2B3
330
1F
100
AcDbEntity
  8
C-A
  6
Continuous
 62
     3
370
     9
100
AcDbLine
 10
-772.5023950200922
 20
761.5717582449996
 30
0.0
 11
-763.6223950200922
 21
761.5717582449996
 31
0.0
  0
LINE
  5
2B4
330
1F
100
AcDbEntity
  8
C-A
  6
Continuous
 62
     3
370
     9
100
AcDbLine
 10
-772.5023950200922
 20
758.0217582449994
 30
0.0
 11
-763.6223950200922
 21
758.0217582449994
 31
0.0
  0
LINE
  5
2B5
330
1F
100
AcDbEntity
  8
C-A
  6
Continuous
 62
     3
370
     9
100
AcDbLine
 10
-755.6223950200922
 20
765.1217582449998
 30
0.0
 11
-746.7423950200921
 21
765.1217582449998
 31
0.0
  0
LINE
  5
2B6
330
1F
100
AcDbEntity
  8
C-A
  6
Continuous
 62
     3
370
     9
100
AcDbLine
 10
-755.6223950200922
 20
761.5717582449996
 30
0.0
 11
-746.7423950200921
 21
761.5717582449996
 31
0.0
  0
LINE
  5
2B7
330
1F
100
AcDbEntity
  8
C-A
  6
Continuous
 62
     3
370
     9
100
AcDbLine
 10
-755.6223950200922
 20
758.0217582449994
 30
0.0
 11
-746.7423950200921
 21
758.0217582449994
 31
0.0
  0
LINE
  5
2B8
330
1F
100
AcDbEntity
  8
C-A
  6
Continuous
 62
     3
370
     9
100
AcDbLine
 10
-738.7423950200922
 20
765.1217582449998
 30
0.0
 11
-729.8623950200921
 21
765.1217582449998
 31
0.0
  0
LINE
  5
2B9
330
1F
100
AcDbEntity
  8
C-A
  6
Continuous
 62
     3
370
     9
100
AcDbLine
 10
-738.7423950200922
 20
761.5717582449996
 30
0.0
 11
-729.8623950200921
 21
761.5717582449996
 31
0.0
  0
LINE
  5
2BA
330
1F
100
AcDbEntity
  8
C-A
  6
Continuous
 62
     3
370
     9
100
AcDbLine
 10
-738.7423950200922
 20
758.0217582449994
 30
0.0
 11
-729.8623950200921
 21
758.0217582449994
 31
0.0
  0
LINE
  5
2BB
330
1F
100
AcDbEntity
  8
C-A
  6
Continuous
 62
     3
370
     9
100
AcDbLine
 10
-721.8623950200922
 20
765.1217582449998
 30
0.0
 11
-712.9823950200921
 21
765.1217582449998
 31
0.0
  0
LINE
  5
2BC
330
1F
100
AcDbEntity
  8
C-A
  6
Continuous
 62
     3
370
     9
100
AcDbLine
 10
-721.8623950200922
 20
761.5717582449996
 30
0.0
 11
-712.9823950200921
 21
761.5717582449996
 31
0.0
  0
LINE
  5
2BD
330
1F
100
AcDbEntity
  8
C-A
  6
Continuous
 62
     3
370
     9
100
AcDbLine
 10
-721.8623950200922
 20
758.0217582449994
 30
0.0
 11
-712.9823950200921
 21
758.0217582449994
 31
0.0
  0
LINE
  5
2BE
330
1F
100
AcDbEntity
  8
C-A
  6
Continuous
 62
     3
370
     9
100
AcDbLine
 10
-704.9823950200921
 20
765.1217582449998
 30
0.0
 11
-696.1023950200921
 21
765.1217582449998
 31
0.0
  0
LINE
  5
2BF
330
1F
100
AcDbEntity
  8
C-A
  6
Continuous
 62
     3
370
     9
100
AcDbLine
 10
-704.9823950200921
 20
761.5717582449996
 30
0.0
 11
-696.1023950200921
 21
761.5717582449996
 31
0.0
  0
LINE
  5
2C0
330
1F
100
AcDbEntity
  8
C-A
  6
Continuous
 62
     3
370
     9
100
AcDbLine
 10
-704.9823950200921
 20
758.0217582449994
 30
0.0
 11
-696.1023950200921
 21
758.0217582449994
 31
0.0
  0
LINE
  5
2C1
330
1F
100
AcDbEntity
  8
C-A
  6
Continuous
 62
     3
370
     9
100
AcDbLine
 10
-688.1023950200921
 20
765.1217582449998
 30
0.0
 11
-679.2223950200921
 21
765.1217582449998
 31
0.0
  0
LINE
  5
2C2
330
1F
100
AcDbEntity
  8
C-A
  6
Continuous
 62
     3
370
     9
100
AcDbLine
 10
-688.1023950200921
 20
761.5717582449996
 30
0.0
 11
-679.2223950200921
 21
761.5717582449996
 31
0.0
  0
LINE
  5
2C3
330
1F
100
AcDbEntity
  8
C-A
  6
Continuous
 62
     3
370
     9
100
AcDbLine
 10
-688.1023950200921
 20
758.0217582449994
 30
0.0
 11
-679.2223950200921
 21
758.0217582449994
 31
0.0
  0
LINE
  5
2C4
330
1F
100
AcDbEntity
  8
C-A
  6
Continuous
 62
     3
370
     9
100
AcDbLine
 10
-671.2223950200921
 20
765.1217582449998
 30
0.0
 11
-662.342395020092
 21
765.1217582449998
 31
0.0
  0
LINE
  5
2C5
330
1F
100
AcDbEntity
  8
C-A
  6
Continuous
 62
     3
370
     9
100
AcDbLine
 10
-671.2223950200921
 20
761.5717582449996
 30
0.0
 11
-662.342395020092
 21
761.5717582449996
 31
0.0
  0
LINE
  5
2C6
330
1F
100
AcDbEntity
  8
C-A
  6
Continuous
 62
     3
370
     9
100
AcDbLine
 10
-671.2223950200921
 20
758.0217582449994
 30
0.0
 11
-662.342395020092
 21
758.0217582449994
 31
0.0
  0
LINE
  5
2C7
330
1F
100
AcDbEntity
  8
C-A
  6
Continuous
 62
     3
370
     9
100
AcDbLine
 10
-1042.832395020092
 20
665.1217582449998
 30
0.0
 11
-1033.702395020093
 21
665.1217582449998
 31
0.0
  0
LINE
  5
2C8
330
1F
100
AcDbEntity
  8
C-A
  6
Continuous
 62
     3
370
     9
100
AcDbLine
 10
-1042.832395020092
 20
661.5717582449996
 30
0.0
 11
-1033.702395020093
 21
661.5717582449996
 31
0.0
  0
LINE
  5
2C9
330
1F
100
AcDbEntity
  8
C-A
  6
Continuous
 62
     3
370
     9
100
AcDbLine
 10
-1042.832395020092
 20
658.0217582449994
 30
0.0
 11
-1033.702395020093
 21
658.0217582449994
 31
0.0
  0
LINE
  5
2CA
330
1F
100
AcDbEntity
  8
C-A
  6
Continuous
 62
     3
370
     9
100
AcDbLine
 10
-1025.702395020093
 20
665.1217582449998
 30
0.0
 11
-1016.822395020092
 21
665.1217582449998
 31
0.0
  0
LINE
  5
2CB
330
1F
100
AcDbEntity
  8
C-A
  6
Continuous
 62
     3
370
     9
100
AcDbLine
 10
-1025.702395020093
 20
661.5717582449996
 30
0.0
 11
-1016.822395020092
 21
661.5717582449996
 31
0.0
  0
LINE
  5
2CC
330
1F
100
AcDbEntity
  8
C-A
  6
Continuous
 62
     3
370
     9
100
AcDbLine
 10
-1025.702395020093
 20
658.0217582449994
 30
0.0
 11
-1016.822395020092
 21
658.0217582449994
 31
0.0
  0
LINE
  5
2CD
330
1F
100
AcDbEntity
  8
C-A
  6
Continuous
 62
     3
370
     9
100
AcDbLine
 10
-1008.822395020093
 20
665.1217582449998
 30
0.0
 11
-999.9423950200926
 21
665.1217582449998
 31
0.0
  0
LINE
  5
2CE
330
1F
100
AcDbEntity
  8
C-A
  6
Continuous
 62
     3
370
     9
100
AcDbLine
 10
-1008.822395020093
 20
661.5717582449996
 30
0.0
 11
-999.9423950200926
 21
661.5717582449996
 31
0.0
  0
LINE
  5
2CF
330
1F
100
AcDbEntity
  8
C-A
  6
Continuous
 62
     3
370
     9
100
AcDbLine
 10
-1008.822395020093
 20
658.0217582449994
 30
0.0
 11
-999.9423950200926
 21
658.0217582449994
 31
0.0
  0
LINE
  5
2D0
330
1F
100
AcDbEntity
  8
C-A
  6
Continuous
 62
     3
370
     9
100
AcDbLine
 10
-991.9423950200926
 20
665.1217582449998
 30
0.0
 11
-983.0623950200925
 21
665.1217582449998
 31
0.0
  0
LINE
  5
2D1
330
1F
100
AcDbEntity
  8
C-A
  6
Continuous
 62
     3
370
     9
100
AcDbLine
 10
-991.9423950200926
 20
661.5717582449996
 30
0.0
 11
-983.0623950200925
 21
661.5717582449996
 31
0.0
  0
LINE
  5
2D2
330
1F
100
AcDbEntity
  8
C-A
  6
Continuous
 62
     3
370
     9
100
AcDbLine
 10
-991.9423950200926
 20
658.0217582449994
 30
0.0
 11
-983.0623950200925
 21
658.0217582449994
 31
0.0
  0
LINE
  5
2D3
330
1F
100
AcDbEntity
  8
C-A
  6
Continuous
 62
     3
370
     9
100
AcDbLine
 10
-975.0623950200925
 20
665.1217582449998
 30
0.0
 11
-966.1823950200925
 21
665.1217582449998
 31
0.0
  0
LINE
  5
2D4
330
1F
100
AcDbEntity
  8
C-A
  6
Continuous
 62
     3
370
     9
100
AcDbLine
 10
-975.0623950200925
 20
661.5717582449996
 30
0.0
 11
-966.1823950200925
 21
661.5717582449996
 31
0.0
  0
LINE
  5
2D5
330
1F
100
AcDbEntity
  8
C-A
  6
Continuous
 62
     3
370
     9
100
AcDbLine
 10
-975.0623950200925
 20
658.0217582449994
 30
0.0
 11
-966.1823950200925
 21
658.0217582449994
 31
0.0
  0
LINE
  5
2D6
330
1F
100
AcDbEntity
  8
C-A
  6
Continuous
 62
     3
370
     9
100
AcDbLine
 10
-958.1823950200925
 20
665.1217582449998
 30
0.0
 11
-949.3023950200925
 21
665.1217582449998
 31
0.0
  0
LINE
  5
2D7
330
1F
100
AcDbEntity
  8
C-A
  6
Continuous
 62
     3
370
     9
100
AcDbLine
 10
-958.1823950200925
 20
661.5717582449996
 30
0.0
 11
-949.3023950200925
 21
661.5717582449996
 31
0.0
  0
LINE
  5
2D8
330
1F
100
AcDbEntity
  8
C-A
  6
Continuous
 62
     3
370
     9
100
AcDbLine
 10
-958.1823950200925
 20
658.0217582449994
 30
0.0
 11
-949.3023950200925
 21
658.0217582449994
 31
0.0
  0
LINE
  5
2D9
330
1F
100
AcDbEntity
  8
C-A
  6
Continuous
 62
     3
370
     9
100
AcDbLine
 10
-941.3023950200925
 20
665.1217582449998
 30
0.0
 11
-932.4223950200924
 21
665.1217582449998
 31
0.0
  0
LINE
  5
2DA
330
1F
100
AcDbEntity
  8
C-A
  6
Continuous
 62
     3
370
     9
100
AcDbLine
 10
-941.3023950200925
 20
661.5717582449996
 30
0.0
 11
-932.4223950200924
 21
661.5717582449996
 31
0.0
  0
LINE
  5
2DB
330
1F
100
AcDbEntity
  8
C-A
  6
Continuous
 62
     3
370
     9
100
AcDbLine
 10
-941.3023950200925
 20
658.0217582449994
 30
0.0
 11
-932.4223950200924
 21
658.0217582449994
 31
0.0
  0
LINE
  5
2DC
330
1F
100
AcDbEntity
  8
C-A
  6
Continuous
 62
     3
370
     9
100
AcDbLine
 10
-924.4223950200924
 20
665.1217582449998
 30
0.0
 11
-915.5423950200924
 21
665.1217582449998
 31
0.0
  0
LINE
  5
2DD
330
1F
100
AcDbEntity
  8
C-A
  6
Continuous
 62
     3
370
     9
100
AcDbLine
 10
-924.4223950200924
 20
661.5717582449996
 30
0.0
 11
-915.5423950200924
 21
661.5717582449996
 31
0.0
  0
LINE
  5
2DE
330
1F
100
AcDbEntity
  8
C-A
  6
Continuous
 62
     3
370
     9
100
AcDbLine
 10
-924.4223950200924
 20
658.0217582449994
 30
0.0
 11
-915.5423950200924
 21
658.0217582449994
 31
0.0
  0
LINE
  5
2DF
330
1F
100
AcDbEntity
  8
C-A
  6
Continuous
 62
     3
370
     9
100
AcDbLine
 10
-907.5423950200924
 20
665.1217582449998
 30
0.0
 11
-898.6623950200924
 21
665.1217582449998
 31
0.0
  0
LINE
  5
2E0
330
1F
100
AcDbEntity
  8
C-A
  6
Continuous
 62
     3
370
     9
100
AcDbLine
 10
-907.5423950200924
 20
661.5717582449996
 30
0.0
 11
-898.6623950200924
 21
661.5717582449996
 31
0.0
  0
LINE
  5
2E1
330
1F
100
AcDbEntity
  8
C-A
  6
Continuous
 62
     3
370
     9
100
AcDbLine
 10
-907.5423950200924
 20
658.0217582449994
 30
0.0
 11
-898.6623950200924
 21
658.0217582449994
 31
0.0
  0
LINE
  5
2E2
330
1F
100
AcDbEntity
  8
C-A
  6
Continuous
 62
     3
370
     9
100
AcDbLine
 10
-890.6623950200924
 20
665.1217582449998
 30
0.0
 11
-881.7823950200923
 21
665.1217582449998
 31
0.0
  0
LINE
  5
2E3
330
1F
100
AcDbEntity
  8
C-A
  6
Continuous
 62
     3
370
     9
100
AcDbLine
 10
-890.6623950200924
 20
661.5717582449996
 30
0.0
 11
-881.7823950200923
 21
661.5717582449996
 31
0.0
  0
LINE
  5
2E4
330
1F
100
AcDbEntity
  8
C-A
  6
Continuous
 62
     3
370
     9
100
AcDbLine
 10
-890.6623950200924
 20
658.0217582449994
 30
0.0
 11
-881.7823950200923
 21
658.0217582449994
 31
0.0
  0
LINE
  5
2E5
330
1F
100
AcDbEntity
  8
C-A
  6
Continuous
 62
     3
370
     9
100
AcDbLine
 10
-873.7823950200924
 20
665.1217582449998
 30
0.0
 11
-864.9023950200923
 21
665.1217582449998
 31
0.0
  0
LINE
  5
2E6
330
1F
100
AcDbEntity
  8
C-A
  6
Continuous
 62
     3
370
     9
100
AcDbLine
 10
-873.7823950200924
 20
661.5717582449996
 30
0.0
 11
-864.9023950200923
 21
661.5717582449996
 31
0.0
  0
LINE
  5
2E7
330
1F
100
AcDbEntity
  8
C-A
  6
Continuous
 62
     3
370
     9
100
AcDbLine
 10
-873.7823950200924
 20
658.0217582449994
 30
0.0
 11
-864.9023950200923
 21
658.0217582449994
 31
0.0
  0
LINE
  5
2E8
330
1F
100
AcDbEntity
  8
C-A
  6
Continuous
 62
     3
370
     9
100
AcDbLine
 10
-856.9023950200924
 20
665.1217582449998
 30
0.0
 11
-848.0223950200923
 21
665.1217582449998
 31
0.0
  0
LINE
  5
2E9
330
1F
100
AcDbEntity
  8
C-A
  6
Continuous
 62
     3
370
     9
100
AcDbLine
 10
-856.9023950200924
 20
661.5717582449996
 30
0.0
 11
-848.0223950200923
 21
661.5717582449996
 31
0.0
  0
LINE
  5
2EA
330
1F
100
AcDbEntity
  8
C-A
  6
Continuous
 62
     3
370
     9
100
AcDbLine
 10
-856.9023950200924
 20
658.0217582449994
 30
0.0
 11
-848.0223950200923
 21
658.0217582449994
 31
0.0
  0
LINE
  5
2EB
330
1F
100
AcDbEntity
  8
C-A
  6
Continuous
 62
     3
370
     9
100
AcDbLine
 10
-840.0223950200923
 20
665.1217582449998
 30
0.0
 11
-831.1423950200923
 21
665.1217582449998
 31
0.0
  0
LINE
  5
2EC
330
1F
100
AcDbEntity
  8
C-A
  6
Continuous
 62
     3
370
     9
100
AcDbLine
 10
-840.0223950200923
 20
661.5717582449996
 30
0.0
 11
-831.1423950200923
 21
661.5717582449996
 31
0.0
  0
LINE
  5
2ED
330
1F
100
AcDbEntity
  8
C-A
  6
Continuous
 62
     3
370
     9
100
AcDbLine
 10
-840.0223950200923
 20
658.0217582449994
 30
0.0
 11
-831.1423950200923
 21
658.0217582449994
 31
0.0
  0
LINE
  5
2EE
330
1F
100
AcDbEntity
  8
C-A
  6
Continuous
 62
     3
370
     9
100
AcDbLine
 10
-823.1423950200923
 20
665.1217582449998
 30
0.0
 11
-814.2623950200923
 21
665.1217582449998
 31
0.0
  0
LINE
  5
2EF
330
1F
100
AcDbEntity
  8
C-A
  6
Continuous
 62
     3
370
     9
100
AcDbLine
 10
-823.1423950200923
 20
661.5717582449996
 30
0.0
 11
-814.2623950200923
 21
661.5717582449996
 31
0.0
  0
LINE
  5
2F0
330
1F
100
AcDbEntity
  8
C-A
  6
Continuous
 62
     3
370
     9
100
AcDbLine
 10
-823.1423950200923
 20
658.0217582449994
 30
0.0
 11
-814.2623950200923
 21
658.0217582449994
 31
0.0
  0
LINE
  5
2F1
330
1F
100
AcDbEntity
  8
C-A
  6
Continuous
 62
     3
370
     9
100
AcDbLine
 10
-806.2623950200923
 20
665.1217582449998
 30
0.0
 11
-797.3823950200922
 21
665.1217582449998
 31
0.0
  0
LINE
  5
2F2
330
1F
100
AcDbEntity
  8
C-A
  6
Continuous
 62
     3
370
     9
100
AcDbLine
 10
-806.2623950200923
 20
661.5717582449996
 30
0.0
 11
-797.3823950200922
 21
661.5717582449996
 31
0.0
  0
LINE
  5
2F3
330
1F
100
AcDbEntity
  8
C-A
  6
Continuous
 62
     3
370
     9
100
AcDbLine
 10
-806.2623950200923
 20
658.0217582449994
 30
0.0
 11
-797.3823950200922
 21
658.0217582449994
 31
0.0
  0
LINE
  5
2F4
330
1F
100
AcDbEntity
  8
C-A
  6
Continuous
 62
     3
370
     9
100
AcDbLine
 10
-789.3823950200922
 20
665.1217582449998
 30
0.0
 11
-780.5023950200922
 21
665.1217582449998
 31
0.0
  0
LINE
  5
2F5
330
1F
100
AcDbEntity
  8
C-A
  6
Continuous
 62
     3
370
     9
100
AcDbLine
 10
-789.3823950200922
 20
661.5717582449996
 30
0.0
 11
-780.5023950200922
 21
661.5717582449996
 31
0.0
  0
LINE
  5
2F6
330
1F
100
AcDbEntity
  8
C-A
  6
Continuous
 62
     3
370
     9
100
AcDbLine
 10
-789.3823950200922
 20
658.0217582449994
 30
0.0
 11
-780.5023950200922
 21
658.0217582449994
 31
0.0
  0
LINE
  5
2F7
330
1F
100
AcDbEntity
  8
C-A
  6
Continuous
 62
     3
370
     9
100
AcDbLine
 10
-772.5023950200922
 20
665.1217582449998
 30
0.0
 11
-763.6223950200922
 21
665.1217582449998
 31
0.0
  0
LINE
  5
2F8
330
1F
100
AcDbEntity
  8
C-A
  6
Continuous
 62
     3
370
     9
100
AcDbLine
 10
-772.5023950200922
 20
661.5717582449996
 30
0.0
 11
-763.6223950200922
 21
661.5717582449996
 31
0.0
  0
LINE
  5
2F9
330
1F
100
AcDbEntity
  8
C-A
  6
Continuous
 62
     3
370
     9
100
AcDbLine
 10
-772.5023950200922
 20
658.0217582449994
 30
0.0
 11
-763.6223950200922
 21
658.0217582449994
 31
0.0
  0
LINE
  5
2FA
330
1F
100
AcDbEntity
  8
C-A
  6
Continuous
 62
     3
370
     9
100
AcDbLine
 10
-1042.832395020092
 20
565.1217582449998
 30
0.0
 11
-1033.702395020093
 21
565.1217582449998
 31
0.0
  0
LINE
  5
2FB
330
1F
100
AcDbEntity
  8
C-A
  6
Continuous
 62
     3
370
     9
100
AcDbLine
 10
-1042.832395020092
 20
561.5717582449996
 30
0.0
 11
-1033.702395020093
 21
561.5717582449996
 31
0.0
  0
LINE
  5
2FC
330
1F
100
AcDbEntity
  8
C-A
  6
Continuous
 62
     3
370
     9
100
AcDbLine
 10
-1042.832395020092
 20
558.0217582449994
 30
0.0
 11
-1033.702395020093
 21
558.0217582449994
 31
0.0
  0
LINE
  5
2FD
330
1F
100
AcDbEntity
  8
C-A
  6
Continuous
 62
     3
370
     9
100
AcDbLine
 10
-1025.702395020093
 20
565.1217582449998
 30
0.0
 11
-1016.822395020092
 21
565.1217582449998
 31
0.0
  0
LINE
  5
2FE
330
1F
100
AcDbEntity
  8
C-A
  6
Continuous
 62
     3
370
     9
100
AcDbLine
 10
-1025.702395020093
 20
561.5717582449996
 30
0.0
 11
-1016.822395020092
 21
561.5717582449996
 31
0.0
  0
LINE
  5
2FF
330
1F
100
AcDbEntity
  8
C-A
  6
Continuous
 62
     3
370
     9
100
AcDbLine
 10
-1025.702395020093
 20
558.0217582449994
 30
0.0
 11
-1016.822395020092
 21
558.0217582449994
 31
0.0
  0
LINE
  5
300
330
1F
100
AcDbEntity
  8
C-A
  6
Continuous
 62
     3
370
     9
100
AcDbLine
 10
-1008.822395020093
 20
565.1217582449998
 30
0.0
 11
-999.9423950200926
 21
565.1217582449998
 31
0.0
  0
LINE
  5
301
330
1F
100
AcDbEntity
  8
C-A
  6
Continuous
 62
     3
370
     9
100
AcDbLine
 10
-1008.822395020093
 20
561.5717582449996
 30
0.0
 11
-999.9423950200926
 21
561.5717582449996
 31
0.0
  0
LINE
  5
302
330
1F
100
AcDbEntity
  8
C-A
  6
Continuous
 62
     3
370
     9
100
AcDbLine
 10
-1008.822395020093
 20
558.0217582449994
 30
0.0
 11
-999.9423950200926
 21
558.0217582449994
 31
0.0
  0
LINE
  5
303
330
1F
100
AcDbEntity
  8
C-A
  6
Continuous
 62
     3
370
     9
100
AcDbLine
 10
-991.9423950200926
 20
565.1217582449998
 30
0.0
 11
-983.0623950200925
 21
565.1217582449998
 31
0.0
  0
LINE
  5
304
330
1F
100
AcDbEntity
  8
C-A
  6
Continuous
 62
     3
370
     9
100
AcDbLine
 10
-991.9423950200926
 20
561.5717582449996
 30
0.0
 11
-983.0623950200925
 21
561.5717582449996
 31
0.0
  0
LINE
  5
305
330
1F
100
AcDbEntity
  8
C-A
  6
Continuous
 62
     3
370
     9
100
AcDbLine
 10
-991.9423950200926
 20
558.0217582449994
 30
0.0
 11
-983.0623950200925
 21
558.0217582449994
 31
0.0
  0
LINE
  5
306
330
1F
100
AcDbEntity
  8
C-A
  6
Continuous
 62
     3
370
     9
100
AcDbLine
 10
-975.0623950200925
 20
565.1217582449998
 30
0.0
 11
-966.1823950200925
 21
565.1217582449998
 31
0.0
  0
LINE
  5
307
330
1F
100
AcDbEntity
  8
C-A
  6
Continuous
 62
     3
370
     9
100
AcDbLine
 10
-975.0623950200925
 20
561.5717582449996
 30
0.0
 11
-966.1823950200925
 21
561.5717582449996
 31
0.0
  0
LINE
  5
308
330
1F
100
AcDbEntity
  8
C-A
  6
Continuous
 62
     3
370
     9
100
AcDbLine
 10
-975.0623950200925
 20
558.0217582449994
 30
0.0
 11
-966.1823950200925
 21
558.0217582449994
 31
0.0
  0
LINE
  5
309
330
1F
100
AcDbEntity
  8
C-A
  6
Continuous
 62
     3
370
     9
100
AcDbLine
 10
-958.1823950200925
 20
565.1217582449998
 30
0.0
 11
-949.3023950200925
 21
565.1217582449998
 31
0.0
  0
LINE
  5
30A
330
1F
100
AcDbEntity
  8
C-A
  6
Continuous
 62
     3
370
     9
100
AcDbLine
 10
-958.1823950200925
 20
561.5717582449996
 30
0.0
 11
-949.3023950200925
 21
561.5717582449996
 31
0.0
  0
LINE
  5
30B
330
1F
100
AcDbEntity
  8
C-A
  6
Continuous
 62
     3
370
     9
100
AcDbLine
 10
-958.1823950200925
 20
558.0217582449994
 30
0.0
 11
-949.3023950200925
 21
558.0217582449994
 31
0.0
  0
LINE
  5
30C
330
1F
100
AcDbEntity
  8
C-A
  6
Continuous
 62
     3
370
     9
100
AcDbLine
 10
-941.3023950200925
 20
565.1217582449998
 30
0.0
 11
-932.4223950200924
 21
565.1217582449998
 31
0.0
  0
LINE
  5
30D
330
1F
100
AcDbEntity
  8
C-A
  6
Continuous
 62
     3
370
     9
100
AcDbLine
 10
-941.3023950200925
 20
561.5717582449996
 30
0.0
 11
-932.4223950200924
 21
561.5717582449996
 31
0.0
  0
LINE
  5
30E
330
1F
100
AcDbEntity
  8
C-A
  6
Continuous
 62
     3
370
     9
100
AcDbLine
 10
-941.3023950200925
 20
558.0217582449994
 30
0.0
 11
-932.4223950200924
 21
558.0217582449994
 31
0.0
  0
LINE
  5
30F
330
1F
100
AcDbEntity
  8
C-A
  6
Continuous
 62
     3
370
     9
100
AcDbLine
 10
-924.4223950200924
 20
565.1217582449998
 30
0.0
 11
-915.5423950200924
 21
565.1217582449998
 31
0.0
  0
LINE
  5
310
330
1F
100
AcDbEntity
  8
C-A
  6
Continuous
 62
     3
370
     9
100
AcDbLine
 10
-924.4223950200924
 20
561.5717582449996
 30
0.0
 11
-915.5423950200924
 21
561.5717582449996
 31
0.0
  0
LINE
  5
311
330
1F
100
AcDbEntity
  8
C-A
  6
Continuous
 62
     3
370
     9
100
AcDbLine
 10
-924.4223950200924
 20
558.0217582449994
 30
0.0
 11
-915.5423950200924
 21
558.0217582449994
 31
0.0
  0
LINE
  5
312
330
1F
100
AcDbEntity
  8
C-A
  6
Continuous
 62
     3
370
     9
100
AcDbLine
 10
-907.5423950200924
 20
565.1217582449998
 30
0.0
 11
-898.6623950200924
 21
565.1217582449998
 31
0.0
  0
LINE
  5
313
330
1F
100
AcDbEntity
  8
C-A
  6
Continuous
 62
     3
370
     9
100
AcDbLine
 10
-907.5423950200924
 20
561.5717582449996
 30
0.0
 11
-898.6623950200924
 21
561.5717582449996
 31
0.0
  0
LINE
  5
314
330
1F
100
AcDbEntity
  8
C-A
  6
Continuous
 62
     3
370
     9
100
AcDbLine
 10
-907.5423950200924
 20
558.0217582449994
 30
0.0
 11
-898.6623950200924
 21
558.0217582449994
 31
0.0
  0
LINE
  5
315
330
1F
100
AcDbEntity
  8
C-A
  6
Continuous
 62
     3
370
     9
100
AcDbLine
 10
-890.6623950200924
 20
565.1217582449998
 30
0.0
 11
-881.7823950200923
 21
565.1217582449998
 31
0.0
  0
LINE
  5
316
330
1F
100
AcDbEntity
  8
C-A
  6
Continuous
 62
     3
370
     9
100
AcDbLine
 10
-890.6623950200924
 20
561.5717582449996
 30
0.0
 11
-881.7823950200923
 21
561.5717582449996
 31
0.0
  0
LINE
  5
317
330
1F
100
AcDbEntity
  8
C-A
  6
Continuous
 62
     3
370
     9
100
AcDbLine
 10
-890.6623950200924
 20
558.0217582449994
 30
0.0
 11
-881.7823950200923
 21
558.0217582449994
 31
0.0
  0
LINE
  5
318
330
1F
100
AcDbEntity
  8
C-A
  6
Continuous
 62
     3
370
     9
100
AcDbLine
 10
-873.7823950200924
 20
565.1217582449998
 30
0.0
 11
-864.9023950200923
 21
565.1217582449998
 31
0.0
  0
LINE
  5
319
330
1F
100
AcDbEntity
  8
C-A
  6
Continuous
 62
     3
370
     9
100
AcDbLine
 10
-873.7823950200924
 20
561.5717582449996
 30
0.0
 11
-864.9023950200923
 21
561.5717582449996
 31
0.0
  0
LINE
  5
31A
330
1F
100
AcDbEntity
  8
C-A
  6
Continuous
 62
     3
370
     9
100
AcDbLine
 10
-873.7823950200924
 20
558.0217582449994
 30
0.0
 11
-864.9023950200923
 21
558.0217582449994
 31
0.0
  0
LINE
  5
31B
330
1F
100
AcDbEntity
  8
C-2
  6
Continuous
 62
     3
370
     9
100
AcDbLine
 10
-1008.822395020093
 20
958.5717582449995
 30
0.0
 11
-1008.822395020093
 21
464.5717582449997
 31
0.0
  0
LINE
  5
31C
330
1F
100
AcDbEntity
  8
C-2
  6
Continuous
 62
     3
370
     9
100
AcDbLine
 10
-999.9423950200926
 20
958.5717582449995
 30
0.0
 11
-999.9423950200926
 21
464.5717582449997
 31
0.0
  0
LINE
  5
31D
330
1F
100
AcDbEntity
  8
C-2
  6
Continuous
 62
     3
370
     9
100
AcDbLine
 10
-991.9423950200926
 20
958.5717582449995
 30
0.0
 11
-991.9423950200926
 21
464.5717582449997
 31
0.0
  0
LINE
  5
31E
330
1F
100
AcDbEntity
  8
C-2
  6
Continuous
 62
     3
370
     9
100
AcDbLine
 10
-983.0623950200925
 20
958.5717582449995
 30
0.0
 11
-983.0623950200925
 21
464.5717582449997
 31
0.0
  0
LINE
  5
31F
330
1F
100
AcDbEntity
  8
C-2
  6
Continuous
 62
     3
370
     9
100
AcDbLine
 10
-975.0623950200925
 20
958.5717582449995
 30
0.0
 11
-975.0623950200925
 21
464.5717582449997
 31
0.0
  0
LINE
  5
320
330
1F
100
AcDbEntity
  8
C-2
  6
Continuous
 62
     3
370
     9
100
AcDbLine
 10
-966.1823950200925
 20
958.5717582449995
 30
0.0
 11
-966.1823950200925
 21
464.5717582449997
 31
0.0
  0
LINE
  5
321
330
1F
100
AcDbEntity
  8
C-2
  6
Continuous
 62
     3
370
     9
100
AcDbLine
 10
-958.1823950200925
 20
958.5717582449995
 30
0.0
 11
-958.1823950200925
 21
464.5717582449997
 31
0.0
  0
LINE
  5
322
330
1F
100
AcDbEntity
  8
C-2
  6
Continuous
 62
     3
370
     9
100
AcDbLine
 10
-949.3023950200925
 20
958.5717582449995
 30
0.0
 11
-949.3023950200925
 21
464.5717582449997
 31
0.0
  0
LINE
  5
323
330
1F
100
AcDbEntity
  8
C-2
  6
Continuous
 62
     3
370
     9
100
AcDbLine
 10
-1016.822395020092
 20
958.5717582449995
 30
0.0
 11
-1016.822395020092
 21
464.5717582449997
 31
0.0
  0
LINE
  5
324
330
1F
100
AcDbEntity
  8
C-2
  6
Continuous
 62
     3
370
     9
100
AcDbLine
 10
-552.8323950200925
 20
461.5717582450002
 30
0.0
 11
-1050.832395020093
 21
461.5717582450002
 31
0.0
  0
LINE
  5
325
330
1F
100
AcDbEntity
  8
C-2
  6
Continuous
 62
     3
370
     9
100
AcDbLine
 10
-1050.832395020093
 20
461.5717582450002
 30
0.0
 11
-1050.832395020093
 21
961.5717582449996
 31
0.0
  0
LINE
  5
326
330
1F
100
AcDbEntity
  8
C-2
  6
Continuous
 62
     3
370
     9
100
AcDbLine
 10
-552.8323950200925
 20
461.5717582450002
 30
0.0
 11
-552.8323950200925
 21
961.5717582449996
 31
0.0
  0
LINE
  5
327
330
1F
100
AcDbEntity
  8
C-2
  6
Continuous
 62
     3
370
     9
100
AcDbLine
 10
-1050.832395020093
 20
961.5717582449996
 30
0.0
 11
-552.8323950200925
 21
961.5717582449996
 31
0.0
  0
LINE
  5
328
330
1F
100
AcDbEntity
  8
C-2
  6
JWW_DASHED3
 62
     2
370
     9
100
AcDbLine
 10
-576.8323950200925
 20
486.5717582450002
 30
0.0
 11
-576.8323950200925
 21
936.5717582449996
 31
0.0
  0
LINE
  5
329
330
1F
100
AcDbEntity
  8
C-2
  6
JWW_DASHED3
 62
     2
370
     9
100
AcDbLine
 10
-576.8323950200925
 20
486.5717582450002
 30
0.0
 11
-1026.832395020092
 21
486.5717582450002
 31
0.0
  0
LINE
  5
32A
330
1F
100
AcDbEntity
  8
C-2
  6
JWW_DASHED3
 62
     2
370
     9
100
AcDbLine
 10
-1026.832395020092
 20
486.5717582450002
 30
0.0
 11
-1026.832395020092
 21
936.5717582449996
 31
0.0
  0
LINE
  5
32B
330
1F
100
AcDbEntity
  8
C-2
  6
JWW_DASHED3
 62
     2
370
     9
100
AcDbLine
 10
-1026.832395020092
 20
936.5717582449996
 30
0.0
 11
-576.8323950200925
 21
936.5717582449996
 31
0.0
  0
LINE
  5
32C
330
1F
100
AcDbEntity
  8
C-2
  6
Continuous
 62
     3
370
     9
100
AcDbLine
 10
-941.3023950200925
 20
958.5717582449995
 30
0.0
 11
-941.3023950200925
 21
464.5717582449997
 31
0.0
  0
LINE
  5
32D
330
1F
100
AcDbEntity
  8
C-2
  6
Continuous
 62
     3
370
     9
100
AcDbLine
 10
-932.4223950200924
 20
958.5717582449995
 30
0.0
 11
-932.4223950200924
 21
464.5717582449997
 31
0.0
  0
LINE
  5
32E
330
1F
100
AcDbEntity
  8
C-2
  6
Continuous
 62
     3
370
     9
100
AcDbLine
 10
-924.4223950200924
 20
958.5717582449995
 30
0.0
 11
-924.4223950200924
 21
464.5717582449997
 31
0.0
  0
LINE
  5
32F
330
1F
100
AcDbEntity
  8
C-2
  6
Continuous
 62
     3
370
     9
100
AcDbLine
 10
-915.5423950200924
 20
958.5717582449995
 30
0.0
 11
-915.5423950200924
 21
464.5717582449997
 31
0.0
  0
LINE
  5
330
330
1F
100
AcDbEntity
  8
C-2
  6
Continuous
 62
     3
370
     9
100
AcDbLine
 10
-907.5423950200924
 20
958.5717582449995
 30
0.0
 11
-907.5423950200924
 21
464.5717582449997
 31
0.0
  0
LINE
  5
331
330
1F
100
AcDbEntity
  8
C-2
  6
Continuous
 62
     3
370
     9
100
AcDbLine
 10
-898.6623950200924
 20
958.5717582449995
 30
0.0
 11
-898.6623950200924
 21
464.5717582449997
 31
0.0
  0
LINE
  5
332
330
1F
100
AcDbEntity
  8
C-2
  6
Continuous
 62
     3
370
     9
100
AcDbLine
 10
-890.6623950200924
 20
958.5717582449995
 30
0.0
 11
-890.6623950200924
 21
464.5717582449997
 31
0.0
  0
LINE
  5
333
330
1F
100
AcDbEntity
  8
C-2
  6
Continuous
 62
     3
370
     9
100
AcDbLine
 10
-881.7823950200923
 20
958.5717582449995
 30
0.0
 11
-881.7823950200923
 21
464.5717582449997
 31
0.0
  0
LINE
  5
334
330
1F
100
AcDbEntity
  8
C-2
  6
Continuous
 62
     3
370
     9
100
AcDbLine
 10
-873.7823950200924
 20
958.5717582449995
 30
0.0
 11
-873.7823950200924
 21
464.5717582449997
 31
0.0
  0
LINE
  5
335
330
1F
100
AcDbEntity
  8
C-2
  6
Continuous
 62
     3
370
     9
100
AcDbLine
 10
-864.9023950200923
 20
958.5717582449995
 30
0.0
 11
-864.9023950200923
 21
464.5717582449997
 31
0.0
  0
LINE
  5
336
330
1F
100
AcDbEntity
  8
C-2
  6
Continuous
 62
     3
370
     9
100
AcDbLine
 10
-856.9023950200924
 20
958.5717582449995
 30
0.0
 11
-856.9023950200924
 21
464.5717582449997
 31
0.0
  0
LINE
  5
337
330
1F
100
AcDbEntity
  8
C-2
  6
Continuous
 62
     3
370
     9
100
AcDbLine
 10
-848.0223950200923
 20
958.5717582449995
 30
0.0
 11
-848.0223950200923
 21
464.5717582449997
 31
0.0
  0
LINE
  5
338
330
1F
100
AcDbEntity
  8
C-2
  6
Continuous
 62
     3
370
     9
100
AcDbLine
 10
-840.0223950200923
 20
958.5717582449995
 30
0.0
 11
-840.0223950200923
 21
464.5717582449997
 31
0.0
  0
LINE
  5
339
330
1F
100
AcDbEntity
  8
C-2
  6
Continuous
 62
     3
370
     9
100
AcDbLine
 10
-831.1423950200923
 20
958.5717582449995
 30
0.0
 11
-831.1423950200923
 21
464.5717582449997
 31
0.0
  0
LINE
  5
33A
330
1F
100
AcDbEntity
  8
C-2
  6
Continuous
 62
     3
370
     9
100
AcDbLine
 10
-823.1423950200923
 20
958.5717582449995
 30
0.0
 11
-823.1423950200923
 21
464.5717582449997
 31
0.0
  0
LINE
  5
33B
330
1F
100
AcDbEntity
  8
C-2
  6
Continuous
 62
     3
370
     9
100
AcDbLine
 10
-814.2623950200923
 20
958.5717582449995
 30
0.0
 11
-814.2623950200923
 21
464.5717582449997
 31
0.0
  0
LINE
  5
33C
330
1F
100
AcDbEntity
  8
C-2
  6
Continuous
 62
     3
370
     9
100
AcDbLine
 10
-806.2623950200923
 20
958.5717582449995
 30
0.0
 11
-806.2623950200923
 21
464.5717582449997
 31
0.0
  0
LINE
  5
33D
330
1F
100
AcDbEntity
  8
C-2
  6
Continuous
 62
     3
370
     9
100
AcDbLine
 10
-797.3823950200922
 20
958.5717582449995
 30
0.0
 11
-797.3823950200922
 21
464.5717582449997
 31
0.0
  0
LINE
  5
33E
330
1F
100
AcDbEntity
  8
C-2
  6
Continuous
 62
     3
370
     9
100
AcDbLine
 10
-789.3823950200922
 20
958.5717582449995
 30
0.0
 11
-789.3823950200922
 21
464.5717582449997
 31
0.0
  0
LINE
  5
33F
330
1F
100
AcDbEntity
  8
C-2
  6
Continuous
 62
     3
370
     9
100
AcDbLine
 10
-780.5023950200922
 20
958.5717582449995
 30
0.0
 11
-780.5023950200922
 21
464.5717582449997
 31
0.0
  0
LINE
  5
340
330
1F
100
AcDbEntity
  8
C-2
  6
Continuous
 62
     3
370
     9
100
AcDbLine
 10
-772.5023950200922
 20
958.5717582449995
 30
0.0
 11
-772.5023950200922
 21
464.5717582449997
 31
0.0
  0
LINE
  5
341
330
1F
100
AcDbEntity
  8
C-2
  6
Continuous
 62
     3
370
     9
100
AcDbLine
 10
-763.6223950200922
 20
958.5717582449995
 30
0.0
 11
-763.6223950200922
 21
464.5717582449997
 31
0.0
  0
LINE
  5
342
330
1F
100
AcDbEntity
  8
C-2
  6
Continuous
 62
     3
370
     9
100
AcDbLine
 10
-755.6223950200922
 20
958.5717582449995
 30
0.0
 11
-755.6223950200922
 21
464.5717582449997
 31
0.0
  0
LINE
  5
343
330
1F
100
AcDbEntity
  8
C-2
  6
Continuous
 62
     3
370
     9
100
AcDbLine
 10
-746.7423950200921
 20
958.5717582449995
 30
0.0
 11
-746.7423950200921
 21
464.5717582449997
 31
0.0
  0
LINE
  5
344
330
1F
100
AcDbEntity
  8
C-2
  6
Continuous
 62
     3
370
     9
100
AcDbLine
 10
-738.7423950200922
 20
958.5717582449995
 30
0.0
 11
-738.7423950200922
 21
464.5717582449997
 31
0.0
  0
LINE
  5
345
330
1F
100
AcDbEntity
  8
C-2
  6
Continuous
 62
     3
370
     9
100
AcDbLine
 10
-729.8623950200921
 20
958.5717582449995
 30
0.0
 11
-729.8623950200921
 21
464.5717582449997
 31
0.0
  0
LINE
  5
346
330
1F
100
AcDbEntity
  8
C-2
  6
Continuous
 62
     3
370
     9
100
AcDbLine
 10
-721.8623950200922
 20
958.5717582449995
 30
0.0
 11
-721.8623950200922
 21
464.5717582449997
 31
0.0
  0
LINE
  5
347
330
1F
100
AcDbEntity
  8
C-2
  6
Continuous
 62
     3
370
     9
100
AcDbLine
 10
-712.982395020092
 20
958.5717582449995
 30
0.0
 11
-712.982395020092
 21
464.5717582449997
 31
0.0
  0
LINE
  5
348
330
1F
100
AcDbEntity
  8
C-2
  6
Continuous
 62
     3
370
     9
100
AcDbLine
 10
-704.9823950200921
 20
958.5717582449995
 30
0.0
 11
-704.9823950200921
 21
464.5717582449997
 31
0.0
  0
LINE
  5
349
330
1F
100
AcDbEntity
  8
C-2
  6
Continuous
 62
     3
370
     9
100
AcDbLine
 10
-696.1023950200921
 20
958.5717582449995
 30
0.0
 11
-696.1023950200921
 21
464.5717582449997
 31
0.0
  0
LINE
  5
34A
330
1F
100
AcDbEntity
  8
C-2
  6
Continuous
 62
     3
370
     9
100
AcDbLine
 10
-688.102395020092
 20
958.5717582449995
 30
0.0
 11
-688.102395020092
 21
464.5717582449997
 31
0.0
  0
LINE
  5
34B
330
1F
100
AcDbEntity
  8
C-2
  6
Continuous
 62
     3
370
     9
100
AcDbLine
 10
-679.2223950200919
 20
958.5717582449995
 30
0.0
 11
-679.2223950200919
 21
464.5717582449997
 31
0.0
  0
LINE
  5
34C
330
1F
100
AcDbEntity
  8
C-2
  6
Continuous
 62
     3
370
     9
100
AcDbLine
 10
-671.2223950200921
 20
958.5717582449995
 30
0.0
 11
-671.2223950200921
 21
464.5717582449997
 31
0.0
  0
LINE
  5
34D
330
1F
100
AcDbEntity
  8
C-2
  6
Continuous
 62
     3
370
     9
100
AcDbLine
 10
-662.342395020092
 20
958.5717582449995
 30
0.0
 11
-662.342395020092
 21
464.5717582449997
 31
0.0
  0
LINE
  5
34E
330
1F
100
AcDbEntity
  8
C-2
  6
Continuous
 62
     3
370
     9
100
AcDbLine
 10
-645.4623950200919
 20
958.5717582449995
 30
0.0
 11
-645.4623950200919
 21
464.5717582449997
 31
0.0
  0
LINE
  5
34F
330
1F
100
AcDbEntity
  8
C-2
  6
Continuous
 62
     3
370
     9
100
AcDbLine
 10
-637.462395020092
 20
958.5717582449995
 30
0.0
 11
-637.462395020092
 21
464.5717582449997
 31
0.0
  0
LINE
  5
350
330
1F
100
AcDbEntity
  8
C-2
  6
Continuous
 62
     3
370
     9
100
AcDbLine
 10
-628.582395020092
 20
958.5717582449995
 30
0.0
 11
-628.582395020092
 21
464.5717582449997
 31
0.0
  0
LINE
  5
351
330
1F
100
AcDbEntity
  8
C-2
  6
Continuous
 62
     3
370
     9
100
AcDbLine
 10
-620.5823950200919
 20
958.5717582449995
 30
0.0
 11
-620.5823950200919
 21
464.5717582449997
 31
0.0
  0
LINE
  5
352
330
1F
100
AcDbEntity
  8
C-2
  6
Continuous
 62
     3
370
     9
100
AcDbLine
 10
-611.7023950200918
 20
958.5717582449995
 30
0.0
 11
-611.7023950200918
 21
464.5717582449997
 31
0.0
  0
LINE
  5
353
330
1F
100
AcDbEntity
  8
C-2
  6
Continuous
 62
     3
370
     9
100
AcDbLine
 10
-603.702395020092
 20
958.5717582449995
 30
0.0
 11
-603.702395020092
 21
464.5717582449997
 31
0.0
  0
LINE
  5
354
330
1F
100
AcDbEntity
  8
C-2
  6
Continuous
 62
     3
370
     9
100
AcDbLine
 10
-594.8223950200919
 20
958.5717582449995
 30
0.0
 11
-594.8223950200919
 21
464.5717582449997
 31
0.0
  0
LINE
  5
355
330
1F
100
AcDbEntity
  8
C-2
  6
Continuous
 62
     3
370
     9
100
AcDbLine
 10
-586.8223950200918
 20
958.5717582449995
 30
0.0
 11
-586.8223950200918
 21
464.5717582449997
 31
0.0
  0
LINE
  5
356
330
1F
100
AcDbEntity
  8
C-2
  6
Continuous
 62
     3
370
     9
100
AcDbLine
 10
-577.9423950200918
 20
958.5717582449995
 30
0.0
 11
-577.9423950200918
 21
464.5717582449997
 31
0.0
  0
LINE
  5
357
330
1F
100
AcDbEntity
  8
C-2
  6
Continuous
 62
     3
370
     9
100
AcDbLine
 10
-569.9423950200919
 20
958.5717582449995
 30
0.0
 11
-569.9423950200919
 21
464.5717582449997
 31
0.0
  0
LINE
  5
358
330
1F
100
AcDbEntity
  8
C-2
  6
Continuous
 62
     3
370
     9
100
AcDbLine
 10
-1050.832395020093
 20
464.5717582449997
 30
0.0
 11
-552.8323950200925
 21
464.5717582449997
 31
0.0
  0
LINE
  5
359
330
1F
100
AcDbEntity
  8
C-2
  6
Continuous
 62
     3
370
     9
100
AcDbLine
 10
-654.3423950200919
 20
958.5717582449995
 30
0.0
 11
-654.3423950200919
 21
464.5717582449997
 31
0.0
  0
LINE
  5
35A
330
1F
100
AcDbEntity
  8
C-A
  6
Continuous
 62
     3
370
     9
100
AcDbLine
 10
-654.342395020092
 20
765.1217582449998
 30
0.0
 11
-645.462395020092
 21
765.1217582449998
 31
0.0
  0
LINE
  5
35B
330
1F
100
AcDbEntity
  8
C-A
  6
Continuous
 62
     3
370
     9
100
AcDbLine
 10
-654.342395020092
 20
761.5717582449996
 30
0.0
 11
-645.462395020092
 21
761.5717582449996
 31
0.0
  0
LINE
  5
35C
330
1F
100
AcDbEntity
  8
C-A
  6
Continuous
 62
     3
370
     9
100
AcDbLine
 10
-654.342395020092
 20
758.0217582449994
 30
0.0
 11
-645.462395020092
 21
758.0217582449994
 31
0.0
  0
LINE
  5
35D
330
1F
100
AcDbEntity
  8
C-A
  6
Continuous
 62
     3
370
     9
100
AcDbLine
 10
-637.4623950200921
 20
765.1217582449998
 30
0.0
 11
-628.582395020092
 21
765.1217582449998
 31
0.0
  0
LINE
  5
35E
330
1F
100
AcDbEntity
  8
C-A
  6
Continuous
 62
     3
370
     9
100
AcDbLine
 10
-637.4623950200921
 20
761.5717582449996
 30
0.0
 11
-628.582395020092
 21
761.5717582449996
 31
0.0
  0
LINE
  5
35F
330
1F
100
AcDbEntity
  8
C-A
  6
Continuous
 62
     3
370
     9
100
AcDbLine
 10
-637.4623950200921
 20
758.0217582449994
 30
0.0
 11
-628.582395020092
 21
758.0217582449994
 31
0.0
  0
LINE
  5
360
330
1F
100
AcDbEntity
  8
C-A
  6
Continuous
 62
     3
370
     9
100
AcDbLine
 10
-620.5823950200921
 20
765.1217582449998
 30
0.0
 11
-611.7023950200921
 21
765.1217582449998
 31
0.0
  0
LINE
  5
361
330
1F
100
AcDbEntity
  8
C-A
  6
Continuous
 62
     3
370
     9
100
AcDbLine
 10
-620.5823950200921
 20
761.5717582449996
 30
0.0
 11
-611.7023950200921
 21
761.5717582449996
 31
0.0
  0
LINE
  5
362
330
1F
100
AcDbEntity
  8
C-A
  6
Continuous
 62
     3
370
     9
100
AcDbLine
 10
-620.5823950200921
 20
758.0217582449994
 30
0.0
 11
-611.7023950200921
 21
758.0217582449994
 31
0.0
  0
LINE
  5
363
330
1F
100
AcDbEntity
  8
C-A
  6
Continuous
 62
     3
370
     9
100
AcDbLine
 10
-603.7023950200921
 20
765.1217582449998
 30
0.0
 11
-594.822395020092
 21
765.1217582449998
 31
0.0
  0
LINE
  5
364
330
1F
100
AcDbEntity
  8
C-A
  6
Continuous
 62
     3
370
     9
100
AcDbLine
 10
-603.7023950200921
 20
761.5717582449996
 30
0.0
 11
-594.822395020092
 21
761.5717582449996
 31
0.0
  0
LINE
  5
365
330
1F
100
AcDbEntity
  8
C-A
  6
Continuous
 62
     3
370
     9
100
AcDbLine
 10
-603.7023950200921
 20
758.0217582449994
 30
0.0
 11
-594.822395020092
 21
758.0217582449994
 31
0.0
  0
LINE
  5
366
330
1F
100
AcDbEntity
  8
C-A
  6
Continuous
 62
     3
370
     9
100
AcDbLine
 10
-586.8223950200921
 20
765.1217582449998
 30
0.0
 11
-577.942395020092
 21
765.1217582449998
 31
0.0
  0
LINE
  5
367
330
1F
100
AcDbEntity
  8
C-A
  6
Continuous
 62
     3
370
     9
100
AcDbLine
 10
-586.8223950200921
 20
761.5717582449996
 30
0.0
 11
-577.942395020092
 21
761.5717582449996
 31
0.0
  0
LINE
  5
368
330
1F
100
AcDbEntity
  8
C-A
  6
Continuous
 62
     3
370
     9
100
AcDbLine
 10
-586.8223950200921
 20
758.0217582449994
 30
0.0
 11
-577.942395020092
 21
758.0217582449994
 31
0.0
  0
LINE
  5
369
330
1F
100
AcDbEntity
  8
C-A
  6
Continuous
 62
     3
370
     9
100
AcDbLine
 10
-569.9423950200921
 20
765.1217582449998
 30
0.0
 11
-560.8123950200918
 21
765.1217582449998
 31
0.0
  0
LINE
  5
36A
330
1F
100
AcDbEntity
  8
C-A
  6
Continuous
 62
     3
370
     9
100
AcDbLine
 10
-569.9423950200921
 20
761.5717582449996
 30
0.0
 11
-560.8123950200918
 21
761.5717582449996
 31
0.0
  0
LINE
  5
36B
330
1F
100
AcDbEntity
  8
C-A
  6
Continuous
 62
     3
370
     9
100
AcDbLine
 10
-569.9423950200921
 20
758.0217582449994
 30
0.0
 11
-560.8123950200918
 21
758.0217582449994
 31
0.0
  0
LINE
  5
36C
330
1F
100
AcDbEntity
  8
C-A
  6
Continuous
 62
     3
370
     9
100
AcDbLine
 10
-755.6223950200922
 20
665.1217582449998
 30
0.0
 11
-746.7423950200921
 21
665.1217582449998
 31
0.0
  0
LINE
  5
36D
330
1F
100
AcDbEntity
  8
C-A
  6
Continuous
 62
     3
370
     9
100
AcDbLine
 10
-755.6223950200922
 20
661.5717582449996
 30
0.0
 11
-746.7423950200921
 21
661.5717582449996
 31
0.0
  0
LINE
  5
36E
330
1F
100
AcDbEntity
  8
C-A
  6
Continuous
 62
     3
370
     9
100
AcDbLine
 10
-755.6223950200922
 20
658.0217582449994
 30
0.0
 11
-746.7423950200921
 21
658.0217582449994
 31
0.0
  0
LINE
  5
36F
330
1F
100
AcDbEntity
  8
C-A
  6
Continuous
 62
     3
370
     9
100
AcDbLine
 10
-738.7423950200922
 20
665.1217582449998
 30
0.0
 11
-729.8623950200921
 21
665.1217582449998
 31
0.0
  0
LINE
  5
370
330
1F
100
AcDbEntity
  8
C-A
  6
Continuous
 62
     3
370
     9
100
AcDbLine
 10
-738.7423950200922
 20
661.5717582449996
 30
0.0
 11
-729.8623950200921
 21
661.5717582449996
 31
0.0
  0
LINE
  5
371
330
1F
100
AcDbEntity
  8
C-A
  6
Continuous
 62
     3
370
     9
100
AcDbLine
 10
-738.7423950200922
 20
658.0217582449994
 30
0.0
 11
-729.8623950200921
 21
658.0217582449994
 31
0.0
  0
LINE
  5
372
330
1F
100
AcDbEntity
  8
C-A
  6
Continuous
 62
     3
370
     9
100
AcDbLine
 10
-721.8623950200922
 20
665.1217582449998
 30
0.0
 11
-712.9823950200921
 21
665.1217582449998
 31
0.0
  0
LINE
  5
373
330
1F
100
AcDbEntity
  8
C-A
  6
Continuous
 62
     3
370
     9
100
AcDbLine
 10
-721.8623950200922
 20
661.5717582449996
 30
0.0
 11
-712.9823950200921
 21
661.5717582449996
 31
0.0
  0
LINE
  5
374
330
1F
100
AcDbEntity
  8
C-A
  6
Continuous
 62
     3
370
     9
100
AcDbLine
 10
-721.8623950200922
 20
658.0217582449994
 30
0.0
 11
-712.9823950200921
 21
658.0217582449994
 31
0.0
  0
LINE
  5
375
330
1F
100
AcDbEntity
  8
C-A
  6
Continuous
 62
     3
370
     9
100
AcDbLine
 10
-704.9823950200921
 20
665.1217582449998
 30
0.0
 11
-696.1023950200921
 21
665.1217582449998
 31
0.0
  0
LINE
  5
376
330
1F
100
AcDbEntity
  8
C-A
  6
Continuous
 62
     3
370
     9
100
AcDbLine
 10
-704.9823950200921
 20
661.5717582449996
 30
0.0
 11
-696.1023950200921
 21
661.5717582449996
 31
0.0
  0
LINE
  5
377
330
1F
100
AcDbEntity
  8
C-A
  6
Continuous
 62
     3
370
     9
100
AcDbLine
 10
-704.9823950200921
 20
658.0217582449994
 30
0.0
 11
-696.1023950200921
 21
658.0217582449994
 31
0.0
  0
LINE
  5
378
330
1F
100
AcDbEntity
  8
C-A
  6
Continuous
 62
     3
370
     9
100
AcDbLine
 10
-688.1023950200921
 20
665.1217582449998
 30
0.0
 11
-679.2223950200921
 21
665.1217582449998
 31
0.0
  0
LINE
  5
379
330
1F
100
AcDbEntity
  8
C-A
  6
Continuous
 62
     3
370
     9
100
AcDbLine
 10
-688.1023950200921
 20
661.5717582449996
 30
0.0
 11
-679.2223950200921
 21
661.5717582449996
 31
0.0
  0
LINE
  5
37A
330
1F
100
AcDbEntity
  8
C-A
  6
Continuous
 62
     3
370
     9
100
AcDbLine
 10
-688.1023950200921
 20
658.0217582449994
 30
0.0
 11
-679.2223950200921
 21
658.0217582449994
 31
0.0
  0
LINE
  5
37B
330
1F
100
AcDbEntity
  8
C-A
  6
Continuous
 62
     3
370
     9
100
AcDbLine
 10
-671.2223950200921
 20
665.1217582449998
 30
0.0
 11
-662.342395020092
 21
665.1217582449998
 31
0.0
  0
LINE
  5
37C
330
1F
100
AcDbEntity
  8
C-A
  6
Continuous
 62
     3
370
     9
100
AcDbLine
 10
-671.2223950200921
 20
661.5717582449996
 30
0.0
 11
-662.342395020092
 21
661.5717582449996
 31
0.0
  0
LINE
  5
37D
330
1F
100
AcDbEntity
  8
C-A
  6
Continuous
 62
     3
370
     9
100
AcDbLine
 10
-671.2223950200921
 20
658.0217582449994
 30
0.0
 11
-662.342395020092
 21
658.0217582449994
 31
0.0
  0
LINE
  5
37E
330
1F
100
AcDbEntity
  8
C-A
  6
Continuous
 62
     3
370
     9
100
AcDbLine
 10
-654.342395020092
 20
665.1217582449998
 30
0.0
 11
-645.462395020092
 21
665.1217582449998
 31
0.0
  0
LINE
  5
37F
330
1F
100
AcDbEntity
  8
C-A
  6
Continuous
 62
     3
370
     9
100
AcDbLine
 10
-654.342395020092
 20
661.5717582449996
 30
0.0
 11
-645.462395020092
 21
661.5717582449996
 31
0.0
  0
LINE
  5
380
330
1F
100
AcDbEntity
  8
C-A
  6
Continuous
 62
     3
370
     9
100
AcDbLine
 10
-654.342395020092
 20
658.0217582449994
 30
0.0
 11
-645.462395020092
 21
658.0217582449994
 31
0.0
  0
LINE
  5
381
330
1F
100
AcDbEntity
  8
C-A
  6
Continuous
 62
     3
370
     9
100
AcDbLine
 10
-637.462395020092
 20
665.1217582449998
 30
0.0
 11
-628.582395020092
 21
665.1217582449998
 31
0.0
  0
LINE
  5
382
330
1F
100
AcDbEntity
  8
C-A
  6
Continuous
 62
     3
370
     9
100
AcDbLine
 10
-637.462395020092
 20
661.5717582449996
 30
0.0
 11
-628.582395020092
 21
661.5717582449996
 31
0.0
  0
LINE
  5
383
330
1F
100
AcDbEntity
  8
C-A
  6
Continuous
 62
     3
370
     9
100
AcDbLine
 10
-637.462395020092
 20
658.0217582449994
 30
0.0
 11
-628.582395020092
 21
658.0217582449994
 31
0.0
  0
LINE
  5
384
330
1F
100
AcDbEntity
  8
C-A
  6
Continuous
 62
     3
370
     9
100
AcDbLine
 10
-620.582395020092
 20
665.1217582449998
 30
0.0
 11
-611.7023950200919
 21
665.1217582449998
 31
0.0
  0
LINE
  5
385
330
1F
100
AcDbEntity
  8
C-A
  6
Continuous
 62
     3
370
     9
100
AcDbLine
 10
-620.582395020092
 20
661.5717582449996
 30
0.0
 11
-611.7023950200919
 21
661.5717582449996
 31
0.0
  0
LINE
  5
386
330
1F
100
AcDbEntity
  8
C-A
  6
Continuous
 62
     3
370
     9
100
AcDbLine
 10
-620.582395020092
 20
658.0217582449994
 30
0.0
 11
-611.7023950200919
 21
658.0217582449994
 31
0.0
  0
LINE
  5
387
330
1F
100
AcDbEntity
  8
C-A
  6
Continuous
 62
     3
370
     9
100
AcDbLine
 10
-603.702395020092
 20
665.1217582449998
 30
0.0
 11
-594.8223950200919
 21
665.1217582449998
 31
0.0
  0
LINE
  5
388
330
1F
100
AcDbEntity
  8
C-A
  6
Continuous
 62
     3
370
     9
100
AcDbLine
 10
-603.702395020092
 20
661.5717582449996
 30
0.0
 11
-594.8223950200919
 21
661.5717582449996
 31
0.0
  0
LINE
  5
389
330
1F
100
AcDbEntity
  8
C-A
  6
Continuous
 62
     3
370
     9
100
AcDbLine
 10
-603.702395020092
 20
658.0217582449994
 30
0.0
 11
-594.8223950200919
 21
658.0217582449994
 31
0.0
  0
LINE
  5
38A
330
1F
100
AcDbEntity
  8
C-A
  6
Continuous
 62
     3
370
     9
100
AcDbLine
 10
-586.822395020092
 20
665.1217582449998
 30
0.0
 11
-577.9423950200919
 21
665.1217582449998
 31
0.0
  0
LINE
  5
38B
330
1F
100
AcDbEntity
  8
C-A
  6
Continuous
 62
     3
370
     9
100
AcDbLine
 10
-586.822395020092
 20
661.5717582449996
 30
0.0
 11
-577.9423950200919
 21
661.5717582449996
 31
0.0
  0
LINE
  5
38C
330
1F
100
AcDbEntity
  8
C-A
  6
Continuous
 62
     3
370
     9
100
AcDbLine
 10
-586.822395020092
 20
658.0217582449994
 30
0.0
 11
-577.9423950200919
 21
658.0217582449994
 31
0.0
  0
LINE
  5
38D
330
1F
100
AcDbEntity
  8
C-2
  6
Continuous
 62
     3
370
     9
100
AcDbLine
 10
-560.8123950200918
 20
958.5717582449995
 30
0.0
 11
-560.8123950200918
 21
464.5717582449997
 31
0.0
  0
LINE
  5
38E
330
1F
100
AcDbEntity
  8
C-A
  6
Continuous
 62
     3
370
     9
100
AcDbLine
 10
-569.9423950200919
 20
665.1217582449998
 30
0.0
 11
-560.8123950200918
 21
665.1217582449998
 31
0.0
  0
LINE
  5
38F
330
1F
100
AcDbEntity
  8
C-A
  6
Continuous
 62
     3
370
     9
100
AcDbLine
 10
-569.9423950200919
 20
661.5717582449996
 30
0.0
 11
-560.8123950200918
 21
661.5717582449996
 31
0.0
  0
LINE
  5
390
330
1F
100
AcDbEntity
  8
C-A
  6
Continuous
 62
     3
370
     9
100
AcDbLine
 10
-569.9423950200919
 20
658.0217582449994
 30
0.0
 11
-560.8123950200918
 21
658.0217582449994
 31
0.0
  0
LINE
  5
391
330
1F
100
AcDbEntity
  8
C-A
  6
Continuous
 62
     3
370
     9
100
AcDbLine
 10
-856.9023950200924
 20
565.1217582449998
 30
0.0
 11
-848.0223950200923
 21
565.1217582449998
 31
0.0
  0
LINE
  5
392
330
1F
100
AcDbEntity
  8
C-A
  6
Continuous
 62
     3
370
     9
100
AcDbLine
 10
-856.9023950200924
 20
561.5717582449996
 30
0.0
 11
-848.0223950200923
 21
561.5717582449996
 31
0.0
  0
LINE
  5
393
330
1F
100
AcDbEntity
  8
C-A
  6
Continuous
 62
     3
370
     9
100
AcDbLine
 10
-856.9023950200924
 20
558.0217582449994
 30
0.0
 11
-848.0223950200923
 21
558.0217582449994
 31
0.0
  0
LINE
  5
394
330
1F
100
AcDbEntity
  8
C-A
  6
Continuous
 62
     3
370
     9
100
AcDbLine
 10
-840.0223950200923
 20
565.1217582449998
 30
0.0
 11
-831.1423950200923
 21
565.1217582449998
 31
0.0
  0
LINE
  5
395
330
1F
100
AcDbEntity
  8
C-A
  6
Continuous
 62
     3
370
     9
100
AcDbLine
 10
-840.0223950200923
 20
561.5717582449996
 30
0.0
 11
-831.1423950200923
 21
561.5717582449996
 31
0.0
  0
LINE
  5
396
330
1F
100
AcDbEntity
  8
C-A
  6
Continuous
 62
     3
370
     9
100
AcDbLine
 10
-840.0223950200923
 20
558.0217582449994
 30
0.0
 11
-831.1423950200923
 21
558.0217582449994
 31
0.0
  0
LINE
  5
397
330
1F
100
AcDbEntity
  8
C-A
  6
Continuous
 62
     3
370
     9
100
AcDbLine
 10
-823.1423950200923
 20
565.1217582449998
 30
0.0
 11
-814.2623950200923
 21
565.1217582449998
 31
0.0
  0
LINE
  5
398
330
1F
100
AcDbEntity
  8
C-A
  6
Continuous
 62
     3
370
     9
100
AcDbLine
 10
-823.1423950200923
 20
561.5717582449996
 30
0.0
 11
-814.2623950200923
 21
561.5717582449996
 31
0.0
  0
LINE
  5
399
330
1F
100
AcDbEntity
  8
C-A
  6
Continuous
 62
     3
370
     9
100
AcDbLine
 10
-823.1423950200923
 20
558.0217582449994
 30
0.0
 11
-814.2623950200923
 21
558.0217582449994
 31
0.0
  0
LINE
  5
39A
330
1F
100
AcDbEntity
  8
C-A
  6
Continuous
 62
     3
370
     9
100
AcDbLine
 10
-806.2623950200923
 20
565.1217582449998
 30
0.0
 11
-797.3823950200922
 21
565.1217582449998
 31
0.0
  0
LINE
  5
39B
330
1F
100
AcDbEntity
  8
C-A
  6
Continuous
 62
     3
370
     9
100
AcDbLine
 10
-806.2623950200923
 20
561.5717582449996
 30
0.0
 11
-797.3823950200922
 21
561.5717582449996
 31
0.0
  0
LINE
  5
39C
330
1F
100
AcDbEntity
  8
C-A
  6
Continuous
 62
     3
370
     9
100
AcDbLine
 10
-806.2623950200923
 20
558.0217582449994
 30
0.0
 11
-797.3823950200922
 21
558.0217582449994
 31
0.0
  0
LINE
  5
39D
330
1F
100
AcDbEntity
  8
C-A
  6
Continuous
 62
     3
370
     9
100
AcDbLine
 10
-789.3823950200922
 20
565.1217582449998
 30
0.0
 11
-780.5023950200922
 21
565.1217582449998
 31
0.0
  0
LINE
  5
39E
330
1F
100
AcDbEntity
  8
C-A
  6
Continuous
 62
     3
370
     9
100
AcDbLine
 10
-789.3823950200922
 20
561.5717582449996
 30
0.0
 11
-780.5023950200922
 21
561.5717582449996
 31
0.0
  0
LINE
  5
39F
330
1F
100
AcDbEntity
  8
C-A
  6
Continuous
 62
     3
370
     9
100
AcDbLine
 10
-789.3823950200922
 20
558.0217582449994
 30
0.0
 11
-780.5023950200922
 21
558.0217582449994
 31
0.0
  0
LINE
  5
3A0
330
1F
100
AcDbEntity
  8
C-A
  6
Continuous
 62
     3
370
     9
100
AcDbLine
 10
-772.5023950200922
 20
565.1217582449998
 30
0.0
 11
-763.6223950200922
 21
565.1217582449998
 31
0.0
  0
LINE
  5
3A1
330
1F
100
AcDbEntity
  8
C-A
  6
Continuous
 62
     3
370
     9
100
AcDbLine
 10
-772.5023950200922
 20
561.5717582449996
 30
0.0
 11
-763.6223950200922
 21
561.5717582449996
 31
0.0
  0
LINE
  5
3A2
330
1F
100
AcDbEntity
  8
C-A
  6
Continuous
 62
     3
370
     9
100
AcDbLine
 10
-772.5023950200922
 20
558.0217582449994
 30
0.0
 11
-763.6223950200922
 21
558.0217582449994
 31
0.0
  0
LINE
  5
3A3
330
1F
100
AcDbEntity
  8
C-A
  6
Continuous
 62
     3
370
     9
100
AcDbLine
 10
-755.6223950200922
 20
565.1217582449998
 30
0.0
 11
-746.7423950200921
 21
565.1217582449998
 31
0.0
  0
LINE
  5
3A4
330
1F
100
AcDbEntity
  8
C-A
  6
Continuous
 62
     3
370
     9
100
AcDbLine
 10
-755.6223950200922
 20
561.5717582449996
 30
0.0
 11
-746.7423950200921
 21
561.5717582449996
 31
0.0
  0
LINE
  5
3A5
330
1F
100
AcDbEntity
  8
C-A
  6
Continuous
 62
     3
370
     9
100
AcDbLine
 10
-755.6223950200922
 20
558.0217582449994
 30
0.0
 11
-746.7423950200921
 21
558.0217582449994
 31
0.0
  0
LINE
  5
3A6
330
1F
100
AcDbEntity
  8
C-A
  6
Continuous
 62
     3
370
     9
100
AcDbLine
 10
-738.7423950200922
 20
565.1217582449998
 30
0.0
 11
-729.8623950200921
 21
565.1217582449998
 31
0.0
  0
LINE
  5
3A7
330
1F
100
AcDbEntity
  8
C-A
  6
Continuous
 62
     3
370
     9
100
AcDbLine
 10
-738.7423950200922
 20
561.5717582449996
 30
0.0
 11
-729.8623950200921
 21
561.5717582449996
 31
0.0
  0
LINE
  5
3A8
330
1F
100
AcDbEntity
  8
C-A
  6
Continuous
 62
     3
370
     9
100
AcDbLine
 10
-738.7423950200922
 20
558.0217582449994
 30
0.0
 11
-729.8623950200921
 21
558.0217582449994
 31
0.0
  0
LINE
  5
3A9
330
1F
100
AcDbEntity
  8
C-A
  6
Continuous
 62
     3
370
     9
100
AcDbLine
 10
-721.8623950200922
 20
565.1217582449998
 30
0.0
 11
-712.9823950200921
 21
565.1217582449998
 31
0.0
  0
LINE
  5
3AA
330
1F
100
AcDbEntity
  8
C-A
  6
Continuous
 62
     3
370
     9
100
AcDbLine
 10
-721.8623950200922
 20
561.5717582449996
 30
0.0
 11
-712.9823950200921
 21
561.5717582449996
 31
0.0
  0
LINE
  5
3AB
330
1F
100
AcDbEntity
  8
C-A
  6
Continuous
 62
     3
370
     9
100
AcDbLine
 10
-721.8623950200922
 20
558.0217582449994
 30
0.0
 11
-712.9823950200921
 21
558.0217582449994
 31
0.0
  0
LINE
  5
3AC
330
1F
100
AcDbEntity
  8
C-A
  6
Continuous
 62
     3
370
     9
100
AcDbLine
 10
-704.9823950200921
 20
565.1217582449998
 30
0.0
 11
-696.1023950200921
 21
565.1217582449998
 31
0.0
  0
LINE
  5
3AD
330
1F
100
AcDbEntity
  8
C-A
  6
Continuous
 62
     3
370
     9
100
AcDbLine
 10
-704.9823950200921
 20
561.5717582449996
 30
0.0
 11
-696.1023950200921
 21
561.5717582449996
 31
0.0
  0
LINE
  5
3AE
330
1F
100
AcDbEntity
  8
C-A
  6
Continuous
 62
     3
370
     9
100
AcDbLine
 10
-704.9823950200921
 20
558.0217582449994
 30
0.0
 11
-696.1023950200921
 21
558.0217582449994
 31
0.0
  0
LINE
  5
3AF
330
1F
100
AcDbEntity
  8
C-A
  6
Continuous
 62
     3
370
     9
100
AcDbLine
 10
-688.1023950200921
 20
565.1217582449998
 30
0.0
 11
-679.2223950200921
 21
565.1217582449998
 31
0.0
  0
LINE
  5
3B0
330
1F
100
AcDbEntity
  8
C-A
  6
Continuous
 62
     3
370
     9
100
AcDbLine
 10
-688.1023950200921
 20
561.5717582449996
 30
0.0
 11
-679.2223950200921
 21
561.5717582449996
 31
0.0
  0
LINE
  5
3B1
330
1F
100
AcDbEntity
  8
C-A
  6
Continuous
 62
     3
370
     9
100
AcDbLine
 10
-688.1023950200921
 20
558.0217582449994
 30
0.0
 11
-679.2223950200921
 21
558.0217582449994
 31
0.0
  0
LINE
  5
3B2
330
1F
100
AcDbEntity
  8
C-A
  6
Continuous
 62
     3
370
     9
100
AcDbLine
 10
-671.2223950200921
 20
565.1217582449998
 30
0.0
 11
-662.342395020092
 21
565.1217582449998
 31
0.0
  0
LINE
  5
3B3
330
1F
100
AcDbEntity
  8
C-A
  6
Continuous
 62
     3
370
     9
100
AcDbLine
 10
-671.2223950200921
 20
561.5717582449996
 30
0.0
 11
-662.342395020092
 21
561.5717582449996
 31
0.0
  0
LINE
  5
3B4
330
1F
100
AcDbEntity
  8
C-A
  6
Continuous
 62
     3
370
     9
100
AcDbLine
 10
-671.2223950200921
 20
558.0217582449994
 30
0.0
 11
-662.342395020092
 21
558.0217582449994
 31
0.0
  0
LINE
  5
3B5
330
1F
100
AcDbEntity
  8
C-A
  6
Continuous
 62
     3
370
     9
100
AcDbLine
 10
-654.342395020092
 20
565.1217582449998
 30
0.0
 11
-645.462395020092
 21
565.1217582449998
 31
0.0
  0
LINE
  5
3B6
330
1F
100
AcDbEntity
  8
C-A
  6
Continuous
 62
     3
370
     9
100
AcDbLine
 10
-654.342395020092
 20
561.5717582449996
 30
0.0
 11
-645.462395020092
 21
561.5717582449996
 31
0.0
  0
LINE
  5
3B7
330
1F
100
AcDbEntity
  8
C-A
  6
Continuous
 62
     3
370
     9
100
AcDbLine
 10
-654.342395020092
 20
558.0217582449994
 30
0.0
 11
-645.462395020092
 21
558.0217582449994
 31
0.0
  0
LINE
  5
3B8
330
1F
100
AcDbEntity
  8
C-A
  6
Continuous
 62
     3
370
     9
100
AcDbLine
 10
-637.462395020092
 20
565.1217582449998
 30
0.0
 11
-628.582395020092
 21
565.1217582449998
 31
0.0
  0
LINE
  5
3B9
330
1F
100
AcDbEntity
  8
C-A
  6
Continuous
 62
     3
370
     9
100
AcDbLine
 10
-637.462395020092
 20
561.5717582449996
 30
0.0
 11
-628.582395020092
 21
561.5717582449996
 31
0.0
  0
LINE
  5
3BA
330
1F
100
AcDbEntity
  8
C-A
  6
Continuous
 62
     3
370
     9
100
AcDbLine
 10
-637.462395020092
 20
558.0217582449994
 30
0.0
 11
-628.582395020092
 21
558.0217582449994
 31
0.0
  0
LINE
  5
3BB
330
1F
100
AcDbEntity
  8
C-A
  6
Continuous
 62
     3
370
     9
100
AcDbLine
 10
-620.582395020092
 20
565.1217582449998
 30
0.0
 11
-611.7023950200919
 21
565.1217582449998
 31
0.0
  0
LINE
  5
3BC
330
1F
100
AcDbEntity
  8
C-A
  6
Continuous
 62
     3
370
     9
100
AcDbLine
 10
-620.582395020092
 20
561.5717582449996
 30
0.0
 11
-611.7023950200919
 21
561.5717582449996
 31
0.0
  0
LINE
  5
3BD
330
1F
100
AcDbEntity
  8
C-A
  6
Continuous
 62
     3
370
     9
100
AcDbLine
 10
-620.582395020092
 20
558.0217582449994
 30
0.0
 11
-611.7023950200919
 21
558.0217582449994
 31
0.0
  0
LINE
  5
3BE
330
1F
100
AcDbEntity
  8
C-A
  6
Continuous
 62
     3
370
     9
100
AcDbLine
 10
-603.702395020092
 20
565.1217582449998
 30
0.0
 11
-594.8223950200919
 21
565.1217582449998
 31
0.0
  0
LINE
  5
3BF
330
1F
100
AcDbEntity
  8
C-A
  6
Continuous
 62
     3
370
     9
100
AcDbLine
 10
-603.702395020092
 20
561.5717582449996
 30
0.0
 11
-594.8223950200919
 21
561.5717582449996
 31
0.0
  0
LINE
  5
3C0
330
1F
100
AcDbEntity
  8
C-A
  6
Continuous
 62
     3
370
     9
100
AcDbLine
 10
-603.702395020092
 20
558.0217582449994
 30
0.0
 11
-594.8223950200919
 21
558.0217582449994
 31
0.0
  0
LINE
  5
3C1
330
1F
100
AcDbEntity
  8
C-A
  6
Continuous
 62
     3
370
     9
100
AcDbLine
 10
-586.822395020092
 20
565.1217582449998
 30
0.0
 11
-577.9423950200919
 21
565.1217582449998
 31
0.0
  0
LINE
  5
3C2
330
1F
100
AcDbEntity
  8
C-A
  6
Continuous
 62
     3
370
     9
100
AcDbLine
 10
-586.822395020092
 20
561.5717582449996
 30
0.0
 11
-577.9423950200919
 21
561.5717582449996
 31
0.0
  0
LINE
  5
3C3
330
1F
100
AcDbEntity
  8
C-A
  6
Continuous
 62
     3
370
     9
100
AcDbLine
 10
-586.822395020092
 20
558.0217582449994
 30
0.0
 11
-577.9423950200919
 21
558.0217582449994
 31
0.0
  0
LINE
  5
3C4
330
1F
100
AcDbEntity
  8
C-A
  6
Continuous
 62
     3
370
     9
100
AcDbLine
 10
-569.9423950200919
 20
565.1217582449998
 30
0.0
 11
-560.8123950200918
 21
565.1217582449998
 31
0.0
  0
LINE
  5
3C5
330
1F
100
AcDbEntity
  8
C-A
  6
Continuous
 62
     3
370
     9
100
AcDbLine
 10
-569.9423950200919
 20
561.5717582449996
 30
0.0
 11
-560.8123950200918
 21
561.5717582449996
 31
0.0
  0
LINE
  5
3C6
330
1F
100
AcDbEntity
  8
C-A
  6
Continuous
 62
     3
370
     9
100
AcDbLine
 10
-569.9423950200919
 20
558.0217582449994
 30
0.0
 11
-560.8123950200918
 21
558.0217582449994
 31
0.0
  0
SOLID
  5
3C7
330
1F
100
AcDbEntity
  8
C-5
  6
Continuous
 62
     4
370
     9
100
AcDbTrace
 10
-799.8323950200926
 20
1028.518996505109
 30
0.0
 11
-799.8323950200926
 21
1068.518996505109
 31
0.0
 12
-803.8323950200926
 22
1028.518996505109
 32
0.0
 13
-803.8323950200926
 23
1068.518996505109
 33
0.0
  0
LINE
  5
3C8
330
1F
100
AcDbEntity
  8
C-5
  6
Continuous
 62
     4
370
     9
100
AcDbLine
 10
-792.1663052223807
 20
1049.499993378583
 30
0.0
 11
-742.9169125394388
 21
1049.499993378583
 31
0.0
  0
LINE
  5
3C9
330
1F
100
AcDbEntity
  8
C-5
  6
Continuous
 62
     4
370
     9
100
AcDbLine
 10
-792.1663052223807
 20
1049.499993378583
 30
0.0
 11
-767.3801836880353
 21
1046.236838573082
 31
0.0
  0
LINE
  5
3CA
330
1F
100
AcDbEntity
  8
C-5
  6
Continuous
 62
     4
370
     9
100
AcDbLine
 10
-792.1663052223807
 20
1049.499993378583
 30
0.0
 11
-767.3801836880353
 21
1052.763148184085
 31
0.0
  0
TEXT
  5
3CB
330
1F
100
AcDbEntity
  8
C-5
  6
Continuous
 62
     2
370
     9
100
AcDbText
 10
-735.2061414054883
 20
1037.29481135838
 30
0.0
 40
30.48
  1
A
 41
0.9999999999999998
  7
ＭＳ ゴシック
100
AcDbText
  0
LINE
  5
3CC
330
1F
100
AcDbEntity
  8
C-5
  6
JWW_CENTER1
 62
     4
370
     9
100
AcDbLine
 10
-801.8323950200925
 20
1028.518996505109
 30
0.0
 11
-801.8323950200925
 21
834.6304265897895
 31
0.0
  0
LINE
  5
3CD
330
1F
100
AcDbEntity
  8
C-2
  6
Continuous
 62
     2
370
     9
100
AcDbLine
 10
-549.8323950200925
 20
459.5717582449999
 30
0.0
 11
-1053.832395020092
 21
459.5717582449999
 31
0.0
  0
LINE
  5
3CE
330
1F
100
AcDbEntity
  8
C-2
  6
Continuous
 62
     2
370
     9
100
AcDbLine
 10
-546.8323950200925
 20
456.571758245
 30
0.0
 11
-1056.832395020092
 21
456.571758245
 31
0.0
  0
LINE
  5
3CF
330
1F
100
AcDbEntity
  8
C-2
  6
Continuous
 62
     2
370
     9
100
AcDbLine
 10
-1056.832395020092
 20
456.571758245
 30
0.0
 11
-1056.832395020092
 21
966.5717582449998
 31
0.0
  0
LINE
  5
3D0
330
1F
100
AcDbEntity
  8
C-2
  6
Continuous
 62
     2
370
     9
100
AcDbLine
 10
-1053.832395020092
 20
459.5717582449999
 30
0.0
 11
-1053.832395020092
 21
963.5717582449997
 31
0.0
  0
LINE
  5
3D1
330
1F
100
AcDbEntity
  8
C-2
  6
Continuous
 62
     2
370
     9
100
AcDbLine
 10
-1053.832395020092
 20
963.5717582449997
 30
0.0
 11
-549.8323950200925
 21
963.5717582449997
 31
0.0
  0
LINE
  5
3D2
330
1F
100
AcDbEntity
  8
C-2
  6
Continuous
 62
     2
370
     9
100
AcDbLine
 10
-549.8323950200925
 20
459.5717582449999
 30
0.0
 11
-549.8323950200925
 21
963.5717582449997
 31
0.0
  0
LINE
  5
3D3
330
1F
100
AcDbEntity
  8
C-2
  6
Continuous
 62
     2
370
     9
100
AcDbLine
 10
-1056.832395020092
 20
966.5717582449998
 30
0.0
 11
-546.8323950200925
 21
966.5717582449998
 31
0.0
  0
LINE
  5
3D4
330
1F
100
AcDbEntity
  8
C-2
  6
Continuous
 62
     2
370
     9
100
AcDbLine
 10
-546.8323950200925
 20
456.571758245
 30
0.0
 11
-546.8323950200925
 21
966.5717582449998
 31
0.0
  0
LINE
  5
3D5
330
1F
100
AcDbEntity
  8
C-9
  6
Continuous
 62
     3
370
     9
100
AcDbLine
 10
-948.0829290777103
 20
971.571997546571
 30
0.0
 11
-949.3329290777103
 21
971.571997546571
 31
0.0
  0
LINE
  5
3D6
330
1F
100
AcDbEntity
  8
C-9
  6
Continuous
 62
     3
370
     9
100
AcDbLine
 10
-948.0829290777103
 20
971.571997546571
 30
0.0
 11
-948.0829290777103
 21
1000.571981810945
 31
0.0
  0
LINE
  5
3D7
330
1F
100
AcDbEntity
  8
C-9
  6
Continuous
 62
     3
370
     9
100
AcDbLine
 10
-949.337567749584
 20
967.5719841951287
 30
0.0
 11
-948.8243841558335
 21
967.5719841951287
 31
0.0
  0
LINE
  5
3D8
330
1F
100
AcDbEntity
  8
C-9
  6
Continuous
 62
     3
370
     9
100
AcDbLine
 10
-964.8328070073978
 20
967.5719841951287
 30
0.0
 11
-964.3328680425532
 21
967.5719841951287
 31
0.0
  0
LINE
  5
3D9
330
1F
100
AcDbEntity
  8
C-9
  6
Continuous
 62
     3
370
     9
100
AcDbLine
 10
-965.5829901128652
 20
971.571997546571
 30
0.0
 11
-964.3329901128652
 21
971.571997546571
 31
0.0
  0
LINE
  5
3DA
330
1F
100
AcDbEntity
  8
C-9
  6
Continuous
 62
     3
370
     9
100
AcDbLine
 10
-965.5829901128652
 20
971.571997546571
 30
0.0
 11
-965.5829901128652
 21
1000.571981810945
 31
0.0
  0
LINE
  5
3DB
330
1F
100
AcDbEntity
  8
C-9
  6
Continuous
 62
     3
370
     9
100
AcDbLine
 10
-948.0829290777103
 20
1000.571981810945
 30
0.0
 11
-965.5829901128652
 21
1000.571981810945
 31
0.0
  0
LINE
  5
3DC
330
1F
100
AcDbEntity
  8
C-9
  6
JWW_DASHED2
 62
     3
370
     9
100
AcDbLine
 10
-950.0829290777085
 20
971.4260820382993
 30
0.0
 11
-950.0829290777085
 21
1000.571981810945
 31
0.0
  0
LINE
  5
3DD
330
1F
100
AcDbEntity
  8
C-9
  6
JWW_DASHED2
 62
     3
370
     9
100
AcDbLine
 10
-963.5829290777099
 20
971.4260820382993
 30
0.0
 11
-963.5829290777099
 21
1000.571981810945
 31
0.0
  0
LINE
  5
3DE
330
1F
100
AcDbEntity
  8
C-9
  6
JWW_CENTER2
 62
     7
370
     9
100
AcDbLine
 10
-962.6089300542719
 20
990.5719360345757
 30
0.0
 11
-951.0568670659916
 21
990.5719360345757
 31
0.0
  0
LINE
  5
3DF
330
1F
100
AcDbEntity
  8
C-9
  6
JWW_CENTER2
 62
     7
370
     9
100
AcDbLine
 10
-956.8328680425532
 20
958.1038030618585
 30
0.0
 11
-956.8328680425532
 21
1005.504202269929
 31
0.0
  0
ARC
  5
3E0
330
1F
100
AcDbEntity
  8
C-9
  6
Continuous
 62
     3
370
     9
100
AcDbCircle
 10
-948.8328680425536
 20
965.5720023149412
 30
0.0
 40
1.999999642372131
100
AcDbArc
 50
29.99926757812499
 51
89.75836181640622
  0
ARC
  5
3E1
330
1F
100
AcDbEntity
  8
C-9
  6
Continuous
 62
     3
370
     9
100
AcDbCircle
 10
-949.3329290777103
 20
969.5719784730842
 30
0.0
 40
1.999999642372131
100
AcDbArc
 50
90.0
 51
269.86669921875
  0
ARC
  5
3E2
330
1F
100
AcDbEntity
  8
C-9
  6
Continuous
 62
     3
370
     9
100
AcDbCircle
 10
-964.8328070073978
 20
965.5720023149412
 30
0.0
 40
1.999999642372131
100
AcDbArc
 50
90.27595520019531
 51
150.0004730224609
  0
ARC
  5
3E3
330
1F
100
AcDbEntity
  8
C-9
  6
Continuous
 62
     3
370
     9
100
AcDbCircle
 10
-964.3329901128652
 20
969.5719784730842
 30
0.0
 40
1.999999642372131
100
AcDbArc
 50
270.0
 51
90.0
  0
CIRCLE
  5
3E4
330
1F
100
AcDbEntity
  8
C-9
  6
Continuous
 62
     3
370
     9
100
AcDbCircle
 10
-956.8328680425532
 20
990.5719360345757
 30
0.0
 40
4.249999523162842
  0
LINE
  5
3E5
330
1F
100
AcDbEntity
  8
C-9
  6
Continuous
 62
     3
370
     9
100
AcDbLine
 10
-948.0829290777103
 20
451.5715280033329
 30
0.0
 11
-949.3329290777103
 21
451.5715280033329
 31
0.0
  0
LINE
  5
3E6
330
1F
100
AcDbEntity
  8
C-9
  6
Continuous
 62
     3
370
     9
100
AcDbLine
 10
-948.0829290777103
 20
451.5715280033329
 30
0.0
 11
-948.0829290777103
 21
422.5715432621247
 31
0.0
  0
LINE
  5
3E7
330
1F
100
AcDbEntity
  8
C-9
  6
Continuous
 62
     3
370
     9
100
AcDbLine
 10
-949.337567749584
 20
455.571543262122
 30
0.0
 11
-948.8243841558335
 21
455.571543262122
 31
0.0
  0
LINE
  5
3E8
330
1F
100
AcDbEntity
  8
C-9
  6
Continuous
 62
     3
370
     9
100
AcDbLine
 10
-964.8328070073978
 20
455.571543262122
 30
0.0
 11
-964.3328680425532
 21
455.571543262122
 31
0.0
  0
LINE
  5
3E9
330
1F
100
AcDbEntity
  8
C-9
  6
Continuous
 62
     3
370
     9
100
AcDbLine
 10
-965.5829901128652
 20
451.5715280033329
 30
0.0
 11
-964.3329901128652
 21
451.5715280033329
 31
0.0
  0
LINE
  5
3EA
330
1F
100
AcDbEntity
  8
C-9
  6
Continuous
 62
     3
370
     9
100
AcDbLine
 10
-965.5829901128652
 20
451.5715280033329
 30
0.0
 11
-965.5829901128652
 21
422.5715432621247
 31
0.0
  0
LINE
  5
3EB
330
1F
100
AcDbEntity
  8
C-9
  6
Continuous
 62
     3
370
     9
100
AcDbLine
 10
-948.0829290777103
 20
422.5715432621247
 30
0.0
 11
-965.5829901128652
 21
422.5715432621247
 31
0.0
  0
LINE
  5
3EC
330
1F
100
AcDbEntity
  8
C-9
  6
JWW_DASHED2
 62
     3
370
     9
100
AcDbLine
 10
-950.0829290777085
 20
451.7174325443513
 30
0.0
 11
-950.0829290777085
 21
422.5715432621247
 31
0.0
  0
LINE
  5
3ED
330
1F
100
AcDbEntity
  8
C-9
  6
JWW_DASHED2
 62
     3
370
     9
100
AcDbLine
 10
-963.5829290777099
 20
451.7174325443513
 30
0.0
 11
-963.5829290777099
 21
422.5715432621247
 31
0.0
  0
LINE
  5
3EE
330
1F
100
AcDbEntity
  8
C-9
  6
JWW_CENTER2
 62
     7
370
     9
100
AcDbLine
 10
-962.6089300542719
 20
432.5715890384892
 30
0.0
 11
-951.0568670659916
 21
432.5715890384892
 31
0.0
  0
LINE
  5
3EF
330
1F
100
AcDbEntity
  8
C-9
  6
JWW_CENTER2
 62
     7
370
     9
100
AcDbLine
 10
-956.8328680425532
 20
465.0397134281412
 30
0.0
 11
-956.8328680425532
 21
417.6393228031385
 31
0.0
  0
ARC
  5
3F0
330
1F
100
AcDbEntity
  8
C-9
  6
Continuous
 62
     3
370
     9
100
AcDbCircle
 10
-948.8328680425536
 20
457.5715127445438
 30
0.0
 40
1.999999642372131
100
AcDbArc
 50
270.2416229248047
 51
330.0007171630859
  0
ARC
  5
3F1
330
1F
100
AcDbEntity
  8
C-9
  6
Continuous
 62
     3
370
     9
100
AcDbCircle
 10
-949.3329290777103
 20
453.5715432621238
 30
0.0
 40
1.999999642372131
100
AcDbArc
 50
90.13328552246094
 51
270.0
  0
ARC
  5
3F2
330
1F
100
AcDbEntity
  8
C-9
  6
Continuous
 62
     3
370
     9
100
AcDbCircle
 10
-964.8328070073978
 20
457.5715127445438
 30
0.0
 40
1.999999642372131
100
AcDbArc
 50
209.99951171875
 51
269.7240295410156
  0
ARC
  5
3F3
330
1F
100
AcDbEntity
  8
C-9
  6
Continuous
 62
     3
370
     9
100
AcDbCircle
 10
-964.3329901128652
 20
453.5715432621238
 30
0.0
 40
1.999999642372131
100
AcDbArc
 50
270.0
 51
90.0
  0
CIRCLE
  5
3F4
330
1F
100
AcDbEntity
  8
C-9
  6
Continuous
 62
     3
370
     9
100
AcDbCircle
 10
-956.8328680425532
 20
432.5715890384892
 30
0.0
 40
4.249999523162842
  0
LINE
  5
3F5
330
1F
100
AcDbEntity
  8
C-9
  6
Continuous
 62
     3
370
     9
100
AcDbLine
 10
-638.0819830327886
 20
971.571997546571
 30
0.0
 11
-639.3319830327886
 21
971.571997546571
 31
0.0
  0
LINE
  5
3F6
330
1F
100
AcDbEntity
  8
C-9
  6
Continuous
 62
     3
370
     9
100
AcDbLine
 10
-638.0819830327886
 20
971.571997546571
 30
0.0
 11
-638.0819830327886
 21
1000.571981810945
 31
0.0
  0
LINE
  5
3F7
330
1F
100
AcDbEntity
  8
C-9
  6
Continuous
 62
     3
370
     9
100
AcDbLine
 10
-639.3366217046622
 20
967.5719841951287
 30
0.0
 11
-638.8234381109118
 21
967.5719841951287
 31
0.0
  0
LINE
  5
3F8
330
1F
100
AcDbEntity
  8
C-9
  6
Continuous
 62
     3
370
     9
100
AcDbLine
 10
-654.8318609624761
 20
967.5719841951287
 30
0.0
 11
-654.3319219976314
 21
967.5719841951287
 31
0.0
  0
LINE
  5
3F9
330
1F
100
AcDbEntity
  8
C-9
  6
Continuous
 62
     3
370
     9
100
AcDbLine
 10
-655.5820440679435
 20
971.571997546571
 30
0.0
 11
-654.3320440679435
 21
971.571997546571
 31
0.0
  0
LINE
  5
3FA
330
1F
100
AcDbEntity
  8
C-9
  6
Continuous
 62
     3
370
     9
100
AcDbLine
 10
-655.5820440679435
 20
971.571997546571
 30
0.0
 11
-655.5820440679435
 21
1000.571981810945
 31
0.0
  0
LINE
  5
3FB
330
1F
100
AcDbEntity
  8
C-9
  6
Continuous
 62
     3
370
     9
100
AcDbLine
 10
-638.0819830327886
 20
1000.571981810945
 30
0.0
 11
-655.5820440679435
 21
1000.571981810945
 31
0.0
  0
LINE
  5
3FC
330
1F
100
AcDbEntity
  8
C-9
  6
JWW_DASHED2
 62
     3
370
     9
100
AcDbLine
 10
-640.0819830327868
 20
971.4260820382993
 30
0.0
 11
-640.0819830327868
 21
1000.571981810945
 31
0.0
  0
LINE
  5
3FD
330
1F
100
AcDbEntity
  8
C-9
  6
JWW_DASHED2
 62
     3
370
     9
100
AcDbLine
 10
-653.5819830327881
 20
971.4260820382993
 30
0.0
 11
-653.5819830327881
 21
1000.571981810945
 31
0.0
  0
LINE
  5
3FE
330
1F
100
AcDbEntity
  8
C-9
  6
JWW_CENTER2
 62
     7
370
     9
100
AcDbLine
 10
-652.6079840093502
 20
990.5719360345757
 30
0.0
 11
-641.0559210210698
 21
990.5719360345757
 31
0.0
  0
LINE
  5
3FF
330
1F
100
AcDbEntity
  8
C-9
  6
JWW_CENTER2
 62
     7
370
     9
100
AcDbLine
 10
-646.8319219976314
 20
958.1038030618585
 30
0.0
 11
-646.8319219976314
 21
1005.504202269929
 31
0.0
  0
ARC
  5
400
330
1F
100
AcDbEntity
  8
C-9
  6
Continuous
 62
     3
370
     9
100
AcDbCircle
 10
-638.8319219976319
 20
965.5720023149412
 30
0.0
 40
1.999999642372131
100
AcDbArc
 50
29.99926757812499
 51
89.75836181640622
  0
ARC
  5
401
330
1F
100
AcDbEntity
  8
C-9
  6
Continuous
 62
     3
370
     9
100
AcDbCircle
 10
-639.3319830327886
 20
969.5719784730842
 30
0.0
 40
1.999999642372131
100
AcDbArc
 50
90.0
 51
269.86669921875
  0
ARC
  5
402
330
1F
100
AcDbEntity
  8
C-9
  6
Continuous
 62
     3
370
     9
100
AcDbCircle
 10
-654.8318609624761
 20
965.5720023149412
 30
0.0
 40
1.999999642372131
100
AcDbArc
 50
90.27595520019531
 51
150.0004730224609
  0
ARC
  5
403
330
1F
100
AcDbEntity
  8
C-9
  6
Continuous
 62
     3
370
     9
100
AcDbCircle
 10
-654.3320440679435
 20
969.5719784730842
 30
0.0
 40
1.999999642372131
100
AcDbArc
 50
270.0
 51
90.0
  0
CIRCLE
  5
404
330
1F
100
AcDbEntity
  8
C-9
  6
Continuous
 62
     3
370
     9
100
AcDbCircle
 10
-646.8319219976314
 20
990.5719360345757
 30
0.0
 40
4.249999523162842
  0
LINE
  5
405
330
1F
100
AcDbEntity
  8
C-9
  6
Continuous
 62
     3
370
     9
100
AcDbLine
 10
-638.0819830327886
 20
451.5715280033329
 30
0.0
 11
-639.3319830327886
 21
451.5715280033329
 31
0.0
  0
LINE
  5
406
330
1F
100
AcDbEntity
  8
C-9
  6
Continuous
 62
     3
370
     9
100
AcDbLine
 10
-638.0819830327886
 20
451.5715280033329
 30
0.0
 11
-638.0819830327886
 21
422.5715432621247
 31
0.0
  0
LINE
  5
407
330
1F
100
AcDbEntity
  8
C-9
  6
Continuous
 62
     3
370
     9
100
AcDbLine
 10
-639.3366217046622
 20
455.571543262122
 30
0.0
 11
-638.8234381109118
 21
455.571543262122
 31
0.0
  0
LINE
  5
408
330
1F
100
AcDbEntity
  8
C-9
  6
Continuous
 62
     3
370
     9
100
AcDbLine
 10
-654.8318609624761
 20
455.571543262122
 30
0.0
 11
-654.3319219976314
 21
455.571543262122
 31
0.0
  0
LINE
  5
409
330
1F
100
AcDbEntity
  8
C-9
  6
Continuous
 62
     3
370
     9
100
AcDbLine
 10
-655.5820440679435
 20
451.5715280033329
 30
0.0
 11
-654.3320440679435
 21
451.5715280033329
 31
0.0
  0
LINE
  5
40A
330
1F
100
AcDbEntity
  8
C-9
  6
Continuous
 62
     3
370
     9
100
AcDbLine
 10
-655.5820440679435
 20
451.5715280033329
 30
0.0
 11
-655.5820440679435
 21
422.5715432621247
 31
0.0
  0
LINE
  5
40B
330
1F
100
AcDbEntity
  8
C-9
  6
Continuous
 62
     3
370
     9
100
AcDbLine
 10
-638.0819830327886
 20
422.5715432621247
 30
0.0
 11
-655.5820440679435
 21
422.5715432621247
 31
0.0
  0
LINE
  5
40C
330
1F
100
AcDbEntity
  8
C-9
  6
JWW_DASHED2
 62
     3
370
     9
100
AcDbLine
 10
-640.0819830327868
 20
451.7174325443513
 30
0.0
 11
-640.0819830327868
 21
422.5715432621247
 31
0.0
  0
LINE
  5
40D
330
1F
100
AcDbEntity
  8
C-9
  6
JWW_DASHED2
 62
     3
370
     9
100
AcDbLine
 10
-653.5819830327881
 20
451.7174325443513
 30
0.0
 11
-653.5819830327881
 21
422.5715432621247
 31
0.0
  0
LINE
  5
40E
330
1F
100
AcDbEntity
  8
C-9
  6
JWW_CENTER2
 62
     7
370
     9
100
AcDbLine
 10
-652.6079840093502
 20
432.5715890384892
 30
0.0
 11
-641.0559210210698
 21
432.5715890384892
 31
0.0
  0
LINE
  5
40F
330
1F
100
AcDbEntity
  8
C-9
  6
JWW_CENTER2
 62
     7
370
     9
100
AcDbLine
 10
-646.8319219976314
 20
465.0397134281412
 30
0.0
 11
-646.8319219976314
 21
417.6393228031385
 31
0.0
  0
ARC
  5
410
330
1F
100
AcDbEntity
  8
C-9
  6
Continuous
 62
     3
370
     9
100
AcDbCircle
 10
-638.8319219976319
 20
457.5715127445438
 30
0.0
 40
1.999999642372131
100
AcDbArc
 50
270.2416229248047
 51
330.0007171630859
  0
ARC
  5
411
330
1F
100
AcDbEntity
  8
C-9
  6
Continuous
 62
     3
370
     9
100
AcDbCircle
 10
-639.3319830327886
 20
453.5715432621238
 30
0.0
 40
1.999999642372131
100
AcDbArc
 50
90.13328552246094
 51
270.0
  0
ARC
  5
412
330
1F
100
AcDbEntity
  8
C-9
  6
Continuous
 62
     3
370
     9
100
AcDbCircle
 10
-654.8318609624761
 20
457.5715127445438
 30
0.0
 40
1.999999642372131
100
AcDbArc
 50
209.99951171875
 51
269.7240295410156
  0
ARC
  5
413
330
1F
100
AcDbEntity
  8
C-9
  6
Continuous
 62
     3
370
     9
100
AcDbCircle
 10
-654.3320440679435
 20
453.5715432621238
 30
0.0
 40
1.999999642372131
100
AcDbArc
 50
270.0
 51
90.0
  0
CIRCLE
  5
414
330
1F
100
AcDbEntity
  8
C-9
  6
Continuous
 62
     3
370
     9
100
AcDbCircle
 10
-646.8319219976314
 20
432.5715890384892
 30
0.0
 40
4.249999523162842
  0
LINE
  5
415
330
1F
100
AcDbEntity
  8
C-4
  6
Continuous
 62
     7
370
     9
100
AcDbLine
 10
-1282.227058420488
 20
966.5717582449998
 30
0.0
 11
-1282.227058420488
 21
456.571717005029
 31
0.0
  0
LWPOLYLINE
  5
416
330
1F
100
AcDbEntity
  8
C-4
  6
Continuous
 62
     7
370
     9
100
AcDbPolyline
 90
        4
 70
     1
 43
1.0
 10
-1281.727058420488
 20
966.5717582449998
 42
0.4142135623731
 10
-1282.227058420488
 20
967.0717582449998
 42
0.4142135623731
 10
-1282.727058420488
 20
966.5717582449998
 42
0.4142135623731
 10
-1282.227058420488
 20
966.071758245
 42
0.4142135623731
  0
LWPOLYLINE
  5
417
330
1F
100
AcDbEntity
  8
C-4
  6
Continuous
 62
     7
370
     9
100
AcDbPolyline
 90
        4
 70
     1
 43
1.0
 10
-1281.727058420488
 20
456.571717005029
 42
0.4142135623731
 10
-1282.227058420488
 20
457.071717005029
 42
0.4142135623731
 10
-1282.727058420488
 20
456.571717005029
 42
0.4142135623731
 10
-1282.227058420488
 20
456.071717005029
 42
0.4142135623731
  0
TEXT
  5
418
330
1F
100
AcDbEntity
  8
C-4
  6
Continuous
 62
     2
370
   211
100
AcDbText
 10
-1293.867058420489
 20
679.0717376250144
 30
0.0
 40
30.48
  1
510
 50
90.0
 41
1.083333333333333
  7
ＭＳ ゴシック
100
AcDbText
  0
LINE
  5
419
330
1F
100
AcDbEntity
  8
C-4
  6
Continuous
 62
     7
370
     9
100
AcDbLine
 10
-1056.832395020092
 20
1217.632450211402
 30
0.0
 11
-546.8323950200926
 21
1217.632450211402
 31
0.0
  0
LWPOLYLINE
  5
41A
330
1F
100
AcDbEntity
  8
C-4
  6
Continuous
 62
     7
370
     9
100
AcDbPolyline
 90
        4
 70
     1
 43
1.0
 10
-1056.332395020093
 20
1217.632450211402
 42
0.4142135623731
 10
-1056.832395020092
 20
1218.132450211402
 42
0.4142135623731
 10
-1057.332395020092
 20
1217.632450211402
 42
0.4142135623731
 10
-1056.832395020092
 20
1217.132450211402
 42
0.4142135623731
  0
LWPOLYLINE
  5
41B
330
1F
100
AcDbEntity
  8
C-4
  6
Continuous
 62
     7
370
     9
100
AcDbPolyline
 90
        4
 70
     1
 43
1.0
 10
-546.3323950200926
 20
1217.632450211402
 42
0.4142135623731
 10
-546.8323950200926
 20
1218.132450211402
 42
0.4142135623731
 10
-547.3323950200926
 20
1217.632450211402
 42
0.4142135623731
 10
-546.8323950200926
 20
1217.132450211402
 42
0.4142135623731
  0
TEXT
  5
41C
330
1F
100
AcDbEntity
  8
C-4
  6
Continuous
 62
     2
370
   211
100
AcDbText
 10
-834.3323950200926
 20
1229.272450211402
 30
0.0
 40
30.48
  1
510
 41
1.083333333333333
  7
ＭＳ ゴシック
100
AcDbText
  0
LINE
  5
41D
330
1F
100
AcDbEntity
  8
C-4
  6
Continuous
 62
     7
370
     9
100
AcDbLine
 10
-1026.832642459915
 20
1076.695876736467
 30
0.0
 11
-576.8310341010681
 21
1076.695876736467
 31
0.0
  0
LWPOLYLINE
  5
41E
330
1F
100
AcDbEntity
  8
C-4
  6
Continuous
 62
     7
370
     9
100
AcDbPolyline
 90
        4
 70
     1
 43
1.0
 10
-1026.332642459916
 20
1076.695876736467
 42
0.4142135623731
 10
-1026.832642459915
 20
1077.195876736467
 42
0.4142135623731
 10
-1027.332642459915
 20
1076.695876736467
 42
0.4142135623731
 10
-1026.832642459915
 20
1076.195876736467
 42
0.4142135623731
  0
LWPOLYLINE
  5
41F
330
1F
100
AcDbEntity
  8
C-4
  6
Continuous
 62
     7
370
     9
100
AcDbPolyline
 90
        4
 70
     1
 43
1.0
 10
-576.3310341010681
 20
1076.695876736467
 42
0.4142135623731
 10
-576.8310341010681
 20
1077.195876736467
 42
0.4142135623731
 10
-577.3310341010681
 20
1076.695876736467
 42
0.4142135623731
 10
-576.8310341010681
 20
1076.195876736467
 42
0.4142135623731
  0
TEXT
  5
420
330
1F
100
AcDbEntity
  8
C-4
  6
Continuous
 62
     2
370
   211
100
AcDbText
 10
-834.3318382804915
 20
1088.335876736467
 30
0.0
 40
30.48
  1
450
 41
1.083333333333333
  7
ＭＳ ゴシック
100
AcDbText
  0
LWPOLYLINE
  5
421
330
1F
100
AcDbEntity
  8
C-4
  6
Continuous
 62
     7
370
     9
100
AcDbPolyline
 90
        4
 70
     1
 43
1.0
 10
-1056.332395020093
 20
1147.164163473934
 42
0.4142135623731
 10
-1056.832395020092
 20
1147.664163473934
 42
0.4142135623731
 10
-1057.332395020092
 20
1147.164163473934
 42
0.4142135623731
 10
-1056.832395020092
 20
1146.664163473934
 42
0.4142135623731
  0
LWPOLYLINE
  5
422
330
1F
100
AcDbEntity
  8
C-4
  6
Continuous
 62
     7
370
     9
100
AcDbPolyline
 90
        4
 70
     1
 43
1.0
 10
-1053.332395020092
 20
1147.164163473934
 42
0.4142135623731
 10
-1053.832395020092
 20
1147.664163473934
 42
0.4142135623731
 10
-1054.332395020092
 20
1147.164163473934
 42
0.4142135623731
 10
-1053.832395020092
 20
1146.664163473934
 42
0.4142135623731
  0
LINE
  5
423
330
1F
100
AcDbEntity
  8
C-4
  6
Continuous
 62
     7
370
     9
100
AcDbLine
 10
-1053.832395020092
 20
1147.164163473934
 30
0.0
 11
-1050.8321063403
 21
1147.164163473934
 31
0.0
  0
LWPOLYLINE
  5
424
330
1F
100
AcDbEntity
  8
C-4
  6
Continuous
 62
     7
370
     9
100
AcDbPolyline
 90
        4
 70
     1
 43
1.0
 10
-1050.3321063403
 20
1147.164163473934
 42
0.4142135623731
 10
-1050.8321063403
 20
1147.664163473934
 42
0.4142135623731
 10
-1051.3321063403
 20
1147.164163473934
 42
0.4142135623731
 10
-1050.8321063403
 20
1146.664163473934
 42
0.4142135623731
  0
LINE
  5
425
330
1F
100
AcDbEntity
  8
C-4
  6
Continuous
 62
     7
370
     9
100
AcDbLine
 10
-1050.8321063403
 20
1147.164163473934
 30
0.0
 11
-552.8326836998855
 21
1147.164163473934
 31
0.0
  0
LWPOLYLINE
  5
426
330
1F
100
AcDbEntity
  8
C-4
  6
Continuous
 62
     7
370
     9
100
AcDbPolyline
 90
        4
 70
     1
 43
1.0
 10
-552.3326836998855
 20
1147.164163473934
 42
0.4142135623731
 10
-552.8326836998855
 20
1147.664163473934
 42
0.4142135623731
 10
-553.3326836998855
 20
1147.164163473934
 42
0.4142135623731
 10
-552.8326836998855
 20
1146.664163473934
 42
0.4142135623731
  0
TEXT
  5
427
330
1F
100
AcDbEntity
  8
C-4
  6
Continuous
 62
     2
370
   211
100
AcDbText
 10
-834.3323950200926
 20
1158.804163473935
 30
0.0
 40
30.48
  1
498
 41
1.083333333333333
  7
ＭＳ ゴシック
100
AcDbText
  0
LINE
  5
428
330
1F
100
AcDbEntity
  8
C-4
  6
Continuous
 62
     7
370
     9
100
AcDbLine
 10
-552.8326836998855
 20
1147.164163473934
 30
0.0
 11
-549.8323950200927
 21
1147.164163473934
 31
0.0
  0
LWPOLYLINE
  5
429
330
1F
100
AcDbEntity
  8
C-4
  6
Continuous
 62
     7
370
     9
100
AcDbPolyline
 90
        4
 70
     1
 43
1.0
 10
-549.3323950200927
 20
1147.164163473934
 42
0.4142135623731
 10
-549.8323950200927
 20
1147.664163473934
 42
0.4142135623731
 10
-550.3323950200927
 20
1147.164163473934
 42
0.4142135623731
 10
-549.8323950200927
 20
1146.664163473934
 42
0.4142135623731
  0
LWPOLYLINE
  5
42A
330
1F
100
AcDbEntity
  8
C-4
  6
Continuous
 62
     7
370
     9
100
AcDbPolyline
 90
        4
 70
     1
 43
1.0
 10
-546.3323950200926
 20
1147.164163473934
 42
0.4142135623731
 10
-546.8323950200926
 20
1147.664163473934
 42
0.4142135623731
 10
-547.3323950200926
 20
1147.164163473934
 42
0.4142135623731
 10
-546.8323950200926
 20
1146.664163473934
 42
0.4142135623731
  0
TEXT
  5
42B
330
1F
100
AcDbEntity
  8
C-4
  6
Continuous
 62
     2
370
   211
100
AcDbText
 10
-1087.502726849953
 20
1158.804163473935
 30
0.0
 40
30.48
  1
3
 41
0.9999999999999998
  7
ＭＳ ゴシック
100
AcDbText
  0
TEXT
  5
42C
330
1F
100
AcDbEntity
  8
C-4
  6
Continuous
 62
     2
370
   211
100
AcDbText
 10
-532.5757532873723
 20
1158.804163473935
 30
0.0
 40
30.48
  1
3
 41
0.9999999999999998
  7
ＭＳ ゴシック
100
AcDbText
  0
TEXT
  5
42D
330
1F
100
AcDbEntity
  8
C-4
  6
Continuous
 62
     2
370
   211
100
AcDbText
 10
-573.9882140009979
 20
1158.804163473935
 30
0.0
 40
30.48
  1
3
 41
0.9999999999999998
  7
ＭＳ ゴシック
100
AcDbText
  0
LINE
  5
42E
330
1F
100
AcDbEntity
  8
C-4
  6
Continuous
 62
     7
370
     9
100
AcDbLine
 10
-1086.973909994644
 20
1147.164163473934
 30
0.0
 11
-1053.832395020092
 21
1147.164163473934
 31
0.0
  0
LINE
  5
42F
330
1F
100
AcDbEntity
  8
C-4
  6
Continuous
 62
     7
370
     9
100
AcDbLine
 10
-549.8323950200927
 20
1147.164163473934
 30
0.0
 11
-510.2074021092187
 21
1147.164163473934
 31
0.0
  0
LINE
  5
430
330
1F
100
AcDbEntity
  8
C-4
  6
Continuous
 62
     7
370
     9
100
AcDbLine
 10
-1056.832395020092
 20
1220.632450211403
 30
0.0
 11
-1056.832395020092
 21
981.5717582449998
 31
0.0
  0
LINE
  5
431
330
1F
100
AcDbEntity
  8
C-4
  6
Continuous
 62
     7
370
     9
100
AcDbLine
 10
-546.8323950200926
 20
1220.632450211403
 30
0.0
 11
-546.8323950200926
 21
981.5717582449998
 31
0.0
  0
LINE
  5
432
330
1F
100
AcDbEntity
  8
C-4
  6
Continuous
 62
     7
370
     9
100
AcDbLine
 10
-1026.832642459915
 20
1079.695876736467
 30
0.0
 11
-1026.832642459915
 21
981.5717582449998
 31
0.0
  0
LINE
  5
433
330
1F
100
AcDbEntity
  8
C-4
  6
Continuous
 62
     7
370
     9
100
AcDbLine
 10
-576.8310341010681
 20
1079.695876736467
 30
0.0
 11
-576.8310341010681
 21
981.5717582449998
 31
0.0
  0
LINE
  5
434
330
1F
100
AcDbEntity
  8
C-4
  6
Continuous
 62
     7
370
     9
100
AcDbLine
 10
-1053.832395020092
 20
1150.164163473935
 30
0.0
 11
-1053.832395020092
 21
981.5717582449998
 31
0.0
  0
LINE
  5
435
330
1F
100
AcDbEntity
  8
C-4
  6
Continuous
 62
     7
370
     9
100
AcDbLine
 10
-1050.8321063403
 20
1150.164163473935
 30
0.0
 11
-1050.8321063403
 21
981.5717582449998
 31
0.0
  0
LINE
  5
436
330
1F
100
AcDbEntity
  8
C-4
  6
Continuous
 62
     7
370
     9
100
AcDbLine
 10
-552.8326836998855
 20
1150.164163473935
 30
0.0
 11
-552.8326836998855
 21
981.5717582449998
 31
0.0
  0
LINE
  5
437
330
1F
100
AcDbEntity
  8
C-4
  6
Continuous
 62
     7
370
     9
100
AcDbLine
 10
-549.8323950200927
 20
1150.164163473935
 30
0.0
 11
-549.8323950200927
 21
981.5717582449998
 31
0.0
  0
LINE
  5
438
330
1F
100
AcDbEntity
  8
C-4
  6
Continuous
 62
     7
370
     9
100
AcDbLine
 10
-1135.519581855367
 20
936.5714283252363
 30
0.0
 11
-1135.519581855367
 21
486.5713046053248
 31
0.0
  0
LWPOLYLINE
  5
439
330
1F
100
AcDbEntity
  8
C-4
  6
Continuous
 62
     7
370
     9
100
AcDbPolyline
 90
        4
 70
     1
 43
1.0
 10
-1135.019581855367
 20
936.5714283252363
 42
0.4142135623731
 10
-1135.519581855367
 20
937.0714283252363
 42
0.4142135623731
 10
-1136.019581855366
 20
936.5714283252363
 42
0.4142135623731
 10
-1135.519581855367
 20
936.0714283252364
 42
0.4142135623731
  0
LWPOLYLINE
  5
43A
330
1F
100
AcDbEntity
  8
C-4
  6
Continuous
 62
     7
370
     9
100
AcDbPolyline
 90
        4
 70
     1
 43
1.0
 10
-1135.019581855367
 20
486.5713046053248
 42
0.4142135623731
 10
-1135.519581855367
 20
487.0713046053248
 42
0.4142135623731
 10
-1136.019581855366
 20
486.5713046053248
 42
0.4142135623731
 10
-1135.519581855367
 20
486.0713046053249
 42
0.4142135623731
  0
TEXT
  5
43B
330
1F
100
AcDbEntity
  8
C-4
  6
Continuous
 62
     2
370
   211
100
AcDbText
 10
-1147.159581855367
 20
679.07136646528
 30
0.0
 40
30.48
  1
450
 50
90.0
 41
1.083333333333333
  7
ＭＳ ゴシック
100
AcDbText
  0
LWPOLYLINE
  5
43C
330
1F
100
AcDbEntity
  8
C-4
  6
Continuous
 62
     7
370
     9
100
AcDbPolyline
 90
        4
 70
     1
 43
1.0
 10
-1208.373320137927
 20
966.5717582449998
 42
0.4142135623731
 10
-1208.873320137927
 20
967.0717582449998
 42
0.4142135623731
 10
-1209.373320137927
 20
966.5717582449998
 42
0.4142135623731
 10
-1208.873320137927
 20
966.071758245
 42
0.4142135623731
  0
LWPOLYLINE
  5
43D
330
1F
100
AcDbEntity
  8
C-4
  6
Continuous
 62
     7
370
     9
100
AcDbPolyline
 90
        4
 70
     1
 43
1.0
 10
-1208.373320137927
 20
963.5717582449992
 42
0.4142135623731
 10
-1208.873320137927
 20
964.0717582449992
 42
0.4142135623731
 10
-1209.373320137927
 20
963.5717582449992
 42
0.4142135623731
 10
-1208.873320137927
 20
963.0717582449993
 42
0.4142135623731
  0
LINE
  5
43E
330
1F
100
AcDbEntity
  8
C-4
  6
Continuous
 62
     7
370
     9
100
AcDbLine
 10
-1208.873320137927
 20
963.5717582449992
 30
0.0
 11
-1208.873320137927
 21
961.5717582449998
 31
0.0
  0
LWPOLYLINE
  5
43F
330
1F
100
AcDbEntity
  8
C-4
  6
Continuous
 62
     7
370
     9
100
AcDbPolyline
 90
        4
 70
     1
 43
1.0
 10
-1208.373320137927
 20
961.5717582449998
 42
0.4142135623731
 10
-1208.873320137927
 20
962.0717582449998
 42
0.4142135623731
 10
-1209.373320137927
 20
961.5717582449998
 42
0.4142135623731
 10
-1208.873320137927
 20
961.071758245
 42
0.4142135623731
  0
LINE
  5
440
330
1F
100
AcDbEntity
  8
C-4
  6
Continuous
 62
     7
370
     9
100
AcDbLine
 10
-1208.873320137927
 20
961.5717582449998
 30
0.0
 11
-1208.873320137927
 21
461.571717005029
 31
0.0
  0
LWPOLYLINE
  5
441
330
1F
100
AcDbEntity
  8
C-4
  6
Continuous
 62
     7
370
     9
100
AcDbPolyline
 90
        4
 70
     1
 43
1.0
 10
-1208.373320137927
 20
461.571717005029
 42
0.4142135623731
 10
-1208.873320137927
 20
462.071717005029
 42
0.4142135623731
 10
-1209.373320137927
 20
461.571717005029
 42
0.4142135623731
 10
-1208.873320137927
 20
461.071717005029
 42
0.4142135623731
  0
TEXT
  5
442
330
1F
100
AcDbEntity
  8
C-4
  6
Continuous
 62
     2
370
   211
100
AcDbText
 10
-1220.513320137927
 20
679.0717376250144
 30
0.0
 40
30.48
  1
500
 50
90.0
 41
1.083333333333333
  7
ＭＳ ゴシック
100
AcDbText
  0
LINE
  5
443
330
1F
100
AcDbEntity
  8
C-4
  6
Continuous
 62
     7
370
     9
100
AcDbLine
 10
-1208.873320137927
 20
461.571717005029
 30
0.0
 11
-1208.873320137927
 21
459.5717170050285
 31
0.0
  0
LWPOLYLINE
  5
444
330
1F
100
AcDbEntity
  8
C-4
  6
Continuous
 62
     7
370
     9
100
AcDbPolyline
 90
        4
 70
     1
 43
1.0
 10
-1208.373320137927
 20
459.5717170050285
 42
0.4142135623731
 10
-1208.873320137927
 20
460.0717170050285
 42
0.4142135623731
 10
-1209.373320137927
 20
459.5717170050285
 42
0.4142135623731
 10
-1208.873320137927
 20
459.0717170050286
 42
0.4142135623731
  0
LWPOLYLINE
  5
445
330
1F
100
AcDbEntity
  8
C-4
  6
Continuous
 62
     7
370
     9
100
AcDbPolyline
 90
        4
 70
     1
 43
1.0
 10
-1208.373320137927
 20
456.571717005029
 42
0.4142135623731
 10
-1208.873320137927
 20
457.071717005029
 42
0.4142135623731
 10
-1209.373320137927
 20
456.571717005029
 42
0.4142135623731
 10
-1208.873320137927
 20
456.071717005029
 42
0.4142135623731
  0
TEXT
  5
446
330
1F
100
AcDbEntity
  8
C-4
  6
Continuous
 62
     2
370
   211
100
AcDbText
 10
-1220.513320137927
 20
987.4178558795951
 30
0.0
 40
30.48
  1
3
 50
90.0
 41
0.9999999999999998
  7
ＭＳ ゴシック
100
AcDbText
  0
TEXT
  5
447
330
1F
100
AcDbEntity
  8
C-4
  6
Continuous
 62
     2
370
   211
100
AcDbText
 10
-1220.513320137927
 20
935.6522799875632
 30
0.0
 40
30.48
  1
2
 50
90.0
 41
0.9999999999999998
  7
ＭＳ ゴシック
100
AcDbText
  0
TEXT
  5
448
330
1F
100
AcDbEntity
  8
C-4
  6
Continuous
 62
     2
370
   211
100
AcDbText
 10
-1220.513320137927
 20
420.3259719823872
 30
0.0
 40
30.48
  1
3
 50
90.0
 41
0.9999999999999998
  7
ＭＳ ゴシック
100
AcDbText
  0
TEXT
  5
449
330
1F
100
AcDbEntity
  8
C-4
  6
Continuous
 62
     2
370
   211
100
AcDbText
 10
-1220.513320137927
 20
463.8090557316935
 30
0.0
 40
30.48
  1
2
 50
90.0
 41
0.9999999999999998
  7
ＭＳ ゴシック
100
AcDbText
  0
LINE
  5
44A
330
1F
100
AcDbEntity
  8
C-4
  6
Continuous
 62
     7
370
     9
100
AcDbLine
 10
-1208.873320137927
 20
459.5717170050285
 30
0.0
 11
-1208.873320137927
 21
418.8906793326579
 31
0.0
  0
LINE
  5
44B
330
1F
100
AcDbEntity
  8
C-4
  6
Continuous
 62
     7
370
     9
100
AcDbLine
 10
-1208.873320137927
 20
1006.426888649667
 30
0.0
 11
-1208.873320137927
 21
963.5717582449992
 31
0.0
  0
LINE
  5
44C
330
1F
100
AcDbEntity
  8
C-4
  6
Continuous
 62
     7
370
     9
100
AcDbLine
 10
-1285.227058420488
 20
456.571717005029
 30
0.0
 11
-1070.8321063403
 21
456.571717005029
 31
0.0
  0
LINE
  5
44D
330
1F
100
AcDbEntity
  8
C-4
  6
Continuous
 62
     7
370
     9
100
AcDbLine
 10
-1285.227058420488
 20
966.5717582449998
 30
0.0
 11
-1070.8321063403
 21
966.5717582449998
 31
0.0
  0
LINE
  5
44E
330
1F
100
AcDbEntity
  8
C-4
  6
Continuous
 62
     7
370
     9
100
AcDbLine
 10
-1138.519581855367
 20
936.5714283252363
 30
0.0
 11
-1070.8321063403
 21
936.5714283252363
 31
0.0
  0
LINE
  5
44F
330
1F
100
AcDbEntity
  8
C-4
  6
Continuous
 62
     7
370
     9
100
AcDbLine
 10
-1138.519581855367
 20
486.5713046053248
 30
0.0
 11
-1070.8321063403
 21
486.5713046053248
 31
0.0
  0
LINE
  5
450
330
1F
100
AcDbEntity
  8
C-4
  6
Continuous
 62
     7
370
     9
100
AcDbLine
 10
-1211.873320137927
 20
963.5717582449992
 30
0.0
 11
-1070.8321063403
 21
963.5717582449992
 31
0.0
  0
LINE
  5
451
330
1F
100
AcDbEntity
  8
C-4
  6
Continuous
 62
     7
370
     9
100
AcDbLine
 10
-1211.873320137927
 20
961.5717582449998
 30
0.0
 11
-1070.8321063403
 21
961.5717582449998
 31
0.0
  0
LINE
  5
452
330
1F
100
AcDbEntity
  8
C-4
  6
Continuous
 62
     7
370
     9
100
AcDbLine
 10
-1211.873320137927
 20
461.571717005029
 30
0.0
 11
-1070.8321063403
 21
461.571717005029
 31
0.0
  0
LINE
  5
453
330
1F
100
AcDbEntity
  8
C-4
  6
Continuous
 62
     7
370
     9
100
AcDbLine
 10
-1211.873320137927
 20
459.5717170050285
 30
0.0
 11
-1070.8321063403
 21
459.5717170050285
 31
0.0
  0
LWPOLYLINE
  5
454
330
1F
100
AcDbEntity
  8
C-4
  6
Continuous
 62
     7
370
     9
100
AcDbPolyline
 90
        4
 70
     1
 43
1.0
 10
-956.3329424291488
 20
336.3302960935927
 42
0.4142135623731
 10
-956.8329424291488
 20
336.8302960935927
 42
0.4142135623731
 10
-957.3329424291488
 20
336.3302960935927
 42
0.4142135623731
 10
-956.8329424291488
 20
335.8302960935927
 42
0.4142135623731
  0
TEXT
  5
455
330
1F
100
AcDbEntity
  8
C-4
  6
Continuous
 62
     2
370
   211
100
AcDbText
 10
-1039.332668724621
 20
347.9702960935929
 30
0.0
 40
30.48
  1
100
 41
1.083333333333333
  7
ＭＳ ゴシック
100
AcDbText
  0
LWPOLYLINE
  5
456
330
1F
100
AcDbEntity
  8
C-4
  6
Continuous
 62
     7
370
     9
100
AcDbPolyline
 90
        4
 70
     1
 43
1.0
 10
-646.3319963842271
 20
336.3302960935927
 42
0.4142135623731
 10
-646.8319963842271
 20
336.8302960935927
 42
0.4142135623731
 10
-647.3319963842271
 20
336.3302960935927
 42
0.4142135623731
 10
-646.8319963842271
 20
335.8302960935927
 42
0.4142135623731
  0
TEXT
  5
457
330
1F
100
AcDbEntity
  8
C-4
  6
Continuous
 62
     2
370
   211
100
AcDbText
 10
-834.3324694066877
 20
347.9702960935929
 30
0.0
 40
30.48
  1
310
 41
1.083333333333333
  7
ＭＳ ゴシック
100
AcDbText
  0
LWPOLYLINE
  5
458
330
1F
100
AcDbEntity
  8
C-4
  6
Continuous
 62
     7
370
     9
100
AcDbPolyline
 90
        4
 70
     1
 43
1.0
 10
-546.3323950200926
 20
336.3302960935927
 42
0.4142135623731
 10
-546.8323950200926
 20
336.8302960935927
 42
0.4142135623731
 10
-547.3323950200926
 20
336.3302960935927
 42
0.4142135623731
 10
-546.8323950200926
 20
335.8302960935927
 42
0.4142135623731
  0
TEXT
  5
459
330
1F
100
AcDbEntity
  8
C-4
  6
Continuous
 62
     2
370
   211
100
AcDbText
 10
-629.3321957021595
 20
347.9702960935929
 30
0.0
 40
30.48
  1
100
 41
1.083333333333333
  7
ＭＳ ゴシック
100
AcDbText
  0
TEXT
  5
45A
330
1F
100
AcDbEntity
  8
C-4
  6
Continuous
 62
     2
370
   211
100
AcDbText
 10
-1045.368385475947
 20
1158.804163473935
 30
0.0
 40
30.48
  1
3
 41
0.9999999999999998
  7
ＭＳ ゴシック
100
AcDbText
  0
LINE
  5
45B
330
1F
100
AcDbEntity
  8
C-4
  6
Continuous
 62
     7
370
     9
100
AcDbLine
 10
-1056.832395020092
 20
333.3302960935931
 30
0.0
 11
-1056.832395020092
 21
436.571717005029
 31
0.0
  0
LINE
  5
45C
330
1F
100
AcDbEntity
  8
C-4
  6
Continuous
 62
     7
370
     9
100
AcDbLine
 10
-956.8329424291488
 20
333.3302960935931
 30
0.0
 11
-956.8329424291488
 21
336.3302960935927
 31
0.0
  0
LINE
  5
45D
330
1F
100
AcDbEntity
  8
C-4
  6
Continuous
 62
     7
370
     9
100
AcDbLine
 10
-956.8329424291488
 20
336.3302960935927
 30
0.0
 11
-956.8329424291488
 21
397.6392989943032
 31
0.0
  0
LINE
  5
45E
330
1F
100
AcDbEntity
  8
C-4
  6
Continuous
 62
     7
370
     9
100
AcDbLine
 10
-646.8319963842271
 20
333.3302960935931
 30
0.0
 11
-646.8319963842271
 21
336.3302960935927
 31
0.0
  0
LINE
  5
45F
330
1F
100
AcDbEntity
  8
C-4
  6
Continuous
 62
     7
370
     9
100
AcDbLine
 10
-646.8319963842271
 20
336.3302960935927
 30
0.0
 11
-646.8319963842271
 21
397.6392989943032
 31
0.0
  0
LINE
  5
460
330
1F
100
AcDbEntity
  8
C-4
  6
Continuous
 62
     7
370
     9
100
AcDbLine
 10
-546.8323950200926
 20
333.3302960935931
 30
0.0
 11
-546.8323950200926
 21
436.571717005029
 31
0.0
  0
LINE
  5
461
330
1F
100
AcDbEntity
  8
C-4
  6
Continuous
 62
     7
370
     9
100
AcDbLine
 10
-1056.832395020092
 20
336.3302960935927
 30
0.0
 11
-546.8323950200926
 21
336.3302960935927
 31
0.0
  0
LWPOLYLINE
  5
462
330
1F
100
AcDbEntity
  8
C-4
  6
Continuous
 62
     7
370
     9
100
AcDbPolyline
 90
        4
 70
     1
 43
1.0
 10
-1054.810372324822
 20
229.2196476083438
 42
0.4142135623731
 10
-1055.310372324822
 20
229.7196476083438
 42
0.4142135623731
 10
-1055.810372324822
 20
229.2196476083438
 42
0.4142135623731
 10
-1055.310372324822
 20
228.7196476083438
 42
0.4142135623731
  0
TEXT
  5
463
330
1F
100
AcDbEntity
  8
C-5
  6
Continuous
 62
     2
370
     9
100
AcDbText
 10
-1067.810438128349
 20
197.3828129870171
 30
0.0
 40
30.48
  1
平面詳細図　Ｓ＝１：１０
 41
1.114583333333333
  7
ＭＳ ゴシック
100
AcDbText
  0
LINE
  5
464
330
1F
100
AcDbEntity
  8
C-5
  6
Continuous
 62
     7
370
     9
100
AcDbLine
 10
-512.8100928982468
 20
179.2431429583306
 30
0.0
 11
-1087.810520144341
 21
179.2431429583306
 31
0.0
  0
LINE
  5
465
330
1F
100
AcDbEntity
  8
D-5
  6
Continuous
 62
     2
370
     9
100
AcDbLine
 10
134.7601413017503
 20
-453.1043527502805
 30
0.0
 11
-90.23962981641375
 21
-453.1043527502805
 31
0.0
  0
LINE
  5
466
330
1F
100
AcDbEntity
  8
D-5
  6
Continuous
 62
     2
370
     9
100
AcDbLine
 10
134.7601413017503
 20
-403.1041894335538
 30
0.0
 11
134.7601413017503
 21
-453.1043527502805
 31
0.0
  0
LINE
  5
467
330
1F
100
AcDbEntity
  8
D-5
  6
Continuous
 62
     2
370
     9
100
AcDbLine
 10
-90.23962981641375
 20
-403.1041894335538
 30
0.0
 11
134.7601413017503
 21
-403.1041894335538
 31
0.0
  0
LINE
  5
468
330
1F
100
AcDbEntity
  8
D-5
  6
Continuous
 62
     2
370
     9
100
AcDbLine
 10
-90.23962981641375
 20
-453.1043527502805
 30
0.0
 11
-90.23962981641375
 21
-403.1041894335538
 31
0.0
  0
TEXT
  5
469
330
1F
100
AcDbEntity
  8
D-5
  6
Continuous
 62
     2
370
     9
100
AcDbText
 10
71.5621279960861
 20
-765.384440326193
 30
0.0
 40
30.48
  1
　　　サイドバー　ＳＵＳ３０４
 41
1.116666666666667
  7
ＭＳ ゴシック
100
AcDbText
  0
TEXT
  5
46A
330
1F
100
AcDbEntity
  8
D-5
  6
Continuous
 62
     2
370
     9
100
AcDbText
 10
-42.74008758008563
 20
-442.4640881056577
 30
0.0
 40
30.48
  1
仕　様
 41
1.083333333333333
  7
ＭＳ ゴシック
100
AcDbText
  0
TEXT
  5
46B
330
1F
100
AcDbEntity
  8
D-5
  6
Continuous
 62
     2
370
     9
100
AcDbText
 10
71.5621279960861
 20
-700.3842305178434
 30
0.0
 40
30.48
  1
　　　クロスバー　ＳＵＳ３０４　＠１００
 41
1.11875
  7
ＭＳ ゴシック
100
AcDbText
  0
TEXT
  5
46C
330
1F
100
AcDbEntity
  8
D-5
  6
Continuous
 62
     2
370
     9
100
AcDbText
 10
71.5621279960861
 20
-635.3844975466517
 30
0.0
 40
30.48
  1
材質：メインバー　ＳＵＳ３０４　＠１７
 41
1.118421052631579
  7
ＭＳ ゴシック
100
AcDbText
  0
TEXT
  5
46D
330
1F
100
AcDbEntity
  8
D-5
  6
Continuous
 62
     2
370
     9
100
AcDbText
 10
11.8502139335861
 20
-505.3845690722257
 30
0.0
 40
30.48
  1
ステンレス製　細目滑り止め模様付（ローレット模様）
 41
1.12
  7
ＭＳ ゴシック
100
AcDbText
  0
TEXT
  5
46E
330
1F
100
AcDbEntity
  8
D-5
  6
Continuous
 62
     2
370
     9
100
AcDbText
 10
11.85021393358603
 20
-570.3845356936246
 30
0.0
 40
30.48
  1
グレーチング（すきま9mm）　ＺＱ－１５　５００×５００×１５
 41
1.120762711864407
  7
ＭＳ ゴシック
100
AcDbText
  0
TEXT
  5
46F
330
1F
100
AcDbEntity
  8
D-5
  6
Continuous
 62
     2
370
     9
100
AcDbText
 10
11.8502139335861
 20
-829.9498595198792
 30
0.0
 40
30.48
  1
ステンレス製受枠　ＲＬ－１５（四方枠）
 41
1.118421052631579
  7
ＭＳ ゴシック
100
AcDbText
  0
TEXT
  5
470
330
1F
100
AcDbEntity
  8
D-5
  6
Continuous
 62
     2
370
     9
100
AcDbText
 10
71.5621279960861
 20
-884.9498976668518
 30
0.0
 40
30.48
  1
材質：ステンレス鋼板ｔ＝３．０（ＳＵＳ３０４）
 41
1.119565217391304
  7
ＭＳ ゴシック
100
AcDbText
  0
TEXT
  5
471
330
1F
100
AcDbEntity
  8
D-5
  6
Continuous
 62
     2
370
     9
100
AcDbText
 10
71.5621279960861
 20
-994.9499358138245
 30
0.0
 40
30.48
  1
施工場所の状況に合わせて、アンカーをプライヤー等で折り曲げてご使用ください。
 41
1.121710526315789
  7
ＭＳ ゴシック
100
AcDbText
  0
LINE
  5
472
330
1F
100
AcDbEntity
  8
D-2
  6
Continuous
 62
     3
370
     9
100
AcDbLine
 10
-976.5374336543764
 20
-332.7646003569089
 30
0.0
 11
-976.5374336543764
 21
-407.7648477967318
 31
0.0
  0
LINE
  5
473
330
1F
100
AcDbEntity
  8
D-2
  6
Continuous
 62
     3
370
     9
100
AcDbLine
 10
-961.5373841664123
 20
-332.7646003569089
 30
0.0
 11
-961.5373841664123
 21
-407.7648477967318
 31
0.0
  0
LINE
  5
474
330
1F
100
AcDbEntity
  8
D-2
  6
Continuous
 62
     3
370
     9
100
AcDbLine
 10
-976.5374336543764
 20
-332.7646003569089
 30
0.0
 11
-961.5373841664123
 21
-332.7646003569089
 31
0.0
  0
LINE
  5
475
330
1F
100
AcDbEntity
  8
D-2
  6
Continuous
 62
     3
370
     9
100
AcDbLine
 10
-961.5373841664123
 20
-407.7648477967318
 30
0.0
 11
-976.5374336543764
 21
-407.7648477967318
 31
0.0
  0
LINE
  5
476
330
1F
100
AcDbEntity
  8
D-2
  6
Continuous
 62
     3
370
     9
100
AcDbLine
 10
-976.5374336543764
 20
-407.7648477967318
 30
0.0
 11
-1658.998832274293
 21
-407.7648477967318
 31
0.0
  0
LINE
  5
477
330
1F
100
AcDbEntity
  8
D-2
  6
Continuous
 62
     3
370
     9
100
AcDbLine
 10
-1658.998832274293
 20
-339.7646729392571
 30
0.0
 11
-976.5374336543764
 21
-339.7646729392571
 31
0.0
  0
LINE
  5
478
330
1F
100
AcDbEntity
  8
D-2
  6
Continuous
 62
     3
370
     9
100
AcDbLine
 10
-976.5374336543764
 20
-332.7646003569089
 30
0.0
 11
-1658.998832274293
 21
-332.7646003569089
 31
0.0
  0
LINE
  5
479
330
1F
100
AcDbEntity
  8
D-4
  6
Continuous
 62
     7
370
     9
100
AcDbLine
 10
-1546.239711613065
 20
-332.7646003569089
 30
0.0
 11
-1546.239711613065
 21
-407.7648477967318
 31
0.0
  0
LWPOLYLINE
  5
47A
330
1F
100
AcDbEntity
  8
D-4
  6
Continuous
 62
     7
370
     9
100
AcDbPolyline
 90
        4
 70
     1
 43
1.0
 10
-1545.739711613065
 20
-332.7646003569089
 42
0.4142135623731
 10
-1546.239711613065
 20
-332.2646003569089
 42
0.4142135623731
 10
-1546.739711613065
 20
-332.7646003569089
 42
0.4142135623731
 10
-1546.239711613065
 20
-333.2646003569089
 42
0.4142135623731
  0
LWPOLYLINE
  5
47B
330
1F
100
AcDbEntity
  8
D-4
  6
Continuous
 62
     7
370
     9
100
AcDbPolyline
 90
        4
 70
     1
 43
1.0
 10
-1545.739711613065
 20
-407.7648477967318
 42
0.4142135623731
 10
-1546.239711613065
 20
-407.2648477967318
 42
0.4142135623731
 10
-1546.739711613065
 20
-407.7648477967318
 42
0.4142135623731
 10
-1546.239711613065
 20
-408.2648477967318
 42
0.4142135623731
  0
TEXT
  5
47C
330
1F
100
AcDbEntity
  8
D-4
  6
Continuous
 62
     2
370
   211
100
AcDbText
 10
-1557.137573248285
 20
-395.0147603679944
 30
0.0
 40
30.48
  1
15
 50
90.0
 41
1.0625
  7
ＭＳ ゴシック
100
AcDbText
  0
TEXT
  5
47D
330
1F
100
AcDbEntity
  8
D-4
  6
Continuous
 62
     2
370
   211
100
AcDbText
 10
-1658.998832274293
 20
-88.95260658579433
 30
0.0
 40
30.48
  1
　500
 41
1.1
  7
ＭＳ ゴシック
100
AcDbText
  0
TEXT
  5
47E
330
1F
100
AcDbEntity
  8
D-4
  6
Continuous
 62
     2
370
   211
100
AcDbText
 10
-1658.998832274293
 20
-197.705028918558
 30
0.0
 40
30.48
  1
□450
 41
1.1
  7
ＭＳ ゴシック
100
AcDbText
  0
LINE
  5
47F
330
1F
100
AcDbEntity
  8
D-2
  6
Continuous
 62
     3
370
     9
100
AcDbLine
 10
-1474.036055990112
 20
-378.4422256227299
 30
0.0
 11
-1474.036055990112
 21
-385.7648360138828
 31
0.0
  0
LINE
  5
480
330
1F
100
AcDbEntity
  8
D-2
  6
Continuous
 62
     3
370
     9
100
AcDbLine
 10
-1474.036055990112
 20
-385.7648360138828
 30
0.0
 11
-1466.713816758692
 21
-385.7648360138828
 31
0.0
  0
LINE
  5
481
330
1F
100
AcDbEntity
  8
D-2
  6
Continuous
 62
     3
370
     9
100
AcDbLine
 10
-1449.036220949993
 20
-378.4422256227299
 30
0.0
 11
-1449.036220949993
 21
-385.7648360138828
 31
0.0
  0
LINE
  5
482
330
1F
100
AcDbEntity
  8
D-2
  6
Continuous
 62
     3
370
     9
100
AcDbLine
 10
-1456.358089021678
 20
-385.7648360138828
 30
0.0
 11
-1449.036220949993
 21
-385.7648360138828
 31
0.0
  0
LINE
  5
483
330
1F
100
AcDbEntity
  8
D-2
  6
Continuous
 62
     3
370
     9
100
AcDbLine
 10
-1449.036220949993
 20
-360.7642586542966
 30
0.0
 11
-1449.036220949993
 21
-368.0864978857156
 31
0.0
  0
LINE
  5
484
330
1F
100
AcDbEntity
  8
D-2
  6
Continuous
 62
     3
370
     9
100
AcDbLine
 10
-1456.358089021678
 20
-360.7642586542966
 30
0.0
 11
-1449.036220949993
 21
-360.7642586542966
 31
0.0
  0
LINE
  5
485
330
1F
100
AcDbEntity
  8
D-2
  6
Continuous
 62
     3
370
     9
100
AcDbLine
 10
-1474.036055990112
 20
-360.7642586542966
 30
0.0
 11
-1466.713074439225
 21
-360.7642586542966
 31
0.0
  0
LINE
  5
486
330
1F
100
AcDbEntity
  8
D-2
  6
Continuous
 62
     3
370
     9
100
AcDbLine
 10
-1474.036055990112
 20
-360.7642586542966
 30
0.0
 11
-1474.036055990112
 21
-368.0868690454498
 31
0.0
  0
LINE
  5
487
330
1F
100
AcDbEntity
  8
D-2
  6
Continuous
 62
     3
370
     9
100
AcDbLine
 10
-1443.858171501619
 20
-373.2649184938237
 30
0.0
 11
-1461.536138470052
 21
-390.9421431427891
 31
0.0
  0
LINE
  5
488
330
1F
100
AcDbEntity
  8
D-2
  6
Continuous
 62
     3
370
     9
100
AcDbLine
 10
-1461.536138470052
 20
-390.9421431427891
 30
0.0
 11
-1479.213734278752
 21
-373.2649184938237
 31
0.0
  0
LINE
  5
489
330
1F
100
AcDbEntity
  8
D-2
  6
Continuous
 62
     3
370
     9
100
AcDbLine
 10
-1479.213734278752
 20
-373.2649184938237
 30
0.0
 11
-1461.535767310319
 21
-355.5869515253904
 31
0.0
  0
LINE
  5
48A
330
1F
100
AcDbEntity
  8
D-2
  6
Continuous
 62
     3
370
     9
100
AcDbLine
 10
-1461.535767310319
 20
-355.5869515253904
 30
0.0
 11
-1443.858171501619
 21
-373.2649184938237
 31
0.0
  0
LINE
  5
48B
330
1F
100
AcDbEntity
  8
D-2
  6
JWW_CENTER1
 62
     3
370
     9
100
AcDbLine
 10
-1435.028281430884
 20
-373.2649184938237
 30
0.0
 11
-1488.043624349487
 21
-373.2649184938237
 31
0.0
  0
LINE
  5
48C
330
1F
100
AcDbEntity
  8
D-2
  6
JWW_CENTER1
 62
     3
370
     9
100
AcDbLine
 10
-1461.535767310319
 20
-399.772033213524
 30
0.0
 11
-1461.535767310319
 21
-346.7566902949216
 31
0.0
  0
LINE
  5
48D
330
1F
100
AcDbEntity
  8
D-2
  6
Continuous
 62
     3
370
     9
100
AcDbLine
 10
-1658.999027586793
 20
-358.2108147701614
 30
0.0
 11
-1638.998447752808
 21
-358.2108147701614
 31
0.0
  0
LINE
  5
48E
330
1F
100
AcDbEntity
  8
D-2
  6
Continuous
 62
     3
370
     9
100
AcDbLine
 10
-1658.999027586793
 20
-358.2108147701614
 30
0.0
 11
-1658.999027586793
 21
-320.545674824407
 31
0.0
  0
LINE
  5
48F
330
1F
100
AcDbEntity
  8
D-2
  6
Continuous
 62
     3
370
     9
100
AcDbLine
 10
-1658.999027586793
 20
-431.4128472176839
 30
0.0
 11
-1658.999027586793
 21
-388.2114556393019
 31
0.0
  0
LINE
  5
490
330
1F
100
AcDbEntity
  8
D-2
  6
Continuous
 62
     3
370
     9
100
AcDbLine
 10
-1678.998630858277
 20
-388.2114556393019
 30
0.0
 11
-1638.998447752808
 21
-358.2108147701614
 31
0.0
  0
LINE
  5
491
330
1F
100
AcDbEntity
  8
D-2
  6
Continuous
 62
     3
370
     9
100
AcDbLine
 10
-1678.998630858277
 20
-388.2114556393019
 30
0.0
 11
-1658.999027586793
 21
-388.2114556393019
 31
0.0
  0
LINE
  5
492
330
1F
100
AcDbEntity
  8
D-1
  6
Continuous
 62
     2
370
     9
100
AcDbLine
 10
-956.5377400061416
 20
-422.7632842863522
 30
0.0
 11
-1086.546768321686
 21
-422.7642761076413
 31
0.0
  0
LINE
  5
493
330
1F
100
AcDbEntity
  8
D-1
  6
Continuous
 62
     2
370
     9
100
AcDbLine
 10
-1086.545776500397
 20
-407.7634607161008
 30
0.0
 11
-956.5377400061416
 21
-407.7644525373898
 31
0.0
  0
LINE
  5
494
330
1F
100
AcDbEntity
  8
D-1
  6
Continuous
 62
     2
370
     9
100
AcDbLine
 10
-951.5374694010543
 20
-332.7643524015866
 30
0.0
 11
-936.5376488110351
 21
-332.7643524015866
 31
0.0
  0
LINE
  5
495
330
1F
100
AcDbEntity
  8
D-1
  6
Continuous
 62
     2
370
     9
100
AcDbLine
 10
-1086.537851466827
 20
-422.7642761076413
 30
0.0
 11
-1086.537851466827
 21
-407.7644525373898
 31
0.0
  0
LINE
  5
496
330
1F
100
AcDbEntity
  8
D-1
  6
Continuous
 62
     2
370
     9
100
AcDbLine
 10
-951.5384600302505
 20
-402.7641807402097
 30
0.0
 11
-951.5374694010543
 21
-332.7643524015866
 31
0.0
  0
LINE
  5
497
330
1F
100
AcDbEntity
  8
D-1
  6
Continuous
 62
     2
370
     9
100
AcDbLine
 10
-936.5376488110351
 20
-332.7643524015866
 30
0.0
 11
-936.5386382481383
 21
-402.7631936872922
 31
0.0
  0
LINE
  5
498
330
1F
100
AcDbEntity
  8
D-4
  6
Continuous
 62
     7
370
     9
100
AcDbLine
 10
-1659.205612315826
 20
-214.3453346098386
 30
0.0
 11
-1086.537851466827
 21
-214.3453346098386
 31
0.0
  0
LINE
  5
499
330
1F
100
AcDbEntity
  8
D-4
  6
Continuous
 62
     7
370
     9
100
AcDbLine
 10
-1086.537851466827
 20
-214.3453346098386
 30
0.0
 11
-961.5380106112289
 21
-214.3453346098386
 31
0.0
  0
LINE
  5
49A
330
1F
100
AcDbEntity
  8
D-4
  6
Continuous
 62
     7
370
     9
100
AcDbLine
 10
-961.5380106112289
 20
-319.8088346327268
 30
0.0
 11
-961.5380106112289
 21
-102.5933395231687
 31
0.0
  0
LINE
  5
49B
330
1F
100
AcDbEntity
  8
D-4
  6
Continuous
 62
     7
370
     9
100
AcDbLine
 10
-951.5374694010543
 20
-319.8088346327268
 30
0.0
 11
-951.5374694010543
 21
-102.5933395231687
 31
0.0
  0
LINE
  5
49C
330
1F
100
AcDbEntity
  8
D-4
  6
Continuous
 62
     7
370
     9
100
AcDbLine
 10
-936.5386382481383
 20
-319.8088346327268
 30
0.0
 11
-936.5386382481383
 21
8.103281417993458
 31
0.0
  0
LINE
  5
49D
330
1F
100
AcDbEntity
  8
D-4
  6
Continuous
 62
     7
370
     9
100
AcDbLine
 10
-1086.537851466827
 20
-867.8473411406003
 30
0.0
 11
-686.5369836231994
 21
-867.8473411406003
 31
0.0
  0
LINE
  5
49E
330
1F
100
AcDbEntity
  8
D-4
  6
Continuous
 62
     7
370
     9
100
AcDbLine
 10
-1086.537851466827
 20
-713.3824668730222
 30
0.0
 11
-936.5376488110351
 21
-713.3824668730222
 31
0.0
  0
LINE
  5
49F
330
1F
100
AcDbEntity
  8
D-4
  6
Continuous
 62
     7
370
     9
100
AcDbLine
 10
-510.5077973744201
 20
-332.7643524015866
 30
0.0
 11
-411.8530503651428
 21
-332.7643524015866
 31
0.0
  0
LINE
  5
4A0
330
1F
100
AcDbEntity
  8
D-6
  6
Continuous
 62
     6
370
     9
100
AcDbLine
 10
-686.5379754444884
 20
-457.7641902769528
 30
0.0
 11
-521.536964549713
 21
-457.7641902769528
 31
0.0
  0
LINE
  5
4A1
330
1F
100
AcDbEntity
  8
D-6
  6
Continuous
 62
     6
370
     9
100
AcDbLine
 10
-1086.537851466827
 20
-422.7642761076413
 30
0.0
 11
-1086.537851466827
 21
-807.7633415068112
 31
0.0
  0
LINE
  5
4A2
330
1F
100
AcDbEntity
  8
D-6
  6
Continuous
 62
     6
370
     9
100
AcDbLine
 10
-936.5376488110351
 20
-632.7637611235104
 30
0.0
 11
-936.5376488110351
 21
-807.7633415068112
 31
0.0
  0
LINE
  5
4A3
330
1F
100
AcDbEntity
  8
D-6
  6
Continuous
 62
     6
370
     9
100
AcDbLine
 10
-686.5379754444884
 20
-457.7641902769528
 30
0.0
 11
-686.5379754444884
 21
-632.7637611235104
 31
0.0
  0
LINE
  5
4A4
330
1F
100
AcDbEntity
  8
D-6
  6
Continuous
 62
     6
370
     9
100
AcDbLine
 10
-936.5376488110351
 20
-632.7637611235104
 30
0.0
 11
-686.5379754444884
 21
-632.7637611235104
 31
0.0
  0
LINE
  5
4A5
330
1F
100
AcDbEntity
  8
D-4
  6
Continuous
 62
     7
370
     9
100
AcDbLine
 10
-414.852623119049
 20
-632.764257034155
 30
0.0
 11
-414.852623119049
 21
-332.7643524015866
 31
0.0
  0
LINE
  5
4A6
330
1F
100
AcDbEntity
  8
D-4
  6
Continuous
 62
     7
370
     9
100
AcDbLine
 10
-664.3013421437072
 20
-632.764257034155
 30
0.0
 11
-411.8530503651428
 21
-632.764257034155
 31
0.0
  0
LINE
  5
4A7
330
1F
100
AcDbEntity
  8
D-4
  6
Continuous
 62
     7
370
     9
100
AcDbLine
 10
-1086.537851466827
 20
-319.8088346327268
 30
0.0
 11
-1086.537851466827
 21
-211.3447795713864
 31
0.0
  0
LINE
  5
4A8
330
1F
100
AcDbEntity
  8
D-4
  6
Continuous
 62
     7
370
     9
100
AcDbLine
 10
-1659.205612315826
 20
5.102754989770801
 30
0.0
 11
-936.5386382481383
 21
5.102754989770801
 31
0.0
  0
LINE
  5
4A9
330
1F
100
AcDbEntity
  8
D-6
  6
Continuous
 62
     6
370
     9
100
AcDbLine
 10
-936.5376488110351
 20
-332.7643524015866
 30
0.0
 11
-521.536964549713
 21
-332.7643524015866
 31
0.0
  0
LINE
  5
4AA
330
1F
100
AcDbEntity
  8
D-4
  6
Continuous
 62
     7
370
     9
100
AcDbLine
 10
-1659.205612315826
 20
-105.5929122770749
 30
0.0
 11
-890.8524505039977
 21
-105.5929122770749
 31
0.0
  0
LINE
  5
4AB
330
1F
100
AcDbEntity
  8
D-4
  6
Continuous
 62
     7
370
     9
100
AcDbLine
 10
-1086.537851466827
 20
-832.7636848295651
 30
0.0
 11
-1086.537851466827
 21
-870.8469138945065
 31
0.0
  0
LINE
  5
4AC
330
1F
100
AcDbEntity
  8
D-0
  6
Continuous
 62
     7
370
     9
100
AcDbLine
 10
-774.8419038197326
 20
-581.476300796362
 30
0.0
 11
-774.8419038197326
 21
-579.9760185087644
 31
0.0
  0
LINE
  5
4AD
330
1F
100
AcDbEntity
  8
D-0
  6
Continuous
 62
     7
370
     9
100
AcDbLine
 10
-774.8419038197326
 20
-579.9760185087644
 30
0.0
 11
-773.3416406056213
 21
-579.9760185087644
 31
0.0
  0
LINE
  5
4AE
330
1F
100
AcDbEntity
  8
D-0
  6
Continuous
 62
     7
370
     9
100
AcDbLine
 10
-773.3416406056213
 20
-579.9760185087644
 30
0.0
 11
-773.3416406056213
 21
-581.476300796362
 31
0.0
  0
LINE
  5
4AF
330
1F
100
AcDbEntity
  8
D-0
  6
Continuous
 62
     7
370
     9
100
AcDbLine
 10
-773.3416406056213
 20
-581.476300796362
 30
0.0
 11
-774.8419038197326
 21
-581.476300796362
 31
0.0
  0
LINE
  5
4B0
330
1F
100
AcDbEntity
  8
D-0
  6
Continuous
 62
     7
370
     9
100
AcDbLine
 10
-741.6687814137267
 20
-565.7807861174069
 30
0.0
 11
-741.6687814137267
 21
-564.2805038298093
 31
0.0
  0
LINE
  5
4B1
330
1F
100
AcDbEntity
  8
D-0
  6
Continuous
 62
     7
370
     9
100
AcDbLine
 10
-741.6687814137267
 20
-564.2805038298093
 30
0.0
 11
-740.1685181996154
 21
-564.2805038298093
 31
0.0
  0
LINE
  5
4B2
330
1F
100
AcDbEntity
  8
D-0
  6
Continuous
 62
     7
370
     9
100
AcDbLine
 10
-740.1685181996154
 20
-564.2805038298093
 30
0.0
 11
-740.1685181996154
 21
-565.7807861174069
 31
0.0
  0
LINE
  5
4B3
330
1F
100
AcDbEntity
  8
D-0
  6
Continuous
 62
     7
370
     9
100
AcDbLine
 10
-740.1685181996154
 20
-565.7807861174069
 30
0.0
 11
-741.6687814137267
 21
-565.7807861174069
 31
0.0
  0
LINE
  5
4B4
330
1F
100
AcDbEntity
  8
D-0
  6
Continuous
 62
     7
370
     9
100
AcDbLine
 10
-706.4270821949767
 20
-550.8156333769284
 30
0.0
 11
-706.4270821949767
 21
-549.3153701628171
 31
0.0
  0
LINE
  5
4B5
330
1F
100
AcDbEntity
  8
D-0
  6
Continuous
 62
     7
370
     9
100
AcDbLine
 10
-706.4270821949767
 20
-549.3153701628171
 30
0.0
 11
-704.9277917286681
 21
-549.3153701628171
 31
0.0
  0
LINE
  5
4B6
330
1F
100
AcDbEntity
  8
D-0
  6
Continuous
 62
     7
370
     9
100
AcDbLine
 10
-704.9277917286681
 20
-549.3153701628171
 30
0.0
 11
-704.9277917286681
 21
-550.8156333769284
 31
0.0
  0
LINE
  5
4B7
330
1F
100
AcDbEntity
  8
D-0
  6
Continuous
 62
     7
370
     9
100
AcDbLine
 10
-704.9277917286681
 20
-550.8156333769284
 30
0.0
 11
-706.4270821949767
 21
-550.8156333769284
 31
0.0
  0
LINE
  5
4B8
330
1F
100
AcDbEntity
  8
D-0
  6
Continuous
 62
     7
370
     9
100
AcDbLine
 10
-745.0518456837463
 20
-601.6482673490964
 30
0.0
 11
-745.0518456837463
 21
-600.1479850614987
 31
0.0
  0
LINE
  5
4B9
330
1F
100
AcDbEntity
  8
D-0
  6
Continuous
 62
     7
370
     9
100
AcDbLine
 10
-745.0518456837463
 20
-600.1479850614987
 30
0.0
 11
-743.5525552174377
 21
-600.1479850614987
 31
0.0
  0
LINE
  5
4BA
330
1F
100
AcDbEntity
  8
D-0
  6
Continuous
 62
     7
370
     9
100
AcDbLine
 10
-743.5525552174377
 20
-600.1479850614987
 30
0.0
 11
-743.5525552174377
 21
-601.6482673490964
 31
0.0
  0
LINE
  5
4BB
330
1F
100
AcDbEntity
  8
D-0
  6
Continuous
 62
     7
370
     9
100
AcDbLine
 10
-743.5525552174377
 20
-601.6482673490964
 30
0.0
 11
-745.0518456837463
 21
-601.6482673490964
 31
0.0
  0
LINE
  5
4BC
330
1F
100
AcDbEntity
  8
D-0
  6
Continuous
 62
     7
370
     9
100
AcDbLine
 10
-791.8389741322326
 20
-617.6818214262448
 30
0.0
 11
-791.8389741322326
 21
-616.1815391386472
 31
0.0
  0
LINE
  5
4BD
330
1F
100
AcDbEntity
  8
D-0
  6
Continuous
 62
     7
370
     9
100
AcDbLine
 10
-791.8389741322326
 20
-616.1815391386472
 30
0.0
 11
-790.3386918446349
 21
-616.1815391386472
 31
0.0
  0
LINE
  5
4BE
330
1F
100
AcDbEntity
  8
D-0
  6
Continuous
 62
     7
370
     9
100
AcDbLine
 10
-790.3386918446349
 20
-616.1815391386472
 30
0.0
 11
-790.3386918446349
 21
-617.6818214262448
 31
0.0
  0
LINE
  5
4BF
330
1F
100
AcDbEntity
  8
D-0
  6
Continuous
 62
     7
370
     9
100
AcDbLine
 10
-790.3386918446349
 20
-617.6818214262448
 30
0.0
 11
-791.8389741322326
 21
-617.6818214262448
 31
0.0
  0
LINE
  5
4C0
330
1F
100
AcDbEntity
  8
D-0
  6
Continuous
 62
     7
370
     9
100
AcDbLine
 10
-713.1951943775939
 20
-612.3994384611569
 30
0.0
 11
-713.1951943775939
 21
-610.8991561735593
 31
0.0
  0
LINE
  5
4C1
330
1F
100
AcDbEntity
  8
D-0
  6
Continuous
 62
     7
370
     9
100
AcDbLine
 10
-713.1951943775939
 20
-610.8991561735593
 30
0.0
 11
-711.6949120899963
 21
-610.8991561735593
 31
0.0
  0
LINE
  5
4C2
330
1F
100
AcDbEntity
  8
D-0
  6
Continuous
 62
     7
370
     9
100
AcDbLine
 10
-711.6949120899963
 20
-610.8991561735593
 30
0.0
 11
-711.6949120899963
 21
-612.3994384611569
 31
0.0
  0
LINE
  5
4C3
330
1F
100
AcDbEntity
  8
D-0
  6
Continuous
 62
     7
370
     9
100
AcDbLine
 10
-711.6949120899963
 20
-612.3994384611569
 30
0.0
 11
-713.1951943775939
 21
-612.3994384611569
 31
0.0
  0
LINE
  5
4C4
330
1F
100
AcDbEntity
  8
D-0
  6
Continuous
 62
     7
370
     9
100
AcDbLine
 10
-909.411720409088
 20
-353.713267883154
 30
0.0
 11
-909.411720409088
 21
-352.2129879797421
 31
0.0
  0
LINE
  5
4C5
330
1F
100
AcDbEntity
  8
D-0
  6
Continuous
 62
     7
370
     9
100
AcDbLine
 10
-909.411720409088
 20
-352.2129879797421
 30
0.0
 11
-907.9124299427795
 21
-352.2129879797421
 31
0.0
  0
LINE
  5
4C6
330
1F
100
AcDbEntity
  8
D-0
  6
Continuous
 62
     7
370
     9
100
AcDbLine
 10
-907.9124299427795
 20
-352.2129879797421
 30
0.0
 11
-907.9124299427795
 21
-353.713267883154
 31
0.0
  0
LINE
  5
4C7
330
1F
100
AcDbEntity
  8
D-0
  6
Continuous
 62
     7
370
     9
100
AcDbLine
 10
-907.9124299427795
 20
-353.713267883154
 30
0.0
 11
-909.411720409088
 21
-353.713267883154
 31
0.0
  0
LINE
  5
4C8
330
1F
100
AcDbEntity
  8
D-0
  6
Continuous
 62
     7
370
     9
100
AcDbLine
 10
-871.0232964894103
 20
-346.4734159315549
 30
0.0
 11
-871.0232964894103
 21
-344.973136028143
 31
0.0
  0
LINE
  5
4C9
330
1F
100
AcDbEntity
  8
D-0
  6
Continuous
 62
     7
370
     9
100
AcDbLine
 10
-871.0232964894103
 20
-344.973136028143
 30
0.0
 11
-869.5240155598449
 21
-344.973136028143
 31
0.0
  0
LINE
  5
4CA
330
1F
100
AcDbEntity
  8
D-0
  6
Continuous
 62
     7
370
     9
100
AcDbLine
 10
-869.5240155598449
 20
-344.973136028143
 30
0.0
 11
-869.5240155598449
 21
-346.4734159315549
 31
0.0
  0
LINE
  5
4CB
330
1F
100
AcDbEntity
  8
D-0
  6
Continuous
 62
     7
370
     9
100
AcDbLine
 10
-869.5240155598449
 20
-346.4734159315549
 30
0.0
 11
-871.0232964894103
 21
-346.4734159315549
 31
0.0
  0
LINE
  5
4CC
330
1F
100
AcDbEntity
  8
D-0
  6
Continuous
 62
     7
370
     9
100
AcDbLine
 10
-812.6377526661681
 20
-376.7228399122678
 30
0.0
 11
-812.6377526661681
 21
-375.2225623930417
 31
0.0
  0
LINE
  5
4CD
330
1F
100
AcDbEntity
  8
D-0
  6
Continuous
 62
     7
370
     9
100
AcDbLine
 10
-812.6377526661681
 20
-375.2225623930417
 30
0.0
 11
-811.1374799153136
 21
-375.2225623930417
 31
0.0
  0
LINE
  5
4CE
330
1F
100
AcDbEntity
  8
D-0
  6
Continuous
 62
     7
370
     9
100
AcDbLine
 10
-811.1374799153136
 20
-375.2225623930417
 30
0.0
 11
-811.1374799153136
 21
-376.7228399122678
 31
0.0
  0
LINE
  5
4CF
330
1F
100
AcDbEntity
  8
D-0
  6
Continuous
 62
     7
370
     9
100
AcDbLine
 10
-811.1374799153136
 20
-376.7228399122678
 30
0.0
 11
-812.6377526661681
 21
-376.7228399122678
 31
0.0
  0
LINE
  5
4D0
330
1F
100
AcDbEntity
  8
D-0
  6
Continuous
 62
     7
370
     9
100
AcDbLine
 10
-788.9513818165588
 20
-355.7436977232419
 30
0.0
 11
-788.9513818165588
 21
-354.24341781983
 31
0.0
  0
LINE
  5
4D1
330
1F
100
AcDbEntity
  8
D-0
  6
Continuous
 62
     7
370
     9
100
AcDbLine
 10
-788.9513818165588
 20
-354.24341781983
 30
0.0
 11
-787.4510995289611
 21
-354.24341781983
 31
0.0
  0
LINE
  5
4D2
330
1F
100
AcDbEntity
  8
D-0
  6
Continuous
 62
     7
370
     9
100
AcDbLine
 10
-787.4510995289611
 20
-354.24341781983
 30
0.0
 11
-787.4510995289611
 21
-355.7436977232419
 31
0.0
  0
LINE
  5
4D3
330
1F
100
AcDbEntity
  8
D-0
  6
Continuous
 62
     7
370
     9
100
AcDbLine
 10
-787.4510995289611
 20
-355.7436977232419
 30
0.0
 11
-788.9513818165588
 21
-355.7436977232419
 31
0.0
  0
LINE
  5
4D4
330
1F
100
AcDbEntity
  8
D-0
  6
Continuous
 62
     7
370
     9
100
AcDbLine
 10
-781.3330499073791
 20
-508.6599479521237
 30
0.0
 11
-781.3330499073791
 21
-507.1596656645261
 31
0.0
  0
LINE
  5
4D5
330
1F
100
AcDbEntity
  8
D-0
  6
Continuous
 62
     7
370
     9
100
AcDbLine
 10
-781.3330499073791
 20
-507.1596656645261
 30
0.0
 11
-779.8327676197814
 21
-507.1596656645261
 31
0.0
  0
LINE
  5
4D6
330
1F
100
AcDbEntity
  8
D-0
  6
Continuous
 62
     7
370
     9
100
AcDbLine
 10
-779.8327676197814
 20
-507.1596656645261
 30
0.0
 11
-779.8327676197814
 21
-508.6599479521237
 31
0.0
  0
LINE
  5
4D7
330
1F
100
AcDbEntity
  8
D-0
  6
Continuous
 62
     7
370
     9
100
AcDbLine
 10
-779.8327676197814
 20
-508.6599479521237
 30
0.0
 11
-781.3330499073791
 21
-508.6599479521237
 31
0.0
  0
LINE
  5
4D8
330
1F
100
AcDbEntity
  8
D-0
  6
Continuous
 62
     7
370
     9
100
AcDbLine
 10
-659.692482127838
 20
-353.713267883154
 30
0.0
 11
-659.692482127838
 21
-352.2129879797421
 31
0.0
  0
LINE
  5
4D9
330
1F
100
AcDbEntity
  8
D-0
  6
Continuous
 62
     7
370
     9
100
AcDbLine
 10
-659.692482127838
 20
-352.2129879797421
 30
0.0
 11
-658.1922189137267
 21
-352.2129879797421
 31
0.0
  0
LINE
  5
4DA
330
1F
100
AcDbEntity
  8
D-0
  6
Continuous
 62
     7
370
     9
100
AcDbLine
 10
-658.1922189137267
 20
-352.2129879797421
 30
0.0
 11
-658.1922189137267
 21
-353.713267883154
 31
0.0
  0
LINE
  5
4DB
330
1F
100
AcDbEntity
  8
D-0
  6
Continuous
 62
     7
370
     9
100
AcDbLine
 10
-658.1922189137267
 20
-353.713267883154
 30
0.0
 11
-659.692482127838
 21
-353.713267883154
 31
0.0
  0
LINE
  5
4DC
330
1F
100
AcDbEntity
  8
D-0
  6
Continuous
 62
     7
370
     9
100
AcDbLine
 10
-608.9366380116271
 20
-356.4205084646665
 30
0.0
 11
-608.9366380116271
 21
-354.9202285612546
 31
0.0
  0
LINE
  5
4DD
330
1F
100
AcDbEntity
  8
D-0
  6
Continuous
 62
     7
370
     9
100
AcDbLine
 10
-608.9366380116271
 20
-354.9202285612546
 30
0.0
 11
-607.4363557240295
 21
-354.9202285612546
 31
0.0
  0
LINE
  5
4DE
330
1F
100
AcDbEntity
  8
D-0
  6
Continuous
 62
     7
370
     9
100
AcDbLine
 10
-607.4363557240295
 20
-354.9202285612546
 30
0.0
 11
-607.4363557240295
 21
-356.4205084646665
 31
0.0
  0
LINE
  5
4DF
330
1F
100
AcDbEntity
  8
D-0
  6
Continuous
 62
     7
370
     9
100
AcDbLine
 10
-607.4363557240295
 20
-356.4205084646665
 30
0.0
 11
-608.9366380116271
 21
-356.4205084646665
 31
0.0
  0
LINE
  5
4E0
330
1F
100
AcDbEntity
  8
D-0
  6
Continuous
 62
     7
370
     9
100
AcDbLine
 10
-543.9687959095763
 20
-354.3900786245786
 30
0.0
 11
-543.9687959095763
 21
-352.8897987211667
 31
0.0
  0
LINE
  5
4E1
330
1F
100
AcDbEntity
  8
D-0
  6
Continuous
 62
     7
370
     9
100
AcDbLine
 10
-543.9687959095763
 20
-352.8897987211667
 30
0.0
 11
-542.4685136219787
 21
-352.8897987211667
 31
0.0
  0
LINE
  5
4E2
330
1F
100
AcDbEntity
  8
D-0
  6
Continuous
 62
     7
370
     9
100
AcDbLine
 10
-542.4685136219787
 20
-352.8897987211667
 30
0.0
 11
-542.4685136219787
 21
-354.3900786245786
 31
0.0
  0
LINE
  5
4E3
330
1F
100
AcDbEntity
  8
D-0
  6
Continuous
 62
     7
370
     9
100
AcDbLine
 10
-542.4685136219787
 20
-354.3900786245786
 30
0.0
 11
-543.9687959095763
 21
-354.3900786245786
 31
0.0
  0
LINE
  5
4E4
330
1F
100
AcDbEntity
  8
D-0
  6
Continuous
 62
     7
370
     9
100
AcDbLine
 10
-578.742775096588
 20
-385.138901313635
 30
0.0
 11
-578.742775096588
 21
-383.6386237944089
 31
0.0
  0
LINE
  5
4E5
330
1F
100
AcDbEntity
  8
D-0
  6
Continuous
 62
     7
370
     9
100
AcDbLine
 10
-578.742775096588
 20
-383.6386237944089
 30
0.0
 11
-577.2424928089904
 21
-383.6386237944089
 31
0.0
  0
LINE
  5
4E6
330
1F
100
AcDbEntity
  8
D-0
  6
Continuous
 62
     7
370
     9
100
AcDbLine
 10
-577.2424928089904
 20
-383.6386237944089
 30
0.0
 11
-577.2424928089904
 21
-385.138901313635
 31
0.0
  0
LINE
  5
4E7
330
1F
100
AcDbEntity
  8
D-0
  6
Continuous
 62
     7
370
     9
100
AcDbLine
 10
-577.2424928089904
 20
-385.138901313635
 30
0.0
 11
-578.742775096588
 21
-385.138901313635
 31
0.0
  0
LINE
  5
4E8
330
1F
100
AcDbEntity
  8
D-0
  6
Continuous
 62
     7
370
     9
100
AcDbLine
 10
-608.2598344227599
 20
-410.5598865354978
 30
0.0
 11
-608.2598344227599
 21
-409.0596090162717
 31
0.0
  0
LINE
  5
4E9
330
1F
100
AcDbEntity
  8
D-0
  6
Continuous
 62
     7
370
     9
100
AcDbLine
 10
-608.2598344227599
 20
-409.0596090162717
 30
0.0
 11
-606.7595521351623
 21
-409.0596090162717
 31
0.0
  0
LINE
  5
4EA
330
1F
100
AcDbEntity
  8
D-0
  6
Continuous
 62
     7
370
     9
100
AcDbLine
 10
-606.7595521351623
 20
-409.0596090162717
 30
0.0
 11
-606.7595521351623
 21
-410.5598865354978
 31
0.0
  0
LINE
  5
4EB
330
1F
100
AcDbEntity
  8
D-0
  6
Continuous
 62
     7
370
     9
100
AcDbLine
 10
-606.7595521351623
 20
-410.5598865354978
 30
0.0
 11
-608.2598344227599
 21
-410.5598865354978
 31
0.0
  0
LINE
  5
4EC
330
1F
100
AcDbEntity
  8
D-0
  6
Continuous
 62
     7
370
     9
100
AcDbLine
 10
-646.0923615834045
 20
-431.9765125120603
 30
0.0
 11
-646.0923615834045
 21
-430.4762302244626
 31
0.0
  0
LINE
  5
4ED
330
1F
100
AcDbEntity
  8
D-0
  6
Continuous
 62
     7
370
     9
100
AcDbLine
 10
-646.0923615834045
 20
-430.4762302244626
 30
0.0
 11
-644.5930711170959
 21
-430.4762302244626
 31
0.0
  0
LINE
  5
4EE
330
1F
100
AcDbEntity
  8
D-0
  6
Continuous
 62
     7
370
     9
100
AcDbLine
 10
-644.5930711170959
 20
-430.4762302244626
 30
0.0
 11
-644.5930711170959
 21
-431.9765125120603
 31
0.0
  0
LINE
  5
4EF
330
1F
100
AcDbEntity
  8
D-0
  6
Continuous
 62
     7
370
     9
100
AcDbLine
 10
-644.5930711170959
 20
-431.9765125120603
 30
0.0
 11
-646.0923615834045
 21
-431.9765125120603
 31
0.0
  0
LINE
  5
4F0
330
1F
100
AcDbEntity
  8
D-0
  6
Continuous
 62
     7
370
     9
100
AcDbLine
 10
-661.0461083790588
 20
-395.6715474928342
 30
0.0
 11
-661.0461083790588
 21
-394.1712699736081
 31
0.0
  0
LINE
  5
4F1
330
1F
100
AcDbEntity
  8
D-0
  6
Continuous
 62
     7
370
     9
100
AcDbLine
 10
-661.0461083790588
 20
-394.1712699736081
 30
0.0
 11
-659.5458260914611
 21
-394.1712699736081
 31
0.0
  0
LINE
  5
4F2
330
1F
100
AcDbEntity
  8
D-0
  6
Continuous
 62
     7
370
     9
100
AcDbLine
 10
-659.5458260914611
 20
-394.1712699736081
 30
0.0
 11
-659.5458260914611
 21
-395.6715474928342
 31
0.0
  0
LINE
  5
4F3
330
1F
100
AcDbEntity
  8
D-0
  6
Continuous
 62
     7
370
     9
100
AcDbLine
 10
-659.5458260914611
 20
-395.6715474928342
 30
0.0
 11
-661.0461083790588
 21
-395.6715474928342
 31
0.0
  0
LINE
  5
4F4
330
1F
100
AcDbEntity
  8
D-0
  6
Continuous
 62
     7
370
     9
100
AcDbLine
 10
-577.4560395619201
 20
-441.3179527128659
 30
0.0
 11
-577.4560395619201
 21
-439.8176799620114
 31
0.0
  0
LINE
  5
4F5
330
1F
100
AcDbEntity
  8
D-0
  6
Continuous
 62
     7
370
     9
100
AcDbLine
 10
-577.4560395619201
 20
-439.8176799620114
 30
0.0
 11
-575.9567490956115
 21
-439.8176799620114
 31
0.0
  0
LINE
  5
4F6
330
1F
100
AcDbEntity
  8
D-0
  6
Continuous
 62
     7
370
     9
100
AcDbLine
 10
-575.9567490956115
 20
-439.8176799620114
 30
0.0
 11
-575.9567490956115
 21
-441.3179527128659
 31
0.0
  0
LINE
  5
4F7
330
1F
100
AcDbEntity
  8
D-0
  6
Continuous
 62
     7
370
     9
100
AcDbLine
 10
-575.9567490956115
 20
-441.3179527128659
 30
0.0
 11
-577.4560395619201
 21
-441.3179527128659
 31
0.0
  0
LINE
  5
4F8
330
1F
100
AcDbEntity
  8
D-0
  6
Continuous
 62
     7
370
     9
100
AcDbLine
 10
-534.5380631825255
 20
-442.8025184477292
 30
0.0
 11
-534.5380631825255
 21
-441.3022361601315
 31
0.0
  0
LINE
  5
4F9
330
1F
100
AcDbEntity
  8
D-0
  6
Continuous
 62
     7
370
     9
100
AcDbLine
 10
-534.5380631825255
 20
-441.3022361601315
 30
0.0
 11
-533.0377808949279
 21
-441.3022361601315
 31
0.0
  0
LINE
  5
4FA
330
1F
100
AcDbEntity
  8
D-0
  6
Continuous
 62
     7
370
     9
100
AcDbLine
 10
-533.0377808949279
 20
-441.3022361601315
 30
0.0
 11
-533.0377808949279
 21
-442.8025184477292
 31
0.0
  0
LINE
  5
4FB
330
1F
100
AcDbEntity
  8
D-0
  6
Continuous
 62
     7
370
     9
100
AcDbLine
 10
-533.0377808949279
 20
-442.8025184477292
 30
0.0
 11
-534.5380631825255
 21
-442.8025184477292
 31
0.0
  0
LINE
  5
4FC
330
1F
100
AcDbEntity
  8
D-0
  6
Continuous
 62
     7
370
     9
100
AcDbLine
 10
-535.1925507923888
 20
-404.3155895079099
 30
0.0
 11
-535.1925507923888
 21
-402.8153072203122
 31
0.0
  0
LINE
  5
4FD
330
1F
100
AcDbEntity
  8
D-0
  6
Continuous
 62
     7
370
     9
100
AcDbLine
 10
-535.1925507923888
 20
-402.8153072203122
 30
0.0
 11
-533.6922685047912
 21
-402.8153072203122
 31
0.0
  0
LINE
  5
4FE
330
1F
100
AcDbEntity
  8
D-0
  6
Continuous
 62
     7
370
     9
100
AcDbLine
 10
-533.6922685047912
 20
-402.8153072203122
 30
0.0
 11
-533.6922685047912
 21
-404.3155895079099
 31
0.0
  0
LINE
  5
4FF
330
1F
100
AcDbEntity
  8
D-0
  6
Continuous
 62
     7
370
     9
100
AcDbLine
 10
-533.6922685047912
 20
-404.3155895079099
 30
0.0
 11
-535.1925507923888
 21
-404.3155895079099
 31
0.0
  0
LINE
  5
500
330
1F
100
AcDbEntity
  8
D-0
  6
Continuous
 62
     7
370
     9
100
AcDbLine
 10
-1063.752235545807
 20
-464.314025482031
 30
0.0
 11
-1063.752235545807
 21
-462.8137431944333
 31
0.0
  0
LINE
  5
501
330
1F
100
AcDbEntity
  8
D-0
  6
Continuous
 62
     7
370
     9
100
AcDbLine
 10
-1063.752235545807
 20
-462.8137431944333
 30
0.0
 11
-1062.252945079498
 21
-462.8137431944333
 31
0.0
  0
LINE
  5
502
330
1F
100
AcDbEntity
  8
D-0
  6
Continuous
 62
     7
370
     9
100
AcDbLine
 10
-1062.252945079498
 20
-462.8137431944333
 30
0.0
 11
-1062.252945079498
 21
-464.314025482031
 31
0.0
  0
LINE
  5
503
330
1F
100
AcDbEntity
  8
D-0
  6
Continuous
 62
     7
370
     9
100
AcDbLine
 10
-1062.252945079498
 20
-464.314025482031
 30
0.0
 11
-1063.752235545807
 21
-464.314025482031
 31
0.0
  0
LINE
  5
504
330
1F
100
AcDbEntity
  8
D-0
  6
Continuous
 62
     7
370
     9
100
AcDbLine
 10
-1023.401250018768
 20
-480.6828246916257
 30
0.0
 11
-1023.401250018768
 21
-479.182542404028
 31
0.0
  0
LINE
  5
505
330
1F
100
AcDbEntity
  8
D-0
  6
Continuous
 62
     7
370
     9
100
AcDbLine
 10
-1023.401250018768
 20
-479.182542404028
 30
0.0
 11
-1021.90195955246
 21
-479.182542404028
 31
0.0
  0
LINE
  5
506
330
1F
100
AcDbEntity
  8
D-0
  6
Continuous
 62
     7
370
     9
100
AcDbLine
 10
-1021.90195955246
 20
-479.182542404028
 30
0.0
 11
-1021.90195955246
 21
-480.6828246916257
 31
0.0
  0
LINE
  5
507
330
1F
100
AcDbEntity
  8
D-0
  6
Continuous
 62
     7
370
     9
100
AcDbLine
 10
-1021.90195955246
 20
-480.6828246916257
 30
0.0
 11
-1023.401250018768
 21
-480.6828246916257
 31
0.0
  0
LINE
  5
508
330
1F
100
AcDbEntity
  8
D-0
  6
Continuous
 62
     7
370
     9
100
AcDbLine
 10
-970.1076386114883
 20
-487.9151855314694
 30
0.0
 11
-970.1076386114883
 21
-486.4149032438718
 31
0.0
  0
LINE
  5
509
330
1F
100
AcDbEntity
  8
D-0
  6
Continuous
 62
     7
370
     9
100
AcDbLine
 10
-970.1076386114883
 20
-486.4149032438718
 30
0.0
 11
-968.6073593041228
 21
-486.4149032438718
 31
0.0
  0
LINE
  5
50A
330
1F
100
AcDbEntity
  8
D-0
  6
Continuous
 62
     7
370
     9
100
AcDbLine
 10
-968.6073593041228
 20
-486.4149032438718
 30
0.0
 11
-968.6073593041228
 21
-487.9151855314694
 31
0.0
  0
LINE
  5
50B
330
1F
100
AcDbEntity
  8
D-0
  6
Continuous
 62
     7
370
     9
100
AcDbLine
 10
-968.6073593041228
 20
-487.9151855314694
 30
0.0
 11
-970.1076386114883
 21
-487.9151855314694
 31
0.0
  0
LINE
  5
50C
330
1F
100
AcDbEntity
  8
D-0
  6
Continuous
 62
     7
370
     9
100
AcDbLine
 10
-968.9650873085784
 20
-626.3592468107663
 30
0.0
 11
-968.9650873085784
 21
-624.8589645231687
 31
0.0
  0
LINE
  5
50D
330
1F
100
AcDbEntity
  8
D-0
  6
Continuous
 62
     7
370
     9
100
AcDbLine
 10
-968.9650873085784
 20
-624.8589645231687
 30
0.0
 11
-967.464808001213
 21
-624.8589645231687
 31
0.0
  0
LINE
  5
50E
330
1F
100
AcDbEntity
  8
D-0
  6
Continuous
 62
     7
370
     9
100
AcDbLine
 10
-967.464808001213
 20
-624.8589645231687
 30
0.0
 11
-967.464808001213
 21
-626.3592468107663
 31
0.0
  0
LINE
  5
50F
330
1F
100
AcDbEntity
  8
D-0
  6
Continuous
 62
     7
370
     9
100
AcDbLine
 10
-967.464808001213
 20
-626.3592468107663
 30
0.0
 11
-968.9650873085784
 21
-626.3592468107663
 31
0.0
  0
LINE
  5
510
330
1F
100
AcDbEntity
  8
D-0
  6
Continuous
 62
     7
370
     9
100
AcDbLine
 10
-965.4086125633048
 20
-579.624723037573
 30
0.0
 11
-965.4086125633048
 21
-578.1244407499753
 31
0.0
  0
LINE
  5
511
330
1F
100
AcDbEntity
  8
D-0
  6
Continuous
 62
     7
370
     9
100
AcDbLine
 10
-965.4086125633048
 20
-578.1244407499753
 30
0.0
 11
-963.9083332559394
 21
-578.1244407499753
 31
0.0
  0
LINE
  5
512
330
1F
100
AcDbEntity
  8
D-0
  6
Continuous
 62
     7
370
     9
100
AcDbLine
 10
-963.9083332559394
 20
-578.1244407499753
 30
0.0
 11
-963.9083332559394
 21
-579.624723037573
 31
0.0
  0
LINE
  5
513
330
1F
100
AcDbEntity
  8
D-0
  6
Continuous
 62
     7
370
     9
100
AcDbLine
 10
-963.9083332559394
 20
-579.624723037573
 30
0.0
 11
-965.4086125633048
 21
-579.624723037573
 31
0.0
  0
LINE
  5
514
330
1F
100
AcDbEntity
  8
D-0
  6
Continuous
 62
     7
370
     9
100
AcDbLine
 10
-1065.275301112823
 20
-629.9056564176999
 30
0.0
 11
-1065.275301112823
 21
-628.4053741301022
 31
0.0
  0
LINE
  5
515
330
1F
100
AcDbEntity
  8
D-0
  6
Continuous
 62
     7
370
     9
100
AcDbLine
 10
-1065.275301112823
 20
-628.4053741301022
 30
0.0
 11
-1063.775018825226
 21
-628.4053741301022
 31
0.0
  0
LINE
  5
516
330
1F
100
AcDbEntity
  8
D-0
  6
Continuous
 62
     7
370
     9
100
AcDbLine
 10
-1063.775018825226
 20
-628.4053741301022
 30
0.0
 11
-1063.775018825226
 21
-629.9056564176999
 31
0.0
  0
LINE
  5
517
330
1F
100
AcDbEntity
  8
D-0
  6
Continuous
 62
     7
370
     9
100
AcDbLine
 10
-1063.775018825226
 20
-629.9056564176999
 30
0.0
 11
-1065.275301112823
 21
-629.9056564176999
 31
0.0
  0
LINE
  5
518
330
1F
100
AcDbEntity
  8
D-0
  6
Continuous
 62
     7
370
     9
100
AcDbLine
 10
-1017.750925197296
 20
-633.7923179472409
 30
0.0
 11
-1017.750925197296
 21
-632.2920356596433
 31
0.0
  0
LINE
  5
519
330
1F
100
AcDbEntity
  8
D-0
  6
Continuous
 62
     7
370
     9
100
AcDbLine
 10
-1017.750925197296
 20
-632.2920356596433
 30
0.0
 11
-1016.251634730987
 21
-632.2920356596433
 31
0.0
  0
LINE
  5
51A
330
1F
100
AcDbEntity
  8
D-0
  6
Continuous
 62
     7
370
     9
100
AcDbLine
 10
-1016.251634730987
 20
-632.2920356596433
 30
0.0
 11
-1016.251634730987
 21
-633.7923179472409
 31
0.0
  0
LINE
  5
51B
330
1F
100
AcDbEntity
  8
D-0
  6
Continuous
 62
     7
370
     9
100
AcDbLine
 10
-1016.251634730987
 20
-633.7923179472409
 30
0.0
 11
-1017.750925197296
 21
-633.7923179472409
 31
0.0
  0
LINE
  5
51C
330
1F
100
AcDbEntity
  8
D-0
  6
Continuous
 62
     7
370
     9
100
AcDbLine
 10
-1067.691206111603
 20
-575.4793868864499
 30
0.0
 11
-1067.691206111603
 21
-573.9791045988522
 31
0.0
  0
LINE
  5
51D
330
1F
100
AcDbEntity
  8
D-0
  6
Continuous
 62
     7
370
     9
100
AcDbLine
 10
-1067.691206111603
 20
-573.9791045988522
 30
0.0
 11
-1066.190923824005
 21
-573.9791045988522
 31
0.0
  0
LINE
  5
51E
330
1F
100
AcDbEntity
  8
D-0
  6
Continuous
 62
     7
370
     9
100
AcDbLine
 10
-1066.190923824005
 20
-573.9791045988522
 30
0.0
 11
-1066.190923824005
 21
-575.4793868864499
 31
0.0
  0
LINE
  5
51F
330
1F
100
AcDbEntity
  8
D-0
  6
Continuous
 62
     7
370
     9
100
AcDbLine
 10
-1066.190923824005
 20
-575.4793868864499
 30
0.0
 11
-1067.691206111603
 21
-575.4793868864499
 31
0.0
  0
LINE
  5
520
330
1F
100
AcDbEntity
  8
D-0
  6
Continuous
 62
     7
370
     9
100
AcDbLine
 10
-1058.802494182281
 20
-738.8820396269284
 30
0.0
 11
-1058.802494182281
 21
-737.3817954863034
 31
0.0
  0
LINE
  5
521
330
1F
100
AcDbEntity
  8
D-0
  6
Continuous
 62
     7
370
     9
100
AcDbLine
 10
-1058.802494182281
 20
-737.3817954863034
 30
0.0
 11
-1057.302221431427
 21
-737.3817954863034
 31
0.0
  0
LINE
  5
522
330
1F
100
AcDbEntity
  8
D-0
  6
Continuous
 62
     7
370
     9
100
AcDbLine
 10
-1057.302221431427
 20
-737.3817954863034
 30
0.0
 11
-1057.302221431427
 21
-738.8820396269284
 31
0.0
  0
LINE
  5
523
330
1F
100
AcDbEntity
  8
D-0
  6
Continuous
 62
     7
370
     9
100
AcDbLine
 10
-1057.302221431427
 20
-738.8820396269284
 30
0.0
 11
-1058.802494182281
 21
-738.8820396269284
 31
0.0
  0
LINE
  5
524
330
1F
100
AcDbEntity
  8
D-0
  6
Continuous
 62
     7
370
     9
100
AcDbLine
 10
-1007.03096307724
 20
-735.0748573149167
 30
0.0
 11
-1007.03096307724
 21
-733.5746131742917
 31
0.0
  0
LINE
  5
525
330
1F
100
AcDbEntity
  8
D-0
  6
Continuous
 62
     7
370
     9
100
AcDbLine
 10
-1007.03096307724
 20
-733.5746131742917
 30
0.0
 11
-1005.531672610931
 21
-733.5746131742917
 31
0.0
  0
LINE
  5
526
330
1F
100
AcDbEntity
  8
D-0
  6
Continuous
 62
     7
370
     9
100
AcDbLine
 10
-1005.531672610931
 20
-733.5746131742917
 30
0.0
 11
-1005.531672610931
 21
-735.0748573149167
 31
0.0
  0
LINE
  5
527
330
1F
100
AcDbEntity
  8
D-0
  6
Continuous
 62
     7
370
     9
100
AcDbLine
 10
-1005.531672610931
 20
-735.0748573149167
 30
0.0
 11
-1007.03096307724
 21
-735.0748573149167
 31
0.0
  0
LINE
  5
528
330
1F
100
AcDbEntity
  8
D-0
  6
Continuous
 62
     7
370
     9
100
AcDbLine
 10
-957.1630213400649
 20
-736.9784675444089
 30
0.0
 11
-957.1630213400649
 21
-735.4781852568112
 31
0.0
  0
LINE
  5
529
330
1F
100
AcDbEntity
  8
D-0
  6
Continuous
 62
     7
370
     9
100
AcDbLine
 10
-957.1630213400649
 20
-735.4781852568112
 30
0.0
 11
-955.6637326618957
 21
-735.4781852568112
 31
0.0
  0
LINE
  5
52A
330
1F
100
AcDbEntity
  8
D-0
  6
Continuous
 62
     7
370
     9
100
AcDbLine
 10
-955.6637326618957
 20
-735.4781852568112
 30
0.0
 11
-955.6637326618957
 21
-736.9784675444089
 31
0.0
  0
LINE
  5
52B
330
1F
100
AcDbEntity
  8
D-0
  6
Continuous
 62
     7
370
     9
100
AcDbLine
 10
-955.6637326618957
 20
-736.9784675444089
 30
0.0
 11
-957.1630213400649
 21
-736.9784675444089
 31
0.0
  0
LINE
  5
52C
330
1F
100
AcDbEntity
  8
D-0
  6
Continuous
 62
     7
370
     9
100
AcDbLine
 10
-981.9067326924132
 20
-762.8637443388425
 30
0.0
 11
-981.9067326924132
 21
-761.3634620512448
 31
0.0
  0
LINE
  5
52D
330
1F
100
AcDbEntity
  8
D-0
  6
Continuous
 62
     7
370
     9
100
AcDbLine
 10
-981.9067326924132
 20
-761.3634620512448
 30
0.0
 11
-980.4064527890014
 21
-761.3634620512448
 31
0.0
  0
LINE
  5
52E
330
1F
100
AcDbEntity
  8
D-0
  6
Continuous
 62
     7
370
     9
100
AcDbLine
 10
-980.4064527890014
 20
-761.3634620512448
 30
0.0
 11
-980.4064527890014
 21
-762.8637443388425
 31
0.0
  0
LINE
  5
52F
330
1F
100
AcDbEntity
  8
D-0
  6
Continuous
 62
     7
370
     9
100
AcDbLine
 10
-980.4064527890014
 20
-762.8637443388425
 30
0.0
 11
-981.9067326924132
 21
-762.8637443388425
 31
0.0
  0
LINE
  5
530
330
1F
100
AcDbEntity
  8
D-0
  6
Continuous
 62
     7
370
     9
100
AcDbLine
 10
-1022.257708682709
 20
-774.6648155058347
 30
0.0
 11
-1022.257708682709
 21
-773.164533218237
 31
0.0
  0
LINE
  5
531
330
1F
100
AcDbEntity
  8
D-0
  6
Continuous
 62
     7
370
     9
100
AcDbLine
 10
-1022.257708682709
 20
-773.164533218237
 30
0.0
 11
-1020.7584182164
 21
-773.164533218237
 31
0.0
  0
LINE
  5
532
330
1F
100
AcDbEntity
  8
D-0
  6
Continuous
 62
     7
370
     9
100
AcDbLine
 10
-1020.7584182164
 20
-773.164533218237
 30
0.0
 11
-1020.7584182164
 21
-774.6648155058347
 31
0.0
  0
LINE
  5
533
330
1F
100
AcDbEntity
  8
D-0
  6
Continuous
 62
     7
370
     9
100
AcDbLine
 10
-1020.7584182164
 20
-774.6648155058347
 30
0.0
 11
-1022.257708682709
 21
-774.6648155058347
 31
0.0
  0
LINE
  5
534
330
1F
100
AcDbEntity
  8
D-0
  6
Continuous
 62
     7
370
     9
100
AcDbLine
 10
-1069.461025371246
 20
-772.3806892240964
 30
0.0
 11
-1069.461025371246
 21
-770.8804069364987
 31
0.0
  0
LINE
  5
535
330
1F
100
AcDbEntity
  8
D-0
  6
Continuous
 62
     7
370
     9
100
AcDbLine
 10
-1069.461025371246
 20
-770.8804069364987
 30
0.0
 11
-1067.960743083649
 21
-770.8804069364987
 31
0.0
  0
LINE
  5
536
330
1F
100
AcDbEntity
  8
D-0
  6
Continuous
 62
     7
370
     9
100
AcDbLine
 10
-1067.960743083649
 20
-770.8804069364987
 30
0.0
 11
-1067.960743083649
 21
-772.3806892240964
 31
0.0
  0
LINE
  5
537
330
1F
100
AcDbEntity
  8
D-0
  6
Continuous
 62
     7
370
     9
100
AcDbLine
 10
-1067.960743083649
 20
-772.3806892240964
 30
0.0
 11
-1069.461025371246
 21
-772.3806892240964
 31
0.0
  0
LINE
  5
538
330
1F
100
AcDbEntity
  8
D-0
  6
Continuous
 62
     7
370
     9
100
AcDbLine
 10
-1053.092712535553
 20
-800.9311042631589
 30
0.0
 11
-1053.092712535553
 21
-799.4308219755612
 31
0.0
  0
LINE
  5
539
330
1F
100
AcDbEntity
  8
D-0
  6
Continuous
 62
     7
370
     9
100
AcDbLine
 10
-1053.092712535553
 20
-799.4308219755612
 30
0.0
 11
-1051.592439784698
 21
-799.4308219755612
 31
0.0
  0
LINE
  5
53A
330
1F
100
AcDbEntity
  8
D-0
  6
Continuous
 62
     7
370
     9
100
AcDbLine
 10
-1051.592439784698
 20
-799.4308219755612
 30
0.0
 11
-1051.592439784698
 21
-800.9311042631589
 31
0.0
  0
LINE
  5
53B
330
1F
100
AcDbEntity
  8
D-0
  6
Continuous
 62
     7
370
     9
100
AcDbLine
 10
-1051.592439784698
 20
-800.9311042631589
 30
0.0
 11
-1053.092712535553
 21
-800.9311042631589
 31
0.0
  0
LINE
  5
53C
330
1F
100
AcDbEntity
  8
D-0
  6
Continuous
 62
     7
370
     9
100
AcDbLine
 10
-1001.321181430511
 20
-799.4085059965573
 30
0.0
 11
-1001.321181430511
 21
-797.9082237089597
 31
0.0
  0
LINE
  5
53D
330
1F
100
AcDbEntity
  8
D-0
  6
Continuous
 62
     7
370
     9
100
AcDbLine
 10
-1001.321181430511
 20
-797.9082237089597
 30
0.0
 11
-999.8209015270995
 21
-797.9082237089597
 31
0.0
  0
LINE
  5
53E
330
1F
100
AcDbEntity
  8
D-0
  6
Continuous
 62
     7
370
     9
100
AcDbLine
 10
-999.8209015270995
 20
-797.9082237089597
 30
0.0
 11
-999.8209015270995
 21
-799.4085059965573
 31
0.0
  0
LINE
  5
53F
330
1F
100
AcDbEntity
  8
D-0
  6
Continuous
 62
     7
370
     9
100
AcDbLine
 10
-999.8209015270995
 20
-799.4085059965573
 30
0.0
 11
-1001.321181430511
 21
-799.4085059965573
 31
0.0
  0
LINE
  5
540
330
1F
100
AcDbEntity
  8
D-0
  6
Continuous
 62
     7
370
     9
100
AcDbLine
 10
-963.2543144366073
 20
-799.4085059965573
 30
0.0
 11
-963.2543144366073
 21
-797.9082237089597
 31
0.0
  0
LINE
  5
541
330
1F
100
AcDbEntity
  8
D-0
  6
Continuous
 62
     7
370
     9
100
AcDbLine
 10
-963.2543144366073
 20
-797.9082237089597
 30
0.0
 11
-961.7540349988567
 21
-797.9082237089597
 31
0.0
  0
LINE
  5
542
330
1F
100
AcDbEntity
  8
D-0
  6
Continuous
 62
     7
370
     9
100
AcDbLine
 10
-961.7540349988567
 20
-797.9082237089597
 30
0.0
 11
-961.7540349988567
 21
-799.4085059965573
 31
0.0
  0
LINE
  5
543
330
1F
100
AcDbEntity
  8
D-0
  6
Continuous
 62
     7
370
     9
100
AcDbLine
 10
-961.7540349988567
 20
-799.4085059965573
 30
0.0
 11
-963.2543144366073
 21
-799.4085059965573
 31
0.0
  0
LINE
  5
544
330
1F
100
AcDbEntity
  8
D-0
  6
Continuous
 62
     7
370
     9
100
AcDbLine
 10
-903.7539616963195
 20
-556.5248809660397
 30
0.0
 11
-903.7539616963195
 21
-555.0241027677976
 31
0.0
  0
LINE
  5
545
330
1F
100
AcDbEntity
  8
D-0
  6
Continuous
 62
     7
370
     9
100
AcDbLine
 10
-903.7539616963195
 20
-555.0241027677976
 30
0.0
 11
-902.2536841770934
 21
-555.0241027677976
 31
0.0
  0
LINE
  5
546
330
1F
100
AcDbEntity
  8
D-0
  6
Continuous
 62
     7
370
     9
100
AcDbLine
 10
-902.2536841770934
 20
-555.0241027677976
 30
0.0
 11
-902.2536841770934
 21
-556.5248809660397
 31
0.0
  0
LINE
  5
547
330
1F
100
AcDbEntity
  8
D-0
  6
Continuous
 62
     7
370
     9
100
AcDbLine
 10
-902.2536841770934
 20
-556.5248809660397
 30
0.0
 11
-903.7539616963195
 21
-556.5248809660397
 31
0.0
  0
LINE
  5
548
330
1F
100
AcDbEntity
  8
D-0
  6
Continuous
 62
     7
370
     9
100
AcDbLine
 10
-897.5085774800109
 20
-486.7434154356442
 30
0.0
 11
-897.5085774800109
 21
-485.2431331480466
 31
0.0
  0
LINE
  5
549
330
1F
100
AcDbEntity
  8
D-0
  6
Continuous
 62
     7
370
     9
100
AcDbLine
 10
-897.5085774800109
 20
-485.2431331480466
 30
0.0
 11
-896.0092917820739
 21
-485.2431331480466
 31
0.0
  0
LINE
  5
54A
330
1F
100
AcDbEntity
  8
D-0
  6
Continuous
 62
     7
370
     9
100
AcDbLine
 10
-896.0092917820739
 20
-485.2431331480466
 30
0.0
 11
-896.0092917820739
 21
-486.7434154356442
 31
0.0
  0
LINE
  5
54B
330
1F
100
AcDbEntity
  8
D-0
  6
Continuous
 62
     7
370
     9
100
AcDbLine
 10
-896.0092917820739
 20
-486.7434154356442
 30
0.0
 11
-897.5085774800109
 21
-486.7434154356442
 31
0.0
  0
LINE
  5
54C
330
1F
100
AcDbEntity
  8
D-0
  6
Continuous
 62
     7
370
     9
100
AcDbLine
 10
-1043.840335979156
 20
-656.4851890409909
 30
0.0
 11
-1043.840335979156
 21
-654.9849067533933
 31
0.0
  0
LINE
  5
54D
330
1F
100
AcDbEntity
  8
D-0
  6
Continuous
 62
     7
370
     9
100
AcDbLine
 10
-1043.840335979156
 20
-654.9849067533933
 30
0.0
 11
-1042.340053691559
 21
-654.9849067533933
 31
0.0
  0
LINE
  5
54E
330
1F
100
AcDbEntity
  8
D-0
  6
Continuous
 62
     7
370
     9
100
AcDbLine
 10
-1042.340053691559
 20
-654.9849067533933
 30
0.0
 11
-1042.340053691559
 21
-656.4851890409909
 31
0.0
  0
LINE
  5
54F
330
1F
100
AcDbEntity
  8
D-0
  6
Continuous
 62
     7
370
     9
100
AcDbLine
 10
-1042.340053691559
 20
-656.4851890409909
 30
0.0
 11
-1043.840335979156
 21
-656.4851890409909
 31
0.0
  0
LINE
  5
550
330
1F
100
AcDbEntity
  8
D-0
  6
Continuous
 62
     7
370
     9
100
AcDbLine
 10
-986.8227735897826
 20
-659.0574394072019
 30
0.0
 11
-986.8227735897826
 21
-657.5571571196042
 31
0.0
  0
LINE
  5
551
330
1F
100
AcDbEntity
  8
D-0
  6
Continuous
 62
     7
370
     9
100
AcDbLine
 10
-986.8227735897826
 20
-657.5571571196042
 30
0.0
 11
-985.3224936863708
 21
-657.5571571196042
 31
0.0
  0
LINE
  5
552
330
1F
100
AcDbEntity
  8
D-0
  6
Continuous
 62
     7
370
     9
100
AcDbLine
 10
-985.3224936863708
 20
-657.5571571196042
 30
0.0
 11
-985.3224936863708
 21
-659.0574394072019
 31
0.0
  0
LINE
  5
553
330
1F
100
AcDbEntity
  8
D-0
  6
Continuous
 62
     7
370
     9
100
AcDbLine
 10
-985.3224936863708
 20
-659.0574394072019
 30
0.0
 11
-986.8227735897826
 21
-659.0574394072019
 31
0.0
  0
LINE
  5
554
330
1F
100
AcDbEntity
  8
D-4
  6
Continuous
 62
     7
370
     9
100
AcDbLine
 10
-686.5369836231994
 20
-651.9080100859128
 30
0.0
 11
-686.5369836231994
 21
-870.8469138945065
 31
0.0
  0
LINE
  5
555
330
1F
100
AcDbEntity
  8
D-0
  6
Continuous
 62
     7
370
     9
100
AcDbLine
 10
-909.252676143341
 20
-386.3812623823605
 30
0.0
 11
-909.252676143341
 21
-384.8809800947629
 31
0.0
  0
LINE
  5
556
330
1F
100
AcDbEntity
  8
D-0
  6
Continuous
 62
     7
370
     9
100
AcDbLine
 10
-909.252676143341
 20
-384.8809800947629
 30
0.0
 11
-907.7523938557433
 21
-384.8809800947629
 31
0.0
  0
LINE
  5
557
330
1F
100
AcDbEntity
  8
D-0
  6
Continuous
 62
     7
370
     9
100
AcDbLine
 10
-907.7523938557433
 20
-384.8809800947629
 30
0.0
 11
-907.7523938557433
 21
-386.3812623823605
 31
0.0
  0
LINE
  5
558
330
1F
100
AcDbEntity
  8
D-0
  6
Continuous
 62
     7
370
     9
100
AcDbLine
 10
-907.7523938557433
 20
-386.3812623823605
 30
0.0
 11
-909.252676143341
 21
-386.3812623823605
 31
0.0
  0
LINE
  5
559
330
1F
100
AcDbEntity
  8
D-0
  6
Continuous
 62
     7
370
     9
100
AcDbLine
 10
-789.0108338734435
 20
-401.6623674238645
 30
0.0
 11
-789.0108338734435
 21
-400.1620899046384
 31
0.0
  0
LINE
  5
55A
330
1F
100
AcDbEntity
  8
D-0
  6
Continuous
 62
     7
370
     9
100
AcDbLine
 10
-789.0108338734435
 20
-400.1620899046384
 30
0.0
 11
-787.5105515858459
 21
-400.1620899046384
 31
0.0
  0
LINE
  5
55B
330
1F
100
AcDbEntity
  8
D-0
  6
Continuous
 62
     7
370
     9
100
AcDbLine
 10
-787.5105515858459
 20
-400.1620899046384
 30
0.0
 11
-787.5105515858459
 21
-401.6623674238645
 31
0.0
  0
LINE
  5
55C
330
1F
100
AcDbEntity
  8
D-0
  6
Continuous
 62
     7
370
     9
100
AcDbLine
 10
-787.5105515858459
 20
-401.6623674238645
 30
0.0
 11
-789.0108338734435
 21
-401.6623674238645
 31
0.0
  0
LINE
  5
55D
330
1F
100
AcDbEntity
  8
D-0
  6
Continuous
 62
     7
370
     9
100
AcDbLine
 10
-838.8901654621886
 20
-355.0648127401791
 30
0.0
 11
-838.8901654621886
 21
-353.5645328367673
 31
0.0
  0
LINE
  5
55E
330
1F
100
AcDbEntity
  8
D-0
  6
Continuous
 62
     7
370
     9
100
AcDbLine
 10
-838.8901654621886
 20
-353.5645328367673
 30
0.0
 11
-837.3898927113341
 21
-353.5645328367673
 31
0.0
  0
LINE
  5
55F
330
1F
100
AcDbEntity
  8
D-0
  6
Continuous
 62
     7
370
     9
100
AcDbLine
 10
-837.3898927113341
 20
-353.5645328367673
 30
0.0
 11
-837.3898927113341
 21
-355.0648127401791
 31
0.0
  0
LINE
  5
560
330
1F
100
AcDbEntity
  8
D-0
  6
Continuous
 62
     7
370
     9
100
AcDbLine
 10
-837.3898927113341
 20
-355.0648127401791
 30
0.0
 11
-838.8901654621886
 21
-355.0648127401791
 31
0.0
  0
LINE
  5
561
330
1F
100
AcDbEntity
  8
D-6
  6
Continuous
 62
     6
370
     9
100
AcDbLine
 10
-686.5379754444884
 20
-553.7731490934812
 30
0.0
 11
-590.5270234486388
 21
-457.7631984556638
 31
0.0
  0
LINE
  5
562
330
1F
100
AcDbEntity
  8
D-6
  6
Continuous
 62
     6
370
     9
100
AcDbLine
 10
-686.5379754444884
 20
-567.9148231352292
 30
0.0
 11
-576.3863221546935
 21
-457.7631984556638
 31
0.0
  0
LINE
  5
563
330
1F
100
AcDbEntity
  8
D-6
  6
Continuous
 62
     6
370
     9
100
AcDbLine
 10
-936.5376488110351
 20
-803.7718330229245
 30
0.0
 11
-765.5285874745177
 21
-632.7637611235104
 31
0.0
  0
LINE
  5
564
330
1F
100
AcDbEntity
  8
D-6
  6
Continuous
 62
     6
370
     9
100
AcDbLine
 10
-926.3874737164306
 20
-807.7633415068112
 30
0.0
 11
-751.3879052540588
 21
-632.7637611235104
 31
0.0
  0
LINE
  5
565
330
1F
100
AcDbEntity
  8
D-6
  6
Continuous
 62
     6
370
     9
100
AcDbLine
 10
-686.5379754444884
 20
-582.0555053556882
 30
0.0
 11
-562.2456590077209
 21
-457.7631984556638
 31
0.0
  0
LINE
  5
566
330
1F
100
AcDbEntity
  8
D-6
  6
Continuous
 62
     6
370
     9
100
AcDbLine
 10
-912.2477857014464
 20
-807.7633415068112
 30
0.0
 11
-737.2472230335998
 21
-632.7637611235104
 31
0.0
  0
LINE
  5
567
330
1F
100
AcDbEntity
  8
D-4
  6
Continuous
 62
     7
370
     9
100
AcDbLine
 10
-1086.537851466827
 20
-540.8665595854245
 30
0.0
 11
-936.5377394100951
 21
-540.8665595854245
 31
0.0
  0
LINE
  5
568
330
1F
100
AcDbEntity
  8
D-4
  6
Continuous
 62
     7
370
     9
100
AcDbLine
 10
-936.5377394100951
 20
-540.8665595854245
 30
0.0
 11
-766.5375176808166
 21
-540.8665595854245
 31
0.0
  0
LINE
  5
569
330
1F
100
AcDbEntity
  8
D-4
  6
Continuous
 62
     7
370
     9
100
AcDbLine
 10
-766.5375176808166
 20
-543.8665710295163
 30
0.0
 11
-766.5375176808166
 21
-459.2628894651853
 31
0.0
  0
LINE
  5
56A
330
1F
100
AcDbEntity
  8
D-4
  6
Continuous
 62
     7
370
     9
100
AcDbLine
 10
-902.5356046101379
 20
-422.7637801969968
 30
0.0
 11
-703.5809747120666
 21
-422.7637801969968
 31
0.0
  0
LINE
  5
56B
330
1F
100
AcDbEntity
  8
D-4
  6
Continuous
 62
     7
370
     9
100
AcDbLine
 10
-706.5815392872619
 20
-332.7643524015866
 30
0.0
 11
-706.5815392872619
 21
-422.7637801969968
 31
0.0
  0
LINE
  5
56C
330
1F
100
AcDbEntity
  8
D-4
  6
Continuous
 62
     7
370
     9
100
AcDbLine
 10
-703.5815469166564
 20
-454.2629562223874
 30
0.0
 11
-761.5375176808166
 21
-454.2629562223874
 31
0.0
  0
LINE
  5
56D
330
1F
100
AcDbEntity
  8
D-4
  6
Continuous
 62
     7
370
     9
100
AcDbLine
 10
-706.5815392872619
 20
-422.7637801969968
 30
0.0
 11
-706.5815392872619
 21
-539.5139060820065
 31
0.0
  0
LINE
  5
56E
330
1F
100
AcDbEntity
  8
D-4
  6
Continuous
 62
     7
370
     9
100
AcDbLine
 10
-936.5377394100951
 20
-543.8665710295163
 30
0.0
 11
-936.5377394100951
 21
-459.2628894651853
 31
0.0
  0
LINE
  5
56F
330
1F
100
AcDbEntity
  8
D-5
  6
Continuous
 62
     7
370
     9
100
AcDbLine
 10
-918.4188023945617
 20
-425.262921890112
 30
0.0
 11
-904.6071139714049
 21
-404.4244991148435
 31
0.0
  0
LINE
  5
570
330
1F
100
AcDbEntity
  8
D-5
  6
Continuous
 62
     7
370
     9
100
AcDbLine
 10
-918.4188023945617
 20
-425.262921890112
 30
0.0
 11
-899.685124530487
 21
-408.7088142240964
 31
0.0
  0
LINE
  5
571
330
1F
100
AcDbEntity
  8
D-5
  6
Continuous
 62
     7
370
     9
100
AcDbLine
 10
-743.8696710011291
 20
-224.7154937590085
 30
0.0
 11
-918.4188023945617
 21
-425.262921890112
 31
0.0
  0
LINE
  5
572
330
1F
100
AcDbEntity
  8
D-9
  6
Continuous
 62
     4
370
     9
100
AcDbLine
 10
-896.5375605961608
 20
-454.2629562223874
 30
0.0
 11
-781.5375176808166
 21
-454.2629562223874
 31
0.0
  0
LINE
  5
573
330
1F
100
AcDbEntity
  8
D-9
  6
Continuous
 62
     4
370
     9
100
AcDbLine
 10
-911.5376321217345
 20
-439.2628894651853
 30
0.0
 11
-911.5376321217345
 21
-425.262921890112
 31
0.0
  0
LINE
  5
574
330
1F
100
AcDbEntity
  8
D-9
  6
Continuous
 62
     4
370
     9
100
AcDbLine
 10
-766.5377084156798
 20
-439.2628894651853
 30
0.0
 11
-766.5377084156798
 21
-425.262921890112
 31
0.0
  0
LINE
  5
575
330
1F
100
AcDbEntity
  8
D-9
  6
Continuous
 62
     4
370
     9
100
AcDbLine
 10
-931.5377251049804
 20
-435.2629695738278
 30
0.0
 11
-931.5377251049804
 21
-425.262921890112
 31
0.0
  0
LINE
  5
576
330
1F
100
AcDbEntity
  8
D-9
  6
Continuous
 62
     4
370
     9
100
AcDbLine
 10
-911.512607707672
 20
-435.2629695738278
 30
0.0
 11
-961.5374360868909
 21
-435.2629695738278
 31
0.0
  0
LINE
  5
577
330
1F
100
AcDbEntity
  8
D-9
  6
Continuous
 62
     4
370
     9
100
AcDbLine
 10
-766.5377084156798
 20
-425.262921890112
 30
0.0
 11
-961.5374360868909
 21
-425.262921890112
 31
0.0
  0
LINE
  5
578
330
1F
100
AcDbEntity
  8
D-9
  6
Continuous
 62
     3
370
     9
100
AcDbLine
 10
-1061.537765636139
 20
-422.7642761076413
 30
0.0
 11
-1061.537765636139
 21
-445.264257034155
 31
0.0
  0
LINE
  5
579
330
1F
100
AcDbEntity
  8
D-9
  6
Continuous
 62
     3
370
     9
100
AcDbLine
 10
-961.5374360868909
 20
-445.264257034155
 30
0.0
 11
-1061.537765636139
 21
-445.264257034155
 31
0.0
  0
LINE
  5
57A
330
1F
100
AcDbEntity
  8
D-9
  6
Continuous
 62
     3
370
     9
100
AcDbLine
 10
-961.5374360868909
 20
-422.7642761076413
 30
0.0
 11
-1061.537765636139
 21
-422.7642761076413
 31
0.0
  0
LINE
  5
57B
330
1F
100
AcDbEntity
  8
D-9
  6
Continuous
 62
     2
370
     9
100
AcDbLine
 10
-997.787865771942
 20
-447.7629028166257
 30
0.0
 11
-997.787865771942
 21
-445.264257034155
 31
0.0
  0
LINE
  5
57C
330
1F
100
AcDbEntity
  8
D-9
  6
Continuous
 62
     2
370
     9
100
AcDbLine
 10
-1006.538576259308
 20
-455.2623115385495
 30
0.0
 11
-997.787865771942
 21
-447.7629028166257
 31
0.0
  0
LINE
  5
57D
330
1F
100
AcDbEntity
  8
D-9
  6
Continuous
 62
     2
370
     9
100
AcDbLine
 10
-1016.537493838959
 20
-455.2623115385495
 30
0.0
 11
-1006.538576259308
 21
-455.2623115385495
 31
0.0
  0
LINE
  5
57E
330
1F
100
AcDbEntity
  8
D-9
  6
Continuous
 62
     2
370
     9
100
AcDbLine
 10
-1025.287956371002
 20
-447.7629028166257
 30
0.0
 11
-1016.537493838959
 21
-455.2623115385495
 31
0.0
  0
LINE
  5
57F
330
1F
100
AcDbEntity
  8
D-9
  6
Continuous
 62
     2
370
     9
100
AcDbLine
 10
-1025.287956371002
 20
-447.7629028166257
 30
0.0
 11
-1025.287956371002
 21
-445.264257034155
 31
0.0
  0
LINE
  5
580
330
1F
100
AcDbEntity
  8
D-9
  6
Continuous
 62
     2
370
     9
100
AcDbLine
 10
-1025.287956371002
 20
-447.7629028166257
 30
0.0
 11
-997.787865771942
 21
-447.7629028166257
 31
0.0
  0
LINE
  5
581
330
1F
100
AcDbEntity
  8
D-9
  6
Continuous
 62
     3
370
     9
100
AcDbLine
 10
-961.5374360868909
 20
-422.7642761076413
 30
0.0
 11
-961.5374360868909
 21
-445.264257034155
 31
0.0
  0
LINE
  5
582
330
1F
100
AcDbEntity
  8
D-9
  6
Continuous
 62
     3
370
     9
100
AcDbLine
 10
-961.5374360868909
 20
-432.7642761076413
 30
0.0
 11
-1061.537765636139
 21
-432.7642761076413
 31
0.0
  0
LINE
  5
583
330
1F
100
AcDbEntity
  8
D-9
  6
JWW_DASHED2
 62
     3
370
     9
100
AcDbLine
 10
-961.5374360868909
 20
-435.264257034155
 30
0.0
 11
-1061.537765636139
 21
-435.264257034155
 31
0.0
  0
LINE
  5
584
330
1F
100
AcDbEntity
  8
D-9
  6
JWW_CENTER1
 62
     4
370
     9
100
AcDbLine
 10
-1011.537598743133
 20
-463.0032764280759
 30
0.0
 11
-1011.537598743133
 21
-422.7642761076413
 31
0.0
  0
ARC
  5
585
330
1F
100
AcDbEntity
  8
D-1
  6
Continuous
 62
     2
370
     9
100
AcDbCircle
 10
-956.5397215625571
 20
-402.7651725614987
 30
0.0
 40
5.0
100
AcDbArc
 50
270.0244750976562
 51
0.0107421875000158
  0
ARC
  5
586
330
1F
100
AcDbEntity
  8
D-1
  6
Continuous
 62
     2
370
     9
100
AcDbCircle
 10
-956.5377400061416
 20
-402.7631936872922
 30
0.0
 40
20.0
100
AcDbArc
 50
270.0
 51
0.0002441406249917
  0
ARC
  5
587
330
1F
100
AcDbEntity
  8
D-1
  6
Continuous
 62
     2
370
     9
100
AcDbCircle
 10
-956.5377400061416
 20
-402.7641807402097
 30
0.0
 40
5.0
100
AcDbArc
 50
270.0
 51
0.0001983642578153
  0
ARC
  5
588
330
1F
100
AcDbEntity
  8
D-9
  6
Continuous
 62
     4
370
     9
100
AcDbCircle
 10
-896.5375605961608
 20
-439.2628894651853
 30
0.0
 40
15.00000238418579
100
AcDbArc
 50
180.0
 51
270.0
  0
ARC
  5
589
330
1F
100
AcDbEntity
  8
D-9
  6
Continuous
 62
     4
370
     9
100
AcDbCircle
 10
-781.5375176808166
 20
-439.2628894651853
 30
0.0
 40
15.00000238418579
100
AcDbArc
 50
270.0
 51
0.0
  0
LWPOLYLINE
  5
58A
330
1F
100
AcDbEntity
  8
D-4
  6
Continuous
 62
     7
370
     9
100
AcDbPolyline
 90
        4
 70
     1
 43
1.0
 10
-936.0386382481385
 20
5.102754989770801
 42
0.4142135623731
 10
-936.5386382481383
 20
5.602754989770801
 42
0.4142135623731
 10
-937.0386382481383
 20
5.102754989770801
 42
0.4142135623731
 10
-936.5386382481383
 20
4.602754989770801
 42
0.4142135623731
  0
LWPOLYLINE
  5
58B
330
1F
100
AcDbEntity
  8
D-4
  6
Continuous
 62
     7
370
     9
100
AcDbPolyline
 90
        4
 70
     1
 43
1.0
 10
-1086.037851466827
 20
-214.3453346098386
 42
0.4142135623731
 10
-1086.537851466827
 20
-213.8453346098386
 42
0.4142135623731
 10
-1087.037851466827
 20
-214.3453346098386
 42
0.4142135623731
 10
-1086.537851466827
 20
-214.8453346098386
 42
0.4142135623731
  0
LWPOLYLINE
  5
58C
330
1F
100
AcDbEntity
  8
D-4
  6
Continuous
 62
     7
370
     9
100
AcDbPolyline
 90
        4
 70
     1
 43
1.0
 10
-961.038010611229
 20
-214.3453346098386
 42
0.4142135623731
 10
-961.5380106112289
 20
-213.8453346098386
 42
0.4142135623731
 10
-962.0380106112289
 20
-214.3453346098386
 42
0.4142135623731
 10
-961.5380106112289
 20
-214.8453346098386
 42
0.4142135623731
  0
LWPOLYLINE
  5
58D
330
1F
100
AcDbEntity
  8
D-4
  6
Continuous
 62
     7
370
     9
100
AcDbPolyline
 90
        4
 70
     1
 43
1.0
 10
-961.038010611229
 20
-105.5929122770749
 42
0.4142135623731
 10
-961.5380106112289
 20
-105.0929122770749
 42
0.4142135623731
 10
-962.0380106112289
 20
-105.5929122770749
 42
0.4142135623731
 10
-961.5380106112289
 20
-106.0929122770749
 42
0.4142135623731
  0
LWPOLYLINE
  5
58E
330
1F
100
AcDbEntity
  8
D-4
  6
Continuous
 62
     7
370
     9
100
AcDbPolyline
 90
        4
 70
     1
 43
1.0
 10
-951.0374694010544
 20
-105.5929122770749
 42
0.4142135623731
 10
-951.5374694010543
 20
-105.0929122770749
 42
0.4142135623731
 10
-952.0374694010543
 20
-105.5929122770749
 42
0.4142135623731
 10
-951.5374694010543
 20
-106.0929122770749
 42
0.4142135623731
  0
LWPOLYLINE
  5
58F
330
1F
100
AcDbEntity
  8
D-4
  6
Continuous
 62
     7
370
     9
100
AcDbPolyline
 90
        4
 70
     1
 43
1.0
 10
-936.0386382481385
 20
-105.5929122770749
 42
0.4142135623731
 10
-936.5386382481383
 20
-105.0929122770749
 42
0.4142135623731
 10
-937.0386382481383
 20
-105.5929122770749
 42
0.4142135623731
 10
-936.5386382481383
 20
-106.0929122770749
 42
0.4142135623731
  0
LWPOLYLINE
  5
590
330
1F
100
AcDbEntity
  8
D-4
  6
Continuous
 62
     7
370
     9
100
AcDbPolyline
 90
        4
 70
     1
 43
1.0
 10
-1086.037851466827
 20
-713.3824668730222
 42
0.4142135623731
 10
-1086.537851466827
 20
-712.8824668730222
 42
0.4142135623731
 10
-1087.037851466827
 20
-713.3824668730222
 42
0.4142135623731
 10
-1086.537851466827
 20
-713.8824668730222
 42
0.4142135623731
  0
LWPOLYLINE
  5
591
330
1F
100
AcDbEntity
  8
D-4
  6
Continuous
 62
     7
370
     9
100
AcDbPolyline
 90
        4
 70
     1
 43
1.0
 10
-936.0376488110352
 20
-713.3824668730222
 42
0.4142135623731
 10
-936.5376488110351
 20
-712.8824668730222
 42
0.4142135623731
 10
-937.0376488110351
 20
-713.3824668730222
 42
0.4142135623731
 10
-936.5376488110351
 20
-713.8824668730222
 42
0.4142135623731
  0
LWPOLYLINE
  5
592
330
1F
100
AcDbEntity
  8
D-4
  6
Continuous
 62
     7
370
     9
100
AcDbPolyline
 90
        4
 70
     1
 43
1.0
 10
-1086.037851466827
 20
-867.8473411406003
 42
0.4142135623731
 10
-1086.537851466827
 20
-867.3473411406003
 42
0.4142135623731
 10
-1087.037851466827
 20
-867.8473411406003
 42
0.4142135623731
 10
-1086.537851466827
 20
-868.3473411406003
 42
0.4142135623731
  0
LWPOLYLINE
  5
593
330
1F
100
AcDbEntity
  8
D-4
  6
Continuous
 62
     7
370
     9
100
AcDbPolyline
 90
        4
 70
     1
 43
1.0
 10
-686.0369836231995
 20
-867.8473411406003
 42
0.4142135623731
 10
-686.5369836231994
 20
-867.3473411406003
 42
0.4142135623731
 10
-687.0369836231994
 20
-867.8473411406003
 42
0.4142135623731
 10
-686.5369836231994
 20
-868.3473411406003
 42
0.4142135623731
  0
LWPOLYLINE
  5
594
330
1F
100
AcDbEntity
  8
D-4
  6
Continuous
 62
     7
370
     9
100
AcDbPolyline
 90
        4
 70
     1
 43
1.0
 10
-414.3526231190491
 20
-632.764257034155
 42
0.4142135623731
 10
-414.852623119049
 20
-632.264257034155
 42
0.4142135623731
 10
-415.352623119049
 20
-632.764257034155
 42
0.4142135623731
 10
-414.852623119049
 20
-633.264257034155
 42
0.4142135623731
  0
LWPOLYLINE
  5
595
330
1F
100
AcDbEntity
  8
D-4
  6
Continuous
 62
     7
370
     9
100
AcDbPolyline
 90
        4
 70
     1
 43
1.0
 10
-414.3526231190491
 20
-332.7643524015866
 42
0.4142135623731
 10
-414.852623119049
 20
-332.2643524015866
 42
0.4142135623731
 10
-415.352623119049
 20
-332.7643524015866
 42
0.4142135623731
 10
-414.852623119049
 20
-333.2643524015866
 42
0.4142135623731
  0
LWPOLYLINE
  5
596
330
1F
100
AcDbEntity
  8
D-4
  6
Continuous
 62
     7
370
     9
100
AcDbPolyline
 90
        4
 70
     1
 43
1.0
 10
-1086.037851466827
 20
-540.8665595854245
 42
0.4142135623731
 10
-1086.537851466827
 20
-540.3665595854245
 42
0.4142135623731
 10
-1087.037851466827
 20
-540.8665595854245
 42
0.4142135623731
 10
-1086.537851466827
 20
-541.3665595854245
 42
0.4142135623731
  0
LWPOLYLINE
  5
597
330
1F
100
AcDbEntity
  8
D-4
  6
Continuous
 62
     7
370
     9
100
AcDbPolyline
 90
        4
 70
     1
 43
1.0
 10
-936.0377394100952
 20
-540.8665595854245
 42
0.4142135623731
 10
-936.5377394100951
 20
-540.3665595854245
 42
0.4142135623731
 10
-937.0377394100951
 20
-540.8665595854245
 42
0.4142135623731
 10
-936.5377394100951
 20
-541.3665595854245
 42
0.4142135623731
  0
LWPOLYLINE
  5
598
330
1F
100
AcDbEntity
  8
D-4
  6
Continuous
 62
     7
370
     9
100
AcDbPolyline
 90
        4
 70
     1
 43
1.0
 10
-766.0375176808167
 20
-540.8665595854245
 42
0.4142135623731
 10
-766.5375176808166
 20
-540.3665595854245
 42
0.4142135623731
 10
-767.0375176808166
 20
-540.8665595854245
 42
0.4142135623731
 10
-766.5375176808166
 20
-541.3665595854245
 42
0.4142135623731
  0
LWPOLYLINE
  5
599
330
1F
100
AcDbEntity
  8
D-4
  6
Continuous
 62
     7
370
     9
100
AcDbPolyline
 90
        4
 70
     1
 43
1.0
 10
-706.081539287262
 20
-332.7638570869885
 42
0.4142135623731
 10
-706.5815392872619
 20
-332.2638570869885
 42
0.4142135623731
 10
-707.0815392872619
 20
-332.7638570869885
 42
0.4142135623731
 10
-706.5815392872619
 20
-333.2638570869885
 42
0.4142135623731
  0
LWPOLYLINE
  5
59A
330
1F
100
AcDbEntity
  8
D-4
  6
Continuous
 62
     7
370
     9
100
AcDbPolyline
 90
        4
 70
     1
 43
1.0
 10
-706.081539287262
 20
-422.7637801969968
 42
0.4142135623731
 10
-706.5815392872619
 20
-422.2637801969968
 42
0.4142135623731
 10
-707.0815392872619
 20
-422.7637801969968
 42
0.4142135623731
 10
-706.5815392872619
 20
-423.2637801969968
 42
0.4142135623731
  0
LWPOLYLINE
  5
59B
330
1F
100
AcDbEntity
  8
D-4
  6
Continuous
 62
     7
370
     9
100
AcDbPolyline
 90
        4
 70
     1
 43
1.0
 10
-706.081539287262
 20
-454.2629562223874
 42
0.4142135623731
 10
-706.5815392872619
 20
-453.7629562223874
 42
0.4142135623731
 10
-707.0815392872619
 20
-454.2629562223874
 42
0.4142135623731
 10
-706.5815392872619
 20
-454.7629562223874
 42
0.4142135623731
  0
TEXT
  5
59C
330
1F
100
AcDbEntity
  8
D-4
  6
Continuous
 62
     2
370
     9
100
AcDbText
 10
-1045.287098064117
 20
-203.70506758103
 30
0.0
 40
30.48
  1
25
 41
1.0625
  7
ＭＳ ゴシック
100
AcDbText
  0
TEXT
  5
59D
330
1F
100
AcDbEntity
  8
D-4
  6
Continuous
 62
     2
370
     9
100
AcDbText
 10
-1077.787870540314
 20
-702.7431916655026
 30
0.0
 40
30.48
  1
25～30
 41
1.104166666666667
  7
ＭＳ ゴシック
100
AcDbText
  0
TEXT
  5
59E
330
1F
100
AcDbEntity
  8
D-4
  6
Continuous
 62
     2
370
     9
100
AcDbText
 10
-954.4062543144415
 20
-857.2070741118312
 30
0.0
 40
30.48
  1
75～80
 50
0.0002144421685898
 41
1.104166666666669
  7
ＭＳ ゴシック
100
AcDbText
  0
TEXT
  5
59F
330
1F
100
AcDbEntity
  8
D-4
  6
Continuous
 62
     2
370
     9
100
AcDbText
 10
-431.0233238026428
 20
-549.0141809867421
 30
0.0
 40
30.48
  1
55～65
 50
90.00000250447953
 41
1.104166666666667
  7
ＭＳ ゴシック
100
AcDbText
  0
TEXT
  5
5A0
330
1F
100
AcDbEntity
  8
D-4
  6
Continuous
 62
     2
370
     9
100
AcDbText
 10
-994.4827214619445
 20
-94.95363706955537
 30
0.0
 40
30.48
  1
2
 41
0.9999999999999998
  7
ＭＳ ゴシック
100
AcDbText
  0
TEXT
  5
5A1
330
1F
100
AcDbEntity
  8
D-4
  6
Continuous
 62
     2
370
     9
100
AcDbText
 10
-923.2362875935363
 20
-94.95363706955794
 30
0.0
 40
30.48
  1
3
 50
359.9999453584866
 41
0.9999999999999998
  7
ＭＳ ゴシック
100
AcDbText
  0
TEXT
  5
5A2
330
1F
100
AcDbEntity
  8
D-4
  6
Continuous
 62
     2
370
     9
100
AcDbText
 10
-1032.787794246368
 20
-529.2265557707273
 30
0.0
 40
30.48
  1
30
 41
1.0625
  7
ＭＳ ゴシック
100
AcDbText
  0
TEXT
  5
5A3
330
1F
100
AcDbEntity
  8
D-4
  6
Continuous
 62
     2
370
     9
100
AcDbText
 10
-926.1715475460815
 20
-529.2265557707273
 30
0.0
 40
30.48
  1
34
 41
1.0625
  7
ＭＳ ゴシック
100
AcDbText
  0
TEXT
  5
5A4
330
1F
100
AcDbEntity
  8
D-4
  6
Continuous
 62
     2
370
     9
100
AcDbText
 10
-717.2218063160705
 20
-399.0134848044909
 30
0.0
 40
30.48
  1
18
 50
90.00000250447789
 41
1.062500000000001
  7
ＭＳ ゴシック
100
AcDbText
  0
TEXT
  5
5A5
330
1F
100
AcDbEntity
  8
D-4
  6
Continuous
 62
     2
370
     9
100
AcDbText
 10
-718.2215431019591
 20
-525.958169786791
 30
0.0
 40
30.48
  1
6.5
 50
90.00000250448076
 41
1.083333333333334
  7
ＭＳ ゴシック
100
AcDbText
  0
LINE
  5
5A6
330
1F
100
AcDbEntity
  8
D-5
  6
Continuous
 62
     7
370
     9
100
AcDbLine
 10
-995.7738925204185
 20
-331.6313787409808
 30
0.0
 11
-981.9631959185508
 21
-310.7934477040317
 31
0.0
  0
LINE
  5
5A7
330
1F
100
AcDbEntity
  8
D-5
  6
Continuous
 62
     7
370
     9
100
AcDbLine
 10
-995.7738925204185
 20
-331.6313787409808
 30
0.0
 11
-977.0402170405296
 21
-315.0777669856097
 31
0.0
  0
LINE
  5
5A8
330
1F
100
AcDbEntity
  8
D-5
  6
Continuous
 62
     7
370
     9
100
AcDbLine
 10
-753.274956288391
 20
-53.01406406536671
 30
0.0
 11
-995.7738925204185
 21
-331.6313787409808
 31
0.0
  0
LINE
  5
5A9
330
1F
100
AcDbEntity
  8
D-5
  6
Continuous
 62
     7
370
     9
100
AcDbLine
 10
-936.5376488110351
 20
-361.9273702002806
 30
0.0
 11
-922.7269522091674
 21
-341.0894391633315
 31
0.0
  0
LINE
  5
5AA
330
1F
100
AcDbEntity
  8
D-5
  6
Continuous
 62
     7
370
     9
100
AcDbLine
 10
-936.5376488110351
 20
-361.9273702002806
 30
0.0
 11
-917.8039733311462
 21
-345.3737584449095
 31
0.0
  0
LINE
  5
5AB
330
1F
100
AcDbEntity
  8
D-5
  6
Continuous
 62
     7
370
     9
100
AcDbLine
 10
-746.4482379632036
 20
-143.5255824579281
 30
0.0
 11
-936.5376488110351
 21
-361.9273702002806
 31
0.0
  0
LINE
  5
5AC
330
1F
100
AcDbEntity
  8
D-5
  6
Continuous
 62
     7
370
     9
100
AcDbLine
 10
-746.4482379632036
 20
-143.5255824579281
 30
0.0
 11
-291.8511742646425
 21
-143.5255824579281
 31
0.0
  0
LINE
  5
5AD
330
1F
100
AcDbEntity
  8
D-5
  6
Continuous
 62
     7
370
     9
100
AcDbLine
 10
-743.8696710011291
 20
-224.7154937590085
 30
0.0
 11
-126.1312909821609
 21
-224.7154937590085
 31
0.0
  0
LINE
  5
5AE
330
1F
100
AcDbEntity
  8
D-6
  6
JWW_DASHED3
 62
     6
370
     9
100
AcDbLine
 10
-839.0379372975158
 20
-746.0962806547604
 30
0.0
 11
-839.0379372975158
 21
-632.7637611235104
 31
0.0
  0
LINE
  5
5AF
330
1F
100
AcDbEntity
  8
D-6
  6
JWW_DASHED3
 62
     6
370
     9
100
AcDbLine
 10
-794.0374795338439
 20
-632.7637611235104
 30
0.0
 11
-794.0374795338439
 21
-746.0962806547604
 31
0.0
  0
LINE
  5
5B0
330
1F
100
AcDbEntity
  8
D-6
  6
Continuous
 62
     6
370
     9
100
AcDbLine
 10
-839.0379372975158
 20
-632.7637611235104
 30
0.0
 11
-839.0379372975158
 21
-454.2629562223874
 31
0.0
  0
LINE
  5
5B1
330
1F
100
AcDbEntity
  8
D-6
  6
Continuous
 62
     6
370
     9
100
AcDbLine
 10
-794.0374795338439
 20
-632.7637611235104
 30
0.0
 11
-794.0374795338439
 21
-454.2629562223874
 31
0.0
  0
LINE
  5
5B2
330
1F
100
AcDbEntity
  8
D-6
  6
Continuous
 62
     6
370
     9
100
AcDbLine
 10
-839.0379372975158
 20
-390.262921890112
 30
0.0
 11
-794.0374795338439
 21
-390.262921890112
 31
0.0
  0
LINE
  5
5B3
330
1F
100
AcDbEntity
  8
D-6
  6
JWW_CENTER2
 62
     6
370
     9
100
AcDbLine
 10
-816.5377084156798
 20
-381.799319824072
 30
0.0
 11
-816.5377084156798
 21
-746.0962806547604
 31
0.0
  0
LINE
  5
5B4
330
1F
100
AcDbEntity
  8
D-6
  6
Continuous
 62
     6
370
     9
100
AcDbLine
 10
-794.0374795338439
 20
-425.262921890112
 30
0.0
 11
-794.0374795338439
 21
-390.262921890112
 31
0.0
  0
LINE
  5
5B5
330
1F
100
AcDbEntity
  8
D-6
  6
Continuous
 62
     6
370
     9
100
AcDbLine
 10
-839.0379372975158
 20
-425.262921890112
 30
0.0
 11
-839.0379372975158
 21
-390.262921890112
 31
0.0
  0
TEXT
  5
5B6
330
1F
100
AcDbEntity
  8
D-5
  6
Continuous
 62
     7
370
     9
100
AcDbText
 10
-730.2254334828185
 20
-215.8266039885007
 30
0.0
 40
22.86
  1
アンカー
 41
1.125
  7
ＭＳ ゴシック
100
AcDbText
  0
TEXT
  5
5B7
330
1F
100
AcDbEntity
  8
D-5
  6
Continuous
 62
     7
370
     9
100
AcDbText
 10
-633.7518995899509
 20
-723.8019672649989
 30
0.0
 40
22.86
  1
差筋φ9程度
 41
1.136363636363636
  7
ＭＳ ゴシック
100
AcDbText
  0
LINE
  5
5B8
330
1F
100
AcDbEntity
  8
D-5
  6
Continuous
 62
     7
370
     9
100
AcDbLine
 10
-634.1938513416599
 20
-735.4957085674891
 30
0.0
 11
-445.8696409788391
 21
-735.4957085674891
 31
0.0
  0
LINE
  5
5B9
330
1F
100
AcDbEntity
  8
D-5
  6
Continuous
 62
     7
370
     9
100
AcDbLine
 10
-794.0374795338439
 20
-575.6520803753028
 30
0.0
 11
-634.1938513416599
 21
-735.4957085674891
 31
0.0
  0
LINE
  5
5BA
330
1F
100
AcDbEntity
  8
D-5
  6
Continuous
 62
     7
370
     9
100
AcDbLine
 10
-794.0374795338439
 20
-575.6520803753028
 30
0.0
 11
-778.8184438086264
 21
-595.485913882585
 31
0.0
  0
LINE
  5
5BB
330
1F
100
AcDbEntity
  8
D-5
  6
Continuous
 62
     7
370
     9
100
AcDbLine
 10
-794.0374795338439
 20
-575.6520803753028
 30
0.0
 11
-774.2036460265617
 21
-590.8711161005203
 31
0.0
  0
LINE
  5
5BC
330
1F
100
AcDbEntity
  8
D-5
  6
Continuous
 62
     7
370
     9
100
AcDbLine
 10
-753.274956288391
 20
-53.01406406536671
 30
0.0
 11
103.2284511539533
 21
-53.01406406536671
 31
0.0
  0
TEXT
  5
5BD
330
1F
100
AcDbEntity
  8
D-4
  6
Continuous
 62
     2
370
   211
100
AcDbText
 10
-1658.998832274293
 20
21.74306068105139
 30
0.0
 40
30.48
  1
□510
 41
1.1
  7
ＭＳ ゴシック
100
AcDbText
  0
TEXT
  5
5BE
330
1F
100
AcDbEntity
  8
D-5
  6
Continuous
 62
     7
370
     9
100
AcDbText
 10
-742.0608444382872
 20
-134.5366141046592
 30
0.0
 40
22.86
  1
ステンレス製受枠ＲＬ－１５
 50
359.9999368586928
 41
1.153846153846155
  7
ＭＳ ゴシック
100
AcDbText
  0
TEXT
  5
5BF
330
1F
100
AcDbEntity
  8
D-5
  6
Continuous
 62
     7
370
     9
100
AcDbText
 10
-749.0611506825858
 20
-40.49280209163371
 30
0.0
 40
22.86
  1
グレーチング（すきま9mm）ＺＱー１５
 50
0.00004895879748
 41
1.157142857142857
  7
ＭＳ ゴシック
100
AcDbText
  0
TEXT
  5
5C0
330
1F
100
AcDbEntity
  8
D-5
  6
Continuous
 62
     7
370
     9
100
AcDbText
 10
-749.0611470680838
 20
-2.717619506499336
 30
0.0
 40
22.86
  1
ステンレス製　細目滑り止め模様付（ローレット模様）
 41
1.16
  7
ＭＳ ゴシック
100
AcDbText
  0
TEXT
  5
5C1
330
1F
100
AcDbEntity
  8
D-5
  6
Continuous
 62
     7
370
     9
100
AcDbText
 10
-730.2254334828185
 20
-255.1445265806638
 30
0.0
 40
22.86
  1
ｔ＝２．０（ＳＥＣＣまたはＳＧＨＣ）
 41
1.157407407407407
  7
ＭＳ ゴシック
100
AcDbText
  0
TEXT
  5
5C2
330
1F
100
AcDbEntity
  8
F-4ﾚｲﾔ
  6
Continuous
 62
     2
370
     9
100
AcDbText
 10
-833.1471549127311
 20
-1371.783728813559
 30
0.0
 40
30.48
  1
ＺＱ－１５　５００×５００×１５　ステンレス製受枠ＲＬ－１５（四方枠）
 41
0.7742857142857141
  7
ＭＳ ゴシック
100
AcDbText
  0
ENDSEC
  0
SECTION
  2
OBJECTS
  0
DICTIONARY
  5
C
330
0
100
AcDbDictionary
281
     1
  3
ACAD_GROUP
350
D
  3
ACAD_LAYOUT
350
1A
  3
ACAD_MLEADERSTYLE
350
5C4
  3
ACAD_MLINESTYLE
350
17
  3
ACAD_PLOTSETTINGS
350
19
  3
ACAD_PLOTSTYLENAME
350
E
  3
ACAD_TABLESTYLE
350
5C3
  3
ACAD_VISUALSTYLE
350
2A
  0
DICTIONARY
  5
D
102
{ACAD_REACTORS
330
C
102
}
330
C
100
AcDbDictionary
281
     1
  0
DICTIONARY
  5
1A
102
{ACAD_REACTORS
330
C
102
}
330
C
100
AcDbDictionary
281
     1
  3
Layout1
350
1E
  3
Layout2
350
26
  3
Model
350
22
  0
DICTIONARY
  5
5C4
102
{ACAD_REACTORS
330
C
102
}
330
C
100
AcDbDictionary
281
     1
  0
DICTIONARY
  5
17
102
{ACAD_REACTORS
330
C
102
}
330
C
100
AcDbDictionary
281
     1
  3
Standard
350
18
  0
DICTIONARY
  5
19
102
{ACAD_REACTORS
330
C
102
}
330
C
100
AcDbDictionary
281
     1
  0
ACDBDICTIONARYWDFLT
  5
E
102
{ACAD_REACTORS
330
C
102
}
330
C
100
AcDbDictionary
281
     1
  3
Normal
350
F
100
AcDbDictionaryWithDefault
340
F
  0
DICTIONARY
  5
5C3
102
{ACAD_REACTORS
330
C
102
}
330
C
100
AcDbDictionary
281
     1
  0
DICTIONARY
  5
2A
102
{ACAD_REACTORS
330
C
102
}
330
C
100
AcDbDictionary
281
     1
  3
2dWireframe
350
2F
  3
3D Hidden
350
31
  3
3dWireframe
350
30
  3
Basic
350
32
  3
Brighten
350
36
  3
ColorChange
350
3A
  3
Conceptual
350
34
  3
Dim
350
35
  3
Facepattern
350
39
  3
Flat
350
2B
  3
FlatWithEdges
350
2C
  3
Gouraud
350
2D
  3
GouraudWithEdges
350
2E
  3
Linepattern
350
38
  3
Realistic
350
33
  3
Thicken
350
37
  0
LAYOUT
  5
1E
102
{ACAD_REACTORS
330
1A
102
}
330
1A
100
AcDbPlotSettings
  1

  2
none_device
  4

  6

 40
0.0
 41
0.0
 42
0.0
 43
0.0
 44
0.0
 45
0.0
 46
0.0
 47
0.0
 48
0.0
 49
0.0
140
0.0
141
0.0
142
1.0
143
1.0
 70
   688
 72
     0
 73
     0
 74
     5
  7

 75
    16
 76
     0
 77
     5
 78
   300
147
1.0
148
0.0
149
0.0
100
AcDbLayout
  1
Layout1
 70
     1
 71
     1
 10
0.0
 20
0.0
 11
420.0
 21
297.0
 12
0.0
 22
0.0
 32
0.0
 14
1.000000000000000E+20
 24
1.000000000000000E+20
 34
1.000000000000000E+20
 15
-1.000000000000000E+20
 25
-1.000000000000000E+20
 35
-1.000000000000000E+20
146
0.0
 13
0.0
 23
0.0
 33
0.0
 16
1.0
 26
0.0
 36
0.0
 17
0.0
 27
1.0
 37
0.0
 76
     0
330
1B
  0
LAYOUT
  5
26
102
{ACAD_REACTORS
330
1A
102
}
330
1A
100
AcDbPlotSettings
  1

  2
none_device
  4

  6

 40
0.0
 41
0.0
 42
0.0
 43
0.0
 44
0.0
 45
0.0
 46
0.0
 47
0.0
 48
0.0
 49
0.0
140
0.0
141
0.0
142
1.0
143
1.0
 70
   688
 72
     0
 73
     0
 74
     5
  7

 75
    16
 76
     0
 77
     5
 78
   300
147
1.0
148
0.0
149
0.0
100
AcDbLayout
  1
Layout2
 70
     1
 71
     2
 10
0.0
 20
0.0
 11
0.0
 21
0.0
 12
0.0
 22
0.0
 32
0.0
 14
0.0
 24
0.0
 34
0.0
 15
0.0
 25
0.0
 35
0.0
146
0.0
 13
0.0
 23
0.0
 33
0.0
 16
1.0
 26
0.0
 36
0.0
 17
0.0
 27
1.0
 37
0.0
 76
     0
330
23
  0
LAYOUT
  5
22
102
{ACAD_REACTORS
330
1A
102
}
330
1A
100
AcDbPlotSettings
  1

  2
none_device
  4

  6

 40
0.0
 41
0.0
 42
0.0
 43
0.0
 44
0.0
 45
0.0
 46
0.0
 47
0.0
 48
0.0
 49
0.0
140
0.0
141
0.0
142
1.0
143
1.0
 70
  1712
 72
     0
 73
     0
 74
     0
  7

 75
     0
 76
     0
 77
     5
 78
   300
147
1.0
148
0.0
149
0.0
100
AcDbLayout
  1
Model
 70
     1
 71
     0
 10
-2100.0
 20
-1485.0
 11
2100.0
 21
1485.0
 12
0.0
 22
0.0
 32
0.0
 14
-2100.0
 24
-1485.0
 34
0.0
 15
2100.0
 25
1485.0
 35
0.0
146
0.0
 13
0.0
 23
0.0
 33
0.0
 16
1.0
 26
0.0
 36
0.0
 17
0.0
 27
1.0
 37
0.0
 76
     0
330
1F
331
29
  0
MLINESTYLE
  5
18
102
{ACAD_REACTORS
330
17
102
}
330
17
100
AcDbMlineStyle
  2
Standard
 70
     0
  3

 62
   256
 51
90.0
 52
90.0
 71
     2
 49
0.5
 62
   256
  6
BYLAYER
 49
-0.5
 62
   256
  6
BYLAYER
  0
ACDBPLACEHOLDER
  5
F
102
{ACAD_REACTORS
330
E
102
}
330
E
  0
VISUALSTYLE
  5
2F
102
{ACAD_REACTORS
330
2A
102
}
330
2A
100
AcDbVisualStyle
  2
2dWireframe
 70
     4
 71
     0
 72
     2
 73
     0
 90
        0
 40
-0.6
 41
-30.0
 62
     5
 63
     7
421
 16777215
 74
     1
 91
        4
 64
     7
 65
   257
 75
     1
175
     1
 42
1.0
 92
        0
 66
   257
 43
1.0
 76
     1
 77
     6
 78
     2
 67
     7
 79
     5
170
     0
171
     0
290
     0
174
     0
 93
        1
 44
0.0
173
     0
291
     0
 45
0.0
1001
ACAD
1000
AcDbSavedByObjectVersion
1070
     0
  0
VISUALSTYLE
  5
31
102
{ACAD_REACTORS
330
2A
102
}
330
2A
100
AcDbVisualStyle
  2
3D Hidden
 70
     6
 71
     1
 72
     2
 73
     2
 90
        0
 40
-0.6
 41
-30.0
 62
     5
 63
     7
421
 16777215
 74
     2
 91
        2
 64
     7
 65
   257
 75
     2
175
     1
 42
40.0
 92
        0
 66
   257
 43
1.0
 76
     1
 77
     6
 78
     2
 67
     7
 79
     3
170
     0
171
     0
290
     0
174
     0
 93
        1
 44
0.0
173
     0
291
     0
 45
0.0
1001
ACAD
1000
AcDbSavedByObjectVersion
1070
     0
  0
VISUALSTYLE
  5
30
102
{ACAD_REACTORS
330
2A
102
}
330
2A
100
AcDbVisualStyle
  2
3dWireframe
 70
     5
 71
     0
 72
     2
 73
     0
 90
        0
 40
-0.6
 41
-30.0
 62
     5
 63
     7
421
 16777215
 74
     1
 91
        4
 64
     7
 65
   257
 75
     1
175
     1
 42
1.0
 92
        0
 66
   257
 43
1.0
 76
     1
 77
     6
 78
     2
 67
     7
 79
     5
170
     0
171
     0
290
     0
174
     0
 93
        1
 44
0.0
173
     0
291
     0
 45
0.0
1001
ACAD
1000
AcDbSavedByObjectVersion
1070
     0
  0
VISUALSTYLE
  5
32
102
{ACAD_REACTORS
330
2A
102
}
330
2A
100
AcDbVisualStyle
  2
Basic
 70
     7
 71
     1
 72
     0
 73
     1
 90
        0
 40
-0.6
 41
-30.0
 62
     5
 63
     7
421
 16777215
 74
     0
 91
        4
 64
     7
 65
   257
 75
     1
175
     1
 42
1.0
 92
        8
 66
     7
 43
1.0
 76
     1
 77
     6
 78
     2
 67
     7
 79
     5
170
     0
171
     0
290
     0
174
     0
 93
        1
 44
0.0
173
     0
291
     1
 45
0.0
1001
ACAD
1000
AcDbSavedByObjectVersion
1070
     0
  0
VISUALSTYLE
  5
36
102
{ACAD_REACTORS
330
2A
102
}
330
2A
100
AcDbVisualStyle
  2
Brighten
 70
    12
 71
     2
 72
     2
 73
     0
 90
        0
 40
-0.6
 41
-30.0
 62
     5
 63
     7
421
 16777215
 74
     1
 91
        4
 64
     7
 65
   257
 75
     1
175
     1
 42
1.0
 92
        8
 66
     7
 43
1.0
 76
     1
 77
     6
 78
     2
 67
     7
 79
     5
170
     0
171
     0
290
     0
174
     0
 93
        1
 44
50.0
173
     0
291
     1
 45
0.0
1001
ACAD
1000
AcDbSavedByObjectVersion
1070
     0
  0
VISUALSTYLE
  5
3A
102
{ACAD_REACTORS
330
2A
102
}
330
2A
100
AcDbVisualStyle
  2
ColorChange
 70
    16
 71
     2
 72
     2
 73
     3
 90
        0
 40
-0.6
 41
-30.0
 62
     5
 63
     8
421
  8421504
 74
     1
 91
        4
 64
     7
 65
   257
 75
     1
175
     1
 42
1.0
 92
        8
 66
     8
424
  8421504
 43
1.0
 76
     1
 77
     6
 78
     2
 67
     7
 79
     5
170
     0
171
     0
290
     0
174
     0
 93
        1
 44
0.0
173
     0
291
     1
 45
0.0
1001
ACAD
1000
AcDbSavedByObjectVersion
1070
     0
  0
VISUALSTYLE
  5
34
102
{ACAD_REACTORS
330
2A
102
}
330
2A
100
AcDbVisualStyle
  2
Conceptual
 70
     9
 71
     3
 72
     2
 73
     0
 90
        0
 40
-0.6
 41
-30.0
 62
     5
 63
     7
421
 16777215
 74
     2
 91
        2
 64
     7
 65
   257
 75
     1
175
     1
 42
40.0
 92
        8
 66
     7
 43
1.0
 76
     1
 77
     6
 78
     2
 67
     7
 79
     3
170
     0
171
     0
290
     0
174
     0
 93
        1
 44
0.0
173
     0
291
     0
 45
0.0
1001
ACAD
1000
AcDbSavedByObjectVersion
1070
     0
  0
VISUALSTYLE
  5
35
102
{ACAD_REACTORS
330
2A
102
}
330
2A
100
AcDbVisualStyle
  2
Dim
 70
    11
 71
     2
 72
     2
 73
     0
 90
        0
 40
-0.6
 41
-30.0
 62
     5
 63
     7
421
 16777215
 74
     1
 91
        4
 64
     7
 65
   257
 75
     1
175
     1
 42
1.0
 92
        8
 66
     7
 43
1.0
 76
     1
 77
     6
 78
     2
 67
     7
 79
     5
170
     0
171
     0
290
     0
174
     0
 93
        1
 44
-50.0
173
     0
291
     1
 45
0.0
1001
ACAD
1000
AcDbSavedByObjectVersion
1070
     0
  0
VISUALSTYLE
  5
39
102
{ACAD_REACTORS
330
2A
102
}
330
2A
100
AcDbVisualStyle
  2
Facepattern
 70
    15
 71
     2
 72
     2
 73
     0
 90
        0
 40
-0.6
 41
-30.0
 62
     5
 63
     7
421
 16777215
 74
     1
 91
        4
 64
     7
 65
   257
 75
     1
175
     1
 42
1.0
 92
        8
 66
     7
 43
1.0
 76
     1
 77
     6
 78
     2
 67
     7
 79
     5
170
     0
171
     0
290
     0
174
     0
 93
        1
 44
0.0
173
     0
291
     1
 45
0.0
1001
ACAD
1000
AcDbSavedByObjectVersion
1070
     0
  0
VISUALSTYLE
  5
2B
102
{ACAD_REACTORS
330
2A
102
}
330
2A
100
AcDbVisualStyle
  2
Flat
 70
     0
 71
     2
 72
     1
 73
     1
 90
        2
 40
-0.6
 41
30.0
 62
     5
 63
     7
421
 16777215
 74
     0
 91
        4
 64
     7
 65
   257
 75
     1
175
     1
 42
1.0
 92
        8
 66
     7
 43
1.0
 76
     1
 77
     6
 78
     2
 67
     7
 79
     5
170
     0
171
     0
290
     0
174
     0
 93
       13
 44
0.0
173
     0
291
     1
 45
0.0
1001
ACAD
1000
AcDbSavedByObjectVersion
1070
     0
  0
VISUALSTYLE
  5
2C
102
{ACAD_REACTORS
330
2A
102
}
330
2A
100
AcDbVisualStyle
  2
FlatWithEdges
 70
     1
 71
     2
 72
     1
 73
     1
 90
        2
 40
-0.6
 41
30.0
 62
     5
 63
     7
421
 16777215
 74
     1
 91
        4
 64
     7
 65
   257
 75
     1
175
     1
 42
1.0
 92
        0
 66
   257
 43
1.0
 76
     1
 77
     6
 78
     2
 67
     7
 79
     5
170
     0
171
     0
290
     0
174
     0
 93
       13
 44
0.0
173
     0
291
     1
 45
0.0
1001
ACAD
1000
AcDbSavedByObjectVersion
1070
     0
  0
VISUALSTYLE
  5
2D
102
{ACAD_REACTORS
330
2A
102
}
330
2A
100
AcDbVisualStyle
  2
Gouraud
 70
     2
 71
     2
 72
     2
 73
     1
 90
        2
 40
-0.6
 41
30.0
 62
     5
 63
     7
421
 16777215
 74
     0
 91
        4
 64
     7
 65
   257
 75
     1
175
     1
 42
1.0
 92
        0
 66
     7
 43
1.0
 76
     1
 77
     6
 78
     2
 67
     7
 79
     5
170
     0
171
     0
290
     0
174
     0
 93
       13
 44
0.0
173
     0
291
     1
 45
0.0
1001
ACAD
1000
AcDbSavedByObjectVersion
1070
     0
  0
VISUALSTYLE
  5
2E
102
{ACAD_REACTORS
330
2A
102
}
330
2A
100
AcDbVisualStyle
  2
GouraudWithEdges
 70
     3
 71
     2
 72
     2
 73
     1
 90
        2
 40
-0.6
 41
30.0
 62
     5
 63
     7
421
 16777215
 74
     1
 91
        4
 64
     7
 65
   257
 75
     1
175
     1
 42
1.0
 92
        0
 66
   257
 43
1.0
 76
     1
 77
     6
 78
     2
 67
     7
 79
     5
170
     0
171
     0
290
     0
174
     0
 93
       13
 44
0.0
173
     0
291
     1
 45
0.0
1001
ACAD
1000
AcDbSavedByObjectVersion
1070
     0
  0
VISUALSTYLE
  5
38
102
{ACAD_REACTORS
330
2A
102
}
330
2A
100
AcDbVisualStyle
  2
Linepattern
 70
    14
 71
     2
 72
     2
 73
     0
 90
        0
 40
-0.6
 41
-30.0
 62
     5
 63
     7
421
 16777215
 74
     1
 91
        4
 64
     7
 65
   257
 75
     7
175
     7
 42
1.0
 92
        8
 66
     7
 43
1.0
 76
     1
 77
     6
 78
     2
 67
     7
 79
     5
170
     0
171
     0
290
     0
174
     0
 93
        1
 44
0.0
173
     0
291
     1
 45
0.0
1001
ACAD
1000
AcDbSavedByObjectVersion
1070
     0
  0
VISUALSTYLE
  5
33
102
{ACAD_REACTORS
330
2A
102
}
330
2A
100
AcDbVisualStyle
  2
Realistic
 70
     8
 71
     2
 72
     2
 73
     0
 90
        0
 40
-0.6
 41
-30.0
 62
     5
 63
     7
421
 16777215
 74
     1
 91
        0
 64
     7
 65
   257
 75
     1
175
     1
 42
1.0
 92
        8
 66
     8
424
  7895160
 43
1.0
 76
     1
 77
     6
 78
     2
 67
     7
 79
     5
170
     0
171
     0
290
     0
174
     0
 93
       13
 44
0.0
173
     0
291
     0
 45
0.0
1001
ACAD
1000
AcDbSavedByObjectVersion
1070
     0
  0
VISUALSTYLE
  5
37
102
{ACAD_REACTORS
330
2A
102
}
330
2A
100
AcDbVisualStyle
  2
Thicken
 70
    13
 71
     2
 72
     2
 73
     0
 90
        0
 40
-0.6
 41
-30.0
 62
     5
 63
     7
421
 16777215
 74
     1
 91
        4
 64
     7
 65
   257
 75
     1
175
     1
 42
1.0
 92
       12
 66
     7
 43
1.0
 76
     1
 77
     6
 78
     2
 67
     7
 79
     5
170
     0
171
     0
290
     0
174
     0
 93
        1
 44
0.0
173
     0
291
     1
 45
0.0
1001
ACAD
1000
AcDbSavedByObjectVersion
1070
     0
  0
ENDSEC
  0
EOF
