  0
SECTION
  2
HEADER
  9
$ACADVER
  1
AC1018
  9
$ACADMAINTVER
 70
     0
  9
$DWGCODEPAGE
  3
ANSI_932
  9
$INSBASE
 10
0.0
 20
0.0
 30
0.0
  9
$EXTMIN
 10
-2100.0
 20
-1485.0
 30
0.0
  9
$EXTMAX
 10
2100.0
 20
1485.0
 30
0.0
  9
$LIMMIN
 10
-2100.0
 20
-1485.0
  9
$LIMMAX
 10
2100.0
 20
1485.0
  9
$ORTHOMODE
 70
     0
  9
$REGENMODE
 70
     1
  9
$FILLMODE
 70
     1
  9
$QTEXTMODE
 70
     0
  9
$MIRRTEXT
 70
     1
  9
$LTSCALE
 40
10.0
  9
$ATTMODE
 70
     1
  9
$TEXTSIZE
 40
2.5
  9
$TRACEWID
 40
1.0
  9
$TEXTSTYLE
  7
Standard
  9
$CLAYER
  8
0
  9
$CELTYPE
  6
ByLayer
  9
$CECOLOR
 62
   256
  9
$CELTSCALE
 40
1.0
  9
$DISPSILH
 70
     0
  9
$DIMSCALE
 40
1.0
  9
$DIMASZ
 40
2.5
  9
$DIMEXO
 40
0.625
  9
$DIMDLI
 40
3.75
  9
$DIMRND
 40
0.0
  9
$DIMDLE
 40
0.0
  9
$DIMEXE
 40
1.25
  9
$DIMTP
 40
0.0
  9
$DIMTM
 40
0.0
  9
$DIMTXT
 40
2.5
  9
$DIMCEN
 40
2.5
  9
$DIMTSZ
 40
0.0
  9
$DIMTOL
 70
     0
  9
$DIMLIM
 70
     0
  9
$DIMTIH
 70
     0
  9
$DIMTOH
 70
     0
  9
$DIMSE1
 70
     0
  9
$DIMSE2
 70
     0
  9
$DIMTAD
 70
     1
  9
$DIMZIN
 70
     8
  9
$DIMBLK
  1

  9
$DIMASO
 70
     1
  9
$DIMSHO
 70
     1
  9
$DIMPOST
  1

  9
$DIMAPOST
  1

  9
$DIMALT
 70
     0
  9
$DIMALTD
 70
     3
  9
$DIMALTF
 40
0.03937007874016
  9
$DIMLFAC
 40
1.0
  9
$DIMTOFL
 70
     1
  9
$DIMTVP
 40
0.0
  9
$DIMTIX
 70
     0
  9
$DIMSOXD
 70
     0
  9
$DIMSAH
 70
     0
  9
$DIMBLK1
  1

  9
$DIMBLK2
  1

  9
$DIMSTYLE
  2
ISO-25
  9
$DIMCLRD
 70
     0
  9
$DIMCLRE
 70
     0
  9
$DIMCLRT
 70
     0
  9
$DIMTFAC
 40
1.0
  9
$DIMGAP
 40
0.625
  9
$DIMJUST
 70
     0
  9
$DIMSD1
 70
     0
  9
$DIMSD2
 70
     0
  9
$DIMTOLJ
 70
     0
  9
$DIMTZIN
 70
     8
  9
$DIMALTZ
 70
     0
  9
$DIMALTTZ
 70
     0
  9
$DIMUPT
 70
     0
  9
$DIMDEC
 70
     2
  9
$DIMTDEC
 70
     2
  9
$DIMALTU
 70
     2
  9
$DIMALTTD
 70
     3
  9
$DIMTXSTY
  7
Standard
  9
$DIMAUNIT
 70
     0
  9
$DIMADEC
 70
     0
  9
$DIMALTRND
 40
0.0
  9
$DIMAZIN
 70
     0
  9
$DIMDSEP
 70
    44
  9
$DIMATFIT
 70
     3
  9
$DIMFRAC
 70
     0
  9
$DIMLDRBLK
  1

  9
$DIMLUNIT
 70
     2
  9
$DIMLWD
 70
    -2
  9
$DIMLWE
 70
    -2
  9
$DIMTMOVE
 70
     0
  9
$LUNITS
 70
     2
  9
$LUPREC
 70
     4
  9
$SKETCHINC
 40
1.0
  9
$FILLETRAD
 40
10.0
  9
$AUNITS
 70
     0
  9
$AUPREC
 70
     0
  9
$MENU
  1
.
  9
$ELEVATION
 40
0.0
  9
$PELEVATION
 40
0.0
  9
$THICKNESS
 40
0.0
  9
$LIMCHECK
 70
     0
  9
$CHAMFERA
 40
10.0
  9
$CHAMFERB
 40
10.0
  9
$CHAMFERC
 40
20.0
  9
$CHAMFERD
 40
0.0
  9
$SKPOLY
 70
     0
  9
$TDCREATE
 40
2458442.445564456
  9
$TDUCREATE
 40
2458442.070564456
  9
$TDUPDATE
 40
2458442.445564467
  9
$TDUUPDATE
 40
2458442.070564467
  9
$TDINDWG
 40
0.0000000116
  9
$TDUSRTIMER
 40
0.0000000116
  9
$USRTIMER
 70
     1
  9
$ANGBASE
 50
0.0
  9
$ANGDIR
 70
     0
  9
$PDMODE
 70
     0
  9
$PDSIZE
 40
0.0
  9
$PLINEWID
 40
0.0
  9
$SPLFRAME
 70
     0
  9
$SPLINETYPE
 70
     6
  9
$SPLINESEGS
 70
     8
  9
$HANDSEED
  5
603
  9
$SURFTAB1
 70
     6
  9
$SURFTAB2
 70
     6
  9
$SURFTYPE
 70
     6
  9
$SURFU
 70
     6
  9
$SURFV
 70
     6
  9
$UCSBASE
  2

  9
$UCSNAME
  2

  9
$UCSORG
 10
0.0
 20
0.0
 30
0.0
  9
$UCSXDIR
 10
1.0
 20
0.0
 30
0.0
  9
$UCSYDIR
 10
0.0
 20
1.0
 30
0.0
  9
$UCSORTHOREF
  2

  9
$UCSORTHOVIEW
 70
     0
  9
$UCSORGTOP
 10
0.0
 20
0.0
 30
0.0
  9
$UCSORGBOTTOM
 10
0.0
 20
0.0
 30
0.0
  9
$UCSORGLEFT
 10
0.0
 20
0.0
 30
0.0
  9
$UCSORGRIGHT
 10
0.0
 20
0.0
 30
0.0
  9
$UCSORGFRONT
 10
0.0
 20
0.0
 30
0.0
  9
$UCSORGBACK
 10
0.0
 20
0.0
 30
0.0
  9
$PUCSBASE
  2

  9
$PUCSNAME
  2

  9
$PUCSORG
 10
0.0
 20
0.0
 30
0.0
  9
$PUCSXDIR
 10
1.0
 20
0.0
 30
0.0
  9
$PUCSYDIR
 10
0.0
 20
1.0
 30
0.0
  9
$PUCSORTHOREF
  2

  9
$PUCSORTHOVIEW
 70
     0
  9
$PUCSORGTOP
 10
0.0
 20
0.0
 30
0.0
  9
$PUCSORGBOTTOM
 10
0.0
 20
0.0
 30
0.0
  9
$PUCSORGLEFT
 10
0.0
 20
0.0
 30
0.0
  9
$PUCSORGRIGHT
 10
0.0
 20
0.0
 30
0.0
  9
$PUCSORGFRONT
 10
0.0
 20
0.0
 30
0.0
  9
$PUCSORGBACK
 10
0.0
 20
0.0
 30
0.0
  9
$USERI1
 70
     0
  9
$USERI2
 70
     0
  9
$USERI3
 70
     0
  9
$USERI4
 70
     0
  9
$USERI5
 70
     0
  9
$USERR1
 40
0.0
  9
$USERR2
 40
0.0
  9
$USERR3
 40
0.0
  9
$USERR4
 40
0.0
  9
$USERR5
 40
0.0
  9
$WORLDVIEW
 70
     1
  9
$SHADEDGE
 70
     3
  9
$SHADEDIF
 70
    70
  9
$TILEMODE
 70
     1
  9
$MAXACTVP
 70
    64
  9
$PINSBASE
 10
0.0
 20
0.0
 30
0.0
  9
$PLIMCHECK
 70
     0
  9
$PEXTMIN
 10
1.000000000000000E+20
 20
1.000000000000000E+20
 30
1.000000000000000E+20
  9
$PEXTMAX
 10
-1.000000000000000E+20
 20
-1.000000000000000E+20
 30
-1.000000000000000E+20
  9
$PLIMMIN
 10
0.0
 20
0.0
  9
$PLIMMAX
 10
420.0
 20
297.0
  9
$UNITMODE
 70
     0
  9
$VISRETAIN
 70
     1
  9
$PLINEGEN
 70
     0
  9
$PSLTSCALE
 70
     1
  9
$TREEDEPTH
 70
  3020
  9
$CMLSTYLE
  2
Standard
  9
$CMLJUST
 70
     0
  9
$CMLSCALE
 40
20.0
  9
$PROXYGRAPHICS
 70
     1
  9
$MEASUREMENT
 70
     1
  9
$CELWEIGHT
370
    -1
  9
$ENDCAPS
280
     0
  9
$JOINSTYLE
280
     0
  9
$LWDISPLAY
290
     0
  9
$INSUNITS
 70
     4
  9
$HYPERLINKBASE
  1

  9
$STYLESHEET
  1

  9
$XEDIT
290
     1
  9
$CEPSNTYPE
380
     0
  9
$PSTYLEMODE
290
     1
  9
$FINGERPRINTGUID
  2
{D56DD070-9297-4176-B390-8411ACFE92B3}
  9
$VERSIONGUID
  2
{FAEB1C32-E019-11D5-929B-00C0DF256EC4}
  9
$EXTNAMES
290
     1
  9
$PSVPSCALE
 40
0.0
  9
$OLESTARTUP
290
     0
  9
$SORTENTS
280
   127
  9
$INDEXCTL
280
     0
  9
$HIDETEXT
280
     1
  9
$XCLIPFRAME
290
     0
  9
$HALOGAP
280
     0
  9
$OBSCOLOR
 70
   257
  9
$OBSLTYPE
280
     0
  9
$INTERSECTIONDISPLAY
280
     0
  9
$INTERSECTIONCOLOR
 70
   257
  9
$DIMASSOC
280
     2
  9
$PROJECTNAME
  1

  0
ENDSEC
  0
SECTION
  2
CLASSES
  0
CLASS
  1
ACDBDICTIONARYWDFLT
  2
AcDbDictionaryWithDefault
  3
ObjectDBX Classes
 90
        0
 91
        4
280
     0
281
     0
  0
CLASS
  1
VISUALSTYLE
  2
AcDbVisualStyle
  3
ObjectDBX Classes
 90
     4095
 91
        4
280
     0
281
     0
  0
ENDSEC
  0
SECTION
  2
TABLES
  0
TABLE
  2
VPORT
  5
8
330
0
100
AcDbSymbolTable
 70
     1
  0
VPORT
  5
29
330
8
100
AcDbSymbolTableRecord
100
AcDbViewportTableRecord
  2
*Active
 70
     0
 10
0.0
 20
0.0
 11
1.0
 21
1.0
 12
0.0
 22
0.0
 13
0.0
 23
0.0
 14
10.0
 24
10.0
 15
10.0
 25
10.0
 16
0.0
 26
0.0
 36
1.0
 17
0.0
 27
0.0
 37
0.0
 40
3267.0
 41
1.414141414141414
 42
50.0
 43
0.0
 44
0.0
 50
0.0
 51
0.0
 71
     0
 72
 10000
 73
     1
 74
     3
 75
     0
 76
     0
 77
     0
 78
     0
281
     0
 65
     1
110
0.0
120
0.0
130
0.0
111
1.0
121
0.0
131
0.0
112
0.0
122
1.0
132
0.0
 79
     0
146
0.0
  0
ENDTAB
  0
TABLE
  2
LTYPE
  5
5
330
0
100
AcDbSymbolTable
 70
     5
  0
LTYPE
  5
14
330
5
100
AcDbSymbolTableRecord
100
AcDbLinetypeTableRecord
  2
ByBlock
 70
     0
  3

 72
    65
 73
     0
 40
0.0
  0
LTYPE
  5
15
330
5
100
AcDbSymbolTableRecord
100
AcDbLinetypeTableRecord
  2
ByLayer
 70
     0
  3

 72
    65
 73
     0
 40
0.0
  0
LTYPE
  5
16
330
5
100
AcDbSymbolTableRecord
100
AcDbLinetypeTableRecord
  2
Continuous
 70
     0
  3
Solid line
 72
    65
 73
     0
 40
0.0
  0
LTYPE
  5
3C
330
5
100
AcDbSymbolTableRecord
100
AcDbLinetypeTableRecord
  2
JWW_CENTER1
 70
     0
  3
-----  --  ----------  --  -----
 72
    65
 73
     4
 40
6.773333333333333
 49
4.233333333333333
 74
     0
 49
-0.8466666666666667
 74
     0
 49
0.8466666666666667
 74
     0
 49
-0.8466666666666667
 74
     0
  0
LTYPE
  5
3D
330
5
100
AcDbSymbolTableRecord
100
AcDbLinetypeTableRecord
  2
JWW_DASHED2
 70
     0
  3
--    ----    ----    ----    --
 72
    65
 73
     2
 40
3.386666666666667
 49
1.693333333333333
 74
     0
 49
-1.693333333333333
 74
     0
  0
LTYPE
  5
3E
330
5
100
AcDbSymbolTableRecord
100
AcDbLinetypeTableRecord
  2
JWW_CENTER2
 70
     0
  3
-------------  --  -------------
 72
    65
 73
     4
 40
13.54666666666667
 49
11.00666666666667
 74
     0
 49
-0.8466666666666667
 74
     0
 49
0.8466666666666667
 74
     0
 49
-0.8466666666666667
 74
     0
  0
LTYPE
  5
3F
330
5
100
AcDbSymbolTableRecord
100
AcDbLinetypeTableRecord
  2
JWW_DASHED3
 70
     0
  3
---  ------  ------  ------  ---
 72
    65
 73
     2
 40
3.386666666666667
 49
2.54
 74
     0
 49
-0.8466666666666667
 74
     0
  0
ENDTAB
  0
TABLE
  2
LAYER
  5
2
330
0
100
AcDbSymbolTable
 70
    16
  0
LAYER
  5
10
330
2
100
AcDbSymbolTableRecord
100
AcDbLayerTableRecord
  2
0
 70
     0
 62
     7
  6
Continuous
370
    -3
390
F
  0
LAYER
  5
40
330
2
100
AcDbSymbolTableRecord
100
AcDbLayerTableRecord
  2
0218_
 70
     0
 62
     7
  6
Continuous
370
    -1
390
F
  0
LAYER
  5
41
330
2
100
AcDbSymbolTableRecord
100
AcDbLayerTableRecord
  2
0243_
 70
     0
 62
     7
  6
Continuous
370
    -1
390
F
  0
LAYER
  5
42
330
2
100
AcDbSymbolTableRecord
100
AcDbLayerTableRecord
  2
0242_
 70
     0
 62
     7
  6
Continuous
370
    -1
390
F
  0
LAYER
  5
43
330
2
100
AcDbSymbolTableRecord
100
AcDbLayerTableRecord
  2
0216_
 70
     0
 62
     7
  6
Continuous
370
    -1
390
F
  0
LAYER
  5
44
330
2
100
AcDbSymbolTableRecord
100
AcDbLayerTableRecord
  2
0226_下
 70
     0
 62
     7
  6
Continuous
370
    -1
390
F
  0
LAYER
  5
45
330
2
100
AcDbSymbolTableRecord
100
AcDbLayerTableRecord
  2
0227_下
 70
     0
 62
     7
  6
Continuous
370
    -1
390
F
  0
LAYER
  5
46
330
2
100
AcDbSymbolTableRecord
100
AcDbLayerTableRecord
  2
0220_
 70
     0
 62
     7
  6
Continuous
370
    -1
390
F
  0
LAYER
  5
47
330
2
100
AcDbSymbolTableRecord
100
AcDbLayerTableRecord
  2
0234_
 70
     0
 62
     7
  6
Continuous
370
    -1
390
F
  0
LAYER
  5
48
330
2
100
AcDbSymbolTableRecord
100
AcDbLayerTableRecord
  2
0192_区
 70
     0
 62
     7
  6
Continuous
370
    -1
390
F
  0
LAYER
  5
49
330
2
100
AcDbSymbolTableRecord
100
AcDbLayerTableRecord
  2
0239_詳
 70
     0
 62
     7
  6
Continuous
370
    -1
390
F
  0
LAYER
  5
4A
330
2
100
AcDbSymbolTableRecord
100
AcDbLayerTableRecord
  2
0193_区
 70
     0
 62
     7
  6
Continuous
370
    -1
390
F
  0
LAYER
  5
4B
330
2
100
AcDbSymbolTableRecord
100
AcDbLayerTableRecord
  2
0191_区
 70
     0
 62
     7
  6
Continuous
370
    -1
390
F
  0
LAYER
  5
4C
330
2
100
AcDbSymbolTableRecord
100
AcDbLayerTableRecord
  2
0255_
 70
     0
 62
     7
  6
Continuous
370
    -1
390
F
  0
LAYER
  5
4D
330
2
100
AcDbSymbolTableRecord
100
AcDbLayerTableRecord
  2
0235_床
 70
     0
 62
     7
  6
Continuous
370
    -1
390
F
  0
LAYER
  5
4E
330
2
100
AcDbSymbolTableRecord
100
AcDbLayerTableRecord
  2
F-5ﾚｲﾔ
 70
     0
 62
     7
  6
Continuous
370
    -1
390
F
  0
ENDTAB
  0
TABLE
  2
STYLE
  5
3
330
0
100
AcDbSymbolTable
 70
     2
  0
STYLE
  5
11
330
3
100
AcDbSymbolTableRecord
100
AcDbTextStyleTableRecord
  2
Standard
 70
     0
 40
0.0
 41
1.0
 50
0.0
 71
     0
 42
2.5
  3
txt
  4

1001
ACAD
1000

1071
        0
  0
STYLE
  5
3B
330
3
100
AcDbSymbolTableRecord
100
AcDbTextStyleTableRecord
  2
ＭＳ ゴシック
 70
     0
 40
1.0
 41
1.0
 50
0.0
 71
     0
 42
10.0
  3

  4

1001
ACAD
1000
MS Gothic
1071
    32817
  0
ENDTAB
  0
TABLE
  2
VIEW
  5
6
330
0
100
AcDbSymbolTable
 70
     0
  0
ENDTAB
  0
TABLE
  2
UCS
  5
7
330
0
100
AcDbSymbolTable
 70
     0
  0
ENDTAB
  0
TABLE
  2
APPID
  5
9
330
0
100
AcDbSymbolTable
 70
     1
  0
APPID
  5
12
330
9
100
AcDbSymbolTableRecord
100
AcDbRegAppTableRecord
  2
ACAD
 70
     0
  0
ENDTAB
  0
TABLE
  2
DIMSTYLE
  5
A
330
0
100
AcDbSymbolTable
 70
     1
100
AcDbDimStyleTable
  0
DIMSTYLE
105
27
330
A
100
AcDbSymbolTableRecord
100
AcDbDimStyleTableRecord
  2
ISO-25
 70
     0
 41
2.5
 42
0.625
 43
3.75
 44
1.25
 73
     0
 74
     0
 77
     1
 78
     8
140
2.5
141
2.5
143
0.03937007874016
147
0.625
171
     3
172
     1
271
     2
272
     2
274
     3
278
    44
283
     0
284
     8
340
11
  0
ENDTAB
  0
TABLE
  2
BLOCK_RECORD
  5
1
330
0
100
AcDbSymbolTable
 70
     1
  0
BLOCK_RECORD
  5
1F
330
1
100
AcDbSymbolTableRecord
100
AcDbBlockTableRecord
  2
*Model_Space
340
22
  0
BLOCK_RECORD
  5
1B
330
1
100
AcDbSymbolTableRecord
100
AcDbBlockTableRecord
  2
*Paper_Space
340
1E
  0
BLOCK_RECORD
  5
23
330
1
100
AcDbSymbolTableRecord
100
AcDbBlockTableRecord
  2
*Paper_Space0
340
26
  0
ENDTAB
  0
ENDSEC
  0
SECTION
  2
BLOCKS
  0
BLOCK
  5
20
330
1F
100
AcDbEntity
  8
0
100
AcDbBlockBegin
  2
*Model_Space
 70
     0
 10
0.0
 20
0.0
 30
0.0
  3
*Model_Space
  1

  0
ENDBLK
  5
21
330
1F
100
AcDbEntity
  8
0
100
AcDbBlockEnd
  0
BLOCK
  5
1C
330
1B
100
AcDbEntity
 67
     1
  8
0
100
AcDbBlockBegin
  2
*Paper_Space
 70
     0
 10
0.0
 20
0.0
 30
0.0
  3
*Paper_Space
  1

  0
ENDBLK
  5
1D
330
1B
100
AcDbEntity
 67
     1
  8
0
100
AcDbBlockEnd
  0
BLOCK
  5
24
330
23
100
AcDbEntity
  8
0
100
AcDbBlockBegin
  2
*Paper_Space0
 70
     0
 10
0.0
 20
0.0
 30
0.0
  3
*Paper_Space0
  1

  0
ENDBLK
  5
25
330
23
100
AcDbEntity
  8
0
100
AcDbBlockEnd
  0
ENDSEC
  0
SECTION
  2
ENTITIES
  0
LINE
  5
4F
330
1F
100
AcDbEntity
  8
0218_
  6
Continuous
 62
     3
370
     9
100
AcDbLine
 10
519.8619120829818
 20
1048.908246014569
 30
0.0
 11
532.6404468433276
 21
1059.630555848818
 31
0.0
  0
LINE
  5
50
330
1F
100
AcDbEntity
  8
0243_
  6
Continuous
 62
     3
370
     9
100
AcDbLine
 10
604.867883630701
 20
599.6302754170188
 30
0.0
 11
604.867883630701
 21
1059.630555848818
 31
0.0
  0
LINE
  5
51
330
1F
100
AcDbEntity
  8
0243_
  6
Continuous
 62
     3
370
     9
100
AcDbLine
 10
644.8647988809125
 20
599.6302754170188
 30
0.0
 11
644.8647988809125
 21
1059.630555848818
 31
0.0
  0
LINE
  5
52
330
1F
100
AcDbEntity
  8
0218_
  6
Continuous
 62
     3
370
     9
100
AcDbLine
 10
604.867883630701
 20
959.0420614706505
 30
0.0
 11
644.8647988809125
 21
925.4790764885981
 31
0.0
  0
LINE
  5
53
330
1F
100
AcDbEntity
  8
0218_
  6
Continuous
 62
     3
370
     9
100
AcDbLine
 10
604.852294921875
 20
628.9496674408783
 30
0.0
 11
639.7920350770693
 21
599.6302754170188
 31
0.0
  0
LINE
  5
54
330
1F
100
AcDbEntity
  8
0218_
  6
Continuous
 62
     3
370
     9
100
AcDbLine
 10
604.8518000422297
 20
618.6955137510557
 30
0.0
 11
627.5719719964104
 21
599.6302754170188
 31
0.0
  0
LINE
  5
55
330
1F
100
AcDbEntity
  8
0218_
  6
Continuous
 62
     3
370
     9
100
AcDbLine
 10
604.8515526024073
 20
608.4413600612334
 30
0.0
 11
615.3516614759292
 21
599.6302754170188
 31
0.0
  0
LINE
  5
56
330
1F
100
AcDbEntity
  8
0218_
  6
Continuous
 62
     3
370
     9
100
AcDbLine
 10
637.1305723448057
 20
599.6302754170188
 30
0.0
 11
644.8647988809125
 21
606.1198796452703
 31
0.0
  0
LINE
  5
57
330
1F
100
AcDbEntity
  8
0218_
  6
Continuous
 62
     3
370
     9
100
AcDbLine
 10
604.8629348342484
 20
808.3917896167654
 30
0.0
 11
644.8647988809125
 21
841.957248997044
 31
0.0
  0
LINE
  5
58
330
1F
100
AcDbEntity
  8
0218_
  6
Continuous
 62
     3
370
     9
100
AcDbLine
 10
604.8594706767318
 20
834.0315040382179
 30
0.0
 11
644.8647988809125
 21
800.4615907411318
 31
0.0
  0
LINE
  5
59
330
1F
100
AcDbEntity
  8
0218_
  6
Continuous
 62
     3
370
     9
100
AcDbLine
 10
604.8626873944261
 20
798.1378833667654
 30
0.0
 11
644.8647988809125
 21
831.7035901868667
 31
0.0
  0
LINE
  5
5A
330
1F
100
AcDbEntity
  8
0218_
  6
Continuous
 62
     3
370
     9
100
AcDbLine
 10
604.8589757970865
 20
823.7773503483953
 30
0.0
 11
644.8647988809125
 21
790.2071896114867
 31
0.0
  0
LINE
  5
5B
330
1F
100
AcDbEntity
  8
0218_
  6
Continuous
 62
     3
370
     9
100
AcDbLine
 10
604.8621925147808
 20
787.8837296769427
 30
0.0
 11
644.8647988809125
 21
821.4496839368667
 31
0.0
  0
LINE
  5
5C
330
1F
100
AcDbEntity
  8
0218_
  6
Continuous
 62
     3
370
     9
100
AcDbLine
 10
604.8587283572635
 20
813.5231966585727
 30
0.0
 11
644.8647988809125
 21
779.9527884818415
 31
0.0
  0
LINE
  5
5D
330
1F
100
AcDbEntity
  8
0218_
  6
Continuous
 62
     3
370
     9
100
AcDbLine
 10
604.8619450749578
 20
777.62957598712
 30
0.0
 11
644.8647988809125
 21
811.1960251266894
 31
0.0
  0
LINE
  5
5E
330
1F
100
AcDbEntity
  8
0218_
  6
Continuous
 62
     3
370
     9
100
AcDbLine
 10
604.8582334776182
 20
803.2692904085727
 30
0.0
 11
644.8647988809125
 21
769.698387352196
 31
0.0
  0
LINE
  5
5F
330
1F
100
AcDbEntity
  8
0218_
  6
Continuous
 62
     3
370
     9
100
AcDbLine
 10
604.8614501953125
 20
767.3754222972974
 30
0.0
 11
644.8647988809125
 21
800.9421188766894
 31
0.0
  0
LINE
  5
60
330
1F
100
AcDbEntity
  8
0218_
  6
Continuous
 62
     3
370
     9
100
AcDbLine
 10
604.8579860377959
 20
793.01513671875
 30
0.0
 11
644.8647988809125
 21
759.4439862225508
 31
0.0
  0
LINE
  5
61
330
1F
100
AcDbEntity
  8
0218_
  6
Continuous
 62
     3
370
     9
100
AcDbLine
 10
604.8612027554901
 20
757.1212686074748
 30
0.0
 11
644.8647988809125
 21
790.688460066512
 31
0.0
  0
LINE
  5
62
330
1F
100
AcDbEntity
  8
0218_
  6
Continuous
 62
     3
370
     9
100
AcDbLine
 10
604.8577385979729
 20
782.7609830289276
 30
0.0
 11
644.8647988809125
 21
749.1895850929054
 31
0.0
  0
LINE
  5
63
330
1F
100
AcDbEntity
  8
0218_
  6
Continuous
 62
     3
370
     9
100
AcDbLine
 10
604.8607078758448
 20
746.8673623574748
 30
0.0
 11
644.8647988809125
 21
780.434553816512
 31
0.0
  0
LINE
  5
64
330
1F
100
AcDbEntity
  8
0218_
  6
Continuous
 62
     3
370
     9
100
AcDbLine
 10
604.8572437183276
 20
772.506829339105
 30
0.0
 11
644.8647988809125
 21
738.9351839632602
 31
0.0
  0
LINE
  5
65
330
1F
100
AcDbEntity
  8
0218_
  6
Continuous
 62
     3
370
     9
100
AcDbLine
 10
604.8604604360219
 20
736.6132086676521
 30
0.0
 11
644.8647988809125
 21
770.180647566512
 31
0.0
  0
LINE
  5
66
330
1F
100
AcDbEntity
  8
0218_
  6
Continuous
 62
     3
370
     9
100
AcDbLine
 10
604.8569962785052
 20
762.252923089105
 30
0.0
 11
644.8647988809125
 21
728.6807828336151
 31
0.0
  0
LINE
  5
67
330
1F
100
AcDbEntity
  8
0218_
  6
Continuous
 62
     3
370
     9
100
AcDbLine
 10
604.8599655563771
 20
726.3590549778294
 30
0.0
 11
644.8647988809125
 21
759.9269887563346
 31
0.0
  0
LINE
  5
68
330
1F
100
AcDbEntity
  8
0218_
  6
Continuous
 62
     3
370
     9
100
AcDbLine
 10
604.8565013988599
 20
751.9987693992823
 30
0.0
 11
644.8647988809125
 21
718.4263817039698
 31
0.0
  0
LINE
  5
69
330
1F
100
AcDbEntity
  8
0218_
  6
Continuous
 62
     3
370
     9
100
AcDbLine
 10
604.8597181165542
 20
716.1049012880068
 30
0.0
 11
644.8647988809125
 21
749.6730825063346
 31
0.0
  0
LINE
  5
6A
330
1F
100
AcDbEntity
  8
0218_
  6
Continuous
 62
     3
370
     9
100
AcDbLine
 10
604.8562539590375
 20
741.7446157094596
 30
0.0
 11
644.8647988809125
 21
708.1719805743245
 31
0.0
  0
LINE
  5
6B
330
1F
100
AcDbEntity
  8
0218_
  6
Continuous
 62
     3
370
     9
100
AcDbLine
 10
604.8594706767318
 20
705.8509950380068
 30
0.0
 11
644.8647988809125
 21
739.4194236961573
 31
0.0
  0
LINE
  5
6C
330
1F
100
AcDbEntity
  8
0218_
  6
Continuous
 62
     3
370
     9
100
AcDbLine
 10
604.8557590793922
 20
731.490462019637
 30
0.0
 11
644.8647988809125
 21
697.9175794446792
 31
0.0
  0
LINE
  5
6D
330
1F
100
AcDbEntity
  8
0218_
  6
Continuous
 62
     3
370
     9
100
AcDbLine
 10
604.8589757970865
 20
695.5968413481842
 30
0.0
 11
644.8647988809125
 21
729.1655174461573
 31
0.0
  0
LINE
  5
6E
330
1F
100
AcDbEntity
  8
0218_
  6
Continuous
 62
     3
370
     9
100
AcDbLine
 10
604.8555116395693
 20
721.236555769637
 30
0.0
 11
644.8647988809125
 21
687.6631783150339
 31
0.0
  0
LINE
  5
6F
330
1F
100
AcDbEntity
  8
0218_
  6
Continuous
 62
     3
370
     9
100
AcDbLine
 10
604.8587283572635
 20
685.3426876583617
 30
0.0
 11
644.8647988809125
 21
718.91185863598
 31
0.0
  0
LINE
  5
70
330
1F
100
AcDbEntity
  8
0218_
  6
Continuous
 62
     3
370
     9
100
AcDbLine
 10
604.855016759924
 20
710.9824020798144
 30
0.0
 11
644.8647988809125
 21
677.4087771853885
 31
0.0
  0
LINE
  5
71
330
1F
100
AcDbEntity
  8
0218_
  6
Continuous
 62
     3
370
     9
100
AcDbLine
 10
604.8582334776182
 20
675.0885339685391
 30
0.0
 11
644.8647988809125
 21
708.65795238598
 31
0.0
  0
LINE
  5
72
330
1F
100
AcDbEntity
  8
0218_
  6
Continuous
 62
     3
370
     9
100
AcDbLine
 10
604.8547693201016
 20
700.7282483899917
 30
0.0
 11
644.8647988809125
 21
667.1543760557432
 31
0.0
  0
LINE
  5
73
330
1F
100
AcDbEntity
  8
0218_
  6
Continuous
 62
     3
370
     9
100
AcDbLine
 10
604.8579860377959
 20
664.8343802787165
 30
0.0
 11
644.8647988809125
 21
698.40404613598
 31
0.0
  0
LINE
  5
74
330
1F
100
AcDbEntity
  8
0218_
  6
Continuous
 62
     3
370
     9
100
AcDbLine
 10
604.8545218802786
 20
690.474094700169
 30
0.0
 11
644.8647988809125
 21
656.8999749260981
 31
0.0
  0
LINE
  5
75
330
1F
100
AcDbEntity
  8
0218_
  6
Continuous
 62
     3
370
     9
100
AcDbLine
 10
604.8574911581505
 20
654.5804740287165
 30
0.0
 11
644.8647988809125
 21
688.1503873258026
 31
0.0
  0
LINE
  5
76
330
1F
100
AcDbEntity
  8
0218_
  6
Continuous
 62
     3
370
     9
100
AcDbLine
 10
604.8540270006333
 20
680.2199410103464
 30
0.0
 11
644.8647988809125
 21
646.6455737964529
 31
0.0
  0
LINE
  5
77
330
1F
100
AcDbEntity
  8
0218_
  6
Continuous
 62
     3
370
     9
100
AcDbLine
 10
604.8572437183276
 20
644.3263203388938
 30
0.0
 11
644.8647988809125
 21
677.8964810758026
 31
0.0
  0
LINE
  5
78
330
1F
100
AcDbEntity
  8
0218_
  6
Continuous
 62
     3
370
     9
100
AcDbLine
 10
604.8567488386828
 20
634.072166649071
 30
0.0
 11
644.8647988809125
 21
667.642822265625
 31
0.0
  0
LINE
  5
79
330
1F
100
AcDbEntity
  8
0218_
  6
Continuous
 62
     3
370
     9
100
AcDbLine
 10
604.8565013988599
 20
623.8180129592484
 30
0.0
 11
644.8647988809125
 21
657.388916015625
 31
0.0
  0
LINE
  5
7A
330
1F
100
AcDbEntity
  8
0218_
  6
Continuous
 62
     3
370
     9
100
AcDbLine
 10
604.8562539590375
 20
613.5641067092484
 30
0.0
 11
644.8647988809125
 21
647.1352572054477
 31
0.0
  0
LINE
  5
7B
330
1F
100
AcDbEntity
  8
0218_
  6
Continuous
 62
     3
370
     9
100
AcDbLine
 10
604.8557590793922
 20
603.3099530194258
 30
0.0
 11
644.8647988809125
 21
636.8813509554477
 31
0.0
  0
LINE
  5
7C
330
1F
100
AcDbEntity
  8
0218_
  6
Continuous
 62
     3
370
     9
100
AcDbLine
 10
624.9105092641469
 20
599.6302754170188
 30
0.0
 11
644.8647988809125
 21
616.3737858952703
 31
0.0
  0
LINE
  5
7D
330
1F
100
AcDbEntity
  8
0218_
  6
Continuous
 62
     3
370
     9
100
AcDbLine
 10
612.6904461834886
 20
599.6302754170188
 30
0.0
 11
644.8647988809125
 21
626.6276921452703
 31
0.0
  0
LINE
  5
7E
330
1F
100
AcDbEntity
  8
0218_
  6
Continuous
 62
     3
370
     9
100
AcDbLine
 10
604.8525423616979
 20
639.2035736908783
 30
0.0
 11
644.8647988809125
 21
605.6279692778717
 31
0.0
  0
LINE
  5
7F
330
1F
100
AcDbEntity
  8
0218_
  6
Continuous
 62
     3
370
     9
100
AcDbLine
 10
604.8530372413433
 20
649.457727380701
 30
0.0
 11
644.8647988809125
 21
615.8823704075169
 31
0.0
  0
LINE
  5
80
330
1F
100
AcDbEntity
  8
0218_
  6
Continuous
 62
     3
370
     9
100
AcDbLine
 10
604.8532846811656
 20
659.7118810705238
 30
0.0
 11
644.8647988809125
 21
626.1367715371623
 31
0.0
  0
LINE
  5
81
330
1F
100
AcDbEntity
  8
0218_
  6
Continuous
 62
     3
370
     9
100
AcDbLine
 10
604.853779560811
 20
669.9660347603464
 30
0.0
 11
644.8647988809125
 21
636.3911726668075
 31
0.0
  0
LINE
  5
82
330
1F
100
AcDbEntity
  8
0218_
  6
Continuous
 62
     3
370
     9
100
AcDbLine
 10
604.867883630701
 20
844.2787294130068
 30
0.0
 11
644.8647988809125
 21
810.7159918707771
 31
0.0
  0
LINE
  5
83
330
1F
100
AcDbEntity
  8
0242_
  6
JWW_CENTER1
 62
     4
370
     9
100
AcDbLine
 10
732.002217060811
 20
659.7559253589529
 30
0.0
 11
694.8855013460729
 21
659.7559253589529
 31
0.0
  0
LINE
  5
84
330
1F
100
AcDbEntity
  8
0242_
  6
Continuous
 62
     4
370
     9
100
AcDbLine
 10
732.002217060811
 20
661.7559814453125
 30
0.0
 11
732.002217060811
 21
657.7558692725929
 31
0.0
  0
LINE
  5
85
330
1F
100
AcDbEntity
  8
0242_
  6
Continuous
 62
     4
370
     9
100
AcDbLine
 10
732.002217060811
 20
657.7558692725929
 30
0.0
 11
772.0021015888938
 21
657.7558692725929
 31
0.0
  0
LINE
  5
86
330
1F
100
AcDbEntity
  8
0242_
  6
Continuous
 62
     4
370
     9
100
AcDbLine
 10
772.0021015888938
 20
657.7558692725929
 30
0.0
 11
772.0021015888938
 21
661.7559814453125
 31
0.0
  0
LINE
  5
87
330
1F
100
AcDbEntity
  8
0242_
  6
Continuous
 62
     4
370
     9
100
AcDbLine
 10
772.0021015888938
 20
661.7559814453125
 30
0.0
 11
732.002217060811
 21
661.7559814453125
 31
0.0
  0
LINE
  5
88
330
1F
100
AcDbEntity
  8
0242_
  6
Continuous
 62
     4
370
     9
100
AcDbLine
 10
750.0462712468328
 20
653.0985569309544
 30
0.0
 11
750.0462712468328
 21
603.8491243929477
 31
0.0
  0
LINE
  5
89
330
1F
100
AcDbEntity
  8
0242_
  6
Continuous
 62
     4
370
     9
100
AcDbLine
 10
750.0462712468328
 20
653.0985569309544
 30
0.0
 11
753.3095076277453
 21
628.3125098975929
 31
0.0
  0
LINE
  5
8A
330
1F
100
AcDbEntity
  8
0242_
  6
Continuous
 62
     4
370
     9
100
AcDbLine
 10
750.0462712468328
 20
653.0985569309544
 30
0.0
 11
746.7832823057432
 21
628.3125098975929
 31
0.0
  0
LINE
  5
8B
330
1F
100
AcDbEntity
  8
0218_
  6
Continuous
 62
     3
370
     9
100
AcDbLine
 10
519.8497875316724
 20
628.9496674408783
 30
0.0
 11
554.7897751266896
 21
599.6302754170188
 31
0.0
  0
LINE
  5
8C
330
1F
100
AcDbEntity
  8
0218_
  6
Continuous
 62
     3
370
     9
100
AcDbLine
 10
519.84954009185
 20
618.6955137510557
 30
0.0
 11
542.5694646062078
 21
599.6302754170188
 31
0.0
  0
LINE
  5
8D
330
1F
100
AcDbEntity
  8
0218_
  6
Continuous
 62
     3
370
     9
100
AcDbLine
 10
519.8490452122047
 20
608.4413600612334
 30
0.0
 11
530.349401525549
 21
599.6302754170188
 31
0.0
  0
LINE
  5
8E
330
1F
100
AcDbEntity
  8
0218_
  6
Continuous
 62
     3
370
     9
100
AcDbLine
 10
552.1280649546031
 20
599.6302754170188
 30
0.0
 11
559.8622914907094
 21
606.1198796452703
 31
0.0
  0
LINE
  5
8F
330
1F
100
AcDbEntity
  8
0218_
  6
Continuous
 62
     3
370
     9
100
AcDbLine
 10
519.8604274440459
 20
808.3917896167654
 30
0.0
 11
559.8622914907094
 21
841.957248997044
 31
0.0
  0
LINE
  5
90
330
1F
100
AcDbEntity
  8
0218_
  6
Continuous
 62
     3
370
     9
100
AcDbLine
 10
519.8569632865286
 20
834.0315040382179
 30
0.0
 11
559.8622914907094
 21
800.4615907411318
 31
0.0
  0
LINE
  5
91
330
1F
100
AcDbEntity
  8
0218_
  6
Continuous
 62
     3
370
     9
100
AcDbLine
 10
519.8601800042229
 20
798.1378833667654
 30
0.0
 11
559.8622914907094
 21
831.7035901868667
 31
0.0
  0
LINE
  5
92
330
1F
100
AcDbEntity
  8
0218_
  6
Continuous
 62
     3
370
     9
100
AcDbLine
 10
519.8567158467063
 20
823.7773503483953
 30
0.0
 11
559.8622914907094
 21
790.2071896114867
 31
0.0
  0
LINE
  5
93
330
1F
100
AcDbEntity
  8
0218_
  6
Continuous
 62
     3
370
     9
100
AcDbLine
 10
519.8596851245776
 20
787.8837296769427
 30
0.0
 11
559.8622914907094
 21
821.4496839368667
 31
0.0
  0
LINE
  5
94
330
1F
100
AcDbEntity
  8
0218_
  6
Continuous
 62
     3
370
     9
100
AcDbLine
 10
519.856220967061
 20
813.5231966585727
 30
0.0
 11
559.8622914907094
 21
779.9527884818415
 31
0.0
  0
LINE
  5
95
330
1F
100
AcDbEntity
  8
0218_
  6
Continuous
 62
     3
370
     9
100
AcDbLine
 10
519.8594376847552
 20
777.62957598712
 30
0.0
 11
559.8622914907094
 21
811.1960251266894
 31
0.0
  0
LINE
  5
96
330
1F
100
AcDbEntity
  8
0218_
  6
Continuous
 62
     3
370
     9
100
AcDbLine
 10
519.8559735272386
 20
803.2692904085727
 30
0.0
 11
559.8622914907094
 21
769.698387352196
 31
0.0
  0
LINE
  5
97
330
1F
100
AcDbEntity
  8
0218_
  6
Continuous
 62
     3
370
     9
100
AcDbLine
 10
519.8591902449328
 20
767.3754222972974
 30
0.0
 11
559.8622914907094
 21
800.9421188766894
 31
0.0
  0
LINE
  5
98
330
1F
100
AcDbEntity
  8
0218_
  6
Continuous
 62
     3
370
     9
100
AcDbLine
 10
519.8554786475933
 20
793.01513671875
 30
0.0
 11
559.8622914907094
 21
759.4439862225508
 31
0.0
  0
LINE
  5
99
330
1F
100
AcDbEntity
  8
0218_
  6
Continuous
 62
     3
370
     9
100
AcDbLine
 10
519.8586953652875
 20
757.1212686074748
 30
0.0
 11
559.8622914907094
 21
790.688460066512
 31
0.0
  0
LINE
  5
9A
330
1F
100
AcDbEntity
  8
0218_
  6
Continuous
 62
     3
370
     9
100
AcDbLine
 10
519.8552312077703
 20
782.7609830289276
 30
0.0
 11
559.8622914907094
 21
749.1895850929054
 31
0.0
  0
LINE
  5
9B
330
1F
100
AcDbEntity
  8
0218_
  6
Continuous
 62
     3
370
     9
100
AcDbLine
 10
519.8584479254646
 20
746.8673623574748
 30
0.0
 11
559.8622914907094
 21
780.434553816512
 31
0.0
  0
LINE
  5
9C
330
1F
100
AcDbEntity
  8
0218_
  6
Continuous
 62
     3
370
     9
100
AcDbLine
 10
519.8549837679479
 20
772.506829339105
 30
0.0
 11
559.8622914907094
 21
738.9351839632602
 31
0.0
  0
LINE
  5
9D
330
1F
100
AcDbEntity
  8
0218_
  6
Continuous
 62
     3
370
     9
100
AcDbLine
 10
519.8579530458193
 20
736.6132086676521
 30
0.0
 11
559.8622914907094
 21
770.180647566512
 31
0.0
  0
LINE
  5
9E
330
1F
100
AcDbEntity
  8
0218_
  6
Continuous
 62
     3
370
     9
100
AcDbLine
 10
519.8544888883026
 20
762.252923089105
 30
0.0
 11
559.8622914907094
 21
728.6807828336151
 31
0.0
  0
LINE
  5
9F
330
1F
100
AcDbEntity
  8
0218_
  6
Continuous
 62
     3
370
     9
100
AcDbLine
 10
519.8577056059969
 20
726.3590549778294
 30
0.0
 11
559.8622914907094
 21
759.9269887563346
 31
0.0
  0
LINE
  5
A0
330
1F
100
AcDbEntity
  8
0218_
  6
Continuous
 62
     3
370
     9
100
AcDbLine
 10
519.8542414484797
 20
751.9987693992823
 30
0.0
 11
559.8622914907094
 21
718.4263817039698
 31
0.0
  0
LINE
  5
A1
330
1F
100
AcDbEntity
  8
0218_
  6
Continuous
 62
     3
370
     9
100
AcDbLine
 10
519.8572107263516
 20
716.1049012880068
 30
0.0
 11
559.8622914907094
 21
749.6730825063346
 31
0.0
  0
LINE
  5
A2
330
1F
100
AcDbEntity
  8
0218_
  6
Continuous
 62
     3
370
     9
100
AcDbLine
 10
519.8537465688344
 20
741.7446157094596
 30
0.0
 11
559.8622914907094
 21
708.1719805743245
 31
0.0
  0
LINE
  5
A3
330
1F
100
AcDbEntity
  8
0218_
  6
Continuous
 62
     3
370
     9
100
AcDbLine
 10
519.8569632865286
 20
705.8509950380068
 30
0.0
 11
559.8622914907094
 21
739.4194236961573
 31
0.0
  0
LINE
  5
A4
330
1F
100
AcDbEntity
  8
0218_
  6
Continuous
 62
     3
370
     9
100
AcDbLine
 10
519.853499129012
 20
731.490462019637
 30
0.0
 11
559.8622914907094
 21
697.9175794446792
 31
0.0
  0
LINE
  5
A5
330
1F
100
AcDbEntity
  8
0218_
  6
Continuous
 62
     3
370
     9
100
AcDbLine
 10
519.8564684068833
 20
695.5968413481842
 30
0.0
 11
559.8622914907094
 21
729.1655174461573
 31
0.0
  0
LINE
  5
A6
330
1F
100
AcDbEntity
  8
0218_
  6
Continuous
 62
     3
370
     9
100
AcDbLine
 10
519.8530042493667
 20
721.236555769637
 30
0.0
 11
559.8622914907094
 21
687.6631783150339
 31
0.0
  0
LINE
  5
A7
330
1F
100
AcDbEntity
  8
0218_
  6
Continuous
 62
     3
370
     9
100
AcDbLine
 10
519.856220967061
 20
685.3426876583617
 30
0.0
 11
559.8622914907094
 21
718.91185863598
 31
0.0
  0
LINE
  5
A8
330
1F
100
AcDbEntity
  8
0218_
  6
Continuous
 62
     3
370
     9
100
AcDbLine
 10
519.8527568095443
 20
710.9824020798144
 30
0.0
 11
559.8622914907094
 21
677.4087771853885
 31
0.0
  0
LINE
  5
A9
330
1F
100
AcDbEntity
  8
0218_
  6
Continuous
 62
     3
370
     9
100
AcDbLine
 10
519.8559735272386
 20
675.0885339685391
 30
0.0
 11
559.8622914907094
 21
708.65795238598
 31
0.0
  0
LINE
  5
AA
330
1F
100
AcDbEntity
  8
0218_
  6
Continuous
 62
     3
370
     9
100
AcDbLine
 10
519.852261929899
 20
700.7282483899917
 30
0.0
 11
559.8622914907094
 21
667.1543760557432
 31
0.0
  0
LINE
  5
AB
330
1F
100
AcDbEntity
  8
0218_
  6
Continuous
 62
     3
370
     9
100
AcDbLine
 10
519.8554786475933
 20
664.8343802787165
 30
0.0
 11
559.8622914907094
 21
698.40404613598
 31
0.0
  0
LINE
  5
AC
330
1F
100
AcDbEntity
  8
0218_
  6
Continuous
 62
     3
370
     9
100
AcDbLine
 10
519.852014490076
 20
690.474094700169
 30
0.0
 11
559.8622914907094
 21
656.8999749260981
 31
0.0
  0
LINE
  5
AD
330
1F
100
AcDbEntity
  8
0218_
  6
Continuous
 62
     3
370
     9
100
AcDbLine
 10
519.8552312077703
 20
654.5804740287165
 30
0.0
 11
559.8622914907094
 21
688.1503873258026
 31
0.0
  0
LINE
  5
AE
330
1F
100
AcDbEntity
  8
0218_
  6
Continuous
 62
     3
370
     9
100
AcDbLine
 10
519.8517670502537
 20
680.2199410103464
 30
0.0
 11
559.8622914907094
 21
646.6455737964529
 31
0.0
  0
LINE
  5
AF
330
1F
100
AcDbEntity
  8
0218_
  6
Continuous
 62
     3
370
     9
100
AcDbLine
 10
519.854736328125
 20
644.3263203388938
 30
0.0
 11
559.8622914907094
 21
677.8964810758026
 31
0.0
  0
LINE
  5
B0
330
1F
100
AcDbEntity
  8
0218_
  6
Continuous
 62
     3
370
     9
100
AcDbLine
 10
519.8544888883026
 20
634.072166649071
 30
0.0
 11
559.8622914907094
 21
667.642822265625
 31
0.0
  0
LINE
  5
B1
330
1F
100
AcDbEntity
  8
0218_
  6
Continuous
 62
     3
370
     9
100
AcDbLine
 10
519.8539940086573
 20
623.8180129592484
 30
0.0
 11
559.8622914907094
 21
657.388916015625
 31
0.0
  0
LINE
  5
B2
330
1F
100
AcDbEntity
  8
0218_
  6
Continuous
 62
     3
370
     9
100
AcDbLine
 10
519.8537465688344
 20
613.5641067092484
 30
0.0
 11
559.8622914907094
 21
647.1352572054477
 31
0.0
  0
LINE
  5
B3
330
1F
100
AcDbEntity
  8
0218_
  6
Continuous
 62
     3
370
     9
100
AcDbLine
 10
519.853251689189
 20
603.3099530194258
 30
0.0
 11
559.8622914907094
 21
636.8813509554477
 31
0.0
  0
LINE
  5
B4
330
1F
100
AcDbEntity
  8
0218_
  6
Continuous
 62
     3
370
     9
100
AcDbLine
 10
539.9082493137672
 20
599.6302754170188
 30
0.0
 11
559.8622914907094
 21
616.3737858952703
 31
0.0
  0
LINE
  5
B5
330
1F
100
AcDbEntity
  8
0218_
  6
Continuous
 62
     3
370
     9
100
AcDbLine
 10
527.6881862331084
 20
599.6302754170188
 30
0.0
 11
559.8622914907094
 21
626.6276921452703
 31
0.0
  0
LINE
  5
B6
330
1F
100
AcDbEntity
  8
0218_
  6
Continuous
 62
     3
370
     9
100
AcDbLine
 10
519.8502824113177
 20
639.2035736908783
 30
0.0
 11
559.8622914907094
 21
605.6279692778717
 31
0.0
  0
LINE
  5
B7
330
1F
100
AcDbEntity
  8
0218_
  6
Continuous
 62
     3
370
     9
100
AcDbLine
 10
519.8505298511401
 20
649.457727380701
 30
0.0
 11
559.8622914907094
 21
615.8823704075169
 31
0.0
  0
LINE
  5
B8
330
1F
100
AcDbEntity
  8
0218_
  6
Continuous
 62
     3
370
     9
100
AcDbLine
 10
519.8510247307854
 20
659.7118810705238
 30
0.0
 11
559.8622914907094
 21
626.1367715371623
 31
0.0
  0
LINE
  5
B9
330
1F
100
AcDbEntity
  8
0218_
  6
Continuous
 62
     3
370
     9
100
AcDbLine
 10
519.8512721706084
 20
669.9660347603464
 30
0.0
 11
559.8622914907094
 21
636.3911726668075
 31
0.0
  0
LINE
  5
BA
330
1F
100
AcDbEntity
  8
0218_
  6
Continuous
 62
     3
370
     9
100
AcDbLine
 10
519.8656236803208
 20
844.2787294130068
 30
0.0
 11
559.8622914907094
 21
810.7159918707771
 31
0.0
  0
LINE
  5
BB
330
1F
100
AcDbEntity
  8
0218_
  6
Continuous
 62
     3
370
     9
100
AcDbLine
 10
434.8497545396961
 20
628.9496674408783
 30
0.0
 11
469.789742134713
 21
599.6302754170188
 31
0.0
  0
LINE
  5
BC
330
1F
100
AcDbEntity
  8
0218_
  6
Continuous
 62
     3
370
     9
100
AcDbLine
 10
434.8495070998734
 20
618.6955137510557
 30
0.0
 11
457.5694316142315
 21
599.6302754170188
 31
0.0
  0
LINE
  5
BD
330
1F
100
AcDbEntity
  8
0218_
  6
Continuous
 62
     3
370
     9
100
AcDbLine
 10
434.8492596600508
 20
608.4413600612334
 30
0.0
 11
445.3493685335727
 21
599.6302754170188
 31
0.0
  0
LINE
  5
BE
330
1F
100
AcDbEntity
  8
0218_
  6
Continuous
 62
     3
370
     9
100
AcDbLine
 10
467.1282794024495
 20
599.6302754170188
 30
0.0
 11
474.8622584987334
 21
606.1198796452703
 31
0.0
  0
LINE
  5
BF
330
1F
100
AcDbEntity
  8
0218_
  6
Continuous
 62
     3
370
     9
100
AcDbLine
 10
434.8606418918919
 20
808.3917896167654
 30
0.0
 11
474.8622584987334
 21
841.957248997044
 31
0.0
  0
LINE
  5
C0
330
1F
100
AcDbEntity
  8
0218_
  6
Continuous
 62
     3
370
     9
100
AcDbLine
 10
434.8569302945526
 20
834.0315040382179
 30
0.0
 11
474.8622584987334
 21
800.4615907411318
 31
0.0
  0
LINE
  5
C1
330
1F
100
AcDbEntity
  8
0218_
  6
Continuous
 62
     3
370
     9
100
AcDbLine
 10
434.8601470122469
 20
798.1378833667654
 30
0.0
 11
474.8622584987334
 21
831.7035901868667
 31
0.0
  0
LINE
  5
C2
330
1F
100
AcDbEntity
  8
0218_
  6
Continuous
 62
     3
370
     9
100
AcDbLine
 10
434.85668285473
 20
823.7773503483953
 30
0.0
 11
474.8622584987334
 21
790.2071896114867
 31
0.0
  0
LINE
  5
C3
330
1F
100
AcDbEntity
  8
0218_
  6
Continuous
 62
     3
370
     9
100
AcDbLine
 10
434.8598995724242
 20
787.8837296769427
 30
0.0
 11
474.8622584987334
 21
821.4496839368667
 31
0.0
  0
LINE
  5
C4
330
1F
100
AcDbEntity
  8
0218_
  6
Continuous
 62
     3
370
     9
100
AcDbLine
 10
434.8561879750847
 20
813.5231966585727
 30
0.0
 11
474.8622584987334
 21
779.9527884818415
 31
0.0
  0
LINE
  5
C5
330
1F
100
AcDbEntity
  8
0218_
  6
Continuous
 62
     3
370
     9
100
AcDbLine
 10
434.8594046927789
 20
777.62957598712
 30
0.0
 11
474.8622584987334
 21
811.1960251266894
 31
0.0
  0
LINE
  5
C6
330
1F
100
AcDbEntity
  8
0218_
  6
Continuous
 62
     3
370
     9
100
AcDbLine
 10
434.855940535262
 20
803.2692904085727
 30
0.0
 11
474.8622584987334
 21
769.698387352196
 31
0.0
  0
LINE
  5
C7
330
1F
100
AcDbEntity
  8
0218_
  6
Continuous
 62
     3
370
     9
100
AcDbLine
 10
434.8591572529563
 20
767.3754222972974
 30
0.0
 11
474.8622584987334
 21
800.9421188766894
 31
0.0
  0
LINE
  5
C8
330
1F
100
AcDbEntity
  8
0218_
  6
Continuous
 62
     3
370
     9
100
AcDbLine
 10
434.8556930954393
 20
793.01513671875
 30
0.0
 11
474.8622584987334
 21
759.4439862225508
 31
0.0
  0
LINE
  5
C9
330
1F
100
AcDbEntity
  8
0218_
  6
Continuous
 62
     3
370
     9
100
AcDbLine
 10
434.8586623733109
 20
757.1212686074748
 30
0.0
 11
474.8622584987334
 21
790.688460066512
 31
0.0
  0
LINE
  5
CA
330
1F
100
AcDbEntity
  8
0218_
  6
Continuous
 62
     3
370
     9
100
AcDbLine
 10
434.855198215794
 20
782.7609830289276
 30
0.0
 11
474.8622584987334
 21
749.1895850929054
 31
0.0
  0
LINE
  5
CB
330
1F
100
AcDbEntity
  8
0218_
  6
Continuous
 62
     3
370
     9
100
AcDbLine
 10
434.8584149334883
 20
746.8673623574748
 30
0.0
 11
474.8622584987334
 21
780.434553816512
 31
0.0
  0
LINE
  5
CC
330
1F
100
AcDbEntity
  8
0218_
  6
Continuous
 62
     3
370
     9
100
AcDbLine
 10
434.8549507759714
 20
772.506829339105
 30
0.0
 11
474.8622584987334
 21
738.9351839632602
 31
0.0
  0
LINE
  5
CD
330
1F
100
AcDbEntity
  8
0218_
  6
Continuous
 62
     3
370
     9
100
AcDbLine
 10
434.857920053843
 20
736.6132086676521
 30
0.0
 11
474.8622584987334
 21
770.180647566512
 31
0.0
  0
LINE
  5
CE
330
1F
100
AcDbEntity
  8
0218_
  6
Continuous
 62
     3
370
     9
100
AcDbLine
 10
434.854455896326
 20
762.252923089105
 30
0.0
 11
474.8622584987334
 21
728.6807828336151
 31
0.0
  0
LINE
  5
CF
330
1F
100
AcDbEntity
  8
0218_
  6
Continuous
 62
     3
370
     9
100
AcDbLine
 10
434.8576726140203
 20
726.3590549778294
 30
0.0
 11
474.8622584987334
 21
759.9269887563346
 31
0.0
  0
LINE
  5
D0
330
1F
100
AcDbEntity
  8
0218_
  6
Continuous
 62
     3
370
     9
100
AcDbLine
 10
434.8542084565034
 20
751.9987693992823
 30
0.0
 11
474.8622584987334
 21
718.4263817039698
 31
0.0
  0
LINE
  5
D1
330
1F
100
AcDbEntity
  8
0218_
  6
Continuous
 62
     3
370
     9
100
AcDbLine
 10
434.857177734375
 20
716.1049012880068
 30
0.0
 11
474.8622584987334
 21
749.6730825063346
 31
0.0
  0
LINE
  5
D2
330
1F
100
AcDbEntity
  8
0218_
  6
Continuous
 62
     3
370
     9
100
AcDbLine
 10
434.8537135768584
 20
741.7446157094596
 30
0.0
 11
474.8622584987334
 21
708.1719805743245
 31
0.0
  0
LINE
  5
D3
330
1F
100
AcDbEntity
  8
0218_
  6
Continuous
 62
     3
370
     9
100
AcDbLine
 10
434.8569302945526
 20
705.8509950380068
 30
0.0
 11
474.8622584987334
 21
739.4194236961573
 31
0.0
  0
LINE
  5
D4
330
1F
100
AcDbEntity
  8
0218_
  6
Continuous
 62
     3
370
     9
100
AcDbLine
 10
434.8534661370357
 20
731.490462019637
 30
0.0
 11
474.8622584987334
 21
697.9175794446792
 31
0.0
  0
LINE
  5
D5
330
1F
100
AcDbEntity
  8
0218_
  6
Continuous
 62
     3
370
     9
100
AcDbLine
 10
434.85668285473
 20
695.5968413481842
 30
0.0
 11
474.8622584987334
 21
729.1655174461573
 31
0.0
  0
LINE
  5
D6
330
1F
100
AcDbEntity
  8
0218_
  6
Continuous
 62
     3
370
     9
100
AcDbLine
 10
434.8529712573904
 20
721.236555769637
 30
0.0
 11
474.8622584987334
 21
687.6631783150339
 31
0.0
  0
LINE
  5
D7
330
1F
100
AcDbEntity
  8
0218_
  6
Continuous
 62
     3
370
     9
100
AcDbLine
 10
434.8561879750847
 20
685.3426876583617
 30
0.0
 11
474.8622584987334
 21
718.91185863598
 31
0.0
  0
LINE
  5
D8
330
1F
100
AcDbEntity
  8
0218_
  6
Continuous
 62
     3
370
     9
100
AcDbLine
 10
434.8527238175677
 20
710.9824020798144
 30
0.0
 11
474.8622584987334
 21
677.4087771853885
 31
0.0
  0
LINE
  5
D9
330
1F
100
AcDbEntity
  8
0218_
  6
Continuous
 62
     3
370
     9
100
AcDbLine
 10
434.855940535262
 20
675.0885339685391
 30
0.0
 11
474.8622584987334
 21
708.65795238598
 31
0.0
  0
LINE
  5
DA
330
1F
100
AcDbEntity
  8
0218_
  6
Continuous
 62
     3
370
     9
100
AcDbLine
 10
434.8524763777451
 20
700.7282483899917
 30
0.0
 11
474.8622584987334
 21
667.1543760557432
 31
0.0
  0
LINE
  5
DB
330
1F
100
AcDbEntity
  8
0218_
  6
Continuous
 62
     3
370
     9
100
AcDbLine
 10
434.8554456556167
 20
664.8343802787165
 30
0.0
 11
474.8622584987334
 21
698.40404613598
 31
0.0
  0
LINE
  5
DC
330
1F
100
AcDbEntity
  8
0218_
  6
Continuous
 62
     3
370
     9
100
AcDbLine
 10
434.8519814980997
 20
690.474094700169
 30
0.0
 11
474.8622584987334
 21
656.8999749260981
 31
0.0
  0
LINE
  5
DD
330
1F
100
AcDbEntity
  8
0218_
  6
Continuous
 62
     3
370
     9
100
AcDbLine
 10
434.855198215794
 20
654.5804740287165
 30
0.0
 11
474.8622584987334
 21
688.1503873258026
 31
0.0
  0
LINE
  5
DE
330
1F
100
AcDbEntity
  8
0218_
  6
Continuous
 62
     3
370
     9
100
AcDbLine
 10
434.8517340582771
 20
680.2199410103464
 30
0.0
 11
474.8622584987334
 21
646.6455737964529
 31
0.0
  0
LINE
  5
DF
330
1F
100
AcDbEntity
  8
0218_
  6
Continuous
 62
     3
370
     9
100
AcDbLine
 10
434.8547033361487
 20
644.3263203388938
 30
0.0
 11
474.8622584987334
 21
677.8964810758026
 31
0.0
  0
LINE
  5
E0
330
1F
100
AcDbEntity
  8
0218_
  6
Continuous
 62
     3
370
     9
100
AcDbLine
 10
434.854455896326
 20
634.072166649071
 30
0.0
 11
474.8622584987334
 21
667.642822265625
 31
0.0
  0
LINE
  5
E1
330
1F
100
AcDbEntity
  8
0218_
  6
Continuous
 62
     3
370
     9
100
AcDbLine
 10
434.853961016681
 20
623.8180129592484
 30
0.0
 11
474.8622584987334
 21
657.388916015625
 31
0.0
  0
LINE
  5
E2
330
1F
100
AcDbEntity
  8
0218_
  6
Continuous
 62
     3
370
     9
100
AcDbLine
 10
434.8537135768584
 20
613.5641067092484
 30
0.0
 11
474.8622584987334
 21
647.1352572054477
 31
0.0
  0
LINE
  5
E3
330
1F
100
AcDbEntity
  8
0218_
  6
Continuous
 62
     3
370
     9
100
AcDbLine
 10
434.8534661370357
 20
603.3099530194258
 30
0.0
 11
474.8622584987334
 21
636.8813509554477
 31
0.0
  0
LINE
  5
E4
330
1F
100
AcDbEntity
  8
0218_
  6
Continuous
 62
     3
370
     9
100
AcDbLine
 10
454.9082163217906
 20
599.6302754170188
 30
0.0
 11
474.8622584987334
 21
616.3737858952703
 31
0.0
  0
LINE
  5
E5
330
1F
100
AcDbEntity
  8
0218_
  6
Continuous
 62
     3
370
     9
100
AcDbLine
 10
442.6881532411318
 20
599.6302754170188
 30
0.0
 11
474.8622584987334
 21
626.6276921452703
 31
0.0
  0
LINE
  5
E6
330
1F
100
AcDbEntity
  8
0218_
  6
Continuous
 62
     3
370
     9
100
AcDbLine
 10
434.8502494193414
 20
639.2035736908783
 30
0.0
 11
474.8622584987334
 21
605.6279692778717
 31
0.0
  0
LINE
  5
E7
330
1F
100
AcDbEntity
  8
0218_
  6
Continuous
 62
     3
370
     9
100
AcDbLine
 10
434.8504968591641
 20
649.457727380701
 30
0.0
 11
474.8622584987334
 21
615.8823704075169
 31
0.0
  0
LINE
  5
E8
330
1F
100
AcDbEntity
  8
0218_
  6
Continuous
 62
     3
370
     9
100
AcDbLine
 10
434.8509917388094
 20
659.7118810705238
 30
0.0
 11
474.8622584987334
 21
626.1367715371623
 31
0.0
  0
LINE
  5
E9
330
1F
100
AcDbEntity
  8
0218_
  6
Continuous
 62
     3
370
     9
100
AcDbLine
 10
434.8512391786318
 20
669.9660347603464
 30
0.0
 11
474.8622584987334
 21
636.3911726668075
 31
0.0
  0
LINE
  5
EA
330
1F
100
AcDbEntity
  8
0218_
  6
Continuous
 62
     3
370
     9
100
AcDbLine
 10
434.8655906883448
 20
844.2787294130068
 30
0.0
 11
474.8622584987334
 21
810.7159918707771
 31
0.0
  0
LINE
  5
EB
330
1F
100
AcDbEntity
  8
0242_
  6
JWW_CENTER1
 62
     4
370
     9
100
AcDbLine
 10
353.5670100031675
 20
659.7559253589529
 30
0.0
 11
390.6837257179055
 21
659.7559253589529
 31
0.0
  0
LINE
  5
EC
330
1F
100
AcDbEntity
  8
0242_
  6
Continuous
 62
     4
370
     9
100
AcDbLine
 10
353.5670100031675
 20
657.7558692725929
 30
0.0
 11
353.5670100031675
 21
661.7559814453125
 31
0.0
  0
LINE
  5
ED
330
1F
100
AcDbEntity
  8
0242_
  6
Continuous
 62
     4
370
     9
100
AcDbLine
 10
353.5670100031675
 20
661.7559814453125
 30
0.0
 11
313.5671254750847
 21
661.7559814453125
 31
0.0
  0
LINE
  5
EE
330
1F
100
AcDbEntity
  8
0242_
  6
Continuous
 62
     4
370
     9
100
AcDbLine
 10
313.5671254750847
 20
661.7559814453125
 30
0.0
 11
313.5671254750847
 21
657.7558692725929
 31
0.0
  0
LINE
  5
EF
330
1F
100
AcDbEntity
  8
0242_
  6
Continuous
 62
     4
370
     9
100
AcDbLine
 10
313.5671254750847
 20
657.7558692725929
 30
0.0
 11
353.5670100031675
 21
657.7558692725929
 31
0.0
  0
LINE
  5
F0
330
1F
100
AcDbEntity
  8
0242_
  6
Continuous
 62
     4
370
     9
100
AcDbLine
 10
332.5860925622891
 20
650.0896886877113
 30
0.0
 11
332.5860925622891
 21
600.8405035895271
 31
0.0
  0
LINE
  5
F1
330
1F
100
AcDbEntity
  8
0242_
  6
Continuous
 62
     4
370
     9
100
AcDbLine
 10
332.5860925622891
 20
650.0896886877113
 30
0.0
 11
335.849328943201
 21
625.3036416543498
 31
0.0
  0
LINE
  5
F2
330
1F
100
AcDbEntity
  8
0242_
  6
Continuous
 62
     4
370
     9
100
AcDbLine
 10
332.5860925622891
 20
650.0896886877113
 30
0.0
 11
329.3228561813768
 21
625.3036416543498
 31
0.0
  0
LINE
  5
F3
330
1F
100
AcDbEntity
  8
0218_
  6
Continuous
 62
     3
370
     9
100
AcDbLine
 10
434.8655906883448
 20
337.1359665329393
 30
0.0
 11
434.8655906883448
 21
330.1358939505914
 31
0.0
  0
LINE
  5
F4
330
1F
100
AcDbEntity
  8
0218_
  6
Continuous
 62
     3
370
     9
100
AcDbLine
 10
451.3651255014781
 20
330.1358939505914
 30
0.0
 11
451.3651255014781
 21
237.140832849451
 31
0.0
  0
LINE
  5
F5
330
1F
100
AcDbEntity
  8
0218_
  6
Continuous
 62
     3
370
     9
100
AcDbLine
 10
398.1653161951016
 20
337.1359665329393
 30
0.0
 11
519.8648813608531
 21
337.1359665329393
 31
0.0
  0
LINE
  5
F6
330
1F
100
AcDbEntity
  8
0218_
  6
Continuous
 62
     3
370
     9
100
AcDbLine
 10
458.3654455236487
 20
330.1358939505914
 30
0.0
 11
458.3654455236487
 21
237.140832849451
 31
0.0
  0
LINE
  5
F7
330
1F
100
AcDbEntity
  8
0218_
  6
Continuous
 62
     3
370
     9
100
AcDbLine
 10
434.8655906883448
 20
330.1358939505914
 30
0.0
 11
474.8649803367823
 21
330.1358939505914
 31
0.0
  0
LINE
  5
F8
330
1F
100
AcDbEntity
  8
0218_
  6
Continuous
 62
     3
370
     9
100
AcDbLine
 10
474.8649803367823
 20
330.1358939505914
 30
0.0
 11
474.8649803367823
 21
337.1359665329393
 31
0.0
  0
LINE
  5
F9
330
1F
100
AcDbEntity
  8
0218_
  6
Continuous
 62
     3
370
     9
100
AcDbLine
 10
559.8650133287583
 20
337.1359665329393
 30
0.0
 11
519.8656236803208
 21
337.1359665329393
 31
0.0
  0
LINE
  5
FA
330
1F
100
AcDbEntity
  8
0218_
  6
Continuous
 62
     3
370
     9
100
AcDbLine
 10
519.8656236803208
 20
337.1359665329393
 30
0.0
 11
519.8656236803208
 21
330.1358939505914
 31
0.0
  0
LINE
  5
FB
330
1F
100
AcDbEntity
  8
0218_
  6
Continuous
 62
     3
370
     9
100
AcDbLine
 10
559.8650133287583
 20
337.1359665329393
 30
0.0
 11
559.8650133287583
 21
330.1358939505914
 31
0.0
  0
LINE
  5
FC
330
1F
100
AcDbEntity
  8
0218_
  6
Continuous
 62
     3
370
     9
100
AcDbLine
 10
519.8656236803208
 20
330.1358939505914
 30
0.0
 11
559.8650133287583
 21
330.1358939505914
 31
0.0
  0
LINE
  5
FD
330
1F
100
AcDbEntity
  8
0218_
  6
Continuous
 62
     3
370
     9
100
AcDbLine
 10
536.3651584934547
 20
330.1358939505914
 30
0.0
 11
536.3651584934547
 21
237.140832849451
 31
0.0
  0
LINE
  5
FE
330
1F
100
AcDbEntity
  8
0218_
  6
Continuous
 62
     3
370
     9
100
AcDbLine
 10
543.365478515625
 20
330.1358939505914
 30
0.0
 11
543.365478515625
 21
237.140832849451
 31
0.0
  0
LINE
  5
FF
330
1F
100
AcDbEntity
  8
0218_
  6
Continuous
 62
     3
370
     9
100
AcDbLine
 10
604.8651617926521
 20
337.1359665329393
 30
0.0
 11
681.5645784945104
 21
337.1359665329393
 31
0.0
  0
LINE
  5
100
330
1F
100
AcDbEntity
  8
0218_
  6
Continuous
 62
     3
370
     9
100
AcDbLine
 10
398.1653161951016
 20
236.9818527634081
 30
0.0
 11
681.5645784945104
 21
236.9818527634081
 31
0.0
  0
LINE
  5
101
330
1F
100
AcDbEntity
  8
0218_
  6
Continuous
 62
     3
370
     9
100
AcDbLine
 10
604.8651617926521
 20
330.1358939505914
 30
0.0
 11
604.8651617926521
 21
337.1359665329393
 31
0.0
  0
LINE
  5
102
330
1F
100
AcDbEntity
  8
0218_
  6
Continuous
 62
     3
370
     9
100
AcDbLine
 10
644.8645514410896
 20
337.1359665329393
 30
0.0
 11
644.8645514410896
 21
330.1358939505914
 31
0.0
  0
LINE
  5
103
330
1F
100
AcDbEntity
  8
0218_
  6
Continuous
 62
     3
370
     9
100
AcDbLine
 10
644.8645514410896
 20
330.1358939505914
 30
0.0
 11
604.8651617926521
 21
330.1358939505914
 31
0.0
  0
LINE
  5
104
330
1F
100
AcDbEntity
  8
0218_
  6
Continuous
 62
     3
370
     9
100
AcDbLine
 10
559.8650133287583
 20
337.1359665329393
 30
0.0
 11
604.8651617926521
 21
337.1359665329393
 31
0.0
  0
LINE
  5
105
330
1F
100
AcDbEntity
  8
0218_
  6
Continuous
 62
     3
370
     9
100
AcDbLine
 10
621.364449165963
 20
330.1358939505914
 30
0.0
 11
621.364449165963
 21
237.140832849451
 31
0.0
  0
LINE
  5
106
330
1F
100
AcDbEntity
  8
0218_
  6
Continuous
 62
     3
370
     9
100
AcDbLine
 10
628.3650166279563
 20
330.1358939505914
 30
0.0
 11
628.3650166279563
 21
237.140832849451
 31
0.0
  0
LINE
  5
107
330
1F
100
AcDbEntity
  8
0216_
  6
Continuous
 62
     7
370
     9
100
AcDbLine
 10
786.4461537953969
 20
337.1359665329393
 30
0.0
 11
786.4461537953969
 21
236.9818527634081
 31
0.0
  0
LINE
  5
108
330
1F
100
AcDbEntity
  8
0216_
  6
Continuous
 62
     7
370
     9
100
AcDbLine
 10
789.4461142050255
 20
337.1359665329393
 30
0.0
 11
701.5643970386401
 21
337.1359665329393
 31
0.0
  0
LINE
  5
109
330
1F
100
AcDbEntity
  8
0216_
  6
Continuous
 62
     7
370
     9
100
AcDbLine
 10
789.4461142050255
 20
236.9818527634081
 30
0.0
 11
701.5643970386401
 21
236.9818527634081
 31
0.0
  0
LINE
  5
10A
330
1F
100
AcDbEntity
  8
0226_下
  6
Continuous
 62
     3
370
     9
100
AcDbLine
 10
1521.725463867188
 20
336.9820589632602
 30
0.0
 11
1521.725463867188
 21
236.9818527634081
 31
0.0
  0
LINE
  5
10B
330
1F
100
AcDbEntity
  8
0226_下
  6
Continuous
 62
     3
370
     9
100
AcDbLine
 10
1506.725414379223
 20
336.9820589632602
 30
0.0
 11
1506.725414379223
 21
236.9818527634081
 31
0.0
  0
LINE
  5
10C
330
1F
100
AcDbEntity
  8
0226_下
  6
Continuous
 62
     3
370
     9
100
AcDbLine
 10
1521.725463867188
 20
236.9818527634081
 30
0.0
 11
1506.725414379223
 21
236.9818527634081
 31
0.0
  0
LINE
  5
10D
330
1F
100
AcDbEntity
  8
0226_下
  6
Continuous
 62
     3
370
     9
100
AcDbLine
 10
1506.725414379223
 20
336.9820589632602
 30
0.0
 11
1521.725463867188
 21
336.9820589632602
 31
0.0
  0
LINE
  5
10E
330
1F
100
AcDbEntity
  8
0216_
  6
Continuous
 62
     7
370
     9
100
AcDbLine
 10
1521.725463867188
 20
336.9820589632602
 30
0.0
 11
1536.944497598184
 21
356.8158453864021
 31
0.0
  0
LINE
  5
10F
330
1F
100
AcDbEntity
  8
0216_
  6
Continuous
 62
     7
370
     9
100
AcDbLine
 10
1521.725463867188
 20
336.9820589632602
 30
0.0
 11
1541.55925029033
 21
352.2010926942568
 31
0.0
  0
LINE
  5
110
330
1F
100
AcDbEntity
  8
0216_
  6
Continuous
 62
     7
370
     9
100
AcDbLine
 10
1521.725463867188
 20
336.9820589632602
 30
0.0
 11
1590.643640466639
 21
405.9002355627112
 31
0.0
  0
LINE
  5
111
330
1F
100
AcDbEntity
  8
0216_
  6
Continuous
 62
     7
370
     9
100
AcDbLine
 10
1590.643640466639
 20
405.9002355627112
 30
0.0
 11
1760.689235377956
 21
405.9002355627112
 31
0.0
  0
LINE
  5
112
330
1F
100
AcDbEntity
  8
0242_
  6
Continuous
 62
     7
370
     9
100
AcDbLine
 10
429.3692099081505
 20
54.83756400443411
 30
0.0
 11
650.3606847814615
 21
54.83756400443411
 31
0.0
  0
LINE
  5
113
330
1F
100
AcDbEntity
  8
0242_
  6
Continuous
 62
     7
370
     9
100
AcDbLine
 10
585.4856748838682
 20
-106.3460973791175
 30
0.0
 11
1222.293585699958
 21
-106.3460973791175
 31
0.0
  0
LINE
  5
114
330
1F
100
AcDbEntity
  8
0242_
  6
Continuous
 62
     4
370
     9
100
AcDbLine
 10
499.3654818148229
 20
568.9841110641894
 30
0.0
 11
495.3656170819261
 21
568.9841110641894
 31
0.0
  0
LINE
  5
115
330
1F
100
AcDbEntity
  8
0242_
  6
Continuous
 62
     4
370
     9
100
AcDbLine
 10
495.3656170819261
 20
568.9841110641894
 30
0.0
 11
495.3656170819261
 21
528.9841028161953
 31
0.0
  0
LINE
  5
116
330
1F
100
AcDbEntity
  8
0242_
  6
Continuous
 62
     4
370
     9
100
AcDbLine
 10
495.3656170819261
 20
528.9841028161953
 30
0.0
 11
499.3654818148229
 21
528.9841028161953
 31
0.0
  0
LINE
  5
117
330
1F
100
AcDbEntity
  8
0242_
  6
Continuous
 62
     4
370
     9
100
AcDbLine
 10
499.3654818148229
 20
528.9841028161953
 30
0.0
 11
499.3654818148229
 21
568.9841110641894
 31
0.0
  0
LINE
  5
118
330
1F
100
AcDbEntity
  8
0242_
  6
Continuous
 62
     4
370
     9
100
AcDbLine
 10
507.0316623997047
 20
548.0030699033995
 30
0.0
 11
571.2826290646115
 21
548.0030699033995
 31
0.0
  0
LINE
  5
119
330
1F
100
AcDbEntity
  8
0242_
  6
Continuous
 62
     4
370
     9
100
AcDbLine
 10
507.0316623997047
 20
548.0030699033995
 30
0.0
 11
546.8194909997891
 21
551.2661825644005
 31
0.0
  0
LINE
  5
11A
330
1F
100
AcDbEntity
  8
0242_
  6
Continuous
 62
     4
370
     9
100
AcDbLine
 10
507.0316623997047
 20
548.0030699033995
 30
0.0
 11
546.8194909997891
 21
544.7399572423988
 31
0.0
  0
LINE
  5
11B
330
1F
100
AcDbEntity
  8
0242_
  6
JWW_CENTER1
 62
     4
370
     9
100
AcDbLine
 10
497.365425728463
 20
568.9841110641894
 30
0.0
 11
497.365425728463
 21
649.7875646642738
 31
0.0
  0
LINE
  5
11C
330
1F
100
AcDbEntity
  8
0218_
  6
Continuous
 62
     3
370
     9
100
AcDbLine
 10
434.8616316511826
 20
839.1542506862334
 30
0.0
 11
474.1615089210308
 21
872.1305558488177
 31
0.0
  0
LINE
  5
11D
330
1F
100
AcDbEntity
  8
0218_
  6
Continuous
 62
     3
370
     9
100
AcDbLine
 10
604.8636771537161
 20
828.9000969964106
 30
0.0
 11
644.8647988809125
 21
862.4648140572214
 31
0.0
  0
LINE
  5
11E
330
1F
100
AcDbEntity
  8
0218_
  6
Continuous
 62
     3
370
     9
100
AcDbLine
 10
604.8631822740708
 20
818.645943306588
 30
0.0
 11
644.8647988809125
 21
852.211155247044
 31
0.0
  0
LINE
  5
11F
330
1F
100
AcDbEntity
  8
0218_
  6
Continuous
 62
     3
370
     9
100
AcDbLine
 10
604.867883630701
 20
864.7875316722974
 30
0.0
 11
644.8647988809125
 21
831.2247941300677
 31
0.0
  0
LINE
  5
120
330
1F
100
AcDbEntity
  8
0218_
  6
Continuous
 62
     3
370
     9
100
AcDbLine
 10
604.867883630701
 20
854.5331305426521
 30
0.0
 11
644.8647988809125
 21
820.9703930004224
 31
0.0
  0
LINE
  5
121
330
1F
100
AcDbEntity
  8
0218_
  6
Continuous
 62
     3
370
     9
100
AcDbLine
 10
519.8611697635135
 20
828.9000969964106
 30
0.0
 11
559.864765888936
 21
862.467041015625
 31
0.0
  0
LINE
  5
122
330
1F
100
AcDbEntity
  8
0218_
  6
Continuous
 62
     3
370
     9
100
AcDbLine
 10
519.8609223236912
 20
818.645943306588
 30
0.0
 11
559.864765888936
 21
852.213134765625
 31
0.0
  0
LINE
  5
123
330
1F
100
AcDbEntity
  8
0218_
  6
Continuous
 62
     3
370
     9
100
AcDbLine
 10
519.8656236803208
 20
864.7875316722974
 30
0.0
 11
559.8622914907094
 21
831.2247941300677
 31
0.0
  0
LINE
  5
124
330
1F
100
AcDbEntity
  8
0218_
  6
Continuous
 62
     3
370
     9
100
AcDbLine
 10
519.8656236803208
 20
854.5331305426521
 30
0.0
 11
559.8622914907094
 21
820.9703930004224
 31
0.0
  0
LINE
  5
125
330
1F
100
AcDbEntity
  8
0218_
  6
Continuous
 62
     3
370
     9
100
AcDbLine
 10
434.8608893317146
 20
818.645943306588
 30
0.0
 11
474.8654752164276
 21
852.2138770850929
 31
0.0
  0
LINE
  5
126
330
1F
100
AcDbEntity
  8
0218_
  6
Continuous
 62
     3
370
     9
100
AcDbLine
 10
434.8611367715372
 20
828.9000969964106
 30
0.0
 11
474.8654752164276
 21
862.4675358952703
 31
0.0
  0
LINE
  5
127
330
1F
100
AcDbEntity
  8
0218_
  6
Continuous
 62
     3
370
     9
100
AcDbLine
 10
434.8655906883448
 20
864.7875316722974
 30
0.0
 11
474.8622584987334
 21
831.2247941300677
 31
0.0
  0
LINE
  5
128
330
1F
100
AcDbEntity
  8
0218_
  6
Continuous
 62
     3
370
     9
100
AcDbLine
 10
434.8655906883448
 20
854.5331305426521
 30
0.0
 11
474.8622584987334
 21
820.9703930004224
 31
0.0
  0
LINE
  5
129
330
1F
100
AcDbEntity
  8
0218_
  6
Continuous
 62
     3
370
     9
100
AcDbLine
 10
434.8655906883448
 20
906.542011982686
 30
0.0
 11
474.8654752164276
 21
872.9765526024073
 31
0.0
  0
LINE
  5
12A
330
1F
100
AcDbEntity
  8
0218_
  6
Continuous
 62
     3
370
     9
100
AcDbLine
 10
434.8655906883448
 20
917.0418734163852
 30
0.0
 11
474.8654752164276
 21
883.4764140361065
 31
0.0
  0
LINE
  5
12B
330
1F
100
AcDbEntity
  8
0218_
  6
Continuous
 62
     3
370
     9
100
AcDbLine
 10
434.8655906883448
 20
927.5419822899073
 30
0.0
 11
474.8654752164276
 21
893.9765229096283
 31
0.0
  0
LINE
  5
12C
330
1F
100
AcDbEntity
  8
0218_
  6
Continuous
 62
     3
370
     9
100
AcDbLine
 10
434.8618790910052
 20
870.4083746832771
 30
0.0
 11
474.8654752164276
 21
903.9753187024917
 31
0.0
  0
LINE
  5
12D
330
1F
100
AcDbEntity
  8
0218_
  6
Continuous
 62
     3
370
     9
100
AcDbLine
 10
434.8618790910052
 20
880.9082361169766
 30
0.0
 11
474.8654752164276
 21
914.4751801361908
 31
0.0
  0
LINE
  5
12E
330
1F
100
AcDbEntity
  8
0218_
  6
Continuous
 62
     3
370
     9
100
AcDbLine
 10
434.8618790910052
 20
891.4083449904984
 30
0.0
 11
474.8654752164276
 21
924.975289009713
 31
0.0
  0
LINE
  5
12F
330
1F
100
AcDbEntity
  8
0218_
  6
Continuous
 62
     3
370
     9
100
AcDbLine
 10
434.8655906883448
 20
875.0419328019427
 30
0.0
 11
474.8654752164276
 21
841.4764734216641
 31
0.0
  0
LINE
  5
130
330
1F
100
AcDbEntity
  8
0218_
  6
Continuous
 62
     3
370
     9
100
AcDbLine
 10
434.8655906883448
 20
896.0419031091641
 30
0.0
 11
474.8654752164276
 21
862.4764437288852
 31
0.0
  0
LINE
  5
131
330
1F
100
AcDbEntity
  8
0218_
  6
Continuous
 62
     3
370
     9
100
AcDbLine
 10
434.8655906883448
 20
849.4113736539276
 30
0.0
 11
474.8654752164276
 21
882.9751009554477
 31
0.0
  0
LINE
  5
132
330
1F
100
AcDbEntity
  8
0218_
  6
Continuous
 62
     3
370
     9
100
AcDbLine
 10
434.8655906883448
 20
885.5420416754646
 30
0.0
 11
474.8654752164276
 21
851.976582295186
 31
0.0
  0
LINE
  5
133
330
1F
100
AcDbEntity
  8
0218_
  6
Continuous
 62
     3
370
     9
100
AcDbLine
 10
434.8655906883448
 20
859.9112350876269
 30
0.0
 11
474.8654752164276
 21
893.4752098289698
 31
0.0
  0
LINE
  5
134
330
1F
100
AcDbEntity
  8
0218_
  6
Continuous
 62
     3
370
     9
100
AcDbLine
 10
519.8619120829818
 20
870.4083746832771
 30
0.0
 11
559.864765888936
 21
903.9745763830238
 31
0.0
  0
LINE
  5
135
330
1F
100
AcDbEntity
  8
0218_
  6
Continuous
 62
     3
370
     9
100
AcDbLine
 10
519.8616646431589
 20
839.1542506862334
 30
0.0
 11
559.864765888936
 21
872.7206998258026
 31
0.0
  0
LINE
  5
136
330
1F
100
AcDbEntity
  8
0218_
  6
Continuous
 62
     3
370
     9
100
AcDbLine
 10
519.8656236803208
 20
875.0419328019427
 30
0.0
 11
559.864765888936
 21
841.4772157411318
 31
0.0
  0
LINE
  5
137
330
1F
100
AcDbEntity
  8
0218_
  6
Continuous
 62
     3
370
     9
100
AcDbLine
 10
519.8656236803208
 20
896.0419031091641
 30
0.0
 11
559.864765888936
 21
862.4771860483531
 31
0.0
  0
LINE
  5
138
330
1F
100
AcDbEntity
  8
0218_
  6
Continuous
 62
     3
370
     9
100
AcDbLine
 10
519.8656236803208
 20
885.5420416754646
 30
0.0
 11
559.864765888936
 21
851.9770771748313
 31
0.0
  0
LINE
  5
139
330
1F
100
AcDbEntity
  8
0218_
  6
Continuous
 62
     3
370
     9
100
AcDbLine
 10
519.8656236803208
 20
849.4113736539276
 30
0.0
 11
559.864765888936
 21
882.9746060758026
 31
0.0
  0
LINE
  5
13A
330
1F
100
AcDbEntity
  8
0218_
  6
Continuous
 62
     3
370
     9
100
AcDbLine
 10
519.8656236803208
 20
859.9112350876269
 30
0.0
 11
559.864765888936
 21
893.4747149493245
 31
0.0
  0
LINE
  5
13B
330
1F
100
AcDbEntity
  8
0218_
  6
Continuous
 62
     3
370
     9
100
AcDbLine
 10
519.8656236803208
 20
906.542011982686
 30
0.0
 11
559.864765888936
 21
872.9770474820526
 31
0.0
  0
LINE
  5
13C
330
1F
100
AcDbEntity
  8
0218_
  6
Continuous
 62
     3
370
     9
100
AcDbLine
 10
519.8656236803208
 20
917.0418734163852
 30
0.0
 11
559.864765888936
 21
883.4771563555745
 31
0.0
  0
LINE
  5
13D
330
1F
100
AcDbEntity
  8
0218_
  6
Continuous
 62
     3
370
     9
100
AcDbLine
 10
519.8656236803208
 20
927.5419822899073
 30
0.0
 11
559.864765888936
 21
893.9770177892738
 31
0.0
  0
LINE
  5
13E
330
1F
100
AcDbEntity
  8
0218_
  6
Continuous
 62
     3
370
     9
100
AcDbLine
 10
519.8619120829818
 20
880.9082361169766
 30
0.0
 11
559.864765888936
 21
914.4746852565459
 31
0.0
  0
LINE
  5
13F
330
1F
100
AcDbEntity
  8
0218_
  6
Continuous
 62
     3
370
     9
100
AcDbLine
 10
519.8619120829818
 20
891.4083449904984
 30
0.0
 11
559.864765888936
 21
924.974546690245
 31
0.0
  0
LINE
  5
140
330
1F
100
AcDbEntity
  8
0218_
  6
Continuous
 62
     3
370
     9
100
AcDbLine
 10
604.8644194731844
 20
870.4083746832771
 30
0.0
 11
644.8647988809125
 21
903.9725968644427
 31
0.0
  0
LINE
  5
141
330
1F
100
AcDbEntity
  8
0218_
  6
Continuous
 62
     3
370
     9
100
AcDbLine
 10
604.8639245935391
 20
839.1542506862334
 30
0.0
 11
644.8647988809125
 21
872.7187203072214
 31
0.0
  0
LINE
  5
142
330
1F
100
AcDbEntity
  8
0218_
  6
Continuous
 62
     3
370
     9
100
AcDbLine
 10
604.867883630701
 20
875.0419328019427
 30
0.0
 11
644.8647988809125
 21
841.479195259713
 31
0.0
  0
LINE
  5
143
330
1F
100
AcDbEntity
  8
0218_
  6
Continuous
 62
     3
370
     9
100
AcDbLine
 10
604.867883630701
 20
896.0419031091641
 30
0.0
 11
644.8647988809125
 21
862.4791655669342
 31
0.0
  0
LINE
  5
144
330
1F
100
AcDbEntity
  8
0218_
  6
Continuous
 62
     3
370
     9
100
AcDbLine
 10
604.867883630701
 20
849.4113736539276
 30
0.0
 11
644.8647988809125
 21
882.9726265572214
 31
0.0
  0
LINE
  5
145
330
1F
100
AcDbEntity
  8
0218_
  6
Continuous
 62
     3
370
     9
100
AcDbLine
 10
604.867883630701
 20
885.5420416754646
 30
0.0
 11
644.8647988809125
 21
851.9790566934123
 31
0.0
  0
LINE
  5
146
330
1F
100
AcDbEntity
  8
0218_
  6
Continuous
 62
     3
370
     9
100
AcDbLine
 10
604.867883630701
 20
859.9112350876269
 30
0.0
 11
644.8647988809125
 21
893.4724879909209
 31
0.0
  0
LINE
  5
147
330
1F
100
AcDbEntity
  8
0218_
  6
Continuous
 62
     3
370
     9
100
AcDbLine
 10
604.8644194731844
 20
880.9082361169766
 30
0.0
 11
644.8647988809125
 21
914.4724582981419
 31
0.0
  0
LINE
  5
148
330
1F
100
AcDbEntity
  8
0218_
  6
Continuous
 62
     3
370
     9
100
AcDbLine
 10
604.8644194731844
 20
891.4083449904984
 30
0.0
 11
644.8647988809125
 21
924.9725671716641
 31
0.0
  0
LINE
  5
149
330
1F
100
AcDbEntity
  8
0218_
  6
Continuous
 62
     3
370
     9
100
AcDbLine
 10
604.867883630701
 20
906.542011982686
 30
0.0
 11
644.8647988809125
 21
872.9792744404563
 31
0.0
  0
LINE
  5
14A
330
1F
100
AcDbEntity
  8
0218_
  6
Continuous
 62
     3
370
     9
100
AcDbLine
 10
604.867883630701
 20
917.0418734163852
 30
0.0
 11
644.8647988809125
 21
883.4791358741554
 31
0.0
  0
LINE
  5
14B
330
1F
100
AcDbEntity
  8
0218_
  6
Continuous
 62
     3
370
     9
100
AcDbLine
 10
604.867883630701
 20
927.5419822899073
 30
0.0
 11
644.8647988809125
 21
893.9792447476776
 31
0.0
  0
LINE
  5
14C
330
1F
100
AcDbEntity
  8
0218_
  6
Continuous
 62
     3
370
     9
100
AcDbLine
 10
922.6892419763516
 20
297.0982237119932
 30
0.0
 11
922.6892419763516
 21
356.1107656118034
 31
0.0
  0
LINE
  5
14D
330
1F
100
AcDbEntity
  8
0218_
  6
Continuous
 62
     3
370
     9
100
AcDbLine
 10
922.6892419763516
 20
216.9271025786529
 30
0.0
 11
922.6892419763516
 21
277.09716796875
 31
0.0
  0
LINE
  5
14E
330
1F
100
AcDbEntity
  8
0218_
  6
Continuous
 62
     3
370
     9
100
AcDbLine
 10
937.6900337837839
 20
297.0982237119932
 30
0.0
 11
922.6892419763516
 21
297.0982237119932
 31
0.0
  0
LINE
  5
14F
330
1F
100
AcDbEntity
  8
0218_
  6
Continuous
 62
     3
370
     9
100
AcDbLine
 10
937.6900337837839
 20
297.0982237119932
 30
0.0
 11
907.689192488387
 21
277.09716796875
 31
0.0
  0
LINE
  5
150
330
1F
100
AcDbEntity
  8
0218_
  6
Continuous
 62
     3
370
     9
100
AcDbLine
 10
922.6892419763516
 20
277.09716796875
 30
0.0
 11
907.689192488387
 21
277.09716796875
 31
0.0
  0
LINE
  5
151
330
1F
100
AcDbEntity
  8
0226_下
  6
Continuous
 62
     3
370
     9
100
AcDbLine
 10
1506.725414379223
 20
336.9820589632602
 30
0.0
 11
922.689489416174
 21
336.9820589632602
 31
0.0
  0
LINE
  5
152
330
1F
100
AcDbEntity
  8
0226_下
  6
Continuous
 62
     3
370
     9
100
AcDbLine
 10
1506.725414379223
 20
236.9818527634081
 30
0.0
 11
922.689489416174
 21
236.9818527634081
 31
0.0
  0
LINE
  5
153
330
1F
100
AcDbEntity
  8
0226_下
  6
Continuous
 62
     3
370
     9
100
AcDbLine
 10
922.689489416174
 20
329.9819863809122
 30
0.0
 11
1506.725414379223
 21
329.9819863809122
 31
0.0
  0
LINE
  5
154
330
1F
100
AcDbEntity
  8
0216_
  6
Continuous
 62
     7
370
     9
100
AcDbLine
 10
922.6892419763516
 20
407.7948822846284
 30
0.0
 11
1146.725463867188
 21
407.7948822846284
 31
0.0
  0
LINE
  5
155
330
1F
100
AcDbEntity
  8
0216_
  6
Continuous
 62
     7
370
     9
100
AcDbLine
 10
1504.494249498523
 20
406.3226153399495
 30
0.0
 11
1335.942696236275
 21
406.3226153399495
 31
0.0
  0
LINE
  5
156
330
1F
100
AcDbEntity
  8
0216_
  6
Continuous
 62
     7
370
     9
100
AcDbLine
 10
1266.602139859586
 20
336.9820589632602
 30
0.0
 11
1335.942696236275
 21
406.3226153399495
 31
0.0
  0
LINE
  5
157
330
1F
100
AcDbEntity
  8
0216_
  6
Continuous
 62
     7
370
     9
100
AcDbLine
 10
1266.602139859586
 20
336.9820589632602
 30
0.0
 11
1286.436173722551
 21
352.2010926942568
 31
0.0
  0
LINE
  5
158
330
1F
100
AcDbEntity
  8
0216_
  6
Continuous
 62
     7
370
     9
100
AcDbLine
 10
1266.602139859586
 20
336.9820589632602
 30
0.0
 11
1281.821173590583
 21
356.8158453864021
 31
0.0
  0
LINE
  5
159
330
1F
100
AcDbEntity
  8
0216_
  6
Continuous
 62
     7
370
     9
100
AcDbLine
 10
1146.725463867188
 20
410.7949664141682
 30
0.0
 11
1146.725463867188
 21
351.9821084512247
 31
0.0
  0
LINE
  5
15A
330
1F
100
AcDbEntity
  8
0216_
  6
Continuous
 62
     7
370
     9
100
AcDbLine
 10
434.8655906883448
 20
410.7949664141682
 30
0.0
 11
434.8655906883448
 21
352.3342153188347
 31
0.0
  0
LINE
  5
15B
330
1F
100
AcDbEntity
  8
0216_
  6
Continuous
 62
     7
370
     9
100
AcDbLine
 10
474.8649803367823
 20
410.7949664141682
 30
0.0
 11
474.8649803367823
 21
352.3342153188347
 31
0.0
  0
LINE
  5
15C
330
1F
100
AcDbEntity
  8
0216_
  6
Continuous
 62
     7
370
     9
100
AcDbLine
 10
474.8649803367823
 20
407.7948822846284
 30
0.0
 11
519.7656579919766
 21
407.7948822846284
 31
0.0
  0
LINE
  5
15D
330
1F
100
AcDbEntity
  8
0216_
  6
Continuous
 62
     7
370
     9
100
AcDbLine
 10
519.7656579919766
 20
410.7949664141682
 30
0.0
 11
519.7656579919766
 21
352.3342153188347
 31
0.0
  0
LINE
  5
15E
330
1F
100
AcDbEntity
  8
0216_
  6
Continuous
 62
     7
370
     9
100
AcDbLine
 10
519.7656579919766
 20
407.7948822846284
 30
0.0
 11
559.7650476404141
 21
407.7948822846284
 31
0.0
  0
LINE
  5
15F
330
1F
100
AcDbEntity
  8
0216_
  6
Continuous
 62
     7
370
     9
100
AcDbLine
 10
559.7650476404141
 20
410.7949664141682
 30
0.0
 11
559.7650476404141
 21
352.3342153188347
 31
0.0
  0
LINE
  5
160
330
1F
100
AcDbEntity
  8
0216_
  6
Continuous
 62
     7
370
     9
100
AcDbLine
 10
559.7650476404141
 20
407.7948822846284
 30
0.0
 11
604.6654778557854
 21
407.7948822846284
 31
0.0
  0
LINE
  5
161
330
1F
100
AcDbEntity
  8
0216_
  6
Continuous
 62
     7
370
     9
100
AcDbLine
 10
604.6654778557854
 20
410.7949664141682
 30
0.0
 11
604.6654778557854
 21
352.3342153188347
 31
0.0
  0
LINE
  5
162
330
1F
100
AcDbEntity
  8
0216_
  6
Continuous
 62
     7
370
     9
100
AcDbLine
 10
644.6651149440459
 20
410.7949664141682
 30
0.0
 11
644.6651149440459
 21
352.3342153188347
 31
0.0
  0
LINE
  5
163
330
1F
100
AcDbEntity
  8
0216_
  6
Continuous
 62
     7
370
     9
100
AcDbLine
 10
474.8649803367823
 20
407.7948822846284
 30
0.0
 11
434.8655906883448
 21
407.7948822846284
 31
0.0
  0
LINE
  5
164
330
1F
100
AcDbEntity
  8
0216_
  6
Continuous
 62
     7
370
     9
100
AcDbLine
 10
604.6654778557854
 20
407.7948822846284
 30
0.0
 11
644.6651149440459
 21
407.7948822846284
 31
0.0
  0
LINE
  5
165
330
1F
100
AcDbEntity
  8
0243_
  6
Continuous
 62
     3
370
     9
100
AcDbLine
 10
674.8656401763094
 20
1059.630555848818
 30
0.0
 11
404.9065667229732
 21
1059.630555848818
 31
0.0
  0
LINE
  5
166
330
1F
100
AcDbEntity
  8
0243_
  6
Continuous
 62
     3
370
     9
100
AcDbLine
 10
474.8654752164276
 20
599.6302754170188
 30
0.0
 11
474.8654752164276
 21
1059.630555848818
 31
0.0
  0
LINE
  5
167
330
1F
100
AcDbEntity
  8
0243_
  6
Continuous
 62
     3
370
     9
100
AcDbLine
 10
674.8656401763094
 20
1074.63035789696
 30
0.0
 11
404.9065667229732
 21
1074.63035789696
 31
0.0
  0
LINE
  5
168
330
1F
100
AcDbEntity
  8
0216_
  6
Continuous
 62
     7
370
     9
100
AcDbLine
 10
454.8656566722974
 20
1144.807508313978
 30
0.0
 11
539.8651947846287
 21
1144.807508313978
 31
0.0
  0
LINE
  5
169
330
1F
100
AcDbEntity
  8
0216_
  6
Continuous
 62
     7
370
     9
100
AcDbLine
 10
454.8656566722974
 20
1147.807468723607
 30
0.0
 11
454.8656566722974
 21
1099.6304403769
 31
0.0
  0
LINE
  5
16A
330
1F
100
AcDbEntity
  8
0216_
  6
Continuous
 62
     7
370
     9
100
AcDbLine
 10
539.8651947846287
 20
1147.807468723607
 30
0.0
 11
539.8651947846287
 21
1099.6304403769
 31
0.0
  0
LINE
  5
16B
330
1F
100
AcDbEntity
  8
0216_
  6
Continuous
 62
     7
370
     9
100
AcDbLine
 10
539.8651947846287
 20
1144.807508313978
 30
0.0
 11
624.8664649757183
 21
1144.807508313978
 31
0.0
  0
LINE
  5
16C
330
1F
100
AcDbEntity
  8
0216_
  6
Continuous
 62
     7
370
     9
100
AcDbLine
 10
624.8664649757183
 20
1147.807468723607
 30
0.0
 11
624.8664649757183
 21
1099.6304403769
 31
0.0
  0
LINE
  5
16D
330
1F
100
AcDbEntity
  8
0242_
  6
Continuous
 62
     4
370
     9
100
AcDbLine
 10
499.3654818148229
 20
1245.943339579815
 30
0.0
 11
495.3656170819261
 21
1245.943339579815
 31
0.0
  0
LINE
  5
16E
330
1F
100
AcDbEntity
  8
0242_
  6
Continuous
 62
     4
370
     9
100
AcDbLine
 10
495.3656170819261
 20
1245.943339579815
 30
0.0
 11
495.3656170819261
 21
1285.94347154772
 31
0.0
  0
LINE
  5
16F
330
1F
100
AcDbEntity
  8
0242_
  6
Continuous
 62
     4
370
     9
100
AcDbLine
 10
495.3656170819261
 20
1285.94347154772
 30
0.0
 11
499.3654818148229
 21
1285.94347154772
 31
0.0
  0
LINE
  5
170
330
1F
100
AcDbEntity
  8
0242_
  6
Continuous
 62
     4
370
     9
100
AcDbLine
 10
499.3654818148229
 20
1285.94347154772
 30
0.0
 11
499.3654818148229
 21
1245.943339579815
 31
0.0
  0
LINE
  5
171
330
1F
100
AcDbEntity
  8
0242_
  6
Continuous
 62
     4
370
     9
100
AcDbLine
 10
507.0316623997047
 20
1266.924504460515
 30
0.0
 11
571.2826290646115
 21
1266.924504460515
 31
0.0
  0
LINE
  5
172
330
1F
100
AcDbEntity
  8
0242_
  6
Continuous
 62
     4
370
     9
100
AcDbLine
 10
507.0316623997047
 20
1266.924504460515
 30
0.0
 11
546.8194909997891
 21
1263.661268079603
 31
0.0
  0
LINE
  5
173
330
1F
100
AcDbEntity
  8
0242_
  6
Continuous
 62
     4
370
     9
100
AcDbLine
 10
507.0316623997047
 20
1266.924504460515
 30
0.0
 11
546.8194909997891
 21
1270.187493401605
 31
0.0
  0
LINE
  5
174
330
1F
100
AcDbEntity
  8
0242_
  6
JWW_CENTER1
 62
     4
370
     9
100
AcDbLine
 10
497.365425728463
 20
1245.943339579815
 30
0.0
 11
497.365425728463
 21
1208.640054238809
 31
0.0
  0
LINE
  5
175
330
1F
100
AcDbEntity
  8
0242_
  6
Continuous
 62
     7
370
     9
100
AcDbLine
 10
700.0369510135135
 20
877.2196506809544
 30
0.0
 11
938.9542038376271
 21
877.2196506809544
 31
0.0
  0
LINE
  5
176
330
1F
100
AcDbEntity
  8
0242_
  6
Continuous
 62
     7
370
     9
100
AcDbLine
 10
644.8647988809125
 20
822.0474985483531
 30
0.0
 11
700.0369510135135
 21
877.2196506809544
 31
0.0
  0
LINE
  5
177
330
1F
100
AcDbEntity
  8
0242_
  6
Continuous
 62
     7
370
     9
100
AcDbLine
 10
644.8647988809125
 20
822.0474985483531
 30
0.0
 11
664.6985853040542
 21
837.2665322793498
 31
0.0
  0
LINE
  5
178
330
1F
100
AcDbEntity
  8
0242_
  6
Continuous
 62
     7
370
     9
100
AcDbLine
 10
644.8647988809125
 20
822.0474985483531
 30
0.0
 11
660.0838326119089
 21
841.881284971495
 31
0.0
  0
LINE
  5
179
330
1F
100
AcDbEntity
  8
0218_
  6
Continuous
 62
     3
370
     9
100
AcDbLine
 10
434.8618790910052
 20
901.9082064241977
 30
0.0
 11
474.8654752164276
 21
935.4751504434123
 31
0.0
  0
LINE
  5
17A
330
1F
100
AcDbEntity
  8
0218_
  6
Continuous
 62
     3
370
     9
100
AcDbLine
 10
434.8618790910052
 20
933.4082856049408
 30
0.0
 11
474.8654752164276
 21
966.9752296241554
 31
0.0
  0
LINE
  5
17B
330
1F
100
AcDbEntity
  8
0218_
  6
Continuous
 62
     3
370
     9
100
AcDbLine
 10
434.8655906883448
 20
938.0418437236065
 30
0.0
 11
474.8654752164276
 21
904.4763843433279
 31
0.0
  0
LINE
  5
17C
330
1F
100
AcDbEntity
  8
0218_
  6
Continuous
 62
     3
370
     9
100
AcDbLine
 10
434.8655906883448
 20
959.0420614706505
 30
0.0
 11
474.8654752164276
 21
925.4766020903717
 31
0.0
  0
LINE
  5
17D
330
1F
100
AcDbEntity
  8
0218_
  6
Continuous
 62
     3
370
     9
100
AcDbLine
 10
434.8655906883448
 20
948.5419525971283
 30
0.0
 11
474.8654752164276
 21
914.9764932168498
 31
0.0
  0
LINE
  5
17E
330
1F
100
AcDbEntity
  8
0218_
  6
Continuous
 62
     3
370
     9
100
AcDbLine
 10
434.8655906883448
 20
912.4112845755915
 30
0.0
 11
474.8654752164276
 21
945.9752593169344
 31
0.0
  0
LINE
  5
17F
330
1F
100
AcDbEntity
  8
0218_
  6
Continuous
 62
     3
370
     9
100
AcDbLine
 10
434.8655906883448
 20
922.9111460092906
 30
0.0
 11
474.8654752164276
 21
956.4751207506336
 31
0.0
  0
LINE
  5
180
330
1F
100
AcDbEntity
  8
0218_
  6
Continuous
 62
     3
370
     9
100
AcDbLine
 10
519.8619120829818
 20
901.9082064241977
 30
0.0
 11
559.864765888936
 21
935.4746555637669
 31
0.0
  0
LINE
  5
181
330
1F
100
AcDbEntity
  8
0218_
  6
Continuous
 62
     3
370
     9
100
AcDbLine
 10
519.8656236803208
 20
938.0418437236065
 30
0.0
 11
559.864765888936
 21
904.4771266627959
 31
0.0
  0
LINE
  5
182
330
1F
100
AcDbEntity
  8
0218_
  6
Continuous
 62
     3
370
     9
100
AcDbLine
 10
519.8656236803208
 20
959.0420614706505
 30
0.0
 11
559.864765888936
 21
925.4770969700169
 31
0.0
  0
LINE
  5
183
330
1F
100
AcDbEntity
  8
0218_
  6
Continuous
 62
     3
370
     9
100
AcDbLine
 10
519.8656236803208
 20
948.5419525971283
 30
0.0
 11
559.864765888936
 21
914.976988096495
 31
0.0
  0
LINE
  5
184
330
1F
100
AcDbEntity
  8
0218_
  6
Continuous
 62
     3
370
     9
100
AcDbLine
 10
519.8656236803208
 20
912.4112845755915
 30
0.0
 11
559.864765888936
 21
945.9745169974665
 31
0.0
  0
LINE
  5
185
330
1F
100
AcDbEntity
  8
0218_
  6
Continuous
 62
     3
370
     9
100
AcDbLine
 10
519.8656236803208
 20
922.9111460092906
 30
0.0
 11
559.864765888936
 21
956.4746258709883
 31
0.0
  0
LINE
  5
186
330
1F
100
AcDbEntity
  8
0218_
  6
Continuous
 62
     3
370
     9
100
AcDbLine
 10
519.8619120829818
 20
933.4082856049408
 30
0.0
 11
559.864765888936
 21
966.9744873046875
 31
0.0
  0
LINE
  5
187
330
1F
100
AcDbEntity
  8
0218_
  6
Continuous
 62
     3
370
     9
100
AcDbLine
 10
604.8644194731844
 20
933.4082856049408
 30
0.0
 11
644.8647988809125
 21
966.9725077861065
 31
0.0
  0
LINE
  5
188
330
1F
100
AcDbEntity
  8
0218_
  6
Continuous
 62
     3
370
     9
100
AcDbLine
 10
604.8644194731844
 20
901.9082064241977
 30
0.0
 11
644.8647988809125
 21
935.4724286053633
 31
0.0
  0
LINE
  5
189
330
1F
100
AcDbEntity
  8
0218_
  6
Continuous
 62
     3
370
     9
100
AcDbLine
 10
604.867883630701
 20
938.0418437236065
 30
0.0
 11
644.8647988809125
 21
904.4791061813769
 31
0.0
  0
LINE
  5
18A
330
1F
100
AcDbEntity
  8
0218_
  6
Continuous
 62
     3
370
     9
100
AcDbLine
 10
604.867883630701
 20
912.4112845755915
 30
0.0
 11
644.8647988809125
 21
945.9725374788852
 31
0.0
  0
LINE
  5
18B
330
1F
100
AcDbEntity
  8
0218_
  6
Continuous
 62
     3
370
     9
100
AcDbLine
 10
604.867883630701
 20
922.9111460092906
 30
0.0
 11
644.8647988809125
 21
956.4723989125846
 31
0.0
  0
LINE
  5
18C
330
1F
100
AcDbEntity
  8
0218_
  6
Continuous
 62
     3
370
     9
100
AcDbLine
 10
604.867883630701
 20
948.5419525971283
 30
0.0
 11
644.8647988809125
 21
914.9792150548988
 31
0.0
  0
LINE
  5
18D
330
1F
100
AcDbEntity
  8
0218_
  6
Continuous
 62
     3
370
     9
100
AcDbLine
 10
434.8655906883448
 20
969.5419229043498
 30
0.0
 11
474.8654752164276
 21
935.976463524071
 31
0.0
  0
LINE
  5
18E
330
1F
100
AcDbEntity
  8
0218_
  6
Continuous
 62
     3
370
     9
100
AcDbLine
 10
434.8655906883448
 20
980.0420317778719
 30
0.0
 11
474.8654752164276
 21
946.4765723975929
 31
0.0
  0
LINE
  5
18F
330
1F
100
AcDbEntity
  8
0218_
  6
Continuous
 62
     3
370
     9
100
AcDbLine
 10
434.8655906883448
 20
990.541893211571
 30
0.0
 11
474.8654752164276
 21
956.9764338312925
 31
0.0
  0
LINE
  5
190
330
1F
100
AcDbEntity
  8
0218_
  6
Continuous
 62
     3
370
     9
100
AcDbLine
 10
434.8655906883448
 20
1001.042002085093
 30
0.0
 11
474.8654752164276
 21
967.4765427048144
 31
0.0
  0
LINE
  5
191
330
1F
100
AcDbEntity
  8
0218_
  6
Continuous
 62
     3
370
     9
100
AcDbLine
 10
434.8655906883448
 20
1011.541863518793
 30
0.0
 11
474.8654752164276
 21
977.9764041385135
 31
0.0
  0
LINE
  5
192
330
1F
100
AcDbEntity
  8
0218_
  6
Continuous
 62
     3
370
     9
100
AcDbLine
 10
434.8655906883448
 20
1022.041972392314
 30
0.0
 11
474.8654752164276
 21
988.4765130120356
 31
0.0
  0
LINE
  5
193
330
1F
100
AcDbEntity
  8
0218_
  6
Continuous
 62
     3
370
     9
100
AcDbLine
 10
434.8655906883448
 20
1032.541833826014
 30
0.0
 11
474.8654752164276
 21
998.9763744457349
 31
0.0
  0
LINE
  5
194
330
1F
100
AcDbEntity
  8
0218_
  6
Continuous
 62
     3
370
     9
100
AcDbLine
 10
434.8655906883448
 20
1043.041942699536
 30
0.0
 11
474.8654752164276
 21
1009.476483319257
 31
0.0
  0
LINE
  5
195
330
1F
100
AcDbEntity
  8
0218_
  6
Continuous
 62
     3
370
     9
100
AcDbLine
 10
434.8655906883448
 20
1053.542051573058
 30
0.0
 11
474.8654752164276
 21
1019.976592192779
 31
0.0
  0
LINE
  5
196
330
1F
100
AcDbEntity
  8
0218_
  6
Continuous
 62
     3
370
     9
100
AcDbLine
 10
434.8618790910052
 20
943.9081470386404
 30
0.0
 11
474.8654752164276
 21
977.475091057855
 31
0.0
  0
LINE
  5
197
330
1F
100
AcDbEntity
  8
0218_
  6
Continuous
 62
     3
370
     9
100
AcDbLine
 10
434.8618790910052
 20
954.4082559121623
 30
0.0
 11
474.8654752164276
 21
987.9751999313769
 31
0.0
  0
LINE
  5
198
330
1F
100
AcDbEntity
  8
0218_
  6
Continuous
 62
     3
370
     9
100
AcDbLine
 10
434.8618790910052
 20
964.9083647856844
 30
0.0
 11
474.8654752164276
 21
998.4753088048988
 31
0.0
  0
LINE
  5
199
330
1F
100
AcDbEntity
  8
0218_
  6
Continuous
 62
     3
370
     9
100
AcDbLine
 10
434.8618790910052
 20
975.4082262193836
 30
0.0
 11
474.8654752164276
 21
1008.975170238598
 31
0.0
  0
LINE
  5
19A
330
1F
100
AcDbEntity
  8
0218_
  6
Continuous
 62
     3
370
     9
100
AcDbLine
 10
434.8618790910052
 20
985.9083350929054
 30
0.0
 11
474.8654752164276
 21
1019.47527911212
 31
0.0
  0
LINE
  5
19B
330
1F
100
AcDbEntity
  8
0218_
  6
Continuous
 62
     3
370
     9
100
AcDbLine
 10
434.8618790910052
 20
996.408196526605
 30
0.0
 11
474.8654752164276
 21
1029.975140545819
 31
0.0
  0
LINE
  5
19C
330
1F
100
AcDbEntity
  8
0218_
  6
Continuous
 62
     3
370
     9
100
AcDbLine
 10
434.8618790910052
 20
1006.908305400127
 30
0.0
 11
474.8654752164276
 21
1040.475249419341
 31
0.0
  0
LINE
  5
19D
330
1F
100
AcDbEntity
  8
0218_
  6
Continuous
 62
     3
370
     9
100
AcDbLine
 10
434.8618790910052
 20
1017.408166833826
 30
0.0
 11
474.8654752164276
 21
1050.975110853041
 31
0.0
  0
LINE
  5
19E
330
1F
100
AcDbEntity
  8
0218_
  6
Continuous
 62
     3
370
     9
100
AcDbLine
 10
519.8619120829818
 20
943.9081470386404
 30
0.0
 11
559.864765888936
 21
977.4745961782096
 31
0.0
  0
LINE
  5
19F
330
1F
100
AcDbEntity
  8
0218_
  6
Continuous
 62
     3
370
     9
100
AcDbLine
 10
519.8619120829818
 20
954.4082559121623
 30
0.0
 11
559.864765888936
 21
987.9747050517315
 31
0.0
  0
LINE
  5
1A0
330
1F
100
AcDbEntity
  8
0218_
  6
Continuous
 62
     3
370
     9
100
AcDbLine
 10
519.8619120829818
 20
964.9083647856844
 30
0.0
 11
559.864765888936
 21
998.4745664854311
 31
0.0
  0
LINE
  5
1A1
330
1F
100
AcDbEntity
  8
0218_
  6
Continuous
 62
     3
370
     9
100
AcDbLine
 10
519.8619120829818
 20
975.4082262193836
 30
0.0
 11
559.864765888936
 21
1008.974675358953
 31
0.0
  0
LINE
  5
1A2
330
1F
100
AcDbEntity
  8
0218_
  6
Continuous
 62
     3
370
     9
100
AcDbLine
 10
519.8619120829818
 20
985.9083350929054
 30
0.0
 11
559.864765888936
 21
1019.474536792652
 31
0.0
  0
LINE
  5
1A3
330
1F
100
AcDbEntity
  8
0218_
  6
Continuous
 62
     3
370
     9
100
AcDbLine
 10
519.8619120829818
 20
996.408196526605
 30
0.0
 11
559.864765888936
 21
1029.974645666174
 31
0.0
  0
LINE
  5
1A4
330
1F
100
AcDbEntity
  8
0218_
  6
Continuous
 62
     3
370
     9
100
AcDbLine
 10
519.8619120829818
 20
1006.908305400127
 30
0.0
 11
559.864765888936
 21
1040.474507099873
 31
0.0
  0
LINE
  5
1A5
330
1F
100
AcDbEntity
  8
0218_
  6
Continuous
 62
     3
370
     9
100
AcDbLine
 10
519.8619120829818
 20
1017.408166833826
 30
0.0
 11
559.864765888936
 21
1050.974615973395
 31
0.0
  0
LINE
  5
1A6
330
1F
100
AcDbEntity
  8
0218_
  6
Continuous
 62
     3
370
     9
100
AcDbLine
 10
519.8656236803208
 20
969.5419229043498
 30
0.0
 11
559.864765888936
 21
935.9772058435391
 31
0.0
  0
LINE
  5
1A7
330
1F
100
AcDbEntity
  8
0218_
  6
Continuous
 62
     3
370
     9
100
AcDbLine
 10
519.8656236803208
 20
980.0420317778719
 30
0.0
 11
559.864765888936
 21
946.4770672772383
 31
0.0
  0
LINE
  5
1A8
330
1F
100
AcDbEntity
  8
0218_
  6
Continuous
 62
     3
370
     9
100
AcDbLine
 10
519.8656236803208
 20
990.541893211571
 30
0.0
 11
559.864765888936
 21
956.9771761507602
 31
0.0
  0
LINE
  5
1A9
330
1F
100
AcDbEntity
  8
0218_
  6
Continuous
 62
     3
370
     9
100
AcDbLine
 10
519.8656236803208
 20
1001.042002085093
 30
0.0
 11
559.864765888936
 21
967.4770375844596
 31
0.0
  0
LINE
  5
1AA
330
1F
100
AcDbEntity
  8
0218_
  6
Continuous
 62
     3
370
     9
100
AcDbLine
 10
519.8656236803208
 20
1011.541863518793
 30
0.0
 11
559.864765888936
 21
977.9771464579815
 31
0.0
  0
LINE
  5
1AB
330
1F
100
AcDbEntity
  8
0218_
  6
Continuous
 62
     3
370
     9
100
AcDbLine
 10
519.8656236803208
 20
1022.041972392314
 30
0.0
 11
559.864765888936
 21
988.4770078916811
 31
0.0
  0
LINE
  5
1AC
330
1F
100
AcDbEntity
  8
0218_
  6
Continuous
 62
     3
370
     9
100
AcDbLine
 10
519.8656236803208
 20
1032.541833826014
 30
0.0
 11
559.864765888936
 21
998.9771167652029
 31
0.0
  0
LINE
  5
1AD
330
1F
100
AcDbEntity
  8
0218_
  6
Continuous
 62
     3
370
     9
100
AcDbLine
 10
519.8656236803208
 20
1043.041942699536
 30
0.0
 11
559.864765888936
 21
1009.476978198902
 31
0.0
  0
LINE
  5
1AE
330
1F
100
AcDbEntity
  8
0218_
  6
Continuous
 62
     3
370
     9
100
AcDbLine
 10
519.8656236803208
 20
1053.542051573058
 30
0.0
 11
559.864765888936
 21
1019.977087072424
 31
0.0
  0
LINE
  5
1AF
330
1F
100
AcDbEntity
  8
0218_
  6
Continuous
 62
     3
370
     9
100
AcDbLine
 10
604.8644194731844
 20
943.9081470386404
 30
0.0
 11
644.8647988809125
 21
977.4726166596283
 31
0.0
  0
LINE
  5
1B0
330
1F
100
AcDbEntity
  8
0218_
  6
Continuous
 62
     3
370
     9
100
AcDbLine
 10
604.8644194731844
 20
954.4082559121623
 30
0.0
 11
644.8647988809125
 21
987.9724780933279
 31
0.0
  0
LINE
  5
1B1
330
1F
100
AcDbEntity
  8
0218_
  6
Continuous
 62
     3
370
     9
100
AcDbLine
 10
604.8644194731844
 20
964.9083647856844
 30
0.0
 11
644.8647988809125
 21
998.4725869668498
 31
0.0
  0
LINE
  5
1B2
330
1F
100
AcDbEntity
  8
0218_
  6
Continuous
 62
     3
370
     9
100
AcDbLine
 10
604.8644194731844
 20
975.4082262193836
 30
0.0
 11
644.8647988809125
 21
1008.972448400549
 31
0.0
  0
LINE
  5
1B3
330
1F
100
AcDbEntity
  8
0218_
  6
Continuous
 62
     3
370
     9
100
AcDbLine
 10
604.8644194731844
 20
985.9083350929054
 30
0.0
 11
644.8647988809125
 21
1019.472557274071
 31
0.0
  0
LINE
  5
1B4
330
1F
100
AcDbEntity
  8
0218_
  6
Continuous
 62
     3
370
     9
100
AcDbLine
 10
604.8644194731844
 20
996.408196526605
 30
0.0
 11
644.8647988809125
 21
1029.97241870777
 31
0.0
  0
LINE
  5
1B5
330
1F
100
AcDbEntity
  8
0218_
  6
Continuous
 62
     3
370
     9
100
AcDbLine
 10
604.8644194731844
 20
1006.908305400127
 30
0.0
 11
644.8647988809125
 21
1040.472527581293
 31
0.0
  0
LINE
  5
1B6
330
1F
100
AcDbEntity
  8
0218_
  6
Continuous
 62
     3
370
     9
100
AcDbLine
 10
604.8644194731844
 20
1017.408166833826
 30
0.0
 11
644.8647988809125
 21
1050.972636454814
 31
0.0
  0
LINE
  5
1B7
330
1F
100
AcDbEntity
  8
0218_
  6
Continuous
 62
     3
370
     9
100
AcDbLine
 10
604.867883630701
 20
969.5419229043498
 30
0.0
 11
644.8647988809125
 21
935.97918536212
 31
0.0
  0
LINE
  5
1B8
330
1F
100
AcDbEntity
  8
0218_
  6
Continuous
 62
     3
370
     9
100
AcDbLine
 10
604.867883630701
 20
980.0420317778719
 30
0.0
 11
644.8647988809125
 21
946.4792942356419
 31
0.0
  0
LINE
  5
1B9
330
1F
100
AcDbEntity
  8
0218_
  6
Continuous
 62
     3
370
     9
100
AcDbLine
 10
604.867883630701
 20
990.541893211571
 30
0.0
 11
644.8647988809125
 21
956.9791556693415
 31
0.0
  0
LINE
  5
1BA
330
1F
100
AcDbEntity
  8
0218_
  6
Continuous
 62
     3
370
     9
100
AcDbLine
 10
604.867883630701
 20
1001.042002085093
 30
0.0
 11
644.8647988809125
 21
967.4792645428633
 31
0.0
  0
LINE
  5
1BB
330
1F
100
AcDbEntity
  8
0218_
  6
Continuous
 62
     3
370
     9
100
AcDbLine
 10
604.867883630701
 20
1011.541863518793
 30
0.0
 11
644.8647988809125
 21
977.9791259765625
 31
0.0
  0
LINE
  5
1BC
330
1F
100
AcDbEntity
  8
0218_
  6
Continuous
 62
     3
370
     9
100
AcDbLine
 10
604.867883630701
 20
1022.041972392314
 30
0.0
 11
644.8647988809125
 21
988.4792348500846
 31
0.0
  0
LINE
  5
1BD
330
1F
100
AcDbEntity
  8
0218_
  6
Continuous
 62
     3
370
     9
100
AcDbLine
 10
604.867883630701
 20
1032.541833826014
 30
0.0
 11
644.8647988809125
 21
998.9790962837839
 31
0.0
  0
LINE
  5
1BE
330
1F
100
AcDbEntity
  8
0218_
  6
Continuous
 62
     3
370
     9
100
AcDbLine
 10
604.867883630701
 20
1043.041942699536
 30
0.0
 11
644.8647988809125
 21
1009.479205157306
 31
0.0
  0
LINE
  5
1BF
330
1F
100
AcDbEntity
  8
0218_
  6
Continuous
 62
     3
370
     9
100
AcDbLine
 10
604.867883630701
 20
1053.542051573058
 30
0.0
 11
644.8647988809125
 21
1019.979066591005
 31
0.0
  0
LINE
  5
1C0
330
1F
100
AcDbEntity
  8
0243_
  6
Continuous
 62
     3
370
     9
100
AcDbLine
 10
434.8655906883448
 20
599.6302754170188
 30
0.0
 11
434.8655906883448
 21
1059.630555848818
 31
0.0
  0
LINE
  5
1C1
330
1F
100
AcDbEntity
  8
0218_
  6
Continuous
 62
     3
370
     9
100
AcDbLine
 10
434.8618790910052
 20
1027.908275707348
 30
0.0
 11
472.667219832137
 21
1059.630555848818
 31
0.0
  0
LINE
  5
1C2
330
1F
100
AcDbEntity
  8
0218_
  6
Continuous
 62
     3
370
     9
100
AcDbLine
 10
440.1224497202281
 20
1059.630555848818
 30
0.0
 11
474.8654752164276
 21
1030.476453626478
 31
0.0
  0
LINE
  5
1C3
330
1F
100
AcDbEntity
  8
0218_
  6
Continuous
 62
     3
370
     9
100
AcDbLine
 10
452.635481550887
 20
1059.630555848818
 30
0.0
 11
474.8654752164276
 21
1040.9765625
 31
0.0
  0
LINE
  5
1C4
330
1F
100
AcDbEntity
  8
0218_
  6
Continuous
 62
     3
370
     9
100
AcDbLine
 10
465.1482659417229
 20
1059.630555848818
 30
0.0
 11
474.8654752164276
 21
1051.4764239337
 31
0.0
  0
LINE
  5
1C5
330
1F
100
AcDbEntity
  8
0218_
  6
Continuous
 62
     3
370
     9
100
AcDbLine
 10
434.8618790910052
 20
1038.408137141048
 30
0.0
 11
460.1536931218328
 21
1059.630555848818
 31
0.0
  0
LINE
  5
1C6
330
1F
100
AcDbEntity
  8
0218_
  6
Continuous
 62
     3
370
     9
100
AcDbLine
 10
434.8618790910052
 20
1048.908246014569
 30
0.0
 11
447.6404138513516
 21
1059.630555848818
 31
0.0
  0
LINE
  5
1C7
330
1F
100
AcDbEntity
  8
0243_
  6
Continuous
 62
     3
370
     9
100
AcDbLine
 10
519.8656236803208
 20
599.6302754170188
 30
0.0
 11
519.8656236803208
 21
1059.630555848818
 31
0.0
  0
LINE
  5
1C8
330
1F
100
AcDbEntity
  8
0243_
  6
Continuous
 62
     3
370
     9
100
AcDbLine
 10
559.864765888936
 20
599.6302754170188
 30
0.0
 11
559.864765888936
 21
1059.630555848818
 31
0.0
  0
LINE
  5
1C9
330
1F
100
AcDbEntity
  8
0218_
  6
Continuous
 62
     3
370
     9
100
AcDbLine
 10
550.1482989336995
 20
1059.630555848818
 30
0.0
 11
559.864765888936
 21
1051.477166253168
 31
0.0
  0
LINE
  5
1CA
330
1F
100
AcDbEntity
  8
0218_
  6
Continuous
 62
     3
370
     9
100
AcDbLine
 10
519.8619120829818
 20
1027.908275707348
 30
0.0
 11
557.6672528241136
 21
1059.630555848818
 31
0.0
  0
LINE
  5
1CB
330
1F
100
AcDbEntity
  8
0218_
  6
Continuous
 62
     3
370
     9
100
AcDbLine
 10
519.8619120829818
 20
1038.408137141048
 30
0.0
 11
545.1537261138094
 21
1059.630555848818
 31
0.0
  0
LINE
  5
1CC
330
1F
100
AcDbEntity
  8
0218_
  6
Continuous
 62
     3
370
     9
100
AcDbLine
 10
525.1224827122047
 20
1059.630555848818
 30
0.0
 11
559.864765888936
 21
1030.477195945946
 31
0.0
  0
LINE
  5
1CD
330
1F
100
AcDbEntity
  8
0218_
  6
Continuous
 62
     3
370
     9
100
AcDbLine
 10
537.6355145428636
 20
1059.630555848818
 30
0.0
 11
559.864765888936
 21
1040.977057379645
 31
0.0
  0
LINE
  5
1CE
330
1F
100
AcDbEntity
  8
0218_
  6
Continuous
 62
     3
370
     9
100
AcDbLine
 10
604.8644194731844
 20
1059.408354888091
 30
0.0
 11
605.1294275232266
 21
1059.630555848818
 31
0.0
  0
LINE
  5
1CF
330
1F
100
AcDbEntity
  8
0218_
  6
Continuous
 62
     3
370
     9
100
AcDbLine
 10
604.8644194731844
 20
1027.908275707348
 30
0.0
 11
642.6695127744932
 21
1059.630555848818
 31
0.0
  0
LINE
  5
1D0
330
1F
100
AcDbEntity
  8
0218_
  6
Continuous
 62
     3
370
     9
100
AcDbLine
 10
604.8644194731844
 20
1038.408137141048
 30
0.0
 11
630.156233504012
 21
1059.630555848818
 31
0.0
  0
LINE
  5
1D1
330
1F
100
AcDbEntity
  8
0218_
  6
Continuous
 62
     3
370
     9
100
AcDbLine
 10
604.8644194731844
 20
1048.908246014569
 30
0.0
 11
617.6427067937078
 21
1059.630555848818
 31
0.0
  0
LINE
  5
1D2
330
1F
100
AcDbEntity
  8
0218_
  6
Continuous
 62
     3
370
     9
100
AcDbLine
 10
610.1249901024073
 20
1059.630555848818
 30
0.0
 11
644.8647988809125
 21
1030.479175464527
 31
0.0
  0
LINE
  5
1D3
330
1F
100
AcDbEntity
  8
0218_
  6
Continuous
 62
     3
370
     9
100
AcDbLine
 10
622.6377744932432
 20
1059.630555848818
 30
0.0
 11
644.8647988809125
 21
1040.979284338049
 31
0.0
  0
LINE
  5
1D4
330
1F
100
AcDbEntity
  8
0218_
  6
Continuous
 62
     3
370
     9
100
AcDbLine
 10
635.1508063239021
 20
1059.630555848818
 30
0.0
 11
644.8647988809125
 21
1051.479145771748
 31
0.0
  0
LINE
  5
1D5
330
1F
100
AcDbEntity
  8
0218_
  6
Continuous
 62
     3
370
     9
100
AcDbLine
 10
519.8619120829818
 20
1059.408354888091
 30
0.0
 11
520.126920133024
 21
1059.630555848818
 31
0.0
  0
LINE
  5
1D6
330
1F
100
AcDbEntity
  8
0218_
  6
Continuous
 62
     3
370
     9
100
AcDbLine
 10
434.8618790910052
 20
1059.408354888091
 30
0.0
 11
435.1268871410474
 21
1059.630555848818
 31
0.0
  0
LINE
  5
1D7
330
1F
100
AcDbEntity
  8
0242_
  6
Continuous
 62
     7
370
     9
100
AcDbLine
 10
1123.747459617821
 20
54.83756400443411
 30
0.0
 11
1320.667493665541
 21
54.83756400443411
 31
0.0
  0
LINE
  5
1D8
330
1F
100
AcDbEntity
  8
0218_
  6
JWW_CENTER1
 62
     3
370
     9
100
AcDbLine
 10
1173.232949746622
 20
283.9820573136615
 30
0.0
 11
1120.217483108108
 21
283.9820573136615
 31
0.0
  0
LINE
  5
1D9
330
1F
100
AcDbEntity
  8
0218_
  6
JWW_CENTER1
 62
     3
370
     9
100
AcDbLine
 10
1146.725463867188
 20
257.4749425939612
 30
0.0
 11
1146.725463867188
 21
310.4902855125636
 31
0.0
  0
LINE
  5
1DA
330
1F
100
AcDbEntity
  8
0216_
  6
Continuous
 62
     7
370
     9
100
AcDbLine
 10
1445.578085409629
 20
156.4375923775339
 30
0.0
 11
1274.270299963049
 21
156.4375923775339
 31
0.0
  0
LINE
  5
1DB
330
1F
100
AcDbEntity
  8
0243_
  6
JWW_CENTER1
 62
     3
370
     9
100
AcDbLine
 10
404.9065667229732
 20
699.6303578969596
 30
0.0
 11
674.8656401763094
 21
699.6303578969596
 31
0.0
  0
LINE
  5
1DC
330
1F
100
AcDbEntity
  8
0243_
  6
Continuous
 62
     3
370
     9
100
AcDbLine
 10
404.9065667229732
 20
714.6304073849242
 30
0.0
 11
434.8655906883448
 21
714.6304073849242
 31
0.0
  0
LINE
  5
1DD
330
1F
100
AcDbEntity
  8
0243_
  6
Continuous
 62
     3
370
     9
100
AcDbLine
 10
404.9065667229732
 20
684.630308408995
 30
0.0
 11
434.8655906883448
 21
684.630308408995
 31
0.0
  0
LINE
  5
1DE
330
1F
100
AcDbEntity
  8
0243_
  6
Continuous
 62
     3
370
     9
100
AcDbLine
 10
474.8654752164276
 20
714.6304073849242
 30
0.0
 11
519.8656236803208
 21
714.6304073849242
 31
0.0
  0
LINE
  5
1DF
330
1F
100
AcDbEntity
  8
0243_
  6
Continuous
 62
     3
370
     9
100
AcDbLine
 10
474.8654752164276
 20
684.630308408995
 30
0.0
 11
519.8656236803208
 21
684.630308408995
 31
0.0
  0
LINE
  5
1E0
330
1F
100
AcDbEntity
  8
0243_
  6
Continuous
 62
     3
370
     9
100
AcDbLine
 10
559.864765888936
 20
714.6304073849242
 30
0.0
 11
604.867883630701
 21
714.6304073849242
 31
0.0
  0
LINE
  5
1E1
330
1F
100
AcDbEntity
  8
0243_
  6
Continuous
 62
     3
370
     9
100
AcDbLine
 10
644.8647988809125
 20
714.6304073849242
 30
0.0
 11
674.8656401763094
 21
714.6304073849242
 31
0.0
  0
LINE
  5
1E2
330
1F
100
AcDbEntity
  8
0243_
  6
Continuous
 62
     3
370
     9
100
AcDbLine
 10
559.864765888936
 20
684.630308408995
 30
0.0
 11
604.867883630701
 21
684.630308408995
 31
0.0
  0
LINE
  5
1E3
330
1F
100
AcDbEntity
  8
0243_
  6
Continuous
 62
     3
370
     9
100
AcDbLine
 10
644.8647988809125
 20
684.630308408995
 30
0.0
 11
674.8656401763094
 21
684.630308408995
 31
0.0
  0
LINE
  5
1E4
330
1F
100
AcDbEntity
  8
0243_
  6
JWW_CENTER1
 62
     3
370
     9
100
AcDbLine
 10
398.1653161951016
 20
284.1355937236065
 30
0.0
 11
681.5645784945104
 21
284.1355937236065
 31
0.0
  0
LINE
  5
1E5
330
1F
100
AcDbEntity
  8
0243_
  6
Continuous
 62
     3
370
     9
100
AcDbLine
 10
398.1653161951016
 20
299.1356432115711
 30
0.0
 11
451.3651255014781
 21
299.1356432115711
 31
0.0
  0
LINE
  5
1E6
330
1F
100
AcDbEntity
  8
0243_
  6
Continuous
 62
     3
370
     9
100
AcDbLine
 10
398.1653161951016
 20
269.1355442356419
 30
0.0
 11
451.3651255014781
 21
269.1355442356419
 31
0.0
  0
LINE
  5
1E7
330
1F
100
AcDbEntity
  8
0243_
  6
Continuous
 62
     3
370
     9
100
AcDbLine
 10
458.3654455236487
 20
299.1356432115711
 30
0.0
 11
536.3651584934547
 21
299.1356432115711
 31
0.0
  0
LINE
  5
1E8
330
1F
100
AcDbEntity
  8
0243_
  6
Continuous
 62
     3
370
     9
100
AcDbLine
 10
458.3654455236487
 20
269.1355442356419
 30
0.0
 11
536.3651584934547
 21
269.1355442356419
 31
0.0
  0
LINE
  5
1E9
330
1F
100
AcDbEntity
  8
0243_
  6
Continuous
 62
     3
370
     9
100
AcDbLine
 10
543.365478515625
 20
299.1356432115711
 30
0.0
 11
621.364449165963
 21
299.1356432115711
 31
0.0
  0
LINE
  5
1EA
330
1F
100
AcDbEntity
  8
0243_
  6
Continuous
 62
     3
370
     9
100
AcDbLine
 10
628.3650166279563
 20
299.1356432115711
 30
0.0
 11
681.5645784945104
 21
299.1356432115711
 31
0.0
  0
LINE
  5
1EB
330
1F
100
AcDbEntity
  8
0243_
  6
Continuous
 62
     3
370
     9
100
AcDbLine
 10
543.365478515625
 20
269.1355442356419
 30
0.0
 11
621.364449165963
 21
269.1355442356419
 31
0.0
  0
LINE
  5
1EC
330
1F
100
AcDbEntity
  8
0243_
  6
Continuous
 62
     3
370
     9
100
AcDbLine
 10
628.3650166279563
 20
269.1355442356419
 30
0.0
 11
681.5645784945104
 21
269.1355442356419
 31
0.0
  0
LINE
  5
1ED
330
1F
100
AcDbEntity
  8
0216_
  6
Continuous
 62
     7
370
     9
100
AcDbLine
 10
1157.276792783995
 20
273.3234632337417
 30
0.0
 11
1274.270299963049
 21
156.4375923775339
 31
0.0
  0
LINE
  5
1EE
330
1F
100
AcDbEntity
  8
0216_
  6
Continuous
 62
     7
370
     9
100
AcDbLine
 10
1157.276792783995
 20
273.3234632337417
 30
0.0
 11
1177.110579207137
 21
258.1044295027451
 31
0.0
  0
LINE
  5
1EF
330
1F
100
AcDbEntity
  8
0216_
  6
Continuous
 62
     7
370
     9
100
AcDbLine
 10
1157.276792783995
 20
273.3234632337417
 30
0.0
 11
1172.495826514992
 21
253.4895530906886
 31
0.0
  0
LINE
  5
1F0
330
1F
100
AcDbEntity
  8
0218_
  6
Continuous
 62
     3
370
     9
100
AcDbLine
 10
-1046.352118414801
 20
-251.7131578600083
 30
0.0
 11
-1729.020495028109
 21
-251.7131578600083
 31
0.0
  0
LINE
  5
1F1
330
1F
100
AcDbEntity
  8
0218_
  6
Continuous
 62
     3
370
     9
100
AcDbLine
 10
-1046.352118414801
 20
-351.7133640598605
 30
0.0
 11
-1729.020495028109
 21
-351.7133640598605
 31
0.0
  0
LINE
  5
1F2
330
1F
100
AcDbEntity
  8
0218_
  6
Continuous
 62
     3
370
     9
100
AcDbLine
 10
-1729.020495028109
 20
-258.7132304423563
 30
0.0
 11
-1046.352118414801
 21
-258.7132304423563
 31
0.0
  0
LINE
  5
1F3
330
1F
100
AcDbEntity
  8
0218_
  6
Continuous
 62
     3
370
     9
100
AcDbLine
 10
-1749.020437292151
 20
-316.7136197476773
 30
0.0
 11
-1709.02024346429
 21
-286.7129021721917
 31
0.0
  0
LINE
  5
1F4
330
1F
100
AcDbEntity
  8
0218_
  6
Continuous
 62
     3
370
     9
100
AcDbLine
 10
-1729.020495028109
 20
-286.7129021721917
 30
0.0
 11
-1709.02024346429
 21
-286.7129021721917
 31
0.0
  0
LINE
  5
1F5
330
1F
100
AcDbEntity
  8
0218_
  6
Continuous
 62
     3
370
     9
100
AcDbLine
 10
-1729.020495028109
 20
-286.7129021721917
 30
0.0
 11
-1729.020495028109
 21
-201.713116620038
 31
0.0
  0
LINE
  5
1F6
330
1F
100
AcDbEntity
  8
0218_
  6
Continuous
 62
     3
370
     9
100
AcDbLine
 10
-1749.020437292151
 20
-316.7136197476773
 30
0.0
 11
-1729.020495028109
 21
-316.7136197476773
 31
0.0
  0
LINE
  5
1F7
330
1F
100
AcDbEntity
  8
0218_
  6
Continuous
 62
     3
370
     9
100
AcDbLine
 10
-1729.020495028109
 20
-401.713405299831
 30
0.0
 11
-1729.020495028109
 21
-316.7136197476773
 31
0.0
  0
LINE
  5
1F8
330
1F
100
AcDbEntity
  8
0218_
  6
Continuous
 62
     3
370
     9
100
AcDbLine
 10
-1046.352118414801
 20
-251.7131578600083
 30
0.0
 11
-1046.352118414801
 21
-351.7133640598605
 31
0.0
  0
LINE
  5
1F9
330
1F
100
AcDbEntity
  8
0218_
  6
Continuous
 62
     3
370
     9
100
AcDbLine
 10
-1046.352118414801
 20
-251.7131578600083
 30
0.0
 11
-1031.352068926837
 21
-251.7131578600083
 31
0.0
  0
LINE
  5
1FA
330
1F
100
AcDbEntity
  8
0218_
  6
Continuous
 62
     3
370
     9
100
AcDbLine
 10
-1031.352068926837
 20
-251.7131578600083
 30
0.0
 11
-1031.352068926837
 21
-351.7133640598605
 31
0.0
  0
LINE
  5
1FB
330
1F
100
AcDbEntity
  8
0218_
  6
Continuous
 62
     3
370
     9
100
AcDbLine
 10
-1031.352068926837
 20
-351.7133640598605
 30
0.0
 11
-1046.352118414801
 21
-351.7133640598605
 31
0.0
  0
LINE
  5
1FC
330
1F
100
AcDbEntity
  8
0218_
  6
JWW_CENTER1
 62
     3
370
     9
100
AcDbLine
 10
-1379.844521187447
 20
-304.7134069494298
 30
0.0
 11
-1432.859864106049
 21
-304.7134069494298
 31
0.0
  0
LINE
  5
1FD
330
1F
100
AcDbEntity
  8
0218_
  6
JWW_CENTER1
 62
     3
370
     9
100
AcDbLine
 10
-1406.352007066881
 20
-331.2205216691299
 30
0.0
 11
-1406.352007066881
 21
-278.2051787505279
 31
0.0
  0
LINE
  5
1FE
330
1F
100
AcDbEntity
  8
0227_下
  6
Continuous
 62
     2
370
     9
100
AcDbLine
 10
-1026.352547310494
 20
-366.7127949482685
 30
0.0
 11
-1021.352283374683
 21
-366.7127949482685
 31
0.0
  0
LINE
  5
1FF
330
1F
100
AcDbEntity
  8
0227_下
  6
Continuous
 62
     2
370
     9
100
AcDbLine
 10
-1021.352283374683
 20
-251.713405299831
 30
0.0
 11
-1021.352283374683
 21
-351.7128691802154
 31
0.0
  0
LINE
  5
200
330
1F
100
AcDbEntity
  8
0216_
  6
Continuous
 62
     7
370
     9
100
AcDbLine
 10
-1031.351326607369
 20
-24.54212085620782
 30
0.0
 11
-1026.351062671558
 21
-24.54212085620782
 31
0.0
  0
LINE
  5
201
330
1F
100
AcDbEntity
  8
0216_
  6
Continuous
 62
     7
370
     9
100
AcDbLine
 10
-1156.352172026763
 20
-133.294397302576
 30
0.0
 11
-1031.351326607369
 21
-133.294397302576
 31
0.0
  0
LINE
  5
202
330
1F
100
AcDbEntity
  8
0216_
  6
Continuous
 62
     7
370
     9
100
AcDbLine
 10
-1031.351326607369
 20
-238.7579510663006
 30
0.0
 11
-1031.351326607369
 21
-21.54253160631328
 31
0.0
  0
LINE
  5
203
330
1F
100
AcDbEntity
  8
0216_
  6
Continuous
 62
     7
370
     9
100
AcDbLine
 10
-1021.351293615393
 20
-238.7579510663006
 30
0.0
 11
-1021.351293615393
 21
-21.54253160631328
 31
0.0
  0
LINE
  5
204
330
1F
100
AcDbEntity
  8
0216_
  6
Continuous
 62
     7
370
     9
100
AcDbLine
 10
-1006.352481326541
 20
-238.7579510663006
 30
0.0
 11
-1006.352481326541
 21
89.15412696632188
 31
0.0
  0
LINE
  5
205
330
1F
100
AcDbEntity
  8
0220_
  6
Continuous
 62
     6
370
     5
100
AcDbLine
 10
-756.352275126689
 20
-497.7225927404454
 30
0.0
 11
-660.3414174672719
 21
-401.7126629803631
 31
0.0
  0
LINE
  5
206
330
1F
100
AcDbEntity
  8
0220_
  6
Continuous
 62
     6
370
     5
100
AcDbLine
 10
-756.352275126689
 20
-401.7126629803631
 30
0.0
 11
-591.3513595993453
 21
-401.7126629803631
 31
0.0
  0
LINE
  5
207
330
1F
100
AcDbEntity
  8
0220_
  6
Continuous
 62
     6
370
     5
100
AcDbLine
 10
-756.352275126689
 20
-511.8642734836886
 30
0.0
 11
-646.2007264833193
 21
-401.7126629803631
 31
0.0
  0
LINE
  5
208
330
1F
100
AcDbEntity
  8
0220_
  6
Continuous
 62
     6
370
     5
100
AcDbLine
 10
-1006.351986446896
 20
-576.7132403399492
 30
0.0
 11
-1006.351986446896
 21
-751.7128279402449
 31
0.0
  0
LINE
  5
209
330
1F
100
AcDbEntity
  8
0220_
  6
Continuous
 62
     6
370
     5
100
AcDbLine
 10
-756.352275126689
 20
-401.7126629803631
 30
0.0
 11
-756.352275126689
 21
-576.7132403399492
 31
0.0
  0
LINE
  5
20A
330
1F
100
AcDbEntity
  8
0220_
  6
Continuous
 62
     6
370
     5
100
AcDbLine
 10
-1006.351986446896
 20
-576.7132403399492
 30
0.0
 11
-756.352275126689
 21
-576.7132403399492
 31
0.0
  0
LINE
  5
20B
330
1F
100
AcDbEntity
  8
0216_
  6
Continuous
 62
     7
370
     9
100
AcDbLine
 10
-1156.352172026763
 20
-238.7579510663006
 30
0.0
 11
-1156.352172026763
 21
-130.2938182933909
 31
0.0
  0
LINE
  5
20C
330
1F
100
AcDbEntity
  8
0216_
  6
Continuous
 62
     7
370
     9
100
AcDbLine
 10
-1026.351062671558
 20
-24.54212085620782
 30
0.0
 11
-968.6909031223605
 21
-24.54212085620782
 31
0.0
  0
LINE
  5
20D
330
1F
100
AcDbEntity
  8
0216_
  6
Continuous
 62
     7
370
     9
100
AcDbLine
 10
-1729.020464098131
 20
-133.294397302576
 30
0.0
 11
-1156.352172026763
 21
-133.294397302576
 31
0.0
  0
LINE
  5
20E
330
1F
100
AcDbEntity
  8
0216_
  6
Continuous
 62
     7
370
     9
100
AcDbLine
 10
-1729.020464098131
 20
-24.54212085620782
 30
0.0
 11
-1031.351326607369
 21
-24.54212085620782
 31
0.0
  0
LINE
  5
20F
330
1F
100
AcDbEntity
  8
0216_
  6
Continuous
 62
     7
370
     9
100
AcDbLine
 10
-1729.020464098131
 20
86.15367167704818
 30
0.0
 11
-1006.352481326541
 21
86.15367167704818
 31
0.0
  0
LINE
  5
210
330
1F
100
AcDbEntity
  8
0227_下
  6
Continuous
 62
     2
370
     9
100
AcDbLine
 10
-1021.352283374683
 20
-351.7128691802154
 30
0.0
 11
-1156.352728766364
 21
-351.7128691802154
 31
0.0
  0
LINE
  5
211
330
1F
100
AcDbEntity
  8
0227_下
  6
Continuous
 62
     2
370
     9
100
AcDbLine
 10
-1156.352728766364
 20
-366.7127949482685
 30
0.0
 11
-1156.352728766364
 21
-351.7128691802154
 31
0.0
  0
LINE
  5
212
330
1F
100
AcDbEntity
  8
0227_下
  6
Continuous
 62
     2
370
     9
100
AcDbLine
 10
-1156.352728766364
 20
-366.7127949482685
 30
0.0
 11
-1026.352547310494
 21
-366.7127949482685
 31
0.0
  0
LINE
  5
213
330
1F
100
AcDbEntity
  8
0220_
  6
Continuous
 62
     6
370
     5
100
AcDbLine
 10
-1006.351986446896
 20
-747.7213143013619
 30
0.0
 11
-835.3424897065032
 21
-576.7132403399492
 31
0.0
  0
LINE
  5
214
330
1F
100
AcDbEntity
  8
0220_
  6
Continuous
 62
     6
370
     5
100
AcDbLine
 10
-996.2023760821367
 20
-751.7128279402449
 30
0.0
 11
-821.2017987225506
 21
-576.7132403399492
 31
0.0
  0
LINE
  5
215
330
1F
100
AcDbEntity
  8
0220_
  6
Continuous
 62
     6
370
     5
100
AcDbLine
 10
-756.352275126689
 20
-526.0049644676415
 30
0.0
 11
-632.0600354993664
 21
-401.7126629803631
 31
0.0
  0
LINE
  5
216
330
1F
100
AcDbEntity
  8
0220_
  6
Continuous
 62
     6
370
     5
100
AcDbLine
 10
-982.062427417652
 20
-751.7128279402449
 30
0.0
 11
-807.0616026182432
 21
-576.7132403399492
 31
0.0
  0
LINE
  5
217
330
1F
100
AcDbEntity
  8
0226_下
  6
Continuous
 62
     7
370
     9
100
AcDbLine
 10
-856.0586465371621
 20
-500.0493312526393
 30
0.0
 11
-856.0586465371621
 21
-498.5490417480469
 31
0.0
  0
LINE
  5
218
330
1F
100
AcDbEntity
  8
0226_下
  6
Continuous
 62
     7
370
     9
100
AcDbLine
 10
-856.0586465371621
 20
-498.5490417480469
 30
0.0
 11
-854.5585426124366
 21
-498.5490417480469
 31
0.0
  0
LINE
  5
219
330
1F
100
AcDbEntity
  8
0226_下
  6
Continuous
 62
     7
370
     9
100
AcDbLine
 10
-854.5585426124366
 20
-498.5490417480469
 30
0.0
 11
-854.5585426124366
 21
-500.0493312526393
 31
0.0
  0
LINE
  5
21A
330
1F
100
AcDbEntity
  8
0226_下
  6
Continuous
 62
     7
370
     9
100
AcDbLine
 10
-854.5585426124366
 20
-500.0493312526393
 30
0.0
 11
-856.0586465371621
 21
-500.0493312526393
 31
0.0
  0
LINE
  5
21B
330
1F
100
AcDbEntity
  8
0226_下
  6
Continuous
 62
     7
370
     9
100
AcDbLine
 10
-816.1305195576435
 20
-529.8259920687287
 30
0.0
 11
-816.1305195576435
 21
-528.3257644240921
 31
0.0
  0
LINE
  5
21C
330
1F
100
AcDbEntity
  8
0226_下
  6
Continuous
 62
     7
370
     9
100
AcDbLine
 10
-816.1305195576435
 20
-528.3257644240921
 30
0.0
 11
-814.6304156329179
 21
-528.3257644240921
 31
0.0
  0
LINE
  5
21D
330
1F
100
AcDbEntity
  8
0226_下
  6
Continuous
 62
     7
370
     9
100
AcDbLine
 10
-814.6304156329179
 20
-528.3257644240921
 30
0.0
 11
-814.6304156329179
 21
-529.8259920687287
 31
0.0
  0
LINE
  5
21E
330
1F
100
AcDbEntity
  8
0226_下
  6
Continuous
 62
     7
370
     9
100
AcDbLine
 10
-814.6304156329179
 20
-529.8259920687287
 30
0.0
 11
-816.1305195576435
 21
-529.8259920687287
 31
0.0
  0
LINE
  5
21F
330
1F
100
AcDbEntity
  8
0226_下
  6
Continuous
 62
     7
370
     9
100
AcDbLine
 10
-850.6446632179053
 20
-550.128367655986
 30
0.0
 11
-850.6446632179053
 21
-548.6280781513935
 31
0.0
  0
LINE
  5
220
330
1F
100
AcDbEntity
  8
0226_下
  6
Continuous
 62
     7
370
     9
100
AcDbLine
 10
-850.6446632179053
 20
-548.6280781513935
 30
0.0
 11
-849.1445592931798
 21
-548.6280781513935
 31
0.0
  0
LINE
  5
221
330
1F
100
AcDbEntity
  8
0226_下
  6
Continuous
 62
     7
370
     9
100
AcDbLine
 10
-849.1445592931798
 20
-548.6280781513935
 30
0.0
 11
-849.1445592931798
 21
-550.128367655986
 31
0.0
  0
LINE
  5
222
330
1F
100
AcDbEntity
  8
0226_下
  6
Continuous
 62
     7
370
     9
100
AcDbLine
 10
-849.1445592931798
 20
-550.128367655986
 30
0.0
 11
-850.6446632179053
 21
-550.128367655986
 31
0.0
  0
LINE
  5
223
330
1F
100
AcDbEntity
  8
0226_下
  6
Continuous
 62
     7
370
     9
100
AcDbLine
 10
-785.6768633868242
 20
-552.1587969805742
 30
0.0
 11
-785.6768633868242
 21
-550.6585074759818
 31
0.0
  0
LINE
  5
224
330
1F
100
AcDbEntity
  8
0226_下
  6
Continuous
 62
     7
370
     9
100
AcDbLine
 10
-785.6768633868242
 20
-550.6585074759818
 30
0.0
 11
-784.1768831820102
 21
-550.6585074759818
 31
0.0
  0
LINE
  5
225
330
1F
100
AcDbEntity
  8
0226_下
  6
Continuous
 62
     7
370
     9
100
AcDbLine
 10
-784.1768831820102
 20
-550.6585074759818
 30
0.0
 11
-784.1768831820102
 21
-552.1587969805742
 31
0.0
  0
LINE
  5
226
330
1F
100
AcDbEntity
  8
0226_下
  6
Continuous
 62
     7
370
     9
100
AcDbLine
 10
-784.1768831820102
 20
-552.1587969805742
 30
0.0
 11
-785.6768633868242
 21
-552.1587969805742
 31
0.0
  0
LINE
  5
227
330
1F
100
AcDbEntity
  8
0226_下
  6
Continuous
 62
     7
370
     9
100
AcDbLine
 10
-979.2263958905194
 20
-272.6624030035895
 30
0.0
 11
-979.2263958905194
 21
-271.1620516390412
 31
0.0
  0
LINE
  5
228
330
1F
100
AcDbEntity
  8
0226_下
  6
Continuous
 62
     7
370
     9
100
AcDbLine
 10
-979.2263958905194
 20
-271.1620516390412
 30
0.0
 11
-977.7264156857052
 21
-271.1620516390412
 31
0.0
  0
LINE
  5
229
330
1F
100
AcDbEntity
  8
0226_下
  6
Continuous
 62
     7
370
     9
100
AcDbLine
 10
-977.7264156857052
 20
-271.1620516390412
 30
0.0
 11
-977.7264156857052
 21
-272.6624030035895
 31
0.0
  0
LINE
  5
22A
330
1F
100
AcDbEntity
  8
0226_下
  6
Continuous
 62
     7
370
     9
100
AcDbLine
 10
-977.7264156857052
 20
-272.6624030035895
 30
0.0
 11
-979.2263958905194
 21
-272.6624030035895
 31
0.0
  0
LINE
  5
22B
330
1F
100
AcDbEntity
  8
0226_下
  6
Continuous
 62
     7
370
     9
100
AcDbLine
 10
-925.0866864178631
 20
-271.9856550886824
 30
0.0
 11
-925.0866864178631
 21
-270.4853037241343
 31
0.0
  0
LINE
  5
22C
330
1F
100
AcDbEntity
  8
0226_下
  6
Continuous
 62
     7
370
     9
100
AcDbLine
 10
-925.0866864178631
 20
-270.4853037241343
 30
0.0
 11
-923.586706213049
 21
-270.4853037241343
 31
0.0
  0
LINE
  5
22D
330
1F
100
AcDbEntity
  8
0226_下
  6
Continuous
 62
     7
370
     9
100
AcDbLine
 10
-923.586706213049
 20
-270.4853037241343
 30
0.0
 11
-923.586706213049
 21
-271.9856550886824
 31
0.0
  0
LINE
  5
22E
330
1F
100
AcDbEntity
  8
0226_下
  6
Continuous
 62
     7
370
     9
100
AcDbLine
 10
-923.586706213049
 20
-271.9856550886824
 30
0.0
 11
-925.0866864178631
 21
-271.9856550886824
 31
0.0
  0
LINE
  5
22F
330
1F
100
AcDbEntity
  8
0226_下
  6
Continuous
 62
     7
370
     9
100
AcDbLine
 10
-882.4515677787161
 20
-295.6719558303421
 30
0.0
 11
-882.4515677787161
 21
-294.1716044657938
 31
0.0
  0
LINE
  5
230
330
1F
100
AcDbEntity
  8
0226_下
  6
Continuous
 62
     7
370
     9
100
AcDbLine
 10
-882.4515677787161
 20
-294.1716044657938
 30
0.0
 11
-880.951587573902
 21
-294.1716044657938
 31
0.0
  0
LINE
  5
231
330
1F
100
AcDbEntity
  8
0226_下
  6
Continuous
 62
     7
370
     9
100
AcDbLine
 10
-880.951587573902
 20
-294.1716044657938
 30
0.0
 11
-880.951587573902
 21
-295.6719558303421
 31
0.0
  0
LINE
  5
232
330
1F
100
AcDbEntity
  8
0226_下
  6
Continuous
 62
     7
370
     9
100
AcDbLine
 10
-880.951587573902
 20
-295.6719558303421
 30
0.0
 11
-882.4515677787161
 21
-295.6719558303421
 31
0.0
  0
LINE
  5
233
330
1F
100
AcDbEntity
  8
0226_下
  6
Continuous
 62
     7
370
     9
100
AcDbLine
 10
-858.7655144768792
 20
-274.692770468222
 30
0.0
 11
-858.7655144768792
 21
-273.1925428235853
 31
0.0
  0
LINE
  5
234
330
1F
100
AcDbEntity
  8
0226_下
  6
Continuous
 62
     7
370
     9
100
AcDbLine
 10
-858.7655144768792
 20
-273.1925428235853
 30
0.0
 11
-857.2654105521536
 21
-273.1925428235853
 31
0.0
  0
LINE
  5
235
330
1F
100
AcDbEntity
  8
0226_下
  6
Continuous
 62
     7
370
     9
100
AcDbLine
 10
-857.2654105521536
 20
-273.1925428235853
 30
0.0
 11
-857.2654105521536
 21
-274.692770468222
 31
0.0
  0
LINE
  5
236
330
1F
100
AcDbEntity
  8
0226_下
  6
Continuous
 62
     7
370
     9
100
AcDbLine
 10
-857.2654105521536
 20
-274.692770468222
 30
0.0
 11
-858.7655144768792
 21
-274.692770468222
 31
0.0
  0
LINE
  5
237
330
1F
100
AcDbEntity
  8
0226_下
  6
Continuous
 62
     7
370
     9
100
AcDbLine
 10
-858.0888902818833
 20
-343.7210577887457
 30
0.0
 11
-858.0888902818833
 21
-342.2207064241975
 31
0.0
  0
LINE
  5
238
330
1F
100
AcDbEntity
  8
0226_下
  6
Continuous
 62
     7
370
     9
100
AcDbLine
 10
-858.0888902818833
 20
-342.2207064241975
 30
0.0
 11
-856.5887863571578
 21
-342.2207064241975
 31
0.0
  0
LINE
  5
239
330
1F
100
AcDbEntity
  8
0226_下
  6
Continuous
 62
     7
370
     9
100
AcDbLine
 10
-856.5887863571578
 20
-342.2207064241975
 30
0.0
 11
-856.5887863571578
 21
-343.7210577887457
 31
0.0
  0
LINE
  5
23A
330
1F
100
AcDbEntity
  8
0226_下
  6
Continuous
 62
     7
370
     9
100
AcDbLine
 10
-856.5887863571578
 20
-343.7210577887457
 30
0.0
 11
-858.0888902818833
 21
-343.7210577887457
 31
0.0
  0
LINE
  5
23B
330
1F
100
AcDbEntity
  8
0226_下
  6
Continuous
 62
     7
370
     9
100
AcDbLine
 10
-729.5069101694467
 20
-272.6624030035895
 30
0.0
 11
-729.5069101694467
 21
-271.1620516390412
 31
0.0
  0
LINE
  5
23C
330
1F
100
AcDbEntity
  8
0226_下
  6
Continuous
 62
     7
370
     9
100
AcDbLine
 10
-729.5069101694467
 20
-271.1620516390412
 30
0.0
 11
-728.0069299646325
 21
-271.1620516390412
 31
0.0
  0
LINE
  5
23D
330
1F
100
AcDbEntity
  8
0226_下
  6
Continuous
 62
     7
370
     9
100
AcDbLine
 10
-728.0069299646325
 20
-271.1620516390412
 30
0.0
 11
-728.0069299646325
 21
-272.6624030035895
 31
0.0
  0
LINE
  5
23E
330
1F
100
AcDbEntity
  8
0226_下
  6
Continuous
 62
     7
370
     9
100
AcDbLine
 10
-728.0069299646325
 20
-272.6624030035895
 30
0.0
 11
-729.5069101694467
 21
-272.6624030035895
 31
0.0
  0
LINE
  5
23F
330
1F
100
AcDbEntity
  8
0226_下
  6
Continuous
 62
     7
370
     9
100
AcDbLine
 10
-678.750940271326
 20
-275.3696421030405
 30
0.0
 11
-678.750940271326
 21
-273.8694144584036
 31
0.0
  0
LINE
  5
240
330
1F
100
AcDbEntity
  8
0226_下
  6
Continuous
 62
     7
370
     9
100
AcDbLine
 10
-678.750940271326
 20
-273.8694144584036
 30
0.0
 11
-677.2509600665117
 21
-273.8694144584036
 31
0.0
  0
LINE
  5
241
330
1F
100
AcDbEntity
  8
0226_下
  6
Continuous
 62
     7
370
     9
100
AcDbLine
 10
-677.2509600665117
 20
-273.8694144584036
 30
0.0
 11
-677.2509600665117
 21
-275.3696421030405
 31
0.0
  0
LINE
  5
242
330
1F
100
AcDbEntity
  8
0226_下
  6
Continuous
 62
     7
370
     9
100
AcDbLine
 10
-677.2509600665117
 20
-275.3696421030405
 30
0.0
 11
-678.750940271326
 21
-275.3696421030405
 31
0.0
  0
LINE
  5
243
330
1F
100
AcDbEntity
  8
0226_下
  6
Continuous
 62
     7
370
     9
100
AcDbLine
 10
-613.7833878800675
 20
-273.3391509184966
 30
0.0
 11
-613.7833878800675
 21
-271.8389232738598
 31
0.0
  0
LINE
  5
244
330
1F
100
AcDbEntity
  8
0226_下
  6
Continuous
 62
     7
370
     9
100
AcDbLine
 10
-613.7833878800675
 20
-271.8389232738598
 30
0.0
 11
-612.2832839553419
 21
-271.8389232738598
 31
0.0
  0
LINE
  5
245
330
1F
100
AcDbEntity
  8
0226_下
  6
Continuous
 62
     7
370
     9
100
AcDbLine
 10
-612.2832839553419
 20
-271.8389232738598
 30
0.0
 11
-612.2832839553419
 21
-273.3391509184966
 31
0.0
  0
LINE
  5
246
330
1F
100
AcDbEntity
  8
0226_下
  6
Continuous
 62
     7
370
     9
100
AcDbLine
 10
-612.2832839553419
 20
-273.3391509184966
 30
0.0
 11
-613.7833878800675
 21
-273.3391509184966
 31
0.0
  0
LINE
  5
247
330
1F
100
AcDbEntity
  8
0226_下
  6
Continuous
 62
     7
370
     9
100
AcDbLine
 10
-638.1461890968114
 20
-305.8230508340371
 30
0.0
 11
-638.1461890968114
 21
-304.3229469093116
 31
0.0
  0
LINE
  5
248
330
1F
100
AcDbEntity
  8
0226_下
  6
Continuous
 62
     7
370
     9
100
AcDbLine
 10
-638.1461890968114
 20
-304.3229469093116
 30
0.0
 11
-636.6462088919974
 21
-304.3229469093116
 31
0.0
  0
LINE
  5
249
330
1F
100
AcDbEntity
  8
0226_下
  6
Continuous
 62
     7
370
     9
100
AcDbLine
 10
-636.6462088919974
 20
-304.3229469093116
 30
0.0
 11
-636.6462088919974
 21
-305.8230508340371
 31
0.0
  0
LINE
  5
24A
330
1F
100
AcDbEntity
  8
0226_下
  6
Continuous
 62
     7
370
     9
100
AcDbLine
 10
-636.6462088919974
 20
-305.8230508340371
 30
0.0
 11
-638.1461890968114
 21
-305.8230508340371
 31
0.0
  0
LINE
  5
24B
330
1F
100
AcDbEntity
  8
0226_下
  6
Continuous
 62
     7
370
     9
100
AcDbLine
 10
-678.0741923564187
 20
-329.5089804159628
 30
0.0
 11
-678.0741923564187
 21
-328.0087527713259
 31
0.0
  0
LINE
  5
24C
330
1F
100
AcDbEntity
  8
0226_下
  6
Continuous
 62
     7
370
     9
100
AcDbLine
 10
-678.0741923564187
 20
-328.0087527713259
 30
0.0
 11
-676.5742121516047
 21
-328.0087527713259
 31
0.0
  0
LINE
  5
24D
330
1F
100
AcDbEntity
  8
0226_下
  6
Continuous
 62
     7
370
     9
100
AcDbLine
 10
-676.5742121516047
 20
-328.0087527713259
 30
0.0
 11
-676.5742121516047
 21
-329.5089804159628
 31
0.0
  0
LINE
  5
24E
330
1F
100
AcDbEntity
  8
0226_下
  6
Continuous
 62
     7
370
     9
100
AcDbLine
 10
-676.5742121516047
 20
-329.5089804159628
 30
0.0
 11
-678.0741923564187
 21
-329.5089804159628
 31
0.0
  0
LINE
  5
24F
330
1F
100
AcDbEntity
  8
0226_下
  6
Continuous
 62
     7
370
     9
100
AcDbLine
 10
-705.8208568676096
 20
-343.7210577887457
 30
0.0
 11
-705.8208568676096
 21
-342.2207064241975
 31
0.0
  0
LINE
  5
250
330
1F
100
AcDbEntity
  8
0226_下
  6
Continuous
 62
     7
370
     9
100
AcDbLine
 10
-705.8208568676096
 20
-342.2207064241975
 30
0.0
 11
-704.3208766627956
 21
-342.2207064241975
 31
0.0
  0
LINE
  5
251
330
1F
100
AcDbEntity
  8
0226_下
  6
Continuous
 62
     7
370
     9
100
AcDbLine
 10
-704.3208766627956
 20
-342.2207064241975
 30
0.0
 11
-704.3208766627956
 21
-343.7210577887457
 31
0.0
  0
LINE
  5
252
330
1F
100
AcDbEntity
  8
0226_下
  6
Continuous
 62
     7
370
     9
100
AcDbLine
 10
-704.3208766627956
 20
-343.7210577887457
 30
0.0
 11
-705.8208568676096
 21
-343.7210577887457
 31
0.0
  0
LINE
  5
253
330
1F
100
AcDbEntity
  8
0226_下
  6
Continuous
 62
     7
370
     9
100
AcDbLine
 10
-730.8604059992609
 20
-314.620650007918
 30
0.0
 11
-730.8604059992609
 21
-313.1204223632812
 31
0.0
  0
LINE
  5
254
330
1F
100
AcDbEntity
  8
0226_下
  6
Continuous
 62
     7
370
     9
100
AcDbLine
 10
-730.8604059992609
 20
-313.1204223632812
 30
0.0
 11
-729.3604257944467
 21
-313.1204223632812
 31
0.0
  0
LINE
  5
255
330
1F
100
AcDbEntity
  8
0226_下
  6
Continuous
 62
     7
370
     9
100
AcDbLine
 10
-729.3604257944467
 20
-313.1204223632812
 30
0.0
 11
-729.3604257944467
 21
-314.620650007918
 31
0.0
  0
LINE
  5
256
330
1F
100
AcDbEntity
  8
0226_下
  6
Continuous
 62
     7
370
     9
100
AcDbLine
 10
-729.3604257944467
 20
-314.620650007918
 30
0.0
 11
-730.8604059992609
 21
-314.620650007918
 31
0.0
  0
LINE
  5
257
330
1F
100
AcDbEntity
  8
0226_下
  6
Continuous
 62
     7
370
     9
100
AcDbLine
 10
-710.5582159918708
 20
-378.9117019240921
 30
0.0
 11
-710.5582159918708
 21
-377.4113505595438
 31
0.0
  0
LINE
  5
258
330
1F
100
AcDbEntity
  8
0226_下
  6
Continuous
 62
     7
370
     9
100
AcDbLine
 10
-710.5582159918708
 20
-377.4113505595438
 30
0.0
 11
-709.0581120671453
 21
-377.4113505595438
 31
0.0
  0
LINE
  5
259
330
1F
100
AcDbEntity
  8
0226_下
  6
Continuous
 62
     7
370
     9
100
AcDbLine
 10
-709.0581120671453
 20
-377.4113505595438
 30
0.0
 11
-709.0581120671453
 21
-378.9117019240921
 31
0.0
  0
LINE
  5
25A
330
1F
100
AcDbEntity
  8
0226_下
  6
Continuous
 62
     7
370
     9
100
AcDbLine
 10
-709.0581120671453
 20
-378.9117019240921
 30
0.0
 11
-710.5582159918708
 21
-378.9117019240921
 31
0.0
  0
LINE
  5
25B
330
1F
100
AcDbEntity
  8
0226_下
  6
Continuous
 62
     7
370
     9
100
AcDbLine
 10
-653.0345195048562
 20
-377.5580823743666
 30
0.0
 11
-653.0345195048562
 21
-376.0577310098183
 31
0.0
  0
LINE
  5
25C
330
1F
100
AcDbEntity
  8
0226_下
  6
Continuous
 62
     7
370
     9
100
AcDbLine
 10
-653.0345195048562
 20
-376.0577310098183
 30
0.0
 11
-651.5345393000422
 21
-376.0577310098183
 31
0.0
  0
LINE
  5
25D
330
1F
100
AcDbEntity
  8
0226_下
  6
Continuous
 62
     7
370
     9
100
AcDbLine
 10
-651.5345393000422
 20
-376.0577310098183
 30
0.0
 11
-651.5345393000422
 21
-377.5580823743666
 31
0.0
  0
LINE
  5
25E
330
1F
100
AcDbEntity
  8
0226_下
  6
Continuous
 62
     7
370
     9
100
AcDbLine
 10
-651.5345393000422
 20
-377.5580823743666
 30
0.0
 11
-653.0345195048562
 21
-377.5580823743666
 31
0.0
  0
LINE
  5
25F
330
1F
100
AcDbEntity
  8
0226_下
  6
Continuous
 62
     7
370
     9
100
AcDbLine
 10
-603.6321691564613
 20
-376.881210739548
 30
0.0
 11
-603.6321691564613
 21
-375.3809830949112
 31
0.0
  0
LINE
  5
260
330
1F
100
AcDbEntity
  8
0226_下
  6
Continuous
 62
     7
370
     9
100
AcDbLine
 10
-603.6321691564613
 20
-375.3809830949112
 30
0.0
 11
-602.1320652317356
 21
-375.3809830949112
 31
0.0
  0
LINE
  5
261
330
1F
100
AcDbEntity
  8
0226_下
  6
Continuous
 62
     7
370
     9
100
AcDbLine
 10
-602.1320652317356
 20
-375.3809830949112
 30
0.0
 11
-602.1320652317356
 21
-376.881210739548
 31
0.0
  0
LINE
  5
262
330
1F
100
AcDbEntity
  8
0226_下
  6
Continuous
 62
     7
370
     9
100
AcDbLine
 10
-602.1320652317356
 20
-376.881210739548
 30
0.0
 11
-603.6321691564613
 21
-376.881210739548
 31
0.0
  0
LINE
  5
263
330
1F
100
AcDbEntity
  8
0226_下
  6
Continuous
 62
     7
370
     9
100
AcDbLine
 10
-615.8136316247887
 20
-336.9534549197634
 30
0.0
 11
-615.8136316247887
 21
-335.4531035552154
 31
0.0
  0
LINE
  5
264
330
1F
100
AcDbEntity
  8
0226_下
  6
Continuous
 62
     7
370
     9
100
AcDbLine
 10
-615.8136316247887
 20
-335.4531035552154
 30
0.0
 11
-614.3135277000633
 21
-335.4531035552154
 31
0.0
  0
LINE
  5
265
330
1F
100
AcDbEntity
  8
0226_下
  6
Continuous
 62
     7
370
     9
100
AcDbLine
 10
-614.3135277000633
 20
-335.4531035552154
 30
0.0
 11
-614.3135277000633
 21
-336.9534549197634
 31
0.0
  0
LINE
  5
266
330
1F
100
AcDbEntity
  8
0226_下
  6
Continuous
 62
     7
370
     9
100
AcDbLine
 10
-614.3135277000633
 20
-336.9534549197634
 30
0.0
 11
-615.8136316247887
 21
-336.9534549197634
 31
0.0
  0
LINE
  5
267
330
1F
100
AcDbEntity
  8
0226_下
  6
Continuous
 62
     7
370
     9
100
AcDbLine
 10
-1137.37366135056
 20
-508.2548069309543
 30
0.0
 11
-1137.37366135056
 21
-506.7545174263619
 31
0.0
  0
LINE
  5
268
330
1F
100
AcDbEntity
  8
0226_下
  6
Continuous
 62
     7
370
     9
100
AcDbLine
 10
-1137.37366135056
 20
-506.7545174263619
 30
0.0
 11
-1135.87361928579
 21
-506.7545174263619
 31
0.0
  0
LINE
  5
269
330
1F
100
AcDbEntity
  8
0226_下
  6
Continuous
 62
     7
370
     9
100
AcDbLine
 10
-1135.87361928579
 20
-506.7545174263619
 30
0.0
 11
-1135.87361928579
 21
-508.2548069309543
 31
0.0
  0
LINE
  5
26A
330
1F
100
AcDbEntity
  8
0226_下
  6
Continuous
 62
     7
370
     9
100
AcDbLine
 10
-1135.87361928579
 20
-508.2548069309543
 30
0.0
 11
-1137.37366135056
 21
-508.2548069309543
 31
0.0
  0
LINE
  5
26B
330
1F
100
AcDbEntity
  8
0226_下
  6
Continuous
 62
     7
370
     9
100
AcDbLine
 10
-1032.689357448269
 20
-508.2548069309543
 30
0.0
 11
-1032.689357448269
 21
-506.7545174263619
 31
0.0
  0
LINE
  5
26C
330
1F
100
AcDbEntity
  8
0226_下
  6
Continuous
 62
     7
370
     9
100
AcDbLine
 10
-1032.689357448269
 20
-506.7545174263619
 30
0.0
 11
-1031.189377243454
 21
-506.7545174263619
 31
0.0
  0
LINE
  5
26D
330
1F
100
AcDbEntity
  8
0226_下
  6
Continuous
 62
     7
370
     9
100
AcDbLine
 10
-1031.189377243454
 20
-506.7545174263619
 30
0.0
 11
-1031.189377243454
 21
-508.2548069309543
 31
0.0
  0
LINE
  5
26E
330
1F
100
AcDbEntity
  8
0226_下
  6
Continuous
 62
     7
370
     9
100
AcDbLine
 10
-1031.189377243454
 20
-508.2548069309543
 30
0.0
 11
-1032.689357448269
 21
-508.2548069309543
 31
0.0
  0
LINE
  5
26F
330
1F
100
AcDbEntity
  8
0226_下
  6
Continuous
 62
     7
370
     9
100
AcDbLine
 10
-1046.774250752217
 20
-596.5706572661529
 30
0.0
 11
-1046.774250752217
 21
-595.0703677615603
 31
0.0
  0
LINE
  5
270
330
1F
100
AcDbEntity
  8
0226_下
  6
Continuous
 62
     7
370
     9
100
AcDbLine
 10
-1046.774250752217
 20
-595.0703677615603
 30
0.0
 11
-1045.274146827491
 21
-595.0703677615603
 31
0.0
  0
LINE
  5
271
330
1F
100
AcDbEntity
  8
0226_下
  6
Continuous
 62
     7
370
     9
100
AcDbLine
 10
-1045.274146827491
 20
-595.0703677615603
 30
0.0
 11
-1045.274146827491
 21
-596.5706572661529
 31
0.0
  0
LINE
  5
272
330
1F
100
AcDbEntity
  8
0226_下
  6
Continuous
 62
     7
370
     9
100
AcDbLine
 10
-1045.274146827491
 20
-596.5706572661529
 30
0.0
 11
-1046.774250752217
 21
-596.5706572661529
 31
0.0
  0
LINE
  5
273
330
1F
100
AcDbEntity
  8
0226_下
  6
Continuous
 62
     7
370
     9
100
AcDbLine
 10
-1034.592788283889
 20
-561.1683902224978
 30
0.0
 11
-1034.592788283889
 21
-559.6681007179053
 31
0.0
  0
LINE
  5
274
330
1F
100
AcDbEntity
  8
0226_下
  6
Continuous
 62
     7
370
     9
100
AcDbLine
 10
-1034.592788283889
 20
-559.6681007179053
 30
0.0
 11
-1033.092684359164
 21
-559.6681007179053
 31
0.0
  0
LINE
  5
275
330
1F
100
AcDbEntity
  8
0226_下
  6
Continuous
 62
     7
370
     9
100
AcDbLine
 10
-1033.092684359164
 20
-559.6681007179053
 30
0.0
 11
-1033.092684359164
 21
-561.1683902224978
 31
0.0
  0
LINE
  5
276
330
1F
100
AcDbEntity
  8
0226_下
  6
Continuous
 62
     7
370
     9
100
AcDbLine
 10
-1033.092684359164
 20
-561.1683902224978
 30
0.0
 11
-1034.592788283889
 21
-561.1683902224978
 31
0.0
  0
LINE
  5
277
330
1F
100
AcDbEntity
  8
0226_下
  6
Continuous
 62
     7
370
     9
100
AcDbLine
 10
-1135.089668067726
 20
-598.8547124089421
 30
0.0
 11
-1135.089668067726
 21
-597.3544229043496
 31
0.0
  0
LINE
  5
278
330
1F
100
AcDbEntity
  8
0226_下
  6
Continuous
 62
     7
370
     9
100
AcDbLine
 10
-1135.089668067726
 20
-597.3544229043496
 30
0.0
 11
-1133.589626002956
 21
-597.3544229043496
 31
0.0
  0
LINE
  5
279
330
1F
100
AcDbEntity
  8
0226_下
  6
Continuous
 62
     7
370
     9
100
AcDbLine
 10
-1133.589626002956
 20
-597.3544229043496
 30
0.0
 11
-1133.589626002956
 21
-598.8547124089421
 31
0.0
  0
LINE
  5
27A
330
1F
100
AcDbEntity
  8
0226_下
  6
Continuous
 62
     7
370
     9
100
AcDbLine
 10
-1133.589626002956
 20
-598.8547124089421
 30
0.0
 11
-1135.089668067726
 21
-598.8547124089421
 31
0.0
  0
LINE
  5
27B
330
1F
100
AcDbEntity
  8
0226_下
  6
Continuous
 62
     7
370
     9
100
AcDbLine
 10
-1090.931866620038
 20
-601.8998924461571
 30
0.0
 11
-1090.931866620038
 21
-600.3996029415646
 31
0.0
  0
LINE
  5
27C
330
1F
100
AcDbEntity
  8
0226_下
  6
Continuous
 62
     7
370
     9
100
AcDbLine
 10
-1090.931866620038
 20
-600.3996029415646
 30
0.0
 11
-1089.431824555268
 21
-600.3996029415646
 31
0.0
  0
LINE
  5
27D
330
1F
100
AcDbEntity
  8
0226_下
  6
Continuous
 62
     7
370
     9
100
AcDbLine
 10
-1089.431824555268
 20
-600.3996029415646
 30
0.0
 11
-1089.431824555268
 21
-601.8998924461571
 31
0.0
  0
LINE
  5
27E
330
1F
100
AcDbEntity
  8
0226_下
  6
Continuous
 62
     7
370
     9
100
AcDbLine
 10
-1089.431824555268
 20
-601.8998924461571
 30
0.0
 11
-1090.931866620038
 21
-601.8998924461571
 31
0.0
  0
LINE
  5
27F
330
1F
100
AcDbEntity
  8
0226_下
  6
Continuous
 62
     7
370
     9
100
AcDbLine
 10
-1087.505814835832
 20
-564.2135083997572
 30
0.0
 11
-1087.505814835832
 21
-562.7132807551203
 31
0.0
  0
LINE
  5
280
330
1F
100
AcDbEntity
  8
0226_下
  6
Continuous
 62
     7
370
     9
100
AcDbLine
 10
-1087.505814835832
 20
-562.7132807551203
 30
0.0
 11
-1086.005772771062
 21
-562.7132807551203
 31
0.0
  0
LINE
  5
281
330
1F
100
AcDbEntity
  8
0226_下
  6
Continuous
 62
     7
370
     9
100
AcDbLine
 10
-1086.005772771062
 20
-562.7132807551203
 30
0.0
 11
-1086.005772771062
 21
-564.2135083997572
 31
0.0
  0
LINE
  5
282
330
1F
100
AcDbEntity
  8
0226_下
  6
Continuous
 62
     7
370
     9
100
AcDbLine
 10
-1086.005772771062
 20
-564.2135083997572
 30
0.0
 11
-1087.505814835832
 21
-564.2135083997572
 31
0.0
  0
LINE
  5
283
330
1F
100
AcDbEntity
  8
0226_下
  6
Continuous
 62
     7
370
     9
100
AcDbLine
 10
-1138.134909964896
 20
-562.6904544314822
 30
0.0
 11
-1138.134909964896
 21
-561.1901649268897
 31
0.0
  0
LINE
  5
284
330
1F
100
AcDbEntity
  8
0226_下
  6
Continuous
 62
     7
370
     9
100
AcDbLine
 10
-1138.134909964896
 20
-561.1901649268897
 30
0.0
 11
-1136.634929760082
 21
-561.1901649268897
 31
0.0
  0
LINE
  5
285
330
1F
100
AcDbEntity
  8
0226_下
  6
Continuous
 62
     7
370
     9
100
AcDbLine
 10
-1136.634929760082
 20
-561.1901649268897
 30
0.0
 11
-1136.634929760082
 21
-562.6904544314822
 31
0.0
  0
LINE
  5
286
330
1F
100
AcDbEntity
  8
0226_下
  6
Continuous
 62
     7
370
     9
100
AcDbLine
 10
-1136.634929760082
 20
-562.6904544314822
 30
0.0
 11
-1138.134909964896
 21
-562.6904544314822
 31
0.0
  0
LINE
  5
287
330
1F
100
AcDbEntity
  8
0226_下
  6
Continuous
 62
     7
370
     9
100
AcDbLine
 10
-1129.760247307855
 20
-684.1248878272803
 30
0.0
 11
-1129.760247307855
 21
-682.6246601826435
 31
0.0
  0
LINE
  5
288
330
1F
100
AcDbEntity
  8
0226_下
  6
Continuous
 62
     7
370
     9
100
AcDbLine
 10
-1129.760247307855
 20
-682.6246601826435
 30
0.0
 11
-1128.26026710304
 21
-682.6246601826435
 31
0.0
  0
LINE
  5
289
330
1F
100
AcDbEntity
  8
0226_下
  6
Continuous
 62
     7
370
     9
100
AcDbLine
 10
-1128.26026710304
 20
-682.6246601826435
 30
0.0
 11
-1128.26026710304
 21
-684.1248878272803
 31
0.0
  0
LINE
  5
28A
330
1F
100
AcDbEntity
  8
0226_下
  6
Continuous
 62
     7
370
     9
100
AcDbLine
 10
-1128.26026710304
 20
-684.1248878272803
 30
0.0
 11
-1129.760247307855
 21
-684.1248878272803
 31
0.0
  0
LINE
  5
28B
330
1F
100
AcDbEntity
  8
0226_下
  6
Continuous
 62
     7
370
     9
100
AcDbLine
 10
-1077.989093677417
 20
-680.3177168562605
 30
0.0
 11
-1077.989093677417
 21
-678.8174273516679
 31
0.0
  0
LINE
  5
28C
330
1F
100
AcDbEntity
  8
0226_下
  6
Continuous
 62
     7
370
     9
100
AcDbLine
 10
-1077.989093677417
 20
-678.8174273516679
 30
0.0
 11
-1076.489051612648
 21
-678.8174273516679
 31
0.0
  0
LINE
  5
28D
330
1F
100
AcDbEntity
  8
0226_下
  6
Continuous
 62
     7
370
     9
100
AcDbLine
 10
-1076.489051612648
 20
-678.8174273516679
 30
0.0
 11
-1076.489051612648
 21
-680.3177168562605
 31
0.0
  0
LINE
  5
28E
330
1F
100
AcDbEntity
  8
0226_下
  6
Continuous
 62
     7
370
     9
100
AcDbLine
 10
-1076.489051612648
 20
-680.3177168562605
 30
0.0
 11
-1077.989093677417
 21
-680.3177168562605
 31
0.0
  0
LINE
  5
28F
330
1F
100
AcDbEntity
  8
0226_下
  6
Continuous
 62
     7
370
     9
100
AcDbLine
 10
-1028.12124716269
 20
-682.2213332717483
 30
0.0
 11
-1028.12124716269
 21
-680.7210437671557
 31
0.0
  0
LINE
  5
290
330
1F
100
AcDbEntity
  8
0226_下
  6
Continuous
 62
     7
370
     9
100
AcDbLine
 10
-1028.12124716269
 20
-680.7210437671557
 30
0.0
 11
-1026.621266957876
 21
-680.7210437671557
 31
0.0
  0
LINE
  5
291
330
1F
100
AcDbEntity
  8
0226_下
  6
Continuous
 62
     7
370
     9
100
AcDbLine
 10
-1026.621266957876
 20
-680.7210437671557
 30
0.0
 11
-1026.621266957876
 21
-682.2213332717483
 31
0.0
  0
LINE
  5
292
330
1F
100
AcDbEntity
  8
0226_下
  6
Continuous
 62
     7
370
     9
100
AcDbLine
 10
-1026.621266957876
 20
-682.2213332717483
 30
0.0
 11
-1028.12124716269
 21
-682.2213332717483
 31
0.0
  0
LINE
  5
293
330
1F
100
AcDbEntity
  8
0226_下
  6
Continuous
 62
     7
370
     9
100
AcDbLine
 10
-1052.86485826647
 20
-708.1065698572106
 30
0.0
 11
-1052.86485826647
 21
-706.6062803526182
 31
0.0
  0
LINE
  5
294
330
1F
100
AcDbEntity
  8
0226_下
  6
Continuous
 62
     7
370
     9
100
AcDbLine
 10
-1052.86485826647
 20
-706.6062803526182
 30
0.0
 11
-1051.364878061655
 21
-706.6062803526182
 31
0.0
  0
LINE
  5
295
330
1F
100
AcDbEntity
  8
0226_下
  6
Continuous
 62
     7
370
     9
100
AcDbLine
 10
-1051.364878061655
 20
-706.6062803526182
 30
0.0
 11
-1051.364878061655
 21
-708.1065698572106
 31
0.0
  0
LINE
  5
296
330
1F
100
AcDbEntity
  8
0226_下
  6
Continuous
 62
     7
370
     9
100
AcDbLine
 10
-1051.364878061655
 20
-708.1065698572106
 30
0.0
 11
-1052.86485826647
 21
-708.1065698572106
 31
0.0
  0
LINE
  5
297
330
1F
100
AcDbEntity
  8
0226_下
  6
Continuous
 62
     7
370
     9
100
AcDbLine
 10
-1093.215859902872
 20
-719.9076554581926
 30
0.0
 11
-1093.215859902872
 21
-718.4073659536
 31
0.0
  0
LINE
  5
298
330
1F
100
AcDbEntity
  8
0226_下
  6
Continuous
 62
     7
370
     9
100
AcDbLine
 10
-1093.215859902872
 20
-718.4073659536
 30
0.0
 11
-1091.715817838102
 21
-718.4073659536
 31
0.0
  0
LINE
  5
299
330
1F
100
AcDbEntity
  8
0226_下
  6
Continuous
 62
     7
370
     9
100
AcDbLine
 10
-1091.715817838102
 20
-718.4073659536
 30
0.0
 11
-1091.715817838102
 21
-719.9076554581926
 31
0.0
  0
LINE
  5
29A
330
1F
100
AcDbEntity
  8
0226_下
  6
Continuous
 62
     7
370
     9
100
AcDbLine
 10
-1091.715817838102
 20
-719.9076554581926
 30
0.0
 11
-1093.215859902872
 21
-719.9076554581926
 31
0.0
  0
LINE
  5
29B
330
1F
100
AcDbEntity
  8
0226_下
  6
Continuous
 62
     7
370
     9
100
AcDbLine
 10
-1140.419026967641
 20
-717.6235384554477
 30
0.0
 11
-1140.419026967641
 21
-716.1233108108108
 31
0.0
  0
LINE
  5
29C
330
1F
100
AcDbEntity
  8
0226_下
  6
Continuous
 62
     7
370
     9
100
AcDbLine
 10
-1140.419026967641
 20
-716.1233108108108
 30
0.0
 11
-1138.918984902872
 21
-716.1233108108108
 31
0.0
  0
LINE
  5
29D
330
1F
100
AcDbEntity
  8
0226_下
  6
Continuous
 62
     7
370
     9
100
AcDbLine
 10
-1138.918984902872
 20
-716.1233108108108
 30
0.0
 11
-1138.918984902872
 21
-717.6235384554477
 31
0.0
  0
LINE
  5
29E
330
1F
100
AcDbEntity
  8
0226_下
  6
Continuous
 62
     7
370
     9
100
AcDbLine
 10
-1138.918984902872
 20
-717.6235384554477
 30
0.0
 11
-1140.419026967641
 21
-717.6235384554477
 31
0.0
  0
LINE
  5
29F
330
1F
100
AcDbEntity
  8
0226_下
  6
Continuous
 62
     7
370
     9
100
AcDbLine
 10
-1124.050078520904
 20
-746.173949370513
 30
0.0
 11
-1124.050078520904
 21
-744.6736598659206
 31
0.0
  0
LINE
  5
2A0
330
1F
100
AcDbEntity
  8
0226_下
  6
Continuous
 62
     7
370
     9
100
AcDbLine
 10
-1124.050078520904
 20
-744.6736598659206
 30
0.0
 11
-1122.550098316089
 21
-744.6736598659206
 31
0.0
  0
LINE
  5
2A1
330
1F
100
AcDbEntity
  8
0226_下
  6
Continuous
 62
     7
370
     9
100
AcDbLine
 10
-1122.550098316089
 20
-744.6736598659206
 30
0.0
 11
-1122.550098316089
 21
-746.173949370513
 31
0.0
  0
LINE
  5
2A2
330
1F
100
AcDbEntity
  8
0226_下
  6
Continuous
 62
     7
370
     9
100
AcDbLine
 10
-1122.550098316089
 20
-746.173949370513
 30
0.0
 11
-1124.050078520904
 21
-746.173949370513
 31
0.0
  0
LINE
  5
2A3
330
1F
100
AcDbEntity
  8
0226_下
  6
Continuous
 62
     7
370
     9
100
AcDbLine
 10
-1072.279048610378
 20
-744.6513902818834
 30
0.0
 11
-1072.279048610378
 21
-743.1511007772908
 31
0.0
  0
LINE
  5
2A4
330
1F
100
AcDbEntity
  8
0226_下
  6
Continuous
 62
     7
370
     9
100
AcDbLine
 10
-1072.279048610378
 20
-743.1511007772908
 30
0.0
 11
-1070.779068405564
 21
-743.1511007772908
 31
0.0
  0
LINE
  5
2A5
330
1F
100
AcDbEntity
  8
0226_下
  6
Continuous
 62
     7
370
     9
100
AcDbLine
 10
-1070.779068405564
 20
-743.1511007772908
 30
0.0
 11
-1070.779068405564
 21
-744.6513902818834
 31
0.0
  0
LINE
  5
2A6
330
1F
100
AcDbEntity
  8
0226_下
  6
Continuous
 62
     7
370
     9
100
AcDbLine
 10
-1070.779068405564
 20
-744.6513902818834
 30
0.0
 11
-1072.279048610378
 21
-744.6513902818834
 31
0.0
  0
LINE
  5
2A7
330
1F
100
AcDbEntity
  8
0226_下
  6
Continuous
 62
     7
370
     9
100
AcDbLine
 10
-1034.212102116765
 20
-744.6513902818834
 30
0.0
 11
-1034.212102116765
 21
-743.1511007772908
 31
0.0
  0
LINE
  5
2A8
330
1F
100
AcDbEntity
  8
0226_下
  6
Continuous
 62
     7
370
     9
100
AcDbLine
 10
-1034.212102116765
 20
-743.1511007772908
 30
0.0
 11
-1032.71199819204
 21
-743.1511007772908
 31
0.0
  0
LINE
  5
2A9
330
1F
100
AcDbEntity
  8
0226_下
  6
Continuous
 62
     7
370
     9
100
AcDbLine
 10
-1032.71199819204
 20
-743.1511007772908
 30
0.0
 11
-1032.71199819204
 21
-744.6513902818834
 31
0.0
  0
LINE
  5
2AA
330
1F
100
AcDbEntity
  8
0226_下
  6
Continuous
 62
     7
370
     9
100
AcDbLine
 10
-1032.71199819204
 20
-744.6513902818834
 30
0.0
 11
-1034.212102116765
 21
-744.6513902818834
 31
0.0
  0
LINE
  5
2AB
330
1F
100
AcDbEntity
  8
0226_下
  6
Continuous
 62
     7
370
     9
100
AcDbLine
 10
-977.1878629117398
 20
-561.6465058197846
 30
0.0
 11
-977.1878629117398
 21
-560.1457214355469
 31
0.0
  0
LINE
  5
2AC
330
1F
100
AcDbEntity
  8
0226_下
  6
Continuous
 62
     7
370
     9
100
AcDbLine
 10
-977.1878629117398
 20
-560.1457214355469
 30
0.0
 11
-975.6877589870144
 21
-560.1457214355469
 31
0.0
  0
LINE
  5
2AD
330
1F
100
AcDbEntity
  8
0226_下
  6
Continuous
 62
     7
370
     9
100
AcDbLine
 10
-975.6877589870144
 20
-560.1457214355469
 30
0.0
 11
-975.6877589870144
 21
-561.6465058197846
 31
0.0
  0
LINE
  5
2AE
330
1F
100
AcDbEntity
  8
0226_下
  6
Continuous
 62
     7
370
     9
100
AcDbLine
 10
-975.6877589870144
 20
-561.6465058197846
 30
0.0
 11
-977.1878629117398
 21
-561.6465058197846
 31
0.0
  0
LINE
  5
2AF
330
1F
100
AcDbEntity
  8
0220_
  6
Continuous
 62
     6
370
     5
100
AcDbLine
 10
-1156.352728766364
 20
-366.7127949482685
 30
0.0
 11
-1156.352728766364
 21
-751.7128279402449
 31
0.0
  0
LINE
  5
2B0
330
1F
100
AcDbEntity
  8
0216_
  6
Continuous
 62
     7
370
     9
100
AcDbLine
 10
-1156.352728766364
 20
-656.46841513144
 30
0.0
 11
-1006.351986446896
 21
-656.46841513144
 31
0.0
  0
LINE
  5
2B1
330
1F
100
AcDbEntity
  8
0216_
  6
Continuous
 62
     7
370
     9
100
AcDbLine
 10
-1156.352728766364
 20
-810.0653241131756
 30
0.0
 11
-756.352275126689
 21
-810.0653241131756
 31
0.0
  0
LINE
  5
2B2
330
1F
100
AcDbEntity
  8
0216_
  6
Continuous
 62
     7
370
     9
100
AcDbLine
 10
-1156.352728766364
 20
-813.0653463827596
 30
0.0
 11
-1156.352728766364
 21
-771.7128320642419
 31
0.0
  0
LINE
  5
2B3
330
1F
100
AcDbEntity
  8
0216_
  6
Continuous
 62
     7
370
     9
100
AcDbLine
 10
-756.352275126689
 20
-813.0653463827596
 30
0.0
 11
-756.352275126689
 21
-596.7132444639464
 31
0.0
  0
LINE
  5
2B4
330
1F
100
AcDbEntity
  8
0227_下
  6
Continuous
 62
     2
370
     9
100
AcDbLine
 10
-1006.352481326541
 20
-351.7128691802154
 30
0.0
 11
-1006.352481326541
 21
-251.713405299831
 31
0.0
  0
LINE
  5
2B5
330
1F
100
AcDbEntity
  8
0227_下
  6
Continuous
 62
     2
370
     9
100
AcDbLine
 10
-1021.352283374683
 20
-251.713405299831
 30
0.0
 11
-1006.352481326541
 21
-251.713405299831
 31
0.0
  0
LINE
  5
2B6
330
1F
100
AcDbEntity
  8
0220_
  6
Continuous
 62
     6
370
     5
100
AcDbLine
 10
-1006.352481326541
 20
-251.713405299831
 30
0.0
 11
-591.3518544789906
 21
-251.713405299831
 31
0.0
  0
LINE
  5
2B7
330
1F
100
AcDbEntity
  8
0216_
  6
Continuous
 62
     7
370
     9
100
AcDbLine
 10
-487.5898206556164
 20
-251.713405299831
 30
0.0
 11
-487.5898206556164
 21
-576.7132403399492
 31
0.0
  0
LINE
  5
2B8
330
1F
100
AcDbEntity
  8
0216_
  6
Continuous
 62
     7
370
     9
100
AcDbLine
 10
-484.589860245988
 20
-251.713405299831
 30
0.0
 11
-571.351788495038
 21
-251.713405299831
 31
0.0
  0
LINE
  5
2B9
330
1F
100
AcDbEntity
  8
0216_
  6
Continuous
 62
     7
370
     9
100
AcDbLine
 10
-484.589860245988
 20
-576.7132403399492
 30
0.0
 11
-736.3523328626477
 21
-576.7132403399492
 31
0.0
  0
LINE
  5
2BA
330
1F
100
AcDbEntity
  8
0216_
  6
Continuous
 62
     7
370
     9
100
AcDbLine
 10
-1156.343759072794
 20
-484.8150181125949
 30
0.0
 11
-1006.343697212838
 21
-484.8150181125949
 31
0.0
  0
LINE
  5
2BB
330
1F
100
AcDbEntity
  8
0216_
  6
Continuous
 62
     7
370
     9
100
AcDbLine
 10
-1006.343697212838
 20
-484.8150181125949
 30
0.0
 11
-836.3435075089737
 21
-484.8150181125949
 31
0.0
  0
LINE
  5
2BC
330
1F
100
AcDbEntity
  8
0216_
  6
Continuous
 62
     7
370
     9
100
AcDbLine
 10
-836.3435075089737
 20
-487.8150403821791
 30
0.0
 11
-836.3435075089737
 21
-403.2114059860642
 31
0.0
  0
LINE
  5
2BD
330
1F
100
AcDbEntity
  8
0216_
  6
Continuous
 62
     7
370
     9
100
AcDbLine
 10
-773.3875171558276
 20
-398.2113894900759
 30
0.0
 11
-831.3434910129855
 21
-398.2113894900759
 31
0.0
  0
LINE
  5
2BE
330
1F
100
AcDbEntity
  8
0216_
  6
Continuous
 62
     7
370
     9
100
AcDbLine
 10
-776.387477565456
 20
-366.7123000686233
 30
0.0
 11
-776.387477565456
 21
-483.46238832216
 31
0.0
  0
LINE
  5
2BF
330
1F
100
AcDbEntity
  8
0216_
  6
Continuous
 62
     7
370
     9
100
AcDbLine
 10
-1006.343697212838
 20
-487.8150403821791
 30
0.0
 11
-1006.343697212838
 21
-403.2114059860642
 31
0.0
  0
LINE
  5
2C0
330
1F
100
AcDbEntity
  8
0234_
  6
Continuous
 62
     4
370
     9
100
AcDbLine
 10
-966.343441525021
 20
-398.2113894900759
 30
0.0
 11
-851.343433277027
 21
-398.2113894900759
 31
0.0
  0
LINE
  5
2C1
330
1F
100
AcDbEntity
  8
0234_
  6
Continuous
 62
     4
370
     9
100
AcDbLine
 10
-981.3436147328969
 20
-383.2113400021115
 30
0.0
 11
-981.3436147328969
 21
-369.2114422772381
 31
0.0
  0
LINE
  5
2C2
330
1F
100
AcDbEntity
  8
0234_
  6
Continuous
 62
     4
370
     9
100
AcDbLine
 10
-836.343631228885
 20
-383.2113400021115
 30
0.0
 11
-836.343631228885
 21
-369.2114422772381
 31
0.0
  0
LINE
  5
2C3
330
1F
100
AcDbEntity
  8
0234_
  6
Continuous
 62
     4
370
     9
100
AcDbLine
 10
-1001.34368071685
 20
-379.2114752692145
 30
0.0
 11
-1001.34368071685
 21
-369.2114422772381
 31
0.0
  0
LINE
  5
2C4
330
1F
100
AcDbEntity
  8
0234_
  6
Continuous
 62
     4
370
     9
100
AcDbLine
 10
-981.3184995908995
 20
-379.2114752692145
 30
0.0
 11
-1031.343408533045
 21
-379.2114752692145
 31
0.0
  0
LINE
  5
2C5
330
1F
100
AcDbEntity
  8
0234_
  6
Continuous
 62
     4
370
     9
100
AcDbLine
 10
-836.343631228885
 20
-369.2114422772381
 30
0.0
 11
-1031.343408533045
 21
-369.2114422772381
 31
0.0
  0
LINE
  5
2C6
330
1F
100
AcDbEntity
  8
0234_
  6
Continuous
 62
     3
370
     9
100
AcDbLine
 10
-1131.343676592853
 20
-366.7127949482685
 30
0.0
 11
-1131.343676592853
 21
-389.2127454603041
 31
0.0
  0
LINE
  5
2C7
330
1F
100
AcDbEntity
  8
0234_
  6
Continuous
 62
     3
370
     9
100
AcDbLine
 10
-1031.343408533045
 20
-389.2127454603041
 30
0.0
 11
-1131.343676592853
 21
-389.2127454603041
 31
0.0
  0
LINE
  5
2C8
330
1F
100
AcDbEntity
  8
0234_
  6
Continuous
 62
     3
370
     9
100
AcDbLine
 10
-1031.343408533045
 20
-366.7127949482685
 30
0.0
 11
-1131.343676592853
 21
-366.7127949482685
 31
0.0
  0
LINE
  5
2C9
330
1F
100
AcDbEntity
  8
0234_
  6
Continuous
 62
     2
370
     9
100
AcDbLine
 10
-1067.593775568782
 20
-391.7113927892735
 30
0.0
 11
-1067.593775568782
 21
-389.2127454603041
 31
0.0
  0
LINE
  5
2CA
330
1F
100
AcDbEntity
  8
0234_
  6
Continuous
 62
     2
370
     9
100
AcDbLine
 10
-1076.344484896273
 20
-399.2107989336992
 30
0.0
 11
-1067.593775568782
 21
-391.7113927892735
 31
0.0
  0
LINE
  5
2CB
330
1F
100
AcDbEntity
  8
0234_
  6
Continuous
 62
     2
370
     9
100
AcDbLine
 10
-1086.343404409048
 20
-399.2107989336992
 30
0.0
 11
-1076.344484896273
 21
-399.2107989336992
 31
0.0
  0
LINE
  5
2CC
330
1F
100
AcDbEntity
  8
0234_
  6
Continuous
 62
     2
370
     9
100
AcDbLine
 10
-1095.093866296716
 20
-391.7113927892735
 30
0.0
 11
-1086.343404409048
 21
-399.2107989336992
 31
0.0
  0
LINE
  5
2CD
330
1F
100
AcDbEntity
  8
0234_
  6
Continuous
 62
     2
370
     9
100
AcDbLine
 10
-1095.093866296716
 20
-391.7113927892735
 30
0.0
 11
-1095.093866296716
 21
-389.2127454603041
 31
0.0
  0
LINE
  5
2CE
330
1F
100
AcDbEntity
  8
0234_
  6
Continuous
 62
     2
370
     9
100
AcDbLine
 10
-1095.093866296716
 20
-391.7113927892735
 30
0.0
 11
-1067.593775568782
 21
-391.7113927892735
 31
0.0
  0
LINE
  5
2CF
330
1F
100
AcDbEntity
  8
0234_
  6
Continuous
 62
     3
370
     9
100
AcDbLine
 10
-1031.343408533045
 20
-366.7127949482685
 30
0.0
 11
-1031.343408533045
 21
-389.2127454603041
 31
0.0
  0
LINE
  5
2D0
330
1F
100
AcDbEntity
  8
0234_
  6
Continuous
 62
     3
370
     9
100
AcDbLine
 10
-1031.343408533045
 20
-376.7127042203336
 30
0.0
 11
-1131.343676592853
 21
-376.7127042203336
 31
0.0
  0
LINE
  5
2D1
330
1F
100
AcDbEntity
  8
0234_
  6
JWW_DASHED2
 62
     3
370
     9
100
AcDbLine
 10
-1031.343408533045
 20
-379.2127124683276
 30
0.0
 11
-1131.343676592853
 21
-379.2127124683276
 31
0.0
  0
LINE
  5
2D2
330
1F
100
AcDbEntity
  8
0234_
  6
JWW_CENTER1
 62
     4
370
     9
100
AcDbLine
 10
-1081.343511632971
 20
-406.9517063450168
 30
0.0
 11
-1081.343511632971
 21
-366.7127949482685
 31
0.0
  0
LINE
  5
2D3
330
1F
100
AcDbEntity
  8
0216_
  6
Continuous
 62
     7
370
     9
100
AcDbLine
 10
-972.3415065456081
 20
-366.7123000686233
 30
0.0
 11
-773.386898556271
 21
-366.7123000686233
 31
0.0
  0
LINE
  5
2D4
330
1F
100
AcDbEntity
  8
0216_
  6
Continuous
 62
     7
370
     9
100
AcDbLine
 10
-776.387477565456
 20
-366.7123000686233
 30
0.0
 11
-776.387477565456
 21
-251.713405299831
 31
0.0
  0
LINE
  5
2D5
330
1F
100
AcDbEntity
  8
0242_
  6
Continuous
 62
     7
370
     9
100
AcDbLine
 10
-988.2327105547929
 20
-369.2114422772381
 30
0.0
 11
-974.4209908150337
 21
-348.3729264542862
 31
0.0
  0
LINE
  5
2D6
330
1F
100
AcDbEntity
  8
0242_
  6
Continuous
 62
     7
370
     9
100
AcDbLine
 10
-988.2327105547929
 20
-369.2114422772381
 30
0.0
 11
-969.4989178631756
 21
-352.6573469832136
 31
0.0
  0
LINE
  5
2D7
330
1F
100
AcDbEntity
  8
0242_
  6
Continuous
 62
     7
370
     9
100
AcDbLine
 10
-813.6835871516047
 20
-168.6639404296875
 30
0.0
 11
-988.2327105547929
 21
-369.2114422772381
 31
0.0
  0
LINE
  5
2D8
330
1F
100
AcDbEntity
  8
0242_
  6
Continuous
 62
     7
370
     9
100
AcDbLine
 10
-823.0897645692567
 20
26.90420614706511
 30
0.0
 11
-1065.588770685969
 21
-251.7131578600083
 31
0.0
  0
LINE
  5
2D9
330
1F
100
AcDbEntity
  8
0242_
  6
Continuous
 62
     7
370
     9
100
AcDbLine
 10
-1065.588770685969
 20
-251.7131578600083
 30
0.0
 11
-1051.778102565456
 21
-230.8752606366131
 31
0.0
  0
LINE
  5
2DA
330
1F
100
AcDbEntity
  8
0242_
  6
Continuous
 62
     7
370
     9
100
AcDbLine
 10
-1065.588770685969
 20
-251.7131578600083
 30
0.0
 11
-1046.855039854308
 21
-235.1595574456292
 31
0.0
  0
LINE
  5
2DB
330
1F
100
AcDbEntity
  8
0242_
  6
Continuous
 62
     7
370
     9
100
AcDbLine
 10
-1006.352481326541
 20
-280.8765390756968
 30
0.0
 11
-992.5417513460725
 21
-260.0386418523015
 31
0.0
  0
LINE
  5
2DC
330
1F
100
AcDbEntity
  8
0242_
  6
Continuous
 62
     7
370
     9
100
AcDbLine
 10
-816.263147302576
 20
-62.47476938608514
 30
0.0
 11
-1006.352481326541
 21
-280.8765390756968
 31
0.0
  0
LINE
  5
2DD
330
1F
100
AcDbEntity
  8
0242_
  6
Continuous
 62
     7
370
     9
100
AcDbLine
 10
-1006.352481326541
 20
-280.8765390756968
 30
0.0
 11
-987.6188123548353
 21
-264.3229386613174
 31
0.0
  0
LINE
  5
2DE
330
1F
100
AcDbEntity
  8
0220_
  6
Continuous
 62
     6
370
     5
100
AcDbLine
 10
-863.843350797086
 20
-576.7132403399492
 30
0.0
 11
-863.843350797086
 21
-398.2113894900759
 31
0.0
  0
LINE
  5
2DF
330
1F
100
AcDbEntity
  8
0220_
  6
Continuous
 62
     6
370
     5
100
AcDbLine
 10
-908.8438704207136
 20
-576.7132403399492
 30
0.0
 11
-908.8438704207136
 21
-398.2113894900759
 31
0.0
  0
LINE
  5
2E0
330
1F
100
AcDbEntity
  8
0220_
  6
Continuous
 62
     6
370
     5
100
AcDbLine
 10
-908.8438704207136
 20
-369.2114422772381
 30
0.0
 11
-908.8438704207136
 21
-334.2114505252322
 31
0.0
  0
LINE
  5
2E1
330
1F
100
AcDbEntity
  8
0220_
  6
Continuous
 62
     6
370
     5
100
AcDbLine
 10
-863.843350797086
 20
-369.2114422772381
 30
0.0
 11
-863.843350797086
 21
-334.2114505252322
 31
0.0
  0
LINE
  5
2E2
330
1F
100
AcDbEntity
  8
0220_
  6
Continuous
 62
     6
370
     5
100
AcDbLine
 10
-908.8438704207136
 20
-334.2114505252322
 30
0.0
 11
-863.843350797086
 21
-334.2114505252322
 31
0.0
  0
LINE
  5
2E3
330
1F
100
AcDbEntity
  8
0220_
  6
JWW_CENTER2
 62
     6
370
     5
100
AcDbLine
 10
-886.3436724688554
 20
-321.8979789115286
 30
0.0
 11
-886.3436724688554
 21
-690.0457516232052
 31
0.0
  0
LINE
  5
2E4
330
1F
100
AcDbEntity
  8
0220_
  6
JWW_DASHED3
 62
     6
370
     5
100
AcDbLine
 10
-908.8438704207136
 20
-679.212836188239
 30
0.0
 11
-908.8438704207136
 21
-576.7132403399492
 31
0.0
  0
LINE
  5
2E5
330
1F
100
AcDbEntity
  8
0220_
  6
JWW_DASHED3
 62
     6
370
     5
100
AcDbLine
 10
-863.843350797086
 20
-576.7132403399492
 30
0.0
 11
-863.843350797086
 21
-679.212836188239
 31
0.0
  0
LINE
  5
2E6
330
1F
100
AcDbEntity
  8
0242_
  6
Continuous
 62
     7
370
     9
100
AcDbLine
 10
-704.008236446896
 20
-679.4451821816933
 30
0.0
 11
-515.6840143976984
 21
-679.4451821816933
 31
0.0
  0
LINE
  5
2E7
330
1F
100
AcDbEntity
  8
0242_
  6
Continuous
 62
     7
370
     9
100
AcDbLine
 10
-863.8517637510557
 20
-519.6015311576224
 30
0.0
 11
-704.008236446896
 21
-679.4451821816933
 31
0.0
  0
LINE
  5
2E8
330
1F
100
AcDbEntity
  8
0242_
  6
Continuous
 62
     7
370
     9
100
AcDbLine
 10
-863.8517637510557
 20
-519.6015311576224
 30
0.0
 11
-848.6327300200592
 21
-539.4353794407199
 31
0.0
  0
LINE
  5
2E9
330
1F
100
AcDbEntity
  8
0242_
  6
Continuous
 62
     7
370
     9
100
AcDbLine
 10
-863.8517637510557
 20
-519.6015311576224
 30
0.0
 11
-844.0179773279137
 21
-534.820564888619
 31
0.0
  0
LINE
  5
2EA
330
1F
100
AcDbEntity
  8
0216_
  6
Continuous
 62
     7
370
     9
100
AcDbLine
 10
-1494.40538561022
 20
-251.7131578600083
 30
0.0
 11
-1494.40538561022
 21
-351.7133640598605
 31
0.0
  0
LINE
  5
2EB
330
1F
100
AcDbEntity
  8
0242_
  6
Continuous
 62
     7
370
     9
100
AcDbLine
 10
-813.6835871516047
 20
-168.6639404296875
 30
0.0
 11
-191.538836504962
 21
-168.6639404296875
 31
0.0
  0
LINE
  5
2EC
330
1F
100
AcDbEntity
  8
0242_
  6
Continuous
 62
     7
370
     9
100
AcDbLine
 10
-816.263147302576
 20
-62.47476938608514
 30
0.0
 11
-361.6660865577489
 21
-62.47476938608514
 31
0.0
  0
LINE
  5
2ED
330
1F
100
AcDbEntity
  8
0242_
  6
Continuous
 62
     7
370
     9
100
AcDbLine
 10
-823.0897645692567
 20
26.90420614706511
 30
0.0
 11
26.99939624683282
 21
26.90420614706511
 31
0.0
  0
LINE
  5
2EE
330
1F
100
AcDbEntity
  8
0192_区
  6
Continuous
 62
     3
370
     9
100
AcDbLine
 10
-129.5121064057221
 20
648.5533348289698
 30
0.0
 11
-89.51197443781666
 21
678.553928684544
 31
0.0
  0
LINE
  5
2EF
330
1F
100
AcDbEntity
  8
0192_区
  6
Continuous
 62
     3
370
     9
100
AcDbLine
 10
-109.5122878615919
 20
678.553928684544
 30
0.0
 11
-89.51197443781666
 21
678.553928684544
 31
0.0
  0
LINE
  5
2F0
330
1F
100
AcDbEntity
  8
0192_区
  6
Continuous
 62
     3
370
     9
100
AcDbLine
 10
-109.5122878615919
 20
648.5533348289698
 30
0.0
 11
-109.5122878615919
 21
530.5538610509925
 31
0.0
  0
LINE
  5
2F1
330
1F
100
AcDbEntity
  8
0192_区
  6
Continuous
 62
     3
370
     9
100
AcDbLine
 10
-109.5122878615919
 20
826.5536251583617
 30
0.0
 11
-109.5122878615919
 21
678.553928684544
 31
0.0
  0
LINE
  5
2F2
330
1F
100
AcDbEntity
  8
0239_詳
  6
Continuous
 62
     3
370
     9
100
AcDbLine
 10
-190.1922689901815
 20
556.5539715741133
 30
0.0
 11
-190.1922689901815
 21
800.5538857949748
 31
0.0
  0
LINE
  5
2F3
330
1F
100
AcDbEntity
  8
0239_詳
  6
Continuous
 62
     3
370
     9
100
AcDbLine
 10
-317.232204127956
 20
800.5538857949748
 30
0.0
 11
-317.232204127956
 21
556.5539715741133
 31
0.0
  0
LINE
  5
2F4
330
1F
100
AcDbEntity
  8
0239_詳
  6
Continuous
 62
     3
370
     9
100
AcDbLine
 10
-325.2321810335727
 20
556.5539715741133
 30
0.0
 11
-325.2321810335727
 21
800.5538857949748
 31
0.0
  0
LINE
  5
2F5
330
1F
100
AcDbEntity
  8
0239_詳
  6
Continuous
 62
     3
370
     9
100
AcDbLine
 10
-308.3522074931375
 20
556.5539715741133
 30
0.0
 11
-308.3522074931375
 21
800.5538857949748
 31
0.0
  0
LINE
  5
2F6
330
1F
100
AcDbEntity
  8
0239_詳
  6
Continuous
 62
     3
370
     9
100
AcDbLine
 10
-300.3522305875211
 20
800.5538857949748
 30
0.0
 11
-300.3522305875211
 21
556.5539715741133
 31
0.0
  0
LINE
  5
2F7
330
1F
100
AcDbEntity
  8
0239_詳
  6
Continuous
 62
     3
370
     9
100
AcDbLine
 10
-283.4722570470859
 20
800.5538857949748
 30
0.0
 11
-283.4722570470859
 21
556.5539715741133
 31
0.0
  0
LINE
  5
2F8
330
1F
100
AcDbEntity
  8
0239_詳
  6
Continuous
 62
     3
370
     9
100
AcDbLine
 10
-291.4722339527026
 20
556.5539715741133
 30
0.0
 11
-291.4722339527026
 21
800.5538857949748
 31
0.0
  0
LINE
  5
2F9
330
1F
100
AcDbEntity
  8
0239_詳
  6
Continuous
 62
     3
370
     9
100
AcDbLine
 10
-266.592283506651
 20
800.5538857949748
 30
0.0
 11
-266.592283506651
 21
556.5539715741133
 31
0.0
  0
LINE
  5
2FA
330
1F
100
AcDbEntity
  8
0239_詳
  6
Continuous
 62
     3
370
     9
100
AcDbLine
 10
-274.5922604122677
 20
556.5539715741133
 30
0.0
 11
-274.5922604122677
 21
800.5538857949748
 31
0.0
  0
LINE
  5
2FB
330
1F
100
AcDbEntity
  8
0239_詳
  6
Continuous
 62
     3
370
     9
100
AcDbLine
 10
-249.7123099662161
 20
800.5538857949748
 30
0.0
 11
-249.7123099662161
 21
556.5539715741133
 31
0.0
  0
LINE
  5
2FC
330
1F
100
AcDbEntity
  8
0239_詳
  6
Continuous
 62
     3
370
     9
100
AcDbLine
 10
-257.7122868718325
 20
556.5539715741133
 30
0.0
 11
-257.7122868718325
 21
800.5538857949748
 31
0.0
  0
LINE
  5
2FD
330
1F
100
AcDbEntity
  8
0239_詳
  6
Continuous
 62
     3
370
     9
100
AcDbLine
 10
-232.8322127058698
 20
800.5538857949748
 30
0.0
 11
-232.8322127058698
 21
556.5539715741133
 31
0.0
  0
LINE
  5
2FE
330
1F
100
AcDbEntity
  8
0239_詳
  6
Continuous
 62
     3
370
     9
100
AcDbLine
 10
-240.8321896114865
 20
556.5539715741133
 30
0.0
 11
-240.8321896114865
 21
800.5538857949748
 31
0.0
  0
LINE
  5
2FF
330
1F
100
AcDbEntity
  8
0239_詳
  6
Continuous
 62
     3
370
     9
100
AcDbLine
 10
-215.9522391654349
 20
800.5538857949748
 30
0.0
 11
-215.9522391654349
 21
556.5539715741133
 31
0.0
  0
LINE
  5
300
330
1F
100
AcDbEntity
  8
0239_詳
  6
Continuous
 62
     3
370
     9
100
AcDbLine
 10
-223.9522160710513
 20
556.5539715741133
 30
0.0
 11
-223.9522160710513
 21
800.5538857949748
 31
0.0
  0
LINE
  5
301
330
1F
100
AcDbEntity
  8
0239_詳
  6
Continuous
 62
     3
370
     9
100
AcDbLine
 10
-199.072265625
 20
800.5538857949748
 30
0.0
 11
-199.072265625
 21
556.5539715741133
 31
0.0
  0
LINE
  5
302
330
1F
100
AcDbEntity
  8
0239_詳
  6
Continuous
 62
     3
370
     9
100
AcDbLine
 10
-207.0722425306164
 20
556.5539715741133
 30
0.0
 11
-207.0722425306164
 21
800.5538857949748
 31
0.0
  0
LINE
  5
303
330
1F
100
AcDbEntity
  8
0239_詳
  6
Continuous
 62
     3
370
     9
100
AcDbLine
 10
-182.1922920845648
 20
800.5538857949748
 30
0.0
 11
-182.1922920845648
 21
556.5539715741133
 31
0.0
  0
LINE
  5
304
330
1F
100
AcDbEntity
  8
0239_詳
  6
Continuous
 62
     3
370
     9
100
AcDbLine
 10
-334.1123013883023
 20
800.5538857949748
 30
0.0
 11
-334.1123013883023
 21
556.5539715741133
 31
0.0
  0
LINE
  5
305
330
1F
100
AcDbEntity
  8
0239_詳
  6
Continuous
 62
     3
370
     9
100
AcDbLine
 10
-342.1122782939187
 20
556.5539715741133
 30
0.0
 11
-342.1122782939187
 21
800.5538857949748
 31
0.0
  0
LINE
  5
306
330
1F
100
AcDbEntity
  8
0239_詳
  6
Continuous
 62
     3
370
     9
100
AcDbLine
 10
-173.3122954497466
 20
556.5539715741133
 30
0.0
 11
-173.3122954497466
 21
800.5538857949748
 31
0.0
  0
LINE
  5
307
330
1F
100
AcDbEntity
  8
0239_詳
  6
Continuous
 62
     3
370
     9
100
AcDbLine
 10
-165.3123185441299
 20
800.5538857949748
 30
0.0
 11
-165.3123185441299
 21
556.5539715741133
 31
0.0
  0
LINE
  5
308
330
1F
100
AcDbEntity
  8
0239_詳
  6
Continuous
 62
     3
370
     9
100
AcDbLine
 10
-156.4321981894003
 20
556.5539715741133
 30
0.0
 11
-156.4321981894003
 21
800.5538857949748
 31
0.0
  0
LINE
  5
309
330
1F
100
AcDbEntity
  8
0239_詳
  6
Continuous
 62
     3
370
     9
100
AcDbLine
 10
-148.4322212837836
 20
800.5538857949748
 30
0.0
 11
-148.4322212837836
 21
556.5539715741133
 31
0.0
  0
LINE
  5
30A
330
1F
100
AcDbEntity
  8
0239_詳
  6
Continuous
 62
     3
370
     9
100
AcDbLine
 10
-139.5522246489654
 20
556.5539715741133
 30
0.0
 11
-139.5522246489654
 21
800.5538857949748
 31
0.0
  0
LINE
  5
30B
330
1F
100
AcDbEntity
  8
0239_詳
  6
Continuous
 62
     3
370
     9
100
AcDbLine
 10
-131.5522477433487
 20
800.5538857949748
 30
0.0
 11
-131.5522477433487
 21
556.5539715741133
 31
0.0
  0
LINE
  5
30C
330
1F
100
AcDbEntity
  8
0239_詳
  6
Continuous
 62
     3
370
     9
100
AcDbLine
 10
-97.79230066247891
 20
678.553928684544
 30
0.0
 11
-97.79230066247891
 21
672.3436840160474
 31
0.0
  0
LINE
  5
30D
330
1F
100
AcDbEntity
  8
0239_詳
  6
Continuous
 62
     3
370
     9
100
AcDbLine
 10
-105.7922775680953
 20
666.3435157569679
 30
0.0
 11
-105.7922775680953
 21
678.553928684544
 31
0.0
  0
LINE
  5
30E
330
1F
100
AcDbEntity
  8
0192_区
  6
Continuous
 62
     3
370
     9
100
AcDbLine
 10
-129.5121064057221
 20
648.5533348289698
 30
0.0
 11
-109.5122878615919
 21
648.5533348289698
 31
0.0
  0
LINE
  5
30F
330
1F
100
AcDbEntity
  8
0239_詳
  6
Continuous
 62
     3
370
     9
100
AcDbLine
 10
-122.6722511085302
 20
653.6832572318415
 30
0.0
 11
-122.6722511085302
 21
800.5538857949748
 31
0.0
  0
LINE
  5
310
330
1F
100
AcDbEntity
  8
0239_詳
  6
Continuous
 62
     3
370
     9
100
AcDbLine
 10
-114.6722742029138
 20
800.5538857949748
 30
0.0
 11
-114.6722742029138
 21
659.6834254909209
 31
0.0
  0
LINE
  5
311
330
1F
100
AcDbEntity
  8
0239_詳
  6
Continuous
 62
     3
370
     9
100
AcDbLine
 10
-122.6722511085302
 20
556.5539715741133
 30
0.0
 11
-122.6722511085302
 21
648.5533348289698
 31
0.0
  0
LINE
  5
312
330
1F
100
AcDbEntity
  8
0239_詳
  6
Continuous
 62
     3
370
     9
100
AcDbLine
 10
-114.6722742029138
 20
648.5533348289698
 30
0.0
 11
-114.6722742029138
 21
556.5539715741133
 31
0.0
  0
LINE
  5
313
330
1F
100
AcDbEntity
  8
0239_詳
  6
Continuous
 62
     3
370
     9
100
AcDbLine
 10
-368.4731560784417
 20
556.5539715741133
 30
0.0
 11
-368.4731560784417
 21
800.5538857949748
 31
0.0
  0
LINE
  5
314
330
1F
100
AcDbEntity
  8
0192_区
  6
Continuous
 62
     3
370
     9
100
AcDbLine
 10
-360.473179172825
 20
803.5538462046031
 30
0.0
 11
-360.473179172825
 21
553.5540111644849
 31
0.0
  0
LINE
  5
315
330
1F
100
AcDbEntity
  8
0192_区
  6
Continuous
 62
     3
370
     9
100
AcDbLine
 10
-359.473151129645
 20
553.5540111644849
 30
0.0
 11
-109.5122878615919
 21
553.5540111644849
 31
0.0
  0
LINE
  5
316
330
1F
100
AcDbEntity
  8
0192_区
  6
Continuous
 62
     3
370
     9
100
AcDbLine
 10
-359.473151129645
 20
803.5538462046031
 30
0.0
 11
-359.473151129645
 21
553.5540111644849
 31
0.0
  0
LINE
  5
317
330
1F
100
AcDbEntity
  8
0192_区
  6
Continuous
 62
     3
370
     9
100
AcDbLine
 10
-359.473151129645
 20
803.5538462046031
 30
0.0
 11
-109.5122878615919
 21
803.5538462046031
 31
0.0
  0
LINE
  5
318
330
1F
100
AcDbEntity
  8
0239_詳
  6
Continuous
 62
     3
370
     9
100
AcDbLine
 10
-351.4732979439398
 20
800.5538857949748
 30
0.0
 11
-351.4732979439398
 21
556.5539715741133
 31
0.0
  0
LINE
  5
319
330
1F
100
AcDbEntity
  8
0239_詳
  6
Continuous
 62
     3
370
     9
100
AcDbLine
 10
-109.5122878615919
 20
800.5538857949748
 30
0.0
 11
-359.473151129645
 21
800.5538857949748
 31
0.0
  0
LINE
  5
31A
330
1F
100
AcDbEntity
  8
0239_詳
  6
Continuous
 62
     3
370
     9
100
AcDbLine
 10
-109.5122878615919
 20
556.5539715741133
 30
0.0
 11
-359.473151129645
 21
556.5539715741133
 31
0.0
  0
LINE
  5
31B
330
1F
100
AcDbEntity
  8
0193_区
  6
Continuous
 62
     7
370
     9
100
AcDbLine
 10
-360.473179172825
 20
823.5539121885561
 30
0.0
 11
-360.473179172825
 21
906.5538890941724
 31
0.0
  0
LINE
  5
31C
330
1F
100
AcDbEntity
  8
0193_区
  6
Continuous
 62
     7
370
     9
100
AcDbLine
 10
-359.4730274097338
 20
823.5539121885561
 30
0.0
 11
-359.4730274097338
 21
986.5534107105154
 31
0.0
  0
LINE
  5
31D
330
1F
100
AcDbEntity
  8
0239_詳
  6
Continuous
 62
     3
370
     9
100
AcDbLine
 10
-689.4336597339526
 20
556.5539715741133
 30
0.0
 11
-689.4336597339526
 21
800.5538857949748
 31
0.0
  0
LINE
  5
31E
330
1F
100
AcDbEntity
  8
0239_詳
  6
Continuous
 62
     3
370
     9
100
AcDbLine
 10
-816.4737185916385
 20
800.5538857949748
 30
0.0
 11
-816.4737185916385
 21
556.5539715741133
 31
0.0
  0
LINE
  5
31F
330
1F
100
AcDbEntity
  8
0239_詳
  6
Continuous
 62
     3
370
     9
100
AcDbLine
 10
-824.473695497255
 20
556.5539715741133
 30
0.0
 11
-824.473695497255
 21
800.5538857949748
 31
0.0
  0
LINE
  5
320
330
1F
100
AcDbEntity
  8
0239_詳
  6
Continuous
 62
     3
370
     9
100
AcDbLine
 10
-807.5935982369085
 20
556.5539715741133
 30
0.0
 11
-807.5935982369085
 21
800.5538857949748
 31
0.0
  0
LINE
  5
321
330
1F
100
AcDbEntity
  8
0239_詳
  6
Continuous
 62
     3
370
     9
100
AcDbLine
 10
-799.5936213312922
 20
800.5538857949748
 30
0.0
 11
-799.5936213312922
 21
556.5539715741133
 31
0.0
  0
LINE
  5
322
330
1F
100
AcDbEntity
  8
0239_詳
  6
Continuous
 62
     3
370
     9
100
AcDbLine
 10
-782.7136477908573
 20
800.5538857949748
 30
0.0
 11
-782.7136477908573
 21
556.5539715741133
 31
0.0
  0
LINE
  5
323
330
1F
100
AcDbEntity
  8
0239_詳
  6
Continuous
 62
     3
370
     9
100
AcDbLine
 10
-790.7136246964737
 20
556.5539715741133
 30
0.0
 11
-790.7136246964737
 21
800.5538857949748
 31
0.0
  0
LINE
  5
324
330
1F
100
AcDbEntity
  8
0239_詳
  6
Continuous
 62
     3
370
     9
100
AcDbLine
 10
-765.8336742504221
 20
800.5538857949748
 30
0.0
 11
-765.8336742504221
 21
556.5539715741133
 31
0.0
  0
LINE
  5
325
330
1F
100
AcDbEntity
  8
0239_詳
  6
Continuous
 62
     3
370
     9
100
AcDbLine
 10
-773.8336511560387
 20
556.5539715741133
 30
0.0
 11
-773.8336511560387
 21
800.5538857949748
 31
0.0
  0
LINE
  5
326
330
1F
100
AcDbEntity
  8
0239_詳
  6
Continuous
 62
     3
370
     9
100
AcDbLine
 10
-748.9537007099873
 20
800.5538857949748
 30
0.0
 11
-748.9537007099873
 21
556.5539715741133
 31
0.0
  0
LINE
  5
327
330
1F
100
AcDbEntity
  8
0239_詳
  6
Continuous
 62
     3
370
     9
100
AcDbLine
 10
-756.953677615604
 20
556.5539715741133
 30
0.0
 11
-756.953677615604
 21
800.5538857949748
 31
0.0
  0
LINE
  5
328
330
1F
100
AcDbEntity
  8
0239_詳
  6
Continuous
 62
     3
370
     9
100
AcDbLine
 10
-732.0737271695523
 20
800.5538857949748
 30
0.0
 11
-732.0737271695523
 21
556.5539715741133
 31
0.0
  0
LINE
  5
329
330
1F
100
AcDbEntity
  8
0239_詳
  6
Continuous
 62
     3
370
     9
100
AcDbLine
 10
-740.0737040751687
 20
556.5539715741133
 30
0.0
 11
-740.0737040751687
 21
800.5538857949748
 31
0.0
  0
LINE
  5
32A
330
1F
100
AcDbEntity
  8
0239_詳
  6
Continuous
 62
     3
370
     9
100
AcDbLine
 10
-715.193629909206
 20
800.5538857949748
 30
0.0
 11
-715.193629909206
 21
556.5539715741133
 31
0.0
  0
LINE
  5
32B
330
1F
100
AcDbEntity
  8
0239_詳
  6
Continuous
 62
     3
370
     9
100
AcDbLine
 10
-723.1936068148227
 20
556.5539715741133
 30
0.0
 11
-723.1936068148227
 21
800.5538857949748
 31
0.0
  0
LINE
  5
32C
330
1F
100
AcDbEntity
  8
0239_詳
  6
Continuous
 62
     3
370
     9
100
AcDbLine
 10
-698.313656368771
 20
800.5538857949748
 30
0.0
 11
-698.313656368771
 21
556.5539715741133
 31
0.0
  0
LINE
  5
32D
330
1F
100
AcDbEntity
  8
0239_詳
  6
Continuous
 62
     3
370
     9
100
AcDbLine
 10
-706.3136332743875
 20
556.5539715741133
 30
0.0
 11
-706.3136332743875
 21
800.5538857949748
 31
0.0
  0
LINE
  5
32E
330
1F
100
AcDbEntity
  8
0239_詳
  6
Continuous
 62
     3
370
     9
100
AcDbLine
 10
-681.4336828283363
 20
800.5538857949748
 30
0.0
 11
-681.4336828283363
 21
556.5539715741133
 31
0.0
  0
LINE
  5
32F
330
1F
100
AcDbEntity
  8
0239_詳
  6
Continuous
 62
     3
370
     9
100
AcDbLine
 10
-833.3536921320734
 20
800.5538857949748
 30
0.0
 11
-833.3536921320734
 21
556.5539715741133
 31
0.0
  0
LINE
  5
330
330
1F
100
AcDbEntity
  8
0239_詳
  6
Continuous
 62
     3
370
     9
100
AcDbLine
 10
-841.35366903769
 20
556.5539715741133
 30
0.0
 11
-841.35366903769
 21
800.5538857949748
 31
0.0
  0
LINE
  5
331
330
1F
100
AcDbEntity
  8
0239_詳
  6
Continuous
 62
     3
370
     9
100
AcDbLine
 10
-672.5536861935177
 20
556.5539715741133
 30
0.0
 11
-672.5536861935177
 21
800.5538857949748
 31
0.0
  0
LINE
  5
332
330
1F
100
AcDbEntity
  8
0239_詳
  6
Continuous
 62
     3
370
     9
100
AcDbLine
 10
-664.553709287901
 20
800.5538857949748
 30
0.0
 11
-664.553709287901
 21
556.5539715741133
 31
0.0
  0
LINE
  5
333
330
1F
100
AcDbEntity
  8
0239_詳
  6
Continuous
 62
     3
370
     9
100
AcDbLine
 10
-655.6735889331713
 20
556.5539715741133
 30
0.0
 11
-655.6735889331713
 21
800.5538857949748
 31
0.0
  0
LINE
  5
334
330
1F
100
AcDbEntity
  8
0239_詳
  6
Continuous
 62
     3
370
     9
100
AcDbLine
 10
-647.673612027555
 20
800.5538857949748
 30
0.0
 11
-647.673612027555
 21
556.5539715741133
 31
0.0
  0
LINE
  5
335
330
1F
100
AcDbEntity
  8
0239_詳
  6
Continuous
 62
     3
370
     9
100
AcDbLine
 10
-638.7936153927365
 20
556.5539715741133
 30
0.0
 11
-638.7936153927365
 21
800.5538857949748
 31
0.0
  0
LINE
  5
336
330
1F
100
AcDbEntity
  8
0239_詳
  6
Continuous
 62
     3
370
     9
100
AcDbLine
 10
-630.7936384871198
 20
800.5538857949748
 30
0.0
 11
-630.7936384871198
 21
556.5539715741133
 31
0.0
  0
LINE
  5
337
330
1F
100
AcDbEntity
  8
0239_詳
  6
Continuous
 62
     3
370
     9
100
AcDbLine
 10
-621.9136418523016
 20
556.5539715741133
 30
0.0
 11
-621.9136418523016
 21
800.5538857949748
 31
0.0
  0
LINE
  5
338
330
1F
100
AcDbEntity
  8
0239_詳
  6
Continuous
 62
     3
370
     9
100
AcDbLine
 10
-613.9136649466849
 20
800.5538857949748
 30
0.0
 11
-613.9136649466849
 21
556.5539715741133
 31
0.0
  0
LINE
  5
339
330
1F
100
AcDbEntity
  8
0239_詳
  6
Continuous
 62
     3
370
     9
100
AcDbLine
 10
-605.0336683118664
 20
556.5539715741133
 30
0.0
 11
-605.0336683118664
 21
800.5538857949748
 31
0.0
  0
LINE
  5
33A
330
1F
100
AcDbEntity
  8
0239_詳
  6
Continuous
 62
     3
370
     9
100
AcDbLine
 10
-597.03369140625
 20
800.5538857949748
 30
0.0
 11
-597.03369140625
 21
556.5539715741133
 31
0.0
  0
LINE
  5
33B
330
1F
100
AcDbEntity
  8
0239_詳
  6
Continuous
 62
     3
370
     9
100
AcDbLine
 10
-588.1536947714314
 20
556.5539715741133
 30
0.0
 11
-588.1536947714314
 21
800.5538857949748
 31
0.0
  0
LINE
  5
33C
330
1F
100
AcDbEntity
  8
0239_詳
  6
Continuous
 62
     3
370
     9
100
AcDbLine
 10
-580.1537178658148
 20
800.5538857949748
 30
0.0
 11
-580.1537178658148
 21
556.5539715741133
 31
0.0
  0
LINE
  5
33D
330
1F
100
AcDbEntity
  8
0239_詳
  6
Continuous
 62
     3
370
     9
100
AcDbLine
 10
-571.2735975110852
 20
556.5539715741133
 30
0.0
 11
-571.2735975110852
 21
800.5538857949748
 31
0.0
  0
LINE
  5
33E
330
1F
100
AcDbEntity
  8
0239_詳
  6
Continuous
 62
     3
370
     9
100
AcDbLine
 10
-563.2736206054688
 20
800.5538857949748
 30
0.0
 11
-563.2736206054688
 21
556.5539715741133
 31
0.0
  0
LINE
  5
33F
330
1F
100
AcDbEntity
  8
0239_詳
  6
Continuous
 62
     3
370
     9
100
AcDbLine
 10
-554.3936239706502
 20
556.5539715741133
 30
0.0
 11
-554.3936239706502
 21
800.5538857949748
 31
0.0
  0
LINE
  5
340
330
1F
100
AcDbEntity
  8
0239_詳
  6
Continuous
 62
     3
370
     9
100
AcDbLine
 10
-546.3936470650335
 20
800.5538857949748
 30
0.0
 11
-546.3936470650335
 21
556.5539715741133
 31
0.0
  0
LINE
  5
341
330
1F
100
AcDbEntity
  8
0239_詳
  6
Continuous
 62
     3
370
     9
100
AcDbLine
 10
-537.5136504302154
 20
556.5539715741133
 30
0.0
 11
-537.5136504302154
 21
800.5538857949748
 31
0.0
  0
LINE
  5
342
330
1F
100
AcDbEntity
  8
0239_詳
  6
Continuous
 62
     3
370
     9
100
AcDbLine
 10
-529.5136735245987
 20
800.5538857949748
 30
0.0
 11
-529.5136735245987
 21
556.5539715741133
 31
0.0
  0
LINE
  5
343
330
1F
100
AcDbEntity
  8
0239_詳
  6
Continuous
 62
     3
370
     9
100
AcDbLine
 10
-520.6336768897802
 20
556.5539715741133
 30
0.0
 11
-520.6336768897802
 21
800.5538857949748
 31
0.0
  0
LINE
  5
344
330
1F
100
AcDbEntity
  8
0239_詳
  6
Continuous
 62
     3
370
     9
100
AcDbLine
 10
-512.6336999841637
 20
800.5538857949748
 30
0.0
 11
-512.6336999841637
 21
556.5539715741133
 31
0.0
  0
LINE
  5
345
330
1F
100
AcDbEntity
  8
0239_詳
  6
Continuous
 62
     3
370
     9
100
AcDbLine
 10
-503.7537033493453
 20
556.5539715741133
 30
0.0
 11
-503.7537033493453
 21
800.5538857949748
 31
0.0
  0
LINE
  5
346
330
1F
100
AcDbEntity
  8
0239_詳
  6
Continuous
 62
     3
370
     9
100
AcDbLine
 10
-495.7537264437289
 20
800.5538857949748
 30
0.0
 11
-495.7537264437289
 21
556.5539715741133
 31
0.0
  0
LINE
  5
347
330
1F
100
AcDbEntity
  8
0239_詳
  6
Continuous
 62
     3
370
     9
100
AcDbLine
 10
-486.8736060889989
 20
556.5539715741133
 30
0.0
 11
-486.8736060889989
 21
800.5538857949748
 31
0.0
  0
LINE
  5
348
330
1F
100
AcDbEntity
  8
0239_詳
  6
Continuous
 62
     3
370
     9
100
AcDbLine
 10
-478.8736291833825
 20
800.5538857949748
 30
0.0
 11
-478.8736291833825
 21
556.5539715741133
 31
0.0
  0
LINE
  5
349
330
1F
100
AcDbEntity
  8
0239_詳
  6
Continuous
 62
     3
370
     9
100
AcDbLine
 10
-469.9936325485641
 20
556.5539715741133
 30
0.0
 11
-469.9936325485641
 21
800.5538857949748
 31
0.0
  0
LINE
  5
34A
330
1F
100
AcDbEntity
  8
0239_詳
  6
Continuous
 62
     3
370
     9
100
AcDbLine
 10
-461.9936556429477
 20
800.5538857949748
 30
0.0
 11
-461.9936556429477
 21
556.5539715741133
 31
0.0
  0
LINE
  5
34B
330
1F
100
AcDbEntity
  8
0239_詳
  6
Continuous
 62
     3
370
     9
100
AcDbLine
 10
-453.1136590081292
 20
556.5539715741133
 30
0.0
 11
-453.1136590081292
 21
800.5538857949748
 31
0.0
  0
LINE
  5
34C
330
1F
100
AcDbEntity
  8
0239_詳
  6
Continuous
 62
     3
370
     9
100
AcDbLine
 10
-445.1136821025125
 20
800.5538857949748
 30
0.0
 11
-445.1136821025125
 21
556.5539715741133
 31
0.0
  0
LINE
  5
34D
330
1F
100
AcDbEntity
  8
0239_詳
  6
Continuous
 62
     3
370
     9
100
AcDbLine
 10
-436.2336854676943
 20
556.5539715741133
 30
0.0
 11
-436.2336854676943
 21
800.5538857949748
 31
0.0
  0
LINE
  5
34E
330
1F
100
AcDbEntity
  8
0239_詳
  6
Continuous
 62
     3
370
     9
100
AcDbLine
 10
-428.2337085620776
 20
800.5538857949748
 30
0.0
 11
-428.2337085620776
 21
556.5539715741133
 31
0.0
  0
LINE
  5
34F
330
1F
100
AcDbEntity
  8
0239_詳
  6
Continuous
 62
     3
370
     9
100
AcDbLine
 10
-419.3535882073479
 20
556.5539715741133
 30
0.0
 11
-419.3535882073479
 21
800.5538857949748
 31
0.0
  0
LINE
  5
350
330
1F
100
AcDbEntity
  8
0239_詳
  6
Continuous
 62
     3
370
     9
100
AcDbLine
 10
-411.3536113017312
 20
800.5538857949748
 30
0.0
 11
-411.3536113017312
 21
556.5539715741133
 31
0.0
  0
LINE
  5
351
330
1F
100
AcDbEntity
  8
0239_詳
  6
Continuous
 62
     3
370
     9
100
AcDbLine
 10
-402.473614666913
 20
556.5539715741133
 30
0.0
 11
-402.473614666913
 21
800.5538857949748
 31
0.0
  0
LINE
  5
352
330
1F
100
AcDbEntity
  8
0239_詳
  6
Continuous
 62
     3
370
     9
100
AcDbLine
 10
-394.4736377612963
 20
800.5538857949748
 30
0.0
 11
-394.4736377612963
 21
556.5539715741133
 31
0.0
  0
LINE
  5
353
330
1F
100
AcDbEntity
  8
0239_詳
  6
Continuous
 62
     3
370
     9
100
AcDbLine
 10
-385.5936411264778
 20
556.5539715741133
 30
0.0
 11
-385.5936411264778
 21
800.5538857949748
 31
0.0
  0
LINE
  5
354
330
1F
100
AcDbEntity
  8
0239_詳
  6
Continuous
 62
     3
370
     9
100
AcDbLine
 10
-377.5936642208615
 20
800.5538857949748
 30
0.0
 11
-377.5936642208615
 21
556.5539715741133
 31
0.0
  0
LINE
  5
355
330
1F
100
AcDbEntity
  8
0192_区
  6
Continuous
 62
     3
370
     9
100
AcDbLine
 10
-858.474030365815
 20
553.5540111644849
 30
0.0
 11
-858.474030365815
 21
803.5538462046031
 31
0.0
  0
LINE
  5
356
330
1F
100
AcDbEntity
  8
0239_詳
  6
Continuous
 62
     3
370
     9
100
AcDbLine
 10
-850.4741771801098
 20
800.5538857949748
 30
0.0
 11
-850.4741771801098
 21
556.5539715741133
 31
0.0
  0
LINE
  5
357
330
1F
100
AcDbEntity
  8
0192_区
  6
Continuous
 62
     3
370
     9
100
AcDbLine
 10
-858.474030365815
 20
803.5538462046031
 30
0.0
 11
-360.473179172825
 21
803.5538462046031
 31
0.0
  0
LINE
  5
358
330
1F
100
AcDbEntity
  8
0192_区
  6
Continuous
 62
     3
370
     9
100
AcDbLine
 10
-360.473179172825
 20
553.5540111644849
 30
0.0
 11
-858.474030365815
 21
553.5540111644849
 31
0.0
  0
LINE
  5
359
330
1F
100
AcDbEntity
  8
0239_詳
  6
Continuous
 62
     3
370
     9
100
AcDbLine
 10
-360.473179172825
 20
800.5538857949748
 30
0.0
 11
-858.474030365815
 21
800.5538857949748
 31
0.0
  0
LINE
  5
35A
330
1F
100
AcDbEntity
  8
0239_詳
  6
Continuous
 62
     3
370
     9
100
AcDbLine
 10
-360.473179172825
 20
556.5539715741133
 30
0.0
 11
-858.474030365815
 21
556.5539715741133
 31
0.0
  0
LINE
  5
35B
330
1F
100
AcDbEntity
  8
0193_区
  6
Continuous
 62
     7
370
     9
100
AcDbLine
 10
-860.47458133182
 20
903.5534338048988
 30
0.0
 11
-858.474030365815
 21
903.5534338048988
 31
0.0
  0
LINE
  5
35C
330
1F
100
AcDbEntity
  8
0193_区
  6
Continuous
 62
     7
370
     9
100
AcDbLine
 10
-859.4745532886401
 20
823.5539121885561
 30
0.0
 11
-859.4745532886401
 21
906.5538890941724
 31
0.0
  0
LINE
  5
35D
330
1F
100
AcDbEntity
  8
0193_区
  6
Continuous
 62
     7
370
     9
100
AcDbLine
 10
-858.474030365815
 20
823.5539121885561
 30
0.0
 11
-858.474030365815
 21
986.5534107105154
 31
0.0
  0
LINE
  5
35E
330
1F
100
AcDbEntity
  8
0239_詳
  6
Continuous
 62
     3
370
     9
100
AcDbLine
 10
-867.4740353146115
 20
556.5539715741133
 30
0.0
 11
-867.4740353146115
 21
800.5538857949748
 31
0.0
  0
LINE
  5
35F
330
1F
100
AcDbEntity
  8
0192_区
  6
Continuous
 62
     3
370
     9
100
AcDbLine
 10
-859.4740584089949
 20
803.5538462046031
 30
0.0
 11
-859.4740584089949
 21
553.5540111644849
 31
0.0
  0
LINE
  5
360
330
1F
100
AcDbEntity
  8
0239_詳
  6
Continuous
 62
     3
370
     9
100
AcDbLine
 10
-1188.434538970123
 20
556.5539715741133
 30
0.0
 11
-1188.434538970123
 21
800.5538857949748
 31
0.0
  0
LINE
  5
361
330
1F
100
AcDbEntity
  8
0239_詳
  6
Continuous
 62
     3
370
     9
100
AcDbLine
 10
-1315.474597827808
 20
800.5538857949748
 30
0.0
 11
-1315.474597827808
 21
556.5539715741133
 31
0.0
  0
LINE
  5
362
330
1F
100
AcDbEntity
  8
0239_詳
  6
Continuous
 62
     3
370
     9
100
AcDbLine
 10
-1323.474574733425
 20
556.5539715741133
 30
0.0
 11
-1323.474574733425
 21
800.5538857949748
 31
0.0
  0
LINE
  5
363
330
1F
100
AcDbEntity
  8
0239_詳
  6
Continuous
 62
     3
370
     9
100
AcDbLine
 10
-1306.594539333034
 20
556.5539715741133
 30
0.0
 11
-1306.594539333034
 21
800.5538857949748
 31
0.0
  0
LINE
  5
364
330
1F
100
AcDbEntity
  8
0239_詳
  6
Continuous
 62
     3
370
     9
100
AcDbLine
 10
-1298.594562427418
 20
800.5538857949748
 30
0.0
 11
-1298.594562427418
 21
556.5539715741133
 31
0.0
  0
LINE
  5
365
330
1F
100
AcDbEntity
  8
0239_詳
  6
Continuous
 62
     3
370
     9
100
AcDbLine
 10
-1281.714588886983
 20
800.5538857949748
 30
0.0
 11
-1281.714588886983
 21
556.5539715741133
 31
0.0
  0
LINE
  5
366
330
1F
100
AcDbEntity
  8
0239_詳
  6
Continuous
 62
     3
370
     9
100
AcDbLine
 10
-1289.714565792599
 20
556.5539715741133
 30
0.0
 11
-1289.714565792599
 21
800.5538857949748
 31
0.0
  0
LINE
  5
367
330
1F
100
AcDbEntity
  8
0239_詳
  6
Continuous
 62
     3
370
     9
100
AcDbLine
 10
-1264.834553486592
 20
800.5538857949748
 30
0.0
 11
-1264.834553486592
 21
556.5539715741133
 31
0.0
  0
LINE
  5
368
330
1F
100
AcDbEntity
  8
0239_詳
  6
Continuous
 62
     3
370
     9
100
AcDbLine
 10
-1272.834530392209
 20
556.5539715741133
 30
0.0
 11
-1272.834530392209
 21
800.5538857949748
 31
0.0
  0
LINE
  5
369
330
1F
100
AcDbEntity
  8
0239_詳
  6
Continuous
 62
     3
370
     9
100
AcDbLine
 10
-1247.954579946157
 20
800.5538857949748
 30
0.0
 11
-1247.954579946157
 21
556.5539715741133
 31
0.0
  0
LINE
  5
36A
330
1F
100
AcDbEntity
  8
0239_詳
  6
Continuous
 62
     3
370
     9
100
AcDbLine
 10
-1255.954556851774
 20
556.5539715741133
 30
0.0
 11
-1255.954556851774
 21
800.5538857949748
 31
0.0
  0
LINE
  5
36B
330
1F
100
AcDbEntity
  8
0239_詳
  6
Continuous
 62
     3
370
     9
100
AcDbLine
 10
-1231.074544545766
 20
800.5538857949748
 30
0.0
 11
-1231.074544545766
 21
556.5539715741133
 31
0.0
  0
LINE
  5
36C
330
1F
100
AcDbEntity
  8
0239_詳
  6
Continuous
 62
     3
370
     9
100
AcDbLine
 10
-1239.074521451383
 20
556.5539715741133
 30
0.0
 11
-1239.074521451383
 21
800.5538857949748
 31
0.0
  0
LINE
  5
36D
330
1F
100
AcDbEntity
  8
0239_詳
  6
Continuous
 62
     3
370
     9
100
AcDbLine
 10
-1214.194571005331
 20
800.5538857949748
 30
0.0
 11
-1214.194571005331
 21
556.5539715741133
 31
0.0
  0
LINE
  5
36E
330
1F
100
AcDbEntity
  8
0239_詳
  6
Continuous
 62
     3
370
     9
100
AcDbLine
 10
-1222.194547910948
 20
556.5539715741133
 30
0.0
 11
-1222.194547910948
 21
800.5538857949748
 31
0.0
  0
LINE
  5
36F
330
1F
100
AcDbEntity
  8
0239_詳
  6
Continuous
 62
     3
370
     9
100
AcDbLine
 10
-1197.314597464896
 20
800.5538857949748
 30
0.0
 11
-1197.314597464896
 21
556.5539715741133
 31
0.0
  0
LINE
  5
370
330
1F
100
AcDbEntity
  8
0239_詳
  6
Continuous
 62
     3
370
     9
100
AcDbLine
 10
-1205.314574370513
 20
556.5539715741133
 30
0.0
 11
-1205.314574370513
 21
800.5538857949748
 31
0.0
  0
LINE
  5
371
330
1F
100
AcDbEntity
  8
0239_詳
  6
Continuous
 62
     3
370
     9
100
AcDbLine
 10
-1180.434562064506
 20
800.5538857949748
 30
0.0
 11
-1180.434562064506
 21
556.5539715741133
 31
0.0
  0
LINE
  5
372
330
1F
100
AcDbEntity
  8
0239_詳
  6
Continuous
 62
     3
370
     9
100
AcDbLine
 10
-1332.354571368243
 20
800.5538857949748
 30
0.0
 11
-1332.354571368243
 21
556.5539715741133
 31
0.0
  0
LINE
  5
373
330
1F
100
AcDbEntity
  8
0239_詳
  6
Continuous
 62
     3
370
     9
100
AcDbLine
 10
-1340.35454827386
 20
556.5539715741133
 30
0.0
 11
-1340.35454827386
 21
800.5538857949748
 31
0.0
  0
LINE
  5
374
330
1F
100
AcDbEntity
  8
0239_詳
  6
Continuous
 62
     3
370
     9
100
AcDbLine
 10
-1171.554565429688
 20
556.5539715741133
 30
0.0
 11
-1171.554565429688
 21
800.5538857949748
 31
0.0
  0
LINE
  5
375
330
1F
100
AcDbEntity
  8
0239_詳
  6
Continuous
 62
     3
370
     9
100
AcDbLine
 10
-1163.554588524071
 20
800.5538857949748
 30
0.0
 11
-1163.554588524071
 21
556.5539715741133
 31
0.0
  0
LINE
  5
376
330
1F
100
AcDbEntity
  8
0239_詳
  6
Continuous
 62
     3
370
     9
100
AcDbLine
 10
-1154.674530029297
 20
556.5539715741133
 30
0.0
 11
-1154.674530029297
 21
800.5538857949748
 31
0.0
  0
LINE
  5
377
330
1F
100
AcDbEntity
  8
0239_詳
  6
Continuous
 62
     3
370
     9
100
AcDbLine
 10
-1146.67455312368
 20
800.5538857949748
 30
0.0
 11
-1146.67455312368
 21
556.5539715741133
 31
0.0
  0
LINE
  5
378
330
1F
100
AcDbEntity
  8
0239_詳
  6
Continuous
 62
     3
370
     9
100
AcDbLine
 10
-1137.794556488862
 20
556.5539715741133
 30
0.0
 11
-1137.794556488862
 21
800.5538857949748
 31
0.0
  0
LINE
  5
379
330
1F
100
AcDbEntity
  8
0239_詳
  6
Continuous
 62
     3
370
     9
100
AcDbLine
 10
-1129.794579583245
 20
800.5538857949748
 30
0.0
 11
-1129.794579583245
 21
556.5539715741133
 31
0.0
  0
LINE
  5
37A
330
1F
100
AcDbEntity
  8
0239_詳
  6
Continuous
 62
     3
370
     9
100
AcDbLine
 10
-1120.914521088471
 20
556.5539715741133
 30
0.0
 11
-1120.914521088471
 21
800.5538857949748
 31
0.0
  0
LINE
  5
37B
330
1F
100
AcDbEntity
  8
0239_詳
  6
Continuous
 62
     3
370
     9
100
AcDbLine
 10
-1112.914544182855
 20
800.5538857949748
 30
0.0
 11
-1112.914544182855
 21
556.5539715741133
 31
0.0
  0
LINE
  5
37C
330
1F
100
AcDbEntity
  8
0239_詳
  6
Continuous
 62
     3
370
     9
100
AcDbLine
 10
-1104.034547548036
 20
556.5539715741133
 30
0.0
 11
-1104.034547548036
 21
800.5538857949748
 31
0.0
  0
LINE
  5
37D
330
1F
100
AcDbEntity
  8
0239_詳
  6
Continuous
 62
     3
370
     9
100
AcDbLine
 10
-1096.03457064242
 20
800.5538857949748
 30
0.0
 11
-1096.03457064242
 21
556.5539715741133
 31
0.0
  0
LINE
  5
37E
330
1F
100
AcDbEntity
  8
0239_詳
  6
Continuous
 62
     3
370
     9
100
AcDbLine
 10
-1087.154574007601
 20
556.5539715741133
 30
0.0
 11
-1087.154574007601
 21
800.5538857949748
 31
0.0
  0
LINE
  5
37F
330
1F
100
AcDbEntity
  8
0239_詳
  6
Continuous
 62
     3
370
     9
100
AcDbLine
 10
-1079.154597101985
 20
800.5538857949748
 30
0.0
 11
-1079.154597101985
 21
556.5539715741133
 31
0.0
  0
LINE
  5
380
330
1F
100
AcDbEntity
  8
0239_詳
  6
Continuous
 62
     3
370
     9
100
AcDbLine
 10
-1070.274538607211
 20
556.5539715741133
 30
0.0
 11
-1070.274538607211
 21
800.5538857949748
 31
0.0
  0
LINE
  5
381
330
1F
100
AcDbEntity
  8
0239_詳
  6
Continuous
 62
     3
370
     9
100
AcDbLine
 10
-1062.274561701594
 20
800.5538857949748
 30
0.0
 11
-1062.274561701594
 21
556.5539715741133
 31
0.0
  0
LINE
  5
382
330
1F
100
AcDbEntity
  8
0239_詳
  6
Continuous
 62
     3
370
     9
100
AcDbLine
 10
-1053.39450320682
 20
556.5539715741133
 30
0.0
 11
-1053.39450320682
 21
800.5538857949748
 31
0.0
  0
LINE
  5
383
330
1F
100
AcDbEntity
  8
0239_詳
  6
Continuous
 62
     3
370
     9
100
AcDbLine
 10
-1045.394526301204
 20
800.5538857949748
 30
0.0
 11
-1045.394526301204
 21
556.5539715741133
 31
0.0
  0
LINE
  5
384
330
1F
100
AcDbEntity
  8
0239_詳
  6
Continuous
 62
     3
370
     9
100
AcDbLine
 10
-1036.514529666385
 20
556.5539715741133
 30
0.0
 11
-1036.514529666385
 21
800.5538857949748
 31
0.0
  0
LINE
  5
385
330
1F
100
AcDbEntity
  8
0239_詳
  6
Continuous
 62
     3
370
     9
100
AcDbLine
 10
-1028.514552760769
 20
800.5538857949748
 30
0.0
 11
-1028.514552760769
 21
556.5539715741133
 31
0.0
  0
LINE
  5
386
330
1F
100
AcDbEntity
  8
0239_詳
  6
Continuous
 62
     3
370
     9
100
AcDbLine
 10
-1019.63455612595
 20
556.5539715741133
 30
0.0
 11
-1019.63455612595
 21
800.5538857949748
 31
0.0
  0
LINE
  5
387
330
1F
100
AcDbEntity
  8
0239_詳
  6
Continuous
 62
     3
370
     9
100
AcDbLine
 10
-1011.634579220334
 20
800.5538857949748
 30
0.0
 11
-1011.634579220334
 21
556.5539715741133
 31
0.0
  0
LINE
  5
388
330
1F
100
AcDbEntity
  8
0239_詳
  6
Continuous
 62
     3
370
     9
100
AcDbLine
 10
-1002.754582585515
 20
556.5539715741133
 30
0.0
 11
-1002.754582585515
 21
800.5538857949748
 31
0.0
  0
LINE
  5
389
330
1F
100
AcDbEntity
  8
0239_詳
  6
Continuous
 62
     3
370
     9
100
AcDbLine
 10
-994.7546056798985
 20
800.5538857949748
 30
0.0
 11
-994.7546056798985
 21
556.5539715741133
 31
0.0
  0
LINE
  5
38A
330
1F
100
AcDbEntity
  8
0239_詳
  6
Continuous
 62
     3
370
     9
100
AcDbLine
 10
-985.8744853251688
 20
556.5539715741133
 30
0.0
 11
-985.8744853251688
 21
800.5538857949748
 31
0.0
  0
LINE
  5
38B
330
1F
100
AcDbEntity
  8
0239_詳
  6
Continuous
 62
     3
370
     9
100
AcDbLine
 10
-977.8745084195523
 20
800.5538857949748
 30
0.0
 11
-977.8745084195523
 21
556.5539715741133
 31
0.0
  0
LINE
  5
38C
330
1F
100
AcDbEntity
  8
0239_詳
  6
Continuous
 62
     3
370
     9
100
AcDbLine
 10
-968.9945117847338
 20
556.5539715741133
 30
0.0
 11
-968.9945117847338
 21
800.5538857949748
 31
0.0
  0
LINE
  5
38D
330
1F
100
AcDbEntity
  8
0239_詳
  6
Continuous
 62
     3
370
     9
100
AcDbLine
 10
-960.9945348791173
 20
800.5538857949748
 30
0.0
 11
-960.9945348791173
 21
556.5539715741133
 31
0.0
  0
LINE
  5
38E
330
1F
100
AcDbEntity
  8
0239_詳
  6
Continuous
 62
     3
370
     9
100
AcDbLine
 10
-952.114538244299
 20
556.5539715741133
 30
0.0
 11
-952.114538244299
 21
800.5538857949748
 31
0.0
  0
LINE
  5
38F
330
1F
100
AcDbEntity
  8
0239_詳
  6
Continuous
 62
     3
370
     9
100
AcDbLine
 10
-944.1145613386824
 20
800.5538857949748
 30
0.0
 11
-944.1145613386824
 21
556.5539715741133
 31
0.0
  0
LINE
  5
390
330
1F
100
AcDbEntity
  8
0239_詳
  6
Continuous
 62
     3
370
     9
100
AcDbLine
 10
-935.234564703864
 20
556.5539715741133
 30
0.0
 11
-935.234564703864
 21
800.5538857949748
 31
0.0
  0
LINE
  5
391
330
1F
100
AcDbEntity
  8
0239_詳
  6
Continuous
 62
     3
370
     9
100
AcDbLine
 10
-927.2345877982474
 20
800.5538857949748
 30
0.0
 11
-927.2345877982474
 21
556.5539715741133
 31
0.0
  0
LINE
  5
392
330
1F
100
AcDbEntity
  8
0239_詳
  6
Continuous
 62
     3
370
     9
100
AcDbLine
 10
-918.3545911634291
 20
556.5539715741133
 30
0.0
 11
-918.3545911634291
 21
800.5538857949748
 31
0.0
  0
LINE
  5
393
330
1F
100
AcDbEntity
  8
0239_詳
  6
Continuous
 62
     3
370
     9
100
AcDbLine
 10
-910.3546142578125
 20
800.5538857949748
 30
0.0
 11
-910.3546142578125
 21
556.5539715741133
 31
0.0
  0
LINE
  5
394
330
1F
100
AcDbEntity
  8
0239_詳
  6
Continuous
 62
     3
370
     9
100
AcDbLine
 10
-901.4744939030827
 20
556.5539715741133
 30
0.0
 11
-901.4744939030827
 21
800.5538857949748
 31
0.0
  0
LINE
  5
395
330
1F
100
AcDbEntity
  8
0239_詳
  6
Continuous
 62
     3
370
     9
100
AcDbLine
 10
-893.4745169974661
 20
800.5538857949748
 30
0.0
 11
-893.4745169974661
 21
556.5539715741133
 31
0.0
  0
LINE
  5
396
330
1F
100
AcDbEntity
  8
0239_詳
  6
Continuous
 62
     3
370
     9
100
AcDbLine
 10
-884.5945203626478
 20
556.5539715741133
 30
0.0
 11
-884.5945203626478
 21
800.5538857949748
 31
0.0
  0
LINE
  5
397
330
1F
100
AcDbEntity
  8
0239_詳
  6
Continuous
 62
     3
370
     9
100
AcDbLine
 10
-876.5945434570312
 20
800.5538857949748
 30
0.0
 11
-876.5945434570312
 21
556.5539715741133
 31
0.0
  0
LINE
  5
398
330
1F
100
AcDbEntity
  8
0192_区
  6
Continuous
 62
     3
370
     9
100
AcDbLine
 10
-1357.47497146194
 20
553.5540111644849
 30
0.0
 11
-1357.47497146194
 21
803.5538462046031
 31
0.0
  0
LINE
  5
399
330
1F
100
AcDbEntity
  8
0239_詳
  6
Continuous
 62
     3
370
     9
100
AcDbLine
 10
-1349.47505641628
 20
800.5538857949748
 30
0.0
 11
-1349.47505641628
 21
556.5539715741133
 31
0.0
  0
LINE
  5
39A
330
1F
100
AcDbEntity
  8
0192_区
  6
Continuous
 62
     3
370
     9
100
AcDbLine
 10
-1357.47497146194
 20
803.5538462046031
 30
0.0
 11
-859.4740584089949
 21
803.5538462046031
 31
0.0
  0
LINE
  5
39B
330
1F
100
AcDbEntity
  8
0192_区
  6
Continuous
 62
     3
370
     9
100
AcDbLine
 10
-859.4740584089949
 20
553.5540111644849
 30
0.0
 11
-1357.47497146194
 21
553.5540111644849
 31
0.0
  0
LINE
  5
39C
330
1F
100
AcDbEntity
  8
0239_詳
  6
Continuous
 62
     3
370
     9
100
AcDbLine
 10
-859.4740584089949
 20
800.5538857949748
 30
0.0
 11
-1357.47497146194
 21
800.5538857949748
 31
0.0
  0
LINE
  5
39D
330
1F
100
AcDbEntity
  8
0239_詳
  6
Continuous
 62
     3
370
     9
100
AcDbLine
 10
-859.4740584089949
 20
556.5539715741133
 30
0.0
 11
-1357.47497146194
 21
556.5539715741133
 31
0.0
  0
LINE
  5
39E
330
1F
100
AcDbEntity
  8
0192_区
  6
Continuous
 62
     3
370
     9
100
AcDbLine
 10
-1358.47499950512
 20
553.5540111644849
 30
0.0
 11
-1358.47499950512
 21
803.5538462046031
 31
0.0
  0
LINE
  5
39F
330
1F
100
AcDbEntity
  8
0239_詳
  6
Continuous
 62
     3
370
     9
100
AcDbLine
 10
-1366.474976410737
 20
556.5539715741133
 30
0.0
 11
-1366.474976410737
 21
800.5538857949748
 31
0.0
  0
LINE
  5
3A0
330
1F
100
AcDbEntity
  8
0193_区
  6
Continuous
 62
     7
370
     9
100
AcDbLine
 10
-1358.475308804898
 20
823.5539121885561
 30
0.0
 11
-1358.475308804898
 21
906.5538890941724
 31
0.0
  0
LINE
  5
3A1
330
1F
100
AcDbEntity
  8
0193_区
  6
Continuous
 62
     7
370
     9
100
AcDbLine
 10
-1358.475308804898
 20
903.5534338048988
 30
0.0
 11
-860.47458133182
 21
903.5534338048988
 31
0.0
  0
LINE
  5
3A2
330
1F
100
AcDbEntity
  8
0193_区
  6
Continuous
 62
     7
370
     9
100
AcDbLine
 10
-1357.47497146194
 20
823.5539121885561
 30
0.0
 11
-1357.47497146194
 21
986.5534107105154
 31
0.0
  0
LINE
  5
3A3
330
1F
100
AcDbEntity
  8
0191_区
  6
JWW_DASHED3
 62
     2
370
     9
100
AcDbLine
 10
-109.5122878615919
 20
578.5538462046031
 30
0.0
 11
-1609.196059768264
 21
578.5538462046031
 31
0.0
  0
LINE
  5
3A4
330
1F
100
AcDbEntity
  8
0191_区
  6
JWW_DASHED3
 62
     2
370
     9
100
AcDbLine
 10
-1609.196059768264
 20
778.5535162848396
 30
0.0
 11
-109.5122878615919
 21
778.5535162848396
 31
0.0
  0
LINE
  5
3A5
330
1F
100
AcDbEntity
  8
0192_区
  6
Continuous
 62
     3
370
     9
100
AcDbLine
 10
-1629.195661802549
 20
648.5533348289698
 30
0.0
 11
-1589.195498904666
 21
678.553928684544
 31
0.0
  0
LINE
  5
3A6
330
1F
100
AcDbEntity
  8
0192_区
  6
Continuous
 62
     3
370
     9
100
AcDbLine
 10
-1629.195661802549
 20
648.5533348289698
 30
0.0
 11
-1609.196059768264
 21
648.5533348289698
 31
0.0
  0
LINE
  5
3A7
330
1F
100
AcDbEntity
  8
0192_区
  6
Continuous
 62
     3
370
     9
100
AcDbLine
 10
-1609.196059768264
 20
678.553928684544
 30
0.0
 11
-1609.196059768264
 21
826.5536251583617
 31
0.0
  0
LINE
  5
3A8
330
1F
100
AcDbEntity
  8
0192_区
  6
Continuous
 62
     3
370
     9
100
AcDbLine
 10
-1609.196059768264
 20
530.5538610509925
 30
0.0
 11
-1609.196059768264
 21
648.5533348289698
 31
0.0
  0
LINE
  5
3A9
330
1F
100
AcDbEntity
  8
0192_区
  6
Continuous
 62
     3
370
     9
100
AcDbLine
 10
-1358.47499950512
 20
553.5540111644849
 30
0.0
 11
-1609.196059768264
 21
553.5540111644849
 31
0.0
  0
LINE
  5
3AA
330
1F
100
AcDbEntity
  8
0192_区
  6
Continuous
 62
     3
370
     9
100
AcDbLine
 10
-1358.47499950512
 20
803.5538462046031
 30
0.0
 11
-1609.196059768264
 21
803.5538462046031
 31
0.0
  0
LINE
  5
3AB
330
1F
100
AcDbEntity
  8
0239_詳
  6
Continuous
 62
     3
370
     9
100
AcDbLine
 10
-1586.155453243771
 20
556.5539715741133
 30
0.0
 11
-1586.155453243771
 21
800.5538857949748
 31
0.0
  0
LINE
  5
3AC
330
1F
100
AcDbEntity
  8
0239_詳
  6
Continuous
 62
     3
370
     9
100
AcDbLine
 10
-1578.155476338155
 20
800.5538857949748
 30
0.0
 11
-1578.155476338155
 21
556.5539715741133
 31
0.0
  0
LINE
  5
3AD
330
1F
100
AcDbEntity
  8
0239_詳
  6
Continuous
 62
     3
370
     9
100
AcDbLine
 10
-1569.27541784338
 20
556.5539715741133
 30
0.0
 11
-1569.27541784338
 21
800.5538857949748
 31
0.0
  0
LINE
  5
3AE
330
1F
100
AcDbEntity
  8
0239_詳
  6
Continuous
 62
     3
370
     9
100
AcDbLine
 10
-1561.275440937764
 20
800.5538857949748
 30
0.0
 11
-1561.275440937764
 21
556.5539715741133
 31
0.0
  0
LINE
  5
3AF
330
1F
100
AcDbEntity
  8
0239_詳
  6
Continuous
 62
     3
370
     9
100
AcDbLine
 10
-1552.395444302946
 20
556.5539715741133
 30
0.0
 11
-1552.395444302946
 21
800.5538857949748
 31
0.0
  0
LINE
  5
3B0
330
1F
100
AcDbEntity
  8
0239_詳
  6
Continuous
 62
     3
370
     9
100
AcDbLine
 10
-1544.395467397329
 20
800.5538857949748
 30
0.0
 11
-1544.395467397329
 21
556.5539715741133
 31
0.0
  0
LINE
  5
3B1
330
1F
100
AcDbEntity
  8
0239_詳
  6
Continuous
 62
     3
370
     9
100
AcDbLine
 10
-1535.51547076251
 20
556.5539715741133
 30
0.0
 11
-1535.51547076251
 21
800.5538857949748
 31
0.0
  0
LINE
  5
3B2
330
1F
100
AcDbEntity
  8
0239_詳
  6
Continuous
 62
     3
370
     9
100
AcDbLine
 10
-1527.515493856894
 20
800.5538857949748
 30
0.0
 11
-1527.515493856894
 21
556.5539715741133
 31
0.0
  0
LINE
  5
3B3
330
1F
100
AcDbEntity
  8
0239_詳
  6
Continuous
 62
     3
370
     9
100
AcDbLine
 10
-1518.63543536212
 20
556.5539715741133
 30
0.0
 11
-1518.63543536212
 21
800.5538857949748
 31
0.0
  0
LINE
  5
3B4
330
1F
100
AcDbEntity
  8
0239_詳
  6
Continuous
 62
     3
370
     9
100
AcDbLine
 10
-1510.635458456503
 20
800.5538857949748
 30
0.0
 11
-1510.635458456503
 21
556.5539715741133
 31
0.0
  0
LINE
  5
3B5
330
1F
100
AcDbEntity
  8
0239_詳
  6
Continuous
 62
     3
370
     9
100
AcDbLine
 10
-1501.755461821685
 20
556.5539715741133
 30
0.0
 11
-1501.755461821685
 21
800.5538857949748
 31
0.0
  0
LINE
  5
3B6
330
1F
100
AcDbEntity
  8
0239_詳
  6
Continuous
 62
     3
370
     9
100
AcDbLine
 10
-1493.755484916068
 20
800.5538857949748
 30
0.0
 11
-1493.755484916068
 21
556.5539715741133
 31
0.0
  0
LINE
  5
3B7
330
1F
100
AcDbEntity
  8
0239_詳
  6
Continuous
 62
     3
370
     9
100
AcDbLine
 10
-1484.875426421294
 20
556.5539715741133
 30
0.0
 11
-1484.875426421294
 21
800.5538857949748
 31
0.0
  0
LINE
  5
3B8
330
1F
100
AcDbEntity
  8
0239_詳
  6
Continuous
 62
     3
370
     9
100
AcDbLine
 10
-1476.875449515678
 20
800.5538857949748
 30
0.0
 11
-1476.875449515678
 21
556.5539715741133
 31
0.0
  0
LINE
  5
3B9
330
1F
100
AcDbEntity
  8
0239_詳
  6
Continuous
 62
     3
370
     9
100
AcDbLine
 10
-1467.995452880859
 20
556.5539715741133
 30
0.0
 11
-1467.995452880859
 21
800.5538857949748
 31
0.0
  0
LINE
  5
3BA
330
1F
100
AcDbEntity
  8
0239_詳
  6
Continuous
 62
     3
370
     9
100
AcDbLine
 10
-1459.995475975243
 20
800.5538857949748
 30
0.0
 11
-1459.995475975243
 21
556.5539715741133
 31
0.0
  0
LINE
  5
3BB
330
1F
100
AcDbEntity
  8
0239_詳
  6
Continuous
 62
     3
370
     9
100
AcDbLine
 10
-1451.115417480469
 20
556.5539715741133
 30
0.0
 11
-1451.115417480469
 21
800.5538857949748
 31
0.0
  0
LINE
  5
3BC
330
1F
100
AcDbEntity
  8
0239_詳
  6
Continuous
 62
     3
370
     9
100
AcDbLine
 10
-1443.115440574852
 20
800.5538857949748
 30
0.0
 11
-1443.115440574852
 21
556.5539715741133
 31
0.0
  0
LINE
  5
3BD
330
1F
100
AcDbEntity
  8
0239_詳
  6
Continuous
 62
     3
370
     9
100
AcDbLine
 10
-1434.235443940034
 20
556.5539715741133
 30
0.0
 11
-1434.235443940034
 21
800.5538857949748
 31
0.0
  0
LINE
  5
3BE
330
1F
100
AcDbEntity
  8
0239_詳
  6
Continuous
 62
     3
370
     9
100
AcDbLine
 10
-1426.235467034417
 20
800.5538857949748
 30
0.0
 11
-1426.235467034417
 21
556.5539715741133
 31
0.0
  0
LINE
  5
3BF
330
1F
100
AcDbEntity
  8
0239_詳
  6
Continuous
 62
     3
370
     9
100
AcDbLine
 10
-1417.355470399599
 20
556.5539715741133
 30
0.0
 11
-1417.355470399599
 21
800.5538857949748
 31
0.0
  0
LINE
  5
3C0
330
1F
100
AcDbEntity
  8
0239_詳
  6
Continuous
 62
     3
370
     9
100
AcDbLine
 10
-1409.355493493982
 20
800.5538857949748
 30
0.0
 11
-1409.355493493982
 21
556.5539715741133
 31
0.0
  0
LINE
  5
3C1
330
1F
100
AcDbEntity
  8
0239_詳
  6
Continuous
 62
     3
370
     9
100
AcDbLine
 10
-1400.475434999208
 20
556.5539715741133
 30
0.0
 11
-1400.475434999208
 21
800.5538857949748
 31
0.0
  0
LINE
  5
3C2
330
1F
100
AcDbEntity
  8
0239_詳
  6
Continuous
 62
     3
370
     9
100
AcDbLine
 10
-1392.475458093592
 20
800.5538857949748
 30
0.0
 11
-1392.475458093592
 21
556.5539715741133
 31
0.0
  0
LINE
  5
3C3
330
1F
100
AcDbEntity
  8
0239_詳
  6
Continuous
 62
     3
370
     9
100
AcDbLine
 10
-1383.595461458773
 20
556.5539715741133
 30
0.0
 11
-1383.595461458773
 21
800.5538857949748
 31
0.0
  0
LINE
  5
3C4
330
1F
100
AcDbEntity
  8
0239_詳
  6
Continuous
 62
     3
370
     9
100
AcDbLine
 10
-1375.595484553157
 20
800.5538857949748
 30
0.0
 11
-1375.595484553157
 21
556.5539715741133
 31
0.0
  0
LINE
  5
3C5
330
1F
100
AcDbEntity
  8
0239_詳
  6
Continuous
 62
     3
370
     9
100
AcDbLine
 10
-1358.47499950512
 20
800.5538857949748
 30
0.0
 11
-1609.196059768264
 21
800.5538857949748
 31
0.0
  0
LINE
  5
3C6
330
1F
100
AcDbEntity
  8
0239_詳
  6
Continuous
 62
     3
370
     9
100
AcDbLine
 10
-1358.47499950512
 20
556.5539715741133
 30
0.0
 11
-1609.196059768264
 21
556.5539715741133
 31
0.0
  0
LINE
  5
3C7
330
1F
100
AcDbEntity
  8
0239_詳
  6
Continuous
 62
     3
370
     9
100
AcDbLine
 10
-1628.795458819415
 20
648.853479333826
 30
0.0
 11
-1628.795458819415
 21
648.5533348289698
 31
0.0
  0
LINE
  5
3C8
330
1F
100
AcDbEntity
  8
0239_詳
  6
Continuous
 62
     3
370
     9
100
AcDbLine
 10
-1619.915462184597
 20
648.5533348289698
 30
0.0
 11
-1619.915462184597
 21
655.5135695998734
 31
0.0
  0
LINE
  5
3C9
330
1F
100
AcDbEntity
  8
0239_詳
  6
Continuous
 62
     3
370
     9
100
AcDbLine
 10
-1611.91548527898
 20
661.5137378589529
 30
0.0
 11
-1611.91548527898
 21
648.5533348289698
 31
0.0
  0
LINE
  5
3CA
330
1F
100
AcDbEntity
  8
0192_区
  6
Continuous
 62
     3
370
     9
100
AcDbLine
 10
-1609.196059768264
 20
678.553928684544
 30
0.0
 11
-1589.195498904666
 21
678.553928684544
 31
0.0
  0
LINE
  5
3CB
330
1F
100
AcDbEntity
  8
0239_詳
  6
Continuous
 62
     3
370
     9
100
AcDbLine
 10
-1603.035457714184
 20
678.553928684544
 30
0.0
 11
-1603.035457714184
 21
800.5538857949748
 31
0.0
  0
LINE
  5
3CC
330
1F
100
AcDbEntity
  8
0239_詳
  6
Continuous
 62
     3
370
     9
100
AcDbLine
 10
-1595.035480808567
 20
800.5538857949748
 30
0.0
 11
-1595.035480808567
 21
678.553928684544
 31
0.0
  0
LINE
  5
3CD
330
1F
100
AcDbEntity
  8
0239_詳
  6
Continuous
 62
     3
370
     9
100
AcDbLine
 10
-1603.035457714184
 20
556.5539715741133
 30
0.0
 11
-1603.035457714184
 21
668.173828125
 31
0.0
  0
LINE
  5
3CE
330
1F
100
AcDbEntity
  8
0239_詳
  6
Continuous
 62
     3
370
     9
100
AcDbLine
 10
-1595.035480808567
 20
674.1739963840794
 30
0.0
 11
-1595.035480808567
 21
556.5539715741133
 31
0.0
  0
LINE
  5
3CF
330
1F
100
AcDbEntity
  8
0239_詳
  6
JWW_CENTER1
 62
     3
370
     9
100
AcDbLine
 10
-1609.196059768264
 20
728.5540936444258
 30
0.0
 11
-109.5122878615919
 21
728.5540936444258
 31
0.0
  0
LINE
  5
3D0
330
1F
100
AcDbEntity
  8
0239_詳
  6
Continuous
 62
     3
370
     9
100
AcDbLine
 10
-1609.196059768264
 20
731.5540540540542
 30
0.0
 11
-1603.035457714184
 21
731.5540540540542
 31
0.0
  0
LINE
  5
3D1
330
1F
100
AcDbEntity
  8
0239_詳
  6
Continuous
 62
     3
370
     9
100
AcDbLine
 10
-1609.196059768264
 20
725.5538857949748
 30
0.0
 11
-1603.035457714184
 21
725.5538857949748
 31
0.0
  0
LINE
  5
3D2
330
1F
100
AcDbEntity
  8
0239_詳
  6
Continuous
 62
     3
370
     9
100
AcDbLine
 10
-1595.035480808567
 20
731.5540540540542
 30
0.0
 11
-1586.155453243771
 21
731.5540540540542
 31
0.0
  0
LINE
  5
3D3
330
1F
100
AcDbEntity
  8
0239_詳
  6
Continuous
 62
     3
370
     9
100
AcDbLine
 10
-1595.035480808567
 20
725.5538857949748
 30
0.0
 11
-1586.155453243771
 21
725.5538857949748
 31
0.0
  0
LINE
  5
3D4
330
1F
100
AcDbEntity
  8
0239_詳
  6
Continuous
 62
     3
370
     9
100
AcDbLine
 10
-1578.155476338155
 20
731.5540540540542
 30
0.0
 11
-1569.27541784338
 21
731.5540540540542
 31
0.0
  0
LINE
  5
3D5
330
1F
100
AcDbEntity
  8
0239_詳
  6
Continuous
 62
     3
370
     9
100
AcDbLine
 10
-1578.155476338155
 20
725.5538857949748
 30
0.0
 11
-1569.27541784338
 21
725.5538857949748
 31
0.0
  0
LINE
  5
3D6
330
1F
100
AcDbEntity
  8
0239_詳
  6
Continuous
 62
     3
370
     9
100
AcDbLine
 10
-1561.275440937764
 20
731.5540540540542
 30
0.0
 11
-1552.395444302946
 21
731.5540540540542
 31
0.0
  0
LINE
  5
3D7
330
1F
100
AcDbEntity
  8
0239_詳
  6
Continuous
 62
     3
370
     9
100
AcDbLine
 10
-1561.275440937764
 20
725.5538857949748
 30
0.0
 11
-1552.395444302946
 21
725.5538857949748
 31
0.0
  0
LINE
  5
3D8
330
1F
100
AcDbEntity
  8
0239_詳
  6
Continuous
 62
     3
370
     9
100
AcDbLine
 10
-1544.395467397329
 20
731.5540540540542
 30
0.0
 11
-1535.51547076251
 21
731.5540540540542
 31
0.0
  0
LINE
  5
3D9
330
1F
100
AcDbEntity
  8
0239_詳
  6
Continuous
 62
     3
370
     9
100
AcDbLine
 10
-1544.395467397329
 20
725.5538857949748
 30
0.0
 11
-1535.51547076251
 21
725.5538857949748
 31
0.0
  0
LINE
  5
3DA
330
1F
100
AcDbEntity
  8
0239_詳
  6
Continuous
 62
     3
370
     9
100
AcDbLine
 10
-1527.515493856894
 20
731.5540540540542
 30
0.0
 11
-1518.63543536212
 21
731.5540540540542
 31
0.0
  0
LINE
  5
3DB
330
1F
100
AcDbEntity
  8
0239_詳
  6
Continuous
 62
     3
370
     9
100
AcDbLine
 10
-1527.515493856894
 20
725.5538857949748
 30
0.0
 11
-1518.63543536212
 21
725.5538857949748
 31
0.0
  0
LINE
  5
3DC
330
1F
100
AcDbEntity
  8
0239_詳
  6
Continuous
 62
     3
370
     9
100
AcDbLine
 10
-1510.635458456503
 20
731.5540540540542
 30
0.0
 11
-1501.755461821685
 21
731.5540540540542
 31
0.0
  0
LINE
  5
3DD
330
1F
100
AcDbEntity
  8
0239_詳
  6
Continuous
 62
     3
370
     9
100
AcDbLine
 10
-1510.635458456503
 20
725.5538857949748
 30
0.0
 11
-1501.755461821685
 21
725.5538857949748
 31
0.0
  0
LINE
  5
3DE
330
1F
100
AcDbEntity
  8
0239_詳
  6
Continuous
 62
     3
370
     9
100
AcDbLine
 10
-1493.755484916068
 20
731.5540540540542
 30
0.0
 11
-1484.875426421294
 21
731.5540540540542
 31
0.0
  0
LINE
  5
3DF
330
1F
100
AcDbEntity
  8
0239_詳
  6
Continuous
 62
     3
370
     9
100
AcDbLine
 10
-1493.755484916068
 20
725.5538857949748
 30
0.0
 11
-1484.875426421294
 21
725.5538857949748
 31
0.0
  0
LINE
  5
3E0
330
1F
100
AcDbEntity
  8
0239_詳
  6
Continuous
 62
     3
370
     9
100
AcDbLine
 10
-1476.875449515678
 20
731.5540540540542
 30
0.0
 11
-1467.995452880859
 21
731.5540540540542
 31
0.0
  0
LINE
  5
3E1
330
1F
100
AcDbEntity
  8
0239_詳
  6
Continuous
 62
     3
370
     9
100
AcDbLine
 10
-1476.875449515678
 20
725.5538857949748
 30
0.0
 11
-1467.995452880859
 21
725.5538857949748
 31
0.0
  0
LINE
  5
3E2
330
1F
100
AcDbEntity
  8
0239_詳
  6
Continuous
 62
     3
370
     9
100
AcDbLine
 10
-1459.995475975243
 20
731.5540540540542
 30
0.0
 11
-1451.115417480469
 21
731.5540540540542
 31
0.0
  0
LINE
  5
3E3
330
1F
100
AcDbEntity
  8
0239_詳
  6
Continuous
 62
     3
370
     9
100
AcDbLine
 10
-1459.995475975243
 20
725.5538857949748
 30
0.0
 11
-1451.115417480469
 21
725.5538857949748
 31
0.0
  0
LINE
  5
3E4
330
1F
100
AcDbEntity
  8
0239_詳
  6
Continuous
 62
     3
370
     9
100
AcDbLine
 10
-1443.115440574852
 20
731.5540540540542
 30
0.0
 11
-1434.235443940034
 21
731.5540540540542
 31
0.0
  0
LINE
  5
3E5
330
1F
100
AcDbEntity
  8
0239_詳
  6
Continuous
 62
     3
370
     9
100
AcDbLine
 10
-1443.115440574852
 20
725.5538857949748
 30
0.0
 11
-1434.235443940034
 21
725.5538857949748
 31
0.0
  0
LINE
  5
3E6
330
1F
100
AcDbEntity
  8
0239_詳
  6
Continuous
 62
     3
370
     9
100
AcDbLine
 10
-1426.235467034417
 20
731.5540540540542
 30
0.0
 11
-1417.355470399599
 21
731.5540540540542
 31
0.0
  0
LINE
  5
3E7
330
1F
100
AcDbEntity
  8
0239_詳
  6
Continuous
 62
     3
370
     9
100
AcDbLine
 10
-1426.235467034417
 20
725.5538857949748
 30
0.0
 11
-1417.355470399599
 21
725.5538857949748
 31
0.0
  0
LINE
  5
3E8
330
1F
100
AcDbEntity
  8
0239_詳
  6
Continuous
 62
     3
370
     9
100
AcDbLine
 10
-1409.355493493982
 20
731.5540540540542
 30
0.0
 11
-1400.475434999208
 21
731.5540540540542
 31
0.0
  0
LINE
  5
3E9
330
1F
100
AcDbEntity
  8
0239_詳
  6
Continuous
 62
     3
370
     9
100
AcDbLine
 10
-1409.355493493982
 20
725.5538857949748
 30
0.0
 11
-1400.475434999208
 21
725.5538857949748
 31
0.0
  0
LINE
  5
3EA
330
1F
100
AcDbEntity
  8
0239_詳
  6
Continuous
 62
     3
370
     9
100
AcDbLine
 10
-1392.475458093592
 20
731.5540540540542
 30
0.0
 11
-1383.595461458773
 21
731.5540540540542
 31
0.0
  0
LINE
  5
3EB
330
1F
100
AcDbEntity
  8
0239_詳
  6
Continuous
 62
     3
370
     9
100
AcDbLine
 10
-1392.475458093592
 20
725.5538857949748
 30
0.0
 11
-1383.595461458773
 21
725.5538857949748
 31
0.0
  0
LINE
  5
3EC
330
1F
100
AcDbEntity
  8
0239_詳
  6
Continuous
 62
     3
370
     9
100
AcDbLine
 10
-1375.595484553157
 20
731.5540540540542
 30
0.0
 11
-1366.474976410737
 21
731.5540540540542
 31
0.0
  0
LINE
  5
3ED
330
1F
100
AcDbEntity
  8
0239_詳
  6
Continuous
 62
     3
370
     9
100
AcDbLine
 10
-1375.595484553157
 20
725.5538857949748
 30
0.0
 11
-1366.474976410737
 21
725.5538857949748
 31
0.0
  0
LINE
  5
3EE
330
1F
100
AcDbEntity
  8
0239_詳
  6
Continuous
 62
     3
370
     9
100
AcDbLine
 10
-1349.47505641628
 20
731.5540540540542
 30
0.0
 11
-1340.35454827386
 21
731.5540540540542
 31
0.0
  0
LINE
  5
3EF
330
1F
100
AcDbEntity
  8
0239_詳
  6
Continuous
 62
     3
370
     9
100
AcDbLine
 10
-1349.47505641628
 20
725.5538857949748
 30
0.0
 11
-1340.35454827386
 21
725.5538857949748
 31
0.0
  0
LINE
  5
3F0
330
1F
100
AcDbEntity
  8
0239_詳
  6
Continuous
 62
     3
370
     9
100
AcDbLine
 10
-1332.354571368243
 20
731.5540540540542
 30
0.0
 11
-1323.474574733425
 21
731.5540540540542
 31
0.0
  0
LINE
  5
3F1
330
1F
100
AcDbEntity
  8
0239_詳
  6
Continuous
 62
     3
370
     9
100
AcDbLine
 10
-1332.354571368243
 20
725.5538857949748
 30
0.0
 11
-1323.474574733425
 21
725.5538857949748
 31
0.0
  0
LINE
  5
3F2
330
1F
100
AcDbEntity
  8
0239_詳
  6
Continuous
 62
     3
370
     9
100
AcDbLine
 10
-1315.474597827808
 20
731.5540540540542
 30
0.0
 11
-1306.594539333034
 21
731.5540540540542
 31
0.0
  0
LINE
  5
3F3
330
1F
100
AcDbEntity
  8
0239_詳
  6
Continuous
 62
     3
370
     9
100
AcDbLine
 10
-1315.474597827808
 20
725.5538857949748
 30
0.0
 11
-1306.594539333034
 21
725.5538857949748
 31
0.0
  0
LINE
  5
3F4
330
1F
100
AcDbEntity
  8
0239_詳
  6
Continuous
 62
     3
370
     9
100
AcDbLine
 10
-1298.594562427418
 20
731.5540540540542
 30
0.0
 11
-1289.714565792599
 21
731.5540540540542
 31
0.0
  0
LINE
  5
3F5
330
1F
100
AcDbEntity
  8
0239_詳
  6
Continuous
 62
     3
370
     9
100
AcDbLine
 10
-1298.594562427418
 20
725.5538857949748
 30
0.0
 11
-1289.714565792599
 21
725.5538857949748
 31
0.0
  0
LINE
  5
3F6
330
1F
100
AcDbEntity
  8
0239_詳
  6
Continuous
 62
     3
370
     9
100
AcDbLine
 10
-1281.714588886983
 20
731.5540540540542
 30
0.0
 11
-1272.834530392209
 21
731.5540540540542
 31
0.0
  0
LINE
  5
3F7
330
1F
100
AcDbEntity
  8
0239_詳
  6
Continuous
 62
     3
370
     9
100
AcDbLine
 10
-1281.714588886983
 20
725.5538857949748
 30
0.0
 11
-1272.834530392209
 21
725.5538857949748
 31
0.0
  0
LINE
  5
3F8
330
1F
100
AcDbEntity
  8
0239_詳
  6
Continuous
 62
     3
370
     9
100
AcDbLine
 10
-1264.834553486592
 20
731.5540540540542
 30
0.0
 11
-1255.954556851774
 21
731.5540540540542
 31
0.0
  0
LINE
  5
3F9
330
1F
100
AcDbEntity
  8
0239_詳
  6
Continuous
 62
     3
370
     9
100
AcDbLine
 10
-1264.834553486592
 20
725.5538857949748
 30
0.0
 11
-1255.954556851774
 21
725.5538857949748
 31
0.0
  0
LINE
  5
3FA
330
1F
100
AcDbEntity
  8
0239_詳
  6
Continuous
 62
     3
370
     9
100
AcDbLine
 10
-1247.954579946157
 20
731.5540540540542
 30
0.0
 11
-1239.074521451383
 21
731.5540540540542
 31
0.0
  0
LINE
  5
3FB
330
1F
100
AcDbEntity
  8
0239_詳
  6
Continuous
 62
     3
370
     9
100
AcDbLine
 10
-1247.954579946157
 20
725.5538857949748
 30
0.0
 11
-1239.074521451383
 21
725.5538857949748
 31
0.0
  0
LINE
  5
3FC
330
1F
100
AcDbEntity
  8
0239_詳
  6
Continuous
 62
     3
370
     9
100
AcDbLine
 10
-1231.074544545766
 20
731.5540540540542
 30
0.0
 11
-1222.194547910948
 21
731.5540540540542
 31
0.0
  0
LINE
  5
3FD
330
1F
100
AcDbEntity
  8
0239_詳
  6
Continuous
 62
     3
370
     9
100
AcDbLine
 10
-1231.074544545766
 20
725.5538857949748
 30
0.0
 11
-1222.194547910948
 21
725.5538857949748
 31
0.0
  0
LINE
  5
3FE
330
1F
100
AcDbEntity
  8
0239_詳
  6
Continuous
 62
     3
370
     9
100
AcDbLine
 10
-1214.194571005331
 20
731.5540540540542
 30
0.0
 11
-1205.314574370513
 21
731.5540540540542
 31
0.0
  0
LINE
  5
3FF
330
1F
100
AcDbEntity
  8
0239_詳
  6
Continuous
 62
     3
370
     9
100
AcDbLine
 10
-1214.194571005331
 20
725.5538857949748
 30
0.0
 11
-1205.314574370513
 21
725.5538857949748
 31
0.0
  0
LINE
  5
400
330
1F
100
AcDbEntity
  8
0239_詳
  6
Continuous
 62
     3
370
     9
100
AcDbLine
 10
-1197.314597464896
 20
731.5540540540542
 30
0.0
 11
-1188.434538970123
 21
731.5540540540542
 31
0.0
  0
LINE
  5
401
330
1F
100
AcDbEntity
  8
0239_詳
  6
Continuous
 62
     3
370
     9
100
AcDbLine
 10
-1197.314597464896
 20
725.5538857949748
 30
0.0
 11
-1188.434538970123
 21
725.5538857949748
 31
0.0
  0
LINE
  5
402
330
1F
100
AcDbEntity
  8
0239_詳
  6
Continuous
 62
     3
370
     9
100
AcDbLine
 10
-1180.434562064506
 20
731.5540540540542
 30
0.0
 11
-1171.554565429688
 21
731.5540540540542
 31
0.0
  0
LINE
  5
403
330
1F
100
AcDbEntity
  8
0239_詳
  6
Continuous
 62
     3
370
     9
100
AcDbLine
 10
-1180.434562064506
 20
725.5538857949748
 30
0.0
 11
-1171.554565429688
 21
725.5538857949748
 31
0.0
  0
LINE
  5
404
330
1F
100
AcDbEntity
  8
0239_詳
  6
Continuous
 62
     3
370
     9
100
AcDbLine
 10
-1163.554588524071
 20
731.5540540540542
 30
0.0
 11
-1154.674530029297
 21
731.5540540540542
 31
0.0
  0
LINE
  5
405
330
1F
100
AcDbEntity
  8
0239_詳
  6
Continuous
 62
     3
370
     9
100
AcDbLine
 10
-1163.554588524071
 20
725.5538857949748
 30
0.0
 11
-1154.674530029297
 21
725.5538857949748
 31
0.0
  0
LINE
  5
406
330
1F
100
AcDbEntity
  8
0239_詳
  6
Continuous
 62
     3
370
     9
100
AcDbLine
 10
-1146.67455312368
 20
731.5540540540542
 30
0.0
 11
-1137.794556488862
 21
731.5540540540542
 31
0.0
  0
LINE
  5
407
330
1F
100
AcDbEntity
  8
0239_詳
  6
Continuous
 62
     3
370
     9
100
AcDbLine
 10
-1146.67455312368
 20
725.5538857949748
 30
0.0
 11
-1137.794556488862
 21
725.5538857949748
 31
0.0
  0
LINE
  5
408
330
1F
100
AcDbEntity
  8
0239_詳
  6
Continuous
 62
     3
370
     9
100
AcDbLine
 10
-1129.794579583245
 20
731.5540540540542
 30
0.0
 11
-1120.914521088471
 21
731.5540540540542
 31
0.0
  0
LINE
  5
409
330
1F
100
AcDbEntity
  8
0239_詳
  6
Continuous
 62
     3
370
     9
100
AcDbLine
 10
-1129.794579583245
 20
725.5538857949748
 30
0.0
 11
-1120.914521088471
 21
725.5538857949748
 31
0.0
  0
LINE
  5
40A
330
1F
100
AcDbEntity
  8
0239_詳
  6
Continuous
 62
     3
370
     9
100
AcDbLine
 10
-1112.914544182855
 20
731.5540540540542
 30
0.0
 11
-1104.034547548036
 21
731.5540540540542
 31
0.0
  0
LINE
  5
40B
330
1F
100
AcDbEntity
  8
0239_詳
  6
Continuous
 62
     3
370
     9
100
AcDbLine
 10
-1112.914544182855
 20
725.5538857949748
 30
0.0
 11
-1104.034547548036
 21
725.5538857949748
 31
0.0
  0
LINE
  5
40C
330
1F
100
AcDbEntity
  8
0239_詳
  6
Continuous
 62
     3
370
     9
100
AcDbLine
 10
-1096.03457064242
 20
731.5540540540542
 30
0.0
 11
-1087.154574007601
 21
731.5540540540542
 31
0.0
  0
LINE
  5
40D
330
1F
100
AcDbEntity
  8
0239_詳
  6
Continuous
 62
     3
370
     9
100
AcDbLine
 10
-1096.03457064242
 20
725.5538857949748
 30
0.0
 11
-1087.154574007601
 21
725.5538857949748
 31
0.0
  0
LINE
  5
40E
330
1F
100
AcDbEntity
  8
0239_詳
  6
Continuous
 62
     3
370
     9
100
AcDbLine
 10
-1079.154597101985
 20
731.5540540540542
 30
0.0
 11
-1070.274538607211
 21
731.5540540540542
 31
0.0
  0
LINE
  5
40F
330
1F
100
AcDbEntity
  8
0239_詳
  6
Continuous
 62
     3
370
     9
100
AcDbLine
 10
-1079.154597101985
 20
725.5538857949748
 30
0.0
 11
-1070.274538607211
 21
725.5538857949748
 31
0.0
  0
LINE
  5
410
330
1F
100
AcDbEntity
  8
0239_詳
  6
Continuous
 62
     3
370
     9
100
AcDbLine
 10
-1062.274561701594
 20
731.5540540540542
 30
0.0
 11
-1053.39450320682
 21
731.5540540540542
 31
0.0
  0
LINE
  5
411
330
1F
100
AcDbEntity
  8
0239_詳
  6
Continuous
 62
     3
370
     9
100
AcDbLine
 10
-1062.274561701594
 20
725.5538857949748
 30
0.0
 11
-1053.39450320682
 21
725.5538857949748
 31
0.0
  0
LINE
  5
412
330
1F
100
AcDbEntity
  8
0239_詳
  6
Continuous
 62
     3
370
     9
100
AcDbLine
 10
-1045.394526301204
 20
731.5540540540542
 30
0.0
 11
-1036.514529666385
 21
731.5540540540542
 31
0.0
  0
LINE
  5
413
330
1F
100
AcDbEntity
  8
0239_詳
  6
Continuous
 62
     3
370
     9
100
AcDbLine
 10
-1045.394526301204
 20
725.5538857949748
 30
0.0
 11
-1036.514529666385
 21
725.5538857949748
 31
0.0
  0
LINE
  5
414
330
1F
100
AcDbEntity
  8
0239_詳
  6
Continuous
 62
     3
370
     9
100
AcDbLine
 10
-1028.514552760769
 20
731.5540540540542
 30
0.0
 11
-1019.63455612595
 21
731.5540540540542
 31
0.0
  0
LINE
  5
415
330
1F
100
AcDbEntity
  8
0239_詳
  6
Continuous
 62
     3
370
     9
100
AcDbLine
 10
-1028.514552760769
 20
725.5538857949748
 30
0.0
 11
-1019.63455612595
 21
725.5538857949748
 31
0.0
  0
LINE
  5
416
330
1F
100
AcDbEntity
  8
0239_詳
  6
Continuous
 62
     3
370
     9
100
AcDbLine
 10
-1011.634579220334
 20
731.5540540540542
 30
0.0
 11
-1002.754582585515
 21
731.5540540540542
 31
0.0
  0
LINE
  5
417
330
1F
100
AcDbEntity
  8
0239_詳
  6
Continuous
 62
     3
370
     9
100
AcDbLine
 10
-1011.634579220334
 20
725.5538857949748
 30
0.0
 11
-1002.754582585515
 21
725.5538857949748
 31
0.0
  0
LINE
  5
418
330
1F
100
AcDbEntity
  8
0239_詳
  6
Continuous
 62
     3
370
     9
100
AcDbLine
 10
-994.7546056798985
 20
731.5540540540542
 30
0.0
 11
-985.8744853251688
 21
731.5540540540542
 31
0.0
  0
LINE
  5
419
330
1F
100
AcDbEntity
  8
0239_詳
  6
Continuous
 62
     3
370
     9
100
AcDbLine
 10
-994.7546056798985
 20
725.5538857949748
 30
0.0
 11
-985.8744853251688
 21
725.5538857949748
 31
0.0
  0
LINE
  5
41A
330
1F
100
AcDbEntity
  8
0239_詳
  6
Continuous
 62
     3
370
     9
100
AcDbLine
 10
-977.8745084195523
 20
731.5540540540542
 30
0.0
 11
-968.9945117847338
 21
731.5540540540542
 31
0.0
  0
LINE
  5
41B
330
1F
100
AcDbEntity
  8
0239_詳
  6
Continuous
 62
     3
370
     9
100
AcDbLine
 10
-977.8745084195523
 20
725.5538857949748
 30
0.0
 11
-968.9945117847338
 21
725.5538857949748
 31
0.0
  0
LINE
  5
41C
330
1F
100
AcDbEntity
  8
0239_詳
  6
Continuous
 62
     3
370
     9
100
AcDbLine
 10
-960.9945348791173
 20
731.5540540540542
 30
0.0
 11
-952.114538244299
 21
731.5540540540542
 31
0.0
  0
LINE
  5
41D
330
1F
100
AcDbEntity
  8
0239_詳
  6
Continuous
 62
     3
370
     9
100
AcDbLine
 10
-960.9945348791173
 20
725.5538857949748
 30
0.0
 11
-952.114538244299
 21
725.5538857949748
 31
0.0
  0
LINE
  5
41E
330
1F
100
AcDbEntity
  8
0239_詳
  6
Continuous
 62
     3
370
     9
100
AcDbLine
 10
-944.1145613386824
 20
731.5540540540542
 30
0.0
 11
-935.234564703864
 21
731.5540540540542
 31
0.0
  0
LINE
  5
41F
330
1F
100
AcDbEntity
  8
0239_詳
  6
Continuous
 62
     3
370
     9
100
AcDbLine
 10
-944.1145613386824
 20
725.5538857949748
 30
0.0
 11
-935.234564703864
 21
725.5538857949748
 31
0.0
  0
LINE
  5
420
330
1F
100
AcDbEntity
  8
0239_詳
  6
Continuous
 62
     3
370
     9
100
AcDbLine
 10
-927.2345877982474
 20
731.5540540540542
 30
0.0
 11
-918.3545911634291
 21
731.5540540540542
 31
0.0
  0
LINE
  5
421
330
1F
100
AcDbEntity
  8
0239_詳
  6
Continuous
 62
     3
370
     9
100
AcDbLine
 10
-927.2345877982474
 20
725.5538857949748
 30
0.0
 11
-918.3545911634291
 21
725.5538857949748
 31
0.0
  0
LINE
  5
422
330
1F
100
AcDbEntity
  8
0239_詳
  6
Continuous
 62
     3
370
     9
100
AcDbLine
 10
-910.3546142578125
 20
731.5540540540542
 30
0.0
 11
-901.4744939030827
 21
731.5540540540542
 31
0.0
  0
LINE
  5
423
330
1F
100
AcDbEntity
  8
0239_詳
  6
Continuous
 62
     3
370
     9
100
AcDbLine
 10
-910.3546142578125
 20
725.5538857949748
 30
0.0
 11
-901.4744939030827
 21
725.5538857949748
 31
0.0
  0
LINE
  5
424
330
1F
100
AcDbEntity
  8
0239_詳
  6
Continuous
 62
     3
370
     9
100
AcDbLine
 10
-893.4745169974661
 20
731.5540540540542
 30
0.0
 11
-884.5945203626478
 21
731.5540540540542
 31
0.0
  0
LINE
  5
425
330
1F
100
AcDbEntity
  8
0239_詳
  6
Continuous
 62
     3
370
     9
100
AcDbLine
 10
-893.4745169974661
 20
725.5538857949748
 30
0.0
 11
-884.5945203626478
 21
725.5538857949748
 31
0.0
  0
LINE
  5
426
330
1F
100
AcDbEntity
  8
0239_詳
  6
Continuous
 62
     3
370
     9
100
AcDbLine
 10
-876.5945434570312
 20
731.5540540540542
 30
0.0
 11
-867.4740353146115
 21
731.5540540540542
 31
0.0
  0
LINE
  5
427
330
1F
100
AcDbEntity
  8
0239_詳
  6
Continuous
 62
     3
370
     9
100
AcDbLine
 10
-876.5945434570312
 20
725.5538857949748
 30
0.0
 11
-867.4740353146115
 21
725.5538857949748
 31
0.0
  0
LINE
  5
428
330
1F
100
AcDbEntity
  8
0239_詳
  6
Continuous
 62
     3
370
     9
100
AcDbLine
 10
-850.4741771801098
 20
731.5540540540542
 30
0.0
 11
-841.35366903769
 21
731.5540540540542
 31
0.0
  0
LINE
  5
429
330
1F
100
AcDbEntity
  8
0239_詳
  6
Continuous
 62
     3
370
     9
100
AcDbLine
 10
-850.4741771801098
 20
725.5538857949748
 30
0.0
 11
-841.35366903769
 21
725.5538857949748
 31
0.0
  0
LINE
  5
42A
330
1F
100
AcDbEntity
  8
0239_詳
  6
Continuous
 62
     3
370
     9
100
AcDbLine
 10
-833.3536921320734
 20
731.5540540540542
 30
0.0
 11
-824.473695497255
 21
731.5540540540542
 31
0.0
  0
LINE
  5
42B
330
1F
100
AcDbEntity
  8
0239_詳
  6
Continuous
 62
     3
370
     9
100
AcDbLine
 10
-833.3536921320734
 20
725.5538857949748
 30
0.0
 11
-824.473695497255
 21
725.5538857949748
 31
0.0
  0
LINE
  5
42C
330
1F
100
AcDbEntity
  8
0239_詳
  6
Continuous
 62
     3
370
     9
100
AcDbLine
 10
-816.4737185916385
 20
731.5540540540542
 30
0.0
 11
-807.5935982369085
 21
731.5540540540542
 31
0.0
  0
LINE
  5
42D
330
1F
100
AcDbEntity
  8
0239_詳
  6
Continuous
 62
     3
370
     9
100
AcDbLine
 10
-816.4737185916385
 20
725.5538857949748
 30
0.0
 11
-807.5935982369085
 21
725.5538857949748
 31
0.0
  0
LINE
  5
42E
330
1F
100
AcDbEntity
  8
0239_詳
  6
Continuous
 62
     3
370
     9
100
AcDbLine
 10
-799.5936213312922
 20
731.5540540540542
 30
0.0
 11
-790.7136246964737
 21
731.5540540540542
 31
0.0
  0
LINE
  5
42F
330
1F
100
AcDbEntity
  8
0239_詳
  6
Continuous
 62
     3
370
     9
100
AcDbLine
 10
-799.5936213312922
 20
725.5538857949748
 30
0.0
 11
-790.7136246964737
 21
725.5538857949748
 31
0.0
  0
LINE
  5
430
330
1F
100
AcDbEntity
  8
0239_詳
  6
Continuous
 62
     3
370
     9
100
AcDbLine
 10
-782.7136477908573
 20
731.5540540540542
 30
0.0
 11
-773.8336511560387
 21
731.5540540540542
 31
0.0
  0
LINE
  5
431
330
1F
100
AcDbEntity
  8
0239_詳
  6
Continuous
 62
     3
370
     9
100
AcDbLine
 10
-782.7136477908573
 20
725.5538857949748
 30
0.0
 11
-773.8336511560387
 21
725.5538857949748
 31
0.0
  0
LINE
  5
432
330
1F
100
AcDbEntity
  8
0239_詳
  6
Continuous
 62
     3
370
     9
100
AcDbLine
 10
-765.8336742504221
 20
731.5540540540542
 30
0.0
 11
-756.953677615604
 21
731.5540540540542
 31
0.0
  0
LINE
  5
433
330
1F
100
AcDbEntity
  8
0239_詳
  6
Continuous
 62
     3
370
     9
100
AcDbLine
 10
-765.8336742504221
 20
725.5538857949748
 30
0.0
 11
-756.953677615604
 21
725.5538857949748
 31
0.0
  0
LINE
  5
434
330
1F
100
AcDbEntity
  8
0239_詳
  6
Continuous
 62
     3
370
     9
100
AcDbLine
 10
-748.9537007099873
 20
731.5540540540542
 30
0.0
 11
-740.0737040751687
 21
731.5540540540542
 31
0.0
  0
LINE
  5
435
330
1F
100
AcDbEntity
  8
0239_詳
  6
Continuous
 62
     3
370
     9
100
AcDbLine
 10
-748.9537007099873
 20
725.5538857949748
 30
0.0
 11
-740.0737040751687
 21
725.5538857949748
 31
0.0
  0
LINE
  5
436
330
1F
100
AcDbEntity
  8
0239_詳
  6
Continuous
 62
     3
370
     9
100
AcDbLine
 10
-732.0737271695523
 20
731.5540540540542
 30
0.0
 11
-723.1936068148227
 21
731.5540540540542
 31
0.0
  0
LINE
  5
437
330
1F
100
AcDbEntity
  8
0239_詳
  6
Continuous
 62
     3
370
     9
100
AcDbLine
 10
-732.0737271695523
 20
725.5538857949748
 30
0.0
 11
-723.1936068148227
 21
725.5538857949748
 31
0.0
  0
LINE
  5
438
330
1F
100
AcDbEntity
  8
0239_詳
  6
Continuous
 62
     3
370
     9
100
AcDbLine
 10
-715.193629909206
 20
731.5540540540542
 30
0.0
 11
-706.3136332743875
 21
731.5540540540542
 31
0.0
  0
LINE
  5
439
330
1F
100
AcDbEntity
  8
0239_詳
  6
Continuous
 62
     3
370
     9
100
AcDbLine
 10
-715.193629909206
 20
725.5538857949748
 30
0.0
 11
-706.3136332743875
 21
725.5538857949748
 31
0.0
  0
LINE
  5
43A
330
1F
100
AcDbEntity
  8
0239_詳
  6
Continuous
 62
     3
370
     9
100
AcDbLine
 10
-698.313656368771
 20
731.5540540540542
 30
0.0
 11
-689.4336597339526
 21
731.5540540540542
 31
0.0
  0
LINE
  5
43B
330
1F
100
AcDbEntity
  8
0239_詳
  6
Continuous
 62
     3
370
     9
100
AcDbLine
 10
-698.313656368771
 20
725.5538857949748
 30
0.0
 11
-689.4336597339526
 21
725.5538857949748
 31
0.0
  0
LINE
  5
43C
330
1F
100
AcDbEntity
  8
0239_詳
  6
Continuous
 62
     3
370
     9
100
AcDbLine
 10
-681.4336828283363
 20
731.5540540540542
 30
0.0
 11
-672.5536861935177
 21
731.5540540540542
 31
0.0
  0
LINE
  5
43D
330
1F
100
AcDbEntity
  8
0239_詳
  6
Continuous
 62
     3
370
     9
100
AcDbLine
 10
-681.4336828283363
 20
725.5538857949748
 30
0.0
 11
-672.5536861935177
 21
725.5538857949748
 31
0.0
  0
LINE
  5
43E
330
1F
100
AcDbEntity
  8
0239_詳
  6
Continuous
 62
     3
370
     9
100
AcDbLine
 10
-664.553709287901
 20
731.5540540540542
 30
0.0
 11
-655.6735889331713
 21
731.5540540540542
 31
0.0
  0
LINE
  5
43F
330
1F
100
AcDbEntity
  8
0239_詳
  6
Continuous
 62
     3
370
     9
100
AcDbLine
 10
-664.553709287901
 20
725.5538857949748
 30
0.0
 11
-655.6735889331713
 21
725.5538857949748
 31
0.0
  0
LINE
  5
440
330
1F
100
AcDbEntity
  8
0239_詳
  6
Continuous
 62
     3
370
     9
100
AcDbLine
 10
-647.673612027555
 20
731.5540540540542
 30
0.0
 11
-638.7936153927365
 21
731.5540540540542
 31
0.0
  0
LINE
  5
441
330
1F
100
AcDbEntity
  8
0239_詳
  6
Continuous
 62
     3
370
     9
100
AcDbLine
 10
-647.673612027555
 20
725.5538857949748
 30
0.0
 11
-638.7936153927365
 21
725.5538857949748
 31
0.0
  0
LINE
  5
442
330
1F
100
AcDbEntity
  8
0239_詳
  6
Continuous
 62
     3
370
     9
100
AcDbLine
 10
-630.7936384871198
 20
731.5540540540542
 30
0.0
 11
-621.9136418523016
 21
731.5540540540542
 31
0.0
  0
LINE
  5
443
330
1F
100
AcDbEntity
  8
0239_詳
  6
Continuous
 62
     3
370
     9
100
AcDbLine
 10
-630.7936384871198
 20
725.5538857949748
 30
0.0
 11
-621.9136418523016
 21
725.5538857949748
 31
0.0
  0
LINE
  5
444
330
1F
100
AcDbEntity
  8
0239_詳
  6
Continuous
 62
     3
370
     9
100
AcDbLine
 10
-613.9136649466849
 20
731.5540540540542
 30
0.0
 11
-605.0336683118664
 21
731.5540540540542
 31
0.0
  0
LINE
  5
445
330
1F
100
AcDbEntity
  8
0239_詳
  6
Continuous
 62
     3
370
     9
100
AcDbLine
 10
-613.9136649466849
 20
725.5538857949748
 30
0.0
 11
-605.0336683118664
 21
725.5538857949748
 31
0.0
  0
LINE
  5
446
330
1F
100
AcDbEntity
  8
0239_詳
  6
Continuous
 62
     3
370
     9
100
AcDbLine
 10
-597.03369140625
 20
731.5540540540542
 30
0.0
 11
-588.1536947714314
 21
731.5540540540542
 31
0.0
  0
LINE
  5
447
330
1F
100
AcDbEntity
  8
0239_詳
  6
Continuous
 62
     3
370
     9
100
AcDbLine
 10
-597.03369140625
 20
725.5538857949748
 30
0.0
 11
-588.1536947714314
 21
725.5538857949748
 31
0.0
  0
LINE
  5
448
330
1F
100
AcDbEntity
  8
0239_詳
  6
Continuous
 62
     3
370
     9
100
AcDbLine
 10
-580.1537178658148
 20
731.5540540540542
 30
0.0
 11
-571.2735975110852
 21
731.5540540540542
 31
0.0
  0
LINE
  5
449
330
1F
100
AcDbEntity
  8
0239_詳
  6
Continuous
 62
     3
370
     9
100
AcDbLine
 10
-580.1537178658148
 20
725.5538857949748
 30
0.0
 11
-571.2735975110852
 21
725.5538857949748
 31
0.0
  0
LINE
  5
44A
330
1F
100
AcDbEntity
  8
0239_詳
  6
Continuous
 62
     3
370
     9
100
AcDbLine
 10
-563.2736206054688
 20
731.5540540540542
 30
0.0
 11
-554.3936239706502
 21
731.5540540540542
 31
0.0
  0
LINE
  5
44B
330
1F
100
AcDbEntity
  8
0239_詳
  6
Continuous
 62
     3
370
     9
100
AcDbLine
 10
-563.2736206054688
 20
725.5538857949748
 30
0.0
 11
-554.3936239706502
 21
725.5538857949748
 31
0.0
  0
LINE
  5
44C
330
1F
100
AcDbEntity
  8
0239_詳
  6
Continuous
 62
     3
370
     9
100
AcDbLine
 10
-546.3936470650335
 20
731.5540540540542
 30
0.0
 11
-537.5136504302154
 21
731.5540540540542
 31
0.0
  0
LINE
  5
44D
330
1F
100
AcDbEntity
  8
0239_詳
  6
Continuous
 62
     3
370
     9
100
AcDbLine
 10
-546.3936470650335
 20
725.5538857949748
 30
0.0
 11
-537.5136504302154
 21
725.5538857949748
 31
0.0
  0
LINE
  5
44E
330
1F
100
AcDbEntity
  8
0239_詳
  6
Continuous
 62
     3
370
     9
100
AcDbLine
 10
-529.5136735245987
 20
731.5540540540542
 30
0.0
 11
-520.6336768897802
 21
731.5540540540542
 31
0.0
  0
LINE
  5
44F
330
1F
100
AcDbEntity
  8
0239_詳
  6
Continuous
 62
     3
370
     9
100
AcDbLine
 10
-529.5136735245987
 20
725.5538857949748
 30
0.0
 11
-520.6336768897802
 21
725.5538857949748
 31
0.0
  0
LINE
  5
450
330
1F
100
AcDbEntity
  8
0239_詳
  6
Continuous
 62
     3
370
     9
100
AcDbLine
 10
-512.6336999841637
 20
731.5540540540542
 30
0.0
 11
-503.7537033493453
 21
731.5540540540542
 31
0.0
  0
LINE
  5
451
330
1F
100
AcDbEntity
  8
0239_詳
  6
Continuous
 62
     3
370
     9
100
AcDbLine
 10
-512.6336999841637
 20
725.5538857949748
 30
0.0
 11
-503.7537033493453
 21
725.5538857949748
 31
0.0
  0
LINE
  5
452
330
1F
100
AcDbEntity
  8
0239_詳
  6
Continuous
 62
     3
370
     9
100
AcDbLine
 10
-495.7537264437289
 20
731.5540540540542
 30
0.0
 11
-486.8736060889989
 21
731.5540540540542
 31
0.0
  0
LINE
  5
453
330
1F
100
AcDbEntity
  8
0239_詳
  6
Continuous
 62
     3
370
     9
100
AcDbLine
 10
-495.7537264437289
 20
725.5538857949748
 30
0.0
 11
-486.8736060889989
 21
725.5538857949748
 31
0.0
  0
LINE
  5
454
330
1F
100
AcDbEntity
  8
0239_詳
  6
Continuous
 62
     3
370
     9
100
AcDbLine
 10
-478.8736291833825
 20
731.5540540540542
 30
0.0
 11
-469.9936325485641
 21
731.5540540540542
 31
0.0
  0
LINE
  5
455
330
1F
100
AcDbEntity
  8
0239_詳
  6
Continuous
 62
     3
370
     9
100
AcDbLine
 10
-478.8736291833825
 20
725.5538857949748
 30
0.0
 11
-469.9936325485641
 21
725.5538857949748
 31
0.0
  0
LINE
  5
456
330
1F
100
AcDbEntity
  8
0239_詳
  6
Continuous
 62
     3
370
     9
100
AcDbLine
 10
-461.9936556429477
 20
731.5540540540542
 30
0.0
 11
-453.1136590081292
 21
731.5540540540542
 31
0.0
  0
LINE
  5
457
330
1F
100
AcDbEntity
  8
0239_詳
  6
Continuous
 62
     3
370
     9
100
AcDbLine
 10
-461.9936556429477
 20
725.5538857949748
 30
0.0
 11
-453.1136590081292
 21
725.5538857949748
 31
0.0
  0
LINE
  5
458
330
1F
100
AcDbEntity
  8
0239_詳
  6
Continuous
 62
     3
370
     9
100
AcDbLine
 10
-445.1136821025125
 20
731.5540540540542
 30
0.0
 11
-436.2336854676943
 21
731.5540540540542
 31
0.0
  0
LINE
  5
459
330
1F
100
AcDbEntity
  8
0239_詳
  6
Continuous
 62
     3
370
     9
100
AcDbLine
 10
-445.1136821025125
 20
725.5538857949748
 30
0.0
 11
-436.2336854676943
 21
725.5538857949748
 31
0.0
  0
LINE
  5
45A
330
1F
100
AcDbEntity
  8
0239_詳
  6
Continuous
 62
     3
370
     9
100
AcDbLine
 10
-428.2337085620776
 20
731.5540540540542
 30
0.0
 11
-419.3535882073479
 21
731.5540540540542
 31
0.0
  0
LINE
  5
45B
330
1F
100
AcDbEntity
  8
0239_詳
  6
Continuous
 62
     3
370
     9
100
AcDbLine
 10
-428.2337085620776
 20
725.5538857949748
 30
0.0
 11
-419.3535882073479
 21
725.5538857949748
 31
0.0
  0
LINE
  5
45C
330
1F
100
AcDbEntity
  8
0239_詳
  6
Continuous
 62
     3
370
     9
100
AcDbLine
 10
-411.3536113017312
 20
731.5540540540542
 30
0.0
 11
-402.473614666913
 21
731.5540540540542
 31
0.0
  0
LINE
  5
45D
330
1F
100
AcDbEntity
  8
0239_詳
  6
Continuous
 62
     3
370
     9
100
AcDbLine
 10
-411.3536113017312
 20
725.5538857949748
 30
0.0
 11
-402.473614666913
 21
725.5538857949748
 31
0.0
  0
LINE
  5
45E
330
1F
100
AcDbEntity
  8
0239_詳
  6
Continuous
 62
     3
370
     9
100
AcDbLine
 10
-394.4736377612963
 20
731.5540540540542
 30
0.0
 11
-385.5936411264778
 21
731.5540540540542
 31
0.0
  0
LINE
  5
45F
330
1F
100
AcDbEntity
  8
0239_詳
  6
Continuous
 62
     3
370
     9
100
AcDbLine
 10
-394.4736377612963
 20
725.5538857949748
 30
0.0
 11
-385.5936411264778
 21
725.5538857949748
 31
0.0
  0
LINE
  5
460
330
1F
100
AcDbEntity
  8
0239_詳
  6
Continuous
 62
     3
370
     9
100
AcDbLine
 10
-377.5936642208615
 20
731.5540540540542
 30
0.0
 11
-368.4731560784417
 21
731.5540540540542
 31
0.0
  0
LINE
  5
461
330
1F
100
AcDbEntity
  8
0239_詳
  6
Continuous
 62
     3
370
     9
100
AcDbLine
 10
-377.5936642208615
 20
725.5538857949748
 30
0.0
 11
-368.4731560784417
 21
725.5538857949748
 31
0.0
  0
LINE
  5
462
330
1F
100
AcDbEntity
  8
0239_詳
  6
Continuous
 62
     3
370
     9
100
AcDbLine
 10
-351.4732979439398
 20
731.5540540540542
 30
0.0
 11
-342.1122782939187
 21
731.5540540540542
 31
0.0
  0
LINE
  5
463
330
1F
100
AcDbEntity
  8
0239_詳
  6
Continuous
 62
     3
370
     9
100
AcDbLine
 10
-351.4732979439398
 20
725.5538857949748
 30
0.0
 11
-342.1122782939187
 21
725.5538857949748
 31
0.0
  0
LINE
  5
464
330
1F
100
AcDbEntity
  8
0239_詳
  6
Continuous
 62
     3
370
     9
100
AcDbLine
 10
-334.1123013883023
 20
731.5540540540542
 30
0.0
 11
-325.2321810335727
 21
731.5540540540542
 31
0.0
  0
LINE
  5
465
330
1F
100
AcDbEntity
  8
0239_詳
  6
Continuous
 62
     3
370
     9
100
AcDbLine
 10
-334.1123013883023
 20
725.5538857949748
 30
0.0
 11
-325.2321810335727
 21
725.5538857949748
 31
0.0
  0
LINE
  5
466
330
1F
100
AcDbEntity
  8
0239_詳
  6
Continuous
 62
     3
370
     9
100
AcDbLine
 10
-317.232204127956
 20
731.5540540540542
 30
0.0
 11
-308.3522074931375
 21
731.5540540540542
 31
0.0
  0
LINE
  5
467
330
1F
100
AcDbEntity
  8
0239_詳
  6
Continuous
 62
     3
370
     9
100
AcDbLine
 10
-317.232204127956
 20
725.5538857949748
 30
0.0
 11
-308.3522074931375
 21
725.5538857949748
 31
0.0
  0
LINE
  5
468
330
1F
100
AcDbEntity
  8
0239_詳
  6
Continuous
 62
     3
370
     9
100
AcDbLine
 10
-300.3522305875211
 20
731.5540540540542
 30
0.0
 11
-291.4722339527026
 21
731.5540540540542
 31
0.0
  0
LINE
  5
469
330
1F
100
AcDbEntity
  8
0239_詳
  6
Continuous
 62
     3
370
     9
100
AcDbLine
 10
-300.3522305875211
 20
725.5538857949748
 30
0.0
 11
-291.4722339527026
 21
725.5538857949748
 31
0.0
  0
LINE
  5
46A
330
1F
100
AcDbEntity
  8
0239_詳
  6
Continuous
 62
     3
370
     9
100
AcDbLine
 10
-283.4722570470859
 20
731.5540540540542
 30
0.0
 11
-274.5922604122677
 21
731.5540540540542
 31
0.0
  0
LINE
  5
46B
330
1F
100
AcDbEntity
  8
0239_詳
  6
Continuous
 62
     3
370
     9
100
AcDbLine
 10
-283.4722570470859
 20
725.5538857949748
 30
0.0
 11
-274.5922604122677
 21
725.5538857949748
 31
0.0
  0
LINE
  5
46C
330
1F
100
AcDbEntity
  8
0239_詳
  6
Continuous
 62
     3
370
     9
100
AcDbLine
 10
-266.592283506651
 20
731.5540540540542
 30
0.0
 11
-257.7122868718325
 21
731.5540540540542
 31
0.0
  0
LINE
  5
46D
330
1F
100
AcDbEntity
  8
0239_詳
  6
Continuous
 62
     3
370
     9
100
AcDbLine
 10
-266.592283506651
 20
725.5538857949748
 30
0.0
 11
-257.7122868718325
 21
725.5538857949748
 31
0.0
  0
LINE
  5
46E
330
1F
100
AcDbEntity
  8
0239_詳
  6
Continuous
 62
     3
370
     9
100
AcDbLine
 10
-249.7123099662161
 20
731.5540540540542
 30
0.0
 11
-240.8321896114865
 21
731.5540540540542
 31
0.0
  0
LINE
  5
46F
330
1F
100
AcDbEntity
  8
0239_詳
  6
Continuous
 62
     3
370
     9
100
AcDbLine
 10
-249.7123099662161
 20
725.5538857949748
 30
0.0
 11
-240.8321896114865
 21
725.5538857949748
 31
0.0
  0
LINE
  5
470
330
1F
100
AcDbEntity
  8
0239_詳
  6
Continuous
 62
     3
370
     9
100
AcDbLine
 10
-232.8322127058698
 20
731.5540540540542
 30
0.0
 11
-223.9522160710513
 21
731.5540540540542
 31
0.0
  0
LINE
  5
471
330
1F
100
AcDbEntity
  8
0239_詳
  6
Continuous
 62
     3
370
     9
100
AcDbLine
 10
-232.8322127058698
 20
725.5538857949748
 30
0.0
 11
-223.9522160710513
 21
725.5538857949748
 31
0.0
  0
LINE
  5
472
330
1F
100
AcDbEntity
  8
0239_詳
  6
Continuous
 62
     3
370
     9
100
AcDbLine
 10
-215.9522391654349
 20
731.5540540540542
 30
0.0
 11
-207.0722425306164
 21
731.5540540540542
 31
0.0
  0
LINE
  5
473
330
1F
100
AcDbEntity
  8
0239_詳
  6
Continuous
 62
     3
370
     9
100
AcDbLine
 10
-215.9522391654349
 20
725.5538857949748
 30
0.0
 11
-207.0722425306164
 21
725.5538857949748
 31
0.0
  0
LINE
  5
474
330
1F
100
AcDbEntity
  8
0239_詳
  6
Continuous
 62
     3
370
     9
100
AcDbLine
 10
-199.072265625
 20
731.5540540540542
 30
0.0
 11
-190.1922689901815
 21
731.5540540540542
 31
0.0
  0
LINE
  5
475
330
1F
100
AcDbEntity
  8
0239_詳
  6
Continuous
 62
     3
370
     9
100
AcDbLine
 10
-199.072265625
 20
725.5538857949748
 30
0.0
 11
-190.1922689901815
 21
725.5538857949748
 31
0.0
  0
LINE
  5
476
330
1F
100
AcDbEntity
  8
0239_詳
  6
Continuous
 62
     3
370
     9
100
AcDbLine
 10
-182.1922920845648
 20
731.5540540540542
 30
0.0
 11
-173.3122954497466
 21
731.5540540540542
 31
0.0
  0
LINE
  5
477
330
1F
100
AcDbEntity
  8
0239_詳
  6
Continuous
 62
     3
370
     9
100
AcDbLine
 10
-182.1922920845648
 20
725.5538857949748
 30
0.0
 11
-173.3122954497466
 21
725.5538857949748
 31
0.0
  0
LINE
  5
478
330
1F
100
AcDbEntity
  8
0239_詳
  6
Continuous
 62
     3
370
     9
100
AcDbLine
 10
-165.3123185441299
 20
731.5540540540542
 30
0.0
 11
-156.4321981894003
 21
731.5540540540542
 31
0.0
  0
LINE
  5
479
330
1F
100
AcDbEntity
  8
0239_詳
  6
Continuous
 62
     3
370
     9
100
AcDbLine
 10
-165.3123185441299
 20
725.5538857949748
 30
0.0
 11
-156.4321981894003
 21
725.5538857949748
 31
0.0
  0
LINE
  5
47A
330
1F
100
AcDbEntity
  8
0239_詳
  6
Continuous
 62
     3
370
     9
100
AcDbLine
 10
-148.4322212837836
 20
731.5540540540542
 30
0.0
 11
-139.5522246489654
 21
731.5540540540542
 31
0.0
  0
LINE
  5
47B
330
1F
100
AcDbEntity
  8
0239_詳
  6
Continuous
 62
     3
370
     9
100
AcDbLine
 10
-148.4322212837836
 20
725.5538857949748
 30
0.0
 11
-139.5522246489654
 21
725.5538857949748
 31
0.0
  0
LINE
  5
47C
330
1F
100
AcDbEntity
  8
0239_詳
  6
Continuous
 62
     3
370
     9
100
AcDbLine
 10
-131.5522477433487
 20
731.5540540540542
 30
0.0
 11
-122.6722511085302
 21
731.5540540540542
 31
0.0
  0
LINE
  5
47D
330
1F
100
AcDbEntity
  8
0239_詳
  6
Continuous
 62
     3
370
     9
100
AcDbLine
 10
-131.5522477433487
 20
725.5538857949748
 30
0.0
 11
-122.6722511085302
 21
725.5538857949748
 31
0.0
  0
LINE
  5
47E
330
1F
100
AcDbEntity
  8
0239_詳
  6
Continuous
 62
     3
370
     9
100
AcDbLine
 10
-114.6722742029138
 20
731.5540540540542
 30
0.0
 11
-109.5122878615919
 21
731.5540540540542
 31
0.0
  0
LINE
  5
47F
330
1F
100
AcDbEntity
  8
0239_詳
  6
Continuous
 62
     3
370
     9
100
AcDbLine
 10
-114.6722742029138
 20
725.5538857949748
 30
0.0
 11
-109.5122878615919
 21
725.5538857949748
 31
0.0
  0
LINE
  5
480
330
1F
100
AcDbEntity
  8
0239_詳
  6
JWW_CENTER1
 62
     3
370
     9
100
AcDbLine
 10
-1609.196059768264
 20
628.5540111644849
 30
0.0
 11
-109.5122878615919
 21
628.5540111644849
 31
0.0
  0
LINE
  5
481
330
1F
100
AcDbEntity
  8
0239_詳
  6
Continuous
 62
     3
370
     9
100
AcDbLine
 10
-1609.196059768264
 20
631.5539715741133
 30
0.0
 11
-1603.035457714184
 21
631.5539715741133
 31
0.0
  0
LINE
  5
482
330
1F
100
AcDbEntity
  8
0239_詳
  6
Continuous
 62
     3
370
     9
100
AcDbLine
 10
-1609.196059768264
 20
625.5540507548565
 30
0.0
 11
-1603.035457714184
 21
625.5540507548565
 31
0.0
  0
LINE
  5
483
330
1F
100
AcDbEntity
  8
0239_詳
  6
Continuous
 62
     3
370
     9
100
AcDbLine
 10
-1595.035480808567
 20
631.5539715741133
 30
0.0
 11
-1586.155453243771
 21
631.5539715741133
 31
0.0
  0
LINE
  5
484
330
1F
100
AcDbEntity
  8
0239_詳
  6
Continuous
 62
     3
370
     9
100
AcDbLine
 10
-1595.035480808567
 20
625.5540507548565
 30
0.0
 11
-1586.155453243771
 21
625.5540507548565
 31
0.0
  0
LINE
  5
485
330
1F
100
AcDbEntity
  8
0239_詳
  6
Continuous
 62
     3
370
     9
100
AcDbLine
 10
-1578.155476338155
 20
631.5539715741133
 30
0.0
 11
-1569.27541784338
 21
631.5539715741133
 31
0.0
  0
LINE
  5
486
330
1F
100
AcDbEntity
  8
0239_詳
  6
Continuous
 62
     3
370
     9
100
AcDbLine
 10
-1578.155476338155
 20
625.5540507548565
 30
0.0
 11
-1569.27541784338
 21
625.5540507548565
 31
0.0
  0
LINE
  5
487
330
1F
100
AcDbEntity
  8
0239_詳
  6
Continuous
 62
     3
370
     9
100
AcDbLine
 10
-1561.275440937764
 20
631.5539715741133
 30
0.0
 11
-1552.395444302946
 21
631.5539715741133
 31
0.0
  0
LINE
  5
488
330
1F
100
AcDbEntity
  8
0239_詳
  6
Continuous
 62
     3
370
     9
100
AcDbLine
 10
-1561.275440937764
 20
625.5540507548565
 30
0.0
 11
-1552.395444302946
 21
625.5540507548565
 31
0.0
  0
LINE
  5
489
330
1F
100
AcDbEntity
  8
0239_詳
  6
Continuous
 62
     3
370
     9
100
AcDbLine
 10
-1544.395467397329
 20
631.5539715741133
 30
0.0
 11
-1535.51547076251
 21
631.5539715741133
 31
0.0
  0
LINE
  5
48A
330
1F
100
AcDbEntity
  8
0239_詳
  6
Continuous
 62
     3
370
     9
100
AcDbLine
 10
-1544.395467397329
 20
625.5540507548565
 30
0.0
 11
-1535.51547076251
 21
625.5540507548565
 31
0.0
  0
LINE
  5
48B
330
1F
100
AcDbEntity
  8
0239_詳
  6
Continuous
 62
     3
370
     9
100
AcDbLine
 10
-1527.515493856894
 20
631.5539715741133
 30
0.0
 11
-1518.63543536212
 21
631.5539715741133
 31
0.0
  0
LINE
  5
48C
330
1F
100
AcDbEntity
  8
0239_詳
  6
Continuous
 62
     3
370
     9
100
AcDbLine
 10
-1527.515493856894
 20
625.5540507548565
 30
0.0
 11
-1518.63543536212
 21
625.5540507548565
 31
0.0
  0
LINE
  5
48D
330
1F
100
AcDbEntity
  8
0239_詳
  6
Continuous
 62
     3
370
     9
100
AcDbLine
 10
-1510.635458456503
 20
631.5539715741133
 30
0.0
 11
-1501.755461821685
 21
631.5539715741133
 31
0.0
  0
LINE
  5
48E
330
1F
100
AcDbEntity
  8
0239_詳
  6
Continuous
 62
     3
370
     9
100
AcDbLine
 10
-1510.635458456503
 20
625.5540507548565
 30
0.0
 11
-1501.755461821685
 21
625.5540507548565
 31
0.0
  0
LINE
  5
48F
330
1F
100
AcDbEntity
  8
0239_詳
  6
Continuous
 62
     3
370
     9
100
AcDbLine
 10
-1493.755484916068
 20
631.5539715741133
 30
0.0
 11
-1484.875426421294
 21
631.5539715741133
 31
0.0
  0
LINE
  5
490
330
1F
100
AcDbEntity
  8
0239_詳
  6
Continuous
 62
     3
370
     9
100
AcDbLine
 10
-1493.755484916068
 20
625.5540507548565
 30
0.0
 11
-1484.875426421294
 21
625.5540507548565
 31
0.0
  0
LINE
  5
491
330
1F
100
AcDbEntity
  8
0239_詳
  6
Continuous
 62
     3
370
     9
100
AcDbLine
 10
-1476.875449515678
 20
631.5539715741133
 30
0.0
 11
-1467.995452880859
 21
631.5539715741133
 31
0.0
  0
LINE
  5
492
330
1F
100
AcDbEntity
  8
0239_詳
  6
Continuous
 62
     3
370
     9
100
AcDbLine
 10
-1476.875449515678
 20
625.5540507548565
 30
0.0
 11
-1467.995452880859
 21
625.5540507548565
 31
0.0
  0
LINE
  5
493
330
1F
100
AcDbEntity
  8
0239_詳
  6
Continuous
 62
     3
370
     9
100
AcDbLine
 10
-1459.995475975243
 20
631.5539715741133
 30
0.0
 11
-1451.115417480469
 21
631.5539715741133
 31
0.0
  0
LINE
  5
494
330
1F
100
AcDbEntity
  8
0239_詳
  6
Continuous
 62
     3
370
     9
100
AcDbLine
 10
-1459.995475975243
 20
625.5540507548565
 30
0.0
 11
-1451.115417480469
 21
625.5540507548565
 31
0.0
  0
LINE
  5
495
330
1F
100
AcDbEntity
  8
0239_詳
  6
Continuous
 62
     3
370
     9
100
AcDbLine
 10
-1443.115440574852
 20
631.5539715741133
 30
0.0
 11
-1434.235443940034
 21
631.5539715741133
 31
0.0
  0
LINE
  5
496
330
1F
100
AcDbEntity
  8
0239_詳
  6
Continuous
 62
     3
370
     9
100
AcDbLine
 10
-1443.115440574852
 20
625.5540507548565
 30
0.0
 11
-1434.235443940034
 21
625.5540507548565
 31
0.0
  0
LINE
  5
497
330
1F
100
AcDbEntity
  8
0239_詳
  6
Continuous
 62
     3
370
     9
100
AcDbLine
 10
-1426.235467034417
 20
631.5539715741133
 30
0.0
 11
-1417.355470399599
 21
631.5539715741133
 31
0.0
  0
LINE
  5
498
330
1F
100
AcDbEntity
  8
0239_詳
  6
Continuous
 62
     3
370
     9
100
AcDbLine
 10
-1426.235467034417
 20
625.5540507548565
 30
0.0
 11
-1417.355470399599
 21
625.5540507548565
 31
0.0
  0
LINE
  5
499
330
1F
100
AcDbEntity
  8
0239_詳
  6
Continuous
 62
     3
370
     9
100
AcDbLine
 10
-1409.355493493982
 20
631.5539715741133
 30
0.0
 11
-1400.475434999208
 21
631.5539715741133
 31
0.0
  0
LINE
  5
49A
330
1F
100
AcDbEntity
  8
0239_詳
  6
Continuous
 62
     3
370
     9
100
AcDbLine
 10
-1409.355493493982
 20
625.5540507548565
 30
0.0
 11
-1400.475434999208
 21
625.5540507548565
 31
0.0
  0
LINE
  5
49B
330
1F
100
AcDbEntity
  8
0239_詳
  6
Continuous
 62
     3
370
     9
100
AcDbLine
 10
-1392.475458093592
 20
631.5539715741133
 30
0.0
 11
-1383.595461458773
 21
631.5539715741133
 31
0.0
  0
LINE
  5
49C
330
1F
100
AcDbEntity
  8
0239_詳
  6
Continuous
 62
     3
370
     9
100
AcDbLine
 10
-1392.475458093592
 20
625.5540507548565
 30
0.0
 11
-1383.595461458773
 21
625.5540507548565
 31
0.0
  0
LINE
  5
49D
330
1F
100
AcDbEntity
  8
0239_詳
  6
Continuous
 62
     3
370
     9
100
AcDbLine
 10
-1375.595484553157
 20
631.5539715741133
 30
0.0
 11
-1366.474976410737
 21
631.5539715741133
 31
0.0
  0
LINE
  5
49E
330
1F
100
AcDbEntity
  8
0239_詳
  6
Continuous
 62
     3
370
     9
100
AcDbLine
 10
-1375.595484553157
 20
625.5540507548565
 30
0.0
 11
-1366.474976410737
 21
625.5540507548565
 31
0.0
  0
LINE
  5
49F
330
1F
100
AcDbEntity
  8
0239_詳
  6
Continuous
 62
     3
370
     9
100
AcDbLine
 10
-1349.47505641628
 20
631.5539715741133
 30
0.0
 11
-1340.35454827386
 21
631.5539715741133
 31
0.0
  0
LINE
  5
4A0
330
1F
100
AcDbEntity
  8
0239_詳
  6
Continuous
 62
     3
370
     9
100
AcDbLine
 10
-1349.47505641628
 20
625.5540507548565
 30
0.0
 11
-1340.35454827386
 21
625.5540507548565
 31
0.0
  0
LINE
  5
4A1
330
1F
100
AcDbEntity
  8
0239_詳
  6
Continuous
 62
     3
370
     9
100
AcDbLine
 10
-1332.354571368243
 20
631.5539715741133
 30
0.0
 11
-1323.474574733425
 21
631.5539715741133
 31
0.0
  0
LINE
  5
4A2
330
1F
100
AcDbEntity
  8
0239_詳
  6
Continuous
 62
     3
370
     9
100
AcDbLine
 10
-1332.354571368243
 20
625.5540507548565
 30
0.0
 11
-1323.474574733425
 21
625.5540507548565
 31
0.0
  0
LINE
  5
4A3
330
1F
100
AcDbEntity
  8
0239_詳
  6
Continuous
 62
     3
370
     9
100
AcDbLine
 10
-1315.474597827808
 20
631.5539715741133
 30
0.0
 11
-1306.594539333034
 21
631.5539715741133
 31
0.0
  0
LINE
  5
4A4
330
1F
100
AcDbEntity
  8
0239_詳
  6
Continuous
 62
     3
370
     9
100
AcDbLine
 10
-1315.474597827808
 20
625.5540507548565
 30
0.0
 11
-1306.594539333034
 21
625.5540507548565
 31
0.0
  0
LINE
  5
4A5
330
1F
100
AcDbEntity
  8
0239_詳
  6
Continuous
 62
     3
370
     9
100
AcDbLine
 10
-1298.594562427418
 20
631.5539715741133
 30
0.0
 11
-1289.714565792599
 21
631.5539715741133
 31
0.0
  0
LINE
  5
4A6
330
1F
100
AcDbEntity
  8
0239_詳
  6
Continuous
 62
     3
370
     9
100
AcDbLine
 10
-1298.594562427418
 20
625.5540507548565
 30
0.0
 11
-1289.714565792599
 21
625.5540507548565
 31
0.0
  0
LINE
  5
4A7
330
1F
100
AcDbEntity
  8
0239_詳
  6
Continuous
 62
     3
370
     9
100
AcDbLine
 10
-1281.714588886983
 20
631.5539715741133
 30
0.0
 11
-1272.834530392209
 21
631.5539715741133
 31
0.0
  0
LINE
  5
4A8
330
1F
100
AcDbEntity
  8
0239_詳
  6
Continuous
 62
     3
370
     9
100
AcDbLine
 10
-1281.714588886983
 20
625.5540507548565
 30
0.0
 11
-1272.834530392209
 21
625.5540507548565
 31
0.0
  0
LINE
  5
4A9
330
1F
100
AcDbEntity
  8
0239_詳
  6
Continuous
 62
     3
370
     9
100
AcDbLine
 10
-1264.834553486592
 20
631.5539715741133
 30
0.0
 11
-1255.954556851774
 21
631.5539715741133
 31
0.0
  0
LINE
  5
4AA
330
1F
100
AcDbEntity
  8
0239_詳
  6
Continuous
 62
     3
370
     9
100
AcDbLine
 10
-1264.834553486592
 20
625.5540507548565
 30
0.0
 11
-1255.954556851774
 21
625.5540507548565
 31
0.0
  0
LINE
  5
4AB
330
1F
100
AcDbEntity
  8
0239_詳
  6
Continuous
 62
     3
370
     9
100
AcDbLine
 10
-1247.954579946157
 20
631.5539715741133
 30
0.0
 11
-1239.074521451383
 21
631.5539715741133
 31
0.0
  0
LINE
  5
4AC
330
1F
100
AcDbEntity
  8
0239_詳
  6
Continuous
 62
     3
370
     9
100
AcDbLine
 10
-1247.954579946157
 20
625.5540507548565
 30
0.0
 11
-1239.074521451383
 21
625.5540507548565
 31
0.0
  0
LINE
  5
4AD
330
1F
100
AcDbEntity
  8
0239_詳
  6
Continuous
 62
     3
370
     9
100
AcDbLine
 10
-1231.074544545766
 20
631.5539715741133
 30
0.0
 11
-1222.194547910948
 21
631.5539715741133
 31
0.0
  0
LINE
  5
4AE
330
1F
100
AcDbEntity
  8
0239_詳
  6
Continuous
 62
     3
370
     9
100
AcDbLine
 10
-1231.074544545766
 20
625.5540507548565
 30
0.0
 11
-1222.194547910948
 21
625.5540507548565
 31
0.0
  0
LINE
  5
4AF
330
1F
100
AcDbEntity
  8
0239_詳
  6
Continuous
 62
     3
370
     9
100
AcDbLine
 10
-1214.194571005331
 20
631.5539715741133
 30
0.0
 11
-1205.314574370513
 21
631.5539715741133
 31
0.0
  0
LINE
  5
4B0
330
1F
100
AcDbEntity
  8
0239_詳
  6
Continuous
 62
     3
370
     9
100
AcDbLine
 10
-1214.194571005331
 20
625.5540507548565
 30
0.0
 11
-1205.314574370513
 21
625.5540507548565
 31
0.0
  0
LINE
  5
4B1
330
1F
100
AcDbEntity
  8
0239_詳
  6
Continuous
 62
     3
370
     9
100
AcDbLine
 10
-1197.314597464896
 20
631.5539715741133
 30
0.0
 11
-1188.434538970123
 21
631.5539715741133
 31
0.0
  0
LINE
  5
4B2
330
1F
100
AcDbEntity
  8
0239_詳
  6
Continuous
 62
     3
370
     9
100
AcDbLine
 10
-1197.314597464896
 20
625.5540507548565
 30
0.0
 11
-1188.434538970123
 21
625.5540507548565
 31
0.0
  0
LINE
  5
4B3
330
1F
100
AcDbEntity
  8
0239_詳
  6
Continuous
 62
     3
370
     9
100
AcDbLine
 10
-1180.434562064506
 20
631.5539715741133
 30
0.0
 11
-1171.554565429688
 21
631.5539715741133
 31
0.0
  0
LINE
  5
4B4
330
1F
100
AcDbEntity
  8
0239_詳
  6
Continuous
 62
     3
370
     9
100
AcDbLine
 10
-1180.434562064506
 20
625.5540507548565
 30
0.0
 11
-1171.554565429688
 21
625.5540507548565
 31
0.0
  0
LINE
  5
4B5
330
1F
100
AcDbEntity
  8
0239_詳
  6
Continuous
 62
     3
370
     9
100
AcDbLine
 10
-1163.554588524071
 20
631.5539715741133
 30
0.0
 11
-1154.674530029297
 21
631.5539715741133
 31
0.0
  0
LINE
  5
4B6
330
1F
100
AcDbEntity
  8
0239_詳
  6
Continuous
 62
     3
370
     9
100
AcDbLine
 10
-1163.554588524071
 20
625.5540507548565
 30
0.0
 11
-1154.674530029297
 21
625.5540507548565
 31
0.0
  0
LINE
  5
4B7
330
1F
100
AcDbEntity
  8
0239_詳
  6
Continuous
 62
     3
370
     9
100
AcDbLine
 10
-1146.67455312368
 20
631.5539715741133
 30
0.0
 11
-1137.794556488862
 21
631.5539715741133
 31
0.0
  0
LINE
  5
4B8
330
1F
100
AcDbEntity
  8
0239_詳
  6
Continuous
 62
     3
370
     9
100
AcDbLine
 10
-1146.67455312368
 20
625.5540507548565
 30
0.0
 11
-1137.794556488862
 21
625.5540507548565
 31
0.0
  0
LINE
  5
4B9
330
1F
100
AcDbEntity
  8
0239_詳
  6
Continuous
 62
     3
370
     9
100
AcDbLine
 10
-1129.794579583245
 20
631.5539715741133
 30
0.0
 11
-1120.914521088471
 21
631.5539715741133
 31
0.0
  0
LINE
  5
4BA
330
1F
100
AcDbEntity
  8
0239_詳
  6
Continuous
 62
     3
370
     9
100
AcDbLine
 10
-1129.794579583245
 20
625.5540507548565
 30
0.0
 11
-1120.914521088471
 21
625.5540507548565
 31
0.0
  0
LINE
  5
4BB
330
1F
100
AcDbEntity
  8
0239_詳
  6
Continuous
 62
     3
370
     9
100
AcDbLine
 10
-1112.914544182855
 20
631.5539715741133
 30
0.0
 11
-1104.034547548036
 21
631.5539715741133
 31
0.0
  0
LINE
  5
4BC
330
1F
100
AcDbEntity
  8
0239_詳
  6
Continuous
 62
     3
370
     9
100
AcDbLine
 10
-1112.914544182855
 20
625.5540507548565
 30
0.0
 11
-1104.034547548036
 21
625.5540507548565
 31
0.0
  0
LINE
  5
4BD
330
1F
100
AcDbEntity
  8
0239_詳
  6
Continuous
 62
     3
370
     9
100
AcDbLine
 10
-1096.03457064242
 20
631.5539715741133
 30
0.0
 11
-1087.154574007601
 21
631.5539715741133
 31
0.0
  0
LINE
  5
4BE
330
1F
100
AcDbEntity
  8
0239_詳
  6
Continuous
 62
     3
370
     9
100
AcDbLine
 10
-1096.03457064242
 20
625.5540507548565
 30
0.0
 11
-1087.154574007601
 21
625.5540507548565
 31
0.0
  0
LINE
  5
4BF
330
1F
100
AcDbEntity
  8
0239_詳
  6
Continuous
 62
     3
370
     9
100
AcDbLine
 10
-1079.154597101985
 20
631.5539715741133
 30
0.0
 11
-1070.274538607211
 21
631.5539715741133
 31
0.0
  0
LINE
  5
4C0
330
1F
100
AcDbEntity
  8
0239_詳
  6
Continuous
 62
     3
370
     9
100
AcDbLine
 10
-1079.154597101985
 20
625.5540507548565
 30
0.0
 11
-1070.274538607211
 21
625.5540507548565
 31
0.0
  0
LINE
  5
4C1
330
1F
100
AcDbEntity
  8
0239_詳
  6
Continuous
 62
     3
370
     9
100
AcDbLine
 10
-1062.274561701594
 20
631.5539715741133
 30
0.0
 11
-1053.39450320682
 21
631.5539715741133
 31
0.0
  0
LINE
  5
4C2
330
1F
100
AcDbEntity
  8
0239_詳
  6
Continuous
 62
     3
370
     9
100
AcDbLine
 10
-1062.274561701594
 20
625.5540507548565
 30
0.0
 11
-1053.39450320682
 21
625.5540507548565
 31
0.0
  0
LINE
  5
4C3
330
1F
100
AcDbEntity
  8
0239_詳
  6
Continuous
 62
     3
370
     9
100
AcDbLine
 10
-1045.394526301204
 20
631.5539715741133
 30
0.0
 11
-1036.514529666385
 21
631.5539715741133
 31
0.0
  0
LINE
  5
4C4
330
1F
100
AcDbEntity
  8
0239_詳
  6
Continuous
 62
     3
370
     9
100
AcDbLine
 10
-1045.394526301204
 20
625.5540507548565
 30
0.0
 11
-1036.514529666385
 21
625.5540507548565
 31
0.0
  0
LINE
  5
4C5
330
1F
100
AcDbEntity
  8
0239_詳
  6
Continuous
 62
     3
370
     9
100
AcDbLine
 10
-1028.514552760769
 20
631.5539715741133
 30
0.0
 11
-1019.63455612595
 21
631.5539715741133
 31
0.0
  0
LINE
  5
4C6
330
1F
100
AcDbEntity
  8
0239_詳
  6
Continuous
 62
     3
370
     9
100
AcDbLine
 10
-1028.514552760769
 20
625.5540507548565
 30
0.0
 11
-1019.63455612595
 21
625.5540507548565
 31
0.0
  0
LINE
  5
4C7
330
1F
100
AcDbEntity
  8
0239_詳
  6
Continuous
 62
     3
370
     9
100
AcDbLine
 10
-1011.634579220334
 20
631.5539715741133
 30
0.0
 11
-1002.754582585515
 21
631.5539715741133
 31
0.0
  0
LINE
  5
4C8
330
1F
100
AcDbEntity
  8
0239_詳
  6
Continuous
 62
     3
370
     9
100
AcDbLine
 10
-1011.634579220334
 20
625.5540507548565
 30
0.0
 11
-1002.754582585515
 21
625.5540507548565
 31
0.0
  0
LINE
  5
4C9
330
1F
100
AcDbEntity
  8
0239_詳
  6
Continuous
 62
     3
370
     9
100
AcDbLine
 10
-994.7546056798985
 20
631.5539715741133
 30
0.0
 11
-985.8744853251688
 21
631.5539715741133
 31
0.0
  0
LINE
  5
4CA
330
1F
100
AcDbEntity
  8
0239_詳
  6
Continuous
 62
     3
370
     9
100
AcDbLine
 10
-994.7546056798985
 20
625.5540507548565
 30
0.0
 11
-985.8744853251688
 21
625.5540507548565
 31
0.0
  0
LINE
  5
4CB
330
1F
100
AcDbEntity
  8
0239_詳
  6
Continuous
 62
     3
370
     9
100
AcDbLine
 10
-977.8745084195523
 20
631.5539715741133
 30
0.0
 11
-968.9945117847338
 21
631.5539715741133
 31
0.0
  0
LINE
  5
4CC
330
1F
100
AcDbEntity
  8
0239_詳
  6
Continuous
 62
     3
370
     9
100
AcDbLine
 10
-977.8745084195523
 20
625.5540507548565
 30
0.0
 11
-968.9945117847338
 21
625.5540507548565
 31
0.0
  0
LINE
  5
4CD
330
1F
100
AcDbEntity
  8
0239_詳
  6
Continuous
 62
     3
370
     9
100
AcDbLine
 10
-960.9945348791173
 20
631.5539715741133
 30
0.0
 11
-952.114538244299
 21
631.5539715741133
 31
0.0
  0
LINE
  5
4CE
330
1F
100
AcDbEntity
  8
0239_詳
  6
Continuous
 62
     3
370
     9
100
AcDbLine
 10
-960.9945348791173
 20
625.5540507548565
 30
0.0
 11
-952.114538244299
 21
625.5540507548565
 31
0.0
  0
LINE
  5
4CF
330
1F
100
AcDbEntity
  8
0239_詳
  6
Continuous
 62
     3
370
     9
100
AcDbLine
 10
-944.1145613386824
 20
631.5539715741133
 30
0.0
 11
-935.234564703864
 21
631.5539715741133
 31
0.0
  0
LINE
  5
4D0
330
1F
100
AcDbEntity
  8
0239_詳
  6
Continuous
 62
     3
370
     9
100
AcDbLine
 10
-944.1145613386824
 20
625.5540507548565
 30
0.0
 11
-935.234564703864
 21
625.5540507548565
 31
0.0
  0
LINE
  5
4D1
330
1F
100
AcDbEntity
  8
0239_詳
  6
Continuous
 62
     3
370
     9
100
AcDbLine
 10
-927.2345877982474
 20
631.5539715741133
 30
0.0
 11
-918.3545911634291
 21
631.5539715741133
 31
0.0
  0
LINE
  5
4D2
330
1F
100
AcDbEntity
  8
0239_詳
  6
Continuous
 62
     3
370
     9
100
AcDbLine
 10
-927.2345877982474
 20
625.5540507548565
 30
0.0
 11
-918.3545911634291
 21
625.5540507548565
 31
0.0
  0
LINE
  5
4D3
330
1F
100
AcDbEntity
  8
0239_詳
  6
Continuous
 62
     3
370
     9
100
AcDbLine
 10
-910.3546142578125
 20
631.5539715741133
 30
0.0
 11
-901.4744939030827
 21
631.5539715741133
 31
0.0
  0
LINE
  5
4D4
330
1F
100
AcDbEntity
  8
0239_詳
  6
Continuous
 62
     3
370
     9
100
AcDbLine
 10
-910.3546142578125
 20
625.5540507548565
 30
0.0
 11
-901.4744939030827
 21
625.5540507548565
 31
0.0
  0
LINE
  5
4D5
330
1F
100
AcDbEntity
  8
0239_詳
  6
Continuous
 62
     3
370
     9
100
AcDbLine
 10
-893.4745169974661
 20
631.5539715741133
 30
0.0
 11
-884.5945203626478
 21
631.5539715741133
 31
0.0
  0
LINE
  5
4D6
330
1F
100
AcDbEntity
  8
0239_詳
  6
Continuous
 62
     3
370
     9
100
AcDbLine
 10
-893.4745169974661
 20
625.5540507548565
 30
0.0
 11
-884.5945203626478
 21
625.5540507548565
 31
0.0
  0
LINE
  5
4D7
330
1F
100
AcDbEntity
  8
0239_詳
  6
Continuous
 62
     3
370
     9
100
AcDbLine
 10
-876.5945434570312
 20
631.5539715741133
 30
0.0
 11
-867.4740353146115
 21
631.5539715741133
 31
0.0
  0
LINE
  5
4D8
330
1F
100
AcDbEntity
  8
0239_詳
  6
Continuous
 62
     3
370
     9
100
AcDbLine
 10
-876.5945434570312
 20
625.5540507548565
 30
0.0
 11
-867.4740353146115
 21
625.5540507548565
 31
0.0
  0
LINE
  5
4D9
330
1F
100
AcDbEntity
  8
0239_詳
  6
Continuous
 62
     3
370
     9
100
AcDbLine
 10
-850.4741771801098
 20
631.5539715741133
 30
0.0
 11
-841.35366903769
 21
631.5539715741133
 31
0.0
  0
LINE
  5
4DA
330
1F
100
AcDbEntity
  8
0239_詳
  6
Continuous
 62
     3
370
     9
100
AcDbLine
 10
-850.4741771801098
 20
625.5540507548565
 30
0.0
 11
-841.35366903769
 21
625.5540507548565
 31
0.0
  0
LINE
  5
4DB
330
1F
100
AcDbEntity
  8
0239_詳
  6
Continuous
 62
     3
370
     9
100
AcDbLine
 10
-833.3536921320734
 20
631.5539715741133
 30
0.0
 11
-824.473695497255
 21
631.5539715741133
 31
0.0
  0
LINE
  5
4DC
330
1F
100
AcDbEntity
  8
0239_詳
  6
Continuous
 62
     3
370
     9
100
AcDbLine
 10
-833.3536921320734
 20
625.5540507548565
 30
0.0
 11
-824.473695497255
 21
625.5540507548565
 31
0.0
  0
LINE
  5
4DD
330
1F
100
AcDbEntity
  8
0239_詳
  6
Continuous
 62
     3
370
     9
100
AcDbLine
 10
-816.4737185916385
 20
631.5539715741133
 30
0.0
 11
-807.5935982369085
 21
631.5539715741133
 31
0.0
  0
LINE
  5
4DE
330
1F
100
AcDbEntity
  8
0239_詳
  6
Continuous
 62
     3
370
     9
100
AcDbLine
 10
-816.4737185916385
 20
625.5540507548565
 30
0.0
 11
-807.5935982369085
 21
625.5540507548565
 31
0.0
  0
LINE
  5
4DF
330
1F
100
AcDbEntity
  8
0239_詳
  6
Continuous
 62
     3
370
     9
100
AcDbLine
 10
-799.5936213312922
 20
631.5539715741133
 30
0.0
 11
-790.7136246964737
 21
631.5539715741133
 31
0.0
  0
LINE
  5
4E0
330
1F
100
AcDbEntity
  8
0239_詳
  6
Continuous
 62
     3
370
     9
100
AcDbLine
 10
-799.5936213312922
 20
625.5540507548565
 30
0.0
 11
-790.7136246964737
 21
625.5540507548565
 31
0.0
  0
LINE
  5
4E1
330
1F
100
AcDbEntity
  8
0239_詳
  6
Continuous
 62
     3
370
     9
100
AcDbLine
 10
-782.7136477908573
 20
631.5539715741133
 30
0.0
 11
-773.8336511560387
 21
631.5539715741133
 31
0.0
  0
LINE
  5
4E2
330
1F
100
AcDbEntity
  8
0239_詳
  6
Continuous
 62
     3
370
     9
100
AcDbLine
 10
-782.7136477908573
 20
625.5540507548565
 30
0.0
 11
-773.8336511560387
 21
625.5540507548565
 31
0.0
  0
LINE
  5
4E3
330
1F
100
AcDbEntity
  8
0239_詳
  6
Continuous
 62
     3
370
     9
100
AcDbLine
 10
-765.8336742504221
 20
631.5539715741133
 30
0.0
 11
-756.953677615604
 21
631.5539715741133
 31
0.0
  0
LINE
  5
4E4
330
1F
100
AcDbEntity
  8
0239_詳
  6
Continuous
 62
     3
370
     9
100
AcDbLine
 10
-765.8336742504221
 20
625.5540507548565
 30
0.0
 11
-756.953677615604
 21
625.5540507548565
 31
0.0
  0
LINE
  5
4E5
330
1F
100
AcDbEntity
  8
0239_詳
  6
Continuous
 62
     3
370
     9
100
AcDbLine
 10
-748.9537007099873
 20
631.5539715741133
 30
0.0
 11
-740.0737040751687
 21
631.5539715741133
 31
0.0
  0
LINE
  5
4E6
330
1F
100
AcDbEntity
  8
0239_詳
  6
Continuous
 62
     3
370
     9
100
AcDbLine
 10
-748.9537007099873
 20
625.5540507548565
 30
0.0
 11
-740.0737040751687
 21
625.5540507548565
 31
0.0
  0
LINE
  5
4E7
330
1F
100
AcDbEntity
  8
0239_詳
  6
Continuous
 62
     3
370
     9
100
AcDbLine
 10
-732.0737271695523
 20
631.5539715741133
 30
0.0
 11
-723.1936068148227
 21
631.5539715741133
 31
0.0
  0
LINE
  5
4E8
330
1F
100
AcDbEntity
  8
0239_詳
  6
Continuous
 62
     3
370
     9
100
AcDbLine
 10
-732.0737271695523
 20
625.5540507548565
 30
0.0
 11
-723.1936068148227
 21
625.5540507548565
 31
0.0
  0
LINE
  5
4E9
330
1F
100
AcDbEntity
  8
0239_詳
  6
Continuous
 62
     3
370
     9
100
AcDbLine
 10
-715.193629909206
 20
631.5539715741133
 30
0.0
 11
-706.3136332743875
 21
631.5539715741133
 31
0.0
  0
LINE
  5
4EA
330
1F
100
AcDbEntity
  8
0239_詳
  6
Continuous
 62
     3
370
     9
100
AcDbLine
 10
-715.193629909206
 20
625.5540507548565
 30
0.0
 11
-706.3136332743875
 21
625.5540507548565
 31
0.0
  0
LINE
  5
4EB
330
1F
100
AcDbEntity
  8
0239_詳
  6
Continuous
 62
     3
370
     9
100
AcDbLine
 10
-698.313656368771
 20
631.5539715741133
 30
0.0
 11
-689.4336597339526
 21
631.5539715741133
 31
0.0
  0
LINE
  5
4EC
330
1F
100
AcDbEntity
  8
0239_詳
  6
Continuous
 62
     3
370
     9
100
AcDbLine
 10
-698.313656368771
 20
625.5540507548565
 30
0.0
 11
-689.4336597339526
 21
625.5540507548565
 31
0.0
  0
LINE
  5
4ED
330
1F
100
AcDbEntity
  8
0239_詳
  6
Continuous
 62
     3
370
     9
100
AcDbLine
 10
-681.4336828283363
 20
631.5539715741133
 30
0.0
 11
-672.5536861935177
 21
631.5539715741133
 31
0.0
  0
LINE
  5
4EE
330
1F
100
AcDbEntity
  8
0239_詳
  6
Continuous
 62
     3
370
     9
100
AcDbLine
 10
-681.4336828283363
 20
625.5540507548565
 30
0.0
 11
-672.5536861935177
 21
625.5540507548565
 31
0.0
  0
LINE
  5
4EF
330
1F
100
AcDbEntity
  8
0239_詳
  6
Continuous
 62
     3
370
     9
100
AcDbLine
 10
-664.553709287901
 20
631.5539715741133
 30
0.0
 11
-655.6735889331713
 21
631.5539715741133
 31
0.0
  0
LINE
  5
4F0
330
1F
100
AcDbEntity
  8
0239_詳
  6
Continuous
 62
     3
370
     9
100
AcDbLine
 10
-664.553709287901
 20
625.5540507548565
 30
0.0
 11
-655.6735889331713
 21
625.5540507548565
 31
0.0
  0
LINE
  5
4F1
330
1F
100
AcDbEntity
  8
0239_詳
  6
Continuous
 62
     3
370
     9
100
AcDbLine
 10
-647.673612027555
 20
631.5539715741133
 30
0.0
 11
-638.7936153927365
 21
631.5539715741133
 31
0.0
  0
LINE
  5
4F2
330
1F
100
AcDbEntity
  8
0239_詳
  6
Continuous
 62
     3
370
     9
100
AcDbLine
 10
-647.673612027555
 20
625.5540507548565
 30
0.0
 11
-638.7936153927365
 21
625.5540507548565
 31
0.0
  0
LINE
  5
4F3
330
1F
100
AcDbEntity
  8
0239_詳
  6
Continuous
 62
     3
370
     9
100
AcDbLine
 10
-630.7936384871198
 20
631.5539715741133
 30
0.0
 11
-621.9136418523016
 21
631.5539715741133
 31
0.0
  0
LINE
  5
4F4
330
1F
100
AcDbEntity
  8
0239_詳
  6
Continuous
 62
     3
370
     9
100
AcDbLine
 10
-630.7936384871198
 20
625.5540507548565
 30
0.0
 11
-621.9136418523016
 21
625.5540507548565
 31
0.0
  0
LINE
  5
4F5
330
1F
100
AcDbEntity
  8
0239_詳
  6
Continuous
 62
     3
370
     9
100
AcDbLine
 10
-613.9136649466849
 20
631.5539715741133
 30
0.0
 11
-605.0336683118664
 21
631.5539715741133
 31
0.0
  0
LINE
  5
4F6
330
1F
100
AcDbEntity
  8
0239_詳
  6
Continuous
 62
     3
370
     9
100
AcDbLine
 10
-613.9136649466849
 20
625.5540507548565
 30
0.0
 11
-605.0336683118664
 21
625.5540507548565
 31
0.0
  0
LINE
  5
4F7
330
1F
100
AcDbEntity
  8
0239_詳
  6
Continuous
 62
     3
370
     9
100
AcDbLine
 10
-597.03369140625
 20
631.5539715741133
 30
0.0
 11
-588.1536947714314
 21
631.5539715741133
 31
0.0
  0
LINE
  5
4F8
330
1F
100
AcDbEntity
  8
0239_詳
  6
Continuous
 62
     3
370
     9
100
AcDbLine
 10
-597.03369140625
 20
625.5540507548565
 30
0.0
 11
-588.1536947714314
 21
625.5540507548565
 31
0.0
  0
LINE
  5
4F9
330
1F
100
AcDbEntity
  8
0239_詳
  6
Continuous
 62
     3
370
     9
100
AcDbLine
 10
-580.1537178658148
 20
631.5539715741133
 30
0.0
 11
-571.2735975110852
 21
631.5539715741133
 31
0.0
  0
LINE
  5
4FA
330
1F
100
AcDbEntity
  8
0239_詳
  6
Continuous
 62
     3
370
     9
100
AcDbLine
 10
-580.1537178658148
 20
625.5540507548565
 30
0.0
 11
-571.2735975110852
 21
625.5540507548565
 31
0.0
  0
LINE
  5
4FB
330
1F
100
AcDbEntity
  8
0239_詳
  6
Continuous
 62
     3
370
     9
100
AcDbLine
 10
-563.2736206054688
 20
631.5539715741133
 30
0.0
 11
-554.3936239706502
 21
631.5539715741133
 31
0.0
  0
LINE
  5
4FC
330
1F
100
AcDbEntity
  8
0239_詳
  6
Continuous
 62
     3
370
     9
100
AcDbLine
 10
-563.2736206054688
 20
625.5540507548565
 30
0.0
 11
-554.3936239706502
 21
625.5540507548565
 31
0.0
  0
LINE
  5
4FD
330
1F
100
AcDbEntity
  8
0239_詳
  6
Continuous
 62
     3
370
     9
100
AcDbLine
 10
-546.3936470650335
 20
631.5539715741133
 30
0.0
 11
-537.5136504302154
 21
631.5539715741133
 31
0.0
  0
LINE
  5
4FE
330
1F
100
AcDbEntity
  8
0239_詳
  6
Continuous
 62
     3
370
     9
100
AcDbLine
 10
-546.3936470650335
 20
625.5540507548565
 30
0.0
 11
-537.5136504302154
 21
625.5540507548565
 31
0.0
  0
LINE
  5
4FF
330
1F
100
AcDbEntity
  8
0239_詳
  6
Continuous
 62
     3
370
     9
100
AcDbLine
 10
-529.5136735245987
 20
631.5539715741133
 30
0.0
 11
-520.6336768897802
 21
631.5539715741133
 31
0.0
  0
LINE
  5
500
330
1F
100
AcDbEntity
  8
0239_詳
  6
Continuous
 62
     3
370
     9
100
AcDbLine
 10
-529.5136735245987
 20
625.5540507548565
 30
0.0
 11
-520.6336768897802
 21
625.5540507548565
 31
0.0
  0
LINE
  5
501
330
1F
100
AcDbEntity
  8
0239_詳
  6
Continuous
 62
     3
370
     9
100
AcDbLine
 10
-512.6336999841637
 20
631.5539715741133
 30
0.0
 11
-503.7537033493453
 21
631.5539715741133
 31
0.0
  0
LINE
  5
502
330
1F
100
AcDbEntity
  8
0239_詳
  6
Continuous
 62
     3
370
     9
100
AcDbLine
 10
-512.6336999841637
 20
625.5540507548565
 30
0.0
 11
-503.7537033493453
 21
625.5540507548565
 31
0.0
  0
LINE
  5
503
330
1F
100
AcDbEntity
  8
0239_詳
  6
Continuous
 62
     3
370
     9
100
AcDbLine
 10
-495.7537264437289
 20
631.5539715741133
 30
0.0
 11
-486.8736060889989
 21
631.5539715741133
 31
0.0
  0
LINE
  5
504
330
1F
100
AcDbEntity
  8
0239_詳
  6
Continuous
 62
     3
370
     9
100
AcDbLine
 10
-495.7537264437289
 20
625.5540507548565
 30
0.0
 11
-486.8736060889989
 21
625.5540507548565
 31
0.0
  0
LINE
  5
505
330
1F
100
AcDbEntity
  8
0239_詳
  6
Continuous
 62
     3
370
     9
100
AcDbLine
 10
-478.8736291833825
 20
631.5539715741133
 30
0.0
 11
-469.9936325485641
 21
631.5539715741133
 31
0.0
  0
LINE
  5
506
330
1F
100
AcDbEntity
  8
0239_詳
  6
Continuous
 62
     3
370
     9
100
AcDbLine
 10
-478.8736291833825
 20
625.5540507548565
 30
0.0
 11
-469.9936325485641
 21
625.5540507548565
 31
0.0
  0
LINE
  5
507
330
1F
100
AcDbEntity
  8
0239_詳
  6
Continuous
 62
     3
370
     9
100
AcDbLine
 10
-461.9936556429477
 20
631.5539715741133
 30
0.0
 11
-453.1136590081292
 21
631.5539715741133
 31
0.0
  0
LINE
  5
508
330
1F
100
AcDbEntity
  8
0239_詳
  6
Continuous
 62
     3
370
     9
100
AcDbLine
 10
-461.9936556429477
 20
625.5540507548565
 30
0.0
 11
-453.1136590081292
 21
625.5540507548565
 31
0.0
  0
LINE
  5
509
330
1F
100
AcDbEntity
  8
0239_詳
  6
Continuous
 62
     3
370
     9
100
AcDbLine
 10
-445.1136821025125
 20
631.5539715741133
 30
0.0
 11
-436.2336854676943
 21
631.5539715741133
 31
0.0
  0
LINE
  5
50A
330
1F
100
AcDbEntity
  8
0239_詳
  6
Continuous
 62
     3
370
     9
100
AcDbLine
 10
-445.1136821025125
 20
625.5540507548565
 30
0.0
 11
-436.2336854676943
 21
625.5540507548565
 31
0.0
  0
LINE
  5
50B
330
1F
100
AcDbEntity
  8
0239_詳
  6
Continuous
 62
     3
370
     9
100
AcDbLine
 10
-428.2337085620776
 20
631.5539715741133
 30
0.0
 11
-419.3535882073479
 21
631.5539715741133
 31
0.0
  0
LINE
  5
50C
330
1F
100
AcDbEntity
  8
0239_詳
  6
Continuous
 62
     3
370
     9
100
AcDbLine
 10
-428.2337085620776
 20
625.5540507548565
 30
0.0
 11
-419.3535882073479
 21
625.5540507548565
 31
0.0
  0
LINE
  5
50D
330
1F
100
AcDbEntity
  8
0239_詳
  6
Continuous
 62
     3
370
     9
100
AcDbLine
 10
-411.3536113017312
 20
631.5539715741133
 30
0.0
 11
-402.473614666913
 21
631.5539715741133
 31
0.0
  0
LINE
  5
50E
330
1F
100
AcDbEntity
  8
0239_詳
  6
Continuous
 62
     3
370
     9
100
AcDbLine
 10
-411.3536113017312
 20
625.5540507548565
 30
0.0
 11
-402.473614666913
 21
625.5540507548565
 31
0.0
  0
LINE
  5
50F
330
1F
100
AcDbEntity
  8
0239_詳
  6
Continuous
 62
     3
370
     9
100
AcDbLine
 10
-394.4736377612963
 20
631.5539715741133
 30
0.0
 11
-385.5936411264778
 21
631.5539715741133
 31
0.0
  0
LINE
  5
510
330
1F
100
AcDbEntity
  8
0239_詳
  6
Continuous
 62
     3
370
     9
100
AcDbLine
 10
-394.4736377612963
 20
625.5540507548565
 30
0.0
 11
-385.5936411264778
 21
625.5540507548565
 31
0.0
  0
LINE
  5
511
330
1F
100
AcDbEntity
  8
0239_詳
  6
Continuous
 62
     3
370
     9
100
AcDbLine
 10
-377.5936642208615
 20
631.5539715741133
 30
0.0
 11
-368.4731560784417
 21
631.5539715741133
 31
0.0
  0
LINE
  5
512
330
1F
100
AcDbEntity
  8
0239_詳
  6
Continuous
 62
     3
370
     9
100
AcDbLine
 10
-377.5936642208615
 20
625.5540507548565
 30
0.0
 11
-368.4731560784417
 21
625.5540507548565
 31
0.0
  0
LINE
  5
513
330
1F
100
AcDbEntity
  8
0239_詳
  6
Continuous
 62
     3
370
     9
100
AcDbLine
 10
-351.4732979439398
 20
631.5539715741133
 30
0.0
 11
-342.1122782939187
 21
631.5539715741133
 31
0.0
  0
LINE
  5
514
330
1F
100
AcDbEntity
  8
0239_詳
  6
Continuous
 62
     3
370
     9
100
AcDbLine
 10
-351.4732979439398
 20
625.5540507548565
 30
0.0
 11
-342.1122782939187
 21
625.5540507548565
 31
0.0
  0
LINE
  5
515
330
1F
100
AcDbEntity
  8
0239_詳
  6
Continuous
 62
     3
370
     9
100
AcDbLine
 10
-334.1123013883023
 20
631.5539715741133
 30
0.0
 11
-325.2321810335727
 21
631.5539715741133
 31
0.0
  0
LINE
  5
516
330
1F
100
AcDbEntity
  8
0239_詳
  6
Continuous
 62
     3
370
     9
100
AcDbLine
 10
-334.1123013883023
 20
625.5540507548565
 30
0.0
 11
-325.2321810335727
 21
625.5540507548565
 31
0.0
  0
LINE
  5
517
330
1F
100
AcDbEntity
  8
0239_詳
  6
Continuous
 62
     3
370
     9
100
AcDbLine
 10
-317.232204127956
 20
631.5539715741133
 30
0.0
 11
-308.3522074931375
 21
631.5539715741133
 31
0.0
  0
LINE
  5
518
330
1F
100
AcDbEntity
  8
0239_詳
  6
Continuous
 62
     3
370
     9
100
AcDbLine
 10
-317.232204127956
 20
625.5540507548565
 30
0.0
 11
-308.3522074931375
 21
625.5540507548565
 31
0.0
  0
LINE
  5
519
330
1F
100
AcDbEntity
  8
0239_詳
  6
Continuous
 62
     3
370
     9
100
AcDbLine
 10
-300.3522305875211
 20
631.5539715741133
 30
0.0
 11
-291.4722339527026
 21
631.5539715741133
 31
0.0
  0
LINE
  5
51A
330
1F
100
AcDbEntity
  8
0239_詳
  6
Continuous
 62
     3
370
     9
100
AcDbLine
 10
-300.3522305875211
 20
625.5540507548565
 30
0.0
 11
-291.4722339527026
 21
625.5540507548565
 31
0.0
  0
LINE
  5
51B
330
1F
100
AcDbEntity
  8
0239_詳
  6
Continuous
 62
     3
370
     9
100
AcDbLine
 10
-283.4722570470859
 20
631.5539715741133
 30
0.0
 11
-274.5922604122677
 21
631.5539715741133
 31
0.0
  0
LINE
  5
51C
330
1F
100
AcDbEntity
  8
0239_詳
  6
Continuous
 62
     3
370
     9
100
AcDbLine
 10
-283.4722570470859
 20
625.5540507548565
 30
0.0
 11
-274.5922604122677
 21
625.5540507548565
 31
0.0
  0
LINE
  5
51D
330
1F
100
AcDbEntity
  8
0239_詳
  6
Continuous
 62
     3
370
     9
100
AcDbLine
 10
-266.592283506651
 20
631.5539715741133
 30
0.0
 11
-257.7122868718325
 21
631.5539715741133
 31
0.0
  0
LINE
  5
51E
330
1F
100
AcDbEntity
  8
0239_詳
  6
Continuous
 62
     3
370
     9
100
AcDbLine
 10
-266.592283506651
 20
625.5540507548565
 30
0.0
 11
-257.7122868718325
 21
625.5540507548565
 31
0.0
  0
LINE
  5
51F
330
1F
100
AcDbEntity
  8
0239_詳
  6
Continuous
 62
     3
370
     9
100
AcDbLine
 10
-249.7123099662161
 20
631.5539715741133
 30
0.0
 11
-240.8321896114865
 21
631.5539715741133
 31
0.0
  0
LINE
  5
520
330
1F
100
AcDbEntity
  8
0239_詳
  6
Continuous
 62
     3
370
     9
100
AcDbLine
 10
-249.7123099662161
 20
625.5540507548565
 30
0.0
 11
-240.8321896114865
 21
625.5540507548565
 31
0.0
  0
LINE
  5
521
330
1F
100
AcDbEntity
  8
0239_詳
  6
Continuous
 62
     3
370
     9
100
AcDbLine
 10
-232.8322127058698
 20
631.5539715741133
 30
0.0
 11
-223.9522160710513
 21
631.5539715741133
 31
0.0
  0
LINE
  5
522
330
1F
100
AcDbEntity
  8
0239_詳
  6
Continuous
 62
     3
370
     9
100
AcDbLine
 10
-232.8322127058698
 20
625.5540507548565
 30
0.0
 11
-223.9522160710513
 21
625.5540507548565
 31
0.0
  0
LINE
  5
523
330
1F
100
AcDbEntity
  8
0239_詳
  6
Continuous
 62
     3
370
     9
100
AcDbLine
 10
-215.9522391654349
 20
631.5539715741133
 30
0.0
 11
-207.0722425306164
 21
631.5539715741133
 31
0.0
  0
LINE
  5
524
330
1F
100
AcDbEntity
  8
0239_詳
  6
Continuous
 62
     3
370
     9
100
AcDbLine
 10
-215.9522391654349
 20
625.5540507548565
 30
0.0
 11
-207.0722425306164
 21
625.5540507548565
 31
0.0
  0
LINE
  5
525
330
1F
100
AcDbEntity
  8
0239_詳
  6
Continuous
 62
     3
370
     9
100
AcDbLine
 10
-199.072265625
 20
631.5539715741133
 30
0.0
 11
-190.1922689901815
 21
631.5539715741133
 31
0.0
  0
LINE
  5
526
330
1F
100
AcDbEntity
  8
0239_詳
  6
Continuous
 62
     3
370
     9
100
AcDbLine
 10
-199.072265625
 20
625.5540507548565
 30
0.0
 11
-190.1922689901815
 21
625.5540507548565
 31
0.0
  0
LINE
  5
527
330
1F
100
AcDbEntity
  8
0239_詳
  6
Continuous
 62
     3
370
     9
100
AcDbLine
 10
-182.1922920845648
 20
631.5539715741133
 30
0.0
 11
-173.3122954497466
 21
631.5539715741133
 31
0.0
  0
LINE
  5
528
330
1F
100
AcDbEntity
  8
0239_詳
  6
Continuous
 62
     3
370
     9
100
AcDbLine
 10
-182.1922920845648
 20
625.5540507548565
 30
0.0
 11
-173.3122954497466
 21
625.5540507548565
 31
0.0
  0
LINE
  5
529
330
1F
100
AcDbEntity
  8
0239_詳
  6
Continuous
 62
     3
370
     9
100
AcDbLine
 10
-165.3123185441299
 20
631.5539715741133
 30
0.0
 11
-156.4321981894003
 21
631.5539715741133
 31
0.0
  0
LINE
  5
52A
330
1F
100
AcDbEntity
  8
0239_詳
  6
Continuous
 62
     3
370
     9
100
AcDbLine
 10
-165.3123185441299
 20
625.5540507548565
 30
0.0
 11
-156.4321981894003
 21
625.5540507548565
 31
0.0
  0
LINE
  5
52B
330
1F
100
AcDbEntity
  8
0239_詳
  6
Continuous
 62
     3
370
     9
100
AcDbLine
 10
-148.4322212837836
 20
631.5539715741133
 30
0.0
 11
-139.5522246489654
 21
631.5539715741133
 31
0.0
  0
LINE
  5
52C
330
1F
100
AcDbEntity
  8
0239_詳
  6
Continuous
 62
     3
370
     9
100
AcDbLine
 10
-148.4322212837836
 20
625.5540507548565
 30
0.0
 11
-139.5522246489654
 21
625.5540507548565
 31
0.0
  0
LINE
  5
52D
330
1F
100
AcDbEntity
  8
0239_詳
  6
Continuous
 62
     3
370
     9
100
AcDbLine
 10
-131.5522477433487
 20
631.5539715741133
 30
0.0
 11
-122.6722511085302
 21
631.5539715741133
 31
0.0
  0
LINE
  5
52E
330
1F
100
AcDbEntity
  8
0239_詳
  6
Continuous
 62
     3
370
     9
100
AcDbLine
 10
-131.5522477433487
 20
625.5540507548565
 30
0.0
 11
-122.6722511085302
 21
625.5540507548565
 31
0.0
  0
LINE
  5
52F
330
1F
100
AcDbEntity
  8
0239_詳
  6
Continuous
 62
     3
370
     9
100
AcDbLine
 10
-114.6722742029138
 20
631.5539715741133
 30
0.0
 11
-109.5122878615919
 21
631.5539715741133
 31
0.0
  0
LINE
  5
530
330
1F
100
AcDbEntity
  8
0239_詳
  6
Continuous
 62
     3
370
     9
100
AcDbLine
 10
-114.6722742029138
 20
625.5540507548565
 30
0.0
 11
-109.5122878615919
 21
625.5540507548565
 31
0.0
  0
LINE
  5
531
330
1F
100
AcDbEntity
  8
0193_区
  6
Continuous
 62
     7
370
     9
100
AcDbLine
 10
-1609.196059768264
 20
983.5536977407096
 30
0.0
 11
-858.474030365815
 21
983.5536977407096
 31
0.0
  0
LINE
  5
532
330
1F
100
AcDbEntity
  8
0193_区
  6
Continuous
 62
     7
370
     9
100
AcDbLine
 10
-1609.196059768264
 20
903.5534338048988
 30
0.0
 11
-1358.475308804898
 21
903.5534338048988
 31
0.0
  0
LINE
  5
533
330
1F
100
AcDbEntity
  8
0193_区
  6
Continuous
 62
     7
370
     9
100
AcDbLine
 10
-858.474030365815
 20
983.5536977407096
 30
0.0
 11
-109.5122878615919
 21
983.5536977407096
 31
0.0
  0
LINE
  5
534
330
1F
100
AcDbEntity
  8
0193_区
  6
Continuous
 62
     7
370
     9
100
AcDbLine
 10
-858.474030365815
 20
903.5534338048988
 30
0.0
 11
-109.5122878615919
 21
903.5534338048988
 31
0.0
  0
LINE
  5
535
330
1F
100
AcDbEntity
  8
0191_区
  6
Continuous
 62
     2
370
     9
100
AcDbLine
 10
-1609.196059768264
 20
805.5536548511404
 30
0.0
 11
-109.5122878615919
 21
805.5536548511404
 31
0.0
  0
LINE
  5
536
330
1F
100
AcDbEntity
  8
0191_区
  6
Continuous
 62
     2
370
     9
100
AcDbLine
 10
-1609.196059768264
 20
808.5536152607688
 30
0.0
 11
-109.5122878615919
 21
808.5536152607688
 31
0.0
  0
LINE
  5
537
330
1F
100
AcDbEntity
  8
0191_区
  6
Continuous
 62
     2
370
     9
100
AcDbLine
 10
-109.5122878615919
 20
551.5540787980365
 30
0.0
 11
-1609.196059768264
 21
551.5540787980365
 31
0.0
  0
LINE
  5
538
330
1F
100
AcDbEntity
  8
0191_区
  6
Continuous
 62
     2
370
     9
100
AcDbLine
 10
-109.5122878615919
 20
548.5541183884081
 30
0.0
 11
-1609.196059768264
 21
548.5541183884081
 31
0.0
  0
LINE
  5
539
330
1F
100
AcDbEntity
  8
0255_
  6
JWW_CENTER1
 62
     4
370
     9
100
AcDbLine
 10
-525.0736133472338
 20
839.5536185599665
 30
0.0
 11
-525.0736133472338
 21
680.7905372413429
 31
0.0
  0
LINE
  5
53A
330
1F
100
AcDbEntity
  8
0255_
  6
Continuous
 62
     4
370
     9
100
AcDbLine
 10
-523.0736809807854
 20
839.5536185599665
 30
0.0
 11
-527.0736694335938
 21
839.5536185599665
 31
0.0
  0
LINE
  5
53B
330
1F
100
AcDbEntity
  8
0255_
  6
Continuous
 62
     4
370
     9
100
AcDbLine
 10
-527.0736694335938
 20
839.5536185599665
 30
0.0
 11
-527.0736694335938
 21
879.5537505278717
 31
0.0
  0
LINE
  5
53C
330
1F
100
AcDbEntity
  8
0255_
  6
Continuous
 62
     4
370
     9
100
AcDbLine
 10
-527.0736694335938
 20
879.5537505278717
 30
0.0
 11
-523.0736809807854
 21
879.5537505278717
 31
0.0
  0
LINE
  5
53D
330
1F
100
AcDbEntity
  8
0255_
  6
Continuous
 62
     4
370
     9
100
AcDbLine
 10
-523.0736809807854
 20
879.5537505278717
 30
0.0
 11
-523.0736809807854
 21
839.5536185599665
 31
0.0
  0
LINE
  5
53E
330
1F
100
AcDbEntity
  8
0255_
  6
Continuous
 62
     4
370
     9
100
AcDbLine
 10
-515.4076241158148
 20
860.5347834406675
 30
0.0
 11
-490.6214533625422
 21
863.7977723817568
 31
0.0
  0
LINE
  5
53F
330
1F
100
AcDbEntity
  8
0255_
  6
Continuous
 62
     4
370
     9
100
AcDbLine
 10
-515.4076241158148
 20
860.5347834406675
 30
0.0
 11
-466.1581915778081
 21
860.5347834406675
 31
0.0
  0
LINE
  5
540
330
1F
100
AcDbEntity
  8
0255_
  6
Continuous
 62
     4
370
     9
100
AcDbLine
 10
-515.4076241158148
 20
860.5347834406675
 30
0.0
 11
-490.6214533625422
 21
857.2715470597552
 31
0.0
  0
LINE
  5
541
330
1F
100
AcDbEntity
  8
0235_床
  6
Continuous
 62
     3
370
     9
100
AcDbLine
 10
-1100.224097999366
 20
813.5541266364021
 30
0.0
 11
-1101.474102123364
 21
813.5541266364021
 31
0.0
  0
LINE
  5
542
330
1F
100
AcDbEntity
  8
0235_床
  6
Continuous
 62
     3
370
     9
100
AcDbLine
 10
-1100.224097999366
 20
813.5541266364021
 30
0.0
 11
-1100.224097999366
 21
842.5540738492401
 31
0.0
  0
LINE
  5
543
330
1F
100
AcDbEntity
  8
0235_床
  6
Continuous
 62
     3
370
     9
100
AcDbLine
 10
-1101.478741620038
 20
809.5542619035052
 30
0.0
 11
-1100.965613287848
 21
809.5542619035052
 31
0.0
  0
LINE
  5
544
330
1F
100
AcDbEntity
  8
0235_床
  6
Continuous
 62
     3
370
     9
100
AcDbLine
 10
-1116.974041913007
 20
809.5542619035052
 30
0.0
 11
-1116.474027891417
 21
809.5542619035052
 31
0.0
  0
LINE
  5
545
330
1F
100
AcDbEntity
  8
0235_床
  6
Continuous
 62
     3
370
     9
100
AcDbLine
 10
-1117.724155735325
 20
813.5541266364021
 30
0.0
 11
-1116.474151611328
 21
813.5541266364021
 31
0.0
  0
LINE
  5
546
330
1F
100
AcDbEntity
  8
0235_床
  6
Continuous
 62
     3
370
     9
100
AcDbLine
 10
-1117.724155735325
 20
813.5541266364021
 30
0.0
 11
-1117.724155735325
 21
842.5540738492401
 31
0.0
  0
LINE
  5
547
330
1F
100
AcDbEntity
  8
0235_床
  6
Continuous
 62
     3
370
     9
100
AcDbLine
 10
-1100.224097999366
 20
842.5540738492401
 30
0.0
 11
-1117.724155735325
 21
842.5540738492401
 31
0.0
  0
LINE
  5
548
330
1F
100
AcDbEntity
  8
0235_床
  6
JWW_DASHED2
 62
     3
370
     9
100
AcDbLine
 10
-1102.224092225771
 20
813.40838458087
 30
0.0
 11
-1102.224092225771
 21
842.5540738492401
 31
0.0
  0
LINE
  5
549
330
1F
100
AcDbEntity
  8
0235_床
  6
JWW_DASHED2
 62
     3
370
     9
100
AcDbLine
 10
-1115.724161508921
 20
813.40838458087
 30
0.0
 11
-1115.724161508921
 21
842.5540738492401
 31
0.0
  0
LINE
  5
54A
330
1F
100
AcDbEntity
  8
0235_床
  6
Continuous
 62
     3
370
     9
100
AcDbLine
 10
-600.224056759396
 20
813.5541266364021
 30
0.0
 11
-601.4741227433487
 21
813.5541266364021
 31
0.0
  0
LINE
  5
54B
330
1F
100
AcDbEntity
  8
0235_床
  6
Continuous
 62
     3
370
     9
100
AcDbLine
 10
-600.224056759396
 20
813.5541266364021
 30
0.0
 11
-600.224056759396
 21
842.5540738492401
 31
0.0
  0
LINE
  5
54C
330
1F
100
AcDbEntity
  8
0235_床
  6
Continuous
 62
     3
370
     9
100
AcDbLine
 10
-601.4787003800675
 20
809.5542619035052
 30
0.0
 11
-600.9655101879221
 21
809.5542619035052
 31
0.0
  0
LINE
  5
54D
330
1F
100
AcDbEntity
  8
0235_床
  6
Continuous
 62
     3
370
     9
100
AcDbLine
 10
-616.9740006730362
 20
809.5542619035052
 30
0.0
 11
-616.4740485114019
 21
809.5542619035052
 31
0.0
  0
LINE
  5
54E
330
1F
100
AcDbEntity
  8
0235_床
  6
Continuous
 62
     3
370
     9
100
AcDbLine
 10
-617.7241144953547
 20
813.5541266364021
 30
0.0
 11
-616.4741722313133
 21
813.5541266364021
 31
0.0
  0
LINE
  5
54F
330
1F
100
AcDbEntity
  8
0235_床
  6
Continuous
 62
     3
370
     9
100
AcDbLine
 10
-617.7241144953547
 20
813.5541266364021
 30
0.0
 11
-617.7241144953547
 21
842.5540738492401
 31
0.0
  0
LINE
  5
550
330
1F
100
AcDbEntity
  8
0235_床
  6
Continuous
 62
     3
370
     9
100
AcDbLine
 10
-600.224056759396
 20
842.5540738492401
 30
0.0
 11
-617.7241144953547
 21
842.5540738492401
 31
0.0
  0
LINE
  5
551
330
1F
100
AcDbEntity
  8
0235_床
  6
JWW_DASHED2
 62
     3
370
     9
100
AcDbLine
 10
-602.2241128457557
 20
813.40838458087
 30
0.0
 11
-602.2241128457557
 21
842.5540738492401
 31
0.0
  0
LINE
  5
552
330
1F
100
AcDbEntity
  8
0235_床
  6
JWW_DASHED2
 62
     3
370
     9
100
AcDbLine
 10
-615.7240584089948
 20
813.40838458087
 30
0.0
 11
-615.7240584089948
 21
842.5540738492401
 31
0.0
  0
LINE
  5
553
330
1F
100
AcDbEntity
  8
0235_床
  6
JWW_CENTER2
 62
     7
370
     9
100
AcDbLine
 10
-1108.97406500739
 20
800.0859770903717
 30
0.0
 11
-1108.97406500739
 21
847.486291833826
 31
0.0
  0
LINE
  5
554
330
1F
100
AcDbEntity
  8
0235_床
  6
JWW_CENTER2
 62
     7
370
     9
100
AcDbLine
 10
-1114.750114647118
 20
832.5540408572635
 30
0.0
 11
-1103.198077227618
 21
832.5540408572635
 31
0.0
  0
LINE
  5
555
330
1F
100
AcDbEntity
  8
0235_床
  6
JWW_CENTER2
 62
     7
370
     9
100
AcDbLine
 10
-614.7501352671029
 20
832.5540408572635
 30
0.0
 11
-603.1980359876477
 21
832.5540408572635
 31
0.0
  0
LINE
  5
556
330
1F
100
AcDbEntity
  8
0235_床
  6
JWW_CENTER2
 62
     7
370
     9
100
AcDbLine
 10
-608.9740237674198
 20
800.0859770903717
 30
0.0
 11
-608.9740237674198
 21
847.486291833826
 31
0.0
  0
LINE
  5
557
330
1F
100
AcDbEntity
  8
0235_床
  6
Continuous
 62
     3
370
     9
100
AcDbLine
 10
-1100.224097999366
 20
543.553730732686
 30
0.0
 11
-1101.474102123364
 21
543.553730732686
 31
0.0
  0
LINE
  5
558
330
1F
100
AcDbEntity
  8
0235_床
  6
Continuous
 62
     3
370
     9
100
AcDbLine
 10
-1100.224097999366
 20
543.553730732686
 30
0.0
 11
-1100.224097999366
 21
514.5536597999367
 31
0.0
  0
LINE
  5
559
330
1F
100
AcDbEntity
  8
0235_床
  6
Continuous
 62
     3
370
     9
100
AcDbLine
 10
-1101.478741620038
 20
547.5537191854943
 30
0.0
 11
-1100.965613287848
 21
547.5537191854943
 31
0.0
  0
LINE
  5
55A
330
1F
100
AcDbEntity
  8
0235_床
  6
Continuous
 62
     3
370
     9
100
AcDbLine
 10
-1116.974041913007
 20
547.5537191854943
 30
0.0
 11
-1116.474027891417
 21
547.5537191854943
 31
0.0
  0
LINE
  5
55B
330
1F
100
AcDbEntity
  8
0235_床
  6
Continuous
 62
     3
370
     9
100
AcDbLine
 10
-1117.724155735325
 20
543.553730732686
 30
0.0
 11
-1116.474151611328
 21
543.553730732686
 31
0.0
  0
LINE
  5
55C
330
1F
100
AcDbEntity
  8
0235_床
  6
Continuous
 62
     3
370
     9
100
AcDbLine
 10
-1117.724155735325
 20
543.553730732686
 30
0.0
 11
-1117.724155735325
 21
514.5536597999367
 31
0.0
  0
LINE
  5
55D
330
1F
100
AcDbEntity
  8
0235_床
  6
Continuous
 62
     3
370
     9
100
AcDbLine
 10
-1100.224097999366
 20
514.5536597999367
 30
0.0
 11
-1117.724155735325
 21
514.5536597999367
 31
0.0
  0
LINE
  5
55E
330
1F
100
AcDbEntity
  8
0235_床
  6
JWW_DASHED2
 62
     3
370
     9
100
AcDbLine
 10
-1102.224092225771
 20
543.6995965081294
 30
0.0
 11
-1102.224092225771
 21
514.5536597999367
 31
0.0
  0
LINE
  5
55F
330
1F
100
AcDbEntity
  8
0235_床
  6
JWW_DASHED2
 62
     3
370
     9
100
AcDbLine
 10
-1115.724161508921
 20
543.6995965081294
 30
0.0
 11
-1115.724161508921
 21
514.5536597999367
 31
0.0
  0
LINE
  5
560
330
1F
100
AcDbEntity
  8
0235_床
  6
Continuous
 62
     3
370
     9
100
AcDbLine
 10
-600.224056759396
 20
543.553730732686
 30
0.0
 11
-601.4741227433487
 21
543.553730732686
 31
0.0
  0
LINE
  5
561
330
1F
100
AcDbEntity
  8
0235_床
  6
Continuous
 62
     3
370
     9
100
AcDbLine
 10
-600.224056759396
 20
543.553730732686
 30
0.0
 11
-600.224056759396
 21
514.5536597999367
 31
0.0
  0
LINE
  5
562
330
1F
100
AcDbEntity
  8
0235_床
  6
Continuous
 62
     3
370
     9
100
AcDbLine
 10
-601.4787003800675
 20
547.5537191854943
 30
0.0
 11
-600.9655101879221
 21
547.5537191854943
 31
0.0
  0
LINE
  5
563
330
1F
100
AcDbEntity
  8
0235_床
  6
Continuous
 62
     3
370
     9
100
AcDbLine
 10
-616.9740006730362
 20
547.5537191854943
 30
0.0
 11
-616.4740485114019
 21
547.5537191854943
 31
0.0
  0
LINE
  5
564
330
1F
100
AcDbEntity
  8
0235_床
  6
Continuous
 62
     3
370
     9
100
AcDbLine
 10
-617.7241144953547
 20
543.553730732686
 30
0.0
 11
-616.4741722313133
 21
543.553730732686
 31
0.0
  0
LINE
  5
565
330
1F
100
AcDbEntity
  8
0235_床
  6
Continuous
 62
     3
370
     9
100
AcDbLine
 10
-617.7241144953547
 20
543.553730732686
 30
0.0
 11
-617.7241144953547
 21
514.5536597999367
 31
0.0
  0
LINE
  5
566
330
1F
100
AcDbEntity
  8
0235_床
  6
Continuous
 62
     3
370
     9
100
AcDbLine
 10
-600.224056759396
 20
514.5536597999367
 30
0.0
 11
-617.7241144953547
 21
514.5536597999367
 31
0.0
  0
LINE
  5
567
330
1F
100
AcDbEntity
  8
0235_床
  6
JWW_DASHED2
 62
     3
370
     9
100
AcDbLine
 10
-602.2241128457557
 20
543.6995965081294
 30
0.0
 11
-602.2241128457557
 21
514.5536597999367
 31
0.0
  0
LINE
  5
568
330
1F
100
AcDbEntity
  8
0235_床
  6
JWW_DASHED2
 62
     3
370
     9
100
AcDbLine
 10
-615.7240584089948
 20
543.6995965081294
 30
0.0
 11
-615.7240584089948
 21
514.5536597999367
 31
0.0
  0
LINE
  5
569
330
1F
100
AcDbEntity
  8
0235_床
  6
JWW_CENTER2
 62
     7
370
     9
100
AcDbLine
 10
-614.7501352671029
 20
524.5538165118245
 30
0.0
 11
-603.1980359876477
 21
524.5538165118245
 31
0.0
  0
LINE
  5
56A
330
1F
100
AcDbEntity
  8
0235_床
  6
JWW_CENTER2
 62
     7
370
     9
100
AcDbLine
 10
-608.9740237674198
 20
557.0218802787165
 30
0.0
 11
-608.9740237674198
 21
509.6214418153505
 31
0.0
  0
LINE
  5
56B
330
1F
100
AcDbEntity
  8
0235_床
  6
JWW_CENTER2
 62
     7
370
     9
100
AcDbLine
 10
-1114.750114647118
 20
524.5538165118245
 30
0.0
 11
-1103.198077227618
 21
524.5538165118245
 31
0.0
  0
LINE
  5
56C
330
1F
100
AcDbEntity
  8
0235_床
  6
JWW_CENTER2
 62
     7
370
     9
100
AcDbLine
 10
-1108.97406500739
 20
557.0218802787165
 30
0.0
 11
-1108.97406500739
 21
509.6214418153505
 31
0.0
  0
LINE
  5
56D
330
1F
100
AcDbEntity
  8
0193_区
  6
Continuous
 62
     7
370
     9
100
AcDbLine
 10
-608.9740237674198
 20
503.834690403294
 30
0.0
 11
-608.9740237674198
 21
460.5535063872466
 31
0.0
  0
LINE
  5
56E
330
1F
100
AcDbEntity
  8
0193_区
  6
Continuous
 62
     7
370
     9
100
AcDbLine
 10
-1108.97406500739
 20
503.834690403294
 30
0.0
 11
-1108.97406500739
 21
460.5535063872466
 31
0.0
  0
LINE
  5
56F
330
1F
100
AcDbEntity
  8
0193_区
  6
Continuous
 62
     7
370
     9
100
AcDbLine
 10
-1108.97406500739
 20
463.5535905167865
 30
0.0
 11
-608.9740237674198
 21
463.5535905167865
 31
0.0
  0
LINE
  5
570
330
1F
100
AcDbEntity
  8
0255_
  6
Continuous
 62
     7
370
     9
100
AcDbLine
 10
-571.5116346204602
 20
330.0210818728885
 30
0.0
 11
-1146.512047020165
 21
330.0210818728885
 31
0.0
  0
LINE
  5
571
330
1F
100
AcDbEntity
  8
0242_
  6
Continuous
 62
     2
370
     9
100
AcDbLine
 10
147.9620856207771
 20
-320.3784509607263
 30
0.0
 11
-77.0380380991341
 21
-320.3784509607263
 31
0.0
  0
LINE
  5
572
330
1F
100
AcDbEntity
  8
0242_
  6
Continuous
 62
     2
370
     9
100
AcDbLine
 10
147.9620856207771
 20
-270.3781622809332
 30
0.0
 11
147.9620856207771
 21
-320.3784509607263
 31
0.0
  0
LINE
  5
573
330
1F
100
AcDbEntity
  8
0242_
  6
Continuous
 62
     2
370
     9
100
AcDbLine
 10
-77.0380380991341
 20
-270.3781622809332
 30
0.0
 11
147.9620856207771
 21
-270.3781622809332
 31
0.0
  0
LINE
  5
574
330
1F
100
AcDbEntity
  8
0242_
  6
Continuous
 62
     2
370
     9
100
AcDbLine
 10
-77.0380380991341
 20
-320.3784509607263
 30
0.0
 11
-77.0380380991341
 21
-270.3781622809332
 31
0.0
  0
LINE
  5
575
330
1F
100
AcDbEntity
  8
0216_
  6
Continuous
 62
     7
370
     9
100
AcDbLine
 10
-640.4789280247044
 20
-998.8372885214314
 30
0.0
 11
-1215.479402284364
 21
-998.8372885214314
 31
0.0
  0
ARC
  5
576
330
1F
100
AcDbEntity
  8
0218_
  6
Continuous
 62
     3
370
     9
100
AcDbCircle
 10
446.3651090054901
 20
325.1358774546031
 30
0.0
 40
5.000000064437454
100
AcDbArc
 50
0.0
 51
90.0
  0
ARC
  5
577
330
1F
100
AcDbEntity
  8
0218_
  6
Continuous
 62
     3
370
     9
100
AcDbCircle
 10
463.365462019637
 20
325.1358774546031
 30
0.0
 40
5.000000064437454
100
AcDbArc
 50
90.0
 51
180.0
  0
ARC
  5
578
330
1F
100
AcDbEntity
  8
0218_
  6
Continuous
 62
     3
370
     9
100
AcDbCircle
 10
531.3651419974661
 20
325.1358774546031
 30
0.0
 40
5.000000064437454
100
AcDbArc
 50
0.0
 51
90.0
  0
ARC
  5
579
330
1F
100
AcDbEntity
  8
0218_
  6
Continuous
 62
     3
370
     9
100
AcDbCircle
 10
548.3654950116136
 20
325.1358774546031
 30
0.0
 40
5.000000064437454
100
AcDbArc
 50
90.0
 51
180.0
  0
ARC
  5
57A
330
1F
100
AcDbEntity
  8
0218_
  6
Continuous
 62
     3
370
     9
100
AcDbCircle
 10
616.3646801097974
 20
325.1358774546031
 30
0.0
 40
5.000000064437454
100
AcDbArc
 50
0.0
 51
90.0
  0
ARC
  5
57B
330
1F
100
AcDbEntity
  8
0218_
  6
Continuous
 62
     3
370
     9
100
AcDbCircle
 10
633.3650331239443
 20
325.1358774546031
 30
0.0
 40
5.000000064437454
100
AcDbArc
 50
90.0
 51
180.0
  0
CIRCLE
  5
57C
330
1F
100
AcDbEntity
  8
0226_下
  6
Continuous
 62
     3
370
     9
100
AcDbCircle
 10
1146.725463867188
 20
283.9820573136615
 30
0.0
 40
15.00000019331236
  0
CIRCLE
  5
57D
330
1F
100
AcDbEntity
  8
0218_
  6
Continuous
 62
     3
370
     9
100
AcDbCircle
 10
-1406.352007066881
 20
-304.7134069494298
 30
0.0
 40
15.00000019331236
  0
ARC
  5
57E
330
1F
100
AcDbEntity
  8
0227_下
  6
Continuous
 62
     2
370
     9
100
AcDbCircle
 10
-1021.352283374683
 20
-351.7128691802154
 30
0.0
 40
15.00000019331236
100
AcDbArc
 50
270.0
 51
0.0
  0
ARC
  5
57F
330
1F
100
AcDbEntity
  8
0234_
  6
Continuous
 62
     4
370
     9
100
AcDbCircle
 10
-966.343441525021
 20
-383.2113400021115
 30
0.0
 40
15.00000212643598
100
AcDbArc
 50
180.0
 51
270.0
  0
ARC
  5
580
330
1F
100
AcDbEntity
  8
0234_
  6
Continuous
 62
     4
370
     9
100
AcDbCircle
 10
-851.343433277027
 20
-383.2113400021115
 30
0.0
 40
15.00000212643598
100
AcDbArc
 50
270.0
 51
0.0
  0
ARC
  5
581
330
1F
100
AcDbEntity
  8
0235_床
  6
Continuous
 62
     3
370
     9
100
AcDbCircle
 10
-1100.974026241818
 20
807.5542058171453
 30
0.0
 40
1.999999663314304
100
AcDbArc
 50
29.99926757812499
 51
89.75836181640622
  0
ARC
  5
582
330
1F
100
AcDbEntity
  8
0235_床
  6
Continuous
 62
     3
370
     9
100
AcDbCircle
 10
-1101.474102123364
 20
811.5540705500425
 30
0.0
 40
1.999999663314304
100
AcDbArc
 50
90.0
 51
269.86669921875
  0
ARC
  5
583
330
1F
100
AcDbEntity
  8
0235_床
  6
Continuous
 62
     3
370
     9
100
AcDbCircle
 10
-1116.974041913007
 20
807.5542058171453
 30
0.0
 40
1.999999663314304
100
AcDbArc
 50
90.27595520019531
 51
150.0004577636719
  0
ARC
  5
584
330
1F
100
AcDbEntity
  8
0235_床
  6
Continuous
 62
     3
370
     9
100
AcDbCircle
 10
-1116.474151611328
 20
811.5540705500425
 30
0.0
 40
1.999999663314304
100
AcDbArc
 50
270.0
 51
90.0
  0
CIRCLE
  5
585
330
1F
100
AcDbEntity
  8
0235_床
  6
Continuous
 62
     3
370
     9
100
AcDbCircle
 10
-1108.97406500739
 20
832.5540408572635
 30
0.0
 40
4.249999329850481
  0
ARC
  5
586
330
1F
100
AcDbEntity
  8
0235_床
  6
Continuous
 62
     3
370
     9
100
AcDbCircle
 10
-600.9740468618031
 20
807.5542058171453
 30
0.0
 40
1.999999663314304
100
AcDbArc
 50
29.99926757812499
 51
89.75836181640622
  0
ARC
  5
587
330
1F
100
AcDbEntity
  8
0235_床
  6
Continuous
 62
     3
370
     9
100
AcDbCircle
 10
-601.4741227433487
 20
811.5540705500425
 30
0.0
 40
1.999999663314304
100
AcDbArc
 50
90.0
 51
269.86669921875
  0
ARC
  5
588
330
1F
100
AcDbEntity
  8
0235_床
  6
Continuous
 62
     3
370
     9
100
AcDbCircle
 10
-616.9740006730362
 20
807.5542058171453
 30
0.0
 40
1.999999663314304
100
AcDbArc
 50
90.27595520019531
 51
150.0004577636719
  0
ARC
  5
589
330
1F
100
AcDbEntity
  8
0235_床
  6
Continuous
 62
     3
370
     9
100
AcDbCircle
 10
-616.4741722313133
 20
811.5540705500425
 30
0.0
 40
1.999999663314304
100
AcDbArc
 50
270.0
 51
90.0
  0
CIRCLE
  5
58A
330
1F
100
AcDbEntity
  8
0235_床
  6
Continuous
 62
     3
370
     9
100
AcDbCircle
 10
-608.9740237674198
 20
832.5540408572635
 30
0.0
 40
4.249999329850481
  0
ARC
  5
58B
330
1F
100
AcDbEntity
  8
0235_床
  6
Continuous
 62
     3
370
     9
100
AcDbCircle
 10
-1100.974026241818
 20
549.5536515519427
 30
0.0
 40
1.999999663314304
100
AcDbArc
 50
270.2416229248047
 51
330.0007171630859
  0
ARC
  5
58C
330
1F
100
AcDbEntity
  8
0235_床
  6
Continuous
 62
     3
370
     9
100
AcDbCircle
 10
-1101.474102123364
 20
545.5536630991344
 30
0.0
 40
1.999999663314304
100
AcDbArc
 50
90.13328552246094
 51
270.0
  0
ARC
  5
58D
330
1F
100
AcDbEntity
  8
0235_床
  6
Continuous
 62
     3
370
     9
100
AcDbCircle
 10
-1116.974041913007
 20
549.5536515519427
 30
0.0
 40
1.999999663314304
100
AcDbArc
 50
209.99951171875
 51
269.7240295410156
  0
ARC
  5
58E
330
1F
100
AcDbEntity
  8
0235_床
  6
Continuous
 62
     3
370
     9
100
AcDbCircle
 10
-1116.474151611328
 20
545.5536630991344
 30
0.0
 40
1.999999663314304
100
AcDbArc
 50
270.0
 51
90.0
  0
CIRCLE
  5
58F
330
1F
100
AcDbEntity
  8
0235_床
  6
Continuous
 62
     3
370
     9
100
AcDbCircle
 10
-1108.97406500739
 20
524.5538165118245
 30
0.0
 40
4.249999329850481
  0
ARC
  5
590
330
1F
100
AcDbEntity
  8
0235_床
  6
Continuous
 62
     3
370
     9
100
AcDbCircle
 10
-600.9740468618031
 20
549.5536515519427
 30
0.0
 40
1.999999663314304
100
AcDbArc
 50
270.2416229248047
 51
330.0007171630859
  0
ARC
  5
591
330
1F
100
AcDbEntity
  8
0235_床
  6
Continuous
 62
     3
370
     9
100
AcDbCircle
 10
-601.4741227433487
 20
545.5536630991344
 30
0.0
 40
1.999999663314304
100
AcDbArc
 50
90.13328552246094
 51
270.0
  0
ARC
  5
592
330
1F
100
AcDbEntity
  8
0235_床
  6
Continuous
 62
     3
370
     9
100
AcDbCircle
 10
-616.9740006730362
 20
549.5536515519427
 30
0.0
 40
1.999999663314304
100
AcDbArc
 50
209.99951171875
 51
269.7240295410156
  0
ARC
  5
593
330
1F
100
AcDbEntity
  8
0235_床
  6
Continuous
 62
     3
370
     9
100
AcDbCircle
 10
-616.4741722313133
 20
545.5536630991344
 30
0.0
 40
1.999999663314304
100
AcDbArc
 50
270.0
 51
90.0
  0
CIRCLE
  5
594
330
1F
100
AcDbEntity
  8
0235_床
  6
Continuous
 62
     3
370
     9
100
AcDbCircle
 10
-608.9740237674198
 20
524.5538165118245
 30
0.0
 40
4.249999329850481
  0
TEXT
  5
595
330
1F
100
AcDbEntity
  8
F-5ﾚｲﾔ
  6
Continuous
 62
     7
370
     9
100
AcDbText
 10
-826.3705774255699
 20
-1328.298447331609
 30
0.0
 40
22.86
  1
ステンレス製　細目滑り止め模様付（ローレット模様）グレーチング（すきま9mm）
 41
1.162222222222222
  7
ＭＳ ゴシック
100
AcDbText
  0
TEXT
  5
596
330
1F
100
AcDbEntity
  8
0242_
  6
Continuous
 62
     2
370
     9
100
AcDbText
 10
740.0462712468332
 20
562.8039107369088
 30
0.0
 40
30.48
  1
B
 41
0.9999999999999998
  7
ＭＳ ゴシック
100
AcDbText
  0
TEXT
  5
597
330
1F
100
AcDbEntity
  8
0242_
  6
Continuous
 62
     2
370
     9
100
AcDbText
 10
322.586092562289
 20
560.5143500580658
 30
0.0
 40
30.48
  1
B
 41
0.9999999999999998
  7
ＭＳ ゴシック
100
AcDbText
  0
TEXT
  5
598
330
1F
100
AcDbEntity
  8
0216_
  6
Continuous
 62
     2
370
     9
100
AcDbText
 10
770.8061217322879
 20
265.8088475416858
 30
0.0
 40
30.48
  1
20
 50
90.00000250447816
 41
1.0625
  7
ＭＳ ゴシック
100
AcDbText
  0
TEXT
  5
599
330
1F
100
AcDbEntity
  8
0242_
  6
Continuous
 62
     7
370
     9
100
AcDbText
 10
1590.643549738704
 20
415.1302520586995
 30
0.0
 40
22.86
  1
サイドバー
 41
1.133333333333333
  7
ＭＳ ゴシック
100
AcDbText
  0
TEXT
  5
59A
330
1F
100
AcDbEntity
  8
0242_
  6
Continuous
 62
     2
370
     9
100
AcDbText
 10
442.4899704391893
 20
75.4776134923987
 30
0.0
 40
30.48
  1
B-B断面図
 41
1.097222222222222
  7
ＭＳ ゴシック
100
AcDbText
  0
TEXT
  5
59B
330
1F
100
AcDbEntity
  8
0242_
  6
Continuous
 62
     2
370
     9
100
AcDbText
 10
600.4861367715373
 20
-85.70617161106405
 30
0.0
 40
30.48
  1
メインバー詳細図　Ｓ＝１：２
 41
1.116071428571428
  7
ＭＳ ゴシック
100
AcDbText
  0
TEXT
  5
59C
330
1F
100
AcDbEntity
  8
0242_
  6
Continuous
 62
     2
370
     9
100
AcDbText
 10
585.6363987278294
 20
535.7979573347762
 30
0.0
 40
30.48
  1
C
 41
0.9999999999999998
  7
ＭＳ ゴシック
100
AcDbText
  0
TEXT
  5
59D
330
1F
100
AcDbEntity
  8
0216_
  6
Continuous
 62
     2
370
     9
100
AcDbText
 10
922.6892254803633
 20
419.4349268237966
 30
0.0
 40
30.48
  1
100
 41
1.083333333333333
  7
ＭＳ ゴシック
100
AcDbText
  0
TEXT
  5
59E
330
1F
100
AcDbEntity
  8
0242_
  6
Continuous
 62
     7
370
     9
100
AcDbText
 10
1335.196450723184
 20
415.5525081160263
 30
0.0
 40
22.86
  1
メインバー
 41
1.133333333333333
  7
ＭＳ ゴシック
100
AcDbText
  0
TEXT
  5
59F
330
1F
100
AcDbEntity
  8
0216_
  6
Continuous
 62
     2
370
     9
100
AcDbText
 10
444.8652855125636
 20
419.4349268237966
 30
0.0
 40
30.48
  1
8
 41
0.9999999999999998
  7
ＭＳ ゴシック
100
AcDbText
  0
TEXT
  5
5A0
330
1F
100
AcDbEntity
  8
0216_
  6
Continuous
 62
     2
370
     9
100
AcDbText
 10
487.3153191643792
 20
419.4349268237966
 30
0.0
 40
30.48
  1
9
 41
0.9999999999999998
  7
ＭＳ ゴシック
100
AcDbText
  0
TEXT
  5
5A1
330
1F
100
AcDbEntity
  8
0216_
  6
Continuous
 62
     2
370
     9
100
AcDbText
 10
529.7652290962842
 20
419.4349268237966
 30
0.0
 40
30.48
  1
8
 41
0.9999999999999998
  7
ＭＳ ゴシック
100
AcDbText
  0
TEXT
  5
5A2
330
1F
100
AcDbEntity
  8
0216_
  6
Continuous
 62
     2
370
     9
100
AcDbText
 10
572.2152627480998
 20
419.4349268237966
 30
0.0
 40
30.48
  1
9
 41
0.9999999999999998
  7
ＭＳ ゴシック
100
AcDbText
  0
TEXT
  5
5A3
330
1F
100
AcDbEntity
  8
0216_
  6
Continuous
 62
     2
370
     9
100
AcDbText
 10
614.6652963999159
 20
419.4349268237966
 30
0.0
 40
30.48
  1
8
 41
0.9999999999999998
  7
ＭＳ ゴシック
100
AcDbText
  0
TEXT
  5
5A4
330
1F
100
AcDbEntity
  8
0216_
  6
Continuous
 62
     2
370
     9
100
AcDbText
 10
476.1153020085519
 20
1160.447541305955
 30
0.0
 40
30.48
  1
17
 41
1.0625
  7
ＭＳ ゴシック
100
AcDbText
  0
TEXT
  5
5A5
330
1F
100
AcDbEntity
  8
0216_
  6
Continuous
 62
     2
370
     9
100
AcDbText
 10
561.1158298801731
 20
1160.447541305955
 30
0.0
 40
30.48
  1
17
 41
1.0625
  7
ＭＳ ゴシック
100
AcDbText
  0
TEXT
  5
5A6
330
1F
100
AcDbEntity
  8
0242_
  6
Continuous
 62
     2
370
     9
100
AcDbText
 10
585.6363987278294
 20
1254.719391891892
 30
0.0
 40
30.48
  1
C
 41
0.9999999999999998
  7
ＭＳ ゴシック
100
AcDbText
  0
TEXT
  5
5A7
330
1F
100
AcDbEntity
  8
0242_
  6
Continuous
 62
     7
370
     9
100
AcDbText
 10
700.0369757574958
 20
886.4496671769427
 30
0.0
 40
22.86
  1
ローレット模様
 41
1.142857142857143
  7
ＭＳ ゴシック
100
AcDbText
  0
TEXT
  5
5A8
330
1F
100
AcDbEntity
  8
0242_
  6
Continuous
 62
     2
370
     9
100
AcDbText
 10
1125.984455830343
 20
75.4776134923987
 30
0.0
 40
30.48
  1
C-C断面図
 41
1.097222222222222
  7
ＭＳ ゴシック
100
AcDbText
  0
TEXT
  5
5A9
330
1F
100
AcDbEntity
  8
0242_
  6
Continuous
 62
     7
370
     9
100
AcDbText
 10
1273.088807801943
 20
165.6676088735221
 30
0.0
 40
22.86
  1
クロスバー
 41
1.133333333333333
  7
ＭＳ ゴシック
100
AcDbText
  0
TEXT
  5
5AA
330
1F
100
AcDbEntity
  8
0216_
  6
Continuous
 62
     2
370
     9
100
AcDbText
 10
-1115.101470947266
 20
-122.6542570866766
 30
0.0
 40
30.48
  1
25
 41
1.0625
  7
ＭＳ ゴシック
100
AcDbText
  0
TEXT
  5
5AB
330
1F
100
AcDbEntity
  8
0216_
  6
Continuous
 62
     2
370
     9
100
AcDbText
 10
-1024.220077927048
 20
-801.1560254566089
 30
0.0
 40
30.48
  1
75～80
 41
1.104166666666667
  7
ＭＳ ゴシック
100
AcDbText
  0
TEXT
  5
5AC
330
1F
100
AcDbEntity
  8
0216_
  6
Continuous
 62
     2
370
     9
100
AcDbText
 10
-500.8372313867428
 20
-474.7179868946793
 30
0.0
 40
30.48
  1
55～65
 50
90.00000250447816
 41
1.104166666666666
  7
ＭＳ ゴシック
100
AcDbText
  0
TEXT
  5
5AD
330
1F
100
AcDbEntity
  8
0216_
  6
Continuous
 62
     2
370
     9
100
AcDbText
 10
-993.0511350889464
 20
-13.90272295977603
 30
0.0
 40
30.48
  1
3
 41
0.9999999999999998
  7
ＭＳ ゴシック
100
AcDbText
  0
TEXT
  5
5AE
330
1F
100
AcDbEntity
  8
0216_
  6
Continuous
 62
     2
370
     9
100
AcDbText
 10
-1058.192390235695
 20
-13.90272295977603
 30
0.0
 40
30.48
  1
2
 41
0.9999999999999998
  7
ＭＳ ゴシック
100
AcDbText
  0
TEXT
  5
5AF
330
1F
100
AcDbEntity
  8
0216_
  6
Continuous
 62
     2
370
     9
100
AcDbText
 10
-1102.593697212838
 20
-473.1750354333826
 30
0.0
 40
30.48
  1
30
 41
1.0625
  7
ＭＳ ゴシック
100
AcDbText
  0
TEXT
  5
5B0
330
1F
100
AcDbEntity
  8
0216_
  6
Continuous
 62
     2
370
     9
100
AcDbText
 10
-995.9774450353675
 20
-473.1750354333826
 30
0.0
 40
30.48
  1
34
 41
1.0625
  7
ＭＳ ゴシック
100
AcDbText
  0
TEXT
  5
5B1
330
1F
100
AcDbEntity
  8
0216_
  6
Continuous
 62
     2
370
     9
100
AcDbText
 10
-788.0275206840037
 20
-469.9066308914594
 30
0.0
 40
30.48
  1
6.5
 50
90.00000250447816
 41
1.083333333333333
  7
ＭＳ ゴシック
100
AcDbText
  0
TEXT
  5
5B2
330
1F
100
AcDbEntity
  8
0216_
  6
Continuous
 62
     2
370
     9
100
AcDbText
 10
-792.0275096285652
 20
-330.4628529307594
 30
0.0
 40
30.48
  1
23
 50
90.00000250447816
 41
1.0625
  7
ＭＳ ゴシック
100
AcDbText
  0
TEXT
  5
5B3
330
1F
100
AcDbEntity
  8
0242_
  6
Continuous
 62
     7
370
     9
100
AcDbText
 10
-800.0393016918285
 20
-159.7750197292018
 30
0.0
 40
22.86
  1
アンカー＠５００
 41
1.145833333333333
  7
ＭＳ ゴシック
100
AcDbText
  0
TEXT
  5
5B4
330
1F
100
AcDbEntity
  8
0216_
  6
Continuous
 62
     2
370
     9
100
AcDbText
 10
-1147.602326676652
 20
-643.9213799224029
 30
0.0
 40
30.48
  1
25～30
 41
1.104166666666667
  7
ＭＳ ゴシック
100
AcDbText
  0
TEXT
  5
5B5
330
1F
100
AcDbEntity
  8
0242_
  6
Continuous
 62
     7
370
     9
100
AcDbText
 10
-703.5661852037583
 20
-667.7514073717272
 30
0.0
 40
22.86
  1
差筋φ9程度
 41
1.136363636363636
  7
ＭＳ ゴシック
100
AcDbText
  0
TEXT
  5
5B6
330
1F
100
AcDbEntity
  8
0242_
  6
Continuous
 62
     7
370
     9
100
AcDbText
 10
-703.5662305677258
 20
-708.9749436826963
 30
0.0
 40
22.86
  1
＠500
 41
1.133333333333333
  7
ＭＳ ゴシック
100
AcDbText
  0
TEXT
  5
5B7
330
1F
100
AcDbEntity
  8
0216_
  6
Continuous
 62
     2
370
     9
100
AcDbText
 10
-1510.045417673329
 20
-322.9633230664224
 30
0.0
 40
30.48
  1
20
 50
90.00000250447816
 41
1.0625
  7
ＭＳ ゴシック
100
AcDbText
  0
TEXT
  5
5B8
330
1F
100
AcDbEntity
  8
0216_
  6
Continuous
 62
     2
370
     9
100
AcDbText
 10
-1721.115752555228
 20
-8.329017235008322
 30
0.0
 40
30.48
  1
250
 41
1.083333333333333
  7
ＭＳ ゴシック
100
AcDbText
  0
TEXT
  5
5B9
330
1F
100
AcDbEntity
  8
0216_
  6
Continuous
 62
     2
370
     9
100
AcDbText
 10
-1721.115752555228
 20
-117.6541168707771
 30
0.0
 40
30.48
  1
200
 41
1.083333333333333
  7
ＭＳ ゴシック
100
AcDbText
  0
TEXT
  5
5BA
330
1F
100
AcDbEntity
  8
0216_
  6
Continuous
 62
     2
370
     9
100
AcDbText
 10
-1721.115752555228
 20
102.119954075169
 30
0.0
 40
30.48
  1
260
 41
1.083333333333333
  7
ＭＳ ゴシック
100
AcDbText
  0
TEXT
  5
5BB
330
1F
100
AcDbEntity
  8
0242_
  6
Continuous
 62
     7
370
     9
100
AcDbText
 10
-811.8756634355161
 20
-53.48575927734034
 30
0.0
 40
22.86
  1
ステンレス製受枠ＲＬ－２０
 50
359.999936989965
 41
1.153846153846154
  7
ＭＳ ゴシック
100
AcDbText
  0
TEXT
  5
5BC
330
1F
100
AcDbEntity
  8
0242_
  6
Continuous
 62
     7
370
     9
100
AcDbText
 10
-823.4515710779137
 20
75.82629203177787
 30
0.0
 40
22.86
  1
ステンレス製　細目滑り止め模様付（ローレット模様）
 41
1.16
  7
ＭＳ ゴシック
100
AcDbText
  0
TEXT
  5
5BD
330
1F
100
AcDbEntity
  8
0242_
  6
Continuous
 62
     7
370
     9
100
AcDbText
 10
-823.4515092179581
 20
39.00996826171875
 30
0.0
 40
22.86
  1
グレーチング（すきま9mm）ＺＱ－２０
 41
1.157142857142857
  7
ＭＳ ゴシック
100
AcDbText
  0
TEXT
  5
5BE
330
1F
100
AcDbEntity
  8
0242_
  6
Continuous
 62
     7
370
     9
100
AcDbText
 10
-800.0392810718432
 20
-199.0929601061021
 30
0.0
 40
22.86
  1
ｔ＝２．０（ＳＥＣＣまたはＳＧＨＣ）
 41
1.157407407407407
  7
ＭＳ ゴシック
100
AcDbText
  0
TEXT
  5
5BF
330
1F
100
AcDbEntity
  8
0193_区
  6
Continuous
 62
     2
370
     9
100
AcDbText
 10
-384.492191623997
 20
914.1932028610644
 30
0.0
 40
30.48
  1
1
 41
0.9999999999999998
  7
ＭＳ ゴシック
100
AcDbText
  0
TEXT
  5
5C0
330
1F
100
AcDbEntity
  8
0193_区
  6
Continuous
 62
     2
370
     9
100
AcDbText
 10
-641.7334644214526
 20
914.1932028610644
 30
0.0
 40
30.48
  1
498
 41
1.083333333333333
  7
ＭＳ ゴシック
100
AcDbText
  0
TEXT
  5
5C1
330
1F
100
AcDbEntity
  8
0193_区
  6
Continuous
 62
     2
370
     9
100
AcDbText
 10
-640.7334363782728
 20
994.193466796875
 30
0.0
 40
30.48
  1
499
 41
1.083333333333333
  7
ＭＳ ゴシック
100
AcDbText
  0
TEXT
  5
5C2
330
1F
100
AcDbEntity
  8
0193_区
  6
Continuous
 62
     2
370
     9
100
AcDbText
 10
-884.4935937829919
 20
914.1932028610644
 30
0.0
 40
30.48
  1
1
 41
0.9999999999999998
  7
ＭＳ ゴシック
100
AcDbText
  0
TEXT
  5
5C3
330
1F
100
AcDbEntity
  8
0193_区
  6
Continuous
 62
     2
370
     9
100
AcDbText
 10
-1142.214868906382
 20
914.1932028610644
 30
0.0
 40
30.48
  1
498
 41
1.083333333333333
  7
ＭＳ ゴシック
100
AcDbText
  0
TEXT
  5
5C4
330
1F
100
AcDbEntity
  8
0193_区
  6
Continuous
 62
     2
370
     9
100
AcDbText
 10
-1141.214500633446
 20
994.193466796875
 30
0.0
 40
30.48
  1
499
 41
1.083333333333333
  7
ＭＳ ゴシック
100
AcDbText
  0
TEXT
  5
5C5
330
1F
100
AcDbEntity
  8
0193_区
  6
Continuous
 62
     2
370
     9
100
AcDbText
 10
-1384.494346412453
 20
914.1932028610644
 30
0.0
 40
30.48
  1
1
 41
0.9999999999999998
  7
ＭＳ ゴシック
100
AcDbText
  0
TEXT
  5
5C6
330
1F
100
AcDbEntity
  8
0255_
  6
Continuous
 62
     2
370
     9
100
AcDbText
 10
-458.4473769729202
 20
848.329670872044
 30
0.0
 40
30.48
  1
A
 41
0.9999999999999998
  7
ＭＳ ゴシック
100
AcDbText
  0
TEXT
  5
5C7
330
1F
100
AcDbEntity
  8
0193_区
  6
Continuous
 62
     2
370
     9
100
AcDbText
 10
-891.474044387405
 20
474.1933595729521
 30
0.0
 40
30.48
  1
500
 41
1.083333333333333
  7
ＭＳ ゴシック
100
AcDbText
  0
TEXT
  5
5C8
330
1F
100
AcDbEntity
  8
0255_
  6
Continuous
 62
     2
370
     9
100
AcDbText
 10
-1126.511964540224
 20
348.160751953125
 30
0.0
 40
30.48
  1
平面詳細図　Ｓ＝１：１０
 41
1.114583333333333
  7
ＭＳ ゴシック
100
AcDbText
  0
TEXT
  5
5C9
330
1F
100
AcDbEntity
  8
0242_
  6
Continuous
 62
     2
370
     9
100
AcDbText
 10
81.24072100665131
 20
-522.2396304238808
 30
0.0
 40
30.48
  1
材質：メインバー　ＳＵＳ３０４　＠１７
 41
1.118421052631579
  7
ＭＳ ゴシック
100
AcDbText
  0
TEXT
  5
5CA
330
1F
100
AcDbEntity
  8
0242_
  6
Continuous
 62
     2
370
     9
100
AcDbText
 10
217.2982045766472
 20
-584.1988094515413
 30
0.0
 40
30.48
  1
クロスバー　ＳＵＳ３０４　＠１００
 41
1.117647058823529
  7
ＭＳ ゴシック
100
AcDbText
  0
TEXT
  5
5CB
330
1F
100
AcDbEntity
  8
0242_
  6
Continuous
 62
     2
370
     9
100
AcDbText
 10
217.2981550886826
 20
-644.8108023648648
 30
0.0
 40
30.48
  1
サイドバー　ＳＵＳ３０４　
 41
1.115384615384615
  7
ＭＳ ゴシック
100
AcDbText
  0
TEXT
  5
5CC
330
1F
100
AcDbEntity
  8
0242_
  6
Continuous
 62
     2
370
     9
100
AcDbText
 10
81.24061281492872
 20
-709.8113261125928
 30
0.0
 40
30.48
  1
定尺：４９８
 50
0.0000936234402541
 41
1.104166666666666
  7
ＭＳ ゴシック
100
AcDbText
  0
TEXT
  5
5CD
330
1F
100
AcDbEntity
  8
0242_
  6
Continuous
 62
     2
370
     9
100
AcDbText
 10
-29.53797623917851
 20
-308.8947883894637
 30
0.0
 40
30.48
  1
仕　様
 41
1.083333333333333
  7
ＭＳ ゴシック
100
AcDbText
  0
TEXT
  5
5CE
330
1F
100
AcDbEntity
  8
0242_
  6
Continuous
 62
     2
370
     9
100
AcDbText
 10
21.52874096019872
 20
-392.9335176705025
 30
0.0
 40
30.48
  1
ステンレス製　細目滑り止め模様付（ローレット模様）
 41
1.12
  7
ＭＳ ゴシック
100
AcDbText
  0
TEXT
  5
5CF
330
1F
100
AcDbEntity
  8
0242_
  6
Continuous
 62
     2
370
     9
100
AcDbText
 10
21.52879044816331
 20
-455.8928484612542
 30
0.0
 40
30.48
  1
グレーチング（すきま９mm）ＺＱ－２０　２５０×５００×２０
 41
1.120689655172413
  7
ＭＳ ゴシック
100
AcDbText
  0
TEXT
  5
5D0
330
1F
100
AcDbEntity
  8
0242_
  6
Continuous
 62
     2
370
     9
100
AcDbText
 10
21.52879044816302
 20
-799.0120212534312
 30
0.0
 40
30.48
  1
ステンレス製受枠　ＲＬ－２０
 41
1.116071428571428
  7
ＭＳ ゴシック
100
AcDbText
  0
TEXT
  5
5D1
330
1F
100
AcDbEntity
  8
0242_
  6
Continuous
 62
     2
370
     9
100
AcDbText
 10
81.24064677470443
 20
-854.0130068887246
 30
0.0
 40
30.48
  1
材質：ステンレス鋼板ｔ＝３．０（ＳＵＳ３０４）
 41
1.119565217391304
  7
ＭＳ ゴシック
100
AcDbText
  0
TEXT
  5
5D2
330
1F
100
AcDbEntity
  8
0242_
  6
Continuous
 62
     2
370
     9
100
AcDbText
 10
81.24069626266902
 20
-909.012013005437
 30
0.0
 40
30.48
  1
定尺：２０００
 41
1.107142857142857
  7
ＭＳ ゴシック
100
AcDbText
  0
TEXT
  5
5D3
330
1F
100
AcDbEntity
  8
0242_
  6
Continuous
 62
     2
370
     9
100
AcDbText
 10
81.24064677470443
 20
-964.0120707413956
 30
0.0
 40
30.48
  1
施工場所の状況に合わせて、アンカーをプライヤー等で折り曲げてご使用ください。
 41
1.121710526315789
  7
ＭＳ ゴシック
100
AcDbText
  0
TEXT
  5
5D4
330
1F
100
AcDbEntity
  8
0242_
  6
Continuous
 62
     2
370
     9
100
AcDbText
 10
-1172.97909098158
 20
-980.6975875111939
 30
0.0
 40
30.48
  1
A断面詳細図　Ｓ＝１：２
 50
359.9999377583757
 41
1.114130434782609
  7
ＭＳ ゴシック
100
AcDbText
  0
TEXT
  5
5D5
330
1F
100
AcDbEntity
  8
F-5ﾚｲﾔ
  6
Continuous
 62
     7
370
     9
100
AcDbText
 10
-827.8287403003588
 20
-1371.400492648563
 30
0.0
 40
22.86
  1
ＺＱ－２０　２５０×５００×２０　ステンレス製受枠ＲＬ－２０
 41
1.161111111111111
  7
ＭＳ ゴシック
100
AcDbText
  0
LWPOLYLINE
  5
5D6
330
1F
100
AcDbEntity
  8
0216_
  6
Continuous
 62
     7
370
     9
100
AcDbPolyline
 90
        4
 70
     1
 43
1.0
 10
786.9461537953969
 20
337.1359665329393
 42
0.4142135623731
 10
786.4461537953969
 20
337.6359665329393
 42
0.4142135623731
 10
785.9461537953969
 20
337.1359665329393
 42
0.4142135623731
 10
786.4461537953969
 20
336.6359665329394
 42
0.4142135623731
  0
LWPOLYLINE
  5
5D7
330
1F
100
AcDbEntity
  8
0216_
  6
Continuous
 62
     7
370
     9
100
AcDbPolyline
 90
        4
 70
     1
 43
1.0
 10
786.9461537953969
 20
236.9818527634081
 42
0.4142135623731
 10
786.4461537953969
 20
237.4818527634081
 42
0.4142135623731
 10
785.9461537953969
 20
236.9818527634081
 42
0.4142135623731
 10
786.4461537953969
 20
236.4818527634081
 42
0.4142135623731
  0
LWPOLYLINE
  5
5D8
330
1F
100
AcDbEntity
  8
0216_
  6
Continuous
 62
     7
370
     9
100
AcDbPolyline
 90
        4
 70
     1
 43
1.0
 10
1147.225463867188
 20
407.7948822846284
 42
0.4142135623731
 10
1146.725463867188
 20
408.2948822846283
 42
0.4142135623731
 10
1146.225463867188
 20
407.7948822846284
 42
0.4142135623731
 10
1146.725463867188
 20
407.2948822846284
 42
0.4142135623731
  0
LWPOLYLINE
  5
5D9
330
1F
100
AcDbEntity
  8
0216_
  6
Continuous
 62
     7
370
     9
100
AcDbPolyline
 90
        4
 70
     1
 43
1.0
 10
435.3655906883448
 20
407.7948822846284
 42
0.4142135623731
 10
434.8655906883448
 20
408.2948822846283
 42
0.4142135623731
 10
434.3655906883448
 20
407.7948822846284
 42
0.4142135623731
 10
434.8655906883448
 20
407.2948822846284
 42
0.4142135623731
  0
LWPOLYLINE
  5
5DA
330
1F
100
AcDbEntity
  8
0216_
  6
Continuous
 62
     7
370
     9
100
AcDbPolyline
 90
        4
 70
     1
 43
1.0
 10
475.3649803367823
 20
407.7948822846284
 42
0.4142135623731
 10
474.8649803367823
 20
408.2948822846283
 42
0.4142135623731
 10
474.3649803367823
 20
407.7948822846284
 42
0.4142135623731
 10
474.8649803367823
 20
407.2948822846284
 42
0.4142135623731
  0
LWPOLYLINE
  5
5DB
330
1F
100
AcDbEntity
  8
0216_
  6
Continuous
 62
     7
370
     9
100
AcDbPolyline
 90
        4
 70
     1
 43
1.0
 10
520.2656579919766
 20
407.7948822846284
 42
0.4142135623731
 10
519.7656579919766
 20
408.2948822846283
 42
0.4142135623731
 10
519.2656579919766
 20
407.7948822846284
 42
0.4142135623731
 10
519.7656579919766
 20
407.2948822846284
 42
0.4142135623731
  0
LWPOLYLINE
  5
5DC
330
1F
100
AcDbEntity
  8
0216_
  6
Continuous
 62
     7
370
     9
100
AcDbPolyline
 90
        4
 70
     1
 43
1.0
 10
560.2650476404141
 20
407.7948822846284
 42
0.4142135623731
 10
559.7650476404141
 20
408.2948822846283
 42
0.4142135623731
 10
559.2650476404141
 20
407.7948822846284
 42
0.4142135623731
 10
559.7650476404141
 20
407.2948822846284
 42
0.4142135623731
  0
LWPOLYLINE
  5
5DD
330
1F
100
AcDbEntity
  8
0216_
  6
Continuous
 62
     7
370
     9
100
AcDbPolyline
 90
        4
 70
     1
 43
1.0
 10
605.1654778557854
 20
407.7948822846284
 42
0.4142135623731
 10
604.6654778557854
 20
408.2948822846283
 42
0.4142135623731
 10
604.1654778557854
 20
407.7948822846284
 42
0.4142135623731
 10
604.6654778557854
 20
407.2948822846284
 42
0.4142135623731
  0
LWPOLYLINE
  5
5DE
330
1F
100
AcDbEntity
  8
0216_
  6
Continuous
 62
     7
370
     9
100
AcDbPolyline
 90
        4
 70
     1
 43
1.0
 10
645.1651149440459
 20
407.7948822846284
 42
0.4142135623731
 10
644.6651149440459
 20
408.2948822846283
 42
0.4142135623731
 10
644.1651149440459
 20
407.7948822846284
 42
0.4142135623731
 10
644.6651149440459
 20
407.2948822846284
 42
0.4142135623731
  0
LWPOLYLINE
  5
5DF
330
1F
100
AcDbEntity
  8
0216_
  6
Continuous
 62
     7
370
     9
100
AcDbPolyline
 90
        4
 70
     1
 43
1.0
 10
455.3656566722974
 20
1144.807508313978
 42
0.4142135623731
 10
454.8656566722974
 20
1145.307508313978
 42
0.4142135623731
 10
454.3656566722974
 20
1144.807508313978
 42
0.4142135623731
 10
454.8656566722974
 20
1144.307508313978
 42
0.4142135623731
  0
LWPOLYLINE
  5
5E0
330
1F
100
AcDbEntity
  8
0216_
  6
Continuous
 62
     7
370
     9
100
AcDbPolyline
 90
        4
 70
     1
 43
1.0
 10
540.3651947846287
 20
1144.807508313978
 42
0.4142135623731
 10
539.8651947846287
 20
1145.307508313978
 42
0.4142135623731
 10
539.3651947846287
 20
1144.807508313978
 42
0.4142135623731
 10
539.8651947846287
 20
1144.307508313978
 42
0.4142135623731
  0
LWPOLYLINE
  5
5E1
330
1F
100
AcDbEntity
  8
0216_
  6
Continuous
 62
     7
370
     9
100
AcDbPolyline
 90
        4
 70
     1
 43
1.0
 10
625.3664649757183
 20
1144.807508313978
 42
0.4142135623731
 10
624.8664649757183
 20
1145.307508313978
 42
0.4142135623731
 10
624.3664649757183
 20
1144.807508313978
 42
0.4142135623731
 10
624.8664649757183
 20
1144.307508313978
 42
0.4142135623731
  0
LWPOLYLINE
  5
5E2
330
1F
100
AcDbEntity
  8
0216_
  6
Continuous
 62
     7
370
     9
100
AcDbPolyline
 90
        4
 70
     1
 43
1.0
 10
-1020.851293615393
 20
-24.54212085620782
 42
0.4142135623731
 10
-1021.351293615393
 20
-24.04212085620782
 42
0.4142135623731
 10
-1021.851293615393
 20
-24.54212085620782
 42
0.4142135623731
 10
-1021.351293615393
 20
-25.04212085620782
 42
0.4142135623731
  0
LWPOLYLINE
  5
5E3
330
1F
100
AcDbEntity
  8
0216_
  6
Continuous
 62
     7
370
     9
100
AcDbPolyline
 90
        4
 70
     1
 43
1.0
 10
-1155.852172026763
 20
-133.294397302576
 42
0.4142135623731
 10
-1156.352172026763
 20
-132.794397302576
 42
0.4142135623731
 10
-1156.852172026763
 20
-133.294397302576
 42
0.4142135623731
 10
-1156.352172026763
 20
-133.794397302576
 42
0.4142135623731
  0
LWPOLYLINE
  5
5E4
330
1F
100
AcDbEntity
  8
0216_
  6
Continuous
 62
     7
370
     9
100
AcDbPolyline
 90
        4
 70
     1
 43
1.0
 10
-1030.851326607369
 20
-133.294397302576
 42
0.4142135623731
 10
-1031.351326607369
 20
-132.794397302576
 42
0.4142135623731
 10
-1031.851326607369
 20
-133.294397302576
 42
0.4142135623731
 10
-1031.351326607369
 20
-133.794397302576
 42
0.4142135623731
  0
LWPOLYLINE
  5
5E5
330
1F
100
AcDbEntity
  8
0216_
  6
Continuous
 62
     7
370
     9
100
AcDbPolyline
 90
        4
 70
     1
 43
1.0
 10
-1030.851326607369
 20
-24.54212085620782
 42
0.4142135623731
 10
-1031.351326607369
 20
-24.04212085620782
 42
0.4142135623731
 10
-1031.851326607369
 20
-24.54212085620782
 42
0.4142135623731
 10
-1031.351326607369
 20
-25.04212085620782
 42
0.4142135623731
  0
LWPOLYLINE
  5
5E6
330
1F
100
AcDbEntity
  8
0216_
  6
Continuous
 62
     7
370
     9
100
AcDbPolyline
 90
        4
 70
     1
 43
1.0
 10
-1005.852481326541
 20
-24.54212085620782
 42
0.4142135623731
 10
-1006.352481326541
 20
-24.04212085620782
 42
0.4142135623731
 10
-1006.852481326541
 20
-24.54212085620782
 42
0.4142135623731
 10
-1006.352481326541
 20
-25.04212085620782
 42
0.4142135623731
  0
LWPOLYLINE
  5
5E7
330
1F
100
AcDbEntity
  8
0216_
  6
Continuous
 62
     7
370
     9
100
AcDbPolyline
 90
        4
 70
     1
 43
1.0
 10
-1005.852481326541
 20
86.15367167704818
 42
0.4142135623731
 10
-1006.352481326541
 20
86.65367167704818
 42
0.4142135623731
 10
-1006.852481326541
 20
86.15367167704818
 42
0.4142135623731
 10
-1006.352481326541
 20
85.65367167704818
 42
0.4142135623731
  0
LWPOLYLINE
  5
5E8
330
1F
100
AcDbEntity
  8
0216_
  6
Continuous
 62
     7
370
     9
100
AcDbPolyline
 90
        4
 70
     1
 43
1.0
 10
-1155.852728766364
 20
-656.46841513144
 42
0.4142135623731
 10
-1156.352728766364
 20
-655.96841513144
 42
0.4142135623731
 10
-1156.852728766364
 20
-656.46841513144
 42
0.4142135623731
 10
-1156.352728766364
 20
-656.96841513144
 42
0.4142135623731
  0
LWPOLYLINE
  5
5E9
330
1F
100
AcDbEntity
  8
0216_
  6
Continuous
 62
     7
370
     9
100
AcDbPolyline
 90
        4
 70
     1
 43
1.0
 10
-1005.851986446896
 20
-656.46841513144
 42
0.4142135623731
 10
-1006.351986446896
 20
-655.96841513144
 42
0.4142135623731
 10
-1006.851986446896
 20
-656.46841513144
 42
0.4142135623731
 10
-1006.351986446896
 20
-656.96841513144
 42
0.4142135623731
  0
LWPOLYLINE
  5
5EA
330
1F
100
AcDbEntity
  8
0216_
  6
Continuous
 62
     7
370
     9
100
AcDbPolyline
 90
        4
 70
     1
 43
1.0
 10
-1155.852728766364
 20
-810.0653241131756
 42
0.4142135623731
 10
-1156.352728766364
 20
-809.5653241131756
 42
0.4142135623731
 10
-1156.852728766364
 20
-810.0653241131756
 42
0.4142135623731
 10
-1156.352728766364
 20
-810.5653241131756
 42
0.4142135623731
  0
LWPOLYLINE
  5
5EB
330
1F
100
AcDbEntity
  8
0216_
  6
Continuous
 62
     7
370
     9
100
AcDbPolyline
 90
        4
 70
     1
 43
1.0
 10
-755.852275126689
 20
-810.0653241131756
 42
0.4142135623731
 10
-756.352275126689
 20
-809.5653241131756
 42
0.4142135623731
 10
-756.852275126689
 20
-810.0653241131756
 42
0.4142135623731
 10
-756.352275126689
 20
-810.5653241131756
 42
0.4142135623731
  0
LWPOLYLINE
  5
5EC
330
1F
100
AcDbEntity
  8
0216_
  6
Continuous
 62
     7
370
     9
100
AcDbPolyline
 90
        4
 70
     1
 43
1.0
 10
-487.0898206556164
 20
-251.713405299831
 42
0.4142135623731
 10
-487.5898206556164
 20
-251.213405299831
 42
0.4142135623731
 10
-488.0898206556163
 20
-251.713405299831
 42
0.4142135623731
 10
-487.5898206556164
 20
-252.213405299831
 42
0.4142135623731
  0
LWPOLYLINE
  5
5ED
330
1F
100
AcDbEntity
  8
0216_
  6
Continuous
 62
     7
370
     9
100
AcDbPolyline
 90
        4
 70
     1
 43
1.0
 10
-487.0898206556164
 20
-576.7132403399492
 42
0.4142135623731
 10
-487.5898206556164
 20
-576.2132403399493
 42
0.4142135623731
 10
-488.0898206556163
 20
-576.7132403399492
 42
0.4142135623731
 10
-487.5898206556164
 20
-577.2132403399492
 42
0.4142135623731
  0
LWPOLYLINE
  5
5EE
330
1F
100
AcDbEntity
  8
0216_
  6
Continuous
 62
     7
370
     9
100
AcDbPolyline
 90
        4
 70
     1
 43
1.0
 10
-1155.843759072794
 20
-484.8150181125949
 42
0.4142135623731
 10
-1156.343759072794
 20
-484.3150181125949
 42
0.4142135623731
 10
-1156.843759072794
 20
-484.8150181125949
 42
0.4142135623731
 10
-1156.343759072794
 20
-485.3150181125949
 42
0.4142135623731
  0
LWPOLYLINE
  5
5EF
330
1F
100
AcDbEntity
  8
0216_
  6
Continuous
 62
     7
370
     9
100
AcDbPolyline
 90
        4
 70
     1
 43
1.0
 10
-1005.843697212838
 20
-484.8150181125949
 42
0.4142135623731
 10
-1006.343697212838
 20
-484.3150181125949
 42
0.4142135623731
 10
-1006.843697212838
 20
-484.8150181125949
 42
0.4142135623731
 10
-1006.343697212838
 20
-485.3150181125949
 42
0.4142135623731
  0
LWPOLYLINE
  5
5F0
330
1F
100
AcDbEntity
  8
0216_
  6
Continuous
 62
     7
370
     9
100
AcDbPolyline
 90
        4
 70
     1
 43
1.0
 10
-835.8435075089737
 20
-484.8150181125949
 42
0.4142135623731
 10
-836.3435075089737
 20
-484.3150181125949
 42
0.4142135623731
 10
-836.8435075089736
 20
-484.8150181125949
 42
0.4142135623731
 10
-836.3435075089737
 20
-485.3150181125949
 42
0.4142135623731
  0
LWPOLYLINE
  5
5F1
330
1F
100
AcDbEntity
  8
0216_
  6
Continuous
 62
     7
370
     9
100
AcDbPolyline
 90
        4
 70
     1
 43
1.0
 10
-775.887477565456
 20
-398.2113894900759
 42
0.4142135623731
 10
-776.387477565456
 20
-397.7113894900759
 42
0.4142135623731
 10
-776.8874775654559
 20
-398.2113894900759
 42
0.4142135623731
 10
-776.387477565456
 20
-398.7113894900759
 42
0.4142135623731
  0
LWPOLYLINE
  5
5F2
330
1F
100
AcDbEntity
  8
0216_
  6
Continuous
 62
     7
370
     9
100
AcDbPolyline
 90
        4
 70
     1
 43
1.0
 10
-775.887477565456
 20
-366.7123000686233
 42
0.4142135623731
 10
-776.387477565456
 20
-366.2123000686233
 42
0.4142135623731
 10
-776.8874775654559
 20
-366.7123000686233
 42
0.4142135623731
 10
-776.387477565456
 20
-367.2123000686233
 42
0.4142135623731
  0
LWPOLYLINE
  5
5F3
330
1F
100
AcDbEntity
  8
0216_
  6
Continuous
 62
     7
370
     9
100
AcDbPolyline
 90
        4
 70
     1
 43
1.0
 10
-775.887477565456
 20
-251.713405299831
 42
0.4142135623731
 10
-776.387477565456
 20
-251.213405299831
 42
0.4142135623731
 10
-776.8874775654559
 20
-251.713405299831
 42
0.4142135623731
 10
-776.387477565456
 20
-252.213405299831
 42
0.4142135623731
  0
LWPOLYLINE
  5
5F4
330
1F
100
AcDbEntity
  8
0216_
  6
Continuous
 62
     7
370
     9
100
AcDbPolyline
 90
        4
 70
     1
 43
1.0
 10
-1493.905385610219
 20
-251.7131578600083
 42
0.4142135623731
 10
-1494.40538561022
 20
-251.2131578600083
 42
0.4142135623731
 10
-1494.90538561022
 20
-251.7131578600083
 42
0.4142135623731
 10
-1494.40538561022
 20
-252.2131578600083
 42
0.4142135623731
  0
LWPOLYLINE
  5
5F5
330
1F
100
AcDbEntity
  8
0216_
  6
Continuous
 62
     7
370
     9
100
AcDbPolyline
 90
        4
 70
     1
 43
1.0
 10
-1493.905385610219
 20
-351.7133640598605
 42
0.4142135623731
 10
-1494.40538561022
 20
-351.2133640598606
 42
0.4142135623731
 10
-1494.90538561022
 20
-351.7133640598605
 42
0.4142135623731
 10
-1494.40538561022
 20
-352.2133640598605
 42
0.4142135623731
  0
LWPOLYLINE
  5
5F6
330
1F
100
AcDbEntity
  8
0193_区
  6
Continuous
 62
     7
370
     9
100
AcDbPolyline
 90
        4
 70
     1
 43
1.0
 10
-359.973179172825
 20
903.5534338048988
 42
0.4142135623731
 10
-360.473179172825
 20
904.0534338048986
 42
0.4142135623731
 10
-360.973179172825
 20
903.5534338048988
 42
0.4142135623731
 10
-360.473179172825
 20
903.0534338048988
 42
0.4142135623731
  0
LWPOLYLINE
  5
5F7
330
1F
100
AcDbEntity
  8
0193_区
  6
Continuous
 62
     7
370
     9
100
AcDbPolyline
 90
        4
 70
     1
 43
1.0
 10
-358.9730274097338
 20
903.5534338048988
 42
0.4142135623731
 10
-359.4730274097338
 20
904.0534338048986
 42
0.4142135623731
 10
-359.9730274097338
 20
903.5534338048988
 42
0.4142135623731
 10
-359.4730274097338
 20
903.0534338048988
 42
0.4142135623731
  0
LWPOLYLINE
  5
5F8
330
1F
100
AcDbEntity
  8
0193_区
  6
Continuous
 62
     7
370
     9
100
AcDbPolyline
 90
        4
 70
     1
 43
1.0
 10
-358.9730274097338
 20
983.5536977407096
 42
0.4142135623731
 10
-359.4730274097338
 20
984.0536977407096
 42
0.4142135623731
 10
-359.9730274097338
 20
983.5536977407096
 42
0.4142135623731
 10
-359.4730274097338
 20
983.0536977407097
 42
0.4142135623731
  0
LWPOLYLINE
  5
5F9
330
1F
100
AcDbEntity
  8
0193_区
  6
Continuous
 62
     7
370
     9
100
AcDbPolyline
 90
        4
 70
     1
 43
1.0
 10
-857.974030365815
 20
903.5534338048988
 42
0.4142135623731
 10
-858.474030365815
 20
904.0534338048986
 42
0.4142135623731
 10
-858.974030365815
 20
903.5534338048988
 42
0.4142135623731
 10
-858.474030365815
 20
903.0534338048988
 42
0.4142135623731
  0
LWPOLYLINE
  5
5FA
330
1F
100
AcDbEntity
  8
0193_区
  6
Continuous
 62
     7
370
     9
100
AcDbPolyline
 90
        4
 70
     1
 43
1.0
 10
-857.974030365815
 20
983.5536977407096
 42
0.4142135623731
 10
-858.474030365815
 20
984.0536977407096
 42
0.4142135623731
 10
-858.974030365815
 20
983.5536977407096
 42
0.4142135623731
 10
-858.474030365815
 20
983.0536977407097
 42
0.4142135623731
  0
LWPOLYLINE
  5
5FB
330
1F
100
AcDbEntity
  8
0193_区
  6
Continuous
 62
     7
370
     9
100
AcDbPolyline
 90
        4
 70
     1
 43
1.0
 10
-858.9745532886401
 20
903.5534338048988
 42
0.4142135623731
 10
-859.4745532886401
 20
904.0534338048986
 42
0.4142135623731
 10
-859.9745532886401
 20
903.5534338048988
 42
0.4142135623731
 10
-859.4745532886401
 20
903.0534338048988
 42
0.4142135623731
  0
LWPOLYLINE
  5
5FC
330
1F
100
AcDbEntity
  8
0193_区
  6
Continuous
 62
     7
370
     9
100
AcDbPolyline
 90
        4
 70
     1
 43
1.0
 10
-1356.97497146194
 20
903.5534338048988
 42
0.4142135623731
 10
-1357.47497146194
 20
904.0534338048986
 42
0.4142135623731
 10
-1357.97497146194
 20
903.5534338048988
 42
0.4142135623731
 10
-1357.47497146194
 20
903.0534338048988
 42
0.4142135623731
  0
LWPOLYLINE
  5
5FD
330
1F
100
AcDbEntity
  8
0193_区
  6
Continuous
 62
     7
370
     9
100
AcDbPolyline
 90
        4
 70
     1
 43
1.0
 10
-1356.97497146194
 20
983.5536977407096
 42
0.4142135623731
 10
-1357.47497146194
 20
984.0536977407096
 42
0.4142135623731
 10
-1357.97497146194
 20
983.5536977407096
 42
0.4142135623731
 10
-1357.47497146194
 20
983.0536977407097
 42
0.4142135623731
  0
LWPOLYLINE
  5
5FE
330
1F
100
AcDbEntity
  8
0193_区
  6
Continuous
 62
     7
370
     9
100
AcDbPolyline
 90
        4
 70
     1
 43
1.0
 10
-1357.975308804898
 20
903.5534338048988
 42
0.4142135623731
 10
-1358.475308804898
 20
904.0534338048986
 42
0.4142135623731
 10
-1358.975308804899
 20
903.5534338048988
 42
0.4142135623731
 10
-1358.475308804898
 20
903.0534338048988
 42
0.4142135623731
  0
LWPOLYLINE
  5
5FF
330
1F
100
AcDbEntity
  8
0193_区
  6
Continuous
 62
     7
370
     9
100
AcDbPolyline
 90
        4
 70
     1
 43
1.0
 10
-608.4740237674198
 20
463.5535905167865
 42
0.4142135623731
 10
-608.9740237674198
 20
464.0535905167865
 42
0.4142135623731
 10
-609.4740237674198
 20
463.5535905167865
 42
0.4142135623731
 10
-608.9740237674198
 20
463.0535905167865
 42
0.4142135623731
  0
LWPOLYLINE
  5
600
330
1F
100
AcDbEntity
  8
0193_区
  6
Continuous
 62
     7
370
     9
100
AcDbPolyline
 90
        4
 70
     1
 43
1.0
 10
-1108.47406500739
 20
463.5535905167865
 42
0.4142135623731
 10
-1108.97406500739
 20
464.0535905167865
 42
0.4142135623731
 10
-1109.47406500739
 20
463.5535905167865
 42
0.4142135623731
 10
-1108.97406500739
 20
463.0535905167865
 42
0.4142135623731
  0
ENDSEC
  0
SECTION
  2
OBJECTS
  0
DICTIONARY
  5
C
330
0
100
AcDbDictionary
281
     1
  3
ACAD_GROUP
350
D
  3
ACAD_LAYOUT
350
1A
  3
ACAD_MLEADERSTYLE
350
602
  3
ACAD_MLINESTYLE
350
17
  3
ACAD_PLOTSETTINGS
350
19
  3
ACAD_PLOTSTYLENAME
350
E
  3
ACAD_TABLESTYLE
350
601
  3
ACAD_VISUALSTYLE
350
2A
  0
DICTIONARY
  5
D
102
{ACAD_REACTORS
330
C
102
}
330
C
100
AcDbDictionary
281
     1
  0
DICTIONARY
  5
1A
102
{ACAD_REACTORS
330
C
102
}
330
C
100
AcDbDictionary
281
     1
  3
Layout1
350
1E
  3
Layout2
350
26
  3
Model
350
22
  0
DICTIONARY
  5
602
102
{ACAD_REACTORS
330
C
102
}
330
C
100
AcDbDictionary
281
     1
  0
DICTIONARY
  5
17
102
{ACAD_REACTORS
330
C
102
}
330
C
100
AcDbDictionary
281
     1
  3
Standard
350
18
  0
DICTIONARY
  5
19
102
{ACAD_REACTORS
330
C
102
}
330
C
100
AcDbDictionary
281
     1
  0
ACDBDICTIONARYWDFLT
  5
E
102
{ACAD_REACTORS
330
C
102
}
330
C
100
AcDbDictionary
281
     1
  3
Normal
350
F
100
AcDbDictionaryWithDefault
340
F
  0
DICTIONARY
  5
601
102
{ACAD_REACTORS
330
C
102
}
330
C
100
AcDbDictionary
281
     1
  0
DICTIONARY
  5
2A
102
{ACAD_REACTORS
330
C
102
}
330
C
100
AcDbDictionary
281
     1
  3
2dWireframe
350
2F
  3
3D Hidden
350
31
  3
3dWireframe
350
30
  3
Basic
350
32
  3
Brighten
350
36
  3
ColorChange
350
3A
  3
Conceptual
350
34
  3
Dim
350
35
  3
Facepattern
350
39
  3
Flat
350
2B
  3
FlatWithEdges
350
2C
  3
Gouraud
350
2D
  3
GouraudWithEdges
350
2E
  3
Linepattern
350
38
  3
Realistic
350
33
  3
Thicken
350
37
  0
LAYOUT
  5
1E
102
{ACAD_REACTORS
330
1A
102
}
330
1A
100
AcDbPlotSettings
  1

  2
none_device
  4

  6

 40
0.0
 41
0.0
 42
0.0
 43
0.0
 44
0.0
 45
0.0
 46
0.0
 47
0.0
 48
0.0
 49
0.0
140
0.0
141
0.0
142
1.0
143
1.0
 70
   688
 72
     0
 73
     0
 74
     5
  7

 75
    16
 76
     0
 77
     5
 78
   300
147
1.0
148
0.0
149
0.0
100
AcDbLayout
  1
Layout1
 70
     1
 71
     1
 10
0.0
 20
0.0
 11
420.0
 21
297.0
 12
0.0
 22
0.0
 32
0.0
 14
1.000000000000000E+20
 24
1.000000000000000E+20
 34
1.000000000000000E+20
 15
-1.000000000000000E+20
 25
-1.000000000000000E+20
 35
-1.000000000000000E+20
146
0.0
 13
0.0
 23
0.0
 33
0.0
 16
1.0
 26
0.0
 36
0.0
 17
0.0
 27
1.0
 37
0.0
 76
     0
330
1B
  0
LAYOUT
  5
26
102
{ACAD_REACTORS
330
1A
102
}
330
1A
100
AcDbPlotSettings
  1

  2
none_device
  4

  6

 40
0.0
 41
0.0
 42
0.0
 43
0.0
 44
0.0
 45
0.0
 46
0.0
 47
0.0
 48
0.0
 49
0.0
140
0.0
141
0.0
142
1.0
143
1.0
 70
   688
 72
     0
 73
     0
 74
     5
  7

 75
    16
 76
     0
 77
     5
 78
   300
147
1.0
148
0.0
149
0.0
100
AcDbLayout
  1
Layout2
 70
     1
 71
     2
 10
0.0
 20
0.0
 11
0.0
 21
0.0
 12
0.0
 22
0.0
 32
0.0
 14
0.0
 24
0.0
 34
0.0
 15
0.0
 25
0.0
 35
0.0
146
0.0
 13
0.0
 23
0.0
 33
0.0
 16
1.0
 26
0.0
 36
0.0
 17
0.0
 27
1.0
 37
0.0
 76
     0
330
23
  0
LAYOUT
  5
22
102
{ACAD_REACTORS
330
1A
102
}
330
1A
100
AcDbPlotSettings
  1

  2
none_device
  4

  6

 40
0.0
 41
0.0
 42
0.0
 43
0.0
 44
0.0
 45
0.0
 46
0.0
 47
0.0
 48
0.0
 49
0.0
140
0.0
141
0.0
142
1.0
143
1.0
 70
  1712
 72
     0
 73
     0
 74
     0
  7

 75
     0
 76
     0
 77
     5
 78
   300
147
1.0
148
0.0
149
0.0
100
AcDbLayout
  1
Model
 70
     1
 71
     0
 10
-2100.0
 20
-1485.0
 11
2100.0
 21
1485.0
 12
0.0
 22
0.0
 32
0.0
 14
-2100.0
 24
-1485.0
 34
0.0
 15
2100.0
 25
1485.0
 35
0.0
146
0.0
 13
0.0
 23
0.0
 33
0.0
 16
1.0
 26
0.0
 36
0.0
 17
0.0
 27
1.0
 37
0.0
 76
     0
330
1F
331
29
  0
MLINESTYLE
  5
18
102
{ACAD_REACTORS
330
17
102
}
330
17
100
AcDbMlineStyle
  2
Standard
 70
     0
  3

 62
   256
 51
90.0
 52
90.0
 71
     2
 49
0.5
 62
   256
  6
BYLAYER
 49
-0.5
 62
   256
  6
BYLAYER
  0
ACDBPLACEHOLDER
  5
F
102
{ACAD_REACTORS
330
E
102
}
330
E
  0
VISUALSTYLE
  5
2F
102
{ACAD_REACTORS
330
2A
102
}
330
2A
100
AcDbVisualStyle
  2
2dWireframe
 70
     4
 71
     0
 72
     2
 73
     0
 90
        0
 40
-0.6
 41
-30.0
 62
     5
 63
     7
421
 16777215
 74
     1
 91
        4
 64
     7
 65
   257
 75
     1
175
     1
 42
1.0
 92
        0
 66
   257
 43
1.0
 76
     1
 77
     6
 78
     2
 67
     7
 79
     5
170
     0
171
     0
290
     0
174
     0
 93
        1
 44
0.0
173
     0
291
     0
 45
0.0
1001
ACAD
1000
AcDbSavedByObjectVersion
1070
     0
  0
VISUALSTYLE
  5
31
102
{ACAD_REACTORS
330
2A
102
}
330
2A
100
AcDbVisualStyle
  2
3D Hidden
 70
     6
 71
     1
 72
     2
 73
     2
 90
        0
 40
-0.6
 41
-30.0
 62
     5
 63
     7
421
 16777215
 74
     2
 91
        2
 64
     7
 65
   257
 75
     2
175
     1
 42
40.0
 92
        0
 66
   257
 43
1.0
 76
     1
 77
     6
 78
     2
 67
     7
 79
     3
170
     0
171
     0
290
     0
174
     0
 93
        1
 44
0.0
173
     0
291
     0
 45
0.0
1001
ACAD
1000
AcDbSavedByObjectVersion
1070
     0
  0
VISUALSTYLE
  5
30
102
{ACAD_REACTORS
330
2A
102
}
330
2A
100
AcDbVisualStyle
  2
3dWireframe
 70
     5
 71
     0
 72
     2
 73
     0
 90
        0
 40
-0.6
 41
-30.0
 62
     5
 63
     7
421
 16777215
 74
     1
 91
        4
 64
     7
 65
   257
 75
     1
175
     1
 42
1.0
 92
        0
 66
   257
 43
1.0
 76
     1
 77
     6
 78
     2
 67
     7
 79
     5
170
     0
171
     0
290
     0
174
     0
 93
        1
 44
0.0
173
     0
291
     0
 45
0.0
1001
ACAD
1000
AcDbSavedByObjectVersion
1070
     0
  0
VISUALSTYLE
  5
32
102
{ACAD_REACTORS
330
2A
102
}
330
2A
100
AcDbVisualStyle
  2
Basic
 70
     7
 71
     1
 72
     0
 73
     1
 90
        0
 40
-0.6
 41
-30.0
 62
     5
 63
     7
421
 16777215
 74
     0
 91
        4
 64
     7
 65
   257
 75
     1
175
     1
 42
1.0
 92
        8
 66
     7
 43
1.0
 76
     1
 77
     6
 78
     2
 67
     7
 79
     5
170
     0
171
     0
290
     0
174
     0
 93
        1
 44
0.0
173
     0
291
     1
 45
0.0
1001
ACAD
1000
AcDbSavedByObjectVersion
1070
     0
  0
VISUALSTYLE
  5
36
102
{ACAD_REACTORS
330
2A
102
}
330
2A
100
AcDbVisualStyle
  2
Brighten
 70
    12
 71
     2
 72
     2
 73
     0
 90
        0
 40
-0.6
 41
-30.0
 62
     5
 63
     7
421
 16777215
 74
     1
 91
        4
 64
     7
 65
   257
 75
     1
175
     1
 42
1.0
 92
        8
 66
     7
 43
1.0
 76
     1
 77
     6
 78
     2
 67
     7
 79
     5
170
     0
171
     0
290
     0
174
     0
 93
        1
 44
50.0
173
     0
291
     1
 45
0.0
1001
ACAD
1000
AcDbSavedByObjectVersion
1070
     0
  0
VISUALSTYLE
  5
3A
102
{ACAD_REACTORS
330
2A
102
}
330
2A
100
AcDbVisualStyle
  2
ColorChange
 70
    16
 71
     2
 72
     2
 73
     3
 90
        0
 40
-0.6
 41
-30.0
 62
     5
 63
     8
421
  8421504
 74
     1
 91
        4
 64
     7
 65
   257
 75
     1
175
     1
 42
1.0
 92
        8
 66
     8
424
  8421504
 43
1.0
 76
     1
 77
     6
 78
     2
 67
     7
 79
     5
170
     0
171
     0
290
     0
174
     0
 93
        1
 44
0.0
173
     0
291
     1
 45
0.0
1001
ACAD
1000
AcDbSavedByObjectVersion
1070
     0
  0
VISUALSTYLE
  5
34
102
{ACAD_REACTORS
330
2A
102
}
330
2A
100
AcDbVisualStyle
  2
Conceptual
 70
     9
 71
     3
 72
     2
 73
     0
 90
        0
 40
-0.6
 41
-30.0
 62
     5
 63
     7
421
 16777215
 74
     2
 91
        2
 64
     7
 65
   257
 75
     1
175
     1
 42
40.0
 92
        8
 66
     7
 43
1.0
 76
     1
 77
     6
 78
     2
 67
     7
 79
     3
170
     0
171
     0
290
     0
174
     0
 93
        1
 44
0.0
173
     0
291
     0
 45
0.0
1001
ACAD
1000
AcDbSavedByObjectVersion
1070
     0
  0
VISUALSTYLE
  5
35
102
{ACAD_REACTORS
330
2A
102
}
330
2A
100
AcDbVisualStyle
  2
Dim
 70
    11
 71
     2
 72
     2
 73
     0
 90
        0
 40
-0.6
 41
-30.0
 62
     5
 63
     7
421
 16777215
 74
     1
 91
        4
 64
     7
 65
   257
 75
     1
175
     1
 42
1.0
 92
        8
 66
     7
 43
1.0
 76
     1
 77
     6
 78
     2
 67
     7
 79
     5
170
     0
171
     0
290
     0
174
     0
 93
        1
 44
-50.0
173
     0
291
     1
 45
0.0
1001
ACAD
1000
AcDbSavedByObjectVersion
1070
     0
  0
VISUALSTYLE
  5
39
102
{ACAD_REACTORS
330
2A
102
}
330
2A
100
AcDbVisualStyle
  2
Facepattern
 70
    15
 71
     2
 72
     2
 73
     0
 90
        0
 40
-0.6
 41
-30.0
 62
     5
 63
     7
421
 16777215
 74
     1
 91
        4
 64
     7
 65
   257
 75
     1
175
     1
 42
1.0
 92
        8
 66
     7
 43
1.0
 76
     1
 77
     6
 78
     2
 67
     7
 79
     5
170
     0
171
     0
290
     0
174
     0
 93
        1
 44
0.0
173
     0
291
     1
 45
0.0
1001
ACAD
1000
AcDbSavedByObjectVersion
1070
     0
  0
VISUALSTYLE
  5
2B
102
{ACAD_REACTORS
330
2A
102
}
330
2A
100
AcDbVisualStyle
  2
Flat
 70
     0
 71
     2
 72
     1
 73
     1
 90
        2
 40
-0.6
 41
30.0
 62
     5
 63
     7
421
 16777215
 74
     0
 91
        4
 64
     7
 65
   257
 75
     1
175
     1
 42
1.0
 92
        8
 66
     7
 43
1.0
 76
     1
 77
     6
 78
     2
 67
     7
 79
     5
170
     0
171
     0
290
     0
174
     0
 93
       13
 44
0.0
173
     0
291
     1
 45
0.0
1001
ACAD
1000
AcDbSavedByObjectVersion
1070
     0
  0
VISUALSTYLE
  5
2C
102
{ACAD_REACTORS
330
2A
102
}
330
2A
100
AcDbVisualStyle
  2
FlatWithEdges
 70
     1
 71
     2
 72
     1
 73
     1
 90
        2
 40
-0.6
 41
30.0
 62
     5
 63
     7
421
 16777215
 74
     1
 91
        4
 64
     7
 65
   257
 75
     1
175
     1
 42
1.0
 92
        0
 66
   257
 43
1.0
 76
     1
 77
     6
 78
     2
 67
     7
 79
     5
170
     0
171
     0
290
     0
174
     0
 93
       13
 44
0.0
173
     0
291
     1
 45
0.0
1001
ACAD
1000
AcDbSavedByObjectVersion
1070
     0
  0
VISUALSTYLE
  5
2D
102
{ACAD_REACTORS
330
2A
102
}
330
2A
100
AcDbVisualStyle
  2
Gouraud
 70
     2
 71
     2
 72
     2
 73
     1
 90
        2
 40
-0.6
 41
30.0
 62
     5
 63
     7
421
 16777215
 74
     0
 91
        4
 64
     7
 65
   257
 75
     1
175
     1
 42
1.0
 92
        0
 66
     7
 43
1.0
 76
     1
 77
     6
 78
     2
 67
     7
 79
     5
170
     0
171
     0
290
     0
174
     0
 93
       13
 44
0.0
173
     0
291
     1
 45
0.0
1001
ACAD
1000
AcDbSavedByObjectVersion
1070
     0
  0
VISUALSTYLE
  5
2E
102
{ACAD_REACTORS
330
2A
102
}
330
2A
100
AcDbVisualStyle
  2
GouraudWithEdges
 70
     3
 71
     2
 72
     2
 73
     1
 90
        2
 40
-0.6
 41
30.0
 62
     5
 63
     7
421
 16777215
 74
     1
 91
        4
 64
     7
 65
   257
 75
     1
175
     1
 42
1.0
 92
        0
 66
   257
 43
1.0
 76
     1
 77
     6
 78
     2
 67
     7
 79
     5
170
     0
171
     0
290
     0
174
     0
 93
       13
 44
0.0
173
     0
291
     1
 45
0.0
1001
ACAD
1000
AcDbSavedByObjectVersion
1070
     0
  0
VISUALSTYLE
  5
38
102
{ACAD_REACTORS
330
2A
102
}
330
2A
100
AcDbVisualStyle
  2
Linepattern
 70
    14
 71
     2
 72
     2
 73
     0
 90
        0
 40
-0.6
 41
-30.0
 62
     5
 63
     7
421
 16777215
 74
     1
 91
        4
 64
     7
 65
   257
 75
     7
175
     7
 42
1.0
 92
        8
 66
     7
 43
1.0
 76
     1
 77
     6
 78
     2
 67
     7
 79
     5
170
     0
171
     0
290
     0
174
     0
 93
        1
 44
0.0
173
     0
291
     1
 45
0.0
1001
ACAD
1000
AcDbSavedByObjectVersion
1070
     0
  0
VISUALSTYLE
  5
33
102
{ACAD_REACTORS
330
2A
102
}
330
2A
100
AcDbVisualStyle
  2
Realistic
 70
     8
 71
     2
 72
     2
 73
     0
 90
        0
 40
-0.6
 41
-30.0
 62
     5
 63
     7
421
 16777215
 74
     1
 91
        0
 64
     7
 65
   257
 75
     1
175
     1
 42
1.0
 92
        8
 66
     8
424
  7895160
 43
1.0
 76
     1
 77
     6
 78
     2
 67
     7
 79
     5
170
     0
171
     0
290
     0
174
     0
 93
       13
 44
0.0
173
     0
291
     0
 45
0.0
1001
ACAD
1000
AcDbSavedByObjectVersion
1070
     0
  0
VISUALSTYLE
  5
37
102
{ACAD_REACTORS
330
2A
102
}
330
2A
100
AcDbVisualStyle
  2
Thicken
 70
    13
 71
     2
 72
     2
 73
     0
 90
        0
 40
-0.6
 41
-30.0
 62
     5
 63
     7
421
 16777215
 74
     1
 91
        4
 64
     7
 65
   257
 75
     1
175
     1
 42
1.0
 92
       12
 66
     7
 43
1.0
 76
     1
 77
     6
 78
     2
 67
     7
 79
     5
170
     0
171
     0
290
     0
174
     0
 93
        1
 44
0.0
173
     0
291
     1
 45
0.0
1001
ACAD
1000
AcDbSavedByObjectVersion
1070
     0
  0
ENDSEC
  0
EOF
