  0
SECTION
  2
HEADER
  9
$ACADVER
  1
AC1018
  9
$ACADMAINTVER
 70
     0
  9
$DWGCODEPAGE
  3
ANSI_932
  9
$INSBASE
 10
0.0
 20
0.0
 30
0.0
  9
$EXTMIN
 10
-2100.0
 20
-1485.0
 30
0.0
  9
$EXTMAX
 10
2100.0
 20
1485.0
 30
0.0
  9
$LIMMIN
 10
-2100.0
 20
-1485.0
  9
$LIMMAX
 10
2100.0
 20
1485.0
  9
$ORTHOMODE
 70
     0
  9
$REGENMODE
 70
     1
  9
$FILLMODE
 70
     1
  9
$QTEXTMODE
 70
     0
  9
$MIRRTEXT
 70
     1
  9
$LTSCALE
 40
10.0
  9
$ATTMODE
 70
     1
  9
$TEXTSIZE
 40
2.5
  9
$TRACEWID
 40
1.0
  9
$TEXTSTYLE
  7
Standard
  9
$CLAYER
  8
0
  9
$CELTYPE
  6
ByLayer
  9
$CECOLOR
 62
   256
  9
$CELTSCALE
 40
1.0
  9
$DISPSILH
 70
     0
  9
$DIMSCALE
 40
1.0
  9
$DIMASZ
 40
2.5
  9
$DIMEXO
 40
0.625
  9
$DIMDLI
 40
3.75
  9
$DIMRND
 40
0.0
  9
$DIMDLE
 40
0.0
  9
$DIMEXE
 40
1.25
  9
$DIMTP
 40
0.0
  9
$DIMTM
 40
0.0
  9
$DIMTXT
 40
2.5
  9
$DIMCEN
 40
2.5
  9
$DIMTSZ
 40
0.0
  9
$DIMTOL
 70
     0
  9
$DIMLIM
 70
     0
  9
$DIMTIH
 70
     0
  9
$DIMTOH
 70
     0
  9
$DIMSE1
 70
     0
  9
$DIMSE2
 70
     0
  9
$DIMTAD
 70
     1
  9
$DIMZIN
 70
     8
  9
$DIMBLK
  1

  9
$DIMASO
 70
     1
  9
$DIMSHO
 70
     1
  9
$DIMPOST
  1

  9
$DIMAPOST
  1

  9
$DIMALT
 70
     0
  9
$DIMALTD
 70
     3
  9
$DIMALTF
 40
0.03937007874016
  9
$DIMLFAC
 40
1.0
  9
$DIMTOFL
 70
     1
  9
$DIMTVP
 40
0.0
  9
$DIMTIX
 70
     0
  9
$DIMSOXD
 70
     0
  9
$DIMSAH
 70
     0
  9
$DIMBLK1
  1

  9
$DIMBLK2
  1

  9
$DIMSTYLE
  2
ISO-25
  9
$DIMCLRD
 70
     0
  9
$DIMCLRE
 70
     0
  9
$DIMCLRT
 70
     0
  9
$DIMTFAC
 40
1.0
  9
$DIMGAP
 40
0.625
  9
$DIMJUST
 70
     0
  9
$DIMSD1
 70
     0
  9
$DIMSD2
 70
     0
  9
$DIMTOLJ
 70
     0
  9
$DIMTZIN
 70
     8
  9
$DIMALTZ
 70
     0
  9
$DIMALTTZ
 70
     0
  9
$DIMUPT
 70
     0
  9
$DIMDEC
 70
     2
  9
$DIMTDEC
 70
     2
  9
$DIMALTU
 70
     2
  9
$DIMALTTD
 70
     3
  9
$DIMTXSTY
  7
Standard
  9
$DIMAUNIT
 70
     0
  9
$DIMADEC
 70
     0
  9
$DIMALTRND
 40
0.0
  9
$DIMAZIN
 70
     0
  9
$DIMDSEP
 70
    44
  9
$DIMATFIT
 70
     3
  9
$DIMFRAC
 70
     0
  9
$DIMLDRBLK
  1

  9
$DIMLUNIT
 70
     2
  9
$DIMLWD
 70
    -2
  9
$DIMLWE
 70
    -2
  9
$DIMTMOVE
 70
     0
  9
$LUNITS
 70
     2
  9
$LUPREC
 70
     4
  9
$SKETCHINC
 40
1.0
  9
$FILLETRAD
 40
10.0
  9
$AUNITS
 70
     0
  9
$AUPREC
 70
     0
  9
$MENU
  1
.
  9
$ELEVATION
 40
0.0
  9
$PELEVATION
 40
0.0
  9
$THICKNESS
 40
0.0
  9
$LIMCHECK
 70
     0
  9
$CHAMFERA
 40
10.0
  9
$CHAMFERB
 40
10.0
  9
$CHAMFERC
 40
20.0
  9
$CHAMFERD
 40
0.0
  9
$SKPOLY
 70
     0
  9
$TDCREATE
 40
2458235.623525313
  9
$TDUCREATE
 40
2458235.248525313
  9
$TDUPDATE
 40
2458235.623525324
  9
$TDUUPDATE
 40
2458235.248525324
  9
$TDINDWG
 40
0.0000000116
  9
$TDUSRTIMER
 40
0.0000000116
  9
$USRTIMER
 70
     1
  9
$ANGBASE
 50
0.0
  9
$ANGDIR
 70
     0
  9
$PDMODE
 70
     0
  9
$PDSIZE
 40
0.0
  9
$PLINEWID
 40
0.0
  9
$SPLFRAME
 70
     0
  9
$SPLINETYPE
 70
     6
  9
$SPLINESEGS
 70
     8
  9
$HANDSEED
  5
63A
  9
$SURFTAB1
 70
     6
  9
$SURFTAB2
 70
     6
  9
$SURFTYPE
 70
     6
  9
$SURFU
 70
     6
  9
$SURFV
 70
     6
  9
$UCSBASE
  2

  9
$UCSNAME
  2

  9
$UCSORG
 10
0.0
 20
0.0
 30
0.0
  9
$UCSXDIR
 10
1.0
 20
0.0
 30
0.0
  9
$UCSYDIR
 10
0.0
 20
1.0
 30
0.0
  9
$UCSORTHOREF
  2

  9
$UCSORTHOVIEW
 70
     0
  9
$UCSORGTOP
 10
0.0
 20
0.0
 30
0.0
  9
$UCSORGBOTTOM
 10
0.0
 20
0.0
 30
0.0
  9
$UCSORGLEFT
 10
0.0
 20
0.0
 30
0.0
  9
$UCSORGRIGHT
 10
0.0
 20
0.0
 30
0.0
  9
$UCSORGFRONT
 10
0.0
 20
0.0
 30
0.0
  9
$UCSORGBACK
 10
0.0
 20
0.0
 30
0.0
  9
$PUCSBASE
  2

  9
$PUCSNAME
  2

  9
$PUCSORG
 10
0.0
 20
0.0
 30
0.0
  9
$PUCSXDIR
 10
1.0
 20
0.0
 30
0.0
  9
$PUCSYDIR
 10
0.0
 20
1.0
 30
0.0
  9
$PUCSORTHOREF
  2

  9
$PUCSORTHOVIEW
 70
     0
  9
$PUCSORGTOP
 10
0.0
 20
0.0
 30
0.0
  9
$PUCSORGBOTTOM
 10
0.0
 20
0.0
 30
0.0
  9
$PUCSORGLEFT
 10
0.0
 20
0.0
 30
0.0
  9
$PUCSORGRIGHT
 10
0.0
 20
0.0
 30
0.0
  9
$PUCSORGFRONT
 10
0.0
 20
0.0
 30
0.0
  9
$PUCSORGBACK
 10
0.0
 20
0.0
 30
0.0
  9
$USERI1
 70
     0
  9
$USERI2
 70
     0
  9
$USERI3
 70
     0
  9
$USERI4
 70
     0
  9
$USERI5
 70
     0
  9
$USERR1
 40
0.0
  9
$USERR2
 40
0.0
  9
$USERR3
 40
0.0
  9
$USERR4
 40
0.0
  9
$USERR5
 40
0.0
  9
$WORLDVIEW
 70
     1
  9
$SHADEDGE
 70
     3
  9
$SHADEDIF
 70
    70
  9
$TILEMODE
 70
     1
  9
$MAXACTVP
 70
    64
  9
$PINSBASE
 10
0.0
 20
0.0
 30
0.0
  9
$PLIMCHECK
 70
     0
  9
$PEXTMIN
 10
1.000000000000000E+20
 20
1.000000000000000E+20
 30
1.000000000000000E+20
  9
$PEXTMAX
 10
-1.000000000000000E+20
 20
-1.000000000000000E+20
 30
-1.000000000000000E+20
  9
$PLIMMIN
 10
0.0
 20
0.0
  9
$PLIMMAX
 10
420.0
 20
297.0
  9
$UNITMODE
 70
     0
  9
$VISRETAIN
 70
     1
  9
$PLINEGEN
 70
     0
  9
$PSLTSCALE
 70
     1
  9
$TREEDEPTH
 70
  3020
  9
$CMLSTYLE
  2
Standard
  9
$CMLJUST
 70
     0
  9
$CMLSCALE
 40
20.0
  9
$PROXYGRAPHICS
 70
     1
  9
$MEASUREMENT
 70
     1
  9
$CELWEIGHT
370
    -1
  9
$ENDCAPS
280
     0
  9
$JOINSTYLE
280
     0
  9
$LWDISPLAY
290
     0
  9
$INSUNITS
 70
     4
  9
$HYPERLINKBASE
  1

  9
$STYLESHEET
  1

  9
$XEDIT
290
     1
  9
$CEPSNTYPE
380
     0
  9
$PSTYLEMODE
290
     1
  9
$FINGERPRINTGUID
  2
{1753723B-17D6-43EF-B0DA-6C11C271E190}
  9
$VERSIONGUID
  2
{FAEB1C32-E019-11D5-929B-00C0DF256EC4}
  9
$EXTNAMES
290
     1
  9
$PSVPSCALE
 40
0.0
  9
$OLESTARTUP
290
     0
  9
$SORTENTS
280
   127
  9
$INDEXCTL
280
     0
  9
$HIDETEXT
280
     1
  9
$XCLIPFRAME
290
     0
  9
$HALOGAP
280
     0
  9
$OBSCOLOR
 70
   257
  9
$OBSLTYPE
280
     0
  9
$INTERSECTIONDISPLAY
280
     0
  9
$INTERSECTIONCOLOR
 70
   257
  9
$DIMASSOC
280
     2
  9
$PROJECTNAME
  1

  0
ENDSEC
  0
SECTION
  2
CLASSES
  0
CLASS
  1
ACDBDICTIONARYWDFLT
  2
AcDbDictionaryWithDefault
  3
ObjectDBX Classes
 90
        0
 91
        4
280
     0
281
     0
  0
CLASS
  1
VISUALSTYLE
  2
AcDbVisualStyle
  3
ObjectDBX Classes
 90
     4095
 91
        4
280
     0
281
     0
  0
ENDSEC
  0
SECTION
  2
TABLES
  0
TABLE
  2
VPORT
  5
8
330
0
100
AcDbSymbolTable
 70
     1
  0
VPORT
  5
29
330
8
100
AcDbSymbolTableRecord
100
AcDbViewportTableRecord
  2
*Active
 70
     0
 10
0.0
 20
0.0
 11
1.0
 21
1.0
 12
0.0
 22
0.0
 13
0.0
 23
0.0
 14
10.0
 24
10.0
 15
10.0
 25
10.0
 16
0.0
 26
0.0
 36
1.0
 17
0.0
 27
0.0
 37
0.0
 40
3267.0
 41
1.414141414141414
 42
50.0
 43
0.0
 44
0.0
 50
0.0
 51
0.0
 71
     0
 72
 10000
 73
     1
 74
     3
 75
     0
 76
     0
 77
     0
 78
     0
281
     0
 65
     1
110
0.0
120
0.0
130
0.0
111
1.0
121
0.0
131
0.0
112
0.0
122
1.0
132
0.0
 79
     0
146
0.0
  0
ENDTAB
  0
TABLE
  2
LTYPE
  5
5
330
0
100
AcDbSymbolTable
 70
     5
  0
LTYPE
  5
14
330
5
100
AcDbSymbolTableRecord
100
AcDbLinetypeTableRecord
  2
ByBlock
 70
     0
  3

 72
    65
 73
     0
 40
0.0
  0
LTYPE
  5
15
330
5
100
AcDbSymbolTableRecord
100
AcDbLinetypeTableRecord
  2
ByLayer
 70
     0
  3

 72
    65
 73
     0
 40
0.0
  0
LTYPE
  5
16
330
5
100
AcDbSymbolTableRecord
100
AcDbLinetypeTableRecord
  2
Continuous
 70
     0
  3
Solid line
 72
    65
 73
     0
 40
0.0
  0
LTYPE
  5
3C
330
5
100
AcDbSymbolTableRecord
100
AcDbLinetypeTableRecord
  2
JWW_DASHED3
 70
     0
  3
---  ------  ------  ------  ---
 72
    65
 73
     2
 40
3.386666666666667
 49
2.54
 74
     0
 49
-0.8466666666666667
 74
     0
  0
LTYPE
  5
3D
330
5
100
AcDbSymbolTableRecord
100
AcDbLinetypeTableRecord
  2
JWW_CENTER2
 70
     0
  3
-------------  --  -------------
 72
    65
 73
     4
 40
13.54666666666667
 49
11.00666666666667
 74
     0
 49
-0.8466666666666667
 74
     0
 49
0.8466666666666667
 74
     0
 49
-0.8466666666666667
 74
     0
  0
LTYPE
  5
3E
330
5
100
AcDbSymbolTableRecord
100
AcDbLinetypeTableRecord
  2
JWW_CENTER1
 70
     0
  3
-----  --  ----------  --  -----
 72
    65
 73
     4
 40
6.773333333333333
 49
4.233333333333333
 74
     0
 49
-0.8466666666666667
 74
     0
 49
0.8466666666666667
 74
     0
 49
-0.8466666666666667
 74
     0
  0
LTYPE
  5
3F
330
5
100
AcDbSymbolTableRecord
100
AcDbLinetypeTableRecord
  2
JWW_DASHED2
 70
     0
  3
--    ----    ----    ----    --
 72
    65
 73
     2
 40
3.386666666666667
 49
1.693333333333333
 74
     0
 49
-1.693333333333333
 74
     0
  0
ENDTAB
  0
TABLE
  2
LAYER
  5
2
330
0
100
AcDbSymbolTable
 70
    17
  0
LAYER
  5
10
330
2
100
AcDbSymbolTableRecord
100
AcDbLayerTableRecord
  2
0
 70
     0
 62
     7
  6
Continuous
370
    -3
390
F
  0
LAYER
  5
40
330
2
100
AcDbSymbolTableRecord
100
AcDbLayerTableRecord
  2
F-5ﾚｲﾔ
 70
     0
 62
     7
  6
Continuous
370
    -3
390
F
  0
LAYER
  5
41
330
2
100
AcDbSymbolTableRecord
100
AcDbLayerTableRecord
  2
D-5
 70
     0
 62
     7
  6
Continuous
370
    -3
390
F
  0
LAYER
  5
42
330
2
100
AcDbSymbolTableRecord
100
AcDbLayerTableRecord
  2
F-4ﾚｲﾔ
 70
     0
 62
     7
  6
Continuous
370
    -3
390
F
  0
LAYER
  5
43
330
2
100
AcDbSymbolTableRecord
100
AcDbLayerTableRecord
  2
D-4
 70
     0
 62
     7
  6
Continuous
370
    -3
390
F
  0
LAYER
  5
44
330
2
100
AcDbSymbolTableRecord
100
AcDbLayerTableRecord
  2
D-6
 70
     0
 62
     7
  6
Continuous
370
    -3
390
F
  0
LAYER
  5
45
330
2
100
AcDbSymbolTableRecord
100
AcDbLayerTableRecord
  2
D-0
 70
     0
 62
     7
  6
Continuous
370
    -3
390
F
  0
LAYER
  5
46
330
2
100
AcDbSymbolTableRecord
100
AcDbLayerTableRecord
  2
D-9
 70
     0
 62
     7
  6
Continuous
370
    -3
390
F
  0
LAYER
  5
47
330
2
100
AcDbSymbolTableRecord
100
AcDbLayerTableRecord
  2
D-1
 70
     0
 62
     7
  6
Continuous
370
    -3
390
F
  0
LAYER
  5
48
330
2
100
AcDbSymbolTableRecord
100
AcDbLayerTableRecord
  2
D-3
 70
     0
 62
     7
  6
Continuous
370
    -3
390
F
  0
LAYER
  5
49
330
2
100
AcDbSymbolTableRecord
100
AcDbLayerTableRecord
  2
D-A
 70
     0
 62
     7
  6
Continuous
370
    -3
390
F
  0
LAYER
  5
4A
330
2
100
AcDbSymbolTableRecord
100
AcDbLayerTableRecord
  2
D-2
 70
     0
 62
     7
  6
Continuous
370
    -3
390
F
  0
LAYER
  5
4B
330
2
100
AcDbSymbolTableRecord
100
AcDbLayerTableRecord
  2
C-5
 70
     0
 62
     7
  6
Continuous
370
    -3
390
F
  0
LAYER
  5
4C
330
2
100
AcDbSymbolTableRecord
100
AcDbLayerTableRecord
  2
C-A
 70
     0
 62
     7
  6
Continuous
370
    -3
390
F
  0
LAYER
  5
4D
330
2
100
AcDbSymbolTableRecord
100
AcDbLayerTableRecord
  2
C-2
 70
     0
 62
     7
  6
Continuous
370
    -3
390
F
  0
LAYER
  5
4E
330
2
100
AcDbSymbolTableRecord
100
AcDbLayerTableRecord
  2
C-1
 70
     0
 62
     7
  6
Continuous
370
    -3
390
F
  0
LAYER
  5
4F
330
2
100
AcDbSymbolTableRecord
100
AcDbLayerTableRecord
  2
C-4
 70
     0
 62
     7
  6
Continuous
370
    -3
390
F
  0
ENDTAB
  0
TABLE
  2
STYLE
  5
3
330
0
100
AcDbSymbolTable
 70
     2
  0
STYLE
  5
11
330
3
100
AcDbSymbolTableRecord
100
AcDbTextStyleTableRecord
  2
Standard
 70
     0
 40
0.0
 41
1.0
 50
0.0
 71
     0
 42
2.5
  3
txt
  4

1001
ACAD
1000

1071
        0
  0
STYLE
  5
3B
330
3
100
AcDbSymbolTableRecord
100
AcDbTextStyleTableRecord
  2
ＭＳ ゴシック
 70
     0
 40
1.0
 41
1.0
 50
0.0
 71
     0
 42
10.0
  3

  4

1001
ACAD
1000
MS Gothic
1071
    32817
  0
ENDTAB
  0
TABLE
  2
VIEW
  5
6
330
0
100
AcDbSymbolTable
 70
     0
  0
ENDTAB
  0
TABLE
  2
UCS
  5
7
330
0
100
AcDbSymbolTable
 70
     0
  0
ENDTAB
  0
TABLE
  2
APPID
  5
9
330
0
100
AcDbSymbolTable
 70
     1
  0
APPID
  5
12
330
9
100
AcDbSymbolTableRecord
100
AcDbRegAppTableRecord
  2
ACAD
 70
     0
  0
ENDTAB
  0
TABLE
  2
DIMSTYLE
  5
A
330
0
100
AcDbSymbolTable
 70
     1
100
AcDbDimStyleTable
  0
DIMSTYLE
105
27
330
A
100
AcDbSymbolTableRecord
100
AcDbDimStyleTableRecord
  2
ISO-25
 70
     0
 41
2.5
 42
0.625
 43
3.75
 44
1.25
 73
     0
 74
     0
 77
     1
 78
     8
140
2.5
141
2.5
143
0.03937007874016
147
0.625
171
     3
172
     1
271
     2
272
     2
274
     3
278
    44
283
     0
284
     8
340
11
  0
ENDTAB
  0
TABLE
  2
BLOCK_RECORD
  5
1
330
0
100
AcDbSymbolTable
 70
     1
  0
BLOCK_RECORD
  5
1F
330
1
100
AcDbSymbolTableRecord
100
AcDbBlockTableRecord
  2
*Model_Space
340
22
  0
BLOCK_RECORD
  5
1B
330
1
100
AcDbSymbolTableRecord
100
AcDbBlockTableRecord
  2
*Paper_Space
340
1E
  0
BLOCK_RECORD
  5
23
330
1
100
AcDbSymbolTableRecord
100
AcDbBlockTableRecord
  2
*Paper_Space0
340
26
  0
ENDTAB
  0
ENDSEC
  0
SECTION
  2
BLOCKS
  0
BLOCK
  5
20
330
1F
100
AcDbEntity
  8
0
100
AcDbBlockBegin
  2
*Model_Space
 70
     0
 10
0.0
 20
0.0
 30
0.0
  3
*Model_Space
  1

  0
ENDBLK
  5
21
330
1F
100
AcDbEntity
  8
0
100
AcDbBlockEnd
  0
BLOCK
  5
1C
330
1B
100
AcDbEntity
 67
     1
  8
0
100
AcDbBlockBegin
  2
*Paper_Space
 70
     0
 10
0.0
 20
0.0
 30
0.0
  3
*Paper_Space
  1

  0
ENDBLK
  5
1D
330
1B
100
AcDbEntity
 67
     1
  8
0
100
AcDbBlockEnd
  0
BLOCK
  5
24
330
23
100
AcDbEntity
  8
0
100
AcDbBlockBegin
  2
*Paper_Space0
 70
     0
 10
0.0
 20
0.0
 30
0.0
  3
*Paper_Space0
  1

  0
ENDBLK
  5
25
330
23
100
AcDbEntity
  8
0
100
AcDbBlockEnd
  0
ENDSEC
  0
SECTION
  2
ENTITIES
  0
TEXT
  5
50
330
1F
100
AcDbEntity
  8
F-5ﾚｲﾔ
  6
Continuous
 62
     2
370
     9
100
AcDbText
 10
-845.3997081828237
 20
-1322.642571106638
 30
0.0
 40
30.48
  1
ステンレス製　細目ノンスリップタイプ（ローレット模様）グレーチング（すきま6mm）
 41
0.774367088607595
  7
ＭＳ ゴシック
100
AcDbText
  0
TEXT
  5
51
330
1F
100
AcDbEntity
  8
D-5
  6
Continuous
 62
     2
370
     9
100
AcDbText
 10
302.407967075997
 20
-527.8163950145996
 30
0.0
 40
30.48
  1
　　　クロスバー　ＳＵＳ３０４　＠１００
 41
1.11875
  7
ＭＳ ゴシック
100
AcDbText
  0
TEXT
  5
52
330
1F
100
AcDbEntity
  8
D-5
  6
Continuous
 62
     2
370
     9
100
AcDbText
 10
302.407967075997
 20
-592.8166048229493
 30
0.0
 40
30.48
  1
　　　サイドバー　ＳＵＳ３０４
 41
1.116666666666667
  7
ＭＳ ゴシック
100
AcDbText
  0
TEXT
  5
53
330
1F
100
AcDbEntity
  8
D-5
  6
Continuous
 62
     2
370
     9
100
AcDbText
 10
302.4074330183798
 20
-749.5253380772399
 30
0.0
 40
30.48
  1
材質：冷間圧延ステンレス鋼板（ＳＵＳ３０４－２Ｂ）
 41
1.12
  7
ＭＳ ゴシック
100
AcDbText
  0
TEXT
  5
54
330
1F
100
AcDbEntity
  8
D-5
  6
Continuous
 62
     2
370
     9
100
AcDbText
 10
242.6955189558798
 20
-684.5257958409118
 30
0.0
 40
30.48
  1
ステンレス製受枠　ＳＦ１５Ｂ（四方枠）
 41
1.118421052631579
  7
ＭＳ ゴシック
100
AcDbText
  0
TEXT
  5
55
330
1F
100
AcDbEntity
  8
F-4ﾚｲﾔ
  6
Continuous
 62
     2
370
     9
100
AcDbText
 10
-845.3997081828237
 20
-1370.93982645808
 30
0.0
 40
30.48
  1
ＺＱ－Ｈ－１５　３５０×３５０×１５　ステンレス製受枠ＳＦ１５Ｂ（四方枠）
 41
0.7743243243243242
  7
ＭＳ ゴシック
100
AcDbText
  0
TEXT
  5
56
330
1F
100
AcDbEntity
  8
D-5
  6
Continuous
 62
     2
370
     9
100
AcDbText
 10
242.696053013497
 20
-397.8167001903809
 30
0.0
 40
30.48
  1
グレーチング（すきま６mm）　ＺＱ－Ｈ－１５　３５０×３５０×１５
 41
1.12109375
  7
ＭＳ ゴシック
100
AcDbText
  0
LINE
  5
57
330
1F
100
AcDbEntity
  8
D-4
  6
Continuous
 62
     7
370
     9
100
AcDbLine
 10
-1158.372182905282
 20
-277.5805345619477
 30
0.0
 11
-1158.372182905282
 21
-169.1164711559571
 31
0.0
  0
LINE
  5
58
330
1F
100
AcDbEntity
  8
D-4
  6
Continuous
 62
     7
370
     9
100
AcDbLine
 10
-1158.372182905282
 20
-172.1170357311524
 30
0.0
 11
-1033.372345029916
 21
-172.1170357311524
 31
0.0
  0
LINE
  5
59
330
1F
100
AcDbEntity
  8
D-4
  6
Continuous
 62
     7
370
     9
100
AcDbLine
 10
-1033.372345029916
 20
-277.5805345619477
 30
0.0
 11
-1033.372345029916
 21
-60.36504064448245
 31
0.0
  0
LINE
  5
5A
330
1F
100
AcDbEntity
  8
D-4
  6
Continuous
 62
     7
370
     9
100
AcDbLine
 10
-1028.372074424828
 20
-277.5805345619477
 30
0.0
 11
-1028.372074424828
 21
-60.36504064448245
 31
0.0
  0
LINE
  5
5B
330
1F
100
AcDbEntity
  8
D-4
  6
Continuous
 62
     7
370
     9
100
AcDbLine
 10
-1003.373196184243
 20
-277.5805345619477
 30
0.0
 11
-1003.373196184243
 21
50.33161844365232
 31
0.0
  0
LINE
  5
5C
330
1F
100
AcDbEntity
  8
D-4
  6
Continuous
 62
     7
370
     9
100
AcDbLine
 10
-1158.372182905282
 20
-853.1190422619142
 30
0.0
 11
-758.3713150616538
 21
-853.1190422619142
 31
0.0
  0
LINE
  5
5D
330
1F
100
AcDbEntity
  8
D-4
  6
Continuous
 62
     7
370
     9
100
AcDbLine
 10
-758.3713150616538
 20
-612.9098442638673
 30
0.0
 11
-758.3713150616538
 21
-856.1186150158204
 31
0.0
  0
LINE
  5
5E
330
1F
100
AcDbEntity
  8
D-4
  6
Continuous
 62
     7
370
     9
100
AcDbLine
 10
-1158.372182905282
 20
-698.6546639049806
 30
0.0
 11
-1008.372972070779
 21
-698.6546639049806
 31
0.0
  0
LINE
  5
5F
330
1F
100
AcDbEntity
  8
D-4
  6
Continuous
 62
     7
370
     9
100
AcDbLine
 10
-486.6869736309897
 20
-543.0358627880371
 30
0.0
 11
-486.6869736309897
 21
-293.0361870373047
 31
0.0
  0
LINE
  5
60
330
1F
100
AcDbEntity
  8
D-4
  6
Continuous
 62
     7
370
     9
100
AcDbLine
 10
-582.3421478863609
 20
-293.0361870373047
 30
0.0
 11
-483.6874008770835
 21
-293.0361870373047
 31
0.0
  0
LINE
  5
61
330
1F
100
AcDbEntity
  8
D-6
  6
Continuous
 62
     6
370
     5
100
AcDbLine
 10
-1008.372972070779
 20
-543.0358627880371
 30
0.0
 11
-1008.372972070779
 21
-793.0355385387696
 31
0.0
  0
LINE
  5
62
330
1F
100
AcDbEntity
  8
D-6
  6
JWW_DASHED3
 62
     6
370
     5
100
AcDbLine
 10
-914.8710823651206
 20
-670.5358437145509
 30
0.0
 11
-914.8710823651206
 21
-543.0358627880371
 31
0.0
  0
LINE
  5
63
330
1F
100
AcDbEntity
  8
D-6
  6
JWW_DASHED3
 62
     6
370
     5
100
AcDbLine
 10
-869.8706246014488
 20
-543.0358627880371
 30
0.0
 11
-869.8706246014488
 21
-670.5358437145509
 31
0.0
  0
LINE
  5
64
330
1F
100
AcDbEntity
  8
D-6
  6
Continuous
 62
     6
370
     5
100
AcDbLine
 10
-758.3723068829429
 20
-443.0363873089112
 30
0.0
 11
-593.3713150616538
 21
-443.0363873089112
 31
0.0
  0
LINE
  5
65
330
1F
100
AcDbEntity
  8
D-6
  6
Continuous
 62
     6
370
     5
100
AcDbLine
 10
-758.3723068829429
 20
-443.0363873089112
 30
0.0
 11
-758.3723068829429
 21
-543.0358627880371
 31
0.0
  0
LINE
  5
66
330
1F
100
AcDbEntity
  8
D-4
  6
Continuous
 62
     7
370
     9
100
AcDbLine
 10
-702.5934219952476
 20
-543.0358627880371
 30
0.0
 11
-483.6874008770835
 21
-543.0358627880371
 31
0.0
  0
LINE
  5
67
330
1F
100
AcDbEntity
  8
D-6
  6
Continuous
 62
     6
370
     5
100
AcDbLine
 10
-1008.372972070779
 20
-543.0358627880371
 30
0.0
 11
-758.3723068829429
 21
-543.0358627880371
 31
0.0
  0
LINE
  5
68
330
1F
100
AcDbEntity
  8
D-6
  6
Continuous
 62
     6
370
     5
100
AcDbLine
 10
-914.8710823651206
 20
-345.536058291272
 30
0.0
 11
-869.8706246014488
 21
-345.536058291272
 31
0.0
  0
LINE
  5
69
330
1F
100
AcDbEntity
  8
D-6
  6
JWW_CENTER2
 62
     6
370
     5
100
AcDbLine
 10
-892.3708534832847
 20
-341.4568642223633
 30
0.0
 11
-892.3708534832847
 21
-670.5358437145509
 31
0.0
  0
LINE
  5
6A
330
1F
100
AcDbEntity
  8
D-4
  6
Continuous
 62
     7
370
     9
100
AcDbLine
 10
-1003.373196184243
 20
-431.0034302318848
 30
0.0
 11
-1003.373196184243
 21
-502.3459747875489
 31
0.0
  0
LINE
  5
6B
330
1F
100
AcDbEntity
  8
D-6
  6
Continuous
 62
     6
370
     5
100
AcDbLine
 10
-914.8710823651206
 20
-378.0358341778077
 30
0.0
 11
-914.8710823651206
 21
-345.536058291272
 31
0.0
  0
LINE
  5
6C
330
1F
100
AcDbEntity
  8
D-6
  6
Continuous
 62
     6
370
     5
100
AcDbLine
 10
-869.8706246014488
 20
-378.0358341778077
 30
0.0
 11
-869.8706246014488
 21
-345.536058291272
 31
0.0
  0
LINE
  5
6D
330
1F
100
AcDbEntity
  8
D-6
  6
Continuous
 62
     6
370
     5
100
AcDbLine
 10
-914.8710823651206
 20
-543.0358627880371
 30
0.0
 11
-914.8710823651206
 21
-428.0355766857422
 31
0.0
  0
LINE
  5
6E
330
1F
100
AcDbEntity
  8
D-6
  6
Continuous
 62
     6
370
     5
100
AcDbLine
 10
-869.8706246014488
 20
-543.0358627880371
 30
0.0
 11
-869.8706246014488
 21
-428.0355766857422
 31
0.0
  0
LINE
  5
6F
330
1F
100
AcDbEntity
  8
D-4
  6
Continuous
 62
     7
370
     9
100
AcDbLine
 10
-1303.854694425668
 20
-418.0360249126709
 30
0.0
 11
-1303.854694425668
 21
-293.0361870373047
 31
0.0
  0
LINE
  5
70
330
1F
100
AcDbEntity
  8
D-4
  6
Continuous
 62
     7
370
     9
100
AcDbLine
 10
-1031.517309903706
 20
-293.0361870373047
 30
0.0
 11
-1306.855259000863
 21
-293.0361870373047
 31
0.0
  0
LINE
  5
71
330
1F
100
AcDbEntity
  8
D-4
  6
Continuous
 62
     7
370
     9
100
AcDbLine
 10
-1003.373196184243
 20
-499.3454292858399
 30
0.0
 11
-858.3727646466148
 21
-499.3454292858399
 31
0.0
  0
LINE
  5
72
330
1F
100
AcDbEntity
  8
D-4
  6
Continuous
 62
     7
370
     9
100
AcDbLine
 10
-1158.372182905282
 20
-818.0358818615235
 30
0.0
 11
-1158.372182905282
 21
-856.1186150158204
 31
0.0
  0
LINE
  5
73
330
1F
100
AcDbEntity
  8
D-5
  6
Continuous
 62
     7
370
     9
100
AcDbLine
 10
-1010.315210878457
 20
-293.0361870373047
 30
0.0
 11
-996.5045142765891
 21
-272.1977618778504
 31
0.0
  0
LINE
  5
74
330
1F
100
AcDbEntity
  8
D-5
  6
Continuous
 62
     7
370
     9
100
AcDbLine
 10
-1010.315210878457
 20
-293.0361870373047
 30
0.0
 11
-991.5815353985679
 21
-276.4820793712891
 31
0.0
  0
LINE
  5
75
330
1F
100
AcDbEntity
  8
D-6
  6
Continuous
 62
     6
370
     5
100
AcDbLine
 10
-758.3723068829429
 20
-490.3759506786622
 30
0.0
 11
-711.0322571392906
 21
-443.0358913982666
 31
0.0
  0
LINE
  5
76
330
1F
100
AcDbEntity
  8
D-6
  6
Continuous
 62
     6
370
     5
100
AcDbLine
 10
-1008.371982633675
 20
-740.3736427868165
 30
0.0
 11
-811.0327149029624
 21
-543.0358627880371
 31
0.0
  0
LINE
  5
77
330
1F
100
AcDbEntity
  8
D-6
  6
Continuous
 62
     6
370
     5
100
AcDbLine
 10
-1008.371982633675
 20
-754.5143059337892
 30
0.0
 11
-796.8920326825034
 21
-543.0358627880371
 31
0.0
  0
LINE
  5
78
330
1F
100
AcDbEntity
  8
D-6
  6
Continuous
 62
     6
370
     5
100
AcDbLine
 10
-758.3723068829429
 20
-504.5166328991211
 30
0.0
 11
-696.8915558453452
 21
-443.0358913982666
 31
0.0
  0
LINE
  5
79
330
1F
100
AcDbEntity
  8
D-6
  6
Continuous
 62
     6
370
     5
100
AcDbLine
 10
-1008.371982633675
 20
-768.6550072277345
 30
0.0
 11
-782.7513504620445
 21
-543.0358627880371
 31
0.0
  0
LINE
  5
7A
330
1F
100
AcDbEntity
  8
D-6
  6
Continuous
 62
     6
370
     5
100
AcDbLine
 10
-758.3723068829429
 20
-518.6573151195801
 30
0.0
 11
-682.7508926983726
 21
-443.0358913982666
 31
0.0
  0
LINE
  5
7B
330
1F
100
AcDbEntity
  8
D-6
  6
Continuous
 62
     6
370
     5
100
AcDbLine
 10
-669.1998291607749
 20
-793.0355385387696
 30
0.0
 11
-593.3713150616538
 21
-717.2075203502931
 31
0.0
  0
LINE
  5
7C
330
1F
100
AcDbEntity
  8
D-6
  6
Continuous
 62
     6
370
     5
100
AcDbLine
 10
-683.3404923077476
 20
-793.0355385387696
 30
0.0
 11
-593.3713150616538
 21
-703.0668190563478
 31
0.0
  0
LINE
  5
7D
330
1F
100
AcDbEntity
  8
D-6
  6
Continuous
 62
     6
370
     5
100
AcDbLine
 10
-655.0591278668296
 20
-793.0355385387696
 30
0.0
 11
-593.3713150616538
 21
-731.3481834972657
 31
0.0
  0
LINE
  5
7E
330
1F
100
AcDbEntity
  8
D-0
  6
Continuous
 62
     7
370
     9
100
AcDbLine
 10
-731.5268135662925
 20
-313.9855984295166
 30
0.0
 11
-731.5268135662925
 21
-312.4853185261048
 31
0.0
  0
LINE
  5
7F
330
1F
100
AcDbEntity
  8
D-0
  6
Continuous
 62
     7
370
     9
100
AcDbLine
 10
-731.5268135662925
 20
-312.4853185261048
 30
0.0
 11
-730.0270462628257
 21
-312.4853185261048
 31
0.0
  0
LINE
  5
80
330
1F
100
AcDbEntity
  8
D-0
  6
Continuous
 62
     7
370
     9
100
AcDbLine
 10
-730.0270462628257
 20
-312.4853185261048
 30
0.0
 11
-730.0270462628257
 21
-313.9855984295166
 31
0.0
  0
LINE
  5
81
330
1F
100
AcDbEntity
  8
D-0
  6
Continuous
 62
     7
370
     9
100
AcDbLine
 10
-730.0270462628257
 20
-313.9855984295166
 30
0.0
 11
-731.5268135662925
 21
-313.9855984295166
 31
0.0
  0
LINE
  5
82
330
1F
100
AcDbEntity
  8
D-0
  6
Continuous
 62
     7
370
     9
100
AcDbLine
 10
-680.7709885235679
 20
-316.6928390110291
 30
0.0
 11
-680.7709885235679
 21
-315.1925591076172
 31
0.0
  0
LINE
  5
83
330
1F
100
AcDbEntity
  8
D-0
  6
Continuous
 62
     7
370
     9
100
AcDbLine
 10
-680.7709885235679
 20
-315.1925591076172
 30
0.0
 11
-679.2707062359702
 21
-315.1925591076172
 31
0.0
  0
LINE
  5
84
330
1F
100
AcDbEntity
  8
D-0
  6
Continuous
 62
     7
370
     9
100
AcDbLine
 10
-679.2707062359702
 20
-315.1925591076172
 30
0.0
 11
-679.2707062359702
 21
-316.6928390110291
 31
0.0
  0
LINE
  5
85
330
1F
100
AcDbEntity
  8
D-0
  6
Continuous
 62
     7
370
     9
100
AcDbLine
 10
-679.2707062359702
 20
-316.6928390110291
 30
0.0
 11
-680.7709885235679
 21
-316.6928390110291
 31
0.0
  0
LINE
  5
86
330
1F
100
AcDbEntity
  8
D-0
  6
Continuous
 62
     7
370
     9
100
AcDbLine
 10
-615.8031464215171
 20
-314.6624091709412
 30
0.0
 11
-615.8031464215171
 21
-313.1621292675293
 31
0.0
  0
LINE
  5
87
330
1F
100
AcDbEntity
  8
D-0
  6
Continuous
 62
     7
370
     9
100
AcDbLine
 10
-615.8031464215171
 20
-313.1621292675293
 30
0.0
 11
-614.303360044564
 21
-313.1621292675293
 31
0.0
  0
LINE
  5
88
330
1F
100
AcDbEntity
  8
D-0
  6
Continuous
 62
     7
370
     9
100
AcDbLine
 10
-614.303360044564
 20
-313.1621292675293
 30
0.0
 11
-614.303360044564
 21
-314.6624091709412
 31
0.0
  0
LINE
  5
89
330
1F
100
AcDbEntity
  8
D-0
  6
Continuous
 62
     7
370
     9
100
AcDbLine
 10
-614.303360044564
 20
-314.6624091709412
 30
0.0
 11
-615.8031464215171
 21
-314.6624091709412
 31
0.0
  0
LINE
  5
8A
330
1F
100
AcDbEntity
  8
D-0
  6
Continuous
 62
     7
370
     9
100
AcDbLine
 10
-640.1663590069663
 20
-347.1463326061524
 30
0.0
 11
-640.1663590069663
 21
-345.6460503185547
 31
0.0
  0
LINE
  5
8B
330
1F
100
AcDbEntity
  8
D-0
  6
Continuous
 62
     7
370
     9
100
AcDbLine
 10
-640.1663590069663
 20
-345.6460503185547
 30
0.0
 11
-638.6660767193687
 21
-345.6460503185547
 31
0.0
  0
LINE
  5
8C
330
1F
100
AcDbEntity
  8
D-0
  6
Continuous
 62
     7
370
     9
100
AcDbLine
 10
-638.6660767193687
 20
-345.6460503185547
 30
0.0
 11
-638.6660767193687
 21
-347.1463326061524
 31
0.0
  0
LINE
  5
8D
330
1F
100
AcDbEntity
  8
D-0
  6
Continuous
 62
     7
370
     9
100
AcDbLine
 10
-638.6660767193687
 20
-347.1463326061524
 30
0.0
 11
-640.1663590069663
 21
-347.1463326061524
 31
0.0
  0
LINE
  5
8E
330
1F
100
AcDbEntity
  8
D-0
  6
Continuous
 62
     7
370
     9
100
AcDbLine
 10
-690.7313919659507
 20
-351.0773829067505
 30
0.0
 11
-690.7313919659507
 21
-349.5771006191529
 31
0.0
  0
LINE
  5
8F
330
1F
100
AcDbEntity
  8
D-0
  6
Continuous
 62
     7
370
     9
100
AcDbLine
 10
-690.7313919659507
 20
-349.5771006191529
 30
0.0
 11
-689.2316437359702
 21
-349.5771006191529
 31
0.0
  0
LINE
  5
90
330
1F
100
AcDbEntity
  8
D-0
  6
Continuous
 62
     7
370
     9
100
AcDbLine
 10
-689.2316437359702
 20
-349.5771006191529
 30
0.0
 11
-689.2316437359702
 21
-351.0773829067505
 31
0.0
  0
LINE
  5
91
330
1F
100
AcDbEntity
  8
D-0
  6
Continuous
 62
     7
370
     9
100
AcDbLine
 10
-689.2316437359702
 20
-351.0773829067505
 30
0.0
 11
-690.7313919659507
 21
-351.0773829067505
 31
0.0
  0
LINE
  5
92
330
1F
100
AcDbEntity
  8
D-0
  6
Continuous
 62
     7
370
     9
100
AcDbLine
 10
-707.8409195538413
 20
-385.0442436779297
 30
0.0
 11
-707.8409195538413
 21
-383.5439613903321
 31
0.0
  0
LINE
  5
93
330
1F
100
AcDbEntity
  8
D-0
  6
Continuous
 62
     7
370
     9
100
AcDbLine
 10
-707.8409195538413
 20
-383.5439613903321
 30
0.0
 11
-706.3406754132163
 21
-383.5439613903321
 31
0.0
  0
LINE
  5
94
330
1F
100
AcDbEntity
  8
D-0
  6
Continuous
 62
     7
370
     9
100
AcDbLine
 10
-706.3406754132163
 20
-383.5439613903321
 30
0.0
 11
-706.3406754132163
 21
-385.0442436779297
 31
0.0
  0
LINE
  5
95
330
1F
100
AcDbEntity
  8
D-0
  6
Continuous
 62
     7
370
     9
100
AcDbLine
 10
-706.3406754132163
 20
-385.0442436779297
 30
0.0
 11
-707.8409195538413
 21
-385.0442436779297
 31
0.0
  0
LINE
  5
96
330
1F
100
AcDbEntity
  8
D-0
  6
Continuous
 62
     7
370
     9
100
AcDbLine
 10
-739.1971779461753
 20
-370.4725054348267
 30
0.0
 11
-739.1971779461753
 21
-368.9722279156006
 31
0.0
  0
LINE
  5
97
330
1F
100
AcDbEntity
  8
D-0
  6
Continuous
 62
     7
370
     9
100
AcDbLine
 10
-739.1971779461753
 20
-368.9722279156006
 30
0.0
 11
-737.6973915692222
 21
-368.9722279156006
 31
0.0
  0
LINE
  5
98
330
1F
100
AcDbEntity
  8
D-0
  6
Continuous
 62
     7
370
     9
100
AcDbLine
 10
-737.6973915692222
 20
-368.9722279156006
 30
0.0
 11
-737.6973915692222
 21
-370.4725054348267
 31
0.0
  0
LINE
  5
99
330
1F
100
AcDbEntity
  8
D-0
  6
Continuous
 62
     7
370
     9
100
AcDbLine
 10
-737.6973915692222
 20
-370.4725054348267
 30
0.0
 11
-739.1971779461753
 21
-370.4725054348267
 31
0.0
  0
LINE
  5
9A
330
1F
100
AcDbEntity
  8
D-0
  6
Continuous
 62
     7
370
     9
100
AcDbLine
 10
-749.9215889569175
 20
-411.6925362194336
 30
0.0
 11
-749.9215889569175
 21
-410.192253931836
 31
0.0
  0
LINE
  5
9B
330
1F
100
AcDbEntity
  8
D-0
  6
Continuous
 62
     7
370
     9
100
AcDbLine
 10
-749.9215889569175
 20
-410.192253931836
 30
0.0
 11
-748.4213066693198
 21
-410.192253931836
 31
0.0
  0
LINE
  5
9C
330
1F
100
AcDbEntity
  8
D-0
  6
Continuous
 62
     7
370
     9
100
AcDbLine
 10
-748.4213066693198
 20
-410.192253931836
 30
0.0
 11
-748.4213066693198
 21
-411.6925362194336
 31
0.0
  0
LINE
  5
9D
330
1F
100
AcDbEntity
  8
D-0
  6
Continuous
 62
     7
370
     9
100
AcDbLine
 10
-748.4213066693198
 20
-411.6925362194336
 30
0.0
 11
-749.9215889569175
 21
-411.6925362194336
 31
0.0
  0
LINE
  5
9E
330
1F
100
AcDbEntity
  8
D-0
  6
Continuous
 62
     7
370
     9
100
AcDbLine
 10
-712.5781250592124
 20
-420.2349117840088
 30
0.0
 11
-712.5781250592124
 21
-418.7346294964112
 31
0.0
  0
LINE
  5
9F
330
1F
100
AcDbEntity
  8
D-0
  6
Continuous
 62
     7
370
     9
100
AcDbLine
 10
-712.5781250592124
 20
-418.7346294964112
 30
0.0
 11
-711.0778427716148
 21
-418.7346294964112
 31
0.0
  0
LINE
  5
A0
330
1F
100
AcDbEntity
  8
D-0
  6
Continuous
 62
     7
370
     9
100
AcDbLine
 10
-711.0778427716148
 20
-418.7346294964112
 30
0.0
 11
-711.0778427716148
 21
-420.2349117840088
 31
0.0
  0
LINE
  5
A1
330
1F
100
AcDbEntity
  8
D-0
  6
Continuous
 62
     7
370
     9
100
AcDbLine
 10
-711.0778427716148
 20
-420.2349117840088
 30
0.0
 11
-712.5781250592124
 21
-420.2349117840088
 31
0.0
  0
LINE
  5
A2
330
1F
100
AcDbEntity
  8
D-0
  6
Continuous
 62
     7
370
     9
100
AcDbLine
 10
-660.3730393048179
 20
-424.9597004497803
 30
0.0
 11
-660.3730393048179
 21
-423.4594276989258
 31
0.0
  0
LINE
  5
A3
330
1F
100
AcDbEntity
  8
D-0
  6
Continuous
 62
     7
370
     9
100
AcDbLine
 10
-660.3730393048179
 20
-423.4594276989258
 30
0.0
 11
-658.8732529278648
 21
-423.4594276989258
 31
0.0
  0
LINE
  5
A4
330
1F
100
AcDbEntity
  8
D-0
  6
Continuous
 62
     7
370
     9
100
AcDbLine
 10
-658.8732529278648
 20
-423.4594276989258
 30
0.0
 11
-658.8732529278648
 21
-424.9597004497803
 31
0.0
  0
LINE
  5
A5
330
1F
100
AcDbEntity
  8
D-0
  6
Continuous
 62
     7
370
     9
100
AcDbLine
 10
-658.8732529278648
 20
-424.9597004497803
 30
0.0
 11
-660.3730393048179
 21
-424.9597004497803
 31
0.0
  0
LINE
  5
A6
330
1F
100
AcDbEntity
  8
D-0
  6
Continuous
 62
     7
370
     9
100
AcDbLine
 10
-605.6519699688804
 20
-418.2044819439209
 30
0.0
 11
-605.6519699688804
 21
-416.7041996563233
 31
0.0
  0
LINE
  5
A7
330
1F
100
AcDbEntity
  8
D-0
  6
Continuous
 62
     7
370
     9
100
AcDbLine
 10
-605.6519699688804
 20
-416.7041996563233
 30
0.0
 11
-604.1522217388999
 21
-416.7041996563233
 31
0.0
  0
LINE
  5
A8
330
1F
100
AcDbEntity
  8
D-0
  6
Continuous
 62
     7
370
     9
100
AcDbLine
 10
-604.1522217388999
 20
-416.7041996563233
 30
0.0
 11
-604.1522217388999
 21
-418.2044819439209
 31
0.0
  0
LINE
  5
A9
330
1F
100
AcDbEntity
  8
D-0
  6
Continuous
 62
     7
370
     9
100
AcDbLine
 10
-604.1522217388999
 20
-418.2044819439209
 30
0.0
 11
-605.6519699688804
 21
-418.2044819439209
 31
0.0
  0
LINE
  5
AA
330
1F
100
AcDbEntity
  8
D-0
  6
Continuous
 62
     7
370
     9
100
AcDbLine
 10
-617.8335953350913
 20
-378.2766369427002
 30
0.0
 11
-617.8335953350913
 21
-376.7763546551026
 31
0.0
  0
LINE
  5
AB
330
1F
100
AcDbEntity
  8
D-0
  6
Continuous
 62
     7
370
     9
100
AcDbLine
 10
-617.8335953350913
 20
-376.7763546551026
 30
0.0
 11
-616.3333130474937
 21
-376.7763546551026
 31
0.0
  0
LINE
  5
AC
330
1F
100
AcDbEntity
  8
D-0
  6
Continuous
 62
     7
370
     9
100
AcDbLine
 10
-616.3333130474937
 20
-376.7763546551026
 30
0.0
 11
-616.3333130474937
 21
-378.2766369427002
 31
0.0
  0
LINE
  5
AD
330
1F
100
AcDbEntity
  8
D-0
  6
Continuous
 62
     7
370
     9
100
AcDbLine
 10
-616.3333130474937
 20
-378.2766369427002
 30
0.0
 11
-617.8335953350913
 21
-378.2766369427002
 31
0.0
  0
LINE
  5
AE
330
1F
100
AcDbEntity
  8
D-0
  6
Continuous
 62
     7
370
     9
100
AcDbLine
 10
-658.8623428936851
 20
-387.3942497814454
 30
0.0
 11
-658.8623428936851
 21
-385.8939674938477
 31
0.0
  0
LINE
  5
AF
330
1F
100
AcDbEntity
  8
D-0
  6
Continuous
 62
     7
370
     9
100
AcDbLine
 10
-658.8623428936851
 20
-385.8939674938477
 30
0.0
 11
-657.3625946637046
 21
-385.8939674938477
 31
0.0
  0
LINE
  5
B0
330
1F
100
AcDbEntity
  8
D-0
  6
Continuous
 62
     7
370
     9
100
AcDbLine
 10
-657.3625946637046
 20
-385.8939674938477
 30
0.0
 11
-657.3625946637046
 21
-387.3942497814454
 31
0.0
  0
LINE
  5
B1
330
1F
100
AcDbEntity
  8
D-0
  6
Continuous
 62
     7
370
     9
100
AcDbLine
 10
-657.3625946637046
 20
-387.3942497814454
 30
0.0
 11
-658.8623428936851
 21
-387.3942497814454
 31
0.0
  0
LINE
  5
B2
330
1F
100
AcDbEntity
  8
D-0
  6
Continuous
 62
     7
370
     9
100
AcDbLine
 10
-598.3775330181968
 20
-347.9058865154541
 30
0.0
 11
-598.3775330181968
 21
-346.4056042278565
 31
0.0
  0
LINE
  5
B3
330
1F
100
AcDbEntity
  8
D-0
  6
Continuous
 62
     7
370
     9
100
AcDbLine
 10
-598.3775330181968
 20
-346.4056042278565
 30
0.0
 11
-596.8772507305991
 21
-346.4056042278565
 31
0.0
  0
LINE
  5
B4
330
1F
100
AcDbEntity
  8
D-0
  6
Continuous
 62
     7
370
     9
100
AcDbLine
 10
-596.8772507305991
 20
-346.4056042278565
 30
0.0
 11
-596.8772507305991
 21
-347.9058865154541
 31
0.0
  0
LINE
  5
B5
330
1F
100
AcDbEntity
  8
D-0
  6
Continuous
 62
     7
370
     9
100
AcDbLine
 10
-596.8772507305991
 20
-347.9058865154541
 30
0.0
 11
-598.3775330181968
 21
-347.9058865154541
 31
0.0
  0
LINE
  5
B6
330
1F
100
AcDbEntity
  8
D-0
  6
Continuous
 62
     7
370
     9
100
AcDbLine
 10
-752.3781204815757
 20
-337.0130041683472
 30
0.0
 11
-752.3781204815757
 21
-335.5127266491211
 31
0.0
  0
LINE
  5
B7
330
1F
100
AcDbEntity
  8
D-0
  6
Continuous
 62
     7
370
     9
100
AcDbLine
 10
-752.3781204815757
 20
-335.5127266491211
 30
0.0
 11
-750.8778572674644
 21
-335.5127266491211
 31
0.0
  0
LINE
  5
B8
330
1F
100
AcDbEntity
  8
D-0
  6
Continuous
 62
     7
370
     9
100
AcDbLine
 10
-750.8778572674644
 20
-335.5127266491211
 30
0.0
 11
-750.8778572674644
 21
-337.0130041683472
 31
0.0
  0
LINE
  5
B9
330
1F
100
AcDbEntity
  8
D-0
  6
Continuous
 62
     7
370
     9
100
AcDbLine
 10
-750.8778572674644
 20
-337.0130041683472
 30
0.0
 11
-752.3781204815757
 21
-337.0130041683472
 31
0.0
  0
LINE
  5
BA
330
1F
100
AcDbEntity
  8
D-0
  6
Continuous
 62
     7
370
     9
100
AcDbLine
 10
-835.72786337098
 20
-460.2633408153809
 30
0.0
 11
-835.72786337098
 21
-458.7630585277832
 31
0.0
  0
LINE
  5
BB
330
1F
100
AcDbEntity
  8
D-0
  6
Continuous
 62
     7
370
     9
100
AcDbLine
 10
-835.72786337098
 20
-458.7630585277832
 30
0.0
 11
-834.2275810833823
 21
-458.7630585277832
 31
0.0
  0
LINE
  5
BC
330
1F
100
AcDbEntity
  8
D-0
  6
Continuous
 62
     7
370
     9
100
AcDbLine
 10
-834.2275810833823
 20
-458.7630585277832
 30
0.0
 11
-834.2275810833823
 21
-460.2633408153809
 31
0.0
  0
LINE
  5
BD
330
1F
100
AcDbEntity
  8
D-0
  6
Continuous
 62
     7
370
     9
100
AcDbLine
 10
-834.2275810833823
 20
-460.2633408153809
 30
0.0
 11
-835.72786337098
 21
-460.2633408153809
 31
0.0
  0
LINE
  5
BE
330
1F
100
AcDbEntity
  8
D-0
  6
Continuous
 62
     7
370
     9
100
AcDbLine
 10
-786.3633156414878
 20
-468.1616142833985
 30
0.0
 11
-786.3633156414878
 21
-466.6613319958008
 31
0.0
  0
LINE
  5
BF
330
1F
100
AcDbEntity
  8
D-0
  6
Continuous
 62
     7
370
     9
100
AcDbLine
 10
-786.3633156414878
 20
-466.6613319958008
 30
0.0
 11
-784.8630524273765
 21
-466.6613319958008
 31
0.0
  0
LINE
  5
C0
330
1F
100
AcDbEntity
  8
D-0
  6
Continuous
 62
     7
370
     9
100
AcDbLine
 10
-784.8630524273765
 20
-466.6613319958008
 30
0.0
 11
-784.8630524273765
 21
-468.1616142833985
 31
0.0
  0
LINE
  5
C1
330
1F
100
AcDbEntity
  8
D-0
  6
Continuous
 62
     7
370
     9
100
AcDbLine
 10
-784.8630524273765
 20
-468.1616142833985
 30
0.0
 11
-786.3633156414878
 21
-468.1616142833985
 31
0.0
  0
LINE
  5
C2
330
1F
100
AcDbEntity
  8
D-0
  6
Continuous
 62
     7
370
     9
100
AcDbLine
 10
-803.2444382305991
 20
-488.7423828686036
 30
0.0
 11
-803.2444382305991
 21
-487.2421196544922
 31
0.0
  0
LINE
  5
C3
330
1F
100
AcDbEntity
  8
D-0
  6
Continuous
 62
     7
370
     9
100
AcDbLine
 10
-803.2444382305991
 20
-487.2421196544922
 30
0.0
 11
-801.744651853646
 21
-487.2421196544922
 31
0.0
  0
LINE
  5
C4
330
1F
100
AcDbEntity
  8
D-0
  6
Continuous
 62
     7
370
     9
100
AcDbLine
 10
-801.744651853646
 20
-487.2421196544922
 30
0.0
 11
-801.744651853646
 21
-488.7423828686036
 31
0.0
  0
LINE
  5
C5
330
1F
100
AcDbEntity
  8
D-0
  6
Continuous
 62
     7
370
     9
100
AcDbLine
 10
-801.744651853646
 20
-488.7423828686036
 30
0.0
 11
-803.2444382305991
 21
-488.7423828686036
 31
0.0
  0
LINE
  5
C6
330
1F
100
AcDbEntity
  8
D-0
  6
Continuous
 62
     7
370
     9
100
AcDbLine
 10
-851.5244103070152
 20
-523.4504822338379
 30
0.0
 11
-851.5244103070152
 21
-521.9501999462402
 31
0.0
  0
LINE
  5
C7
330
1F
100
AcDbEntity
  8
D-0
  6
Continuous
 62
     7
370
     9
100
AcDbLine
 10
-851.5244103070152
 20
-521.9501999462402
 30
0.0
 11
-850.024623930062
 21
-521.9501999462402
 31
0.0
  0
LINE
  5
C8
330
1F
100
AcDbEntity
  8
D-0
  6
Continuous
 62
     7
370
     9
100
AcDbLine
 10
-850.024623930062
 20
-521.9501999462402
 30
0.0
 11
-850.024623930062
 21
-523.4504822338379
 31
0.0
  0
LINE
  5
C9
330
1F
100
AcDbEntity
  8
D-0
  6
Continuous
 62
     7
370
     9
100
AcDbLine
 10
-850.024623930062
 20
-523.4504822338379
 30
0.0
 11
-851.5244103070152
 21
-523.4504822338379
 31
0.0
  0
LINE
  5
CA
330
1F
100
AcDbEntity
  8
D-0
  6
Continuous
 62
     7
370
     9
100
AcDbLine
 10
-780.4394913311851
 20
-521.4755371654785
 30
0.0
 11
-780.4394913311851
 21
-519.9752548778808
 31
0.0
  0
LINE
  5
CB
330
1F
100
AcDbEntity
  8
D-0
  6
Continuous
 62
     7
370
     9
100
AcDbLine
 10
-780.4394913311851
 20
-519.9752548778808
 30
0.0
 11
-778.9392281170738
 21
-519.9752548778808
 31
0.0
  0
LINE
  5
CC
330
1F
100
AcDbEntity
  8
D-0
  6
Continuous
 62
     7
370
     9
100
AcDbLine
 10
-778.9392281170738
 20
-519.9752548778808
 30
0.0
 11
-778.9392281170738
 21
-521.4755371654785
 31
0.0
  0
LINE
  5
CD
330
1F
100
AcDbEntity
  8
D-0
  6
Continuous
 62
     7
370
     9
100
AcDbLine
 10
-778.9392281170738
 20
-521.4755371654785
 30
0.0
 11
-780.4394913311851
 21
-521.4755371654785
 31
0.0
  0
LINE
  5
CE
330
1F
100
AcDbEntity
  8
D-0
  6
Continuous
 62
     7
370
     9
100
AcDbLine
 10
-837.7023125286948
 20
-489.8824623668946
 30
0.0
 11
-837.7023125286948
 21
-488.3821800792969
 31
0.0
  0
LINE
  5
CF
330
1F
100
AcDbEntity
  8
D-0
  6
Continuous
 62
     7
370
     9
100
AcDbLine
 10
-837.7023125286948
 20
-488.3821800792969
 30
0.0
 11
-836.2025261517417
 21
-488.3821800792969
 31
0.0
  0
LINE
  5
D0
330
1F
100
AcDbEntity
  8
D-0
  6
Continuous
 62
     7
370
     9
100
AcDbLine
 10
-836.2025261517417
 20
-488.3821800792969
 30
0.0
 11
-836.2025261517417
 21
-489.8824623668946
 31
0.0
  0
LINE
  5
D1
330
1F
100
AcDbEntity
  8
D-0
  6
Continuous
 62
     7
370
     9
100
AcDbLine
 10
-836.2025261517417
 20
-489.8824623668946
 30
0.0
 11
-837.7023125286948
 21
-489.8824623668946
 31
0.0
  0
LINE
  5
D2
330
1F
100
AcDbEntity
  8
D-0
  6
Continuous
 62
     7
370
     9
100
AcDbLine
 10
-805.8352470990073
 20
-446.0037449444092
 30
0.0
 11
-805.8352470990073
 21
-444.5034721935547
 31
0.0
  0
LINE
  5
D3
330
1F
100
AcDbEntity
  8
D-0
  6
Continuous
 62
     7
370
     9
100
AcDbLine
 10
-805.8352470990073
 20
-444.5034721935547
 30
0.0
 11
-804.3349648114097
 21
-444.5034721935547
 31
0.0
  0
LINE
  5
D4
330
1F
100
AcDbEntity
  8
D-0
  6
Continuous
 62
     7
370
     9
100
AcDbLine
 10
-804.3349648114097
 20
-444.5034721935547
 30
0.0
 11
-804.3349648114097
 21
-446.0037449444092
 31
0.0
  0
LINE
  5
D5
330
1F
100
AcDbEntity
  8
D-0
  6
Continuous
 62
     7
370
     9
100
AcDbLine
 10
-804.3349648114097
 20
-446.0037449444092
 30
0.0
 11
-805.8352470990073
 21
-446.0037449444092
 31
0.0
  0
LINE
  5
D6
330
1F
100
AcDbEntity
  8
D-0
  6
Continuous
 62
     7
370
     9
100
AcDbLine
 10
-815.118846952523
 20
-517.4434021557129
 30
0.0
 11
-815.118846952523
 21
-515.9431389416015
 31
0.0
  0
LINE
  5
D7
330
1F
100
AcDbEntity
  8
D-0
  6
Continuous
 62
     7
370
     9
100
AcDbLine
 10
-815.118846952523
 20
-515.9431389416015
 30
0.0
 11
-813.6185646649253
 21
-515.9431389416015
 31
0.0
  0
LINE
  5
D8
330
1F
100
AcDbEntity
  8
D-0
  6
Continuous
 62
     7
370
     9
100
AcDbLine
 10
-813.6185646649253
 20
-515.9431389416015
 30
0.0
 11
-813.6185646649253
 21
-517.4434021557129
 31
0.0
  0
LINE
  5
D9
330
1F
100
AcDbEntity
  8
D-0
  6
Continuous
 62
     7
370
     9
100
AcDbLine
 10
-813.6185646649253
 20
-517.4434021557129
 30
0.0
 11
-815.118846952523
 21
-517.4434021557129
 31
0.0
  0
LINE
  5
DA
330
1F
100
AcDbEntity
  8
D-0
  6
Continuous
 62
     7
370
     9
100
AcDbLine
 10
-978.2445049878013
 20
-307.5672951782502
 30
0.0
 11
-978.2445049878013
 21
-306.0670152748383
 31
0.0
  0
LINE
  5
DB
330
1F
100
AcDbEntity
  8
D-0
  6
Continuous
 62
     7
370
     9
100
AcDbLine
 10
-978.2445049878013
 20
-306.0670152748383
 30
0.0
 11
-976.7442274685752
 21
-306.0670152748383
 31
0.0
  0
LINE
  5
DC
330
1F
100
AcDbEntity
  8
D-0
  6
Continuous
 62
     7
370
     9
100
AcDbLine
 10
-976.7442274685752
 20
-306.0670152748383
 30
0.0
 11
-976.7442274685752
 21
-307.5672951782502
 31
0.0
  0
LINE
  5
DD
330
1F
100
AcDbEntity
  8
D-0
  6
Continuous
 62
     7
370
     9
100
AcDbLine
 10
-976.7442274685752
 20
-307.5672951782502
 30
0.0
 11
-978.2445049878013
 21
-307.5672951782502
 31
0.0
  0
LINE
  5
DE
330
1F
100
AcDbEntity
  8
D-0
  6
Continuous
 62
     7
370
     9
100
AcDbLine
 10
-956.9997978802573
 20
-323.3658126438416
 30
0.0
 11
-956.9997978802573
 21
-321.8655327404297
 31
0.0
  0
LINE
  5
DF
330
1F
100
AcDbEntity
  8
D-0
  6
Continuous
 62
     7
370
     9
100
AcDbLine
 10
-956.9997978802573
 20
-321.8655327404297
 30
0.0
 11
-955.4995155926597
 21
-321.8655327404297
 31
0.0
  0
LINE
  5
E0
330
1F
100
AcDbEntity
  8
D-0
  6
Continuous
 62
     7
370
     9
100
AcDbLine
 10
-955.4995155926597
 20
-321.8655327404297
 30
0.0
 11
-955.4995155926597
 21
-323.3658126438416
 31
0.0
  0
LINE
  5
E1
330
1F
100
AcDbEntity
  8
D-0
  6
Continuous
 62
     7
370
     9
100
AcDbLine
 10
-955.4995155926597
 20
-323.3658126438416
 30
0.0
 11
-956.9997978802573
 21
-323.3658126438416
 31
0.0
  0
LINE
  5
E2
330
1F
100
AcDbEntity
  8
D-0
  6
Continuous
 62
     7
370
     9
100
AcDbLine
 10
-933.1335640545738
 20
-364.4461182201661
 30
0.0
 11
-933.1335640545738
 21
-362.94584070094
 31
0.0
  0
LINE
  5
E3
330
1F
100
AcDbEntity
  8
D-0
  6
Continuous
 62
     7
370
     9
100
AcDbLine
 10
-933.1335640545738
 20
-362.94584070094
 30
0.0
 11
-931.6337776776206
 21
-362.94584070094
 31
0.0
  0
LINE
  5
E4
330
1F
100
AcDbEntity
  8
D-0
  6
Continuous
 62
     7
370
     9
100
AcDbLine
 10
-931.6337776776206
 20
-362.94584070094
 30
0.0
 11
-931.6337776776206
 21
-364.4461182201661
 31
0.0
  0
LINE
  5
E5
330
1F
100
AcDbEntity
  8
D-0
  6
Continuous
 62
     7
370
     9
100
AcDbLine
 10
-931.6337776776206
 20
-364.4461182201661
 30
0.0
 11
-933.1335640545738
 21
-364.4461182201661
 31
0.0
  0
LINE
  5
E6
330
1F
100
AcDbEntity
  8
D-0
  6
Continuous
 62
     7
370
     9
100
AcDbLine
 10
-887.3690891857993
 20
-311.4899221504486
 30
0.0
 11
-887.3690891857993
 21
-309.9896422470368
 31
0.0
  0
LINE
  5
E7
330
1F
100
AcDbEntity
  8
D-0
  6
Continuous
 62
     7
370
     9
100
AcDbLine
 10
-887.3690891857993
 20
-309.9896422470368
 30
0.0
 11
-885.8693123455894
 21
-309.9896422470368
 31
0.0
  0
LINE
  5
E8
330
1F
100
AcDbEntity
  8
D-0
  6
Continuous
 62
     7
370
     9
100
AcDbLine
 10
-885.8693123455894
 20
-309.9896422470368
 30
0.0
 11
-885.8693123455894
 21
-311.4899221504486
 31
0.0
  0
LINE
  5
E9
330
1F
100
AcDbEntity
  8
D-0
  6
Continuous
 62
     7
370
     9
100
AcDbLine
 10
-885.8693123455894
 20
-311.4899221504486
 30
0.0
 11
-887.3690891857993
 21
-311.4899221504486
 31
0.0
  0
LINE
  5
EA
330
1F
100
AcDbEntity
  8
D-0
  6
Continuous
 62
     7
370
     9
100
AcDbLine
 10
-839.8110199566734
 20
-306.0917893493927
 30
0.0
 11
-839.8110199566734
 21
-304.5915094459809
 31
0.0
  0
LINE
  5
EB
330
1F
100
AcDbEntity
  8
D-0
  6
Continuous
 62
     7
370
     9
100
AcDbLine
 10
-839.8110199566734
 20
-304.5915094459809
 30
0.0
 11
-838.3112335797202
 21
-304.5915094459809
 31
0.0
  0
LINE
  5
EC
330
1F
100
AcDbEntity
  8
D-0
  6
Continuous
 62
     7
370
     9
100
AcDbLine
 10
-838.3112335797202
 20
-304.5915094459809
 30
0.0
 11
-838.3112335797202
 21
-306.0917893493927
 31
0.0
  0
LINE
  5
ED
330
1F
100
AcDbEntity
  8
D-0
  6
Continuous
 62
     7
370
     9
100
AcDbLine
 10
-838.3112335797202
 20
-306.0917893493927
 30
0.0
 11
-839.8110199566734
 21
-306.0917893493927
 31
0.0
  0
LINE
  5
EE
330
1F
100
AcDbEntity
  8
D-0
  6
Continuous
 62
     7
370
     9
100
AcDbLine
 10
-859.4246483441245
 20
-327.6664808834351
 30
0.0
 11
-859.4246483441245
 21
-326.166203364209
 31
0.0
  0
LINE
  5
EF
330
1F
100
AcDbEntity
  8
D-0
  6
Continuous
 62
     7
370
     9
100
AcDbLine
 10
-859.4246483441245
 20
-326.166203364209
 30
0.0
 11
-857.9243660565269
 21
-326.166203364209
 31
0.0
  0
LINE
  5
F0
330
1F
100
AcDbEntity
  8
D-0
  6
Continuous
 62
     7
370
     9
100
AcDbLine
 10
-857.9243660565269
 20
-326.166203364209
 30
0.0
 11
-857.9243660565269
 21
-327.6664808834351
 31
0.0
  0
LINE
  5
F1
330
1F
100
AcDbEntity
  8
D-0
  6
Continuous
 62
     7
370
     9
100
AcDbLine
 10
-857.9243660565269
 20
-327.6664808834351
 30
0.0
 11
-859.4246483441245
 21
-327.6664808834351
 31
0.0
  0
LINE
  5
F2
330
1F
100
AcDbEntity
  8
D-0
  6
Continuous
 62
     7
370
     9
100
AcDbLine
 10
-835.0669098492515
 20
-363.7925985897339
 30
0.0
 11
-835.0669098492515
 21
-362.2923163021363
 31
0.0
  0
LINE
  5
F3
330
1F
100
AcDbEntity
  8
D-0
  6
Continuous
 62
     7
370
     9
100
AcDbLine
 10
-835.0669098492515
 20
-362.2923163021363
 30
0.0
 11
-833.5666275616538
 21
-362.2923163021363
 31
0.0
  0
LINE
  5
F4
330
1F
100
AcDbEntity
  8
D-0
  6
Continuous
 62
     7
370
     9
100
AcDbLine
 10
-833.5666275616538
 20
-362.2923163021363
 30
0.0
 11
-833.5666275616538
 21
-363.7925985897339
 31
0.0
  0
LINE
  5
F5
330
1F
100
AcDbEntity
  8
D-0
  6
Continuous
 62
     7
370
     9
100
AcDbLine
 10
-833.5666275616538
 20
-363.7925985897339
 30
0.0
 11
-835.0669098492515
 21
-363.7925985897339
 31
0.0
  0
LINE
  5
F6
330
1F
100
AcDbEntity
  8
D-0
  6
Continuous
 62
     7
370
     9
100
AcDbLine
 10
-831.1437988873374
 20
-402.3653343761719
 30
0.0
 11
-831.1437988873374
 21
-400.8650520885743
 31
0.0
  0
LINE
  5
F7
330
1F
100
AcDbEntity
  8
D-0
  6
Continuous
 62
     7
370
     9
100
AcDbLine
 10
-831.1437988873374
 20
-400.8650520885743
 30
0.0
 11
-829.6440125103843
 21
-400.8650520885743
 31
0.0
  0
LINE
  5
F8
330
1F
100
AcDbEntity
  8
D-0
  6
Continuous
 62
     7
370
     9
100
AcDbLine
 10
-829.6440125103843
 20
-400.8650520885743
 30
0.0
 11
-829.6440125103843
 21
-402.3653343761719
 31
0.0
  0
LINE
  5
F9
330
1F
100
AcDbEntity
  8
D-0
  6
Continuous
 62
     7
370
     9
100
AcDbLine
 10
-829.6440125103843
 20
-402.3653343761719
 30
0.0
 11
-831.1437988873374
 21
-402.3653343761719
 31
0.0
  0
LINE
  5
FA
330
1F
100
AcDbEntity
  8
D-0
  6
Continuous
 62
     7
370
     9
100
AcDbLine
 10
-906.8127728100669
 20
-325.9913018787659
 30
0.0
 11
-906.8127728100669
 21
-324.491021975354
 31
0.0
  0
LINE
  5
FB
330
1F
100
AcDbEntity
  8
D-0
  6
Continuous
 62
     7
370
     9
100
AcDbLine
 10
-906.8127728100669
 20
-324.491021975354
 30
0.0
 11
-905.3124905224693
 21
-324.491021975354
 31
0.0
  0
LINE
  5
FC
330
1F
100
AcDbEntity
  8
D-0
  6
Continuous
 62
     7
370
     9
100
AcDbLine
 10
-905.3124905224693
 20
-324.491021975354
 30
0.0
 11
-905.3124905224693
 21
-325.9913018787659
 31
0.0
  0
LINE
  5
FD
330
1F
100
AcDbEntity
  8
D-0
  6
Continuous
 62
     7
370
     9
100
AcDbLine
 10
-905.3124905224693
 20
-325.9913018787659
 30
0.0
 11
-906.8127728100669
 21
-325.9913018787659
 31
0.0
  0
LINE
  5
FE
330
1F
100
AcDbEntity
  8
D-0
  6
Continuous
 62
     7
370
     9
100
AcDbLine
 10
-985.0948572750938
 20
-453.4303215587891
 30
0.0
 11
-985.0948572750938
 21
-451.9300488079346
 31
0.0
  0
LINE
  5
FF
330
1F
100
AcDbEntity
  8
D-0
  6
Continuous
 62
     7
370
     9
100
AcDbLine
 10
-985.0948572750938
 20
-451.9300488079346
 30
0.0
 11
-983.5945797558677
 21
-451.9300488079346
 31
0.0
  0
LINE
  5
100
330
1F
100
AcDbEntity
  8
D-0
  6
Continuous
 62
     7
370
     9
100
AcDbLine
 10
-983.5945797558677
 20
-451.9300488079346
 30
0.0
 11
-983.5945797558677
 21
-453.4303215587891
 31
0.0
  0
LINE
  5
101
330
1F
100
AcDbEntity
  8
D-0
  6
Continuous
 62
     7
370
     9
100
AcDbLine
 10
-983.5945797558677
 20
-453.4303215587891
 30
0.0
 11
-985.0948572750938
 21
-453.4303215587891
 31
0.0
  0
LINE
  5
102
330
1F
100
AcDbEntity
  8
D-0
  6
Continuous
 62
     7
370
     9
100
AcDbLine
 10
-1135.866003095711
 20
-442.4918678844727
 30
0.0
 11
-1135.866003095711
 21
-440.991585596875
 31
0.0
  0
LINE
  5
103
330
1F
100
AcDbEntity
  8
D-0
  6
Continuous
 62
     7
370
     9
100
AcDbLine
 10
-1135.866003095711
 20
-440.991585596875
 30
0.0
 11
-1134.365730344857
 21
-440.991585596875
 31
0.0
  0
LINE
  5
104
330
1F
100
AcDbEntity
  8
D-0
  6
Continuous
 62
     7
370
     9
100
AcDbLine
 10
-1134.365730344857
 20
-440.991585596875
 30
0.0
 11
-1134.365730344857
 21
-442.4918678844727
 31
0.0
  0
LINE
  5
105
330
1F
100
AcDbEntity
  8
D-0
  6
Continuous
 62
     7
370
     9
100
AcDbLine
 10
-1134.365730344857
 20
-442.4918678844727
 30
0.0
 11
-1135.866003095711
 21
-442.4918678844727
 31
0.0
  0
LINE
  5
106
330
1F
100
AcDbEntity
  8
D-0
  6
Continuous
 62
     7
370
     9
100
AcDbLine
 10
-1076.627759992684
 20
-547.1452835644043
 30
0.0
 11
-1076.627759992684
 21
-545.6450012768066
 31
0.0
  0
LINE
  5
107
330
1F
100
AcDbEntity
  8
D-0
  6
Continuous
 62
     7
370
     9
100
AcDbLine
 10
-1076.627759992684
 20
-545.6450012768066
 30
0.0
 11
-1075.127978384103
 21
-545.6450012768066
 31
0.0
  0
LINE
  5
108
330
1F
100
AcDbEntity
  8
D-0
  6
Continuous
 62
     7
370
     9
100
AcDbLine
 10
-1075.127978384103
 20
-545.6450012768066
 30
0.0
 11
-1075.127978384103
 21
-547.1452835644043
 31
0.0
  0
LINE
  5
109
330
1F
100
AcDbEntity
  8
D-0
  6
Continuous
 62
     7
370
     9
100
AcDbLine
 10
-1075.127978384103
 20
-547.1452835644043
 30
0.0
 11
-1076.627759992684
 21
-547.1452835644043
 31
0.0
  0
LINE
  5
10A
330
1F
100
AcDbEntity
  8
D-0
  6
Continuous
 62
     7
370
     9
100
AcDbLine
 10
-1090.450348913277
 20
-606.3830307567872
 30
0.0
 11
-1090.450348913277
 21
-604.8827484691896
 31
0.0
  0
LINE
  5
10B
330
1F
100
AcDbEntity
  8
D-0
  6
Continuous
 62
     7
370
     9
100
AcDbLine
 10
-1090.450348913277
 20
-604.8827484691896
 30
0.0
 11
-1088.95006662568
 21
-604.8827484691896
 31
0.0
  0
LINE
  5
10C
330
1F
100
AcDbEntity
  8
D-0
  6
Continuous
 62
     7
370
     9
100
AcDbLine
 10
-1088.95006662568
 20
-604.8827484691896
 30
0.0
 11
-1088.95006662568
 21
-606.3830307567872
 31
0.0
  0
LINE
  5
10D
330
1F
100
AcDbEntity
  8
D-0
  6
Continuous
 62
     7
370
     9
100
AcDbLine
 10
-1088.95006662568
 20
-606.3830307567872
 30
0.0
 11
-1090.450348913277
 21
-606.3830307567872
 31
0.0
  0
LINE
  5
10E
330
1F
100
AcDbEntity
  8
D-0
  6
Continuous
 62
     7
370
     9
100
AcDbLine
 10
-1121.056442319955
 20
-617.2432259166993
 30
0.0
 11
-1121.056442319955
 21
-615.7429436291017
 31
0.0
  0
LINE
  5
10F
330
1F
100
AcDbEntity
  8
D-0
  6
Continuous
 62
     7
370
     9
100
AcDbLine
 10
-1121.056442319955
 20
-615.7429436291017
 30
0.0
 11
-1119.5561695691
 21
-615.7429436291017
 31
0.0
  0
LINE
  5
110
330
1F
100
AcDbEntity
  8
D-0
  6
Continuous
 62
     7
370
     9
100
AcDbLine
 10
-1119.5561695691
 20
-615.7429436291017
 30
0.0
 11
-1119.5561695691
 21
-617.2432259166993
 31
0.0
  0
LINE
  5
111
330
1F
100
AcDbEntity
  8
D-0
  6
Continuous
 62
     7
370
     9
100
AcDbLine
 10
-1119.5561695691
 20
-617.2432259166993
 30
0.0
 11
-1121.056442319955
 21
-617.2432259166993
 31
0.0
  0
LINE
  5
112
330
1F
100
AcDbEntity
  8
D-0
  6
Continuous
 62
     7
370
     9
100
AcDbLine
 10
-1143.909940778817
 20
-551.0946587169922
 30
0.0
 11
-1143.909940778817
 21
-549.5943764293945
 31
0.0
  0
LINE
  5
113
330
1F
100
AcDbEntity
  8
D-0
  6
Continuous
 62
     7
370
     9
100
AcDbLine
 10
-1143.909940778817
 20
-549.5943764293945
 30
0.0
 11
-1142.410154401864
 21
-549.5943764293945
 31
0.0
  0
LINE
  5
114
330
1F
100
AcDbEntity
  8
D-0
  6
Continuous
 62
     7
370
     9
100
AcDbLine
 10
-1142.410154401864
 20
-549.5943764293945
 30
0.0
 11
-1142.410154401864
 21
-551.0946587169922
 31
0.0
  0
LINE
  5
115
330
1F
100
AcDbEntity
  8
D-0
  6
Continuous
 62
     7
370
     9
100
AcDbLine
 10
-1142.410154401864
 20
-551.0946587169922
 30
0.0
 11
-1143.909940778817
 21
-551.0946587169922
 31
0.0
  0
LINE
  5
116
330
1F
100
AcDbEntity
  8
D-0
  6
Continuous
 62
     7
370
     9
100
AcDbLine
 10
-1118.094530164803
 20
-529.3743065441406
 30
0.0
 11
-1118.094530164803
 21
-527.874024256543
 31
0.0
  0
LINE
  5
117
330
1F
100
AcDbEntity
  8
D-0
  6
Continuous
 62
     7
370
     9
100
AcDbLine
 10
-1118.094530164803
 20
-527.874024256543
 30
0.0
 11
-1116.594257413949
 21
-527.874024256543
 31
0.0
  0
LINE
  5
118
330
1F
100
AcDbEntity
  8
D-0
  6
Continuous
 62
     7
370
     9
100
AcDbLine
 10
-1116.594257413949
 20
-527.874024256543
 30
0.0
 11
-1116.594257413949
 21
-529.3743065441406
 31
0.0
  0
LINE
  5
119
330
1F
100
AcDbEntity
  8
D-0
  6
Continuous
 62
     7
370
     9
100
AcDbLine
 10
-1116.594257413949
 20
-529.3743065441406
 30
0.0
 11
-1118.094530164803
 21
-529.3743065441406
 31
0.0
  0
LINE
  5
11A
330
1F
100
AcDbEntity
  8
D-0
  6
Continuous
 62
     7
370
     9
100
AcDbLine
 10
-1054.907400667275
 20
-581.8672302807129
 30
0.0
 11
-1054.907400667275
 21
-580.3669479931152
 31
0.0
  0
LINE
  5
11B
330
1F
100
AcDbEntity
  8
D-0
  6
Continuous
 62
     7
370
     9
100
AcDbLine
 10
-1054.907400667275
 20
-580.3669479931152
 30
0.0
 11
-1053.407616674508
 21
-580.3669479931152
 31
0.0
  0
LINE
  5
11C
330
1F
100
AcDbEntity
  8
D-0
  6
Continuous
 62
     7
370
     9
100
AcDbLine
 10
-1053.407616674508
 20
-580.3669479931152
 30
0.0
 11
-1053.407616674508
 21
-581.8672302807129
 31
0.0
  0
LINE
  5
11D
330
1F
100
AcDbEntity
  8
D-0
  6
Continuous
 62
     7
370
     9
100
AcDbLine
 10
-1053.407616674508
 20
-581.8672302807129
 30
0.0
 11
-1054.907400667275
 21
-581.8672302807129
 31
0.0
  0
LINE
  5
11E
330
1F
100
AcDbEntity
  8
D-0
  6
Continuous
 62
     7
370
     9
100
AcDbLine
 10
-1131.916627943124
 20
-719.7462776745118
 30
0.0
 11
-1131.916627943124
 21
-718.2459953869142
 31
0.0
  0
LINE
  5
11F
330
1F
100
AcDbEntity
  8
D-0
  6
Continuous
 62
     7
370
     9
100
AcDbLine
 10
-1131.916627943124
 20
-718.2459953869142
 30
0.0
 11
-1130.41684156617
 21
-718.2459953869142
 31
0.0
  0
LINE
  5
120
330
1F
100
AcDbEntity
  8
D-0
  6
Continuous
 62
     7
370
     9
100
AcDbLine
 10
-1130.41684156617
 20
-718.2459953869142
 30
0.0
 11
-1130.41684156617
 21
-719.7462776745118
 31
0.0
  0
LINE
  5
121
330
1F
100
AcDbEntity
  8
D-0
  6
Continuous
 62
     7
370
     9
100
AcDbLine
 10
-1130.41684156617
 20
-719.7462776745118
 30
0.0
 11
-1131.916627943124
 21
-719.7462776745118
 31
0.0
  0
LINE
  5
122
330
1F
100
AcDbEntity
  8
D-0
  6
Continuous
 62
     7
370
     9
100
AcDbLine
 10
-1061.52636772355
 20
-723.4583214367188
 30
0.0
 11
-1061.52636772355
 21
-721.9580391491212
 31
0.0
  0
LINE
  5
123
330
1F
100
AcDbEntity
  8
D-0
  6
Continuous
 62
     7
370
     9
100
AcDbLine
 10
-1061.52636772355
 20
-721.9580391491212
 30
0.0
 11
-1060.026583730782
 21
-721.9580391491212
 31
0.0
  0
LINE
  5
124
330
1F
100
AcDbEntity
  8
D-0
  6
Continuous
 62
     7
370
     9
100
AcDbLine
 10
-1060.026583730782
 20
-721.9580391491212
 30
0.0
 11
-1060.026583730782
 21
-723.4583214367188
 31
0.0
  0
LINE
  5
125
330
1F
100
AcDbEntity
  8
D-0
  6
Continuous
 62
     7
370
     9
100
AcDbLine
 10
-1060.026583730782
 20
-723.4583214367188
 30
0.0
 11
-1061.52636772355
 21
-723.4583214367188
 31
0.0
  0
LINE
  5
126
330
1F
100
AcDbEntity
  8
D-0
  6
Continuous
 62
     7
370
     9
100
AcDbLine
 10
-1037.135925948228
 20
-749.3649223888673
 30
0.0
 11
-1037.135925948228
 21
-747.8646401012696
 31
0.0
  0
LINE
  5
127
330
1F
100
AcDbEntity
  8
D-0
  6
Continuous
 62
     7
370
     9
100
AcDbLine
 10
-1037.135925948228
 20
-747.8646401012696
 30
0.0
 11
-1035.636141806449
 21
-747.8646401012696
 31
0.0
  0
LINE
  5
128
330
1F
100
AcDbEntity
  8
D-0
  6
Continuous
 62
     7
370
     9
100
AcDbLine
 10
-1035.636141806449
 20
-747.8646401012696
 30
0.0
 11
-1035.636141806449
 21
-749.3649223888673
 31
0.0
  0
LINE
  5
129
330
1F
100
AcDbEntity
  8
D-0
  6
Continuous
 62
     7
370
     9
100
AcDbLine
 10
-1035.636141806449
 20
-749.3649223888673
 30
0.0
 11
-1037.135925948228
 21
-749.3649223888673
 31
0.0
  0
LINE
  5
12A
330
1F
100
AcDbEntity
  8
D-0
  6
Continuous
 62
     7
370
     9
100
AcDbLine
 10
-1030.857345521058
 20
-787.5769356334962
 30
0.0
 11
-1030.857345521058
 21
-786.0766533458985
 31
0.0
  0
LINE
  5
12B
330
1F
100
AcDbEntity
  8
D-0
  6
Continuous
 62
     7
370
     9
100
AcDbLine
 10
-1030.857345521058
 20
-786.0766533458985
 30
0.0
 11
-1029.357066213692
 21
-786.0766533458985
 31
0.0
  0
LINE
  5
12C
330
1F
100
AcDbEntity
  8
D-0
  6
Continuous
 62
     7
370
     9
100
AcDbLine
 10
-1029.357066213692
 20
-786.0766533458985
 30
0.0
 11
-1029.357066213692
 21
-787.5769356334962
 31
0.0
  0
LINE
  5
12D
330
1F
100
AcDbEntity
  8
D-0
  6
Continuous
 62
     7
370
     9
100
AcDbLine
 10
-1029.357066213692
 20
-787.5769356334962
 30
0.0
 11
-1030.857345521058
 21
-787.5769356334962
 31
0.0
  0
LINE
  5
12E
330
1F
100
AcDbEntity
  8
D-0
  6
Continuous
 62
     7
370
     9
100
AcDbLine
 10
-1105.086002409066
 20
-793.0355385387696
 30
0.0
 11
-1105.086002409066
 21
-791.535256251172
 31
0.0
  0
LINE
  5
12F
330
1F
100
AcDbEntity
  8
D-0
  6
Continuous
 62
     7
370
     9
100
AcDbLine
 10
-1105.086002409066
 20
-791.535256251172
 30
0.0
 11
-1103.585720121468
 21
-791.535256251172
 31
0.0
  0
LINE
  5
130
330
1F
100
AcDbEntity
  8
D-0
  6
Continuous
 62
     7
370
     9
100
AcDbLine
 10
-1103.585720121468
 20
-791.535256251172
 30
0.0
 11
-1103.585720121468
 21
-793.0355385387696
 31
0.0
  0
LINE
  5
131
330
1F
100
AcDbEntity
  8
D-0
  6
Continuous
 62
     7
370
     9
100
AcDbLine
 10
-1103.585720121468
 20
-793.0355385387696
 30
0.0
 11
-1105.086002409066
 21
-793.0355385387696
 31
0.0
  0
LINE
  5
132
330
1F
100
AcDbEntity
  8
D-0
  6
Continuous
 62
     7
370
     9
100
AcDbLine
 10
-1139.814891874398
 20
-783.7390450084962
 30
0.0
 11
-1139.814891874398
 21
-782.2387627208985
 31
0.0
  0
LINE
  5
133
330
1F
100
AcDbEntity
  8
D-0
  6
Continuous
 62
     7
370
     9
100
AcDbLine
 10
-1139.814891874398
 20
-782.2387627208985
 30
0.0
 11
-1138.3146095868
 21
-782.2387627208985
 31
0.0
  0
LINE
  5
134
330
1F
100
AcDbEntity
  8
D-0
  6
Continuous
 62
     7
370
     9
100
AcDbLine
 10
-1138.3146095868
 20
-782.2387627208985
 30
0.0
 11
-1138.3146095868
 21
-783.7390450084962
 31
0.0
  0
LINE
  5
135
330
1F
100
AcDbEntity
  8
D-0
  6
Continuous
 62
     7
370
     9
100
AcDbLine
 10
-1138.3146095868
 20
-783.7390450084962
 30
0.0
 11
-1139.814891874398
 21
-783.7390450084962
 31
0.0
  0
LINE
  5
136
330
1F
100
AcDbEntity
  8
D-0
  6
Continuous
 62
     7
370
     9
100
AcDbLine
 10
-1142.026166975106
 20
-743.4410790050782
 30
0.0
 11
-1142.026166975106
 21
-741.9407967174806
 31
0.0
  0
LINE
  5
137
330
1F
100
AcDbEntity
  8
D-0
  6
Continuous
 62
     7
370
     9
100
AcDbLine
 10
-1142.026166975106
 20
-741.9407967174806
 30
0.0
 11
-1140.526390134896
 21
-741.9407967174806
 31
0.0
  0
LINE
  5
138
330
1F
100
AcDbEntity
  8
D-0
  6
Continuous
 62
     7
370
     9
100
AcDbLine
 10
-1140.526390134896
 20
-741.9407967174806
 30
0.0
 11
-1140.526390134896
 21
-743.4410790050782
 31
0.0
  0
LINE
  5
139
330
1F
100
AcDbEntity
  8
D-0
  6
Continuous
 62
     7
370
     9
100
AcDbLine
 10
-1140.526390134896
 20
-743.4410790050782
 30
0.0
 11
-1142.026166975106
 21
-743.4410790050782
 31
0.0
  0
LINE
  5
13A
330
1F
100
AcDbEntity
  8
D-0
  6
Continuous
 62
     7
370
     9
100
AcDbLine
 10
-1084.526524602975
 20
-763.1870201671876
 30
0.0
 11
-1084.526524602975
 21
-761.6867378795899
 31
0.0
  0
LINE
  5
13B
330
1F
100
AcDbEntity
  8
D-0
  6
Continuous
 62
     7
370
     9
100
AcDbLine
 10
-1084.526524602975
 20
-761.6867378795899
 30
0.0
 11
-1083.026242315377
 21
-761.6867378795899
 31
0.0
  0
LINE
  5
13C
330
1F
100
AcDbEntity
  8
D-0
  6
Continuous
 62
     7
370
     9
100
AcDbLine
 10
-1083.026242315377
 20
-761.6867378795899
 30
0.0
 11
-1083.026242315377
 21
-763.1870201671876
 31
0.0
  0
LINE
  5
13D
330
1F
100
AcDbEntity
  8
D-0
  6
Continuous
 62
     7
370
     9
100
AcDbLine
 10
-1083.026242315377
 20
-763.1870201671876
 30
0.0
 11
-1084.526524602975
 21
-763.1870201671876
 31
0.0
  0
LINE
  5
13E
330
1F
100
AcDbEntity
  8
D-0
  6
Continuous
 62
     7
370
     9
100
AcDbLine
 10
-1096.37417322358
 20
-729.6189812267579
 30
0.0
 11
-1096.37417322358
 21
-728.1186989391603
 31
0.0
  0
LINE
  5
13F
330
1F
100
AcDbEntity
  8
D-0
  6
Continuous
 62
     7
370
     9
100
AcDbLine
 10
-1096.37417322358
 20
-728.1186989391603
 30
0.0
 11
-1094.873890935982
 21
-728.1186989391603
 31
0.0
  0
LINE
  5
140
330
1F
100
AcDbEntity
  8
D-0
  6
Continuous
 62
     7
370
     9
100
AcDbLine
 10
-1094.873890935982
 20
-728.1186989391603
 30
0.0
 11
-1094.873890935982
 21
-729.6189812267579
 31
0.0
  0
LINE
  5
141
330
1F
100
AcDbEntity
  8
D-0
  6
Continuous
 62
     7
370
     9
100
AcDbLine
 10
-1094.873890935982
 20
-729.6189812267579
 30
0.0
 11
-1096.37417322358
 21
-729.6189812267579
 31
0.0
  0
LINE
  5
142
330
1F
100
AcDbEntity
  8
D-0
  6
Continuous
 62
     7
370
     9
100
AcDbLine
 10
-1041.085307657326
 20
-615.4352501476563
 30
0.0
 11
-1041.085307657326
 21
-613.9349678600587
 31
0.0
  0
LINE
  5
143
330
1F
100
AcDbEntity
  8
D-0
  6
Continuous
 62
     7
370
     9
100
AcDbLine
 10
-1041.085307657326
 20
-613.9349678600587
 30
0.0
 11
-1039.585523664559
 21
-613.9349678600587
 31
0.0
  0
LINE
  5
144
330
1F
100
AcDbEntity
  8
D-0
  6
Continuous
 62
     7
370
     9
100
AcDbLine
 10
-1039.585523664559
 20
-613.9349678600587
 30
0.0
 11
-1039.585523664559
 21
-615.4352501476563
 31
0.0
  0
LINE
  5
145
330
1F
100
AcDbEntity
  8
D-0
  6
Continuous
 62
     7
370
     9
100
AcDbLine
 10
-1039.585523664559
 20
-615.4352501476563
 30
0.0
 11
-1041.085307657326
 21
-615.4352501476563
 31
0.0
  0
LINE
  5
146
330
1F
100
AcDbEntity
  8
D-0
  6
Continuous
 62
     7
370
     9
100
AcDbLine
 10
-1029.238153457249
 20
-515.5517128551758
 30
0.0
 11
-1029.238153457249
 21
-514.0514305675781
 31
0.0
  0
LINE
  5
147
330
1F
100
AcDbEntity
  8
D-0
  6
Continuous
 62
     7
370
     9
100
AcDbLine
 10
-1029.238153457249
 20
-514.0514305675781
 30
0.0
 11
-1027.737873851861
 21
-514.0514305675781
 31
0.0
  0
LINE
  5
148
330
1F
100
AcDbEntity
  8
D-0
  6
Continuous
 62
     7
370
     9
100
AcDbLine
 10
-1027.737873851861
 20
-514.0514305675781
 30
0.0
 11
-1027.737873851861
 21
-515.5517128551758
 31
0.0
  0
LINE
  5
149
330
1F
100
AcDbEntity
  8
D-0
  6
Continuous
 62
     7
370
     9
100
AcDbLine
 10
-1027.737873851861
 20
-515.5517128551758
 30
0.0
 11
-1029.238153457249
 21
-515.5517128551758
 31
0.0
  0
LINE
  5
14A
330
1F
100
AcDbEntity
  8
D-0
  6
Continuous
 62
     7
370
     9
100
AcDbLine
 10
-933.1271172161948
 20
-526.7760590160644
 30
0.0
 11
-933.1271172161948
 21
-525.2757767284668
 31
0.0
  0
LINE
  5
14B
330
1F
100
AcDbEntity
  8
D-0
  6
Continuous
 62
     7
370
     9
100
AcDbLine
 10
-933.1271172161948
 20
-525.2757767284668
 30
0.0
 11
-931.6273403759849
 21
-525.2757767284668
 31
0.0
  0
LINE
  5
14C
330
1F
100
AcDbEntity
  8
D-0
  6
Continuous
 62
     7
370
     9
100
AcDbLine
 10
-931.6273403759849
 20
-525.2757767284668
 30
0.0
 11
-931.6273403759849
 21
-526.7760590160644
 31
0.0
  0
LINE
  5
14D
330
1F
100
AcDbEntity
  8
D-0
  6
Continuous
 62
     7
370
     9
100
AcDbLine
 10
-931.6273403759849
 20
-526.7760590160644
 30
0.0
 11
-933.1271172161948
 21
-526.7760590160644
 31
0.0
  0
LINE
  5
14E
330
1F
100
AcDbEntity
  8
D-0
  6
Continuous
 62
     7
370
     9
100
AcDbLine
 10
-985.6616736050498
 20
-518.1509331310547
 30
0.0
 11
-985.6616736050498
 21
-516.650650843457
 31
0.0
  0
LINE
  5
14F
330
1F
100
AcDbEntity
  8
D-0
  6
Continuous
 62
     7
370
     9
100
AcDbLine
 10
-985.6616736050498
 20
-516.650650843457
 30
0.0
 11
-984.1618919964683
 21
-516.650650843457
 31
0.0
  0
LINE
  5
150
330
1F
100
AcDbEntity
  8
D-0
  6
Continuous
 62
     7
370
     9
100
AcDbLine
 10
-984.1618919964683
 20
-516.650650843457
 30
0.0
 11
-984.1618919964683
 21
-518.1509331310547
 31
0.0
  0
LINE
  5
151
330
1F
100
AcDbEntity
  8
D-0
  6
Continuous
 62
     7
370
     9
100
AcDbLine
 10
-984.1618919964683
 20
-518.1509331310547
 30
0.0
 11
-985.6616736050498
 21
-518.1509331310547
 31
0.0
  0
LINE
  5
152
330
1F
100
AcDbEntity
  8
D-0
  6
Continuous
 62
     7
370
     9
100
AcDbLine
 10
-1122.04341894349
 20
-578.7388352001465
 30
0.0
 11
-1122.04341894349
 21
-577.2385719860351
 31
0.0
  0
LINE
  5
153
330
1F
100
AcDbEntity
  8
D-0
  6
Continuous
 62
     7
370
     9
100
AcDbLine
 10
-1122.04341894349
 20
-577.2385719860351
 30
0.0
 11
-1120.543632566537
 21
-577.2385719860351
 31
0.0
  0
LINE
  5
154
330
1F
100
AcDbEntity
  8
D-0
  6
Continuous
 62
     7
370
     9
100
AcDbLine
 10
-1120.543632566537
 20
-577.2385719860351
 30
0.0
 11
-1120.543632566537
 21
-578.7388352001465
 31
0.0
  0
LINE
  5
155
330
1F
100
AcDbEntity
  8
D-0
  6
Continuous
 62
     7
370
     9
100
AcDbLine
 10
-1120.543632566537
 20
-578.7388352001465
 30
0.0
 11
-1122.04341894349
 21
-578.7388352001465
 31
0.0
  0
LINE
  5
156
330
1F
100
AcDbEntity
  8
D-0
  6
Continuous
 62
     7
370
     9
100
AcDbLine
 10
-1090.923023283089
 20
-436.9678810680664
 30
0.0
 11
-1090.923023283089
 21
-435.467608317212
 31
0.0
  0
LINE
  5
157
330
1F
100
AcDbEntity
  8
D-0
  6
Continuous
 62
     7
370
     9
100
AcDbLine
 10
-1090.923023283089
 20
-435.467608317212
 30
0.0
 11
-1089.422745763863
 21
-435.467608317212
 31
0.0
  0
LINE
  5
158
330
1F
100
AcDbEntity
  8
D-0
  6
Continuous
 62
     7
370
     9
100
AcDbLine
 10
-1089.422745763863
 20
-435.467608317212
 30
0.0
 11
-1089.422745763863
 21
-436.9678810680664
 31
0.0
  0
LINE
  5
159
330
1F
100
AcDbEntity
  8
D-0
  6
Continuous
 62
     7
370
     9
100
AcDbLine
 10
-1089.422745763863
 20
-436.9678810680664
 30
0.0
 11
-1090.923023283089
 21
-436.9678810680664
 31
0.0
  0
LINE
  5
15A
330
1F
100
AcDbEntity
  8
D-0
  6
Continuous
 62
     7
370
     9
100
AcDbLine
 10
-1035.161978214587
 20
-548.2992294872558
 30
0.0
 11
-1035.161978214587
 21
-546.7989471996582
 31
0.0
  0
LINE
  5
15B
330
1F
100
AcDbEntity
  8
D-0
  6
Continuous
 62
     7
370
     9
100
AcDbLine
 10
-1035.161978214587
 20
-546.7989471996582
 30
0.0
 11
-1033.661698795463
 21
-546.7989471996582
 31
0.0
  0
LINE
  5
15C
330
1F
100
AcDbEntity
  8
D-0
  6
Continuous
 62
     7
370
     9
100
AcDbLine
 10
-1033.661698795463
 20
-546.7989471996582
 30
0.0
 11
-1033.661698795463
 21
-548.2992294872558
 31
0.0
  0
LINE
  5
15D
330
1F
100
AcDbEntity
  8
D-0
  6
Continuous
 62
     7
370
     9
100
AcDbLine
 10
-1033.661698795463
 20
-548.2992294872558
 30
0.0
 11
-1035.161978214587
 21
-548.2992294872558
 31
0.0
  0
LINE
  5
15E
330
1F
100
AcDbEntity
  8
D-0
  6
Continuous
 62
     7
370
     9
100
AcDbLine
 10
-1094.399232923592
 20
-570.8405808056152
 30
0.0
 11
-1094.399232923592
 21
-569.3402985180176
 31
0.0
  0
LINE
  5
15F
330
1F
100
AcDbEntity
  8
D-0
  6
Continuous
 62
     7
370
     9
100
AcDbLine
 10
-1094.399232923592
 20
-569.3402985180176
 30
0.0
 11
-1092.899451315011
 21
-569.3402985180176
 31
0.0
  0
LINE
  5
160
330
1F
100
AcDbEntity
  8
D-0
  6
Continuous
 62
     7
370
     9
100
AcDbLine
 10
-1092.899451315011
 20
-569.3402985180176
 30
0.0
 11
-1092.899451315011
 21
-570.8405808056152
 31
0.0
  0
LINE
  5
161
330
1F
100
AcDbEntity
  8
D-0
  6
Continuous
 62
     7
370
     9
100
AcDbLine
 10
-1092.899451315011
 20
-570.8405808056152
 30
0.0
 11
-1094.399232923592
 21
-570.8405808056152
 31
0.0
  0
LINE
  5
162
330
1F
100
AcDbEntity
  8
D-0
  6
Continuous
 62
     7
370
     9
100
AcDbLine
 10
-1082.551584302987
 20
-643.9004067028321
 30
0.0
 11
-1082.551584302987
 21
-642.4001244152345
 31
0.0
  0
LINE
  5
163
330
1F
100
AcDbEntity
  8
D-0
  6
Continuous
 62
     7
370
     9
100
AcDbLine
 10
-1082.551584302987
 20
-642.4001244152345
 30
0.0
 11
-1081.051802694405
 21
-642.4001244152345
 31
0.0
  0
LINE
  5
164
330
1F
100
AcDbEntity
  8
D-0
  6
Continuous
 62
     7
370
     9
100
AcDbLine
 10
-1081.051802694405
 20
-642.4001244152345
 30
0.0
 11
-1081.051802694405
 21
-643.9004067028321
 31
0.0
  0
LINE
  5
165
330
1F
100
AcDbEntity
  8
D-0
  6
Continuous
 62
     7
370
     9
100
AcDbLine
 10
-1081.051802694405
 20
-643.9004067028321
 30
0.0
 11
-1082.551584302987
 21
-643.9004067028321
 31
0.0
  0
LINE
  5
166
330
1F
100
AcDbEntity
  8
D-0
  6
Continuous
 62
     7
370
     9
100
AcDbLine
 10
-1130.929155408944
 20
-642.9129341686524
 30
0.0
 11
-1130.929155408944
 21
-641.4126518810548
 31
0.0
  0
LINE
  5
167
330
1F
100
AcDbEntity
  8
D-0
  6
Continuous
 62
     7
370
     9
100
AcDbLine
 10
-1130.929155408944
 20
-641.4126518810548
 30
0.0
 11
-1129.428873121346
 21
-641.4126518810548
 31
0.0
  0
LINE
  5
168
330
1F
100
AcDbEntity
  8
D-0
  6
Continuous
 62
     7
370
     9
100
AcDbLine
 10
-1129.428873121346
 20
-641.4126518810548
 30
0.0
 11
-1129.428873121346
 21
-642.9129341686524
 31
0.0
  0
LINE
  5
169
330
1F
100
AcDbEntity
  8
D-0
  6
Continuous
 62
     7
370
     9
100
AcDbLine
 10
-1129.428873121346
 20
-642.9129341686524
 30
0.0
 11
-1130.929155408944
 21
-642.9129341686524
 31
0.0
  0
LINE
  5
16A
330
1F
100
AcDbEntity
  8
D-0
  6
Continuous
 62
     7
370
     9
100
AcDbLine
 10
-1117.976112424935
 20
-762.0186928356446
 30
0.0
 11
-1117.976112424935
 21
-760.518410548047
 31
0.0
  0
LINE
  5
16B
330
1F
100
AcDbEntity
  8
D-0
  6
Continuous
 62
     7
370
     9
100
AcDbLine
 10
-1117.976112424935
 20
-760.518410548047
 30
0.0
 11
-1116.476335584725
 21
-760.518410548047
 31
0.0
  0
LINE
  5
16C
330
1F
100
AcDbEntity
  8
D-0
  6
Continuous
 62
     7
370
     9
100
AcDbLine
 10
-1116.476335584725
 20
-760.518410548047
 30
0.0
 11
-1116.476335584725
 21
-762.0186928356446
 31
0.0
  0
LINE
  5
16D
330
1F
100
AcDbEntity
  8
D-0
  6
Continuous
 62
     7
370
     9
100
AcDbLine
 10
-1116.476335584725
 20
-762.0186928356446
 30
0.0
 11
-1117.976112424935
 21
-762.0186928356446
 31
0.0
  0
LINE
  5
16E
330
1F
100
AcDbEntity
  8
D-0
  6
Continuous
 62
     7
370
     9
100
AcDbLine
 10
-1067.450192033852
 20
-791.5263298595704
 30
0.0
 11
-1067.450192033852
 21
-790.0260475719728
 31
0.0
  0
LINE
  5
16F
330
1F
100
AcDbEntity
  8
D-0
  6
Continuous
 62
     7
370
     9
100
AcDbLine
 10
-1067.450192033852
 20
-790.0260475719728
 30
0.0
 11
-1065.950408041085
 21
-790.0260475719728
 31
0.0
  0
LINE
  5
170
330
1F
100
AcDbEntity
  8
D-0
  6
Continuous
 62
     7
370
     9
100
AcDbLine
 10
-1065.950408041085
 20
-790.0260475719728
 30
0.0
 11
-1065.950408041085
 21
-791.5263298595704
 31
0.0
  0
LINE
  5
171
330
1F
100
AcDbEntity
  8
D-0
  6
Continuous
 62
     7
370
     9
100
AcDbLine
 10
-1065.950408041085
 20
-791.5263298595704
 30
0.0
 11
-1067.450192033852
 21
-791.5263298595704
 31
0.0
  0
LINE
  5
172
330
1F
100
AcDbEntity
  8
D-0
  6
Continuous
 62
     7
370
     9
100
AcDbLine
 10
-1031.2125966545
 20
-715.7968834484376
 30
0.0
 11
-1031.2125966545
 21
-714.2966393078126
 31
0.0
  0
LINE
  5
173
330
1F
100
AcDbEntity
  8
D-0
  6
Continuous
 62
     7
370
     9
100
AcDbLine
 10
-1031.2125966545
 20
-714.2966393078126
 30
0.0
 11
-1029.712317049111
 21
-714.2966393078126
 31
0.0
  0
LINE
  5
174
330
1F
100
AcDbEntity
  8
D-0
  6
Continuous
 62
     7
370
     9
100
AcDbLine
 10
-1029.712317049111
 20
-714.2966393078126
 30
0.0
 11
-1029.712317049111
 21
-715.7968834484376
 31
0.0
  0
LINE
  5
175
330
1F
100
AcDbEntity
  8
D-0
  6
Continuous
 62
     7
370
     9
100
AcDbLine
 10
-1029.712317049111
 20
-715.7968834484376
 30
0.0
 11
-1031.2125966545
 21
-715.7968834484376
 31
0.0
  0
LINE
  5
176
330
1F
100
AcDbEntity
  8
D-0
  6
Continuous
 62
     7
370
     9
100
AcDbLine
 10
-1148.245296537484
 20
-597.7336243236817
 30
0.0
 11
-1148.245296537484
 21
-596.2333420360841
 31
0.0
  0
LINE
  5
177
330
1F
100
AcDbEntity
  8
D-0
  6
Continuous
 62
     7
370
     9
100
AcDbLine
 10
-1148.245296537484
 20
-596.2333420360841
 30
0.0
 11
-1146.745014249886
 21
-596.2333420360841
 31
0.0
  0
LINE
  5
178
330
1F
100
AcDbEntity
  8
D-0
  6
Continuous
 62
     7
370
     9
100
AcDbLine
 10
-1146.745014249886
 20
-596.2333420360841
 30
0.0
 11
-1146.745014249886
 21
-597.7336243236817
 31
0.0
  0
LINE
  5
179
330
1F
100
AcDbEntity
  8
D-0
  6
Continuous
 62
     7
370
     9
100
AcDbLine
 10
-1146.745014249886
 20
-597.7336243236817
 30
0.0
 11
-1148.245296537484
 21
-597.7336243236817
 31
0.0
  0
LINE
  5
17A
330
1F
100
AcDbEntity
  8
D-0
  6
Continuous
 62
     7
370
     9
100
AcDbLine
 10
-1031.323581695164
 20
-641.4676598156251
 30
0.0
 11
-1031.323581695164
 21
-639.9673775280274
 31
0.0
  0
LINE
  5
17B
330
1F
100
AcDbEntity
  8
D-0
  6
Continuous
 62
     7
370
     9
100
AcDbLine
 10
-1031.323581695164
 20
-639.9673775280274
 30
0.0
 11
-1029.823302089776
 21
-639.9673775280274
 31
0.0
  0
LINE
  5
17C
330
1F
100
AcDbEntity
  8
D-0
  6
Continuous
 62
     7
370
     9
100
AcDbLine
 10
-1029.823302089776
 20
-639.9673775280274
 30
0.0
 11
-1029.823302089776
 21
-641.4676598156251
 31
0.0
  0
LINE
  5
17D
330
1F
100
AcDbEntity
  8
D-0
  6
Continuous
 62
     7
370
     9
100
AcDbLine
 10
-1029.823302089776
 20
-641.4676598156251
 30
0.0
 11
-1031.323581695164
 21
-641.4676598156251
 31
0.0
  0
LINE
  5
17E
330
1F
100
AcDbEntity
  8
D-0
  6
Continuous
 62
     7
370
     9
100
AcDbLine
 10
-1056.053915083016
 20
-764.8136452282228
 30
0.0
 11
-1056.053915083016
 21
-763.3133629406251
 31
0.0
  0
LINE
  5
17F
330
1F
100
AcDbEntity
  8
D-0
  6
Continuous
 62
     7
370
     9
100
AcDbLine
 10
-1056.053915083016
 20
-763.3133629406251
 30
0.0
 11
-1054.553635179604
 21
-763.3133629406251
 31
0.0
  0
LINE
  5
180
330
1F
100
AcDbEntity
  8
D-0
  6
Continuous
 62
     7
370
     9
100
AcDbLine
 10
-1054.553635179604
 20
-763.3133629406251
 30
0.0
 11
-1054.553635179604
 21
-764.8136452282228
 31
0.0
  0
LINE
  5
181
330
1F
100
AcDbEntity
  8
D-0
  6
Continuous
 62
     7
370
     9
100
AcDbLine
 10
-1054.553635179604
 20
-764.8136452282228
 30
0.0
 11
-1056.053915083016
 21
-764.8136452282228
 31
0.0
  0
LINE
  5
182
330
1F
100
AcDbEntity
  8
D-0
  6
Continuous
 62
     7
370
     9
100
AcDbLine
 10
-1024.210136591996
 20
-452.3516968334473
 30
0.0
 11
-1024.210136591996
 21
-450.8514145458497
 31
0.0
  0
LINE
  5
183
330
1F
100
AcDbEntity
  8
D-0
  6
Continuous
 62
     7
370
     9
100
AcDbLine
 10
-1024.210136591996
 20
-450.8514145458497
 30
0.0
 11
-1022.709857284631
 21
-450.8514145458497
 31
0.0
  0
LINE
  5
184
330
1F
100
AcDbEntity
  8
D-0
  6
Continuous
 62
     7
370
     9
100
AcDbLine
 10
-1022.709857284631
 20
-450.8514145458497
 30
0.0
 11
-1022.709857284631
 21
-452.3516968334473
 31
0.0
  0
LINE
  5
185
330
1F
100
AcDbEntity
  8
D-0
  6
Continuous
 62
     7
370
     9
100
AcDbLine
 10
-1022.709857284631
 20
-452.3516968334473
 30
0.0
 11
-1024.210136591996
 21
-452.3516968334473
 31
0.0
  0
LINE
  5
186
330
1F
100
AcDbEntity
  8
D-4
  6
Continuous
 62
     7
370
     9
100
AcDbLine
 10
-858.3727646466148
 20
-439.8624161327637
 30
0.0
 11
-858.3727646466148
 21
-502.3459747875489
 31
0.0
  0
LINE
  5
187
330
1F
100
AcDbEntity
  8
D-5
  6
Continuous
 62
     7
370
     9
100
AcDbLine
 10
-868.3733177777183
 20
-378.036377772168
 30
0.0
 11
-854.5616341229331
 21
-357.1969631756104
 31
0.0
  0
LINE
  5
188
330
1F
100
AcDbEntity
  8
D-5
  6
Continuous
 62
     7
370
     9
100
AcDbLine
 10
-868.3733177777183
 20
-378.036377772168
 30
0.0
 11
-849.6386528607261
 21
-361.482274874524
 31
0.0
  0
LINE
  5
189
330
1F
100
AcDbEntity
  8
D-5
  6
Continuous
 62
     7
370
     9
100
AcDbLine
 10
-868.3733177777183
 20
-378.036377772168
 30
0.0
 11
-746.6267204876792
 21
-238.1556347454346
 31
0.0
  0
LINE
  5
18A
330
1F
100
AcDbEntity
  8
D-5
  6
Continuous
 62
     7
370
     9
100
AcDbLine
 10
-746.6267204876792
 20
-238.1556347454346
 30
0.0
 11
-359.923248350228
 21
-238.1556347454346
 31
0.0
  0
LINE
  5
18B
330
1F
100
AcDbEntity
  8
D-4
  6
Continuous
 62
     7
370
     9
100
AcDbLine
 10
-846.5459251995933
 20
-428.0365685070313
 30
0.0
 11
-756.7988777752769
 21
-428.0365685070313
 31
0.0
  0
LINE
  5
18C
330
1F
100
AcDbEntity
  8
D-4
  6
Continuous
 62
     7
370
     9
100
AcDbLine
 10
-846.5459251995933
 20
-378.0363300884522
 30
0.0
 11
-756.7988777752769
 21
-378.0363300884522
 31
0.0
  0
LINE
  5
18D
330
1F
100
AcDbEntity
  8
D-4
  6
Continuous
 62
     7
370
     9
100
AcDbLine
 10
-759.7994232769859
 20
-378.0363300884522
 30
0.0
 11
-759.7994232769859
 21
-293.0361870373047
 31
0.0
  0
LINE
  5
18E
330
1F
100
AcDbEntity
  8
D-4
  6
Continuous
 62
     7
370
     9
100
AcDbLine
 10
-759.7994232769859
 20
-428.0365685070313
 30
0.0
 11
-759.7994232769859
 21
-378.0363300884522
 31
0.0
  0
LINE
  5
18F
330
1F
100
AcDbEntity
  8
D-4
  6
Continuous
 62
     7
370
     9
100
AcDbLine
 10
-1003.373196184243
 20
-499.3454292858399
 30
0.0
 11
-1158.372182905282
 21
-499.3454292858399
 31
0.0
  0
LINE
  5
190
330
1F
100
AcDbEntity
  8
D-9
  6
Continuous
 62
     4
370
     9
100
AcDbLine
 10
-1143.372821867074
 20
-370.5368546093262
 30
0.0
 11
-1028.373065054024
 21
-370.5368546093262
 31
0.0
  0
LINE
  5
191
330
1F
100
AcDbEntity
  8
D-1
  6
Continuous
 62
     2
370
     9
100
AcDbLine
 10
-1003.373229562844
 20
-296.036187156514
 30
0.0
 11
-1003.373229562844
 21
-320.536070212201
 31
0.0
  0
LINE
  5
192
330
1F
100
AcDbEntity
  8
D-1
  6
Continuous
 62
     2
370
     9
100
AcDbLine
 10
-1003.373229562844
 20
-415.0358131969727
 30
0.0
 11
-1003.373229562844
 21
-390.5359295452393
 31
0.0
  0
LINE
  5
193
330
1F
100
AcDbEntity
  8
D-1
  6
Continuous
 62
     2
370
     9
100
AcDbLine
 10
-1025.372980892266
 20
-293.0365978260846
 30
0.0
 11
-1006.37269502839
 21
-293.0365978260846
 31
0.0
  0
LINE
  5
194
330
1F
100
AcDbEntity
  8
D-1
  6
Continuous
 62
     2
370
     9
100
AcDbLine
 10
-1153.372860014046
 20
-388.0361107433594
 30
0.0
 11
-1153.372860014046
 21
-380.5362061107911
 31
0.0
  0
LINE
  5
195
330
1F
100
AcDbEntity
  8
D-1
  6
Continuous
 62
     2
370
     9
100
AcDbLine
 10
-1158.373251020516
 20
-388.0361107433594
 30
0.0
 11
-1158.373251020516
 21
-380.5362061107911
 31
0.0
  0
LINE
  5
196
330
1F
100
AcDbEntity
  8
D-1
  6
Continuous
 62
     2
370
     9
100
AcDbLine
 10
-1023.373295724
 20
-413.0361298168457
 30
0.0
 11
-1008.372998296822
 21
-413.0361298168457
 31
0.0
  0
LINE
  5
197
330
1F
100
AcDbEntity
  8
D-1
  6
Continuous
 62
     2
370
     9
100
AcDbLine
 10
-1023.373048364724
 20
-418.0363873089112
 30
0.0
 11
-1006.37269502839
 21
-418.0363873089112
 31
0.0
  0
LINE
  5
198
330
1F
100
AcDbEntity
  8
D-1
  6
Continuous
 62
     2
370
     9
100
AcDbLine
 10
-1028.373065054024
 20
-383.0358437145508
 30
0.0
 11
-1028.373065054024
 21
-296.036187156514
 31
0.0
  0
LINE
  5
199
330
1F
100
AcDbEntity
  8
D-1
  6
Continuous
 62
     2
370
     9
100
AcDbLine
 10
-1028.373065054024
 20
-383.0358437145508
 30
0.0
 11
-1078.372736036385
 21
-383.0358437145508
 31
0.0
  0
LINE
  5
19A
330
1F
100
AcDbEntity
  8
D-1
  6
Continuous
 62
     2
370
     9
100
AcDbLine
 10
-1153.372860014046
 20
-393.0363682354248
 30
0.0
 11
-1028.373065054024
 21
-393.0363682354248
 31
0.0
  0
LINE
  5
19B
330
1F
100
AcDbEntity
  8
D-1
  6
Continuous
 62
     2
370
     9
100
AcDbLine
 10
-1028.373065054024
 20
-413.036377772168
 30
0.0
 11
-1028.373065054024
 21
-393.0363682354248
 31
0.0
  0
LINE
  5
19C
330
1F
100
AcDbEntity
  8
D-1
  6
Continuous
 62
     2
370
     9
100
AcDbLine
 10
-1023.373295724
 20
-393.0361202801026
 30
0.0
 11
-1023.373295724
 21
-413.0361298168457
 31
0.0
  0
LINE
  5
19D
330
1F
100
AcDbEntity
  8
D-1
  6
Continuous
 62
     2
370
     9
100
AcDbLine
 10
-1028.3733124133
 20
-388.0361107433594
 30
0.0
 11
-1153.372860014046
 21
-388.0361107433594
 31
0.0
  0
LINE
  5
19E
330
1F
100
AcDbEntity
  8
D-1
  6
Continuous
 62
     2
370
     9
100
AcDbLine
 10
-1023.373295724
 20
-383.0360916698731
 30
0.0
 11
-1023.373295724
 21
-298.0358720267571
 31
0.0
  0
LINE
  5
19F
330
1F
100
AcDbEntity
  8
D-9
  6
Continuous
 62
     4
370
     9
100
AcDbLine
 10
-1028.373065054024
 20
-376.1272648418702
 30
0.0
 11
-1035.281646757926
 21
-383.0358437145508
 31
0.0
  0
LINE
  5
1A0
330
1F
100
AcDbEntity
  8
D-9
  6
Continuous
 62
     4
370
     9
100
AcDbLine
 10
-1029.853002488221
 20
-370.5368546093262
 30
0.0
 11
-1042.352177559937
 21
-383.0358437145508
 31
0.0
  0
LINE
  5
1A1
330
1F
100
AcDbEntity
  8
D-9
  6
Continuous
 62
     4
370
     9
100
AcDbLine
 10
-1036.924337803925
 20
-370.5368546093262
 30
0.0
 11
-1049.423513471688
 21
-383.0358437145508
 31
0.0
  0
LINE
  5
1A2
330
1F
100
AcDbEntity
  8
D-9
  6
Continuous
 62
     4
370
     9
100
AcDbLine
 10
-1043.995177805032
 20
-370.5368546093262
 30
0.0
 11
-1056.494352876748
 21
-383.0358437145508
 31
0.0
  0
LINE
  5
1A3
330
1F
100
AcDbEntity
  8
D-9
  6
Continuous
 62
     4
370
     9
100
AcDbLine
 10
-1051.066513120736
 20
-370.5368546093262
 30
0.0
 11
-1063.565688192452
 21
-383.0358437145508
 31
0.0
  0
LINE
  5
1A4
330
1F
100
AcDbEntity
  8
D-9
  6
Continuous
 62
     4
370
     9
100
AcDbLine
 10
-1058.137354909981
 20
-370.5368546093262
 30
0.0
 11
-1070.636713564004
 21
-383.0358437145508
 31
0.0
  0
LINE
  5
1A5
330
1F
100
AcDbEntity
  8
D-9
  6
Continuous
 62
     4
370
     9
100
AcDbLine
 10
-1065.208690225686
 20
-370.5368546093262
 30
0.0
 11
-1077.708048879708
 21
-383.0358437145508
 31
0.0
  0
LINE
  5
1A6
330
1F
100
AcDbEntity
  8
D-9
  6
Continuous
 62
     4
370
     9
100
AcDbLine
 10
-1100.564374982918
 20
-370.5368546093262
 30
0.0
 11
-1105.563464223946
 21
-375.5359390819825
 31
0.0
  0
LINE
  5
1A7
330
1F
100
AcDbEntity
  8
D-9
  6
Continuous
 62
     4
370
     9
100
AcDbLine
 10
-1107.635216772164
 20
-370.5368546093262
 30
0.0
 11
-1112.634368002022
 21
-375.5359390819825
 31
0.0
  0
LINE
  5
1A8
330
1F
100
AcDbEntity
  8
D-9
  6
Continuous
 62
     4
370
     9
100
AcDbLine
 10
-1142.990903913583
 20
-370.5368546093262
 30
0.0
 11
-1147.990360319222
 21
-375.5359390819825
 31
0.0
  0
LINE
  5
1A9
330
1F
100
AcDbEntity
  8
D-9
  6
Continuous
 62
     4
370
     9
100
AcDbLine
 10
-1093.4930420514
 20
-370.5368546093262
 30
0.0
 11
-1098.492307722176
 21
-375.5359390819825
 31
0.0
  0
LINE
  5
1AA
330
1F
100
AcDbEntity
  8
D-9
  6
Continuous
 62
     4
370
     9
100
AcDbLine
 10
-1079.350862562264
 20
-370.5368546093262
 30
0.0
 11
-1084.350056707467
 21
-375.5359390819825
 31
0.0
  0
LINE
  5
1AB
330
1F
100
AcDbEntity
  8
D-9
  6
Continuous
 62
     4
370
     9
100
AcDbLine
 10
-1086.422200262154
 20
-370.5368546093262
 30
0.0
 11
-1091.421375333871
 21
-375.5359390819825
 31
0.0
  0
LINE
  5
1AC
330
1F
100
AcDbEntity
  8
D-9
  6
Continuous
 62
     4
370
     9
100
AcDbLine
 10
-1114.706554472054
 20
-370.5368546093262
 30
0.0
 11
-1119.70563894471
 21
-375.5359390819825
 31
0.0
  0
LINE
  5
1AD
330
1F
100
AcDbEntity
  8
D-9
  6
Continuous
 62
     4
370
     9
100
AcDbLine
 10
-1121.777391492928
 20
-370.5368546093262
 30
0.0
 11
-1126.776571333016
 21
-375.5359390819825
 31
0.0
  0
LINE
  5
1AE
330
1F
100
AcDbEntity
  8
D-9
  6
Continuous
 62
     4
370
     9
100
AcDbLine
 10
-1128.848228513802
 20
-370.5368546093262
 30
0.0
 11
-1133.84743696412
 21
-375.5359390819825
 31
0.0
  0
LINE
  5
1AF
330
1F
100
AcDbEntity
  8
D-9
  6
Continuous
 62
     4
370
     9
100
AcDbLine
 10
-1135.919570982064
 20
-370.5368546093262
 30
0.0
 11
-1140.91883665284
 21
-375.5359390819825
 31
0.0
  0
LINE
  5
1B0
330
1F
100
AcDbEntity
  8
D-1
  6
Continuous
 62
     2
370
     9
100
AcDbLine
 10
-1083.373065054024
 20
-380.5362061107911
 30
0.0
 11
-1153.372860014046
 21
-380.5362061107911
 31
0.0
  0
LINE
  5
1B1
330
1F
100
AcDbEntity
  8
D-1
  6
Continuous
 62
     2
370
     9
100
AcDbLine
 10
-1083.373065054024
 20
-383.0361107433594
 30
0.0
 11
-1083.373065054024
 21
-380.5362061107911
 31
0.0
  0
LINE
  5
1B2
330
1F
100
AcDbEntity
  8
D-1
  6
Continuous
 62
     2
370
     9
100
AcDbLine
 10
-1083.373065054024
 20
-375.5359390819825
 30
0.0
 11
-1153.372860014046
 21
-375.5359390819825
 31
0.0
  0
LINE
  5
1B3
330
1F
100
AcDbEntity
  8
D-1
  6
Continuous
 62
     2
370
     9
100
AcDbLine
 10
-1078.373065054024
 20
-380.5359390819825
 30
0.0
 11
-1078.373065054024
 21
-383.0358437145508
 31
0.0
  0
LINE
  5
1B4
330
1F
100
AcDbEntity
  8
D-9
  6
Continuous
 62
     4
370
     9
100
AcDbLine
 10
-1072.28002554139
 20
-370.5368546093262
 30
0.0
 11
-1079.333124219979
 21
-377.5899532879151
 31
0.0
  0
LINE
  5
1B5
330
1F
100
AcDbEntity
  8
D-3
  6
Continuous
 62
     3
370
     9
100
AcDbLine
 10
-1019.873012363518
 20
-298.0358720267571
 30
0.0
 11
-1019.873012363518
 21
-410.5358723247803
 31
0.0
  0
LINE
  5
1B6
330
1F
100
AcDbEntity
  8
D-3
  6
Continuous
 62
     3
370
     9
100
AcDbLine
 10
-858.373127042855
 20
-388.035796030835
 30
0.0
 11
-858.373127042855
 21
-428.0358055675782
 31
0.0
  0
LINE
  5
1B7
330
1F
100
AcDbEntity
  8
D-3
  6
Continuous
 62
     3
370
     9
100
AcDbLine
 10
-983.3730412121665
 20
-409.8555401409424
 30
0.0
 11
-983.3730412121665
 21
-428.0358055675782
 31
0.0
  0
LINE
  5
1B8
330
1F
100
AcDbEntity
  8
D-3
  6
Continuous
 62
     3
370
     9
100
AcDbLine
 10
-986.3019848461997
 20
-402.784445628003
 30
0.0
 11
-1008.372998296822
 21
-380.713436945752
 31
0.0
  0
LINE
  5
1B9
330
1F
100
AcDbEntity
  8
D-3
  6
JWW_CENTER1
 62
     3
370
     9
100
AcDbLine
 10
-958.4345722790611
 20
-349.5357683742798
 30
0.0
 11
-1027.105554401482
 21
-349.5357683742798
 31
0.0
  0
LINE
  5
1BA
330
1F
100
AcDbEntity
  8
D-3
  6
Continuous
 62
     3
370
     9
100
AcDbLine
 10
-965.6954432125938
 20
-370.7134035671509
 30
0.0
 11
-968.8728190060508
 21
-367.5360277736939
 31
0.0
  0
LINE
  5
1BB
330
1F
100
AcDbEntity
  8
D-3
  6
Continuous
 62
     3
370
     9
100
AcDbLine
 10
-996.8734813328635
 20
-339.5352438534058
 30
0.0
 11
-1008.372998296822
 21
-328.0357245052613
 31
0.0
  0
LINE
  5
1BC
330
1F
100
AcDbEntity
  8
D-A
  6
Continuous
 62
     7
370
     9
100
AcDbLine
 10
-1022.123725473489
 20
-359.5353058422364
 30
0.0
 11
-1022.123725473489
 21
-339.5352438534058
 31
0.0
  0
LINE
  5
1BD
330
1F
100
AcDbEntity
  8
D-A
  6
Continuous
 62
     7
370
     9
100
AcDbLine
 10
-1022.123725473489
 20
-339.5352438534058
 30
0.0
 11
-1023.373295724
 21
-340.7853058422364
 31
0.0
  0
LINE
  5
1BE
330
1F
100
AcDbEntity
  8
D-A
  6
Continuous
 62
     7
370
     9
100
AcDbLine
 10
-1022.123725473489
 20
-359.5353058422364
 30
0.0
 11
-1023.373295724
 21
-358.2857349956788
 31
0.0
  0
LINE
  5
1BF
330
1F
100
AcDbEntity
  8
D-A
  6
Continuous
 62
     7
370
     9
100
AcDbLine
 10
-960.3732634182822
 20
-361.0360315883912
 30
0.0
 11
-960.3732634182822
 21
-338.0355099285401
 31
0.0
  0
LINE
  5
1C0
330
1F
100
AcDbEntity
  8
D-A
  6
Continuous
 62
     7
370
     9
100
AcDbLine
 10
-966.873259603585
 20
-367.5360277736939
 30
0.0
 11
-973.3732557888877
 21
-367.5360277736939
 31
0.0
  0
LINE
  5
1C1
330
1F
100
AcDbEntity
  8
D-A
  6
Continuous
 62
     7
370
     9
100
AcDbLine
 10
-966.873259603585
 20
-331.5355113590516
 30
0.0
 11
-973.3732557888877
 21
-331.5355113590516
 31
0.0
  0
LINE
  5
1C2
330
1F
100
AcDbEntity
  8
D-A
  6
Continuous
 62
     7
370
     9
100
AcDbLine
 10
-973.3732557888877
 20
-331.5355113590516
 30
0.0
 11
-973.3732557888877
 21
-367.5360277736939
 31
0.0
  0
LINE
  5
1C3
330
1F
100
AcDbEntity
  8
D-A
  6
Continuous
 62
     7
370
     9
100
AcDbLine
 10
-973.3732557888877
 20
-339.5352438534058
 30
0.0
 11
-1008.372998296822
 21
-339.5352438534058
 31
0.0
  0
LINE
  5
1C4
330
1F
100
AcDbEntity
  8
D-A
  6
Continuous
 62
     7
370
     9
100
AcDbLine
 10
-973.3732557888877
 20
-340.7853058422364
 30
0.0
 11
-1008.372998296822
 21
-340.7853058422364
 31
0.0
  0
LINE
  5
1C5
330
1F
100
AcDbEntity
  8
D-A
  6
Continuous
 62
     7
370
     9
100
AcDbLine
 10
-973.3732557888877
 20
-358.2857349956788
 30
0.0
 11
-1008.372998296822
 21
-358.2857349956788
 31
0.0
  0
LINE
  5
1C6
330
1F
100
AcDbEntity
  8
D-A
  6
Continuous
 62
     7
370
     9
100
AcDbLine
 10
-973.3732557888877
 20
-359.5353058422364
 30
0.0
 11
-1008.372998296822
 21
-359.5353058422364
 31
0.0
  0
LINE
  5
1C7
330
1F
100
AcDbEntity
  8
D-A
  6
Continuous
 62
     7
370
     9
100
AcDbLine
 10
-1019.873012363518
 20
-358.2857349956788
 30
0.0
 11
-1023.373295724
 21
-358.2857349956788
 31
0.0
  0
LINE
  5
1C8
330
1F
100
AcDbEntity
  8
D-A
  6
Continuous
 62
     7
370
     9
100
AcDbLine
 10
-1019.873012363518
 20
-359.5353058422364
 30
0.0
 11
-1022.123725473489
 21
-359.5353058422364
 31
0.0
  0
LINE
  5
1C9
330
1F
100
AcDbEntity
  8
D-A
  6
Continuous
 62
     7
370
     9
100
AcDbLine
 10
-1019.873012363518
 20
-340.7853058422364
 30
0.0
 11
-1023.373295724
 21
-340.7853058422364
 31
0.0
  0
LINE
  5
1CA
330
1F
100
AcDbEntity
  8
D-A
  6
Continuous
 62
     7
370
     9
100
AcDbLine
 10
-1019.873012363518
 20
-339.5352438534058
 30
0.0
 11
-1022.123725473489
 21
-339.5352438534058
 31
0.0
  0
LINE
  5
1CB
330
1F
100
AcDbEntity
  8
D-3
  6
JWW_DASHED2
 62
     3
370
     9
100
AcDbLine
 10
-983.3730412121665
 20
-416.5357903087891
 30
0.0
 11
-858.373127042855
 21
-416.5357903087891
 31
0.0
  0
LINE
  5
1CC
330
1F
100
AcDbEntity
  8
D-3
  6
Continuous
 62
     3
370
     9
100
AcDbLine
 10
-868.3730316754234
 20
-378.0358913982666
 30
0.0
 11
-948.0177212353599
 21
-378.0358913982666
 31
0.0
  0
LINE
  5
1CD
330
1F
100
AcDbEntity
  8
D-3
  6
Continuous
 62
     3
370
     9
100
AcDbLine
 10
-983.3730412121665
 20
-428.0358055675782
 30
0.0
 11
-858.373127042855
 21
-428.0358055675782
 31
0.0
  0
LINE
  5
1CE
330
1F
100
AcDbEntity
  8
D-1
  6
Continuous
 62
     2
370
     9
100
AcDbLine
 10
-1023.373295724
 20
-298.0358720267571
 30
0.0
 11
-1008.372998296822
 21
-298.0358720267571
 31
0.0
  0
LINE
  5
1CF
330
1F
100
AcDbEntity
  8
D-1
  6
Continuous
 62
     2
370
     9
100
AcDbLine
 10
-1003.373229562844
 20
-320.536070212201
 30
0.0
 11
-1008.372998296822
 21
-320.536070212201
 31
0.0
  0
LINE
  5
1D0
330
1F
100
AcDbEntity
  8
D-1
  6
Continuous
 62
     2
370
     9
100
AcDbLine
 10
-1008.372998296822
 20
-320.536070212201
 30
0.0
 11
-1008.372998296822
 21
-298.0358720267571
 31
0.0
  0
LINE
  5
1D1
330
1F
100
AcDbEntity
  8
D-3
  6
Continuous
 62
     3
370
     9
100
AcDbLine
 10
-1019.873012363518
 20
-298.0358720267571
 30
0.0
 11
-1008.372998296822
 21
-298.0358720267571
 31
0.0
  0
LINE
  5
1D2
330
1F
100
AcDbEntity
  8
D-1
  6
Continuous
 62
     2
370
     9
100
AcDbLine
 10
-1003.373229562844
 20
-390.5359295452393
 30
0.0
 11
-1008.372998296822
 21
-390.5359295452393
 31
0.0
  0
LINE
  5
1D3
330
1F
100
AcDbEntity
  8
D-1
  6
Continuous
 62
     2
370
     9
100
AcDbLine
 10
-1008.372998296822
 20
-413.0361298168457
 30
0.0
 11
-1008.372998296822
 21
-390.5359295452393
 31
0.0
  0
LINE
  5
1D4
330
1F
100
AcDbEntity
  8
D-3
  6
Continuous
 62
     3
370
     9
100
AcDbLine
 10
-1019.873012363518
 20
-410.5358723247803
 30
0.0
 11
-1008.372998296822
 21
-410.5358723247803
 31
0.0
  0
LINE
  5
1D5
330
1F
100
AcDbEntity
  8
D-3
  6
Continuous
 62
     3
370
     9
100
AcDbLine
 10
-1008.372998296822
 20
-298.0358720267571
 30
0.0
 11
-1008.372998296822
 21
-410.5358723247803
 31
0.0
  0
LINE
  5
1D6
330
1F
100
AcDbEntity
  8
D-6
  6
Continuous
 62
     6
370
     5
100
AcDbLine
 10
-1006.37269502839
 20
-293.0361870373047
 30
0.0
 11
-593.3713150616538
 21
-293.0361870373047
 31
0.0
  0
LINE
  5
1D7
330
1F
100
AcDbEntity
  8
D-6
  6
Continuous
 62
     6
370
     5
100
AcDbLine
 10
-1158.372182905282
 20
-388.0361107433594
 30
0.0
 11
-1158.372182905282
 21
-793.0355385387696
 31
0.0
  0
LINE
  5
1D8
330
1F
100
AcDbEntity
  8
D-4
  6
Continuous
 62
     7
370
     9
100
AcDbLine
 10
-1075.227060377206
 20
-418.0360249126709
 30
0.0
 11
-1306.855259000863
 21
-418.0360249126709
 31
0.0
  0
LINE
  5
1D9
330
1F
100
AcDbEntity
  8
D-5
  6
Continuous
 62
     7
370
     9
100
AcDbLine
 10
-1033.85592254212
 20
-431.8130234325684
 30
0.0
 11
-1098.904414236153
 21
-375.1960209453858
 31
0.0
  0
LINE
  5
1DA
330
1F
100
AcDbEntity
  8
D-5
  6
Continuous
 62
     7
370
     9
100
AcDbLine
 10
-1098.904414236153
 20
-375.1960209453858
 30
0.0
 11
-1082.350802480782
 21
-393.9301899517334
 31
0.0
  0
LINE
  5
1DB
330
1F
100
AcDbEntity
  8
D-5
  6
Continuous
 62
     7
370
     9
100
AcDbLine
 10
-1098.904414236153
 20
-375.1960209453858
 30
0.0
 11
-1078.065991460885
 21
-389.0077141369141
 31
0.0
  0
ARC
  5
1DC
330
1F
100
AcDbEntity
  8
D-9
  6
Continuous
 62
     4
370
     9
100
AcDbCircle
 10
-1143.372821867074
 20
-375.5361298168457
 30
0.0
 40
5.0
100
AcDbArc
 50
90.0
 51
180.0
  0
ARC
  5
1DD
330
1F
100
AcDbEntity
  8
D-1
  6
Continuous
 62
     2
370
     9
100
AcDbCircle
 10
-1153.372860014046
 20
-380.5362061107911
 30
0.0
 40
5.0
100
AcDbArc
 50
90.0
 51
180.0
  0
ARC
  5
1DE
330
1F
100
AcDbEntity
  8
D-1
  6
Continuous
 62
     2
370
     9
100
AcDbCircle
 10
-1006.37269502839
 20
-296.036187156514
 30
0.0
 40
3.00000011920929
100
AcDbArc
 50
0.0
 51
90.0
  0
ARC
  5
1DF
330
1F
100
AcDbEntity
  8
D-1
  6
Continuous
 62
     2
370
     9
100
AcDbCircle
 10
-1025.372980892266
 20
-296.036187156514
 30
0.0
 40
3.00000011920929
100
AcDbArc
 50
90.0
 51
180.0
  0
ARC
  5
1E0
330
1F
100
AcDbEntity
  8
D-1
  6
Continuous
 62
     2
370
     9
100
AcDbCircle
 10
-1006.37269502839
 20
-415.0358131969727
 30
0.0
 40
3.00000011920929
100
AcDbArc
 50
270.0
 51
0.0
  0
ARC
  5
1E1
330
1F
100
AcDbEntity
  8
D-1
  6
Continuous
 62
     2
370
     9
100
AcDbCircle
 10
-1153.372860014046
 20
-388.0361107433594
 30
0.0
 40
5.0
100
AcDbArc
 50
180.0
 51
270.0
  0
ARC
  5
1E2
330
1F
100
AcDbEntity
  8
D-1
  6
Continuous
 62
     2
370
     9
100
AcDbCircle
 10
-1023.373048364724
 20
-413.036377772168
 30
0.0
 40
5.0
100
AcDbArc
 50
180.0
 51
270.0
  0
ARC
  5
1E3
330
1F
100
AcDbEntity
  8
D-1
  6
Continuous
 62
     2
370
     9
100
AcDbCircle
 10
-1028.3733124133
 20
-393.0361202801026
 30
0.0
 40
5.0
100
AcDbArc
 50
0.0
 51
90.0
  0
ARC
  5
1E4
330
1F
100
AcDbEntity
  8
D-1
  6
Continuous
 62
     2
370
     9
100
AcDbCircle
 10
-1028.3733124133
 20
-383.0360916698731
 30
0.0
 40
5.0
100
AcDbArc
 50
270.0
 51
0.0
  0
ARC
  5
1E5
330
1F
100
AcDbEntity
  8
D-1
  6
Continuous
 62
     2
370
     9
100
AcDbCircle
 10
-1078.373065054024
 20
-383.0361107433594
 30
0.0
 40
5.0
100
AcDbArc
 50
180.0
 51
270.0
  0
ARC
  5
1E6
330
1F
100
AcDbEntity
  8
D-1
  6
Continuous
 62
     2
370
     9
100
AcDbCircle
 10
-1083.373065054024
 20
-380.5359390819825
 30
0.0
 40
5.0
100
AcDbArc
 50
0.0
 51
90.0
  0
ARC
  5
1E7
330
1F
100
AcDbEntity
  8
D-3
  6
Continuous
 62
     3
370
     9
100
AcDbCircle
 10
-948.0177212353599
 20
-353.0358055675782
 30
0.0
 40
25.0
100
AcDbArc
 50
225.0
 51
270.0
  0
ARC
  5
1E8
330
1F
100
AcDbEntity
  8
D-3
  6
Continuous
 62
     3
370
     9
100
AcDbCircle
 10
-868.3730316754234
 20
-388.035796030835
 30
0.0
 40
10.0
100
AcDbArc
 50
0.0
 51
90.0
  0
ARC
  5
1E9
330
1F
100
AcDbEntity
  8
D-3
  6
Continuous
 62
     3
370
     9
100
AcDbCircle
 10
-993.3730722065818
 20
-409.8555401409424
 30
0.0
 40
10.0
100
AcDbArc
 50
0.0
 51
45.000244140625
  0
ARC
  5
1EA
330
1F
100
AcDbEntity
  8
D-A
  6
Continuous
 62
     7
370
     9
100
AcDbCircle
 10
-966.873259603585
 20
-338.0355099285401
 30
0.0
 40
6.499999761581421
100
AcDbArc
 50
0.0
 51
90.0
  0
ARC
  5
1EB
330
1F
100
AcDbEntity
  8
D-A
  6
Continuous
 62
     7
370
     9
100
AcDbCircle
 10
-966.873259603585
 20
-361.0360315883912
 30
0.0
 40
6.499999761581421
100
AcDbArc
 50
270.0
 51
0.0
  0
LWPOLYLINE
  5
1EC
330
1F
100
AcDbEntity
  8
D-4
  6
Continuous
 62
     7
370
     9
100
AcDbPolyline
 90
        4
 70
     1
 43
1.0
 10
-1002.873196184243
 20
47.331053868457
 42
0.4142135623731
 10
-1003.373196184243
 20
47.831053868457
 42
0.4142135623731
 10
-1003.873196184243
 20
47.331053868457
 42
0.4142135623731
 10
-1003.373196184243
 20
46.831053868457
 42
0.4142135623731
  0
LWPOLYLINE
  5
1ED
330
1F
100
AcDbEntity
  8
D-4
  6
Continuous
 62
     7
370
     9
100
AcDbPolyline
 90
        4
 70
     1
 43
1.0
 10
-1157.872182905282
 20
-172.1170357311524
 42
0.4142135623731
 10
-1158.372182905282
 20
-171.6170357311524
 42
0.4142135623731
 10
-1158.872182905282
 20
-172.1170357311524
 42
0.4142135623731
 10
-1158.372182905282
 20
-172.6170357311524
 42
0.4142135623731
  0
LWPOLYLINE
  5
1EE
330
1F
100
AcDbEntity
  8
D-4
  6
Continuous
 62
     7
370
     9
100
AcDbPolyline
 90
        4
 70
     1
 43
1.0
 10
-1032.872345029916
 20
-172.1170357311524
 42
0.4142135623731
 10
-1033.372345029916
 20
-171.6170357311524
 42
0.4142135623731
 10
-1033.872345029916
 20
-172.1170357311524
 42
0.4142135623731
 10
-1033.372345029916
 20
-172.6170357311524
 42
0.4142135623731
  0
LWPOLYLINE
  5
1EF
330
1F
100
AcDbEntity
  8
D-4
  6
Continuous
 62
     7
370
     9
100
AcDbPolyline
 90
        4
 70
     1
 43
1.0
 10
-1032.872345029916
 20
-63.3646133983887
 42
0.4142135623731
 10
-1033.372345029916
 20
-62.8646133983887
 42
0.4142135623731
 10
-1033.872345029916
 20
-63.3646133983887
 42
0.4142135623731
 10
-1033.372345029916
 20
-63.8646133983887
 42
0.4142135623731
  0
LWPOLYLINE
  5
1F0
330
1F
100
AcDbEntity
  8
D-4
  6
Continuous
 62
     7
370
     9
100
AcDbPolyline
 90
        4
 70
     1
 43
1.0
 10
-1027.872074424828
 20
-63.3646133983887
 42
0.4142135623731
 10
-1028.372074424828
 20
-62.8646133983887
 42
0.4142135623731
 10
-1028.872074424828
 20
-63.3646133983887
 42
0.4142135623731
 10
-1028.372074424828
 20
-63.8646133983887
 42
0.4142135623731
  0
LWPOLYLINE
  5
1F1
330
1F
100
AcDbEntity
  8
D-4
  6
Continuous
 62
     7
370
     9
100
AcDbPolyline
 90
        4
 70
     1
 43
1.0
 10
-1002.873196184243
 20
-63.3646133983887
 42
0.4142135623731
 10
-1003.373196184243
 20
-62.8646133983887
 42
0.4142135623731
 10
-1003.873196184243
 20
-63.3646133983887
 42
0.4142135623731
 10
-1003.373196184243
 20
-63.8646133983887
 42
0.4142135623731
  0
LWPOLYLINE
  5
1F2
330
1F
100
AcDbEntity
  8
D-4
  6
Continuous
 62
     7
370
     9
100
AcDbPolyline
 90
        4
 70
     1
 43
1.0
 10
-1303.354694425667
 20
-418.0360249126709
 42
0.4142135623731
 10
-1303.854694425668
 20
-417.5360249126709
 42
0.4142135623731
 10
-1304.354694425668
 20
-418.0360249126709
 42
0.4142135623731
 10
-1303.854694425668
 20
-418.5360249126709
 42
0.4142135623731
  0
LWPOLYLINE
  5
1F3
330
1F
100
AcDbEntity
  8
D-4
  6
Continuous
 62
     7
370
     9
100
AcDbPolyline
 90
        4
 70
     1
 43
1.0
 10
-1303.354694425667
 20
-293.0361870373047
 42
0.4142135623731
 10
-1303.854694425668
 20
-292.5361870373047
 42
0.4142135623731
 10
-1304.354694425668
 20
-293.0361870373047
 42
0.4142135623731
 10
-1303.854694425668
 20
-293.5361870373047
 42
0.4142135623731
  0
LWPOLYLINE
  5
1F4
330
1F
100
AcDbEntity
  8
D-4
  6
Continuous
 62
     7
370
     9
100
AcDbPolyline
 90
        4
 70
     1
 43
1.0
 10
-1002.873196184243
 20
-499.3454292858399
 42
0.4142135623731
 10
-1003.373196184243
 20
-498.8454292858399
 42
0.4142135623731
 10
-1003.873196184243
 20
-499.3454292858399
 42
0.4142135623731
 10
-1003.373196184243
 20
-499.8454292858398
 42
0.4142135623731
  0
LWPOLYLINE
  5
1F5
330
1F
100
AcDbEntity
  8
D-4
  6
Continuous
 62
     7
370
     9
100
AcDbPolyline
 90
        4
 70
     1
 43
1.0
 10
-857.8727646466148
 20
-499.3454292858399
 42
0.4142135623731
 10
-858.3727646466148
 20
-498.8454292858399
 42
0.4142135623731
 10
-858.8727646466147
 20
-499.3454292858399
 42
0.4142135623731
 10
-858.3727646466148
 20
-499.8454292858398
 42
0.4142135623731
  0
LWPOLYLINE
  5
1F6
330
1F
100
AcDbEntity
  8
D-4
  6
Continuous
 62
     7
370
     9
100
AcDbPolyline
 90
        4
 70
     1
 43
1.0
 10
-1157.872182905282
 20
-698.6546639049806
 42
0.4142135623731
 10
-1158.372182905282
 20
-698.1546639049806
 42
0.4142135623731
 10
-1158.872182905282
 20
-698.6546639049806
 42
0.4142135623731
 10
-1158.372182905282
 20
-699.1546639049806
 42
0.4142135623731
  0
LWPOLYLINE
  5
1F7
330
1F
100
AcDbEntity
  8
D-4
  6
Continuous
 62
     7
370
     9
100
AcDbPolyline
 90
        4
 70
     1
 43
1.0
 10
-1007.872972070779
 20
-698.6546639049806
 42
0.4142135623731
 10
-1008.372972070779
 20
-698.1546639049806
 42
0.4142135623731
 10
-1008.872972070778
 20
-698.6546639049806
 42
0.4142135623731
 10
-1008.372972070779
 20
-699.1546639049806
 42
0.4142135623731
  0
LWPOLYLINE
  5
1F8
330
1F
100
AcDbEntity
  8
D-4
  6
Continuous
 62
     7
370
     9
100
AcDbPolyline
 90
        4
 70
     1
 43
1.0
 10
-1157.872182905282
 20
-853.1190422619142
 42
0.4142135623731
 10
-1158.372182905282
 20
-852.6190422619142
 42
0.4142135623731
 10
-1158.872182905282
 20
-853.1190422619142
 42
0.4142135623731
 10
-1158.372182905282
 20
-853.6190422619142
 42
0.4142135623731
  0
LWPOLYLINE
  5
1F9
330
1F
100
AcDbEntity
  8
D-4
  6
Continuous
 62
     7
370
     9
100
AcDbPolyline
 90
        4
 70
     1
 43
1.0
 10
-757.8713150616538
 20
-853.1190422619142
 42
0.4142135623731
 10
-758.3713150616538
 20
-852.6190422619142
 42
0.4142135623731
 10
-758.8713150616537
 20
-853.1190422619142
 42
0.4142135623731
 10
-758.3713150616538
 20
-853.6190422619142
 42
0.4142135623731
  0
LWPOLYLINE
  5
1FA
330
1F
100
AcDbEntity
  8
D-4
  6
Continuous
 62
     7
370
     9
100
AcDbPolyline
 90
        4
 70
     1
 43
1.0
 10
-486.1869736309898
 20
-293.0361870373047
 42
0.4142135623731
 10
-486.6869736309897
 20
-292.5361870373047
 42
0.4142135623731
 10
-487.1869736309897
 20
-293.0361870373047
 42
0.4142135623731
 10
-486.6869736309897
 20
-293.5361870373047
 42
0.4142135623731
  0
LWPOLYLINE
  5
1FB
330
1F
100
AcDbEntity
  8
D-4
  6
Continuous
 62
     7
370
     9
100
AcDbPolyline
 90
        4
 70
     1
 43
1.0
 10
-486.1869736309898
 20
-543.0358627880371
 42
0.4142135623731
 10
-486.6869736309897
 20
-542.5358627880372
 42
0.4142135623731
 10
-487.1869736309897
 20
-543.0358627880371
 42
0.4142135623731
 10
-486.6869736309897
 20
-543.5358627880371
 42
0.4142135623731
  0
LWPOLYLINE
  5
1FC
330
1F
100
AcDbEntity
  8
D-4
  6
Continuous
 62
     7
370
     9
100
AcDbPolyline
 90
        4
 70
     1
 43
1.0
 10
-759.2994232769859
 20
-293.0361870373047
 42
0.4142135623731
 10
-759.7994232769859
 20
-292.5361870373047
 42
0.4142135623731
 10
-760.2994232769857
 20
-293.0361870373047
 42
0.4142135623731
 10
-759.7994232769859
 20
-293.5361870373047
 42
0.4142135623731
  0
LWPOLYLINE
  5
1FD
330
1F
100
AcDbEntity
  8
D-4
  6
Continuous
 62
     7
370
     9
100
AcDbPolyline
 90
        4
 70
     1
 43
1.0
 10
-759.2994232769859
 20
-378.0363300884522
 42
0.4142135623731
 10
-759.7994232769859
 20
-377.5363300884522
 42
0.4142135623731
 10
-760.2994232769857
 20
-378.0363300884522
 42
0.4142135623731
 10
-759.7994232769859
 20
-378.5363300884521
 42
0.4142135623731
  0
LWPOLYLINE
  5
1FE
330
1F
100
AcDbEntity
  8
D-4
  6
Continuous
 62
     7
370
     9
100
AcDbPolyline
 90
        4
 70
     1
 43
1.0
 10
-759.2994232769859
 20
-428.0365685070313
 42
0.4142135623731
 10
-759.7994232769859
 20
-427.5365685070313
 42
0.4142135623731
 10
-760.2994232769857
 20
-428.0365685070313
 42
0.4142135623731
 10
-759.7994232769859
 20
-428.5365685070312
 42
0.4142135623731
  0
LWPOLYLINE
  5
1FF
330
1F
100
AcDbEntity
  8
D-4
  6
Continuous
 62
     7
370
     9
100
AcDbPolyline
 90
        4
 70
     1
 43
1.0
 10
-1157.872182905282
 20
-499.3454292858399
 42
0.4142135623731
 10
-1158.372182905282
 20
-498.8454292858399
 42
0.4142135623731
 10
-1158.872182905282
 20
-499.3454292858399
 42
0.4142135623731
 10
-1158.372182905282
 20
-499.8454292858398
 42
0.4142135623731
  0
TEXT
  5
200
330
1F
100
AcDbEntity
  8
D-4
  6
Continuous
 62
     2
370
     9
100
AcDbText
 10
-1066.317055284585
 20
-52.72533819086917
 30
0.0
 40
30.48
  1
1
 41
0.9999999999999998
  7
ＭＳ ゴシック
100
AcDbText
  0
TEXT
  5
201
330
1F
100
AcDbEntity
  8
D-4
  6
Continuous
 62
     2
370
     9
100
AcDbText
 10
-1117.121429502572
 20
-161.4767591656006
 30
0.0
 40
30.48
  1
25
 41
1.0625
  7
ＭＳ ゴシック
100
AcDbText
  0
TEXT
  5
202
330
1F
100
AcDbEntity
  8
D-4
  6
Continuous
 62
     2
370
     9
100
AcDbText
 10
-1149.622201978768
 20
-688.015388697461
 30
0.0
 40
30.48
  1
25～30
 41
1.104166666666667
  7
ＭＳ ゴシック
100
AcDbText
  0
TEXT
  5
203
330
1F
100
AcDbEntity
  8
D-4
  6
Continuous
 62
     2
370
     9
100
AcDbText
 10
-1026.240546515225
 20
-842.478775233145
 30
0.0
 40
30.48
  1
75～80
 50
359.9997855578312
 41
1.104166666666667
  7
ＭＳ ゴシック
100
AcDbText
  0
TEXT
  5
204
330
1F
100
AcDbEntity
  8
D-4
  6
Continuous
 62
     2
370
     9
100
AcDbText
 10
-497.3262488385092
 20
-484.2861491368643
 30
0.0
 40
30.48
  1
40～50
 50
90.00000250447816
 41
1.104166666666667
  7
ＭＳ ゴシック
100
AcDbText
  0
TEXT
  5
205
330
1F
100
AcDbEntity
  8
D-4
  6
Continuous
 62
     2
370
     9
100
AcDbText
 10
-967.7891913119781
 20
-488.706135005218
 30
0.0
 40
30.48
  1
29
 50
0.0006685549992706
 41
1.062499999999998
  7
ＭＳ ゴシック
100
AcDbText
  0
TEXT
  5
206
330
1F
100
AcDbEntity
  8
D-4
  6
Continuous
 62
     2
370
     9
100
AcDbText
 10
-994.4597149487388
 20
-52.72533819086917
 30
0.0
 40
30.48
  1
5
 41
0.9999999999999998
  7
ＭＳ ゴシック
100
AcDbText
  0
TEXT
  5
207
330
1F
100
AcDbEntity
  8
D-5
  6
Continuous
 62
     7
370
     9
100
AcDbText
 10
-746.1847687359702
 20
-267.6853908336914
 30
0.0
 40
22.86
  1
ｔ＝２．３（ＳＰＨＣ）
 41
1.151515151515152
  7
ＭＳ ゴシック
100
AcDbText
  0
TEXT
  5
208
330
1F
100
AcDbEntity
  8
D-4
  6
Continuous
 62
     2
370
     9
100
AcDbText
 10
-770.4397093792808
 20
-424.2858630345694
 30
0.0
 40
30.48
  1
10
 50
90.00000250447809
 41
1.062500000000001
  7
ＭＳ ゴシック
100
AcDbText
  0
TEXT
  5
209
330
1F
100
AcDbEntity
  8
D-4
  6
Continuous
 62
     2
370
     9
100
AcDbText
 10
-770.4397093792808
 20
-356.7861729787222
 30
0.0
 40
30.48
  1
17
 50
90.00000250447809
 41
1.062500000000001
  7
ＭＳ ゴシック
100
AcDbText
  0
TEXT
  5
20A
330
1F
100
AcDbEntity
  8
D-4
  6
Continuous
 62
     2
370
     9
100
AcDbText
 10
-1102.122688352669
 20
-487.7054254711426
 30
0.0
 40
30.48
  1
31
 41
1.0625
  7
ＭＳ ゴシック
100
AcDbText
  0
LINE
  5
20B
330
1F
100
AcDbEntity
  8
D-2
  6
Continuous
 62
     3
370
     9
100
AcDbLine
 10
-1033.372345029916
 20
-295.5360715533055
 30
0.0
 11
-1033.372345029916
 21
-370.5360725963868
 31
0.0
  0
LINE
  5
20C
330
1F
100
AcDbEntity
  8
D-2
  6
Continuous
 62
     3
370
     9
100
AcDbLine
 10
-1048.373160421456
 20
-370.5360725963868
 30
0.0
 11
-1048.373160421456
 21
-295.5360715533055
 31
0.0
  0
LINE
  5
20D
330
1F
100
AcDbEntity
  8
D-4
  6
Continuous
 62
     7
370
     9
100
AcDbLine
 10
-1515.098838865365
 20
-370.5360725963868
 30
0.0
 11
-1515.098838865365
 21
-295.5360715533055
 31
0.0
  0
LINE
  5
20E
330
1F
100
AcDbEntity
  8
D-2
  6
Continuous
 62
     3
370
     9
100
AcDbLine
 10
-1033.372345029916
 20
-370.5360725963868
 30
0.0
 11
-1706.04057317933
 21
-370.5360725963868
 31
0.0
  0
LINE
  5
20F
330
1F
100
AcDbEntity
  8
D-2
  6
Continuous
 62
     3
370
     9
100
AcDbLine
 10
-1033.372345029916
 20
-295.5360715533055
 30
0.0
 11
-1706.04057317933
 21
-295.5360715533055
 31
0.0
  0
LINE
  5
210
330
1F
100
AcDbEntity
  8
D-5
  6
Continuous
 62
     7
370
     9
100
AcDbLine
 10
-1106.363320409859
 20
-298.0362037266053
 30
0.0
 11
-1092.634368002022
 21
-277.1433750236786
 31
0.0
  0
LINE
  5
211
330
1F
100
AcDbEntity
  8
D-5
  6
Continuous
 62
     7
370
     9
100
AcDbLine
 10
-1106.363320409859
 20
-298.0362037266053
 30
0.0
 11
-1087.695050298775
 21
-281.4082470978058
 31
0.0
  0
LWPOLYLINE
  5
212
330
1F
100
AcDbEntity
  8
D-4
  6
Continuous
 62
     7
370
     9
100
AcDbPolyline
 90
        4
 70
     1
 43
1.0
 10
-1514.598838865365
 20
-295.5360715533055
 42
0.4142135623731
 10
-1515.098838865365
 20
-295.0360715533055
 42
0.4142135623731
 10
-1515.598838865365
 20
-295.5360715533055
 42
0.4142135623731
 10
-1515.098838865365
 20
-296.0360715533055
 42
0.4142135623731
  0
LWPOLYLINE
  5
213
330
1F
100
AcDbEntity
  8
D-4
  6
Continuous
 62
     7
370
     9
100
AcDbPolyline
 90
        4
 70
     1
 43
1.0
 10
-1514.598838865365
 20
-370.5360725963868
 42
0.4142135623731
 10
-1515.098838865365
 20
-370.0360725963868
 42
0.4142135623731
 10
-1515.598838865365
 20
-370.5360725963868
 42
0.4142135623731
 10
-1515.098838865365
 20
-371.0360725963867
 42
0.4142135623731
  0
TEXT
  5
214
330
1F
100
AcDbEntity
  8
D-4
  6
Continuous
 62
     2
370
     9
100
AcDbText
 10
-1525.738114072884
 20
-354.2862015889517
 30
0.0
 40
30.48
  1
15
 50
90.00000250447827
 41
1.062500000000001
  7
ＭＳ ゴシック
100
AcDbText
  0
TEXT
  5
215
330
1F
100
AcDbEntity
  8
D-4
  6
Continuous
 62
     2
370
     9
100
AcDbText
 10
-1313.20658424801
 20
-421.2961592024485
 30
0.0
 40
30.48
  1
25
 50
90.00000250000005
 41
1.062499999999999
  7
ＭＳ ゴシック
100
AcDbText
  0
TEXT
  5
216
330
1F
100
AcDbEntity
  8
D-5
  6
Continuous
 62
     7
370
     9
100
AcDbText
 10
-746.1847687359702
 20
-226.4618934429444
 30
0.0
 40
22.86
  1
溶接用アンカー
 41
1.142857142857143
  7
ＭＳ ゴシック
100
AcDbText
  0
LINE
  5
217
330
1F
100
AcDbEntity
  8
D-2
  6
JWW_CENTER1
 62
     3
370
     9
100
AcDbLine
 10
-1443.960218488778
 20
-336.5361097896851
 30
0.0
 11
-1372.538900434579
 21
-336.5361097896851
 31
0.0
  0
LINE
  5
218
330
1F
100
AcDbEntity
  8
D-2
  6
JWW_CENTER1
 62
     3
370
     9
100
AcDbLine
 10
-1408.372182905282
 20
-372.1241406048096
 30
0.0
 11
-1408.372182905282
 21
-300.7026151264466
 31
0.0
  0
LINE
  5
219
330
1F
100
AcDbEntity
  8
D-2
  6
Continuous
 62
     3
370
     9
100
AcDbLine
 10
-1408.372182905282
 20
-354.2137793148316
 30
0.0
 11
-1390.694494306649
 21
-336.5361097896851
 31
0.0
  0
LINE
  5
21A
330
1F
100
AcDbEntity
  8
D-2
  6
Continuous
 62
     3
370
     9
100
AcDbLine
 10
-1390.694494306649
 20
-336.5361097896851
 30
0.0
 11
-1408.372182905282
 21
-318.8584402645386
 31
0.0
  0
LINE
  5
21B
330
1F
100
AcDbEntity
  8
D-2
  6
Continuous
 62
     3
370
     9
100
AcDbLine
 10
-1408.372182905282
 20
-318.8584402645386
 30
0.0
 11
-1426.049871503915
 21
-336.5361097896851
 31
0.0
  0
LINE
  5
21C
330
1F
100
AcDbEntity
  8
D-2
  6
Continuous
 62
     3
370
     9
100
AcDbLine
 10
-1426.049871503915
 20
-336.5361097896851
 30
0.0
 11
-1408.372182905282
 21
-354.2137793148316
 31
0.0
  0
LINE
  5
21D
330
1F
100
AcDbEntity
  8
D-2
  6
Continuous
 62
     3
370
     9
100
AcDbLine
 10
-1395.872182905282
 20
-324.035985812024
 30
0.0
 11
-1403.19464689454
 21
-324.035985812024
 31
0.0
  0
LINE
  5
21E
330
1F
100
AcDbEntity
  8
D-2
  6
Continuous
 62
     3
370
     9
100
AcDbLine
 10
-1413.549718916024
 20
-324.035985812024
 30
0.0
 11
-1420.872182905282
 21
-324.035985812024
 31
0.0
  0
LINE
  5
21F
330
1F
100
AcDbEntity
  8
D-2
  6
Continuous
 62
     3
370
     9
100
AcDbLine
 10
-1420.872182905282
 20
-324.035985812024
 30
0.0
 11
-1420.872182905282
 21
-331.3584402645386
 31
0.0
  0
LINE
  5
220
330
1F
100
AcDbEntity
  8
D-2
  6
Continuous
 62
     3
370
     9
100
AcDbLine
 10
-1420.872182905282
 20
-341.7137793148316
 30
0.0
 11
-1420.872182905282
 21
-349.035985812024
 31
0.0
  0
LINE
  5
221
330
1F
100
AcDbEntity
  8
D-2
  6
Continuous
 62
     3
370
     9
100
AcDbLine
 10
-1420.872182905282
 20
-349.035985812024
 30
0.0
 11
-1413.549985944833
 21
-349.035985812024
 31
0.0
  0
LINE
  5
222
330
1F
100
AcDbEntity
  8
D-2
  6
Continuous
 62
     3
370
     9
100
AcDbLine
 10
-1403.194379865731
 20
-349.035985812024
 30
0.0
 11
-1395.872182905282
 21
-349.035985812024
 31
0.0
  0
LINE
  5
223
330
1F
100
AcDbEntity
  8
D-2
  6
Continuous
 62
     3
370
     9
100
AcDbLine
 10
-1395.872182905282
 20
-349.035985812024
 30
0.0
 11
-1395.872182905282
 21
-341.7137793148316
 31
0.0
  0
LINE
  5
224
330
1F
100
AcDbEntity
  8
D-2
  6
Continuous
 62
     3
370
     9
100
AcDbLine
 10
-1395.872182905282
 20
-331.3584402645386
 30
0.0
 11
-1395.872182905282
 21
-324.035985812024
 31
0.0
  0
LINE
  5
225
330
1F
100
AcDbEntity
  8
D-2
  6
Continuous
 62
     3
370
     9
100
AcDbLine
 10
-1048.373160421456
 20
-301.5358966434753
 30
0.0
 11
-1706.04057317933
 21
-301.5358966434753
 31
0.0
  0
LINE
  5
226
330
1F
100
AcDbEntity
  8
D-5
  6
Continuous
 62
     7
370
     9
100
AcDbLine
 10
-857.3880926052041
 20
-9.69044901806459
 30
0.0
 11
-1106.363320409859
 21
-298.0362037266053
 31
0.0
  0
LINE
  5
227
330
1F
100
AcDbEntity
  8
D-5
  6
Continuous
 62
     7
370
     9
100
AcDbLine
 10
-816.6493592338738
 20
-70.52529551464661
 30
0.0
 11
-1010.315210878457
 21
-293.0361870373047
 31
0.0
  0
LINE
  5
228
330
1F
100
AcDbEntity
  8
D-5
  6
Continuous
 62
     7
370
     9
100
AcDbLine
 10
-816.6493592338738
 20
-70.52529551464661
 30
0.0
 11
-348.3869171851204
 21
-70.52529551464661
 31
0.0
  0
LINE
  5
229
330
1F
100
AcDbEntity
  8
D-5
  6
Continuous
 62
     7
370
     9
100
AcDbLine
 10
-775.2857765932047
 20
-134.7304324532953
 30
0.0
 11
-1033.85592254212
 21
-431.8130234325684
 31
0.0
  0
LINE
  5
22A
330
1F
100
AcDbEntity
  8
D-5
  6
Continuous
 62
     7
370
     9
100
AcDbLine
 10
-775.2857765932047
 20
-134.7304324532953
 30
0.0
 11
-459.0018997184467
 21
-134.7304324532953
 31
0.0
  0
LINE
  5
22B
330
1F
100
AcDbEntity
  8
D-2
  6
Continuous
 62
     3
370
     9
100
AcDbLine
 10
-1706.040719663704
 20
-393.6779762448666
 30
0.0
 11
-1706.040719663704
 21
-346.0079014338666
 31
0.0
  0
LINE
  5
22C
330
1F
100
AcDbEntity
  8
D-2
  6
Continuous
 62
     3
370
     9
100
AcDbLine
 10
-1691.039865171517
 20
-326.0068180598429
 30
0.0
 11
-1706.040719663704
 21
-326.0068180598429
 31
0.0
  0
LINE
  5
22D
330
1F
100
AcDbEntity
  8
D-2
  6
Continuous
 62
     3
370
     9
100
AcDbLine
 10
-1691.039865171517
 20
-326.0068180598429
 30
0.0
 11
-1721.040841734018
 21
-346.0079014338666
 31
0.0
  0
LINE
  5
22E
330
1F
100
AcDbEntity
  8
D-2
  6
Continuous
 62
     3
370
     9
100
AcDbLine
 10
-1706.040719663704
 20
-346.0079014338666
 30
0.0
 11
-1721.040841734018
 21
-346.0079014338666
 31
0.0
  0
LINE
  5
22F
330
1F
100
AcDbEntity
  8
D-2
  6
Continuous
 62
     3
370
     9
100
AcDbLine
 10
-1706.040719663704
 20
-326.0068180598429
 30
0.0
 11
-1706.040719663704
 21
-278.6229919796071
 31
0.0
  0
LINE
  5
230
330
1F
100
AcDbEntity
  8
C-5
  6
Continuous
 62
     7
370
     9
100
AcDbLine
 10
-383.6212983328448
 20
358.6167231407744
 30
0.0
 11
-958.6217107325492
 21
358.6167231407744
 31
0.0
  0
TEXT
  5
231
330
1F
100
AcDbEntity
  8
C-5
  6
Continuous
 62
     2
370
     9
100
AcDbText
 10
-938.6206384933179
 20
376.7563932210109
 30
0.0
 40
30.48
  1
平面詳細図　Ｓ＝１：１０
 41
1.114583333333333
  7
ＭＳ ゴシック
100
AcDbText
  0
LINE
  5
232
330
1F
100
AcDbEntity
  8
C-A
  6
Continuous
 62
     3
370
     9
100
AcDbLine
 10
-548.6413536049578
 20
913.6478045915951
 30
0.0
 11
-548.6413536049578
 21
569.6481790505266
 31
0.0
  0
LINE
  5
233
330
1F
100
AcDbEntity
  8
C-2
  6
Continuous
 62
     3
370
     9
100
AcDbLine
 10
-496.6408851188937
 20
916.6480124410458
 30
0.0
 11
-496.6408851188937
 21
566.6482186408982
 31
0.0
  0
LINE
  5
234
330
1F
100
AcDbEntity
  8
C-2
  6
Continuous
 62
     3
370
     9
100
AcDbLine
 10
-496.6408851188937
 20
566.6482186408982
 30
0.0
 11
-846.6411737986867
 21
566.6482186408982
 31
0.0
  0
LINE
  5
235
330
1F
100
AcDbEntity
  8
C-1
  6
JWW_DASHED3
 62
     2
370
     9
100
AcDbLine
 10
-521.6404727191893
 20
891.6481774009276
 30
0.0
 11
-521.6404727191893
 21
591.6478062411937
 31
0.0
  0
LINE
  5
236
330
1F
100
AcDbEntity
  8
C-1
  6
JWW_DASHED3
 62
     2
370
     9
100
AcDbLine
 10
-521.6404727191893
 20
591.6478062411937
 30
0.0
 11
-821.640720159012
 21
591.6478062411937
 31
0.0
  0
LINE
  5
237
330
1F
100
AcDbEntity
  8
C-1
  6
JWW_DASHED3
 62
     2
370
     9
100
AcDbLine
 10
-821.640720159012
 20
591.6478062411937
 30
0.0
 11
-821.640720159012
 21
891.6481774009276
 31
0.0
  0
LINE
  5
238
330
1F
100
AcDbEntity
  8
C-1
  6
JWW_DASHED3
 62
     2
370
     9
100
AcDbLine
 10
-821.640720159012
 20
891.6481774009276
 30
0.0
 11
-521.6404727191893
 21
891.6481774009276
 31
0.0
  0
LINE
  5
239
330
1F
100
AcDbEntity
  8
C-1
  6
Continuous
 62
     2
370
     9
100
AcDbLine
 10
-495.6407333558026
 20
917.6479167643146
 30
0.0
 11
-495.6407333558026
 21
565.6480668778067
 31
0.0
  0
LINE
  5
23A
330
1F
100
AcDbEntity
  8
C-1
  6
Continuous
 62
     2
370
     9
100
AcDbLine
 10
-495.6407333558026
 20
565.6480668778067
 30
0.0
 11
-847.640954402044
 21
565.6480668778067
 31
0.0
  0
LINE
  5
23B
330
1F
100
AcDbEntity
  8
C-2
  6
Continuous
 62
     3
370
     9
100
AcDbLine
 10
-846.6411737986867
 20
566.6482186408982
 30
0.0
 11
-846.6411737986867
 21
916.6480124410458
 31
0.0
  0
LINE
  5
23C
330
1F
100
AcDbEntity
  8
C-2
  6
Continuous
 62
     3
370
     9
100
AcDbLine
 10
-496.6408851188937
 20
916.6480124410458
 30
0.0
 11
-846.6411737986867
 21
916.6480124410458
 31
0.0
  0
LINE
  5
23D
330
1F
100
AcDbEntity
  8
C-1
  6
Continuous
 62
     2
370
     9
100
AcDbLine
 10
-495.6407333558026
 20
917.6479167643146
 30
0.0
 11
-847.640954402044
 21
917.6479167643146
 31
0.0
  0
LINE
  5
23E
330
1F
100
AcDbEntity
  8
C-1
  6
Continuous
 62
     2
370
     9
100
AcDbLine
 10
-847.640954402044
 20
565.6480668778067
 30
0.0
 11
-847.640954402044
 21
917.6479167643146
 31
0.0
  0
LINE
  5
23F
330
1F
100
AcDbEntity
  8
C-4
  6
Continuous
 62
     7
370
     9
100
AcDbLine
 10
-846.6411737986867
 20
1051.647468073436
 30
0.0
 11
-496.6408851188937
 21
1051.647468073436
 31
0.0
  0
LINE
  5
240
330
1F
100
AcDbEntity
  8
C-4
  6
Continuous
 62
     7
370
     9
100
AcDbLine
 10
-846.6411737986867
 20
936.6483258648211
 30
0.0
 11
-846.6411737986867
 21
1054.647428483065
 31
0.0
  0
LINE
  5
241
330
1F
100
AcDbEntity
  8
C-4
  6
Continuous
 62
     7
370
     9
100
AcDbLine
 10
-496.6408851188937
 20
936.6483258648211
 30
0.0
 11
-496.6408851188937
 21
1054.647428483065
 31
0.0
  0
LINE
  5
242
330
1F
100
AcDbEntity
  8
C-4
  6
Continuous
 62
     7
370
     9
100
AcDbLine
 10
-854.6410269843919
 20
1106.647402089483
 30
0.0
 11
-488.6406607734544
 21
1106.647402089483
 31
0.0
  0
LINE
  5
243
330
1F
100
AcDbEntity
  8
C-4
  6
Continuous
 62
     7
370
     9
100
AcDbLine
 10
-821.640720159012
 20
996.648028937034
 30
0.0
 11
-521.6404727191893
 21
996.648028937034
 31
0.0
  0
LINE
  5
244
330
1F
100
AcDbEntity
  8
C-4
  6
Continuous
 62
     7
370
     9
100
AcDbLine
 10
-821.640720159012
 20
936.6483258648211
 30
0.0
 11
-821.640720159012
 21
999.6479893466625
 31
0.0
  0
LINE
  5
245
330
1F
100
AcDbEntity
  8
C-4
  6
Continuous
 62
     7
370
     9
100
AcDbLine
 10
-521.6404727191893
 20
936.6483258648211
 30
0.0
 11
-521.6404727191893
 21
999.6479893466625
 31
0.0
  0
LINE
  5
246
330
1F
100
AcDbEntity
  8
C-4
  6
Continuous
 62
     7
370
     9
100
AcDbLine
 10
-846.6411737986867
 20
996.648028937034
 30
0.0
 11
-821.640720159012
 21
996.648028937034
 31
0.0
  0
LINE
  5
247
330
1F
100
AcDbEntity
  8
C-4
  6
Continuous
 62
     7
370
     9
100
AcDbLine
 10
-521.6404727191893
 20
996.648028937034
 30
0.0
 11
-496.6416274383618
 21
996.648028937034
 31
0.0
  0
LINE
  5
248
330
1F
100
AcDbEntity
  8
C-4
  6
Continuous
 62
     7
370
     9
100
AcDbLine
 10
-496.6416274383618
 20
996.648028937034
 30
0.0
 11
-496.6416274383618
 21
993.6480685274057
 31
0.0
  0
LINE
  5
249
330
1F
100
AcDbEntity
  8
C-4
  6
Continuous
 62
     7
370
     9
100
AcDbLine
 10
-846.6411737986867
 20
1051.647468073436
 30
0.0
 11
-847.640954402044
 21
1051.647468073436
 31
0.0
  0
LINE
  5
24A
330
1F
100
AcDbEntity
  8
C-4
  6
Continuous
 62
     7
370
     9
100
AcDbLine
 10
-847.640954402044
 20
936.6483258648211
 30
0.0
 11
-847.640954402044
 21
1054.647428483065
 31
0.0
  0
LINE
  5
24B
330
1F
100
AcDbEntity
  8
C-4
  6
Continuous
 62
     7
370
     9
100
AcDbLine
 10
-496.6408851188937
 20
1051.647468073436
 30
0.0
 11
-495.6407333558026
 21
1051.647468073436
 31
0.0
  0
LINE
  5
24C
330
1F
100
AcDbEntity
  8
C-4
  6
Continuous
 62
     7
370
     9
100
AcDbLine
 10
-495.6407333558026
 20
936.6483258648211
 30
0.0
 11
-495.6407333558026
 21
1054.647428483065
 31
0.0
  0
LINE
  5
24D
330
1F
100
AcDbEntity
  8
C-4
  6
Continuous
 62
     7
370
     9
100
AcDbLine
 10
-847.640954402044
 20
1051.647468073436
 30
0.0
 11
-895.9581574082729
 21
1051.647468073436
 31
0.0
  0
LINE
  5
24E
330
1F
100
AcDbEntity
  8
C-4
  6
Continuous
 62
     7
370
     9
100
AcDbLine
 10
-495.6407333558026
 20
1051.647468073436
 30
0.0
 11
-443.889931650777
 21
1051.647468073436
 31
0.0
  0
LINE
  5
24F
330
1F
100
AcDbEntity
  8
C-A
  6
Continuous
 62
     3
370
     9
100
AcDbLine
 10
-846.6411737986867
 20
913.6480520314174
 30
0.0
 11
-496.6408851188937
 21
913.6480520314174
 31
0.0
  0
LINE
  5
250
330
1F
100
AcDbEntity
  8
C-A
  6
Continuous
 62
     3
370
     9
100
AcDbLine
 10
-743.6401411498271
 20
569.6484264903489
 30
0.0
 11
-846.6411737986867
 21
569.6484264903489
 31
0.0
  0
LINE
  5
251
330
1F
100
AcDbEntity
  8
C-A
  6
Continuous
 62
     3
370
     9
100
AcDbLine
 10
-838.6413206129815
 20
569.6484264903489
 30
0.0
 11
-838.6413206129815
 21
913.6480520314174
 31
0.0
  0
LINE
  5
252
330
1F
100
AcDbEntity
  8
C-A
  6
Continuous
 62
     3
370
     9
100
AcDbLine
 10
-836.6411408067104
 20
569.6484264903489
 30
0.0
 11
-836.6411408067104
 21
913.6480520314174
 31
0.0
  0
LINE
  5
253
330
1F
100
AcDbEntity
  8
C-A
  6
Continuous
 62
     3
370
     9
100
AcDbLine
 10
-828.6407927413599
 20
569.6484264903489
 30
0.0
 11
-828.6407927413599
 21
913.6480520314174
 31
0.0
  0
LINE
  5
254
330
1F
100
AcDbEntity
  8
C-A
  6
Continuous
 62
     3
370
     9
100
AcDbLine
 10
-822.6406244822805
 20
569.6484264903489
 30
0.0
 11
-822.6406244822805
 21
913.6480520314174
 31
0.0
  0
LINE
  5
255
330
1F
100
AcDbEntity
  8
C-A
  6
Continuous
 62
     3
370
     9
100
AcDbLine
 10
-814.6407712965753
 20
569.6484264903489
 30
0.0
 11
-814.6407712965753
 21
913.6480520314174
 31
0.0
  0
LINE
  5
256
330
1F
100
AcDbEntity
  8
C-A
  6
Continuous
 62
     3
370
     9
100
AcDbLine
 10
-808.6407267574073
 20
569.6484264903489
 30
0.0
 11
-808.6407267574073
 21
913.6480520314174
 31
0.0
  0
LINE
  5
257
330
1F
100
AcDbEntity
  8
C-A
  6
Continuous
 62
     3
370
     9
100
AcDbLine
 10
-800.6408735717021
 20
569.6484264903489
 30
0.0
 11
-800.6408735717021
 21
913.6480520314174
 31
0.0
  0
LINE
  5
258
330
1F
100
AcDbEntity
  8
C-A
  6
Continuous
 62
     3
370
     9
100
AcDbLine
 10
-794.6407053126227
 20
569.6484264903489
 30
0.0
 11
-794.6407053126227
 21
913.6480520314174
 31
0.0
  0
LINE
  5
259
330
1F
100
AcDbEntity
  8
C-A
  6
Continuous
 62
     3
370
     9
100
AcDbLine
 10
-786.6408521269175
 20
569.6484264903489
 30
0.0
 11
-786.6408521269175
 21
913.6480520314174
 31
0.0
  0
LINE
  5
25A
330
1F
100
AcDbEntity
  8
C-A
  6
Continuous
 62
     3
370
     9
100
AcDbLine
 10
-780.6411787474831
 20
569.6481790505266
 30
0.0
 11
-780.6411787474833
 21
913.6480520314174
 31
0.0
  0
LINE
  5
25B
330
1F
100
AcDbEntity
  8
C-A
  6
Continuous
 62
     3
370
     9
100
AcDbLine
 10
-772.6414492816893
 20
569.6484264903489
 30
0.0
 11
-772.6414492816893
 21
913.6480520314174
 31
0.0
  0
LINE
  5
25C
330
1F
100
AcDbEntity
  8
C-A
  6
Continuous
 62
     3
370
     9
100
AcDbLine
 10
-766.6407861429645
 20
569.6484264903489
 30
0.0
 11
-766.6407861429645
 21
913.6480520314174
 31
0.0
  0
LINE
  5
25D
330
1F
100
AcDbEntity
  8
C-A
  6
Continuous
 62
     3
370
     9
100
AcDbLine
 10
-758.6409329572593
 20
569.6484264903489
 30
0.0
 11
-758.6409329572593
 21
913.6480520314174
 31
0.0
  0
LINE
  5
25E
330
1F
100
AcDbEntity
  8
C-A
  6
Continuous
 62
     3
370
     9
100
AcDbLine
 10
-752.6408884180914
 20
569.6484264903489
 30
0.0
 11
-752.6408884180914
 21
913.6480520314174
 31
0.0
  0
LINE
  5
25F
330
1F
100
AcDbEntity
  8
C-A
  6
Continuous
 62
     3
370
     9
100
AcDbLine
 10
-744.6409115124748
 20
569.6484264903489
 30
0.0
 11
-744.6409115124748
 21
913.6480520314174
 31
0.0
  0
LINE
  5
260
330
1F
100
AcDbEntity
  8
C-A
  6
Continuous
 62
     3
370
     9
100
AcDbLine
 10
-738.6408669733067
 20
574.6480718266034
 30
0.0
 11
-738.6408669733067
 21
913.6480520314174
 31
0.0
  0
LINE
  5
261
330
1F
100
AcDbEntity
  8
C-A
  6
Continuous
 62
     3
370
     9
100
AcDbLine
 10
-730.6410137876015
 20
582.6475538525744
 30
0.0
 11
-730.6410137876015
 21
913.6480520314174
 31
0.0
  0
LINE
  5
262
330
1F
100
AcDbEntity
  8
C-A
  6
Continuous
 62
     3
370
     9
100
AcDbLine
 10
-724.6403506488768
 20
588.6482169912993
 30
0.0
 11
-724.6403506488768
 21
913.6480520314174
 31
0.0
  0
LINE
  5
263
330
1F
100
AcDbEntity
  8
C-A
  6
Continuous
 62
     3
370
     9
100
AcDbLine
 10
-716.6404974631716
 20
596.6483176168271
 30
0.0
 11
-716.6404974631716
 21
913.6480520314174
 31
0.0
  0
LINE
  5
264
330
1F
100
AcDbEntity
  8
C-A
  6
Continuous
 62
     3
370
     9
100
AcDbLine
 10
-710.6399580443583
 20
602.6482384360838
 30
0.0
 11
-710.6399580443583
 21
913.6480520314174
 31
0.0
  0
LINE
  5
265
330
1F
100
AcDbEntity
  8
C-A
  6
Continuous
 62
     3
370
     9
100
AcDbLine
 10
-702.6401048586531
 20
610.648091621789
 30
0.0
 11
-702.6401048586531
 21
913.6480520314174
 31
0.0
  0
LINE
  5
266
330
1F
100
AcDbEntity
  8
C-A
  6
Continuous
 62
     3
370
     9
100
AcDbLine
 10
-696.640431479219
 20
616.6483836007799
 30
0.0
 11
-696.640431479219
 21
913.6480520314174
 31
0.0
  0
LINE
  5
267
330
1F
100
AcDbEntity
  8
C-A
  6
Continuous
 62
     3
370
     9
100
AcDbLine
 10
-688.6405782935135
 20
624.6482367864851
 30
0.0
 11
-688.6405782935135
 21
913.6480520314174
 31
0.0
  0
LINE
  5
268
330
1F
100
AcDbEntity
  8
C-A
  6
Continuous
 62
     3
370
     9
100
AcDbLine
 10
-682.6409049140794
 20
569.6481790505266
 30
0.0
 11
-682.6409049140794
 21
913.6480520314174
 31
0.0
  0
LINE
  5
269
330
1F
100
AcDbEntity
  8
C-A
  6
Continuous
 62
     3
370
     9
100
AcDbLine
 10
-674.6411754482857
 20
638.6480107914472
 30
0.0
 11
-674.6411754482857
 21
913.6480520314174
 31
0.0
  0
LINE
  5
26A
330
1F
100
AcDbEntity
  8
C-A
  6
Continuous
 62
     3
370
     9
100
AcDbLine
 10
-668.6410071892062
 20
644.6483027704378
 30
0.0
 11
-668.6410071892062
 21
913.6480520314174
 31
0.0
  0
LINE
  5
26B
330
1F
100
AcDbEntity
  8
C-A
  6
Continuous
 62
     3
370
     9
100
AcDbLine
 10
-660.641154003501
 20
569.6481790505266
 30
0.0
 11
-660.641154003501
 21
913.6480520314174
 31
0.0
  0
LINE
  5
26C
330
1F
100
AcDbEntity
  8
C-A
  6
Continuous
 62
     3
370
     9
100
AcDbLine
 10
-654.6406145846878
 20
658.6480767753997
 30
0.0
 11
-654.6406145846878
 21
913.6480520314174
 31
0.0
  0
LINE
  5
26D
330
1F
100
AcDbEntity
  8
C-A
  6
Continuous
 62
     3
370
     9
100
AcDbLine
 10
-646.6401427994258
 20
666.6479299611049
 30
0.0
 11
-646.6401427994258
 21
913.6480520314174
 31
0.0
  0
LINE
  5
26E
330
1F
100
AcDbEntity
  8
C-A
  6
Continuous
 62
     3
370
     9
100
AcDbLine
 10
-640.6405931399031
 20
672.648345660007
 30
0.0
 11
-640.6405931399031
 21
913.6480520314174
 31
0.0
  0
LINE
  5
26F
330
1F
100
AcDbEntity
  8
C-A
  6
Continuous
 62
     3
370
     9
100
AcDbLine
 10
-632.6407399541979
 20
680.648075125801
 30
0.0
 11
-632.6407399541979
 21
913.6480520314174
 31
0.0
  0
LINE
  5
270
330
1F
100
AcDbEntity
  8
C-A
  6
Continuous
 62
     3
370
     9
100
AcDbLine
 10
-626.6405716951185
 20
686.6479959450578
 30
0.0
 11
-626.6405716951185
 21
913.6480520314174
 31
0.0
  0
LINE
  5
271
330
1F
100
AcDbEntity
  8
C-A
  6
Continuous
 62
     3
370
     9
100
AcDbLine
 10
-618.6408422293244
 20
694.6472305312062
 30
0.0
 11
-618.6408422293244
 21
913.6480520314174
 31
0.0
  0
LINE
  5
272
330
1F
100
AcDbEntity
  8
C-A
  6
Continuous
 62
     3
370
     9
100
AcDbLine
 10
-612.6411688498904
 20
700.6473987902857
 30
0.0
 11
-612.6411688498904
 21
913.6480520314174
 31
0.0
  0
LINE
  5
273
330
1F
100
AcDbEntity
  8
C-A
  6
Continuous
 62
     3
370
     9
100
AcDbLine
 10
-604.6413156641852
 20
708.6473756959024
 30
0.0
 11
-604.6413156641852
 21
913.6480520314174
 31
0.0
  0
LINE
  5
274
330
1F
100
AcDbEntity
  8
C-A
  6
Continuous
 62
     3
370
     9
100
AcDbLine
 10
-598.6407762453719
 20
714.647296515159
 30
0.0
 11
-598.6407762453719
 21
913.6480520314174
 31
0.0
  0
LINE
  5
275
330
1F
100
AcDbEntity
  8
C-A
  6
Continuous
 62
     3
370
     9
100
AcDbLine
 10
-590.6407993397552
 20
722.6472734207755
 30
0.0
 11
-590.6407993397552
 21
913.6480520314174
 31
0.0
  0
LINE
  5
276
330
1F
100
AcDbEntity
  8
C-A
  6
Continuous
 62
     3
370
     9
100
AcDbLine
 10
-584.6407548005873
 20
728.6476891196776
 30
0.0
 11
-584.6407548005873
 21
913.6480520314174
 31
0.0
  0
LINE
  5
277
330
1F
100
AcDbEntity
  8
C-A
  6
Continuous
 62
     3
370
     9
100
AcDbLine
 10
-576.6409016148821
 20
736.6471711456489
 30
0.0
 11
-576.6409016148821
 21
913.6480520314174
 31
0.0
  0
LINE
  5
278
330
1F
100
AcDbEntity
  8
C-A
  6
Continuous
 62
     3
370
     9
100
AcDbLine
 10
-570.6407333558026
 20
742.6473394047284
 30
0.0
 11
-570.6407333558026
 21
913.6480520314174
 31
0.0
  0
LINE
  5
279
330
1F
100
AcDbEntity
  8
C-A
  6
Continuous
 62
     3
370
     9
100
AcDbLine
 10
-562.6408801700971
 20
569.6481790505266
 30
0.0
 11
-562.6408801700974
 21
913.6480520314174
 31
0.0
  0
LINE
  5
27A
330
1F
100
AcDbEntity
  8
C-A
  6
Continuous
 62
     3
370
     9
100
AcDbLine
 10
-556.6413305105744
 20
756.6474845694243
 30
0.0
 11
-556.6413305105744
 21
913.6480520314174
 31
0.0
  0
LINE
  5
27B
330
1F
100
AcDbEntity
  8
C-A
  6
Continuous
 62
     3
370
     9
100
AcDbLine
 10
-548.6414773248692
 20
764.6472140352182
 30
0.0
 11
-548.6414773248692
 21
913.6480520314174
 31
0.0
  0
LINE
  5
27C
330
1F
100
AcDbEntity
  8
C-A
  6
Continuous
 62
     3
370
     9
100
AcDbLine
 10
-542.6408141861446
 20
770.6473822942976
 30
0.0
 11
-542.6408141861446
 21
913.6480520314174
 31
0.0
  0
LINE
  5
27D
330
1F
100
AcDbEntity
  8
C-A
  6
Continuous
 62
     3
370
     9
100
AcDbLine
 10
-534.6409610004393
 20
778.6471117600913
 30
0.0
 11
-534.6409610004393
 21
913.6480520314174
 31
0.0
  0
LINE
  5
27E
330
1F
100
AcDbEntity
  8
C-A
  6
Continuous
 62
     3
370
     9
100
AcDbLine
 10
-528.6407927413599
 20
784.6475274589934
 30
0.0
 11
-528.6407927413599
 21
913.6480520314174
 31
0.0
  0
LINE
  5
27F
330
1F
100
AcDbEntity
  8
C-A
  6
Continuous
 62
     3
370
     9
100
AcDbLine
 10
-520.6410632755661
 20
792.6472569247875
 30
0.0
 11
-520.6410632755661
 21
913.6480520314174
 31
0.0
  0
LINE
  5
280
330
1F
100
AcDbEntity
  8
C-A
  6
Continuous
 62
     3
370
     9
100
AcDbLine
 10
-514.6408950164868
 20
798.6471777440443
 30
0.0
 11
-514.6408950164868
 21
913.6480520314174
 31
0.0
  0
LINE
  5
281
330
1F
100
AcDbEntity
  8
C-A
  6
Continuous
 62
     3
370
     9
100
AcDbLine
 10
-506.6411655506927
 20
806.646907209838
 30
0.0
 11
-506.6411655506927
 21
913.6480520314174
 31
0.0
  0
LINE
  5
282
330
1F
100
AcDbEntity
  8
C-A
  6
Continuous
 62
     3
370
     9
100
AcDbLine
 10
-504.6408620245102
 20
808.6477056156659
 30
0.0
 11
-504.6408620245102
 21
913.6480520314174
 31
0.0
  0
LINE
  5
283
330
1F
100
AcDbEntity
  8
C-A
  6
Continuous
 62
     3
370
     9
100
AcDbLine
 10
-828.6407927413599
 20
841.6480124410458
 30
0.0
 11
-822.6406244822805
 21
841.6480124410458
 31
0.0
  0
LINE
  5
284
330
1F
100
AcDbEntity
  8
C-A
  6
Continuous
 62
     3
370
     9
100
AcDbLine
 10
-814.6412661762206
 20
841.6480124410458
 30
0.0
 11
-808.6412216370526
 21
841.6480124410458
 31
0.0
  0
LINE
  5
285
330
1F
100
AcDbEntity
  8
C-A
  6
Continuous
 62
     3
370
     9
100
AcDbLine
 10
-800.6413684513474
 20
841.6480124410458
 30
0.0
 11
-794.6407053126227
 21
841.6480124410458
 31
0.0
  0
LINE
  5
286
330
1F
100
AcDbEntity
  8
C-A
  6
Continuous
 62
     3
370
     9
100
AcDbLine
 10
-786.6408521269175
 20
841.6480124410458
 30
0.0
 11
-780.6411787474833
 21
841.6480124410458
 31
0.0
  0
LINE
  5
287
330
1F
100
AcDbEntity
  8
C-A
  6
Continuous
 62
     3
370
     9
100
AcDbLine
 10
-772.6414492816893
 20
841.6480124410458
 30
0.0
 11
-766.6407861429645
 21
841.6480124410458
 31
0.0
  0
LINE
  5
288
330
1F
100
AcDbEntity
  8
C-A
  6
Continuous
 62
     3
370
     9
100
AcDbLine
 10
-758.6409329572593
 20
841.6480124410458
 30
0.0
 11
-752.6412595778253
 21
841.6480124410458
 31
0.0
  0
LINE
  5
289
330
1F
100
AcDbEntity
  8
C-A
  6
Continuous
 62
     3
370
     9
100
AcDbLine
 10
-744.6414063921201
 20
841.6480124410458
 30
0.0
 11
-738.6408669733067
 21
841.6480124410458
 31
0.0
  0
LINE
  5
28A
330
1F
100
AcDbEntity
  8
C-A
  6
Continuous
 62
     3
370
     9
100
AcDbLine
 10
-730.6410137876015
 20
841.6480124410458
 30
0.0
 11
-724.6408455285222
 21
841.6480124410458
 31
0.0
  0
LINE
  5
28B
330
1F
100
AcDbEntity
  8
C-A
  6
Continuous
 62
     3
370
     9
100
AcDbLine
 10
-716.6411160627281
 20
841.6480124410458
 30
0.0
 11
-710.641442683294
 21
841.6480124410458
 31
0.0
  0
LINE
  5
28C
330
1F
100
AcDbEntity
  8
C-A
  6
Continuous
 62
     3
370
     9
100
AcDbLine
 10
-702.6410946179435
 20
841.6480124410458
 30
0.0
 11
-696.640926358864
 21
841.6480124410458
 31
0.0
  0
LINE
  5
28D
330
1F
100
AcDbEntity
  8
C-A
  6
Continuous
 62
     3
370
     9
100
AcDbLine
 10
-688.6410731731588
 20
841.6480124410458
 30
0.0
 11
-682.6415235136362
 21
841.6480124410458
 31
0.0
  0
LINE
  5
28E
330
1F
100
AcDbEntity
  8
C-A
  6
Continuous
 62
     3
370
     9
100
AcDbLine
 10
-674.6411754482857
 20
841.6480124410458
 30
0.0
 11
-668.6410071892062
 21
841.6480124410458
 31
0.0
  0
LINE
  5
28F
330
1F
100
AcDbEntity
  8
C-A
  6
Continuous
 62
     3
370
     9
100
AcDbLine
 10
-660.641154003501
 20
841.6480124410458
 30
0.0
 11
-654.6411094643328
 21
841.6480124410458
 31
0.0
  0
LINE
  5
290
330
1F
100
AcDbEntity
  8
C-A
  6
Continuous
 62
     3
370
     9
100
AcDbLine
 10
-646.6412562786276
 20
841.6480124410458
 30
0.0
 11
-640.6410880195482
 21
841.6480124410458
 31
0.0
  0
LINE
  5
291
330
1F
100
AcDbEntity
  8
C-A
  6
Continuous
 62
     3
370
     9
100
AcDbLine
 10
-632.641234833843
 20
841.6480124410458
 30
0.0
 11
-626.6410665747635
 21
841.6480124410458
 31
0.0
  0
LINE
  5
292
330
1F
100
AcDbEntity
  8
C-A
  6
Continuous
 62
     3
370
     9
100
AcDbLine
 10
-618.6413371089698
 20
841.6480124410458
 30
0.0
 11
-612.6411688498904
 21
841.6480124410458
 31
0.0
  0
LINE
  5
293
330
1F
100
AcDbEntity
  8
C-A
  6
Continuous
 62
     3
370
     9
100
AcDbLine
 10
-604.6413156641852
 20
841.6480124410458
 30
0.0
 11
-598.6407762453719
 21
841.6480124410458
 31
0.0
  0
LINE
  5
294
330
1F
100
AcDbEntity
  8
C-A
  6
Continuous
 62
     3
370
     9
100
AcDbLine
 10
-590.6407993397552
 20
841.6480124410458
 30
0.0
 11
-584.6407548005873
 21
841.6480124410458
 31
0.0
  0
LINE
  5
295
330
1F
100
AcDbEntity
  8
C-A
  6
Continuous
 62
     3
370
     9
100
AcDbLine
 10
-576.6409016148821
 20
841.6480124410458
 30
0.0
 11
-570.6407333558026
 21
841.6480124410458
 31
0.0
  0
LINE
  5
296
330
1F
100
AcDbEntity
  8
C-A
  6
Continuous
 62
     3
370
     9
100
AcDbLine
 10
-562.6408801700974
 20
841.6480124410458
 30
0.0
 11
-556.6403407512838
 21
841.6480124410458
 31
0.0
  0
LINE
  5
297
330
1F
100
AcDbEntity
  8
C-A
  6
Continuous
 62
     3
370
     9
100
AcDbLine
 10
-548.6404875655786
 20
841.6480124410458
 30
0.0
 11
-542.6398244268539
 21
841.6480124410458
 31
0.0
  0
LINE
  5
298
330
1F
100
AcDbEntity
  8
C-A
  6
Continuous
 62
     3
370
     9
100
AcDbLine
 10
-534.6399712411487
 20
841.6480124410458
 30
0.0
 11
-528.6402978617145
 21
841.6480124410458
 31
0.0
  0
LINE
  5
299
330
1F
100
AcDbEntity
  8
C-A
  6
Continuous
 62
     3
370
     9
100
AcDbLine
 10
-520.6405683959208
 20
841.6480124410458
 30
0.0
 11
-514.6399052571961
 21
841.6480124410458
 31
0.0
  0
LINE
  5
29A
330
1F
100
AcDbEntity
  8
C-A
  6
Continuous
 62
     3
370
     9
100
AcDbLine
 10
-838.6413206129815
 20
841.6480124410458
 30
0.0
 11
-836.6411408067104
 21
841.6480124410458
 31
0.0
  0
LINE
  5
29B
330
1F
100
AcDbEntity
  8
C-A
  6
Continuous
 62
     3
370
     9
100
AcDbLine
 10
-506.640175791402
 20
841.6480124410458
 30
0.0
 11
-504.6408620245102
 21
841.6480124410458
 31
0.0
  0
LINE
  5
29C
330
1F
100
AcDbEntity
  8
C-A
  6
Continuous
 62
     3
370
     9
100
AcDbLine
 10
-828.6407927413599
 20
741.6479299611049
 30
0.0
 11
-822.6406244822805
 21
741.6479299611049
 31
0.0
  0
LINE
  5
29D
330
1F
100
AcDbEntity
  8
C-A
  6
Continuous
 62
     3
370
     9
100
AcDbLine
 10
-814.6412661762206
 20
741.6479299611049
 30
0.0
 11
-808.6412216370526
 21
741.6479299611049
 31
0.0
  0
LINE
  5
29E
330
1F
100
AcDbEntity
  8
C-A
  6
Continuous
 62
     3
370
     9
100
AcDbLine
 10
-800.6413684513474
 20
741.6479299611049
 30
0.0
 11
-794.6407053126227
 21
741.6479299611049
 31
0.0
  0
LINE
  5
29F
330
1F
100
AcDbEntity
  8
C-A
  6
Continuous
 62
     3
370
     9
100
AcDbLine
 10
-786.6408521269175
 20
741.6479299611049
 30
0.0
 11
-780.6411787474833
 21
741.6479299611049
 31
0.0
  0
LINE
  5
2A0
330
1F
100
AcDbEntity
  8
C-A
  6
Continuous
 62
     3
370
     9
100
AcDbLine
 10
-772.6414492816893
 20
741.6479299611049
 30
0.0
 11
-766.6407861429645
 21
741.6479299611049
 31
0.0
  0
LINE
  5
2A1
330
1F
100
AcDbEntity
  8
C-A
  6
Continuous
 62
     3
370
     9
100
AcDbLine
 10
-758.6409329572593
 20
741.6479299611049
 30
0.0
 11
-752.6412595778253
 21
741.6479299611049
 31
0.0
  0
LINE
  5
2A2
330
1F
100
AcDbEntity
  8
C-A
  6
Continuous
 62
     3
370
     9
100
AcDbLine
 10
-744.6414063921201
 20
741.6479299611049
 30
0.0
 11
-738.6408669733067
 21
741.6479299611049
 31
0.0
  0
LINE
  5
2A3
330
1F
100
AcDbEntity
  8
C-A
  6
Continuous
 62
     3
370
     9
100
AcDbLine
 10
-730.6410137876015
 20
741.6479299611049
 30
0.0
 11
-724.6408455285222
 21
741.6479299611049
 31
0.0
  0
LINE
  5
2A4
330
1F
100
AcDbEntity
  8
C-A
  6
Continuous
 62
     3
370
     9
100
AcDbLine
 10
-716.6411160627281
 20
741.6479299611049
 30
0.0
 11
-710.641442683294
 21
741.6479299611049
 31
0.0
  0
LINE
  5
2A5
330
1F
100
AcDbEntity
  8
C-A
  6
Continuous
 62
     3
370
     9
100
AcDbLine
 10
-702.6410946179435
 20
741.6479299611049
 30
0.0
 11
-696.640926358864
 21
741.6479299611049
 31
0.0
  0
LINE
  5
2A6
330
1F
100
AcDbEntity
  8
C-A
  6
Continuous
 62
     3
370
     9
100
AcDbLine
 10
-688.6410731731588
 20
741.6479299611049
 30
0.0
 11
-682.6415235136362
 21
741.6479299611049
 31
0.0
  0
LINE
  5
2A7
330
1F
100
AcDbEntity
  8
C-A
  6
Continuous
 62
     3
370
     9
100
AcDbLine
 10
-674.6411754482857
 20
741.6479299611049
 30
0.0
 11
-668.6410071892062
 21
741.6479299611049
 31
0.0
  0
LINE
  5
2A8
330
1F
100
AcDbEntity
  8
C-A
  6
Continuous
 62
     3
370
     9
100
AcDbLine
 10
-660.641154003501
 20
741.6479299611049
 30
0.0
 11
-654.6411094643328
 21
741.6479299611049
 31
0.0
  0
LINE
  5
2A9
330
1F
100
AcDbEntity
  8
C-A
  6
Continuous
 62
     3
370
     9
100
AcDbLine
 10
-646.6412562786276
 20
741.6479299611049
 30
0.0
 11
-640.6410880195482
 21
741.6479299611049
 31
0.0
  0
LINE
  5
2AA
330
1F
100
AcDbEntity
  8
C-A
  6
Continuous
 62
     3
370
     9
100
AcDbLine
 10
-632.641234833843
 20
741.6479299611049
 30
0.0
 11
-626.6410665747635
 21
741.6479299611049
 31
0.0
  0
LINE
  5
2AB
330
1F
100
AcDbEntity
  8
C-A
  6
Continuous
 62
     3
370
     9
100
AcDbLine
 10
-618.6413371089698
 20
741.6479299611049
 30
0.0
 11
-612.6411688498904
 21
741.6479299611049
 31
0.0
  0
LINE
  5
2AC
330
1F
100
AcDbEntity
  8
C-A
  6
Continuous
 62
     3
370
     9
100
AcDbLine
 10
-604.6413156641852
 20
741.6479299611049
 30
0.0
 11
-598.6407762453719
 21
741.6479299611049
 31
0.0
  0
LINE
  5
2AD
330
1F
100
AcDbEntity
  8
C-A
  6
Continuous
 62
     3
370
     9
100
AcDbLine
 10
-590.6407993397552
 20
741.6479299611049
 30
0.0
 11
-584.6407548005873
 21
741.6479299611049
 31
0.0
  0
LINE
  5
2AE
330
1F
100
AcDbEntity
  8
C-A
  6
Continuous
 62
     3
370
     9
100
AcDbLine
 10
-838.6413206129815
 20
741.6479299611049
 30
0.0
 11
-836.6411408067104
 21
741.6479299611049
 31
0.0
  0
LINE
  5
2AF
330
1F
100
AcDbEntity
  8
C-A
  6
Continuous
 62
     3
370
     9
100
AcDbLine
 10
-828.6407927413599
 20
641.6479712010755
 30
0.0
 11
-822.6406244822805
 21
641.6479712010755
 31
0.0
  0
LINE
  5
2B0
330
1F
100
AcDbEntity
  8
C-A
  6
Continuous
 62
     3
370
     9
100
AcDbLine
 10
-814.6412661762206
 20
641.6479712010755
 30
0.0
 11
-808.6412216370526
 21
641.6479712010755
 31
0.0
  0
LINE
  5
2B1
330
1F
100
AcDbEntity
  8
C-A
  6
Continuous
 62
     3
370
     9
100
AcDbLine
 10
-800.6413684513474
 20
641.6479712010755
 30
0.0
 11
-794.6407053126227
 21
641.6479712010755
 31
0.0
  0
LINE
  5
2B2
330
1F
100
AcDbEntity
  8
C-A
  6
Continuous
 62
     3
370
     9
100
AcDbLine
 10
-786.6408521269175
 20
641.6479712010755
 30
0.0
 11
-780.6411787474833
 21
641.6479712010755
 31
0.0
  0
LINE
  5
2B3
330
1F
100
AcDbEntity
  8
C-A
  6
Continuous
 62
     3
370
     9
100
AcDbLine
 10
-772.6414492816893
 20
641.6479712010755
 30
0.0
 11
-766.6407861429645
 21
641.6479712010755
 31
0.0
  0
LINE
  5
2B4
330
1F
100
AcDbEntity
  8
C-A
  6
Continuous
 62
     3
370
     9
100
AcDbLine
 10
-758.6409329572593
 20
641.6479712010755
 30
0.0
 11
-752.6412595778253
 21
641.6479712010755
 31
0.0
  0
LINE
  5
2B5
330
1F
100
AcDbEntity
  8
C-A
  6
Continuous
 62
     3
370
     9
100
AcDbLine
 10
-744.6414063921201
 20
641.6479712010755
 30
0.0
 11
-738.6408669733067
 21
641.6479712010755
 31
0.0
  0
LINE
  5
2B6
330
1F
100
AcDbEntity
  8
C-A
  6
Continuous
 62
     3
370
     9
100
AcDbLine
 10
-730.6410137876015
 20
641.6479712010755
 30
0.0
 11
-724.6408455285222
 21
641.6479712010755
 31
0.0
  0
LINE
  5
2B7
330
1F
100
AcDbEntity
  8
C-A
  6
Continuous
 62
     3
370
     9
100
AcDbLine
 10
-716.6411160627281
 20
641.6479712010755
 30
0.0
 11
-710.641442683294
 21
641.6479712010755
 31
0.0
  0
LINE
  5
2B8
330
1F
100
AcDbEntity
  8
C-A
  6
Continuous
 62
     3
370
     9
100
AcDbLine
 10
-702.6410946179435
 20
641.6479712010755
 30
0.0
 11
-696.640926358864
 21
641.6479712010755
 31
0.0
  0
LINE
  5
2B9
330
1F
100
AcDbEntity
  8
C-A
  6
Continuous
 62
     3
370
     9
100
AcDbLine
 10
-688.6410731731588
 20
641.6479712010755
 30
0.0
 11
-682.6415235136362
 21
641.6479712010755
 31
0.0
  0
LINE
  5
2BA
330
1F
100
AcDbEntity
  8
C-A
  6
Continuous
 62
     3
370
     9
100
AcDbLine
 10
-838.6413206129815
 20
641.6479712010755
 30
0.0
 11
-836.6411408067104
 21
641.6479712010755
 31
0.0
  0
LINE
  5
2BB
330
1F
100
AcDbEntity
  8
C-A
  6
Continuous
 62
     3
370
     9
100
AcDbLine
 10
-576.6409016148821
 20
741.6479299611049
 30
0.0
 11
-571.6406376790711
 21
741.6479299611049
 31
0.0
  0
TEXT
  5
2BC
330
1F
100
AcDbEntity
  8
C-4
  6
Continuous
 62
     2
370
     9
100
AcDbText
 10
-704.1408438789234
 20
1062.286742249956
 30
0.0
 40
30.48
  1
350
 41
1.083333333333333
  7
ＭＳ ゴシック
100
AcDbText
  0
TEXT
  5
2BD
330
1F
100
AcDbEntity
  8
C-4
  6
Continuous
 62
     2
370
     9
100
AcDbText
 10
-704.1408224085134
 20
1007.287797993224
 30
0.0
 40
30.48
  1
300
 50
359.9997818882303
 41
1.083333333333331
  7
ＭＳ ゴシック
100
AcDbText
  0
TEXT
  5
2BE
330
1F
100
AcDbEntity
  8
C-4
  6
Continuous
 62
     2
370
     9
100
AcDbText
 10
-820.7731550557917
 20
1007.287797993056
 30
0.0
 40
30.48
  1
25
 50
359.9996664175985
 41
1.062500000000002
  7
ＭＳ ゴシック
100
AcDbText
  0
TEXT
  5
2BF
330
1F
100
AcDbEntity
  8
C-4
  6
Continuous
 62
     2
370
     9
100
AcDbText
 10
-569.020612869105
 20
1007.287797993199
 30
0.0
 40
30.48
  1
25
 41
1.0625
  7
ＭＳ ゴシック
100
AcDbText
  0
TEXT
  5
2C0
330
1F
100
AcDbEntity
  8
C-4
  6
Continuous
 62
     2
370
     9
100
AcDbText
 10
-837.2709040232963
 20
1062.286742249956
 30
0.0
 40
30.48
  1
1
 41
0.9999999999999998
  7
ＭＳ ゴシック
100
AcDbText
  0
TEXT
  5
2C1
330
1F
100
AcDbEntity
  8
C-4
  6
Continuous
 62
     2
370
     9
100
AcDbText
 10
-530.5489538015901
 20
1062.286742249956
 30
0.0
 40
30.48
  1
1
 41
0.9999999999999998
  7
ＭＳ ゴシック
100
AcDbText
  0
TEXT
  5
2C2
330
1F
100
AcDbEntity
  8
C-4
  6
Continuous
 62
     2
370
     9
100
AcDbText
 10
-704.1408438789234
 20
1118.28732290874
 30
0.0
 40
30.48
  1
362
 41
1.083333333333333
  7
ＭＳ ゴシック
100
AcDbText
  0
LWPOLYLINE
  5
2C3
330
1F
100
AcDbEntity
  8
C-4
  6
Continuous
 62
     7
370
     9
100
AcDbPolyline
 90
        4
 70
     1
 43
1.0
 10
-846.1411737986867
 20
1051.647468073436
 42
0.4142135623731
 10
-846.6411737986867
 20
1052.147468073436
 42
0.4142135623731
 10
-847.1411737986866
 20
1051.647468073436
 42
0.4142135623731
 10
-846.6411737986867
 20
1051.147468073436
 42
0.4142135623731
  0
LWPOLYLINE
  5
2C4
330
1F
100
AcDbEntity
  8
C-4
  6
Continuous
 62
     7
370
     9
100
AcDbPolyline
 90
        4
 70
     1
 43
1.0
 10
-496.1408851188938
 20
1051.647468073436
 42
0.4142135623731
 10
-496.6408851188937
 20
1052.147468073436
 42
0.4142135623731
 10
-497.1408851188937
 20
1051.647468073436
 42
0.4142135623731
 10
-496.6408851188937
 20
1051.147468073436
 42
0.4142135623731
  0
LWPOLYLINE
  5
2C5
330
1F
100
AcDbEntity
  8
C-4
  6
Continuous
 62
     7
370
     9
100
AcDbPolyline
 90
        4
 70
     1
 43
1.0
 10
-821.1407201590121
 20
996.648028937034
 42
0.4142135623731
 10
-821.640720159012
 20
997.148028937034
 42
0.4142135623731
 10
-822.140720159012
 20
996.648028937034
 42
0.4142135623731
 10
-821.640720159012
 20
996.1480289370342
 42
0.4142135623731
  0
LWPOLYLINE
  5
2C6
330
1F
100
AcDbEntity
  8
C-4
  6
Continuous
 62
     7
370
     9
100
AcDbPolyline
 90
        4
 70
     1
 43
1.0
 10
-521.1404727191893
 20
996.648028937034
 42
0.4142135623731
 10
-521.6404727191893
 20
997.148028937034
 42
0.4142135623731
 10
-522.1404727191893
 20
996.648028937034
 42
0.4142135623731
 10
-521.6404727191893
 20
996.1480289370342
 42
0.4142135623731
  0
LWPOLYLINE
  5
2C7
330
1F
100
AcDbEntity
  8
C-4
  6
Continuous
 62
     7
370
     9
100
AcDbPolyline
 90
        4
 70
     1
 43
1.0
 10
-846.1411737986867
 20
996.648028937034
 42
0.4142135623731
 10
-846.6411737986867
 20
997.148028937034
 42
0.4142135623731
 10
-847.1411737986866
 20
996.648028937034
 42
0.4142135623731
 10
-846.6411737986867
 20
996.1480289370342
 42
0.4142135623731
  0
LWPOLYLINE
  5
2C8
330
1F
100
AcDbEntity
  8
C-4
  6
Continuous
 62
     7
370
     9
100
AcDbPolyline
 90
        4
 70
     1
 43
1.0
 10
-496.1416274383618
 20
996.648028937034
 42
0.4142135623731
 10
-496.6416274383618
 20
997.148028937034
 42
0.4142135623731
 10
-497.1416274383617
 20
996.648028937034
 42
0.4142135623731
 10
-496.6416274383618
 20
996.1480289370342
 42
0.4142135623731
  0
LWPOLYLINE
  5
2C9
330
1F
100
AcDbEntity
  8
C-4
  6
Continuous
 62
     7
370
     9
100
AcDbPolyline
 90
        4
 70
     1
 43
1.0
 10
-847.140954402044
 20
1051.647468073436
 42
0.4142135623731
 10
-847.640954402044
 20
1052.147468073436
 42
0.4142135623731
 10
-848.1409544020439
 20
1051.647468073436
 42
0.4142135623731
 10
-847.640954402044
 20
1051.147468073436
 42
0.4142135623731
  0
LWPOLYLINE
  5
2CA
330
1F
100
AcDbEntity
  8
C-4
  6
Continuous
 62
     7
370
     9
100
AcDbPolyline
 90
        4
 70
     1
 43
1.0
 10
-495.1407333558026
 20
1051.647468073436
 42
0.4142135623731
 10
-495.6407333558026
 20
1052.147468073436
 42
0.4142135623731
 10
-496.1407333558026
 20
1051.647468073436
 42
0.4142135623731
 10
-495.6407333558026
 20
1051.147468073436
 42
0.4142135623731
  0
LINE
  5
2CB
330
1F
100
AcDbEntity
  8
C-1
  6
Continuous
 62
     2
370
     9
100
AcDbLine
 10
-490.6406607734544
 20
922.6479893466624
 30
0.0
 11
-852.641026984392
 21
922.6479893466624
 31
0.0
  0
LINE
  5
2CC
330
1F
100
AcDbEntity
  8
C-1
  6
Continuous
 62
     2
370
     9
100
AcDbLine
 10
-490.6406607734544
 20
922.6479893466624
 30
0.0
 11
-490.6406607734544
 21
560.6483654551928
 31
0.0
  0
LINE
  5
2CD
330
1F
100
AcDbEntity
  8
C-1
  6
Continuous
 62
     2
370
     9
100
AcDbLine
 10
-852.641026984392
 20
560.6483654551928
 30
0.0
 11
-852.641026984392
 21
922.6479893466624
 31
0.0
  0
LINE
  5
2CE
330
1F
100
AcDbEntity
  8
C-1
  6
Continuous
 62
     2
370
     9
100
AcDbLine
 10
-490.6406607734544
 20
560.6483654551928
 30
0.0
 11
-852.641026984392
 21
560.6483654551928
 31
0.0
  0
LWPOLYLINE
  5
2CF
330
1F
100
AcDbEntity
  8
C-4
  6
Continuous
 62
     7
370
     9
100
AcDbPolyline
 90
        4
 70
     1
 43
1.0
 10
-852.141026984392
 20
1106.647402089483
 42
0.4142135623731
 10
-852.641026984392
 20
1107.147402089483
 42
0.4142135623731
 10
-853.141026984392
 20
1106.647402089483
 42
0.4142135623731
 10
-852.641026984392
 20
1106.147402089483
 42
0.4142135623731
  0
LINE
  5
2D0
330
1F
100
AcDbEntity
  8
C-4
  6
Continuous
 62
     7
370
     9
100
AcDbLine
 10
-852.641026984392
 20
936.6483258648211
 30
0.0
 11
-852.641026984392
 21
1109.647362499112
 31
0.0
  0
TEXT
  5
2D1
330
1F
100
AcDbEntity
  8
C-4
  6
Continuous
 62
     2
370
     9
100
AcDbText
 10
-889.3042143722193
 20
1063.287388892693
 30
0.0
 40
30.48
  1
5
 41
0.9999999999999998
  7
ＭＳ ゴシック
100
AcDbText
  0
LWPOLYLINE
  5
2D2
330
1F
100
AcDbEntity
  8
C-4
  6
Continuous
 62
     7
370
     9
100
AcDbPolyline
 90
        4
 70
     1
 43
1.0
 10
-852.141026984392
 20
1051.647468073436
 42
0.4142135623731
 10
-852.641026984392
 20
1052.147468073436
 42
0.4142135623731
 10
-853.141026984392
 20
1051.647468073436
 42
0.4142135623731
 10
-852.641026984392
 20
1051.147468073436
 42
0.4142135623731
  0
LWPOLYLINE
  5
2D3
330
1F
100
AcDbEntity
  8
C-4
  6
Continuous
 62
     7
370
     9
100
AcDbPolyline
 90
        4
 70
     1
 43
1.0
 10
-490.1406607734544
 20
1106.647402089483
 42
0.4142135623731
 10
-490.6406607734544
 20
1107.147402089483
 42
0.4142135623731
 10
-491.1406607734544
 20
1106.647402089483
 42
0.4142135623731
 10
-490.6406607734544
 20
1106.147402089483
 42
0.4142135623731
  0
LINE
  5
2D4
330
1F
100
AcDbEntity
  8
C-4
  6
Continuous
 62
     7
370
     9
100
AcDbLine
 10
-490.6406607734544
 20
936.6483258648211
 30
0.0
 11
-490.6406607734544
 21
1109.647362499112
 31
0.0
  0
LWPOLYLINE
  5
2D5
330
1F
100
AcDbEntity
  8
C-4
  6
Continuous
 62
     7
370
     9
100
AcDbPolyline
 90
        4
 70
     1
 43
1.0
 10
-490.1406607734544
 20
1051.647468073436
 42
0.4142135623731
 10
-490.6406607734544
 20
1052.147468073436
 42
0.4142135623731
 10
-491.1406607734544
 20
1051.647468073436
 42
0.4142135623731
 10
-490.6406607734544
 20
1051.147468073436
 42
0.4142135623731
  0
TEXT
  5
2D6
330
1F
100
AcDbEntity
  8
C-4
  6
Continuous
 62
     2
370
     9
100
AcDbText
 10
-470.5707837675422
 20
1063.287388892693
 30
0.0
 40
30.48
  1
5
 41
0.9999999999999714
  7
ＭＳ ゴシック
100
AcDbText
  0
LINE
  5
2D7
330
1F
100
AcDbEntity
  8
C-4
  6
Continuous
 62
     7
370
     9
100
AcDbLine
 10
-921.2242655333039
 20
916.6480124410458
 30
0.0
 11
-921.2242655333039
 21
891.6481774009276
 31
0.0
  0
LWPOLYLINE
  5
2D8
330
1F
100
AcDbEntity
  8
C-4
  6
Continuous
 62
     7
370
     9
100
AcDbPolyline
 90
        4
 70
     1
 43
1.0
 10
-920.7242655333039
 20
916.6480124410458
 42
0.4142135623731
 10
-921.2242655333039
 20
917.1480124410458
 42
0.4142135623731
 10
-921.7242655333039
 20
916.6480124410458
 42
0.4142135623731
 10
-921.2242655333039
 20
916.1480124410458
 42
0.4142135623731
  0
LWPOLYLINE
  5
2D9
330
1F
100
AcDbEntity
  8
C-4
  6
Continuous
 62
     7
370
     9
100
AcDbPolyline
 90
        4
 70
     1
 43
1.0
 10
-920.7242655333039
 20
891.6481774009276
 42
0.4142135623731
 10
-921.2242655333039
 20
892.1481774009276
 42
0.4142135623731
 10
-921.7242655333039
 20
891.6481774009276
 42
0.4142135623731
 10
-921.2242655333039
 20
891.1481774009276
 42
0.4142135623731
  0
LINE
  5
2DA
330
1F
100
AcDbEntity
  8
C-4
  6
Continuous
 62
     7
370
     9
100
AcDbLine
 10
-991.040933283776
 20
916.6480124410458
 30
0.0
 11
-866.6411737986867
 21
916.6480124410458
 31
0.0
  0
LINE
  5
2DB
330
1F
100
AcDbEntity
  8
C-4
  6
Continuous
 62
     7
370
     9
100
AcDbLine
 10
-921.2242655333039
 20
891.6481774009276
 30
0.0
 11
-921.2242655333039
 21
591.6478062411937
 31
0.0
  0
LWPOLYLINE
  5
2DC
330
1F
100
AcDbEntity
  8
C-4
  6
Continuous
 62
     7
370
     9
100
AcDbPolyline
 90
        4
 70
     1
 43
1.0
 10
-920.7242655333039
 20
591.6478062411937
 42
0.4142135623731
 10
-921.2242655333039
 20
592.1478062411937
 42
0.4142135623731
 10
-921.7242655333039
 20
591.6478062411937
 42
0.4142135623731
 10
-921.2242655333039
 20
591.1478062411937
 42
0.4142135623731
  0
TEXT
  5
2DD
330
1F
100
AcDbEntity
  8
C-4
  6
Continuous
 62
     2
370
   211
100
AcDbText
 10
-932.8642655333038
 20
709.1479918210607
 30
0.0
 40
30.48
  1
300
 50
90.0
 41
1.083333333333333
  7
ＭＳ ゴシック
100
AcDbText
  0
LINE
  5
2DE
330
1F
100
AcDbEntity
  8
C-4
  6
Continuous
 62
     7
370
     9
100
AcDbLine
 10
-921.2242655333039
 20
591.6478062411937
 30
0.0
 11
-921.2242655333039
 21
566.6482186408982
 31
0.0
  0
LWPOLYLINE
  5
2DF
330
1F
100
AcDbEntity
  8
C-4
  6
Continuous
 62
     7
370
     9
100
AcDbPolyline
 90
        4
 70
     1
 43
1.0
 10
-920.7242655333039
 20
566.6482186408982
 42
0.4142135623731
 10
-921.2242655333039
 20
567.1482186408981
 42
0.4142135623731
 10
-921.7242655333039
 20
566.6482186408982
 42
0.4142135623731
 10
-921.2242655333039
 20
566.1482186408982
 42
0.4142135623731
  0
LINE
  5
2E0
330
1F
100
AcDbEntity
  8
C-4
  6
Continuous
 62
     7
370
     9
100
AcDbLine
 10
-991.040933283776
 20
566.6482186408982
 30
0.0
 11
-866.6411737986867
 21
566.6482186408982
 31
0.0
  0
LINE
  5
2E1
330
1F
100
AcDbEntity
  8
C-4
  6
Continuous
 62
     7
370
     9
100
AcDbLine
 10
-988.0409332837759
 20
963.6898837323861
 30
0.0
 11
-988.0409332837759
 21
526.9164554998829
 31
0.0
  0
LWPOLYLINE
  5
2E2
330
1F
100
AcDbEntity
  8
C-4
  6
Continuous
 62
     7
370
     9
100
AcDbPolyline
 90
        4
 70
     1
 43
1.0
 10
-987.540933283776
 20
922.6479893466624
 42
0.4142135623731
 10
-988.0409332837759
 20
923.1479893466623
 42
0.4142135623731
 10
-988.5409332837759
 20
922.6479893466624
 42
0.4142135623731
 10
-988.0409332837759
 20
922.1479893466624
 42
0.4142135623731
  0
LWPOLYLINE
  5
2E3
330
1F
100
AcDbEntity
  8
C-4
  6
Continuous
 62
     7
370
     9
100
AcDbPolyline
 90
        4
 70
     1
 43
1.0
 10
-987.540933283776
 20
917.6479167643146
 42
0.4142135623731
 10
-988.0409332837759
 20
918.1479167643146
 42
0.4142135623731
 10
-988.5409332837759
 20
917.6479167643146
 42
0.4142135623731
 10
-988.0409332837759
 20
917.1479167643146
 42
0.4142135623731
  0
LWPOLYLINE
  5
2E4
330
1F
100
AcDbEntity
  8
C-4
  6
Continuous
 62
     7
370
     9
100
AcDbPolyline
 90
        4
 70
     1
 43
1.0
 10
-987.540933283776
 20
916.6480124410458
 42
0.4142135623731
 10
-988.0409332837759
 20
917.1480124410458
 42
0.4142135623731
 10
-988.5409332837759
 20
916.6480124410458
 42
0.4142135623731
 10
-988.0409332837759
 20
916.1480124410458
 42
0.4142135623731
  0
LWPOLYLINE
  5
2E5
330
1F
100
AcDbEntity
  8
C-4
  6
Continuous
 62
     7
370
     9
100
AcDbPolyline
 90
        4
 70
     1
 43
1.0
 10
-987.540933283776
 20
566.6482186408982
 42
0.4142135623731
 10
-988.0409332837759
 20
567.1482186408981
 42
0.4142135623731
 10
-988.5409332837759
 20
566.6482186408982
 42
0.4142135623731
 10
-988.0409332837759
 20
566.1482186408982
 42
0.4142135623731
  0
TEXT
  5
2E6
330
1F
100
AcDbEntity
  8
C-4
  6
Continuous
 62
     2
370
   211
100
AcDbText
 10
-999.6809332837759
 20
709.1481155409722
 30
0.0
 40
30.48
  1
350
 50
90.0
 41
1.083333333333333
  7
ＭＳ ゴシック
100
AcDbText
  0
LWPOLYLINE
  5
2E7
330
1F
100
AcDbEntity
  8
C-4
  6
Continuous
 62
     7
370
     9
100
AcDbPolyline
 90
        4
 70
     1
 43
1.0
 10
-987.540933283776
 20
565.6480668778067
 42
0.4142135623731
 10
-988.0409332837759
 20
566.1480668778067
 42
0.4142135623731
 10
-988.5409332837759
 20
565.6480668778067
 42
0.4142135623731
 10
-988.0409332837759
 20
565.1480668778067
 42
0.4142135623731
  0
LWPOLYLINE
  5
2E8
330
1F
100
AcDbEntity
  8
C-4
  6
Continuous
 62
     7
370
     9
100
AcDbPolyline
 90
        4
 70
     1
 43
1.0
 10
-987.540933283776
 20
560.6483654551928
 42
0.4142135623731
 10
-988.0409332837759
 20
561.1483654551928
 42
0.4142135623731
 10
-988.5409332837759
 20
560.6483654551928
 42
0.4142135623731
 10
-988.0409332837759
 20
560.1483654551929
 42
0.4142135623731
  0
TEXT
  5
2E9
330
1F
100
AcDbEntity
  8
C-4
  6
Continuous
 62
     2
370
   211
100
AcDbText
 10
-932.5116492420349
 20
573.6744740078248
 30
0.0
 40
30.48
  1
25
 50
90.0
 41
1.0625
  7
ＭＳ ゴシック
100
AcDbText
  0
TEXT
  5
2EA
330
1F
100
AcDbEntity
  8
C-4
  6
Continuous
 62
     2
370
   211
100
AcDbText
 10
-932.8807015683824
 20
870.3925443913758
 30
0.0
 40
30.48
  1
25
 50
90.0
 41
1.0625
  7
ＭＳ ゴシック
100
AcDbText
  0
TEXT
  5
2EB
330
1F
100
AcDbEntity
  8
C-4
  6
Continuous
 62
     2
370
   211
100
AcDbText
 10
-999.6809332837759
 20
935.099718944339
 30
0.0
 40
30.48
  1
5
 50
90.0
 41
0.9999999999999998
  7
ＭＳ ゴシック
100
AcDbText
  0
TEXT
  5
2EC
330
1F
100
AcDbEntity
  8
C-4
  6
Continuous
 62
     2
370
   211
100
AcDbText
 10
-999.6809332837759
 20
893.7658583933967
 30
0.0
 40
30.48
  1
1
 50
90.0
 41
0.9999999999999998
  7
ＭＳ ゴシック
100
AcDbText
  0
TEXT
  5
2ED
330
1F
100
AcDbEntity
  8
C-4
  6
Continuous
 62
     2
370
   211
100
AcDbText
 10
-999.6809332837759
 20
526.3127587932033
 30
0.0
 40
30.48
  1
5
 50
90.0
 41
0.9999999999999998
  7
ＭＳ ゴシック
100
AcDbText
  0
TEXT
  5
2EE
330
1F
100
AcDbEntity
  8
C-4
  6
Continuous
 62
     2
370
   211
100
AcDbText
 10
-999.6809332837759
 20
573.9205088920568
 30
0.0
 40
30.48
  1
1
 50
90.0
 41
0.9999999999999998
  7
ＭＳ ゴシック
100
AcDbText
  0
LINE
  5
2EF
330
1F
100
AcDbEntity
  8
C-4
  6
Continuous
 62
     7
370
     9
100
AcDbLine
 10
-1065.389289064538
 20
922.6479893466624
 30
0.0
 11
-1065.389289064538
 21
560.6483654551928
 31
0.0
  0
LWPOLYLINE
  5
2F0
330
1F
100
AcDbEntity
  8
C-4
  6
Continuous
 62
     7
370
     9
100
AcDbPolyline
 90
        4
 70
     1
 43
1.0
 10
-1064.889289064538
 20
922.6479893466624
 42
0.4142135623731
 10
-1065.389289064538
 20
923.1479893466623
 42
0.4142135623731
 10
-1065.889289064538
 20
922.6479893466624
 42
0.4142135623731
 10
-1065.389289064538
 20
922.1479893466624
 42
0.4142135623731
  0
LWPOLYLINE
  5
2F1
330
1F
100
AcDbEntity
  8
C-4
  6
Continuous
 62
     7
370
     9
100
AcDbPolyline
 90
        4
 70
     1
 43
1.0
 10
-1064.889289064538
 20
560.6483654551928
 42
0.4142135623731
 10
-1065.389289064538
 20
561.1483654551928
 42
0.4142135623731
 10
-1065.889289064538
 20
560.6483654551928
 42
0.4142135623731
 10
-1065.389289064538
 20
560.1483654551929
 42
0.4142135623731
  0
LINE
  5
2F2
330
1F
100
AcDbEntity
  8
C-4
  6
Continuous
 62
     7
370
     9
100
AcDbLine
 10
-1068.389289064538
 20
922.6479893466624
 30
0.0
 11
-866.6411737986867
 21
922.6479893466624
 31
0.0
  0
LINE
  5
2F3
330
1F
100
AcDbEntity
  8
C-4
  6
Continuous
 62
     7
370
     9
100
AcDbLine
 10
-1068.389289064538
 20
560.6483654551928
 30
0.0
 11
-866.6411737986867
 21
560.6483654551928
 31
0.0
  0
TEXT
  5
2F4
330
1F
100
AcDbEntity
  8
C-4
  6
Continuous
 62
     2
370
   211
100
AcDbText
 10
-1077.029289064538
 20
709.1481774009276
 30
0.0
 40
30.48
  1
362
 50
90.0
 41
1.083333333333333
  7
ＭＳ ゴシック
100
AcDbText
  0
LINE
  5
2F5
330
1F
100
AcDbEntity
  8
C-4
  6
Continuous
 62
     7
370
     9
100
AcDbLine
 10
-924.224265533304
 20
891.6481774009276
 30
0.0
 11
-866.6411737986867
 21
891.6481774009276
 31
0.0
  0
LINE
  5
2F6
330
1F
100
AcDbEntity
  8
C-4
  6
Continuous
 62
     7
370
     9
100
AcDbLine
 10
-991.040933283776
 20
917.6479167643146
 30
0.0
 11
-866.6411737986867
 21
917.6479167643146
 31
0.0
  0
LINE
  5
2F7
330
1F
100
AcDbEntity
  8
C-4
  6
Continuous
 62
     7
370
     9
100
AcDbLine
 10
-924.224265533304
 20
591.6478062411937
 30
0.0
 11
-866.6411737986867
 21
591.6478062411937
 31
0.0
  0
LINE
  5
2F8
330
1F
100
AcDbEntity
  8
C-4
  6
Continuous
 62
     7
370
     9
100
AcDbLine
 10
-991.040933283776
 20
565.6480668778067
 30
0.0
 11
-866.6411737986867
 21
565.6480668778067
 31
0.0
  0
LINE
  5
2F9
330
1F
100
AcDbEntity
  8
C-A
  6
Continuous
 62
     3
370
     9
100
AcDbLine
 10
-828.6407927413599
 20
845.1980124410463
 30
0.0
 11
-822.6406244822805
 21
845.1980124410463
 31
0.0
  0
LINE
  5
2FA
330
1F
100
AcDbEntity
  8
C-A
  6
Continuous
 62
     3
370
     9
100
AcDbLine
 10
-814.6412661762206
 20
845.1980124410463
 30
0.0
 11
-808.6412216370526
 21
845.1980124410463
 31
0.0
  0
LINE
  5
2FB
330
1F
100
AcDbEntity
  8
C-A
  6
Continuous
 62
     3
370
     9
100
AcDbLine
 10
-800.6413684513474
 20
845.1980124410463
 30
0.0
 11
-794.6407053126227
 21
845.1980124410463
 31
0.0
  0
LINE
  5
2FC
330
1F
100
AcDbEntity
  8
C-A
  6
Continuous
 62
     3
370
     9
100
AcDbLine
 10
-786.6408521269175
 20
845.1980124410463
 30
0.0
 11
-780.6411787474833
 21
845.1980124410463
 31
0.0
  0
LINE
  5
2FD
330
1F
100
AcDbEntity
  8
C-A
  6
Continuous
 62
     3
370
     9
100
AcDbLine
 10
-772.6414492816893
 20
845.1980124410463
 30
0.0
 11
-766.6407861429645
 21
845.1980124410463
 31
0.0
  0
LINE
  5
2FE
330
1F
100
AcDbEntity
  8
C-A
  6
Continuous
 62
     3
370
     9
100
AcDbLine
 10
-758.6409329572593
 20
845.1980124410463
 30
0.0
 11
-752.6412595778253
 21
845.1980124410463
 31
0.0
  0
LINE
  5
2FF
330
1F
100
AcDbEntity
  8
C-A
  6
Continuous
 62
     3
370
     9
100
AcDbLine
 10
-744.6414063921201
 20
845.1980124410463
 30
0.0
 11
-738.6408669733067
 21
845.1980124410463
 31
0.0
  0
LINE
  5
300
330
1F
100
AcDbEntity
  8
C-A
  6
Continuous
 62
     3
370
     9
100
AcDbLine
 10
-730.6410137876015
 20
845.1980124410463
 30
0.0
 11
-724.6408455285222
 21
845.1980124410463
 31
0.0
  0
LINE
  5
301
330
1F
100
AcDbEntity
  8
C-A
  6
Continuous
 62
     3
370
     9
100
AcDbLine
 10
-716.6411160627281
 20
845.1980124410463
 30
0.0
 11
-710.641442683294
 21
845.1980124410463
 31
0.0
  0
LINE
  5
302
330
1F
100
AcDbEntity
  8
C-A
  6
Continuous
 62
     3
370
     9
100
AcDbLine
 10
-702.6410946179435
 20
845.1980124410463
 30
0.0
 11
-696.640926358864
 21
845.1980124410463
 31
0.0
  0
LINE
  5
303
330
1F
100
AcDbEntity
  8
C-A
  6
Continuous
 62
     3
370
     9
100
AcDbLine
 10
-688.6410731731588
 20
845.1980124410463
 30
0.0
 11
-682.6415235136362
 21
845.1980124410463
 31
0.0
  0
LINE
  5
304
330
1F
100
AcDbEntity
  8
C-A
  6
Continuous
 62
     3
370
     9
100
AcDbLine
 10
-674.6411754482857
 20
845.1980124410463
 30
0.0
 11
-668.6410071892062
 21
845.1980124410463
 31
0.0
  0
LINE
  5
305
330
1F
100
AcDbEntity
  8
C-A
  6
Continuous
 62
     3
370
     9
100
AcDbLine
 10
-660.641154003501
 20
845.1980124410463
 30
0.0
 11
-654.6411094643328
 21
845.1980124410463
 31
0.0
  0
LINE
  5
306
330
1F
100
AcDbEntity
  8
C-A
  6
Continuous
 62
     3
370
     9
100
AcDbLine
 10
-646.6412562786276
 20
845.1980124410463
 30
0.0
 11
-640.6410880195482
 21
845.1980124410463
 31
0.0
  0
LINE
  5
307
330
1F
100
AcDbEntity
  8
C-A
  6
Continuous
 62
     3
370
     9
100
AcDbLine
 10
-632.641234833843
 20
845.1980124410463
 30
0.0
 11
-626.6410665747635
 21
845.1980124410463
 31
0.0
  0
LINE
  5
308
330
1F
100
AcDbEntity
  8
C-A
  6
Continuous
 62
     3
370
     9
100
AcDbLine
 10
-618.6413371089698
 20
845.1980124410463
 30
0.0
 11
-612.6411688498904
 21
845.1980124410463
 31
0.0
  0
LINE
  5
309
330
1F
100
AcDbEntity
  8
C-A
  6
Continuous
 62
     3
370
     9
100
AcDbLine
 10
-604.6413156641852
 20
845.1980124410463
 30
0.0
 11
-598.6407762453719
 21
845.1980124410463
 31
0.0
  0
LINE
  5
30A
330
1F
100
AcDbEntity
  8
C-A
  6
Continuous
 62
     3
370
     9
100
AcDbLine
 10
-590.6407993397552
 20
845.1980124410463
 30
0.0
 11
-584.6407548005873
 21
845.1980124410463
 31
0.0
  0
LINE
  5
30B
330
1F
100
AcDbEntity
  8
C-A
  6
Continuous
 62
     3
370
     9
100
AcDbLine
 10
-576.6409016148821
 20
845.1980124410463
 30
0.0
 11
-570.6407333558026
 21
845.1980124410463
 31
0.0
  0
LINE
  5
30C
330
1F
100
AcDbEntity
  8
C-A
  6
Continuous
 62
     3
370
     9
100
AcDbLine
 10
-562.6408801700974
 20
845.1980124410463
 30
0.0
 11
-556.6403407512838
 21
845.1980124410463
 31
0.0
  0
LINE
  5
30D
330
1F
100
AcDbEntity
  8
C-A
  6
Continuous
 62
     3
370
     9
100
AcDbLine
 10
-548.6404875655786
 20
845.1980124410463
 30
0.0
 11
-542.6398244268539
 21
845.1980124410463
 31
0.0
  0
LINE
  5
30E
330
1F
100
AcDbEntity
  8
C-A
  6
Continuous
 62
     3
370
     9
100
AcDbLine
 10
-534.6399712411487
 20
845.1980124410463
 30
0.0
 11
-528.6402978617145
 21
845.1980124410463
 31
0.0
  0
LINE
  5
30F
330
1F
100
AcDbEntity
  8
C-A
  6
Continuous
 62
     3
370
     9
100
AcDbLine
 10
-520.6405683959208
 20
845.1980124410463
 30
0.0
 11
-514.6399052571961
 21
845.1980124410463
 31
0.0
  0
LINE
  5
310
330
1F
100
AcDbEntity
  8
C-A
  6
Continuous
 62
     3
370
     9
100
AcDbLine
 10
-838.6413206129815
 20
845.1980124410463
 30
0.0
 11
-836.6411408067104
 21
845.1980124410463
 31
0.0
  0
LINE
  5
311
330
1F
100
AcDbEntity
  8
C-A
  6
Continuous
 62
     3
370
     9
100
AcDbLine
 10
-506.640175791402
 20
845.1980124410463
 30
0.0
 11
-504.6408620245102
 21
845.1980124410463
 31
0.0
  0
LINE
  5
312
330
1F
100
AcDbEntity
  8
C-A
  6
Continuous
 62
     3
370
     9
100
AcDbLine
 10
-828.6407927413599
 20
838.098012441046
 30
0.0
 11
-822.6406244822805
 21
838.098012441046
 31
0.0
  0
LINE
  5
313
330
1F
100
AcDbEntity
  8
C-A
  6
Continuous
 62
     3
370
     9
100
AcDbLine
 10
-814.6412661762206
 20
838.098012441046
 30
0.0
 11
-808.6412216370526
 21
838.098012441046
 31
0.0
  0
LINE
  5
314
330
1F
100
AcDbEntity
  8
C-A
  6
Continuous
 62
     3
370
     9
100
AcDbLine
 10
-800.6413684513474
 20
838.098012441046
 30
0.0
 11
-794.6407053126227
 21
838.098012441046
 31
0.0
  0
LINE
  5
315
330
1F
100
AcDbEntity
  8
C-A
  6
Continuous
 62
     3
370
     9
100
AcDbLine
 10
-786.6408521269175
 20
838.098012441046
 30
0.0
 11
-780.6411787474833
 21
838.098012441046
 31
0.0
  0
LINE
  5
316
330
1F
100
AcDbEntity
  8
C-A
  6
Continuous
 62
     3
370
     9
100
AcDbLine
 10
-772.6414492816893
 20
838.098012441046
 30
0.0
 11
-766.6407861429645
 21
838.098012441046
 31
0.0
  0
LINE
  5
317
330
1F
100
AcDbEntity
  8
C-A
  6
Continuous
 62
     3
370
     9
100
AcDbLine
 10
-758.6409329572593
 20
838.098012441046
 30
0.0
 11
-752.6412595778253
 21
838.098012441046
 31
0.0
  0
LINE
  5
318
330
1F
100
AcDbEntity
  8
C-A
  6
Continuous
 62
     3
370
     9
100
AcDbLine
 10
-744.6414063921201
 20
838.098012441046
 30
0.0
 11
-738.6408669733067
 21
838.098012441046
 31
0.0
  0
LINE
  5
319
330
1F
100
AcDbEntity
  8
C-A
  6
Continuous
 62
     3
370
     9
100
AcDbLine
 10
-730.6410137876015
 20
838.098012441046
 30
0.0
 11
-724.6408455285222
 21
838.098012441046
 31
0.0
  0
LINE
  5
31A
330
1F
100
AcDbEntity
  8
C-A
  6
Continuous
 62
     3
370
     9
100
AcDbLine
 10
-716.6411160627281
 20
838.098012441046
 30
0.0
 11
-710.641442683294
 21
838.098012441046
 31
0.0
  0
LINE
  5
31B
330
1F
100
AcDbEntity
  8
C-A
  6
Continuous
 62
     3
370
     9
100
AcDbLine
 10
-702.6410946179435
 20
838.098012441046
 30
0.0
 11
-696.640926358864
 21
838.098012441046
 31
0.0
  0
LINE
  5
31C
330
1F
100
AcDbEntity
  8
C-A
  6
Continuous
 62
     3
370
     9
100
AcDbLine
 10
-688.6410731731588
 20
838.098012441046
 30
0.0
 11
-682.6415235136362
 21
838.098012441046
 31
0.0
  0
LINE
  5
31D
330
1F
100
AcDbEntity
  8
C-A
  6
Continuous
 62
     3
370
     9
100
AcDbLine
 10
-674.6411754482857
 20
838.098012441046
 30
0.0
 11
-668.6410071892062
 21
838.098012441046
 31
0.0
  0
LINE
  5
31E
330
1F
100
AcDbEntity
  8
C-A
  6
Continuous
 62
     3
370
     9
100
AcDbLine
 10
-660.641154003501
 20
838.098012441046
 30
0.0
 11
-654.6411094643328
 21
838.098012441046
 31
0.0
  0
LINE
  5
31F
330
1F
100
AcDbEntity
  8
C-A
  6
Continuous
 62
     3
370
     9
100
AcDbLine
 10
-646.6412562786276
 20
838.098012441046
 30
0.0
 11
-640.6410880195482
 21
838.098012441046
 31
0.0
  0
LINE
  5
320
330
1F
100
AcDbEntity
  8
C-A
  6
Continuous
 62
     3
370
     9
100
AcDbLine
 10
-632.641234833843
 20
838.098012441046
 30
0.0
 11
-626.6410665747635
 21
838.098012441046
 31
0.0
  0
LINE
  5
321
330
1F
100
AcDbEntity
  8
C-A
  6
Continuous
 62
     3
370
     9
100
AcDbLine
 10
-618.6413371089698
 20
838.098012441046
 30
0.0
 11
-612.6411688498904
 21
838.098012441046
 31
0.0
  0
LINE
  5
322
330
1F
100
AcDbEntity
  8
C-A
  6
Continuous
 62
     3
370
     9
100
AcDbLine
 10
-604.6413156641852
 20
838.098012441046
 30
0.0
 11
-598.6407762453719
 21
838.098012441046
 31
0.0
  0
LINE
  5
323
330
1F
100
AcDbEntity
  8
C-A
  6
Continuous
 62
     3
370
     9
100
AcDbLine
 10
-590.6407993397552
 20
838.098012441046
 30
0.0
 11
-584.6407548005873
 21
838.098012441046
 31
0.0
  0
LINE
  5
324
330
1F
100
AcDbEntity
  8
C-A
  6
Continuous
 62
     3
370
     9
100
AcDbLine
 10
-576.6409016148821
 20
838.098012441046
 30
0.0
 11
-570.6407333558026
 21
838.098012441046
 31
0.0
  0
LINE
  5
325
330
1F
100
AcDbEntity
  8
C-A
  6
Continuous
 62
     3
370
     9
100
AcDbLine
 10
-562.6408801700974
 20
838.098012441046
 30
0.0
 11
-556.6403407512838
 21
838.098012441046
 31
0.0
  0
LINE
  5
326
330
1F
100
AcDbEntity
  8
C-A
  6
Continuous
 62
     3
370
     9
100
AcDbLine
 10
-548.6404875655786
 20
838.098012441046
 30
0.0
 11
-542.6398244268539
 21
838.098012441046
 31
0.0
  0
LINE
  5
327
330
1F
100
AcDbEntity
  8
C-A
  6
Continuous
 62
     3
370
     9
100
AcDbLine
 10
-534.6399712411487
 20
838.098012441046
 30
0.0
 11
-528.6402978617145
 21
838.098012441046
 31
0.0
  0
LINE
  5
328
330
1F
100
AcDbEntity
  8
C-A
  6
Continuous
 62
     3
370
     9
100
AcDbLine
 10
-520.6405683959208
 20
838.098012441046
 30
0.0
 11
-514.6399052571961
 21
838.098012441046
 31
0.0
  0
LINE
  5
329
330
1F
100
AcDbEntity
  8
C-A
  6
Continuous
 62
     3
370
     9
100
AcDbLine
 10
-838.6413206129815
 20
838.098012441046
 30
0.0
 11
-836.6411408067104
 21
838.098012441046
 31
0.0
  0
LINE
  5
32A
330
1F
100
AcDbEntity
  8
C-A
  6
Continuous
 62
     3
370
     9
100
AcDbLine
 10
-506.640175791402
 20
838.098012441046
 30
0.0
 11
-504.6408620245102
 21
838.098012441046
 31
0.0
  0
LINE
  5
32B
330
1F
100
AcDbEntity
  8
C-A
  6
Continuous
 62
     3
370
     9
100
AcDbLine
 10
-828.6407927413599
 20
745.1979299611048
 30
0.0
 11
-822.6406244822805
 21
745.1979299611048
 31
0.0
  0
LINE
  5
32C
330
1F
100
AcDbEntity
  8
C-A
  6
Continuous
 62
     3
370
     9
100
AcDbLine
 10
-814.6412661762206
 20
745.1979299611048
 30
0.0
 11
-808.6412216370526
 21
745.1979299611048
 31
0.0
  0
LINE
  5
32D
330
1F
100
AcDbEntity
  8
C-A
  6
Continuous
 62
     3
370
     9
100
AcDbLine
 10
-800.6413684513474
 20
745.1979299611048
 30
0.0
 11
-794.6407053126227
 21
745.1979299611048
 31
0.0
  0
LINE
  5
32E
330
1F
100
AcDbEntity
  8
C-A
  6
Continuous
 62
     3
370
     9
100
AcDbLine
 10
-786.6408521269175
 20
745.1979299611048
 30
0.0
 11
-780.6411787474833
 21
745.1979299611048
 31
0.0
  0
LINE
  5
32F
330
1F
100
AcDbEntity
  8
C-A
  6
Continuous
 62
     3
370
     9
100
AcDbLine
 10
-772.6414492816893
 20
745.1979299611048
 30
0.0
 11
-766.6407861429645
 21
745.1979299611048
 31
0.0
  0
LINE
  5
330
330
1F
100
AcDbEntity
  8
C-A
  6
Continuous
 62
     3
370
     9
100
AcDbLine
 10
-758.6409329572593
 20
745.1979299611048
 30
0.0
 11
-752.6412595778253
 21
745.1979299611048
 31
0.0
  0
LINE
  5
331
330
1F
100
AcDbEntity
  8
C-A
  6
Continuous
 62
     3
370
     9
100
AcDbLine
 10
-744.6414063921201
 20
745.1979299611048
 30
0.0
 11
-738.6408669733067
 21
745.1979299611048
 31
0.0
  0
LINE
  5
332
330
1F
100
AcDbEntity
  8
C-A
  6
Continuous
 62
     3
370
     9
100
AcDbLine
 10
-730.6410137876015
 20
745.1979299611048
 30
0.0
 11
-724.6408455285222
 21
745.1979299611048
 31
0.0
  0
LINE
  5
333
330
1F
100
AcDbEntity
  8
C-A
  6
Continuous
 62
     3
370
     9
100
AcDbLine
 10
-716.6411160627281
 20
745.1979299611048
 30
0.0
 11
-710.641442683294
 21
745.1979299611048
 31
0.0
  0
LINE
  5
334
330
1F
100
AcDbEntity
  8
C-A
  6
Continuous
 62
     3
370
     9
100
AcDbLine
 10
-702.6410946179435
 20
745.1979299611048
 30
0.0
 11
-696.640926358864
 21
745.1979299611048
 31
0.0
  0
LINE
  5
335
330
1F
100
AcDbEntity
  8
C-A
  6
Continuous
 62
     3
370
     9
100
AcDbLine
 10
-688.6410731731588
 20
745.1979299611048
 30
0.0
 11
-682.6415235136362
 21
745.1979299611048
 31
0.0
  0
LINE
  5
336
330
1F
100
AcDbEntity
  8
C-A
  6
Continuous
 62
     3
370
     9
100
AcDbLine
 10
-674.6411754482857
 20
745.1979299611048
 30
0.0
 11
-668.6410071892062
 21
745.1979299611048
 31
0.0
  0
LINE
  5
337
330
1F
100
AcDbEntity
  8
C-A
  6
Continuous
 62
     3
370
     9
100
AcDbLine
 10
-660.641154003501
 20
745.1979299611048
 30
0.0
 11
-654.6411094643328
 21
745.1979299611048
 31
0.0
  0
LINE
  5
338
330
1F
100
AcDbEntity
  8
C-A
  6
Continuous
 62
     3
370
     9
100
AcDbLine
 10
-646.6412562786276
 20
745.1979299611048
 30
0.0
 11
-640.6410880195482
 21
745.1979299611048
 31
0.0
  0
LINE
  5
339
330
1F
100
AcDbEntity
  8
C-A
  6
Continuous
 62
     3
370
     9
100
AcDbLine
 10
-632.641234833843
 20
745.1979299611048
 30
0.0
 11
-626.6410665747635
 21
745.1979299611048
 31
0.0
  0
LINE
  5
33A
330
1F
100
AcDbEntity
  8
C-A
  6
Continuous
 62
     3
370
     9
100
AcDbLine
 10
-618.6413371089698
 20
745.1979299611048
 30
0.0
 11
-612.6411688498904
 21
745.1979299611048
 31
0.0
  0
LINE
  5
33B
330
1F
100
AcDbEntity
  8
C-A
  6
Continuous
 62
     3
370
     9
100
AcDbLine
 10
-604.6413156641852
 20
745.1979299611048
 30
0.0
 11
-598.6407762453719
 21
745.1979299611048
 31
0.0
  0
LINE
  5
33C
330
1F
100
AcDbEntity
  8
C-A
  6
Continuous
 62
     3
370
     9
100
AcDbLine
 10
-590.6407993397552
 20
745.1979299611048
 30
0.0
 11
-584.6407548005873
 21
745.1979299611048
 31
0.0
  0
LINE
  5
33D
330
1F
100
AcDbEntity
  8
C-A
  6
Continuous
 62
     3
370
     9
100
AcDbLine
 10
-576.6409016148821
 20
745.1979299611048
 30
0.0
 11
-570.6407333558026
 21
745.1979299611048
 31
0.0
  0
LINE
  5
33E
330
1F
100
AcDbEntity
  8
C-A
  6
Continuous
 62
     3
370
     9
100
AcDbLine
 10
-838.6413206129815
 20
745.1979299611048
 30
0.0
 11
-836.6411408067104
 21
745.1979299611048
 31
0.0
  0
LINE
  5
33F
330
1F
100
AcDbEntity
  8
C-A
  6
Continuous
 62
     3
370
     9
100
AcDbLine
 10
-828.6407927413599
 20
738.0979299611047
 30
0.0
 11
-822.6406244822805
 21
738.0979299611047
 31
0.0
  0
LINE
  5
340
330
1F
100
AcDbEntity
  8
C-A
  6
Continuous
 62
     3
370
     9
100
AcDbLine
 10
-814.6412661762206
 20
738.0979299611047
 30
0.0
 11
-808.6412216370526
 21
738.0979299611047
 31
0.0
  0
LINE
  5
341
330
1F
100
AcDbEntity
  8
C-A
  6
Continuous
 62
     3
370
     9
100
AcDbLine
 10
-800.6413684513474
 20
738.0979299611047
 30
0.0
 11
-794.6407053126227
 21
738.0979299611047
 31
0.0
  0
LINE
  5
342
330
1F
100
AcDbEntity
  8
C-A
  6
Continuous
 62
     3
370
     9
100
AcDbLine
 10
-786.6408521269175
 20
738.0979299611047
 30
0.0
 11
-780.6411787474833
 21
738.0979299611047
 31
0.0
  0
LINE
  5
343
330
1F
100
AcDbEntity
  8
C-A
  6
Continuous
 62
     3
370
     9
100
AcDbLine
 10
-772.6414492816893
 20
738.0979299611047
 30
0.0
 11
-766.6407861429645
 21
738.0979299611047
 31
0.0
  0
LINE
  5
344
330
1F
100
AcDbEntity
  8
C-A
  6
Continuous
 62
     3
370
     9
100
AcDbLine
 10
-758.6409329572593
 20
738.0979299611047
 30
0.0
 11
-752.6412595778253
 21
738.0979299611047
 31
0.0
  0
LINE
  5
345
330
1F
100
AcDbEntity
  8
C-A
  6
Continuous
 62
     3
370
     9
100
AcDbLine
 10
-744.6414063921201
 20
738.0979299611047
 30
0.0
 11
-738.6408669733067
 21
738.0979299611047
 31
0.0
  0
LINE
  5
346
330
1F
100
AcDbEntity
  8
C-A
  6
Continuous
 62
     3
370
     9
100
AcDbLine
 10
-730.6410137876015
 20
738.0979299611047
 30
0.0
 11
-724.6408455285222
 21
738.0979299611047
 31
0.0
  0
LINE
  5
347
330
1F
100
AcDbEntity
  8
C-A
  6
Continuous
 62
     3
370
     9
100
AcDbLine
 10
-716.6411160627281
 20
738.0979299611047
 30
0.0
 11
-710.641442683294
 21
738.0979299611047
 31
0.0
  0
LINE
  5
348
330
1F
100
AcDbEntity
  8
C-A
  6
Continuous
 62
     3
370
     9
100
AcDbLine
 10
-702.6410946179435
 20
738.0979299611047
 30
0.0
 11
-696.640926358864
 21
738.0979299611047
 31
0.0
  0
LINE
  5
349
330
1F
100
AcDbEntity
  8
C-A
  6
Continuous
 62
     3
370
     9
100
AcDbLine
 10
-688.6410731731588
 20
738.0979299611047
 30
0.0
 11
-682.6415235136362
 21
738.0979299611047
 31
0.0
  0
LINE
  5
34A
330
1F
100
AcDbEntity
  8
C-A
  6
Continuous
 62
     3
370
     9
100
AcDbLine
 10
-674.6411754482857
 20
738.0979299611047
 30
0.0
 11
-668.6410071892062
 21
738.0979299611047
 31
0.0
  0
LINE
  5
34B
330
1F
100
AcDbEntity
  8
C-A
  6
Continuous
 62
     3
370
     9
100
AcDbLine
 10
-660.641154003501
 20
738.0979299611047
 30
0.0
 11
-654.6411094643328
 21
738.0979299611047
 31
0.0
  0
LINE
  5
34C
330
1F
100
AcDbEntity
  8
C-A
  6
Continuous
 62
     3
370
     9
100
AcDbLine
 10
-646.6412562786276
 20
738.0979299611047
 30
0.0
 11
-640.6410880195482
 21
738.0979299611047
 31
0.0
  0
LINE
  5
34D
330
1F
100
AcDbEntity
  8
C-A
  6
Continuous
 62
     3
370
     9
100
AcDbLine
 10
-632.641234833843
 20
738.0979299611047
 30
0.0
 11
-626.6410665747635
 21
738.0979299611047
 31
0.0
  0
LINE
  5
34E
330
1F
100
AcDbEntity
  8
C-A
  6
Continuous
 62
     3
370
     9
100
AcDbLine
 10
-618.6413371089698
 20
738.0979299611047
 30
0.0
 11
-612.6411688498904
 21
738.0979299611047
 31
0.0
  0
LINE
  5
34F
330
1F
100
AcDbEntity
  8
C-A
  6
Continuous
 62
     3
370
     9
100
AcDbLine
 10
-604.6413156641852
 20
738.0979299611047
 30
0.0
 11
-598.6407762453719
 21
738.0979299611047
 31
0.0
  0
LINE
  5
350
330
1F
100
AcDbEntity
  8
C-A
  6
Continuous
 62
     3
370
     9
100
AcDbLine
 10
-590.6407993397552
 20
738.0979299611047
 30
0.0
 11
-584.6407548005873
 21
738.0979299611047
 31
0.0
  0
LINE
  5
351
330
1F
100
AcDbEntity
  8
C-A
  6
Continuous
 62
     3
370
     9
100
AcDbLine
 10
-838.6413206129815
 20
738.0979299611047
 30
0.0
 11
-836.6411408067104
 21
738.0979299611047
 31
0.0
  0
LINE
  5
352
330
1F
100
AcDbEntity
  8
C-A
  6
Continuous
 62
     3
370
     9
100
AcDbLine
 10
-828.6407927413599
 20
645.1979712010755
 30
0.0
 11
-822.6406244822805
 21
645.1979712010755
 31
0.0
  0
LINE
  5
353
330
1F
100
AcDbEntity
  8
C-A
  6
Continuous
 62
     3
370
     9
100
AcDbLine
 10
-814.6412661762206
 20
645.1979712010755
 30
0.0
 11
-808.6412216370526
 21
645.1979712010755
 31
0.0
  0
LINE
  5
354
330
1F
100
AcDbEntity
  8
C-A
  6
Continuous
 62
     3
370
     9
100
AcDbLine
 10
-800.6413684513474
 20
645.1979712010755
 30
0.0
 11
-794.6407053126227
 21
645.1979712010755
 31
0.0
  0
LINE
  5
355
330
1F
100
AcDbEntity
  8
C-A
  6
Continuous
 62
     3
370
     9
100
AcDbLine
 10
-786.6408521269175
 20
645.1979712010755
 30
0.0
 11
-780.6411787474833
 21
645.1979712010755
 31
0.0
  0
LINE
  5
356
330
1F
100
AcDbEntity
  8
C-A
  6
Continuous
 62
     3
370
     9
100
AcDbLine
 10
-772.6414492816893
 20
645.1979712010755
 30
0.0
 11
-766.6407861429645
 21
645.1979712010755
 31
0.0
  0
LINE
  5
357
330
1F
100
AcDbEntity
  8
C-A
  6
Continuous
 62
     3
370
     9
100
AcDbLine
 10
-758.6409329572593
 20
645.1979712010755
 30
0.0
 11
-752.6412595778253
 21
645.1979712010755
 31
0.0
  0
LINE
  5
358
330
1F
100
AcDbEntity
  8
C-A
  6
Continuous
 62
     3
370
     9
100
AcDbLine
 10
-744.6414063921201
 20
645.1979712010755
 30
0.0
 11
-738.6408669733067
 21
645.1979712010755
 31
0.0
  0
LINE
  5
359
330
1F
100
AcDbEntity
  8
C-A
  6
Continuous
 62
     3
370
     9
100
AcDbLine
 10
-730.6410137876015
 20
645.1979712010755
 30
0.0
 11
-724.6408455285222
 21
645.1979712010755
 31
0.0
  0
LINE
  5
35A
330
1F
100
AcDbEntity
  8
C-A
  6
Continuous
 62
     3
370
     9
100
AcDbLine
 10
-716.6411160627281
 20
645.1979712010755
 30
0.0
 11
-710.641442683294
 21
645.1979712010755
 31
0.0
  0
LINE
  5
35B
330
1F
100
AcDbEntity
  8
C-A
  6
Continuous
 62
     3
370
     9
100
AcDbLine
 10
-702.6410946179435
 20
645.1979712010755
 30
0.0
 11
-696.640926358864
 21
645.1979712010755
 31
0.0
  0
LINE
  5
35C
330
1F
100
AcDbEntity
  8
C-A
  6
Continuous
 62
     3
370
     9
100
AcDbLine
 10
-688.6410731731588
 20
645.1979712010755
 30
0.0
 11
-682.6415235136362
 21
645.1979712010755
 31
0.0
  0
LINE
  5
35D
330
1F
100
AcDbEntity
  8
C-A
  6
Continuous
 62
     3
370
     9
100
AcDbLine
 10
-674.6411754482857
 20
645.1979712010755
 30
0.0
 11
-668.6410071892062
 21
645.1979712010755
 31
0.0
  0
LINE
  5
35E
330
1F
100
AcDbEntity
  8
C-A
  6
Continuous
 62
     3
370
     9
100
AcDbLine
 10
-838.6413206129815
 20
645.1979712010755
 30
0.0
 11
-836.6411408067104
 21
645.1979712010755
 31
0.0
  0
LINE
  5
35F
330
1F
100
AcDbEntity
  8
C-A
  6
Continuous
 62
     3
370
     9
100
AcDbLine
 10
-838.6413206129815
 20
638.0979712010756
 30
0.0
 11
-836.6411408067104
 21
638.0979712010756
 31
0.0
  0
LINE
  5
360
330
1F
100
AcDbEntity
  8
C-A
  6
Continuous
 62
     3
370
     9
100
AcDbLine
 10
-688.6410731731588
 20
638.0979712010756
 30
0.0
 11
-682.6415235136362
 21
638.0979712010756
 31
0.0
  0
LINE
  5
361
330
1F
100
AcDbEntity
  8
C-A
  6
Continuous
 62
     3
370
     9
100
AcDbLine
 10
-702.6410946179435
 20
638.0979712010756
 30
0.0
 11
-696.640926358864
 21
638.0979712010756
 31
0.0
  0
LINE
  5
362
330
1F
100
AcDbEntity
  8
C-A
  6
Continuous
 62
     3
370
     9
100
AcDbLine
 10
-716.6411160627281
 20
638.0979712010756
 30
0.0
 11
-710.641442683294
 21
638.0979712010756
 31
0.0
  0
LINE
  5
363
330
1F
100
AcDbEntity
  8
C-A
  6
Continuous
 62
     3
370
     9
100
AcDbLine
 10
-730.6410137876015
 20
638.0979712010756
 30
0.0
 11
-724.6408455285222
 21
638.0979712010756
 31
0.0
  0
LINE
  5
364
330
1F
100
AcDbEntity
  8
C-A
  6
Continuous
 62
     3
370
     9
100
AcDbLine
 10
-744.6414063921201
 20
638.0979712010756
 30
0.0
 11
-738.6408669733067
 21
638.0979712010756
 31
0.0
  0
LINE
  5
365
330
1F
100
AcDbEntity
  8
C-A
  6
Continuous
 62
     3
370
     9
100
AcDbLine
 10
-758.6409329572593
 20
638.0979712010756
 30
0.0
 11
-752.6412595778253
 21
638.0979712010756
 31
0.0
  0
LINE
  5
366
330
1F
100
AcDbEntity
  8
C-A
  6
Continuous
 62
     3
370
     9
100
AcDbLine
 10
-772.6414492816893
 20
638.0979712010756
 30
0.0
 11
-766.6407861429645
 21
638.0979712010756
 31
0.0
  0
LINE
  5
367
330
1F
100
AcDbEntity
  8
C-A
  6
Continuous
 62
     3
370
     9
100
AcDbLine
 10
-786.6408521269175
 20
638.0979712010756
 30
0.0
 11
-780.6411787474833
 21
638.0979712010756
 31
0.0
  0
LINE
  5
368
330
1F
100
AcDbEntity
  8
C-A
  6
Continuous
 62
     3
370
     9
100
AcDbLine
 10
-800.6413684513474
 20
638.0979712010756
 30
0.0
 11
-794.6407053126227
 21
638.0979712010756
 31
0.0
  0
LINE
  5
369
330
1F
100
AcDbEntity
  8
C-A
  6
Continuous
 62
     3
370
     9
100
AcDbLine
 10
-814.6412661762206
 20
638.0979712010756
 30
0.0
 11
-808.6412216370526
 21
638.0979712010756
 31
0.0
  0
LINE
  5
36A
330
1F
100
AcDbEntity
  8
C-A
  6
Continuous
 62
     3
370
     9
100
AcDbLine
 10
-828.6407927413599
 20
638.0979712010756
 30
0.0
 11
-822.6406244822805
 21
638.0979712010756
 31
0.0
  0
LINE
  5
36B
330
1F
100
AcDbEntity
  8
C-A
  6
Continuous
 62
     3
370
     9
100
AcDbLine
 10
-576.6409016148821
 20
738.0979299611047
 30
0.0
 11
-575.1907542973423
 21
738.0979299611047
 31
0.0
  0
LINE
  5
36C
330
1F
100
AcDbEntity
  8
C-A
  6
Continuous
 62
     3
370
     9
100
AcDbLine
 10
-674.6411754482857
 20
641.6479712010755
 30
0.0
 11
-671.640856251043
 21
641.6479712010755
 31
0.0
  0
LINE
  5
36D
330
1F
100
AcDbEntity
  8
C-A
  6
Continuous
 62
     3
370
     9
100
AcDbLine
 10
-496.6408851188937
 20
569.6481790505266
 30
0.0
 11
-846.6411737986867
 21
569.6481790505266
 31
0.0
  0
LINE
  5
36E
330
1F
100
AcDbEntity
  8
C-A
  6
Continuous
 62
     3
370
     9
100
AcDbLine
 10
-599.6419177677534
 20
913.6478045915951
 30
0.0
 11
-496.6408851188937
 21
913.6478045915951
 31
0.0
  0
LINE
  5
36F
330
1F
100
AcDbEntity
  8
C-A
  6
Continuous
 62
     3
370
     9
100
AcDbLine
 10
-504.6407383045989
 20
913.6478045915951
 30
0.0
 11
-504.6407383045989
 21
569.6481790505266
 31
0.0
  0
LINE
  5
370
330
1F
100
AcDbEntity
  8
C-A
  6
Continuous
 62
     3
370
     9
100
AcDbLine
 10
-506.6409181108701
 20
913.6478045915951
 30
0.0
 11
-506.6409181108701
 21
569.6481790505266
 31
0.0
  0
LINE
  5
371
330
1F
100
AcDbEntity
  8
C-A
  6
Continuous
 62
     3
370
     9
100
AcDbLine
 10
-514.6412661762206
 20
913.6478045915951
 30
0.0
 11
-514.6412661762206
 21
569.6481790505266
 31
0.0
  0
LINE
  5
372
330
1F
100
AcDbEntity
  8
C-A
  6
Continuous
 62
     3
370
     9
100
AcDbLine
 10
-520.6414344353
 20
913.6478045915951
 30
0.0
 11
-520.6414344353
 21
569.6481790505266
 31
0.0
  0
LINE
  5
373
330
1F
100
AcDbEntity
  8
C-A
  6
Continuous
 62
     3
370
     9
100
AcDbLine
 10
-528.6412876210052
 20
913.6478045915951
 30
0.0
 11
-528.6412876210052
 21
569.6481790505266
 31
0.0
  0
LINE
  5
374
330
1F
100
AcDbEntity
  8
C-A
  6
Continuous
 62
     3
370
     9
100
AcDbLine
 10
-534.6413321601732
 20
913.6478045915951
 30
0.0
 11
-534.6413321601732
 21
569.6481790505266
 31
0.0
  0
LINE
  5
375
330
1F
100
AcDbEntity
  8
C-A
  6
Continuous
 62
     3
370
     9
100
AcDbLine
 10
-542.6411853458784
 20
913.6478045915951
 30
0.0
 11
-542.6411853458784
 21
569.6481790505266
 31
0.0
  0
LINE
  5
376
330
1F
100
AcDbEntity
  8
C-A
  6
Continuous
 62
     3
370
     9
100
AcDbLine
 10
-556.641206790663
 20
913.6478045915951
 30
0.0
 11
-556.641206790663
 21
569.6481790505266
 31
0.0
  0
LINE
  5
377
330
1F
100
AcDbEntity
  8
C-A
  6
Continuous
 62
     3
370
     9
100
AcDbLine
 10
-570.6406096358911
 20
913.6478045915951
 30
0.0
 11
-570.6406096358911
 21
569.6481790505266
 31
0.0
  0
LINE
  5
378
330
1F
100
AcDbEntity
  8
C-A
  6
Continuous
 62
     3
370
     9
100
AcDbLine
 10
-576.6412727746159
 20
913.6478045915951
 30
0.0
 11
-576.6412727746159
 21
569.6481790505266
 31
0.0
  0
LINE
  5
379
330
1F
100
AcDbEntity
  8
C-A
  6
Continuous
 62
     3
370
     9
100
AcDbLine
 10
-584.6411259603211
 20
913.6478045915951
 30
0.0
 11
-584.6411259603211
 21
569.6481790505266
 31
0.0
  0
LINE
  5
37A
330
1F
100
AcDbEntity
  8
C-A
  6
Continuous
 62
     3
370
     9
100
AcDbLine
 10
-590.641170499489
 20
913.6478045915951
 30
0.0
 11
-590.641170499489
 21
569.6481790505266
 31
0.0
  0
LINE
  5
37B
330
1F
100
AcDbEntity
  8
C-A
  6
Continuous
 62
     3
370
     9
100
AcDbLine
 10
-598.6411474051057
 20
913.6478045915951
 30
0.0
 11
-598.6411474051057
 21
569.6481790505266
 31
0.0
  0
LINE
  5
37C
330
1F
100
AcDbEntity
  8
C-A
  6
Continuous
 62
     3
370
     9
100
AcDbLine
 10
-604.6411919442737
 20
908.6481592553406
 30
0.0
 11
-604.6411919442737
 21
569.6481790505266
 31
0.0
  0
LINE
  5
37D
330
1F
100
AcDbEntity
  8
C-A
  6
Continuous
 62
     3
370
     9
100
AcDbLine
 10
-612.6410451299789
 20
900.6486772293695
 30
0.0
 11
-612.6410451299789
 21
569.6481790505266
 31
0.0
  0
LINE
  5
37E
330
1F
100
AcDbEntity
  8
C-A
  6
Continuous
 62
     3
370
     9
100
AcDbLine
 10
-618.6417082687036
 20
894.6480140906448
 30
0.0
 11
-618.6417082687036
 21
569.6481790505266
 31
0.0
  0
LINE
  5
37F
330
1F
100
AcDbEntity
  8
C-A
  6
Continuous
 62
     3
370
     9
100
AcDbLine
 10
-626.6415614544088
 20
886.647913465117
 30
0.0
 11
-626.6415614544088
 21
569.6481790505266
 31
0.0
  0
LINE
  5
380
330
1F
100
AcDbEntity
  8
C-A
  6
Continuous
 62
     3
370
     9
100
AcDbLine
 10
-632.6421008732221
 20
880.6479926458601
 30
0.0
 11
-632.6421008732221
 21
569.6481790505266
 31
0.0
  0
LINE
  5
381
330
1F
100
AcDbEntity
  8
C-A
  6
Continuous
 62
     3
370
     9
100
AcDbLine
 10
-640.6419540589274
 20
872.6481394601549
 30
0.0
 11
-640.6419540589274
 21
569.6481790505266
 31
0.0
  0
LINE
  5
382
330
1F
100
AcDbEntity
  8
C-A
  6
Continuous
 62
     3
370
     9
100
AcDbLine
 10
-646.6416274383614
 20
866.647847481164
 30
0.0
 11
-646.6416274383614
 21
569.6481790505266
 31
0.0
  0
LINE
  5
383
330
1F
100
AcDbEntity
  8
C-A
  6
Continuous
 62
     3
370
     9
100
AcDbLine
 10
-654.641480624067
 20
858.6479942954588
 30
0.0
 11
-654.641480624067
 21
569.6481790505266
 31
0.0
  0
LINE
  5
384
330
1F
100
AcDbEntity
  8
C-A
  6
Continuous
 62
     3
370
     9
100
AcDbLine
 10
-668.6408834692947
 20
844.6482202904969
 30
0.0
 11
-668.6408834692947
 21
569.6481790505266
 31
0.0
  0
LINE
  5
385
330
1F
100
AcDbEntity
  8
C-A
  6
Continuous
 62
     3
370
     9
100
AcDbLine
 10
-674.6410517283742
 20
838.6479283115062
 30
0.0
 11
-674.6410517283742
 21
569.6481790505266
 31
0.0
  0
LINE
  5
386
330
1F
100
AcDbEntity
  8
C-A
  6
Continuous
 62
     3
370
     9
100
AcDbLine
 10
-688.6414443328927
 20
824.6481543065443
 30
0.0
 11
-688.6414443328927
 21
569.6481790505266
 31
0.0
  0
LINE
  5
387
330
1F
100
AcDbEntity
  8
C-A
  6
Continuous
 62
     3
370
     9
100
AcDbLine
 10
-696.6419161181547
 20
816.648301120839
 30
0.0
 11
-696.6419161181547
 21
569.6481790505266
 31
0.0
  0
LINE
  5
388
330
1F
100
AcDbEntity
  8
C-A
  6
Continuous
 62
     3
370
     9
100
AcDbLine
 10
-702.6414657776774
 20
810.647885421937
 30
0.0
 11
-702.6414657776774
 21
569.6481790505266
 31
0.0
  0
LINE
  5
389
330
1F
100
AcDbEntity
  8
C-A
  6
Continuous
 62
     3
370
     9
100
AcDbLine
 10
-710.6413189633826
 20
802.648155956143
 30
0.0
 11
-710.6413189633826
 21
569.6481790505266
 31
0.0
  0
LINE
  5
38A
330
1F
100
AcDbEntity
  8
C-A
  6
Continuous
 62
     3
370
     9
100
AcDbLine
 10
-716.6414872224619
 20
796.6482351368861
 30
0.0
 11
-716.6414872224619
 21
569.6481790505266
 31
0.0
  0
LINE
  5
38B
330
1F
100
AcDbEntity
  8
C-A
  6
Continuous
 62
     3
370
     9
100
AcDbLine
 10
-724.641216688256
 20
788.6490005507378
 30
0.0
 11
-724.641216688256
 21
569.6481790505266
 31
0.0
  0
LINE
  5
38C
330
1F
100
AcDbEntity
  8
C-A
  6
Continuous
 62
     3
370
     9
100
AcDbLine
 10
-730.6408900676901
 20
782.6488322916583
 30
0.0
 11
-730.6408900676901
 21
569.6481790505266
 31
0.0
  0
LINE
  5
38D
330
1F
100
AcDbEntity
  8
C-A
  6
Continuous
 62
     3
370
     9
100
AcDbLine
 10
-738.6407432533953
 20
774.6488553860416
 30
0.0
 11
-738.6407432533953
 21
569.6481790505266
 31
0.0
  0
LINE
  5
38E
330
1F
100
AcDbEntity
  8
C-A
  6
Continuous
 62
     3
370
     9
100
AcDbLine
 10
-744.6412826722086
 20
768.6489345667849
 30
0.0
 11
-744.6412826722086
 21
569.6481790505266
 31
0.0
  0
LINE
  5
38F
330
1F
100
AcDbEntity
  8
C-A
  6
Continuous
 62
     3
370
     9
100
AcDbLine
 10
-752.6412595778253
 20
760.6489576611684
 30
0.0
 11
-752.6412595778253
 21
569.6481790505266
 31
0.0
  0
LINE
  5
390
330
1F
100
AcDbEntity
  8
C-A
  6
Continuous
 62
     3
370
     9
100
AcDbLine
 10
-758.6413041169932
 20
754.6485419622663
 30
0.0
 11
-758.6413041169932
 21
569.6481790505266
 31
0.0
  0
LINE
  5
391
330
1F
100
AcDbEntity
  8
C-A
  6
Continuous
 62
     3
370
     9
100
AcDbLine
 10
-766.6411573026984
 20
746.6490599362951
 30
0.0
 11
-766.6411573026984
 21
569.6481790505266
 31
0.0
  0
LINE
  5
392
330
1F
100
AcDbEntity
  8
C-A
  6
Continuous
 62
     3
370
     9
100
AcDbLine
 10
-772.6413255617779
 20
740.6488916772156
 30
0.0
 11
-772.6413255617779
 21
569.6481790505266
 31
0.0
  0
LINE
  5
393
330
1F
100
AcDbEntity
  8
C-A
  6
Continuous
 62
     3
370
     9
100
AcDbLine
 10
-786.640728407006
 20
726.6487465125198
 30
0.0
 11
-786.640728407006
 21
569.6481790505266
 31
0.0
  0
LINE
  5
394
330
1F
100
AcDbEntity
  8
C-A
  6
Continuous
 62
     3
370
     9
100
AcDbLine
 10
-794.6405815927112
 20
718.6490170467257
 30
0.0
 11
-794.6405815927112
 21
569.6481790505266
 31
0.0
  0
LINE
  5
395
330
1F
100
AcDbEntity
  8
C-A
  6
Continuous
 62
     3
370
     9
100
AcDbLine
 10
-800.6412447314359
 20
712.6488487876463
 30
0.0
 11
-800.6412447314359
 21
569.6481790505266
 31
0.0
  0
LINE
  5
396
330
1F
100
AcDbEntity
  8
C-A
  6
Continuous
 62
     3
370
     9
100
AcDbLine
 10
-808.6410979171411
 20
704.6491193218526
 30
0.0
 11
-808.6410979171411
 21
569.6481790505266
 31
0.0
  0
LINE
  5
397
330
1F
100
AcDbEntity
  8
C-A
  6
Continuous
 62
     3
370
     9
100
AcDbLine
 10
-814.6412661762206
 20
698.6487036229505
 30
0.0
 11
-814.6412661762206
 21
569.6481790505266
 31
0.0
  0
LINE
  5
398
330
1F
100
AcDbEntity
  8
C-A
  6
Continuous
 62
     3
370
     9
100
AcDbLine
 10
-822.6409956420143
 20
690.6489741571565
 30
0.0
 11
-822.6409956420143
 21
569.6481790505266
 31
0.0
  0
LINE
  5
399
330
1F
100
AcDbEntity
  8
C-A
  6
Continuous
 62
     3
370
     9
100
AcDbLine
 10
-828.6411639010937
 20
684.6490533378997
 30
0.0
 11
-828.6411639010937
 21
569.6481790505266
 31
0.0
  0
LINE
  5
39A
330
1F
100
AcDbEntity
  8
C-A
  6
Continuous
 62
     3
370
     9
100
AcDbLine
 10
-836.6408933668878
 20
676.6493238721059
 30
0.0
 11
-836.6408933668878
 21
569.6481790505266
 31
0.0
  0
LINE
  5
39B
330
1F
100
AcDbEntity
  8
C-A
  6
Continuous
 62
     3
370
     9
100
AcDbLine
 10
-838.6411968930703
 20
674.6485254662781
 30
0.0
 11
-838.6411968930703
 21
569.6481790505266
 31
0.0
  0
LINE
  5
39C
330
1F
100
AcDbEntity
  8
C-A
  6
Continuous
 62
     3
370
     9
100
AcDbLine
 10
-514.6412661762206
 20
641.6482186408982
 30
0.0
 11
-520.6414344353
 21
641.6482186408982
 31
0.0
  0
LINE
  5
39D
330
1F
100
AcDbEntity
  8
C-A
  6
Continuous
 62
     3
370
     9
100
AcDbLine
 10
-528.6407927413599
 20
641.6482186408982
 30
0.0
 11
-534.6408372805279
 21
641.6482186408982
 31
0.0
  0
LINE
  5
39E
330
1F
100
AcDbEntity
  8
C-A
  6
Continuous
 62
     3
370
     9
100
AcDbLine
 10
-542.6406904662331
 20
641.6482186408982
 30
0.0
 11
-548.6413536049578
 21
641.6482186408982
 31
0.0
  0
LINE
  5
39F
330
1F
100
AcDbEntity
  8
C-A
  6
Continuous
 62
     3
370
     9
100
AcDbLine
 10
-556.641206790663
 20
641.6482186408982
 30
0.0
 11
-562.6408801700971
 21
641.6482186408982
 31
0.0
  0
LINE
  5
3A0
330
1F
100
AcDbEntity
  8
C-A
  6
Continuous
 62
     3
370
     9
100
AcDbLine
 10
-570.6406096358911
 20
641.6482186408982
 30
0.0
 11
-576.6412727746159
 21
641.6482186408982
 31
0.0
  0
LINE
  5
3A1
330
1F
100
AcDbEntity
  8
C-A
  6
Continuous
 62
     3
370
     9
100
AcDbLine
 10
-584.6411259603211
 20
641.6482186408982
 30
0.0
 11
-590.6407993397552
 21
641.6482186408982
 31
0.0
  0
LINE
  5
3A2
330
1F
100
AcDbEntity
  8
C-A
  6
Continuous
 62
     3
370
     9
100
AcDbLine
 10
-598.6406525254604
 20
641.6482186408982
 30
0.0
 11
-604.6411919442737
 21
641.6482186408982
 31
0.0
  0
LINE
  5
3A3
330
1F
100
AcDbEntity
  8
C-A
  6
Continuous
 62
     3
370
     9
100
AcDbLine
 10
-612.6410451299789
 20
641.6482186408982
 30
0.0
 11
-618.6412133890583
 21
641.6482186408982
 31
0.0
  0
LINE
  5
3A4
330
1F
100
AcDbEntity
  8
C-A
  6
Continuous
 62
     3
370
     9
100
AcDbLine
 10
-626.6409428548524
 20
641.6482186408982
 30
0.0
 11
-632.6406162342864
 21
641.6482186408982
 31
0.0
  0
LINE
  5
3A5
330
1F
100
AcDbEntity
  8
C-A
  6
Continuous
 62
     3
370
     9
100
AcDbLine
 10
-640.640964299637
 20
641.6482186408982
 30
0.0
 11
-646.6411325587164
 21
641.6482186408982
 31
0.0
  0
LINE
  5
3A6
330
1F
100
AcDbEntity
  8
C-A
  6
Continuous
 62
     3
370
     9
100
AcDbLine
 10
-654.6409857444216
 20
641.6482186408982
 30
0.0
 11
-660.6405354039442
 21
641.6482186408982
 31
0.0
  0
LINE
  5
3A7
330
1F
100
AcDbEntity
  8
C-A
  6
Continuous
 62
     3
370
     9
100
AcDbLine
 10
-668.6408834692947
 20
641.6482186408982
 30
0.0
 11
-674.6410517283742
 21
641.6482186408982
 31
0.0
  0
LINE
  5
3A8
330
1F
100
AcDbEntity
  8
C-A
  6
Continuous
 62
     3
370
     9
100
AcDbLine
 10
-682.6409049140794
 20
641.6482186408982
 30
0.0
 11
-688.6409494532477
 21
641.6482186408982
 31
0.0
  0
LINE
  5
3A9
330
1F
100
AcDbEntity
  8
C-A
  6
Continuous
 62
     3
370
     9
100
AcDbLine
 10
-696.6408026389529
 20
641.6482186408982
 30
0.0
 11
-702.6409708980323
 21
641.6482186408982
 31
0.0
  0
LINE
  5
3AA
330
1F
100
AcDbEntity
  8
C-A
  6
Continuous
 62
     3
370
     9
100
AcDbLine
 10
-710.6408240837375
 20
641.6482186408982
 30
0.0
 11
-716.640992342817
 21
641.6482186408982
 31
0.0
  0
LINE
  5
3AB
330
1F
100
AcDbEntity
  8
C-A
  6
Continuous
 62
     3
370
     9
100
AcDbLine
 10
-724.6407218086107
 20
641.6482186408982
 30
0.0
 11
-730.6408900676901
 21
641.6482186408982
 31
0.0
  0
LINE
  5
3AC
330
1F
100
AcDbEntity
  8
C-A
  6
Continuous
 62
     3
370
     9
100
AcDbLine
 10
-738.6407432533953
 20
641.6482186408982
 30
0.0
 11
-744.6412826722086
 21
641.6482186408982
 31
0.0
  0
LINE
  5
3AD
330
1F
100
AcDbEntity
  8
C-A
  6
Continuous
 62
     3
370
     9
100
AcDbLine
 10
-752.6412595778253
 20
641.6482186408982
 30
0.0
 11
-758.6413041169932
 21
641.6482186408982
 31
0.0
  0
LINE
  5
3AE
330
1F
100
AcDbEntity
  8
C-A
  6
Continuous
 62
     3
370
     9
100
AcDbLine
 10
-766.6411573026984
 20
641.6482186408982
 30
0.0
 11
-772.6413255617779
 21
641.6482186408982
 31
0.0
  0
LINE
  5
3AF
330
1F
100
AcDbEntity
  8
C-A
  6
Continuous
 62
     3
370
     9
100
AcDbLine
 10
-780.6411787474831
 20
641.6482186408982
 30
0.0
 11
-786.6417181662966
 21
641.6482186408982
 31
0.0
  0
LINE
  5
3B0
330
1F
100
AcDbEntity
  8
C-A
  6
Continuous
 62
     3
370
     9
100
AcDbLine
 10
-794.6415713520018
 20
641.6482186408982
 30
0.0
 11
-800.6422344907265
 21
641.6482186408982
 31
0.0
  0
LINE
  5
3B1
330
1F
100
AcDbEntity
  8
C-A
  6
Continuous
 62
     3
370
     9
100
AcDbLine
 10
-808.6420876764317
 20
641.6482186408982
 30
0.0
 11
-814.6417610558659
 21
641.6482186408982
 31
0.0
  0
LINE
  5
3B2
330
1F
100
AcDbEntity
  8
C-A
  6
Continuous
 62
     3
370
     9
100
AcDbLine
 10
-822.6414905216596
 20
641.6482186408982
 30
0.0
 11
-828.6421536603843
 21
641.6482186408982
 31
0.0
  0
LINE
  5
3B3
330
1F
100
AcDbEntity
  8
C-A
  6
Continuous
 62
     3
370
     9
100
AcDbLine
 10
-504.6407383045989
 20
641.6482186408982
 30
0.0
 11
-506.6409181108701
 21
641.6482186408982
 31
0.0
  0
LINE
  5
3B4
330
1F
100
AcDbEntity
  8
C-A
  6
Continuous
 62
     3
370
     9
100
AcDbLine
 10
-836.6418831261784
 20
641.6482186408982
 30
0.0
 11
-838.6411968930703
 21
641.6482186408982
 31
0.0
  0
LINE
  5
3B5
330
1F
100
AcDbEntity
  8
C-A
  6
Continuous
 62
     3
370
     9
100
AcDbLine
 10
-514.6412661762206
 20
741.648301120839
 30
0.0
 11
-520.6414344353
 21
741.648301120839
 31
0.0
  0
LINE
  5
3B6
330
1F
100
AcDbEntity
  8
C-A
  6
Continuous
 62
     3
370
     9
100
AcDbLine
 10
-528.6407927413599
 20
741.648301120839
 30
0.0
 11
-534.6408372805279
 21
741.648301120839
 31
0.0
  0
LINE
  5
3B7
330
1F
100
AcDbEntity
  8
C-A
  6
Continuous
 62
     3
370
     9
100
AcDbLine
 10
-542.6406904662331
 20
741.648301120839
 30
0.0
 11
-548.6413536049578
 21
741.648301120839
 31
0.0
  0
LINE
  5
3B8
330
1F
100
AcDbEntity
  8
C-A
  6
Continuous
 62
     3
370
     9
100
AcDbLine
 10
-556.641206790663
 20
741.648301120839
 30
0.0
 11
-562.6408801700971
 21
741.648301120839
 31
0.0
  0
LINE
  5
3B9
330
1F
100
AcDbEntity
  8
C-A
  6
Continuous
 62
     3
370
     9
100
AcDbLine
 10
-570.6406096358911
 20
741.648301120839
 30
0.0
 11
-576.6412727746159
 21
741.648301120839
 31
0.0
  0
LINE
  5
3BA
330
1F
100
AcDbEntity
  8
C-A
  6
Continuous
 62
     3
370
     9
100
AcDbLine
 10
-584.6411259603211
 20
741.648301120839
 30
0.0
 11
-590.6407993397552
 21
741.648301120839
 31
0.0
  0
LINE
  5
3BB
330
1F
100
AcDbEntity
  8
C-A
  6
Continuous
 62
     3
370
     9
100
AcDbLine
 10
-598.6406525254604
 20
741.648301120839
 30
0.0
 11
-604.6411919442737
 21
741.648301120839
 31
0.0
  0
LINE
  5
3BC
330
1F
100
AcDbEntity
  8
C-A
  6
Continuous
 62
     3
370
     9
100
AcDbLine
 10
-612.6410451299789
 20
741.648301120839
 30
0.0
 11
-618.6412133890583
 21
741.648301120839
 31
0.0
  0
LINE
  5
3BD
330
1F
100
AcDbEntity
  8
C-A
  6
Continuous
 62
     3
370
     9
100
AcDbLine
 10
-626.6409428548524
 20
741.648301120839
 30
0.0
 11
-632.6406162342864
 21
741.648301120839
 31
0.0
  0
LINE
  5
3BE
330
1F
100
AcDbEntity
  8
C-A
  6
Continuous
 62
     3
370
     9
100
AcDbLine
 10
-640.640964299637
 20
741.648301120839
 30
0.0
 11
-646.6411325587164
 21
741.648301120839
 31
0.0
  0
LINE
  5
3BF
330
1F
100
AcDbEntity
  8
C-A
  6
Continuous
 62
     3
370
     9
100
AcDbLine
 10
-654.6409857444216
 20
741.648301120839
 30
0.0
 11
-660.6405354039442
 21
741.648301120839
 31
0.0
  0
LINE
  5
3C0
330
1F
100
AcDbEntity
  8
C-A
  6
Continuous
 62
     3
370
     9
100
AcDbLine
 10
-668.6408834692947
 20
741.648301120839
 30
0.0
 11
-674.6410517283742
 21
741.648301120839
 31
0.0
  0
LINE
  5
3C1
330
1F
100
AcDbEntity
  8
C-A
  6
Continuous
 62
     3
370
     9
100
AcDbLine
 10
-682.6409049140794
 20
741.648301120839
 30
0.0
 11
-688.6409494532477
 21
741.648301120839
 31
0.0
  0
LINE
  5
3C2
330
1F
100
AcDbEntity
  8
C-A
  6
Continuous
 62
     3
370
     9
100
AcDbLine
 10
-696.6408026389529
 20
741.648301120839
 30
0.0
 11
-702.6409708980323
 21
741.648301120839
 31
0.0
  0
LINE
  5
3C3
330
1F
100
AcDbEntity
  8
C-A
  6
Continuous
 62
     3
370
     9
100
AcDbLine
 10
-710.6408240837375
 20
741.648301120839
 30
0.0
 11
-716.640992342817
 21
741.648301120839
 31
0.0
  0
LINE
  5
3C4
330
1F
100
AcDbEntity
  8
C-A
  6
Continuous
 62
     3
370
     9
100
AcDbLine
 10
-724.6407218086107
 20
741.648301120839
 30
0.0
 11
-730.6408900676901
 21
741.648301120839
 31
0.0
  0
LINE
  5
3C5
330
1F
100
AcDbEntity
  8
C-A
  6
Continuous
 62
     3
370
     9
100
AcDbLine
 10
-738.6407432533953
 20
741.648301120839
 30
0.0
 11
-744.6412826722086
 21
741.648301120839
 31
0.0
  0
LINE
  5
3C6
330
1F
100
AcDbEntity
  8
C-A
  6
Continuous
 62
     3
370
     9
100
AcDbLine
 10
-752.6412595778253
 20
741.648301120839
 30
0.0
 11
-758.6413041169932
 21
741.648301120839
 31
0.0
  0
LINE
  5
3C7
330
1F
100
AcDbEntity
  8
C-A
  6
Continuous
 62
     3
370
     9
100
AcDbLine
 10
-504.6407383045989
 20
741.648301120839
 30
0.0
 11
-506.6409181108701
 21
741.648301120839
 31
0.0
  0
LINE
  5
3C8
330
1F
100
AcDbEntity
  8
C-A
  6
Continuous
 62
     3
370
     9
100
AcDbLine
 10
-514.6412661762206
 20
841.6482598808684
 30
0.0
 11
-520.6414344353
 21
841.6482598808684
 31
0.0
  0
LINE
  5
3C9
330
1F
100
AcDbEntity
  8
C-A
  6
Continuous
 62
     3
370
     9
100
AcDbLine
 10
-528.6407927413599
 20
841.6482598808684
 30
0.0
 11
-534.6408372805279
 21
841.6482598808684
 31
0.0
  0
LINE
  5
3CA
330
1F
100
AcDbEntity
  8
C-A
  6
Continuous
 62
     3
370
     9
100
AcDbLine
 10
-542.6406904662331
 20
841.6482598808684
 30
0.0
 11
-548.6413536049578
 21
841.6482598808684
 31
0.0
  0
LINE
  5
3CB
330
1F
100
AcDbEntity
  8
C-A
  6
Continuous
 62
     3
370
     9
100
AcDbLine
 10
-556.641206790663
 20
841.6482598808684
 30
0.0
 11
-562.6408801700971
 21
841.6482598808684
 31
0.0
  0
LINE
  5
3CC
330
1F
100
AcDbEntity
  8
C-A
  6
Continuous
 62
     3
370
     9
100
AcDbLine
 10
-570.6406096358911
 20
841.6482598808684
 30
0.0
 11
-576.6412727746159
 21
841.6482598808684
 31
0.0
  0
LINE
  5
3CD
330
1F
100
AcDbEntity
  8
C-A
  6
Continuous
 62
     3
370
     9
100
AcDbLine
 10
-584.6411259603211
 20
841.6482598808684
 30
0.0
 11
-590.6407993397552
 21
841.6482598808684
 31
0.0
  0
LINE
  5
3CE
330
1F
100
AcDbEntity
  8
C-A
  6
Continuous
 62
     3
370
     9
100
AcDbLine
 10
-598.6406525254604
 20
841.6482598808684
 30
0.0
 11
-604.6411919442737
 21
841.6482598808684
 31
0.0
  0
LINE
  5
3CF
330
1F
100
AcDbEntity
  8
C-A
  6
Continuous
 62
     3
370
     9
100
AcDbLine
 10
-612.6410451299789
 20
841.6482598808684
 30
0.0
 11
-618.6412133890583
 21
841.6482598808684
 31
0.0
  0
LINE
  5
3D0
330
1F
100
AcDbEntity
  8
C-A
  6
Continuous
 62
     3
370
     9
100
AcDbLine
 10
-626.6409428548524
 20
841.6482598808684
 30
0.0
 11
-632.6406162342864
 21
841.6482598808684
 31
0.0
  0
LINE
  5
3D1
330
1F
100
AcDbEntity
  8
C-A
  6
Continuous
 62
     3
370
     9
100
AcDbLine
 10
-640.640964299637
 20
841.6482598808684
 30
0.0
 11
-646.6411325587164
 21
841.6482598808684
 31
0.0
  0
LINE
  5
3D2
330
1F
100
AcDbEntity
  8
C-A
  6
Continuous
 62
     3
370
     9
100
AcDbLine
 10
-654.6409857444216
 20
841.6482598808684
 30
0.0
 11
-660.6405354039442
 21
841.6482598808684
 31
0.0
  0
LINE
  5
3D3
330
1F
100
AcDbEntity
  8
C-A
  6
Continuous
 62
     3
370
     9
100
AcDbLine
 10
-504.6407383045989
 20
841.6482598808684
 30
0.0
 11
-506.6409181108701
 21
841.6482598808684
 31
0.0
  0
LINE
  5
3D4
330
1F
100
AcDbEntity
  8
C-A
  6
Continuous
 62
     3
370
     9
100
AcDbLine
 10
-766.6411573026984
 20
741.648301120839
 30
0.0
 11
-771.6414212385093
 21
741.648301120839
 31
0.0
  0
LINE
  5
3D5
330
1F
100
AcDbEntity
  8
C-A
  6
Continuous
 62
     3
370
     9
100
AcDbLine
 10
-514.6412661762206
 20
638.0982186408977
 30
0.0
 11
-520.6414344353
 21
638.0982186408977
 31
0.0
  0
LINE
  5
3D6
330
1F
100
AcDbEntity
  8
C-A
  6
Continuous
 62
     3
370
     9
100
AcDbLine
 10
-528.6407927413599
 20
638.0982186408977
 30
0.0
 11
-534.6408372805279
 21
638.0982186408977
 31
0.0
  0
LINE
  5
3D7
330
1F
100
AcDbEntity
  8
C-A
  6
Continuous
 62
     3
370
     9
100
AcDbLine
 10
-542.6406904662331
 20
638.0982186408977
 30
0.0
 11
-548.6413536049578
 21
638.0982186408977
 31
0.0
  0
LINE
  5
3D8
330
1F
100
AcDbEntity
  8
C-A
  6
Continuous
 62
     3
370
     9
100
AcDbLine
 10
-556.641206790663
 20
638.0982186408977
 30
0.0
 11
-562.6408801700971
 21
638.0982186408977
 31
0.0
  0
LINE
  5
3D9
330
1F
100
AcDbEntity
  8
C-A
  6
Continuous
 62
     3
370
     9
100
AcDbLine
 10
-570.6406096358911
 20
638.0982186408977
 30
0.0
 11
-576.6412727746159
 21
638.0982186408977
 31
0.0
  0
LINE
  5
3DA
330
1F
100
AcDbEntity
  8
C-A
  6
Continuous
 62
     3
370
     9
100
AcDbLine
 10
-584.6411259603211
 20
638.0982186408977
 30
0.0
 11
-590.6407993397552
 21
638.0982186408977
 31
0.0
  0
LINE
  5
3DB
330
1F
100
AcDbEntity
  8
C-A
  6
Continuous
 62
     3
370
     9
100
AcDbLine
 10
-598.6406525254604
 20
638.0982186408977
 30
0.0
 11
-604.6411919442737
 21
638.0982186408977
 31
0.0
  0
LINE
  5
3DC
330
1F
100
AcDbEntity
  8
C-A
  6
Continuous
 62
     3
370
     9
100
AcDbLine
 10
-612.6410451299789
 20
638.0982186408977
 30
0.0
 11
-618.6412133890583
 21
638.0982186408977
 31
0.0
  0
LINE
  5
3DD
330
1F
100
AcDbEntity
  8
C-A
  6
Continuous
 62
     3
370
     9
100
AcDbLine
 10
-626.6409428548524
 20
638.0982186408977
 30
0.0
 11
-632.6406162342864
 21
638.0982186408977
 31
0.0
  0
LINE
  5
3DE
330
1F
100
AcDbEntity
  8
C-A
  6
Continuous
 62
     3
370
     9
100
AcDbLine
 10
-640.640964299637
 20
638.0982186408977
 30
0.0
 11
-646.6411325587164
 21
638.0982186408977
 31
0.0
  0
LINE
  5
3DF
330
1F
100
AcDbEntity
  8
C-A
  6
Continuous
 62
     3
370
     9
100
AcDbLine
 10
-654.6409857444216
 20
638.0982186408977
 30
0.0
 11
-660.6405354039442
 21
638.0982186408977
 31
0.0
  0
LINE
  5
3E0
330
1F
100
AcDbEntity
  8
C-A
  6
Continuous
 62
     3
370
     9
100
AcDbLine
 10
-668.6408834692947
 20
638.0982186408977
 30
0.0
 11
-674.6410517283742
 21
638.0982186408977
 31
0.0
  0
LINE
  5
3E1
330
1F
100
AcDbEntity
  8
C-A
  6
Continuous
 62
     3
370
     9
100
AcDbLine
 10
-682.6409049140794
 20
638.0982186408977
 30
0.0
 11
-688.6409494532477
 21
638.0982186408977
 31
0.0
  0
LINE
  5
3E2
330
1F
100
AcDbEntity
  8
C-A
  6
Continuous
 62
     3
370
     9
100
AcDbLine
 10
-696.6408026389529
 20
638.0982186408977
 30
0.0
 11
-702.6409708980323
 21
638.0982186408977
 31
0.0
  0
LINE
  5
3E3
330
1F
100
AcDbEntity
  8
C-A
  6
Continuous
 62
     3
370
     9
100
AcDbLine
 10
-710.6408240837375
 20
638.0982186408977
 30
0.0
 11
-716.640992342817
 21
638.0982186408977
 31
0.0
  0
LINE
  5
3E4
330
1F
100
AcDbEntity
  8
C-A
  6
Continuous
 62
     3
370
     9
100
AcDbLine
 10
-724.6407218086107
 20
638.0982186408977
 30
0.0
 11
-730.6408900676901
 21
638.0982186408977
 31
0.0
  0
LINE
  5
3E5
330
1F
100
AcDbEntity
  8
C-A
  6
Continuous
 62
     3
370
     9
100
AcDbLine
 10
-738.6407432533953
 20
638.0982186408977
 30
0.0
 11
-744.6412826722086
 21
638.0982186408977
 31
0.0
  0
LINE
  5
3E6
330
1F
100
AcDbEntity
  8
C-A
  6
Continuous
 62
     3
370
     9
100
AcDbLine
 10
-752.6412595778253
 20
638.0982186408977
 30
0.0
 11
-758.6413041169932
 21
638.0982186408977
 31
0.0
  0
LINE
  5
3E7
330
1F
100
AcDbEntity
  8
C-A
  6
Continuous
 62
     3
370
     9
100
AcDbLine
 10
-766.6411573026984
 20
638.0982186408977
 30
0.0
 11
-772.6413255617779
 21
638.0982186408977
 31
0.0
  0
LINE
  5
3E8
330
1F
100
AcDbEntity
  8
C-A
  6
Continuous
 62
     3
370
     9
100
AcDbLine
 10
-780.6411787474831
 20
638.0982186408977
 30
0.0
 11
-786.6417181662966
 21
638.0982186408977
 31
0.0
  0
LINE
  5
3E9
330
1F
100
AcDbEntity
  8
C-A
  6
Continuous
 62
     3
370
     9
100
AcDbLine
 10
-794.6415713520018
 20
638.0982186408977
 30
0.0
 11
-800.6422344907265
 21
638.0982186408977
 31
0.0
  0
LINE
  5
3EA
330
1F
100
AcDbEntity
  8
C-A
  6
Continuous
 62
     3
370
     9
100
AcDbLine
 10
-808.6420876764317
 20
638.0982186408977
 30
0.0
 11
-814.6417610558659
 21
638.0982186408977
 31
0.0
  0
LINE
  5
3EB
330
1F
100
AcDbEntity
  8
C-A
  6
Continuous
 62
     3
370
     9
100
AcDbLine
 10
-822.6414905216596
 20
638.0982186408977
 30
0.0
 11
-828.6421536603843
 21
638.0982186408977
 31
0.0
  0
LINE
  5
3EC
330
1F
100
AcDbEntity
  8
C-A
  6
Continuous
 62
     3
370
     9
100
AcDbLine
 10
-504.6407383045989
 20
638.0982186408977
 30
0.0
 11
-506.6409181108701
 21
638.0982186408977
 31
0.0
  0
LINE
  5
3ED
330
1F
100
AcDbEntity
  8
C-A
  6
Continuous
 62
     3
370
     9
100
AcDbLine
 10
-836.6418831261784
 20
638.0982186408977
 30
0.0
 11
-838.6411968930703
 21
638.0982186408977
 31
0.0
  0
LINE
  5
3EE
330
1F
100
AcDbEntity
  8
C-A
  6
Continuous
 62
     3
370
     9
100
AcDbLine
 10
-514.6412661762206
 20
645.1982186408981
 30
0.0
 11
-520.6414344353
 21
645.1982186408981
 31
0.0
  0
LINE
  5
3EF
330
1F
100
AcDbEntity
  8
C-A
  6
Continuous
 62
     3
370
     9
100
AcDbLine
 10
-528.6407927413599
 20
645.1982186408981
 30
0.0
 11
-534.6408372805279
 21
645.1982186408981
 31
0.0
  0
LINE
  5
3F0
330
1F
100
AcDbEntity
  8
C-A
  6
Continuous
 62
     3
370
     9
100
AcDbLine
 10
-542.6406904662331
 20
645.1982186408981
 30
0.0
 11
-548.6413536049578
 21
645.1982186408981
 31
0.0
  0
LINE
  5
3F1
330
1F
100
AcDbEntity
  8
C-A
  6
Continuous
 62
     3
370
     9
100
AcDbLine
 10
-556.641206790663
 20
645.1982186408981
 30
0.0
 11
-562.6408801700971
 21
645.1982186408981
 31
0.0
  0
LINE
  5
3F2
330
1F
100
AcDbEntity
  8
C-A
  6
Continuous
 62
     3
370
     9
100
AcDbLine
 10
-570.6406096358911
 20
645.1982186408981
 30
0.0
 11
-576.6412727746159
 21
645.1982186408981
 31
0.0
  0
LINE
  5
3F3
330
1F
100
AcDbEntity
  8
C-A
  6
Continuous
 62
     3
370
     9
100
AcDbLine
 10
-584.6411259603211
 20
645.1982186408981
 30
0.0
 11
-590.6407993397552
 21
645.1982186408981
 31
0.0
  0
LINE
  5
3F4
330
1F
100
AcDbEntity
  8
C-A
  6
Continuous
 62
     3
370
     9
100
AcDbLine
 10
-598.6406525254604
 20
645.1982186408981
 30
0.0
 11
-604.6411919442737
 21
645.1982186408981
 31
0.0
  0
LINE
  5
3F5
330
1F
100
AcDbEntity
  8
C-A
  6
Continuous
 62
     3
370
     9
100
AcDbLine
 10
-612.6410451299789
 20
645.1982186408981
 30
0.0
 11
-618.6412133890583
 21
645.1982186408981
 31
0.0
  0
LINE
  5
3F6
330
1F
100
AcDbEntity
  8
C-A
  6
Continuous
 62
     3
370
     9
100
AcDbLine
 10
-626.6409428548524
 20
645.1982186408981
 30
0.0
 11
-632.6406162342864
 21
645.1982186408981
 31
0.0
  0
LINE
  5
3F7
330
1F
100
AcDbEntity
  8
C-A
  6
Continuous
 62
     3
370
     9
100
AcDbLine
 10
-640.640964299637
 20
645.1982186408981
 30
0.0
 11
-646.6411325587164
 21
645.1982186408981
 31
0.0
  0
LINE
  5
3F8
330
1F
100
AcDbEntity
  8
C-A
  6
Continuous
 62
     3
370
     9
100
AcDbLine
 10
-654.6409857444216
 20
645.1982186408981
 30
0.0
 11
-660.6405354039442
 21
645.1982186408981
 31
0.0
  0
LINE
  5
3F9
330
1F
100
AcDbEntity
  8
C-A
  6
Continuous
 62
     3
370
     9
100
AcDbLine
 10
-668.6408834692947
 20
645.1982186408981
 30
0.0
 11
-674.6410517283742
 21
645.1982186408981
 31
0.0
  0
LINE
  5
3FA
330
1F
100
AcDbEntity
  8
C-A
  6
Continuous
 62
     3
370
     9
100
AcDbLine
 10
-682.6409049140794
 20
645.1982186408981
 30
0.0
 11
-688.6409494532477
 21
645.1982186408981
 31
0.0
  0
LINE
  5
3FB
330
1F
100
AcDbEntity
  8
C-A
  6
Continuous
 62
     3
370
     9
100
AcDbLine
 10
-696.6408026389529
 20
645.1982186408981
 30
0.0
 11
-702.6409708980323
 21
645.1982186408981
 31
0.0
  0
LINE
  5
3FC
330
1F
100
AcDbEntity
  8
C-A
  6
Continuous
 62
     3
370
     9
100
AcDbLine
 10
-710.6408240837375
 20
645.1982186408981
 30
0.0
 11
-716.640992342817
 21
645.1982186408981
 31
0.0
  0
LINE
  5
3FD
330
1F
100
AcDbEntity
  8
C-A
  6
Continuous
 62
     3
370
     9
100
AcDbLine
 10
-724.6407218086107
 20
645.1982186408981
 30
0.0
 11
-730.6408900676901
 21
645.1982186408981
 31
0.0
  0
LINE
  5
3FE
330
1F
100
AcDbEntity
  8
C-A
  6
Continuous
 62
     3
370
     9
100
AcDbLine
 10
-738.6407432533953
 20
645.1982186408981
 30
0.0
 11
-744.6412826722086
 21
645.1982186408981
 31
0.0
  0
LINE
  5
3FF
330
1F
100
AcDbEntity
  8
C-A
  6
Continuous
 62
     3
370
     9
100
AcDbLine
 10
-752.6412595778253
 20
645.1982186408981
 30
0.0
 11
-758.6413041169932
 21
645.1982186408981
 31
0.0
  0
LINE
  5
400
330
1F
100
AcDbEntity
  8
C-A
  6
Continuous
 62
     3
370
     9
100
AcDbLine
 10
-766.6411573026984
 20
645.1982186408981
 30
0.0
 11
-772.6413255617779
 21
645.1982186408981
 31
0.0
  0
LINE
  5
401
330
1F
100
AcDbEntity
  8
C-A
  6
Continuous
 62
     3
370
     9
100
AcDbLine
 10
-780.6411787474831
 20
645.1982186408981
 30
0.0
 11
-786.6417181662966
 21
645.1982186408981
 31
0.0
  0
LINE
  5
402
330
1F
100
AcDbEntity
  8
C-A
  6
Continuous
 62
     3
370
     9
100
AcDbLine
 10
-794.6415713520018
 20
645.1982186408981
 30
0.0
 11
-800.6422344907265
 21
645.1982186408981
 31
0.0
  0
LINE
  5
403
330
1F
100
AcDbEntity
  8
C-A
  6
Continuous
 62
     3
370
     9
100
AcDbLine
 10
-808.6420876764317
 20
645.1982186408981
 30
0.0
 11
-814.6417610558659
 21
645.1982186408981
 31
0.0
  0
LINE
  5
404
330
1F
100
AcDbEntity
  8
C-A
  6
Continuous
 62
     3
370
     9
100
AcDbLine
 10
-822.6414905216596
 20
645.1982186408981
 30
0.0
 11
-828.6421536603843
 21
645.1982186408981
 31
0.0
  0
LINE
  5
405
330
1F
100
AcDbEntity
  8
C-A
  6
Continuous
 62
     3
370
     9
100
AcDbLine
 10
-504.6407383045989
 20
645.1982186408981
 30
0.0
 11
-506.6409181108701
 21
645.1982186408981
 31
0.0
  0
LINE
  5
406
330
1F
100
AcDbEntity
  8
C-A
  6
Continuous
 62
     3
370
     9
100
AcDbLine
 10
-836.6418831261784
 20
645.1982186408981
 30
0.0
 11
-838.6411968930703
 21
645.1982186408981
 31
0.0
  0
LINE
  5
407
330
1F
100
AcDbEntity
  8
C-A
  6
Continuous
 62
     3
370
     9
100
AcDbLine
 10
-514.6412661762206
 20
738.0983011208391
 30
0.0
 11
-520.6414344353
 21
738.0983011208391
 31
0.0
  0
LINE
  5
408
330
1F
100
AcDbEntity
  8
C-A
  6
Continuous
 62
     3
370
     9
100
AcDbLine
 10
-528.6407927413599
 20
738.0983011208391
 30
0.0
 11
-534.6408372805279
 21
738.0983011208391
 31
0.0
  0
LINE
  5
409
330
1F
100
AcDbEntity
  8
C-A
  6
Continuous
 62
     3
370
     9
100
AcDbLine
 10
-542.6406904662331
 20
738.0983011208391
 30
0.0
 11
-548.6413536049578
 21
738.0983011208391
 31
0.0
  0
LINE
  5
40A
330
1F
100
AcDbEntity
  8
C-A
  6
Continuous
 62
     3
370
     9
100
AcDbLine
 10
-556.641206790663
 20
738.0983011208391
 30
0.0
 11
-562.6408801700971
 21
738.0983011208391
 31
0.0
  0
LINE
  5
40B
330
1F
100
AcDbEntity
  8
C-A
  6
Continuous
 62
     3
370
     9
100
AcDbLine
 10
-570.6406096358911
 20
738.0983011208391
 30
0.0
 11
-576.6412727746159
 21
738.0983011208391
 31
0.0
  0
LINE
  5
40C
330
1F
100
AcDbEntity
  8
C-A
  6
Continuous
 62
     3
370
     9
100
AcDbLine
 10
-584.6411259603211
 20
738.0983011208391
 30
0.0
 11
-590.6407993397552
 21
738.0983011208391
 31
0.0
  0
LINE
  5
40D
330
1F
100
AcDbEntity
  8
C-A
  6
Continuous
 62
     3
370
     9
100
AcDbLine
 10
-598.6406525254604
 20
738.0983011208391
 30
0.0
 11
-604.6411919442737
 21
738.0983011208391
 31
0.0
  0
LINE
  5
40E
330
1F
100
AcDbEntity
  8
C-A
  6
Continuous
 62
     3
370
     9
100
AcDbLine
 10
-612.6410451299789
 20
738.0983011208391
 30
0.0
 11
-618.6412133890583
 21
738.0983011208391
 31
0.0
  0
LINE
  5
40F
330
1F
100
AcDbEntity
  8
C-A
  6
Continuous
 62
     3
370
     9
100
AcDbLine
 10
-626.6409428548524
 20
738.0983011208391
 30
0.0
 11
-632.6406162342864
 21
738.0983011208391
 31
0.0
  0
LINE
  5
410
330
1F
100
AcDbEntity
  8
C-A
  6
Continuous
 62
     3
370
     9
100
AcDbLine
 10
-640.640964299637
 20
738.0983011208391
 30
0.0
 11
-646.6411325587164
 21
738.0983011208391
 31
0.0
  0
LINE
  5
411
330
1F
100
AcDbEntity
  8
C-A
  6
Continuous
 62
     3
370
     9
100
AcDbLine
 10
-654.6409857444216
 20
738.0983011208391
 30
0.0
 11
-660.6405354039442
 21
738.0983011208391
 31
0.0
  0
LINE
  5
412
330
1F
100
AcDbEntity
  8
C-A
  6
Continuous
 62
     3
370
     9
100
AcDbLine
 10
-668.6408834692947
 20
738.0983011208391
 30
0.0
 11
-674.6410517283742
 21
738.0983011208391
 31
0.0
  0
LINE
  5
413
330
1F
100
AcDbEntity
  8
C-A
  6
Continuous
 62
     3
370
     9
100
AcDbLine
 10
-682.6409049140794
 20
738.0983011208391
 30
0.0
 11
-688.6409494532477
 21
738.0983011208391
 31
0.0
  0
LINE
  5
414
330
1F
100
AcDbEntity
  8
C-A
  6
Continuous
 62
     3
370
     9
100
AcDbLine
 10
-696.6408026389529
 20
738.0983011208391
 30
0.0
 11
-702.6409708980323
 21
738.0983011208391
 31
0.0
  0
LINE
  5
415
330
1F
100
AcDbEntity
  8
C-A
  6
Continuous
 62
     3
370
     9
100
AcDbLine
 10
-710.6408240837375
 20
738.0983011208391
 30
0.0
 11
-716.640992342817
 21
738.0983011208391
 31
0.0
  0
LINE
  5
416
330
1F
100
AcDbEntity
  8
C-A
  6
Continuous
 62
     3
370
     9
100
AcDbLine
 10
-724.6407218086107
 20
738.0983011208391
 30
0.0
 11
-730.6408900676901
 21
738.0983011208391
 31
0.0
  0
LINE
  5
417
330
1F
100
AcDbEntity
  8
C-A
  6
Continuous
 62
     3
370
     9
100
AcDbLine
 10
-738.6407432533953
 20
738.0983011208391
 30
0.0
 11
-744.6412826722086
 21
738.0983011208391
 31
0.0
  0
LINE
  5
418
330
1F
100
AcDbEntity
  8
C-A
  6
Continuous
 62
     3
370
     9
100
AcDbLine
 10
-752.6412595778253
 20
738.0983011208391
 30
0.0
 11
-758.6413041169932
 21
738.0983011208391
 31
0.0
  0
LINE
  5
419
330
1F
100
AcDbEntity
  8
C-A
  6
Continuous
 62
     3
370
     9
100
AcDbLine
 10
-766.6411573026984
 20
738.0983011208391
 30
0.0
 11
-772.6413255617779
 21
738.0983011208391
 31
0.0
  0
LINE
  5
41A
330
1F
100
AcDbEntity
  8
C-A
  6
Continuous
 62
     3
370
     9
100
AcDbLine
 10
-504.6407383045989
 20
738.0983011208391
 30
0.0
 11
-506.6409181108701
 21
738.0983011208391
 31
0.0
  0
LINE
  5
41B
330
1F
100
AcDbEntity
  8
C-A
  6
Continuous
 62
     3
370
     9
100
AcDbLine
 10
-514.6412661762206
 20
745.1983011208392
 30
0.0
 11
-520.6414344353
 21
745.1983011208392
 31
0.0
  0
LINE
  5
41C
330
1F
100
AcDbEntity
  8
C-A
  6
Continuous
 62
     3
370
     9
100
AcDbLine
 10
-528.6407927413599
 20
745.1983011208392
 30
0.0
 11
-534.6408372805279
 21
745.1983011208392
 31
0.0
  0
LINE
  5
41D
330
1F
100
AcDbEntity
  8
C-A
  6
Continuous
 62
     3
370
     9
100
AcDbLine
 10
-542.6406904662331
 20
745.1983011208392
 30
0.0
 11
-548.6413536049578
 21
745.1983011208392
 31
0.0
  0
LINE
  5
41E
330
1F
100
AcDbEntity
  8
C-A
  6
Continuous
 62
     3
370
     9
100
AcDbLine
 10
-556.641206790663
 20
745.1983011208392
 30
0.0
 11
-562.6408801700971
 21
745.1983011208392
 31
0.0
  0
LINE
  5
41F
330
1F
100
AcDbEntity
  8
C-A
  6
Continuous
 62
     3
370
     9
100
AcDbLine
 10
-570.6406096358911
 20
745.1983011208392
 30
0.0
 11
-576.6412727746159
 21
745.1983011208392
 31
0.0
  0
LINE
  5
420
330
1F
100
AcDbEntity
  8
C-A
  6
Continuous
 62
     3
370
     9
100
AcDbLine
 10
-584.6411259603211
 20
745.1983011208392
 30
0.0
 11
-590.6407993397552
 21
745.1983011208392
 31
0.0
  0
LINE
  5
421
330
1F
100
AcDbEntity
  8
C-A
  6
Continuous
 62
     3
370
     9
100
AcDbLine
 10
-598.6406525254604
 20
745.1983011208392
 30
0.0
 11
-604.6411919442737
 21
745.1983011208392
 31
0.0
  0
LINE
  5
422
330
1F
100
AcDbEntity
  8
C-A
  6
Continuous
 62
     3
370
     9
100
AcDbLine
 10
-612.6410451299789
 20
745.1983011208392
 30
0.0
 11
-618.6412133890583
 21
745.1983011208392
 31
0.0
  0
LINE
  5
423
330
1F
100
AcDbEntity
  8
C-A
  6
Continuous
 62
     3
370
     9
100
AcDbLine
 10
-626.6409428548524
 20
745.1983011208392
 30
0.0
 11
-632.6406162342864
 21
745.1983011208392
 31
0.0
  0
LINE
  5
424
330
1F
100
AcDbEntity
  8
C-A
  6
Continuous
 62
     3
370
     9
100
AcDbLine
 10
-640.640964299637
 20
745.1983011208392
 30
0.0
 11
-646.6411325587164
 21
745.1983011208392
 31
0.0
  0
LINE
  5
425
330
1F
100
AcDbEntity
  8
C-A
  6
Continuous
 62
     3
370
     9
100
AcDbLine
 10
-654.6409857444216
 20
745.1983011208392
 30
0.0
 11
-660.6405354039442
 21
745.1983011208392
 31
0.0
  0
LINE
  5
426
330
1F
100
AcDbEntity
  8
C-A
  6
Continuous
 62
     3
370
     9
100
AcDbLine
 10
-668.6408834692947
 20
745.1983011208392
 30
0.0
 11
-674.6410517283742
 21
745.1983011208392
 31
0.0
  0
LINE
  5
427
330
1F
100
AcDbEntity
  8
C-A
  6
Continuous
 62
     3
370
     9
100
AcDbLine
 10
-682.6409049140794
 20
745.1983011208392
 30
0.0
 11
-688.6409494532477
 21
745.1983011208392
 31
0.0
  0
LINE
  5
428
330
1F
100
AcDbEntity
  8
C-A
  6
Continuous
 62
     3
370
     9
100
AcDbLine
 10
-696.6408026389529
 20
745.1983011208392
 30
0.0
 11
-702.6409708980323
 21
745.1983011208392
 31
0.0
  0
LINE
  5
429
330
1F
100
AcDbEntity
  8
C-A
  6
Continuous
 62
     3
370
     9
100
AcDbLine
 10
-710.6408240837375
 20
745.1983011208392
 30
0.0
 11
-716.640992342817
 21
745.1983011208392
 31
0.0
  0
LINE
  5
42A
330
1F
100
AcDbEntity
  8
C-A
  6
Continuous
 62
     3
370
     9
100
AcDbLine
 10
-724.6407218086107
 20
745.1983011208392
 30
0.0
 11
-730.6408900676901
 21
745.1983011208392
 31
0.0
  0
LINE
  5
42B
330
1F
100
AcDbEntity
  8
C-A
  6
Continuous
 62
     3
370
     9
100
AcDbLine
 10
-738.6407432533953
 20
745.1983011208392
 30
0.0
 11
-744.6412826722086
 21
745.1983011208392
 31
0.0
  0
LINE
  5
42C
330
1F
100
AcDbEntity
  8
C-A
  6
Continuous
 62
     3
370
     9
100
AcDbLine
 10
-752.6412595778253
 20
745.1983011208392
 30
0.0
 11
-758.6413041169932
 21
745.1983011208392
 31
0.0
  0
LINE
  5
42D
330
1F
100
AcDbEntity
  8
C-A
  6
Continuous
 62
     3
370
     9
100
AcDbLine
 10
-504.6407383045989
 20
745.1983011208392
 30
0.0
 11
-506.6409181108701
 21
745.1983011208392
 31
0.0
  0
LINE
  5
42E
330
1F
100
AcDbEntity
  8
C-A
  6
Continuous
 62
     3
370
     9
100
AcDbLine
 10
-514.6412661762206
 20
838.0982598808686
 30
0.0
 11
-520.6414344353
 21
838.0982598808686
 31
0.0
  0
LINE
  5
42F
330
1F
100
AcDbEntity
  8
C-A
  6
Continuous
 62
     3
370
     9
100
AcDbLine
 10
-528.6407927413599
 20
838.0982598808686
 30
0.0
 11
-534.6408372805279
 21
838.0982598808686
 31
0.0
  0
LINE
  5
430
330
1F
100
AcDbEntity
  8
C-A
  6
Continuous
 62
     3
370
     9
100
AcDbLine
 10
-542.6406904662331
 20
838.0982598808686
 30
0.0
 11
-548.6413536049578
 21
838.0982598808686
 31
0.0
  0
LINE
  5
431
330
1F
100
AcDbEntity
  8
C-A
  6
Continuous
 62
     3
370
     9
100
AcDbLine
 10
-556.641206790663
 20
838.0982598808686
 30
0.0
 11
-562.6408801700971
 21
838.0982598808686
 31
0.0
  0
LINE
  5
432
330
1F
100
AcDbEntity
  8
C-A
  6
Continuous
 62
     3
370
     9
100
AcDbLine
 10
-570.6406096358911
 20
838.0982598808686
 30
0.0
 11
-576.6412727746159
 21
838.0982598808686
 31
0.0
  0
LINE
  5
433
330
1F
100
AcDbEntity
  8
C-A
  6
Continuous
 62
     3
370
     9
100
AcDbLine
 10
-584.6411259603211
 20
838.0982598808686
 30
0.0
 11
-590.6407993397552
 21
838.0982598808686
 31
0.0
  0
LINE
  5
434
330
1F
100
AcDbEntity
  8
C-A
  6
Continuous
 62
     3
370
     9
100
AcDbLine
 10
-598.6406525254604
 20
838.0982598808686
 30
0.0
 11
-604.6411919442737
 21
838.0982598808686
 31
0.0
  0
LINE
  5
435
330
1F
100
AcDbEntity
  8
C-A
  6
Continuous
 62
     3
370
     9
100
AcDbLine
 10
-612.6410451299789
 20
838.0982598808686
 30
0.0
 11
-618.6412133890583
 21
838.0982598808686
 31
0.0
  0
LINE
  5
436
330
1F
100
AcDbEntity
  8
C-A
  6
Continuous
 62
     3
370
     9
100
AcDbLine
 10
-626.6409428548524
 20
838.0982598808686
 30
0.0
 11
-632.6406162342864
 21
838.0982598808686
 31
0.0
  0
LINE
  5
437
330
1F
100
AcDbEntity
  8
C-A
  6
Continuous
 62
     3
370
     9
100
AcDbLine
 10
-640.640964299637
 20
838.0982598808686
 30
0.0
 11
-646.6411325587164
 21
838.0982598808686
 31
0.0
  0
LINE
  5
438
330
1F
100
AcDbEntity
  8
C-A
  6
Continuous
 62
     3
370
     9
100
AcDbLine
 10
-654.6409857444216
 20
838.0982598808686
 30
0.0
 11
-660.6405354039442
 21
838.0982598808686
 31
0.0
  0
LINE
  5
439
330
1F
100
AcDbEntity
  8
C-A
  6
Continuous
 62
     3
370
     9
100
AcDbLine
 10
-668.6408834692947
 20
838.0982598808686
 30
0.0
 11
-674.6410517283742
 21
838.0982598808686
 31
0.0
  0
LINE
  5
43A
330
1F
100
AcDbEntity
  8
C-A
  6
Continuous
 62
     3
370
     9
100
AcDbLine
 10
-504.6407383045989
 20
838.0982598808686
 30
0.0
 11
-506.6409181108701
 21
838.0982598808686
 31
0.0
  0
LINE
  5
43B
330
1F
100
AcDbEntity
  8
C-A
  6
Continuous
 62
     3
370
     9
100
AcDbLine
 10
-504.6407383045989
 20
845.1982598808684
 30
0.0
 11
-506.6409181108701
 21
845.1982598808684
 31
0.0
  0
LINE
  5
43C
330
1F
100
AcDbEntity
  8
C-A
  6
Continuous
 62
     3
370
     9
100
AcDbLine
 10
-654.6409857444216
 20
845.1982598808684
 30
0.0
 11
-660.6405354039442
 21
845.1982598808684
 31
0.0
  0
LINE
  5
43D
330
1F
100
AcDbEntity
  8
C-A
  6
Continuous
 62
     3
370
     9
100
AcDbLine
 10
-640.640964299637
 20
845.1982598808684
 30
0.0
 11
-646.6411325587164
 21
845.1982598808684
 31
0.0
  0
LINE
  5
43E
330
1F
100
AcDbEntity
  8
C-A
  6
Continuous
 62
     3
370
     9
100
AcDbLine
 10
-626.6409428548524
 20
845.1982598808684
 30
0.0
 11
-632.6406162342864
 21
845.1982598808684
 31
0.0
  0
LINE
  5
43F
330
1F
100
AcDbEntity
  8
C-A
  6
Continuous
 62
     3
370
     9
100
AcDbLine
 10
-612.6410451299789
 20
845.1982598808684
 30
0.0
 11
-618.6412133890583
 21
845.1982598808684
 31
0.0
  0
LINE
  5
440
330
1F
100
AcDbEntity
  8
C-A
  6
Continuous
 62
     3
370
     9
100
AcDbLine
 10
-598.6406525254604
 20
845.1982598808684
 30
0.0
 11
-604.6411919442737
 21
845.1982598808684
 31
0.0
  0
LINE
  5
441
330
1F
100
AcDbEntity
  8
C-A
  6
Continuous
 62
     3
370
     9
100
AcDbLine
 10
-584.6411259603211
 20
845.1982598808684
 30
0.0
 11
-590.6407993397552
 21
845.1982598808684
 31
0.0
  0
LINE
  5
442
330
1F
100
AcDbEntity
  8
C-A
  6
Continuous
 62
     3
370
     9
100
AcDbLine
 10
-570.6406096358911
 20
845.1982598808684
 30
0.0
 11
-576.6412727746159
 21
845.1982598808684
 31
0.0
  0
LINE
  5
443
330
1F
100
AcDbEntity
  8
C-A
  6
Continuous
 62
     3
370
     9
100
AcDbLine
 10
-556.641206790663
 20
845.1982598808684
 30
0.0
 11
-562.6408801700971
 21
845.1982598808684
 31
0.0
  0
LINE
  5
444
330
1F
100
AcDbEntity
  8
C-A
  6
Continuous
 62
     3
370
     9
100
AcDbLine
 10
-542.6406904662331
 20
845.1982598808684
 30
0.0
 11
-548.6413536049578
 21
845.1982598808684
 31
0.0
  0
LINE
  5
445
330
1F
100
AcDbEntity
  8
C-A
  6
Continuous
 62
     3
370
     9
100
AcDbLine
 10
-528.6407927413599
 20
845.1982598808684
 30
0.0
 11
-534.6408372805279
 21
845.1982598808684
 31
0.0
  0
LINE
  5
446
330
1F
100
AcDbEntity
  8
C-A
  6
Continuous
 62
     3
370
     9
100
AcDbLine
 10
-514.6412661762206
 20
845.1982598808684
 30
0.0
 11
-520.6414344353
 21
845.1982598808684
 31
0.0
  0
LINE
  5
447
330
1F
100
AcDbEntity
  8
C-A
  6
Continuous
 62
     3
370
     9
100
AcDbLine
 10
-766.6411573026984
 20
745.1983011208392
 30
0.0
 11
-768.0913046202381
 21
745.1983011208392
 31
0.0
  0
LINE
  5
448
330
1F
100
AcDbEntity
  8
C-A
  6
Continuous
 62
     3
370
     9
100
AcDbLine
 10
-668.6408834692947
 20
841.6482598808684
 30
0.0
 11
-671.6412026665374
 21
841.6482598808684
 31
0.0
  0
SOLID
  5
449
330
1F
100
AcDbEntity
  8
C-5
  6
Continuous
 62
     4
370
     9
100
AcDbTrace
 10
-669.641091318746
 20
953.4996529820728
 30
0.0
 11
-669.641091318746
 21
993.4996529820728
 31
0.0
 12
-673.6410913187465
 22
953.4996529820728
 32
0.0
 13
-673.6410913187465
 23
993.4996529820728
 33
0.0
  0
LINE
  5
44A
330
1F
100
AcDbEntity
  8
C-5
  6
JWW_CENTER1
 62
     4
370
     9
100
AcDbLine
 10
-671.641091318746
 20
953.4996529820728
 30
0.0
 11
-671.641091318746
 21
790.3972087296052
 31
0.0
  0
LINE
  5
44B
330
1F
100
AcDbEntity
  8
C-5
  6
Continuous
 62
     4
370
     9
100
AcDbLine
 10
-661.9750015210341
 20
974.4806498555465
 30
0.0
 11
-612.7256088380923
 21
974.4806498555465
 31
0.0
  0
LINE
  5
44C
330
1F
100
AcDbEntity
  8
C-5
  6
Continuous
 62
     4
370
     9
100
AcDbLine
 10
-661.9750015210341
 20
974.4806498555465
 30
0.0
 11
-637.1888799866889
 21
971.2174950500452
 31
0.0
  0
LINE
  5
44D
330
1F
100
AcDbEntity
  8
C-5
  6
Continuous
 62
     4
370
     9
100
AcDbLine
 10
-661.9750015210341
 20
974.4806498555465
 30
0.0
 11
-637.1888799866889
 21
977.7438046610479
 31
0.0
  0
TEXT
  5
44E
330
1F
100
AcDbEntity
  8
C-5
  6
Continuous
 62
     2
370
     9
100
AcDbText
 10
-605.0148377041419
 20
962.2754678353429
 30
0.0
 40
30.48
  1
A
 41
0.9999999999999998
  7
ＭＳ ゴシック
100
AcDbText
  0
LINE
  5
44F
330
1F
100
AcDbEntity
  8
D-5
  6
Continuous
 62
     7
370
     9
100
AcDbLine
 10
325.3438172911751
 20
-9.331574778092033
 30
0.0
 11
543.2822376392335
 21
-9.331574778092033
 31
0.0
  0
LINE
  5
450
330
1F
100
AcDbEntity
  8
D-5
  6
Continuous
 62
     7
370
     9
100
AcDbLine
 10
472.4988688562229
 20
-182.0282775261057
 30
0.0
 11
1118.129076314262
 21
-182.0282775261057
 31
0.0
  0
LINE
  5
451
330
1F
100
AcDbEntity
  8
D-4
  6
Continuous
 62
     7
370
     9
100
AcDbLine
 10
693.9788196487484
 20
279.4212297323531
 30
0.0
 11
693.9788196487484
 21
204.4213534522646
 31
0.0
  0
LWPOLYLINE
  5
452
330
1F
100
AcDbEntity
  8
D-4
  6
Continuous
 62
     7
370
     9
100
AcDbPolyline
 90
        4
 70
     1
 43
1.0
 10
694.4788196487484
 20
279.4212297323531
 42
0.4142135623731
 10
693.9788196487484
 20
279.9212297323531
 42
0.4142135623731
 10
693.4788196487484
 20
279.4212297323531
 42
0.4142135623731
 10
693.9788196487484
 20
278.9212297323531
 42
0.4142135623731
  0
LWPOLYLINE
  5
453
330
1F
100
AcDbEntity
  8
D-4
  6
Continuous
 62
     7
370
     9
100
AcDbPolyline
 90
        4
 70
     1
 43
1.0
 10
694.4788196487484
 20
204.4213534522646
 42
0.4142135623731
 10
693.9788196487484
 20
204.9213534522646
 42
0.4142135623731
 10
693.4788196487484
 20
204.4213534522646
 42
0.4142135623731
 10
693.9788196487484
 20
203.9213534522646
 42
0.4142135623731
  0
LINE
  5
454
330
1F
100
AcDbEntity
  8
D-4
  6
Continuous
 62
     7
370
     9
100
AcDbLine
 10
696.978819648748
 20
279.4212297323531
 30
0.0
 11
609.8695174800821
 21
279.4212297323531
 31
0.0
  0
LINE
  5
455
330
1F
100
AcDbEntity
  8
D-4
  6
Continuous
 62
     7
370
     9
100
AcDbLine
 10
696.978819648748
 20
204.4213534522646
 30
0.0
 11
609.8695174800821
 21
204.4213534522646
 31
0.0
  0
LINE
  5
456
330
1F
100
AcDbEntity
  8
D-2
  6
Continuous
 62
     3
370
     9
100
AcDbLine
 10
427.4777170006527
 20
279.4212297323531
 30
0.0
 11
567.7954556766122
 21
279.4212297323531
 31
0.0
  0
LINE
  5
457
330
1F
100
AcDbEntity
  8
D-2
  6
Continuous
 62
     3
370
     9
100
AcDbLine
 10
327.8366461590895
 20
204.4213534522646
 30
0.0
 11
567.7954556766122
 21
204.4213534522646
 31
0.0
  0
LINE
  5
458
330
1F
100
AcDbEntity
  8
D-2
  6
Continuous
 62
     3
370
     9
100
AcDbLine
 10
467.7951010128675
 20
272.4211571500055
 30
0.0
 11
427.7955876445185
 21
272.4211571500055
 31
0.0
  0
LINE
  5
459
330
1F
100
AcDbEntity
  8
D-2
  6
Continuous
 62
     3
370
     9
100
AcDbLine
 10
427.7955876445185
 20
279.4212297323531
 30
0.0
 11
427.7955876445185
 21
272.4211571500055
 31
0.0
  0
LINE
  5
45A
330
1F
100
AcDbEntity
  8
D-2
  6
Continuous
 62
     3
370
     9
100
AcDbLine
 10
467.7951010128675
 20
272.4211571500055
 30
0.0
 11
467.7951010128675
 21
279.4212297323531
 31
0.0
  0
LINE
  5
45B
330
1F
100
AcDbEntity
  8
D-2
  6
Continuous
 62
     3
370
     9
100
AcDbLine
 10
444.2954936173862
 20
272.4211571500055
 30
0.0
 11
444.2954936173862
 21
204.4213534522646
 31
0.0
  0
LINE
  5
45C
330
1F
100
AcDbEntity
  8
D-2
  6
Continuous
 62
     3
370
     9
100
AcDbLine
 10
451.2955661997341
 20
272.4211571500055
 30
0.0
 11
451.2955661997341
 21
204.4213534522646
 31
0.0
  0
ARC
  5
45D
330
1F
100
AcDbEntity
  8
D-2
  6
Continuous
 62
     3
370
     9
100
AcDbCircle
 10
439.2954936173862
 20
267.4211571500055
 30
0.0
 40
5.0
100
AcDbArc
 50
0.0
 51
90.0
  0
ARC
  5
45E
330
1F
100
AcDbEntity
  8
D-2
  6
Continuous
 62
     3
370
     9
100
AcDbCircle
 10
456.2955661997341
 20
267.4211571500055
 30
0.0
 40
5.0
100
AcDbArc
 50
90.0
 51
180.0
  0
TEXT
  5
45F
330
1F
100
AcDbEntity
  8
D-4
  6
Continuous
 62
     2
370
   211
100
AcDbText
 10
682.3388196487482
 20
220.6712915923089
 30
0.0
 40
30.48
  1
15
 50
90.0
 41
1.0625
  7
ＭＳ ゴシック
100
AcDbText
  0
LINE
  5
460
330
1F
100
AcDbEntity
  8
D-5
  6
JWW_CENTER1
 62
     4
370
     9
100
AcDbLine
 10
639.8325709530866
 20
638.51820182142
 30
0.0
 11
602.7158674517057
 21
638.51820182142
 31
0.0
  0
SOLID
  5
461
330
1F
100
AcDbEntity
  8
D-5
  6
Continuous
 62
     4
370
     9
100
AcDbTrace
 10
639.8325709530866
 20
640.51820182142
 30
0.0
 11
679.8325709530866
 21
640.51820182142
 31
0.0
 12
639.8325709530866
 22
636.5182018214202
 32
0.0
 13
679.8325709530866
 23
636.5182018214202
 33
0.0
  0
LINE
  5
462
330
1F
100
AcDbEntity
  8
D-5
  6
JWW_CENTER1
 62
     4
370
     9
100
AcDbLine
 10
255.5966783604708
 20
638.51820182142
 30
0.0
 11
292.7133818618518
 21
638.51820182142
 31
0.0
  0
SOLID
  5
463
330
1F
100
AcDbEntity
  8
D-5
  6
Continuous
 62
     4
370
     9
100
AcDbTrace
 10
255.5966783604708
 20
636.5182018214202
 30
0.0
 11
215.5966783604708
 21
636.5182018214202
 31
0.0
 12
255.5966783604708
 22
640.51820182142
 32
0.0
 13
215.5966783604708
 23
640.51820182142
 33
0.0
  0
LINE
  5
464
330
1F
100
AcDbEntity
  8
D-5
  6
Continuous
 62
     4
370
     9
100
AcDbLine
 10
234.6156814869971
 20
628.8521120237081
 30
0.0
 11
234.6156814869971
 21
579.6027193407662
 31
0.0
  0
LINE
  5
465
330
1F
100
AcDbEntity
  8
D-5
  6
Continuous
 62
     4
370
     9
100
AcDbLine
 10
234.6156814869971
 20
628.8521120237081
 30
0.0
 11
237.8788362924979
 21
604.0659904893628
 31
0.0
  0
LINE
  5
466
330
1F
100
AcDbEntity
  8
D-5
  6
Continuous
 62
     4
370
     9
100
AcDbLine
 10
234.6156814869971
 20
628.8521120237081
 30
0.0
 11
231.3525266814952
 21
604.0659904893628
 31
0.0
  0
TEXT
  5
467
330
1F
100
AcDbEntity
  8
D-5
  6
Continuous
 62
     2
370
     9
100
AcDbText
 10
224.6156814869971
 20
539.276619503354
 30
0.0
 40
30.48
  1
B
 41
0.9999999999999998
  7
ＭＳ ゴシック
100
AcDbText
  0
TEXT
  5
468
330
1F
100
AcDbEntity
  8
D-5
  6
Continuous
 62
     7
370
     9
100
AcDbText
 10
1215.733287304558
 20
357.5694122226764
 30
0.0
 40
22.86
  1
メインバー
 41
1.133333333333333
  7
ＭＳ ゴシック
100
AcDbText
  0
LINE
  5
469
330
1F
100
AcDbEntity
  8
D-4
  6
Continuous
 62
     7
370
     9
100
AcDbLine
 10
890.9711328689366
 20
375.2340607735874
 30
0.0
 11
1081.718942971164
 21
375.2340607735874
 31
0.0
  0
LWPOLYLINE
  5
46A
330
1F
100
AcDbEntity
  8
D-4
  6
Continuous
 62
     7
370
     9
100
AcDbPolyline
 90
        4
 70
     1
 43
1.0
 10
1082.218942971164
 20
375.2340607735874
 42
0.4142135623731
 10
1081.718942971164
 20
375.7340607735874
 42
0.4142135623731
 10
1081.218942971164
 20
375.2340607735874
 42
0.4142135623731
 10
1081.718942971164
 20
374.7340607735874
 42
0.4142135623731
  0
LINE
  5
46B
330
1F
100
AcDbEntity
  8
D-4
  6
Continuous
 62
     7
370
     9
100
AcDbLine
 10
1081.718942971164
 20
378.2340607735875
 30
0.0
 11
1081.718942971164
 21
292.4286628246253
 31
0.0
  0
TEXT
  5
46C
330
1F
100
AcDbEntity
  8
D-5
  6
Continuous
 62
     2
370
     9
100
AcDbText
 10
335.5630274652049
 20
11.30842522190797
 30
0.0
 40
30.48
  1
B-B断面図
 41
1.097222222222222
  7
ＭＳ ゴシック
100
AcDbText
  0
LINE
  5
46D
330
1F
100
AcDbEntity
  8
D-2
  6
Continuous
 62
     3
370
     9
100
AcDbLine
 10
890.9711328689366
 20
184.3662454670937
 30
0.0
 11
890.9711328689366
 21
232.0363202780936
 31
0.0
  0
LINE
  5
46E
330
1F
100
AcDbEntity
  8
D-2
  6
Continuous
 62
     3
370
     9
100
AcDbLine
 10
905.9719873611243
 20
252.0374036521173
 30
0.0
 11
890.9711328689366
 21
252.0374036521173
 31
0.0
  0
LINE
  5
46F
330
1F
100
AcDbEntity
  8
D-2
  6
Continuous
 62
     3
370
     9
100
AcDbLine
 10
905.9719873611243
 20
252.0374036521173
 30
0.0
 11
875.9710107986234
 21
232.0363202780936
 31
0.0
  0
LINE
  5
470
330
1F
100
AcDbEntity
  8
D-2
  6
Continuous
 62
     3
370
     9
100
AcDbLine
 10
890.9711328689366
 20
232.0363202780936
 30
0.0
 11
875.9710107986234
 21
232.0363202780936
 31
0.0
  0
LINE
  5
471
330
1F
100
AcDbEntity
  8
D-2
  6
Continuous
 62
     3
370
     9
100
AcDbLine
 10
890.9711328689366
 20
252.0374036521173
 30
0.0
 11
890.9711328689366
 21
299.4212297323531
 31
0.0
  0
TEXT
  5
472
330
1F
100
AcDbEntity
  8
D-5
  6
Continuous
 62
     2
370
     9
100
AcDbText
 10
487.4993571374728
 20
-161.3882775261058
 30
0.0
 40
30.48
  1
メインバー詳細図　Ｓ＝１：２
 41
1.116071428571428
  7
ＭＳ ゴシック
100
AcDbText
  0
LINE
  5
473
330
1F
100
AcDbEntity
  8
D-5
  6
Continuous
 62
     7
370
     9
100
AcDbLine
 10
1385.030956066468
 20
348.3394122226764
 30
0.0
 11
1216.479520851949
 21
348.3394122226764
 31
0.0
  0
LINE
  5
474
330
1F
100
AcDbEntity
  8
D-5
  6
Continuous
 62
     7
370
     9
100
AcDbLine
 10
1147.561338361624
 20
279.4212297323531
 30
0.0
 11
1216.479520851949
 21
348.3394122226764
 31
0.0
  0
LINE
  5
475
330
1F
100
AcDbEntity
  8
D-5
  6
Continuous
 62
     7
370
     9
100
AcDbLine
 10
1147.561338361624
 20
279.4212297323531
 30
0.0
 11
1167.395171868906
 21
294.6402654575712
 31
0.0
  0
LINE
  5
476
330
1F
100
AcDbEntity
  8
D-5
  6
Continuous
 62
     7
370
     9
100
AcDbLine
 10
1147.561338361624
 20
279.4212297323531
 30
0.0
 11
1162.780374086843
 21
299.2550632396342
 31
0.0
  0
LINE
  5
477
330
1F
100
AcDbEntity
  8
D-2
  6
Continuous
 62
     3
370
     9
100
AcDbLine
 10
427.7801544340639
 20
607.71186980735
 30
0.0
 11
462.7199739088371
 21
578.3925839644714
 31
0.0
  0
LINE
  5
478
330
1F
100
AcDbEntity
  8
D-2
  6
Continuous
 62
     3
370
     9
100
AcDbLine
 10
427.7797963421858
 20
597.4577719323438
 30
0.0
 11
450.4997980987048
 21
578.3925839644714
 31
0.0
  0
LINE
  5
479
330
1F
100
AcDbEntity
  8
D-2
  6
Continuous
 62
     3
370
     9
100
AcDbLine
 10
427.7794382503077
 20
587.203674057338
 30
0.0
 11
438.2796222885725
 21
578.3925839644714
 31
0.0
  0
LINE
  5
47A
330
1F
100
AcDbEntity
  8
D-2
  6
Continuous
 62
     3
370
     9
100
AcDbLine
 10
460.0584681165242
 20
578.3925839644714
 30
0.0
 11
467.7926266146403
 21
584.8823064295684
 31
0.0
  0
LINE
  5
47B
330
1F
100
AcDbEntity
  8
D-2
  6
Continuous
 62
     3
370
     9
100
AcDbLine
 10
427.7908217980473
 20
787.1541835834812
 30
0.0
 11
467.7926266146403
 21
820.7196466427006
 31
0.0
  0
LINE
  5
47C
330
1F
100
AcDbEntity
  8
D-2
  6
Continuous
 62
     3
370
     9
100
AcDbLine
 10
427.7873162716253
 20
812.7938273074715
 30
0.0
 11
467.7926266146403
 21
779.223902024177
 31
0.0
  0
LINE
  5
47D
330
1F
100
AcDbEntity
  8
D-2
  6
Continuous
 62
     3
370
     9
100
AcDbLine
 10
427.7904637061692
 20
776.900085708475
 30
0.0
 11
467.7926266146403
 21
810.4658492421298
 31
0.0
  0
LINE
  5
47E
330
1F
100
AcDbEntity
  8
D-2
  6
Continuous
 62
     3
370
     9
100
AcDbLine
 10
427.7869581797472
 20
802.5397294324658
 30
0.0
 11
467.7926266146403
 21
768.9695036611231
 31
0.0
  0
LINE
  5
47F
330
1F
100
AcDbEntity
  8
D-2
  6
Continuous
 62
     3
370
     9
100
AcDbLine
 10
427.7901056142912
 20
766.6459878334693
 30
0.0
 11
467.7926266146403
 21
800.2120518415591
 31
0.0
  0
LINE
  5
480
330
1F
100
AcDbEntity
  8
D-2
  6
Continuous
 62
     3
370
     9
100
AcDbLine
 10
427.7866000878691
 20
792.2856315574596
 30
0.0
 11
467.7926266146403
 21
758.7151052980697
 31
0.0
  0
LINE
  5
481
330
1F
100
AcDbEntity
  8
D-2
  6
Continuous
 62
     3
370
     9
100
AcDbLine
 10
427.7897475224131
 20
756.3918899584631
 30
0.0
 11
467.7926266146403
 21
789.9582544409877
 31
0.0
  0
LINE
  5
482
330
1F
100
AcDbEntity
  8
D-2
  6
Continuous
 62
     3
370
     9
100
AcDbLine
 10
427.7862419959911
 20
782.0315336824534
 30
0.0
 11
467.7926266146403
 21
748.4607069350163
 31
0.0
  0
LINE
  5
483
330
1F
100
AcDbEntity
  8
D-2
  6
Continuous
 62
     3
370
     9
100
AcDbLine
 10
427.789389430535
 20
746.1377920834569
 30
0.0
 11
467.7926266146403
 21
779.704457040417
 31
0.0
  0
LINE
  5
484
330
1F
100
AcDbEntity
  8
D-2
  6
Continuous
 62
     3
370
     9
100
AcDbLine
 10
427.785883904113
 20
771.7774358074472
 30
0.0
 11
467.7926266146403
 21
738.206308571963
 31
0.0
  0
LINE
  5
485
330
1F
100
AcDbEntity
  8
D-2
  6
Continuous
 62
     3
370
     9
100
AcDbLine
 10
427.789031338657
 20
735.8836942084507
 30
0.0
 11
467.7926266146403
 21
769.4506596398462
 31
0.0
  0
LINE
  5
486
330
1F
100
AcDbEntity
  8
D-2
  6
Continuous
 62
     3
370
     9
100
AcDbLine
 10
427.7855258122349
 20
761.5233379324416
 30
0.0
 11
467.7926266146403
 21
727.9519102089096
 31
0.0
  0
LINE
  5
487
330
1F
100
AcDbEntity
  8
D-2
  6
Continuous
 62
     3
370
     9
100
AcDbLine
 10
427.7886732467789
 20
725.6295963334451
 30
0.0
 11
467.7926266146403
 21
759.1968622392749
 31
0.0
  0
LINE
  5
488
330
1F
100
AcDbEntity
  8
D-2
  6
Continuous
 62
     3
370
     9
100
AcDbLine
 10
427.7851677203569
 20
751.2692400574354
 30
0.0
 11
467.7926266146403
 21
717.6975118458556
 31
0.0
  0
LINE
  5
489
330
1F
100
AcDbEntity
  8
D-2
  6
Continuous
 62
     3
370
     9
100
AcDbLine
 10
427.7883151549008
 20
715.3754984584389
 30
0.0
 11
467.7926266146403
 21
748.9430648387041
 31
0.0
  0
LINE
  5
48A
330
1F
100
AcDbEntity
  8
D-2
  6
Continuous
 62
     3
370
     9
100
AcDbLine
 10
427.7848096284788
 20
741.0151421824291
 30
0.0
 11
467.7926266146403
 21
707.4431134828022
 31
0.0
  0
LINE
  5
48B
330
1F
100
AcDbEntity
  8
D-2
  6
Continuous
 62
     3
370
     9
100
AcDbLine
 10
427.7879570630228
 20
705.1214005834327
 30
0.0
 11
467.7926266146403
 21
738.6892674381334
 31
0.0
  0
LINE
  5
48C
330
1F
100
AcDbEntity
  8
D-2
  6
Continuous
 62
     3
370
     9
100
AcDbLine
 10
427.7844515366007
 20
730.7610443074229
 30
0.0
 11
467.7926266146403
 21
697.1887151197488
 31
0.0
  0
LINE
  5
48D
330
1F
100
AcDbEntity
  8
D-2
  6
Continuous
 62
     3
370
     9
100
AcDbLine
 10
427.7875989711447
 20
694.8673027084265
 30
0.0
 11
467.7926266146403
 21
728.435470037562
 31
0.0
  0
LINE
  5
48E
330
1F
100
AcDbEntity
  8
D-2
  6
Continuous
 62
     3
370
     9
100
AcDbLine
 10
427.7840934447227
 20
720.5069464324173
 30
0.0
 11
467.7926266146403
 21
686.9343167566954
 31
0.0
  0
LINE
  5
48F
330
1F
100
AcDbEntity
  8
D-2
  6
Continuous
 62
     3
370
     9
100
AcDbLine
 10
427.7872408792666
 20
684.61320483342
 30
0.0
 11
467.7926266146403
 21
718.1816726369913
 31
0.0
  0
LINE
  5
490
330
1F
100
AcDbEntity
  8
D-2
  6
Continuous
 62
     3
370
     9
100
AcDbLine
 10
427.7837353528446
 20
710.2528485574111
 30
0.0
 11
467.7926266146403
 21
676.6799183936419
 31
0.0
  0
LINE
  5
491
330
1F
100
AcDbEntity
  8
D-2
  6
Continuous
 62
     3
370
     9
100
AcDbLine
 10
427.7868827873885
 20
674.3591069584145
 30
0.0
 11
467.7926266146403
 21
707.9278752364199
 31
0.0
  0
LINE
  5
492
330
1F
100
AcDbEntity
  8
D-2
  6
Continuous
 62
     3
370
     9
100
AcDbLine
 10
427.7833772609665
 20
699.9987506824049
 30
0.0
 11
467.7926266146403
 21
666.4255200305879
 31
0.0
  0
LINE
  5
493
330
1F
100
AcDbEntity
  8
D-2
  6
Continuous
 62
     3
370
     9
100
AcDbLine
 10
427.7865246955105
 20
664.1050090834083
 30
0.0
 11
467.7926266146403
 21
697.6740778358492
 31
0.0
  0
LINE
  5
494
330
1F
100
AcDbEntity
  8
D-2
  6
Continuous
 62
     3
370
     9
100
AcDbLine
 10
427.7830191690884
 20
689.7446528073986
 30
0.0
 11
467.7926266146403
 21
656.1711216675346
 31
0.0
  0
LINE
  5
495
330
1F
100
AcDbEntity
  8
D-2
  6
Continuous
 62
     3
370
     9
100
AcDbLine
 10
427.7861666036324
 20
653.8509112084021
 30
0.0
 11
467.7926266146403
 21
687.4202804352776
 31
0.0
  0
LINE
  5
496
330
1F
100
AcDbEntity
  8
D-2
  6
Continuous
 62
     3
370
     9
100
AcDbLine
 10
427.7826610772104
 20
679.4905549323923
 30
0.0
 11
467.7926266146403
 21
645.9167233044811
 31
0.0
  0
LINE
  5
497
330
1F
100
AcDbEntity
  8
D-2
  6
Continuous
 62
     3
370
     9
100
AcDbLine
 10
427.7858085117543
 20
643.5968133333959
 30
0.0
 11
467.7926266146403
 21
677.166483034707
 31
0.0
  0
LINE
  5
498
330
1F
100
AcDbEntity
  8
D-2
  6
Continuous
 62
     3
370
     9
100
AcDbLine
 10
427.7823029853323
 20
669.2364570573866
 30
0.0
 11
467.7926266146403
 21
635.6623249414279
 31
0.0
  0
LINE
  5
499
330
1F
100
AcDbEntity
  8
D-2
  6
Continuous
 62
     3
370
     9
100
AcDbLine
 10
427.7854504198763
 20
633.3427154583901
 30
0.0
 11
467.7926266146403
 21
666.9126856341361
 31
0.0
  0
LINE
  5
49A
330
1F
100
AcDbEntity
  8
D-2
  6
Continuous
 62
     3
370
     9
100
AcDbLine
 10
427.7819448934542
 20
658.9823591823804
 30
0.0
 11
467.7926266146403
 21
625.4079265783744
 31
0.0
  0
LINE
  5
49B
330
1F
100
AcDbEntity
  8
D-2
  6
Continuous
 62
     3
370
     9
100
AcDbLine
 10
427.7850923279982
 20
623.0886175833839
 30
0.0
 11
467.7926266146403
 21
656.6588882335648
 31
0.0
  0
LINE
  5
49C
330
1F
100
AcDbEntity
  8
D-2
  6
Continuous
 62
     3
370
     9
100
AcDbLine
 10
427.7847342361201
 20
612.8345197083777
 30
0.0
 11
467.7926266146403
 21
646.4050908329941
 31
0.0
  0
LINE
  5
49D
330
1F
100
AcDbEntity
  8
D-2
  6
Continuous
 62
     3
370
     9
100
AcDbLine
 10
427.7843761442421
 20
602.5804218333715
 30
0.0
 11
467.7926266146403
 21
636.1512934324232
 31
0.0
  0
LINE
  5
49E
330
1F
100
AcDbEntity
  8
D-2
  6
Continuous
 62
     3
370
     9
100
AcDbLine
 10
427.784018052364
 20
592.326323958366
 30
0.0
 11
467.7926266146403
 21
625.8974960318519
 31
0.0
  0
LINE
  5
49F
330
1F
100
AcDbEntity
  8
D-2
  6
Continuous
 62
     3
370
     9
100
AcDbLine
 10
427.7836599604859
 20
582.0722260833597
 30
0.0
 11
467.7926266146403
 21
615.6436986312813
 31
0.0
  0
LINE
  5
4A0
330
1F
100
AcDbEntity
  8
D-2
  6
Continuous
 62
     3
370
     9
100
AcDbLine
 10
447.8384548986867
 20
578.3925839644714
 30
0.0
 11
467.7926266146403
 21
595.1361038301391
 31
0.0
  0
LINE
  5
4A1
330
1F
100
AcDbEntity
  8
D-2
  6
Continuous
 62
     3
370
     9
100
AcDbLine
 10
435.618441680848
 20
578.3925839644714
 30
0.0
 11
467.7926266146403
 21
605.3899012307104
 31
0.0
  0
LINE
  5
4A2
330
1F
100
AcDbEntity
  8
D-2
  6
Continuous
 62
     3
370
     9
100
AcDbLine
 10
427.780512525942
 20
617.9659676823562
 30
0.0
 11
467.7926266146403
 21
584.3903331261604
 31
0.0
  0
LINE
  5
4A3
330
1F
100
AcDbEntity
  8
D-2
  6
Continuous
 62
     3
370
     9
100
AcDbLine
 10
427.78087061782
 20
628.2200655573624
 30
0.0
 11
467.7926266146403
 21
594.6447314892137
 31
0.0
  0
LINE
  5
4A4
330
1F
100
AcDbEntity
  8
D-2
  6
Continuous
 62
     3
370
     9
100
AcDbLine
 10
427.7812287096981
 20
638.474163432368
 30
0.0
 11
467.7926266146403
 21
604.8991298522672
 31
0.0
  0
LINE
  5
4A5
330
1F
100
AcDbEntity
  8
D-2
  6
Continuous
 62
     3
370
     9
100
AcDbLine
 10
427.7815868015762
 20
648.7282613073742
 30
0.0
 11
467.7926266146403
 21
615.1535282153204
 31
0.0
  0
LINE
  5
4A6
330
1F
100
AcDbEntity
  8
D-2
  6
Continuous
 62
     3
370
     9
100
AcDbLine
 10
427.7958350843403
 20
823.0410772218845
 30
0.0
 11
467.7926266146403
 21
789.4783003872304
 31
0.0
  0
LINE
  5
4A7
330
1F
100
AcDbEntity
  8
D-2
  6
Continuous
 62
     3
370
     9
100
AcDbLine
 10
427.7958350843403
 20
833.2954755849379
 30
0.0
 11
467.7926266146403
 21
799.7326987502838
 31
0.0
  0
LINE
  5
4A8
330
1F
100
AcDbEntity
  8
D-2
  6
Continuous
 62
     3
370
     9
100
AcDbLine
 10
427.7915379818035
 20
807.6623793334936
 30
0.0
 11
467.7926266146403
 21
841.2272414438427
 31
0.0
  0
LINE
  5
4A9
330
1F
100
AcDbEntity
  8
D-2
  6
Continuous
 62
     3
370
     9
100
AcDbLine
 10
427.7911798899254
 20
797.4082814584874
 30
0.0
 11
467.7926266146403
 21
830.9734440432719
 31
0.0
  0
LINE
  5
4AA
330
1F
100
AcDbEntity
  8
D-2
  6
Continuous
 62
     3
370
     9
100
AcDbLine
 10
427.7958350843403
 20
843.5498739479913
 30
0.0
 11
467.7926266146403
 21
809.9870971133372
 31
0.0
  0
LINE
  5
4AB
330
1F
100
AcDbEntity
  8
D-A
  6
Continuous
 62
     3
370
     9
100
AcDbLine
 10
427.7958350843403
 20
578.3925839644714
 30
0.0
 11
427.7958350843403
 21
1038.392905636241
 31
0.0
  0
LINE
  5
4AC
330
1F
100
AcDbEntity
  8
D-A
  6
Continuous
 62
     3
370
     9
100
AcDbLine
 10
467.7926266146403
 20
578.3925839644714
 30
0.0
 11
467.7926266146403
 21
1038.392905636241
 31
0.0
  0
LINE
  5
4AD
330
1F
100
AcDbEntity
  8
D-2
  6
Continuous
 62
     3
370
     9
100
AcDbLine
 10
427.7929703493152
 20
848.6787708335179
 30
0.0
 11
467.7926266146403
 21
882.2424310461297
 31
0.0
  0
LINE
  5
4AE
330
1F
100
AcDbEntity
  8
D-2
  6
Continuous
 62
     3
370
     9
100
AcDbLine
 10
427.7926122574377
 20
838.4246729585117
 30
0.0
 11
467.7926266146403
 21
871.9886336455584
 31
0.0
  0
LINE
  5
4AF
330
1F
100
AcDbEntity
  8
D-2
  6
Continuous
 62
     3
370
     9
100
AcDbLine
 10
427.7922541655596
 20
828.1705750835055
 30
0.0
 11
467.7926266146403
 21
861.7348362449865
 31
0.0
  0
LINE
  5
4B0
330
1F
100
AcDbEntity
  8
D-2
  6
Continuous
 62
     3
370
     9
100
AcDbLine
 10
427.7918960736815
 20
817.9164772084993
 30
0.0
 11
467.7926266146403
 21
851.4810388444134
 31
0.0
  0
LINE
  5
4B1
330
1F
100
AcDbEntity
  8
D-2
  6
Continuous
 62
     3
370
     9
100
AcDbLine
 10
427.7958350843403
 20
874.3130690371514
 30
0.0
 11
467.7933427983959
 21
840.7496912264036
 31
0.0
  0
LINE
  5
4B2
330
1F
100
AcDbEntity
  8
D-2
  6
Continuous
 62
     3
370
     9
100
AcDbLine
 10
427.7958350843403
 20
864.058670674098
 30
0.0
 11
467.7929847065184
 21
830.4955933513968
 31
0.0
  0
LINE
  5
4B3
330
1F
100
AcDbEntity
  8
D-2
  6
Continuous
 62
     3
370
     9
100
AcDbLine
 10
427.7958350843403
 20
853.8042723110452
 30
0.0
 11
467.7926266146403
 21
820.2414954763906
 31
0.0
  0
LINE
  5
4B4
330
1F
100
AcDbEntity
  8
D-2
  6
Continuous
 62
     3
370
     9
100
AcDbLine
 10
427.7961931762184
 20
884.5671669121582
 30
0.0
 11
467.7937008902734
 21
851.0037891014098
 31
0.0
  0
LINE
  5
4B5
330
1F
100
AcDbEntity
  8
D-2
  6
Continuous
 62
     3
370
     9
100
AcDbLine
 10
427.7933284411927
 20
858.9328687085247
 30
0.0
 11
467.7929847065184
 21
892.4965289211359
 31
0.0
  0
LINE
  5
4B6
330
1F
100
AcDbEntity
  8
D-2
  6
Continuous
 62
     3
370
     9
100
AcDbLine
 10
427.7965512680959
 20
894.8212647871644
 30
0.0
 11
467.7940589821515
 21
861.257886976416
 31
0.0
  0
LINE
  5
4B7
330
1F
100
AcDbEntity
  8
D-2
  6
Continuous
 62
     3
370
     9
100
AcDbLine
 10
427.7936865330702
 20
869.1869665835309
 30
0.0
 11
467.7933427983959
 21
902.7506267961421
 31
0.0
  0
LINE
  5
4B8
330
1F
100
AcDbEntity
  8
D-2
  6
Continuous
 62
     3
370
     9
100
AcDbLine
 10
427.7969093599734
 20
905.0753626621706
 30
0.0
 11
467.794417074029
 21
871.5119848514228
 31
0.0
  0
LINE
  5
4B9
330
1F
100
AcDbEntity
  8
D-2
  6
Continuous
 62
     3
370
     9
100
AcDbLine
 10
427.7940446249477
 20
879.4410644585371
 30
0.0
 11
467.7937008902734
 21
913.0047246711489
 31
0.0
  0
LINE
  5
4BA
330
1F
100
AcDbEntity
  8
D-2
  6
Continuous
 62
     3
370
     9
100
AcDbLine
 10
427.7972674518514
 20
915.3294605371768
 30
0.0
 11
467.7947751659065
 21
881.766082726429
 31
0.0
  0
LINE
  5
4BB
330
1F
100
AcDbEntity
  8
D-2
  6
Continuous
 62
     3
370
     9
100
AcDbLine
 10
427.7944027168257
 20
889.6951623335433
 30
0.0
 11
467.7940589821515
 21
923.2588225461551
 31
0.0
  0
LINE
  5
4BC
330
1F
100
AcDbEntity
  8
D-2
  6
Continuous
 62
     3
370
     9
100
AcDbLine
 10
427.7976255437289
 20
925.583558412183
 30
0.0
 11
467.795133257784
 21
892.0201806014352
 31
0.0
  0
LINE
  5
4BD
330
1F
100
AcDbEntity
  8
D-2
  6
Continuous
 62
     3
370
     9
100
AcDbLine
 10
427.7947608087032
 20
899.9492602085495
 30
0.0
 11
467.794417074029
 21
933.5129204211613
 31
0.0
  0
LINE
  5
4BE
330
1F
100
AcDbEntity
  8
D-2
  6
Continuous
 62
     3
370
     9
100
AcDbLine
 10
427.7979836356064
 20
935.8376562871898
 30
0.0
 11
467.7954913496615
 21
902.2742784764414
 31
0.0
  0
LINE
  5
4BF
330
1F
100
AcDbEntity
  8
D-2
  6
Continuous
 62
     3
370
     9
100
AcDbLine
 10
427.7951189005807
 20
910.2033580835563
 30
0.0
 11
467.7947751659065
 21
943.7670182961681
 31
0.0
  0
LINE
  5
4C0
330
1F
100
AcDbEntity
  8
D-2
  6
Continuous
 62
     3
370
     9
100
AcDbLine
 10
427.7983417274839
 20
946.091754162196
 30
0.0
 11
467.7958494415395
 21
912.5283763514476
 31
0.0
  0
LINE
  5
4C1
330
1F
100
AcDbEntity
  8
D-2
  6
Continuous
 62
     3
370
     9
100
AcDbLine
 10
427.7954769924588
 20
920.4574559585625
 30
0.0
 11
467.795133257784
 21
954.0211161711743
 31
0.0
  0
LINE
  5
4C2
330
1F
100
AcDbEntity
  8
D-2
  6
Continuous
 62
     3
370
     9
100
AcDbLine
 10
427.7986998193614
 20
956.3458520372022
 30
0.0
 11
467.796207533417
 21
922.7824742264544
 31
0.0
  0
LINE
  5
4C3
330
1F
100
AcDbEntity
  8
D-2
  6
Continuous
 62
     3
370
     9
100
AcDbLine
 10
427.7958350843363
 20
930.7115538335687
 30
0.0
 11
467.7954913496615
 21
964.2752140461805
 31
0.0
  0
LINE
  5
4C4
330
1F
100
AcDbEntity
  8
D-2
  6
Continuous
 62
     3
370
     9
100
AcDbLine
 10
427.7990579112395
 20
966.599949912209
 30
0.0
 11
467.7965656252945
 21
933.0365721014606
 31
0.0
  0
LINE
  5
4C5
330
1F
100
AcDbEntity
  8
D-2
  6
Continuous
 62
     3
370
     9
100
AcDbLine
 10
427.7961931762138
 20
940.9656517085755
 30
0.0
 11
467.7958494415395
 21
974.5293119211867
 31
0.0
  0
LINE
  5
4C6
330
1F
100
AcDbEntity
  8
D-2
  6
Continuous
 62
     3
370
     9
100
AcDbLine
 10
427.799416003117
 20
976.8540477872152
 30
0.0
 11
467.7969237171726
 21
943.2906699764668
 31
0.0
  0
LINE
  5
4C7
330
1F
100
AcDbEntity
  8
D-2
  6
Continuous
 62
     3
370
     9
100
AcDbLine
 10
427.7965512680913
 20
951.2197495835817
 30
0.0
 11
467.796207533417
 21
984.7834097961929
 31
0.0
  0
LINE
  5
4C8
330
1F
100
AcDbEntity
  8
D-2
  6
Continuous
 62
     3
370
     9
100
AcDbLine
 10
427.7997740949945
 20
987.1081456622214
 30
0.0
 11
467.7972818090501
 21
953.5447678514736
 31
0.0
  0
LINE
  5
4C9
330
1F
100
AcDbEntity
  8
D-2
  6
Continuous
 62
     3
370
     9
100
AcDbLine
 10
427.7969093599688
 20
961.4738474585879
 30
0.0
 11
467.7965656252945
 21
995.0375076711997
 31
0.0
  0
LINE
  5
4CA
330
1F
100
AcDbEntity
  8
D-2
  6
Continuous
 62
     3
370
     9
100
AcDbLine
 10
427.8001321868726
 20
997.3622435372276
 30
0.0
 11
467.7976399009276
 21
963.7988657264798
 31
0.0
  0
LINE
  5
4CB
330
1F
100
AcDbEntity
  8
D-2
  6
Continuous
 62
     3
370
     9
100
AcDbLine
 10
427.7972674518469
 20
971.7279453335941
 30
0.0
 11
467.7969237171726
 21
1005.291605546206
 31
0.0
  0
LINE
  5
4CC
330
1F
100
AcDbEntity
  8
D-2
  6
Continuous
 62
     3
370
     9
100
AcDbLine
 10
427.8004902787501
 20
1007.616341412234
 30
0.0
 11
467.7979979928051
 21
974.052963601486
 31
0.0
  0
LINE
  5
4CD
330
1F
100
AcDbEntity
  8
D-2
  6
Continuous
 62
     3
370
     9
100
AcDbLine
 10
427.7976255437244
 20
981.9820432086003
 30
0.0
 11
467.7972818090501
 21
1015.545703421212
 31
0.0
  0
LINE
  5
4CE
330
1F
100
AcDbEntity
  8
D-2
  6
Continuous
 62
     3
370
     9
100
AcDbLine
 10
427.8008483706276
 20
1017.870439287241
 30
0.0
 11
467.7983560846826
 21
984.3070614764922
 31
0.0
  0
LINE
  5
4CF
330
1F
100
AcDbEntity
  8
D-2
  6
Continuous
 62
     3
370
     9
100
AcDbLine
 10
427.7979836356019
 20
992.2361410836071
 30
0.0
 11
467.7976399009276
 21
1025.799801296219
 31
0.0
  0
LINE
  5
4D0
330
1F
100
AcDbEntity
  8
D-2
  6
Continuous
 62
     3
370
     9
100
AcDbLine
 10
427.8012064625051
 20
1028.124537162247
 30
0.0
 11
467.7987141765607
 21
994.5611593514984
 31
0.0
  0
LINE
  5
4D1
330
1F
100
AcDbEntity
  8
D-2
  6
Continuous
 62
     3
370
     9
100
AcDbLine
 10
427.79834172748
 20
1002.490238958613
 30
0.0
 11
467.7979979928051
 21
1036.053899171225
 31
0.0
  0
LINE
  5
4D2
330
1F
100
AcDbEntity
  8
D-2
  6
Continuous
 62
     3
370
     9
100
AcDbLine
 10
427.8015645543826
 20
1038.378635037253
 30
0.0
 11
467.7990722684382
 21
1004.815257226505
 31
0.0
  0
LINE
  5
4D3
330
1F
100
AcDbEntity
  8
D-2
  6
Continuous
 62
     3
370
     9
100
AcDbLine
 10
464.4450856990488
 20
1038.392905636241
 30
0.0
 11
467.8001465440713
 21
1035.577550851524
 31
0.0
  0
LINE
  5
4D4
330
1F
100
AcDbEntity
  8
D-2
  6
Continuous
 62
     3
370
     9
100
AcDbLine
 10
427.7986998193575
 20
1012.74433683362
 30
0.0
 11
458.3655071730118
 21
1038.392905636241
 31
0.0
  0
LINE
  5
4D5
330
1F
100
AcDbEntity
  8
D-2
  6
Continuous
 62
     3
370
     9
100
AcDbLine
 10
452.2249098889171
 20
1038.392905636241
 30
0.0
 11
467.7997884521938
 21
1025.323452976518
 31
0.0
  0
LINE
  5
4D6
330
1F
100
AcDbEntity
  8
D-2
  6
Continuous
 62
     3
370
     9
100
AcDbLine
 10
427.799057911235
 20
1022.998434708626
 30
0.0
 11
446.1454939551732
 21
1038.392905636241
 31
0.0
  0
LINE
  5
4D7
330
1F
100
AcDbEntity
  8
D-2
  6
Continuous
 62
     3
370
     9
100
AcDbLine
 10
440.0047340787853
 20
1038.392905636241
 30
0.0
 11
467.7994303603157
 21
1015.069355101511
 31
0.0
  0
LINE
  5
4D8
330
1F
100
AcDbEntity
  8
D-2
  6
Continuous
 62
     3
370
     9
100
AcDbLine
 10
427.7994160031125
 20
1033.252532583633
 30
0.0
 11
433.9254807373345
 21
1038.392905636241
 31
0.0
  0
TEXT
  5
4D9
330
1F
100
AcDbEntity
  8
D-5
  6
Continuous
 62
     7
370
     9
100
AcDbText
 10
607.8673235056056
 20
871.9235338747767
 30
0.0
 40
22.86
  1
ローレット模様
 41
1.142857142857143
  7
ＭＳ ゴシック
100
AcDbText
  0
LINE
  5
4DA
330
1F
100
AcDbEntity
  8
D-5
  6
Continuous
 62
     7
370
     9
100
AcDbLine
 10
607.8673235056056
 20
862.6935338747767
 30
0.0
 11
846.7845518219804
 21
862.6935338747767
 31
0.0
  0
LINE
  5
4DB
330
1F
100
AcDbEntity
  8
D-5
  6
Continuous
 62
     7
370
     9
100
AcDbLine
 10
552.6951010128676
 20
807.5213113820387
 30
0.0
 11
607.8673235056056
 21
862.6935338747767
 31
0.0
  0
LINE
  5
4DC
330
1F
100
AcDbEntity
  8
D-5
  6
Continuous
 62
     7
370
     9
100
AcDbLine
 10
552.6951010128676
 20
807.5213113820387
 30
0.0
 11
572.5289345201486
 21
822.7403471072568
 31
0.0
  0
LINE
  5
4DD
330
1F
100
AcDbEntity
  8
D-5
  6
Continuous
 62
     7
370
     9
100
AcDbLine
 10
552.6951010128676
 20
807.5213113820387
 30
0.0
 11
567.9141367380862
 21
827.3551448893191
 31
0.0
  0
LINE
  5
4DE
330
1F
100
AcDbEntity
  8
D-0
  6
Continuous
 62
     3
370
     9
100
AcDbLine
 10
1456.718942971165
 20
204.4209822925308
 30
0.0
 11
1441.718893483201
 21
204.4209822925308
 31
0.0
  0
LINE
  5
4DF
330
1F
100
AcDbEntity
  8
D-0
  6
Continuous
 62
     3
370
     9
100
AcDbLine
 10
1441.718893483201
 20
204.4209822925308
 30
0.0
 11
890.9712793533117
 21
204.4209822925308
 31
0.0
  0
LINE
  5
4E0
330
1F
100
AcDbEntity
  8
D-0
  6
Continuous
 62
     3
370
     9
100
AcDbLine
 10
1456.718942971165
 20
279.4212297323531
 30
0.0
 11
1456.718942971165
 21
204.4209822925308
 31
0.0
  0
LINE
  5
4E1
330
1F
100
AcDbEntity
  8
D-0
  6
Continuous
 62
     3
370
     9
100
AcDbLine
 10
1441.718893483201
 20
279.4212297323531
 30
0.0
 11
1441.718893483201
 21
204.4209822925308
 31
0.0
  0
LINE
  5
4E2
330
1F
100
AcDbEntity
  8
D-0
  6
Continuous
 62
     3
370
     9
100
AcDbLine
 10
1441.718893483201
 20
279.4212297323531
 30
0.0
 11
1456.718942971165
 21
279.4212297323531
 31
0.0
  0
LINE
  5
4E3
330
1F
100
AcDbEntity
  8
D-0
  6
Continuous
 62
     3
370
     9
100
AcDbLine
 10
890.9712793533117
 20
272.4211571500052
 30
0.0
 11
1441.718893483201
 21
272.4211571500052
 31
0.0
  0
LINE
  5
4E4
330
1F
100
AcDbEntity
  8
D-0
  6
Continuous
 62
     3
370
     9
100
AcDbLine
 10
1441.718893483201
 20
279.4212297323531
 30
0.0
 11
890.9712793533117
 21
279.4212297323531
 31
0.0
  0
TEXT
  5
4E5
330
1F
100
AcDbEntity
  8
D-5
  6
Continuous
 62
     7
370
     9
100
AcDbText
 10
1525.637125461489
 20
357.5694122226764
 30
0.0
 40
22.86
  1
サイドバー
 41
1.133333333333333
  7
ＭＳ ゴシック
100
AcDbText
  0
LINE
  5
4E6
330
1F
100
AcDbEntity
  8
D-5
  6
Continuous
 62
     7
370
     9
100
AcDbLine
 10
1525.637125461489
 20
348.3394122226764
 30
0.0
 11
1695.682767403964
 21
348.3394122226764
 31
0.0
  0
LINE
  5
4E7
330
1F
100
AcDbEntity
  8
D-5
  6
Continuous
 62
     7
370
     9
100
AcDbLine
 10
1456.718942971165
 20
279.4212297323531
 30
0.0
 11
1525.637125461489
 21
348.3394122226764
 31
0.0
  0
LINE
  5
4E8
330
1F
100
AcDbEntity
  8
D-5
  6
Continuous
 62
     7
370
     9
100
AcDbLine
 10
1456.718942971165
 20
279.4212297323531
 30
0.0
 11
1471.937978696383
 21
299.2550632396342
 31
0.0
  0
LINE
  5
4E9
330
1F
100
AcDbEntity
  8
D-5
  6
Continuous
 62
     7
370
     9
100
AcDbLine
 10
1456.718942971165
 20
279.4212297323531
 30
0.0
 11
1476.552776478447
 21
294.6402654575712
 31
0.0
  0
LINE
  5
4EA
330
1F
100
AcDbEntity
  8
D-5
  6
Continuous
 62
     7
370
     9
100
AcDbLine
 10
1074.12152351721
 20
-9.331574778092033
 30
0.0
 11
1271.04164523154
 21
-9.331574778092033
 31
0.0
  0
TEXT
  5
4EB
330
1F
100
AcDbEntity
  8
D-5
  6
Continuous
 62
     2
370
     9
100
AcDbText
 10
1076.358637950102
 20
11.30842522190797
 30
0.0
 40
30.48
  1
C-C断面図
 41
1.097222222222219
  7
ＭＳ ゴシック
100
AcDbText
  0
TEXT
  5
4EC
330
1F
100
AcDbEntity
  8
D-4
  6
Continuous
 62
     2
370
   211
100
AcDbText
 10
890.9711328689366
 20
386.8740607735874
 30
0.0
 40
30.48
  1
100
 41
1.083333333333333
  7
ＭＳ ゴシック
100
AcDbText
  0
LINE
  5
4ED
330
1F
100
AcDbEntity
  8
D-2
  6
Continuous
 62
     3
370
     9
100
AcDbLine
 10
1086.896621259805
 20
226.4213122122939
 30
0.0
 11
1094.21848933149
 21
226.4213122122939
 31
0.0
  0
LINE
  5
4EE
330
1F
100
AcDbEntity
  8
D-2
  6
Continuous
 62
     3
370
     9
100
AcDbLine
 10
1094.21848933149
 20
233.7439226034471
 30
0.0
 11
1094.21848933149
 21
226.4213122122939
 31
0.0
  0
LINE
  5
4EF
330
1F
100
AcDbEntity
  8
D-2
  6
Continuous
 62
     3
370
     9
100
AcDbLine
 10
1099.396538779863
 20
238.9212297323533
 30
0.0
 11
1081.718571811431
 21
221.2440050833877
 31
0.0
  0
LINE
  5
4F0
330
1F
100
AcDbEntity
  8
D-2
  6
Continuous
 62
     3
370
     9
100
AcDbLine
 10
1081.718942971164
 20
256.5991967007864
 30
0.0
 11
1099.396538779863
 21
238.9212297323533
 31
0.0
  0
LINE
  5
4F1
330
1F
100
AcDbEntity
  8
D-2
  6
Continuous
 62
     3
370
     9
100
AcDbLine
 10
1094.21848933149
 20
251.4218895718801
 30
0.0
 11
1094.21848933149
 21
244.0996503404611
 31
0.0
  0
LINE
  5
4F2
330
1F
100
AcDbEntity
  8
D-2
  6
Continuous
 62
     3
370
     9
100
AcDbLine
 10
1086.896621259805
 20
251.4218895718801
 30
0.0
 11
1094.21848933149
 21
251.4218895718801
 31
0.0
  0
LINE
  5
4F3
330
1F
100
AcDbEntity
  8
D-2
  6
Continuous
 62
     3
370
     9
100
AcDbLine
 10
1064.040976002731
 20
238.9212297323533
 30
0.0
 11
1081.718942971164
 21
256.5991967007864
 31
0.0
  0
LINE
  5
4F4
330
1F
100
AcDbEntity
  8
D-2
  6
Continuous
 62
     3
370
     9
100
AcDbLine
 10
1069.218654291371
 20
251.4218895718801
 30
0.0
 11
1076.541635842258
 21
251.4218895718801
 31
0.0
  0
LINE
  5
4F5
330
1F
100
AcDbEntity
  8
D-2
  6
Continuous
 62
     3
370
     9
100
AcDbLine
 10
1069.218654291371
 20
251.4218895718801
 30
0.0
 11
1069.218654291371
 21
244.0992791807273
 31
0.0
  0
LINE
  5
4F6
330
1F
100
AcDbEntity
  8
D-2
  6
Continuous
 62
     3
370
     9
100
AcDbLine
 10
1081.718571811431
 20
221.2440050833877
 30
0.0
 11
1064.040976002731
 21
238.9212297323533
 31
0.0
  0
LINE
  5
4F7
330
1F
100
AcDbEntity
  8
D-2
  6
Continuous
 62
     3
370
     9
100
AcDbLine
 10
1069.218654291371
 20
233.7439226034471
 30
0.0
 11
1069.218654291371
 21
226.4213122122939
 31
0.0
  0
LINE
  5
4F8
330
1F
100
AcDbEntity
  8
D-2
  6
Continuous
 62
     3
370
     9
100
AcDbLine
 10
1069.218654291371
 20
226.4213122122939
 30
0.0
 11
1076.54089352279
 21
226.4213122122939
 31
0.0
  0
LINE
  5
4F9
330
1F
100
AcDbEntity
  8
D-2
  6
JWW_CENTER1
 62
     3
370
     9
100
AcDbLine
 10
1108.226428850598
 20
238.9212297323533
 30
0.0
 11
1055.211085931996
 21
238.9212297323533
 31
0.0
  0
LINE
  5
4FA
330
1F
100
AcDbEntity
  8
D-2
  6
JWW_CENTER1
 62
     3
370
     9
100
AcDbLine
 10
1081.718942971164
 20
212.414115012653
 30
0.0
 11
1081.718942971164
 21
265.4294579312551
 31
0.0
  0
LINE
  5
4FB
330
1F
100
AcDbEntity
  8
D-5
  6
Continuous
 62
     7
370
     9
100
AcDbLine
 10
1072.879773907081
 20
230.0826174078705
 30
0.0
 11
1057.660738181863
 21
210.2487839005897
 31
0.0
  0
LINE
  5
4FC
330
1F
100
AcDbEntity
  8
D-5
  6
Continuous
 62
     7
370
     9
100
AcDbLine
 10
1072.879773907081
 20
230.0826174078705
 30
0.0
 11
954.1739566445347
 21
111.3768001453238
 31
0.0
  0
LINE
  5
4FD
330
1F
100
AcDbEntity
  8
D-5
  6
Continuous
 62
     7
370
     9
100
AcDbLine
 10
1072.879773907081
 20
230.0826174078705
 30
0.0
 11
1053.0459403998
 21
214.8635816826524
 31
0.0
  0
LINE
  5
4FE
330
1F
100
AcDbEntity
  8
D-5
  6
Continuous
 62
     7
370
     9
100
AcDbLine
 10
782.8661660237026
 20
111.3768001453238
 30
0.0
 11
954.1739566445347
 21
111.3768001453238
 31
0.0
  0
TEXT
  5
4FF
330
1F
100
AcDbEntity
  8
D-5
  6
Continuous
 62
     7
370
     9
100
AcDbText
 10
784.8577879288769
 20
120.6068001453238
 30
0.0
 40
22.86
  1
クロスバー
 41
1.133333333333333
  7
ＭＳ ゴシック
100
AcDbText
  0
TEXT
  5
500
330
1F
100
AcDbEntity
  8
D-5
  6
Continuous
 62
     2
370
     9
100
AcDbText
 10
647.8767167763067
 20
538.5574122894653
 30
0.0
 40
30.48
  1
B
 41
0.9999999999999998
  7
ＭＳ ゴシック
100
AcDbText
  0
LINE
  5
501
330
1F
100
AcDbEntity
  8
D-5
  6
Continuous
 62
     4
370
     9
100
AcDbLine
 10
657.8767167763067
 20
628.8521120237081
 30
0.0
 11
657.8767167763067
 21
579.6027193407662
 31
0.0
  0
LINE
  5
502
330
1F
100
AcDbEntity
  8
D-5
  6
Continuous
 62
     4
370
     9
100
AcDbLine
 10
657.8767167763067
 20
628.8521120237081
 30
0.0
 11
661.1398715818086
 21
604.065990489363
 31
0.0
  0
LINE
  5
503
330
1F
100
AcDbEntity
  8
D-5
  6
Continuous
 62
     4
370
     9
100
AcDbLine
 10
657.8767167763067
 20
628.8521120237081
 30
0.0
 11
654.6135619708059
 21
604.065990489363
 31
0.0
  0
TEXT
  5
504
330
1F
100
AcDbEntity
  8
D-5
  6
Continuous
 62
     7
370
     9
100
AcDbText
 10
-705.5862310284042
 20
-600.4026994372978
 30
0.0
 40
22.86
  1
差筋φ9程度
 41
1.136363636363636
  7
ＭＳ ゴシック
100
AcDbText
  0
TEXT
  5
505
330
1F
100
AcDbEntity
  8
D-5
  6
Continuous
 62
     7
370
     9
100
AcDbText
 10
-705.5862310284047
 20
-641.6261968280448
 30
0.0
 40
22.86
  1
＠500
 41
1.133333333333341
  7
ＭＳ ゴシック
100
AcDbText
  0
LINE
  5
506
330
1F
100
AcDbEntity
  8
D-5
  6
Continuous
 62
     7
370
     9
100
AcDbLine
 10
-706.0281827801132
 20
-612.096440739788
 30
0.0
 11
-517.7039724172935
 21
-612.096440739788
 31
0.0
  0
LINE
  5
507
330
1F
100
AcDbEntity
  8
D-5
  6
Continuous
 62
     7
370
     9
100
AcDbLine
 10
-869.8706246014488
 20
-448.2539989184527
 30
0.0
 11
-706.0281827801132
 21
-612.096440739788
 31
0.0
  0
LINE
  5
508
330
1F
100
AcDbEntity
  8
D-5
  6
Continuous
 62
     7
370
     9
100
AcDbLine
 10
-869.8706246014488
 20
-448.2539989184527
 30
0.0
 11
-854.6515888762306
 21
-468.0878324257337
 31
0.0
  0
LINE
  5
509
330
1F
100
AcDbEntity
  8
D-5
  6
Continuous
 62
     7
370
     9
100
AcDbLine
 10
-869.8706246014488
 20
-448.2539989184527
 30
0.0
 11
-850.0367910941677
 21
-463.4730346436708
 31
0.0
  0
TEXT
  5
50A
330
1F
100
AcDbEntity
  8
D-5
  6
Continuous
 62
     7
370
     9
100
AcDbText
 10
-852.2736792959656
 20
2.466530046875927
 30
0.0
 40
22.86
  1
グレーチング（すきま６㎜）ＺＱｰＨ-１５
 50
0.00003714194476
 41
1.157894736842105
  7
ＭＳ ゴシック
100
AcDbText
  0
TEXT
  5
50B
330
1F
100
AcDbEntity
  8
D-5
  6
Continuous
 62
     7
370
     9
100
AcDbText
 10
-852.2736765538713
 20
35.17164631884947
 30
0.0
 40
22.86
  1
ステンレス製　細目ノンスリップタイプ（ローレット模様）
 41
1.160493827160494
  7
ＭＳ ゴシック
100
AcDbText
  0
TEXT
  5
50C
330
1F
100
AcDbEntity
  8
D-5
  6
Continuous
 62
     7
370
     9
100
AcDbText
 10
-809.8650415719834
 20
-61.53682307201966
 30
0.0
 40
22.86
  1
ステンレス製受枠ＳＦ１５Ｂ
 41
1.153846153846154
  7
ＭＳ ゴシック
100
AcDbText
  0
TEXT
  5
50D
330
1F
100
AcDbEntity
  8
D-5
  6
Continuous
 62
     7
370
     9
100
AcDbText
 10
-769.1924421621984
 20
-172.5830145582936
 30
0.0
 40
22.86
  1
（軟質塩化ビニル）
 41
1.148148148148148
  7
ＭＳ ゴシック
100
AcDbText
  0
TEXT
  5
50E
330
1F
100
AcDbEntity
  8
D-5
  6
Continuous
 62
     7
370
     9
100
AcDbText
 10
-769.1924421621984
 20
-126.9786371804681
 30
0.0
 40
22.86
  1
クッション材
 41
1.138888888888889
  7
ＭＳ ゴシック
100
AcDbText
  0
TEXT
  5
50F
330
1F
100
AcDbEntity
  8
D-5
  6
Continuous
 62
     2
370
     9
100
AcDbText
 10
242.696053013497
 20
-332.816733568982
 30
0.0
 40
30.48
  1
ステンレス製　細目ノンスリップタイプ（ローレット模様）
 41
1.12037037037037
  7
ＭＳ ゴシック
100
AcDbText
  0
LINE
  5
510
330
1F
100
AcDbEntity
  8
D-4
  6
Continuous
 62
     7
370
     9
100
AcDbLine
 10
-1706.04057317933
 20
-172.1170357311524
 30
0.0
 11
-1158.372182905282
 21
-172.1170357311524
 31
0.0
  0
LINE
  5
511
330
1F
100
AcDbEntity
  8
D-4
  6
Continuous
 62
     7
370
     9
100
AcDbLine
 10
-1706.04057317933
 20
47.331053868457
 30
0.0
 11
-1003.373196184243
 21
47.331053868457
 31
0.0
  0
LINE
  5
512
330
1F
100
AcDbEntity
  8
D-4
  6
Continuous
 62
     7
370
     9
100
AcDbLine
 10
-1706.04057317933
 20
-63.3646133983887
 30
0.0
 11
-967.2867203350913
 21
-63.3646133983887
 31
0.0
  0
TEXT
  5
513
330
1F
100
AcDbEntity
  8
D-4
  6
Continuous
 62
     2
370
     9
100
AcDbText
 10
-1709.004481155738
 20
-160.7424735016865
 30
0.0
 40
30.48
  1
□300
 41
1.1
  7
ＭＳ ゴシック
100
AcDbText
  0
TEXT
  5
514
330
1F
100
AcDbEntity
  8
D-4
  6
Continuous
 62
     2
370
     9
100
AcDbText
 10
-1709.004481155738
 20
-51.99032077522972
 30
0.0
 40
30.48
  1
□350
 41
1.1
  7
ＭＳ ゴシック
100
AcDbText
  0
TEXT
  5
515
330
1F
100
AcDbEntity
  8
D-4
  6
Continuous
 62
     2
370
     9
100
AcDbText
 10
-1709.004481155738
 20
58.70559547793775
 30
0.0
 40
30.48
  1
□362
 41
1.1
  7
ＭＳ ゴシック
100
AcDbText
  0
LINE
  5
516
330
1F
100
AcDbEntity
  8
D-5
  6
Continuous
 62
     7
370
     9
100
AcDbLine
 10
-857.3880926052041
 20
-9.69044901806459
 30
0.0
 11
77.04213241616515
 21
-9.69044901806459
 31
0.0
  0
LINE
  5
517
330
1F
100
AcDbEntity
  8
D-5
  6
Continuous
 62
     2
370
     9
100
AcDbLine
 10
380.4185272344003
 20
-280.5365172470368
 30
0.0
 11
155.4187561162362
 21
-280.5365172470368
 31
0.0
  0
LINE
  5
518
330
1F
100
AcDbEntity
  8
D-5
  6
Continuous
 62
     2
370
     9
100
AcDbLine
 10
380.4185272344003
 20
-230.5363539303101
 30
0.0
 11
380.4185272344003
 21
-280.5365172470368
 31
0.0
  0
LINE
  5
519
330
1F
100
AcDbEntity
  8
D-5
  6
Continuous
 62
     2
370
     9
100
AcDbLine
 10
155.4187561162362
 20
-230.5363539303101
 30
0.0
 11
380.4185272344003
 21
-230.5363539303101
 31
0.0
  0
LINE
  5
51A
330
1F
100
AcDbEntity
  8
D-5
  6
Continuous
 62
     2
370
     9
100
AcDbLine
 10
155.4187561162362
 20
-280.5365172470368
 30
0.0
 11
155.4187561162362
 21
-230.5363539303101
 31
0.0
  0
TEXT
  5
51B
330
1F
100
AcDbEntity
  8
D-5
  6
Continuous
 62
     2
370
     9
100
AcDbText
 10
202.9182983525644
 20
-269.896252602414
 30
0.0
 40
30.48
  1
仕　様
 41
1.083333333333333
  7
ＭＳ ゴシック
100
AcDbText
  0
TEXT
  5
51C
330
1F
100
AcDbEntity
  8
D-5
  6
Continuous
 62
     2
370
     9
100
AcDbText
 10
302.407967075997
 20
-462.8166620434083
 30
0.0
 40
30.48
  1
材質：メインバー　ＳＵＳ３０４　＠１４
 41
1.118421052631579
  7
ＭＳ ゴシック
100
AcDbText
  0
LINE
  5
51D
330
1F
100
AcDbEntity
  8
D-2
  6
Continuous
 62
     3
370
     9
100
AcDbLine
 10
327.8366461590895
 20
279.4212297323531
 30
0.0
 11
427.4777170006527
 21
279.4212297323531
 31
0.0
  0
LINE
  5
51E
330
1F
100
AcDbEntity
  8
D-2
  6
Continuous
 62
     3
370
     9
100
AcDbLine
 10
357.7960742761695
 20
279.4212297323531
 30
0.0
 11
357.7960742761695
 21
272.4211571500055
 31
0.0
  0
LINE
  5
51F
330
1F
100
AcDbEntity
  8
D-2
  6
Continuous
 62
     3
370
     9
100
AcDbLine
 10
397.7955876445185
 20
272.4211571500055
 30
0.0
 11
357.7960742761695
 21
272.4211571500055
 31
0.0
  0
LINE
  5
520
330
1F
100
AcDbEntity
  8
D-2
  6
Continuous
 62
     3
370
     9
100
AcDbLine
 10
397.7955876445185
 20
272.4211571500055
 30
0.0
 11
397.7955876445185
 21
279.4212297323531
 31
0.0
  0
LINE
  5
521
330
1F
100
AcDbEntity
  8
D-2
  6
Continuous
 62
     3
370
     9
100
AcDbLine
 10
374.2959802490373
 20
272.4211571500055
 30
0.0
 11
374.2959802490373
 21
204.4213534522646
 31
0.0
  0
LINE
  5
522
330
1F
100
AcDbEntity
  8
D-2
  6
Continuous
 62
     3
370
     9
100
AcDbLine
 10
381.2960528313852
 20
272.4211571500055
 30
0.0
 11
381.2960528313852
 21
204.4213534522646
 31
0.0
  0
ARC
  5
523
330
1F
100
AcDbEntity
  8
D-2
  6
Continuous
 62
     3
370
     9
100
AcDbCircle
 10
386.2960528313852
 20
267.4211571500055
 30
0.0
 40
5.0
100
AcDbArc
 50
90.0
 51
180.0
  0
ARC
  5
524
330
1F
100
AcDbEntity
  8
D-2
  6
Continuous
 62
     3
370
     9
100
AcDbCircle
 10
369.2959802490373
 20
267.4211571500055
 30
0.0
 40
5.0
100
AcDbArc
 50
0.0
 51
90.0
  0
LINE
  5
525
330
1F
100
AcDbEntity
  8
D-2
  6
Continuous
 62
     3
370
     9
100
AcDbLine
 10
444.2954936173862
 20
256.5991967007864
 30
0.0
 11
381.2960528313852
 21
256.5991967007864
 31
0.0
  0
LINE
  5
526
330
1F
100
AcDbEntity
  8
D-2
  6
Continuous
 62
     3
370
     9
100
AcDbLine
 10
444.2954936173862
 20
238.9212297323533
 30
0.0
 11
381.2960528313852
 21
238.9212297323533
 31
0.0
  0
LINE
  5
527
330
1F
100
AcDbEntity
  8
D-2
  6
Continuous
 62
     3
370
     9
100
AcDbLine
 10
444.2954936173862
 20
221.2436339236535
 30
0.0
 11
381.2960528313852
 21
221.2436339236535
 31
0.0
  0
LINE
  5
528
330
1F
100
AcDbEntity
  8
D-2
  6
Continuous
 62
     3
370
     9
100
AcDbLine
 10
374.2959802490373
 20
221.2436339236535
 30
0.0
 11
327.8366461590895
 21
221.2436339236535
 31
0.0
  0
LINE
  5
529
330
1F
100
AcDbEntity
  8
D-2
  6
Continuous
 62
     3
370
     9
100
AcDbLine
 10
374.2959802490373
 20
238.9212297323533
 30
0.0
 11
327.8366461590895
 21
238.9212297323533
 31
0.0
  0
LINE
  5
52A
330
1F
100
AcDbEntity
  8
D-2
  6
Continuous
 62
     3
370
     9
100
AcDbLine
 10
374.2959802490373
 20
256.5991967007864
 30
0.0
 11
327.8366461590895
 21
256.5991967007864
 31
0.0
  0
LINE
  5
52B
330
1F
100
AcDbEntity
  8
D-2
  6
Continuous
 62
     3
370
     9
100
AcDbLine
 10
497.7951010128675
 20
279.4212297323531
 30
0.0
 11
497.7951010128675
 21
272.4211571500055
 31
0.0
  0
LINE
  5
52C
330
1F
100
AcDbEntity
  8
D-2
  6
Continuous
 62
     3
370
     9
100
AcDbLine
 10
537.7946143812164
 20
272.4211571500055
 30
0.0
 11
497.7951010128675
 21
272.4211571500055
 31
0.0
  0
LINE
  5
52D
330
1F
100
AcDbEntity
  8
D-2
  6
Continuous
 62
     3
370
     9
100
AcDbLine
 10
537.7946143812164
 20
272.4211571500055
 30
0.0
 11
537.7946143812164
 21
279.4212297323531
 31
0.0
  0
LINE
  5
52E
330
1F
100
AcDbEntity
  8
D-2
  6
Continuous
 62
     3
370
     9
100
AcDbLine
 10
514.2950069857352
 20
272.4211571500055
 30
0.0
 11
514.2950069857352
 21
204.4213534522646
 31
0.0
  0
LINE
  5
52F
330
1F
100
AcDbEntity
  8
D-2
  6
Continuous
 62
     3
370
     9
100
AcDbLine
 10
521.2950795680831
 20
272.4211571500055
 30
0.0
 11
521.2950795680831
 21
204.4213534522646
 31
0.0
  0
ARC
  5
530
330
1F
100
AcDbEntity
  8
D-2
  6
Continuous
 62
     3
370
     9
100
AcDbCircle
 10
509.2950069857352
 20
267.4211571500055
 30
0.0
 40
5.0
100
AcDbArc
 50
0.0
 51
90.0
  0
ARC
  5
531
330
1F
100
AcDbEntity
  8
D-2
  6
Continuous
 62
     3
370
     9
100
AcDbCircle
 10
526.2950795680831
 20
267.4211571500055
 30
0.0
 40
5.0
100
AcDbArc
 50
90.0
 51
180.0
  0
LINE
  5
532
330
1F
100
AcDbEntity
  8
D-2
  6
Continuous
 62
     3
370
     9
100
AcDbLine
 10
514.2950069857352
 20
221.2436339236535
 30
0.0
 11
451.2955661997341
 21
221.2436339236535
 31
0.0
  0
LINE
  5
533
330
1F
100
AcDbEntity
  8
D-2
  6
Continuous
 62
     3
370
     9
100
AcDbLine
 10
514.2950069857352
 20
238.9212297323533
 30
0.0
 11
451.2955661997341
 21
238.9212297323533
 31
0.0
  0
LINE
  5
534
330
1F
100
AcDbEntity
  8
D-2
  6
Continuous
 62
     3
370
     9
100
AcDbLine
 10
514.2950069857352
 20
256.5991967007864
 30
0.0
 11
451.2955661997341
 21
256.5991967007864
 31
0.0
  0
LINE
  5
535
330
1F
100
AcDbEntity
  8
D-2
  6
Continuous
 62
     3
370
     9
100
AcDbLine
 10
521.2950795680831
 20
256.5991967007864
 30
0.0
 11
567.7954556766122
 21
256.5991967007864
 31
0.0
  0
LINE
  5
536
330
1F
100
AcDbEntity
  8
D-2
  6
Continuous
 62
     3
370
     9
100
AcDbLine
 10
521.2950795680831
 20
238.9212297323533
 30
0.0
 11
567.7954556766122
 21
238.9212297323533
 31
0.0
  0
LINE
  5
537
330
1F
100
AcDbEntity
  8
D-2
  6
Continuous
 62
     3
370
     9
100
AcDbLine
 10
521.2950795680831
 20
221.2436339236535
 30
0.0
 11
567.7954556766122
 21
221.2436339236535
 31
0.0
  0
LINE
  5
538
330
1F
100
AcDbEntity
  8
D-4
  6
Continuous
 62
     7
370
     9
100
AcDbLine
 10
357.7960742761695
 20
375.3882878870536
 30
0.0
 11
397.7955876445185
 21
375.3882878870536
 31
0.0
  0
LWPOLYLINE
  5
539
330
1F
100
AcDbEntity
  8
D-4
  6
Continuous
 62
     7
370
     9
100
AcDbPolyline
 90
        4
 70
     1
 43
1.0
 10
358.2960742761695
 20
375.3882878870536
 42
0.4142135623731
 10
357.7960742761695
 20
375.8882878870536
 42
0.4142135623731
 10
357.2960742761695
 20
375.3882878870536
 42
0.4142135623731
 10
357.7960742761695
 20
374.8882878870536
 42
0.4142135623731
  0
LWPOLYLINE
  5
53A
330
1F
100
AcDbEntity
  8
D-4
  6
Continuous
 62
     7
370
     9
100
AcDbPolyline
 90
        4
 70
     1
 43
1.0
 10
398.2955876445185
 20
375.3882878870536
 42
0.4142135623731
 10
397.7955876445185
 20
375.8882878870536
 42
0.4142135623731
 10
397.2955876445185
 20
375.3882878870536
 42
0.4142135623731
 10
397.7955876445185
 20
374.8882878870536
 42
0.4142135623731
  0
LINE
  5
53B
330
1F
100
AcDbEntity
  8
D-4
  6
Continuous
 62
     7
370
     9
100
AcDbLine
 10
357.7960742761695
 20
378.3882878870536
 30
0.0
 11
357.7960742761695
 21
299.4212297323531
 31
0.0
  0
LINE
  5
53C
330
1F
100
AcDbEntity
  8
D-4
  6
Continuous
 62
     7
370
     9
100
AcDbLine
 10
397.7955876445185
 20
378.3882878870536
 30
0.0
 11
397.7955876445185
 21
299.4212297323531
 31
0.0
  0
TEXT
  5
53D
330
1F
100
AcDbEntity
  8
D-4
  6
Continuous
 62
     2
370
   211
100
AcDbText
 10
367.795830960344
 20
387.0282878870536
 30
0.0
 40
30.48
  1
8
 41
0.9999999999999998
  7
ＭＳ ゴシック
100
AcDbText
  0
LINE
  5
53E
330
1F
100
AcDbEntity
  8
D-4
  6
Continuous
 62
     7
370
     9
100
AcDbLine
 10
397.7955876445185
 20
375.3882878870536
 30
0.0
 11
427.7955876445185
 21
375.3882878870536
 31
0.0
  0
LWPOLYLINE
  5
53F
330
1F
100
AcDbEntity
  8
D-4
  6
Continuous
 62
     7
370
     9
100
AcDbPolyline
 90
        4
 70
     1
 43
1.0
 10
428.2955876445185
 20
375.3882878870536
 42
0.4142135623731
 10
427.7955876445185
 20
375.8882878870536
 42
0.4142135623731
 10
427.2955876445185
 20
375.3882878870536
 42
0.4142135623731
 10
427.7955876445185
 20
374.8882878870536
 42
0.4142135623731
  0
LINE
  5
540
330
1F
100
AcDbEntity
  8
D-4
  6
Continuous
 62
     7
370
     9
100
AcDbLine
 10
427.7955876445185
 20
378.3882878870536
 30
0.0
 11
427.7955876445185
 21
299.4212297323531
 31
0.0
  0
TEXT
  5
541
330
1F
100
AcDbEntity
  8
D-4
  6
Continuous
 62
     2
370
   211
100
AcDbText
 10
402.7955876445185
 20
387.0282878870536
 30
0.0
 40
30.48
  1
6
 41
0.9999999999999998
  7
ＭＳ ゴシック
100
AcDbText
  0
LINE
  5
542
330
1F
100
AcDbEntity
  8
D-4
  6
Continuous
 62
     7
370
     9
100
AcDbLine
 10
427.7955876445185
 20
375.3882878870536
 30
0.0
 11
467.7951010128675
 21
375.3882878870536
 31
0.0
  0
LWPOLYLINE
  5
543
330
1F
100
AcDbEntity
  8
D-4
  6
Continuous
 62
     7
370
     9
100
AcDbPolyline
 90
        4
 70
     1
 43
1.0
 10
468.2951010128675
 20
375.3882878870536
 42
0.4142135623731
 10
467.7951010128675
 20
375.8882878870536
 42
0.4142135623731
 10
467.2951010128675
 20
375.3882878870536
 42
0.4142135623731
 10
467.7951010128675
 20
374.8882878870536
 42
0.4142135623731
  0
LINE
  5
544
330
1F
100
AcDbEntity
  8
D-4
  6
Continuous
 62
     7
370
     9
100
AcDbLine
 10
467.7951010128675
 20
378.3882878870536
 30
0.0
 11
467.7951010128675
 21
299.4212297323531
 31
0.0
  0
TEXT
  5
545
330
1F
100
AcDbEntity
  8
D-4
  6
Continuous
 62
     2
370
   211
100
AcDbText
 10
437.795344328693
 20
387.0282878870536
 30
0.0
 40
30.48
  1
8
 41
0.9999999999999998
  7
ＭＳ ゴシック
100
AcDbText
  0
LINE
  5
546
330
1F
100
AcDbEntity
  8
D-4
  6
Continuous
 62
     7
370
     9
100
AcDbLine
 10
467.7951010128675
 20
375.3882878870536
 30
0.0
 11
497.7951010128675
 21
375.3882878870536
 31
0.0
  0
LWPOLYLINE
  5
547
330
1F
100
AcDbEntity
  8
D-4
  6
Continuous
 62
     7
370
     9
100
AcDbPolyline
 90
        4
 70
     1
 43
1.0
 10
498.2951010128675
 20
375.3882878870536
 42
0.4142135623731
 10
497.7951010128675
 20
375.8882878870536
 42
0.4142135623731
 10
497.2951010128675
 20
375.3882878870536
 42
0.4142135623731
 10
497.7951010128675
 20
374.8882878870536
 42
0.4142135623731
  0
LINE
  5
548
330
1F
100
AcDbEntity
  8
D-4
  6
Continuous
 62
     7
370
     9
100
AcDbLine
 10
497.7951010128675
 20
378.3882878870536
 30
0.0
 11
497.7951010128675
 21
299.4212297323531
 31
0.0
  0
TEXT
  5
549
330
1F
100
AcDbEntity
  8
D-4
  6
Continuous
 62
     2
370
   211
100
AcDbText
 10
472.7951010128675
 20
387.0282878870536
 30
0.0
 40
30.48
  1
6
 41
0.9999999999999998
  7
ＭＳ ゴシック
100
AcDbText
  0
LINE
  5
54A
330
1F
100
AcDbEntity
  8
D-4
  6
Continuous
 62
     7
370
     9
100
AcDbLine
 10
497.7951010128675
 20
375.3882878870536
 30
0.0
 11
537.7946143812164
 21
375.3882878870536
 31
0.0
  0
LWPOLYLINE
  5
54B
330
1F
100
AcDbEntity
  8
D-4
  6
Continuous
 62
     7
370
     9
100
AcDbPolyline
 90
        4
 70
     1
 43
1.0
 10
538.2946143812164
 20
375.3882878870536
 42
0.4142135623731
 10
537.7946143812164
 20
375.8882878870536
 42
0.4142135623731
 10
537.2946143812164
 20
375.3882878870536
 42
0.4142135623731
 10
537.7946143812164
 20
374.8882878870536
 42
0.4142135623731
  0
LINE
  5
54C
330
1F
100
AcDbEntity
  8
D-4
  6
Continuous
 62
     7
370
     9
100
AcDbLine
 10
537.7946143812164
 20
378.3882878870536
 30
0.0
 11
537.7946143812164
 21
299.4212297323531
 31
0.0
  0
TEXT
  5
54D
330
1F
100
AcDbEntity
  8
D-4
  6
Continuous
 62
     2
370
   211
100
AcDbText
 10
507.7948576970419
 20
387.0282878870536
 30
0.0
 40
30.48
  1
8
 41
0.9999999999999998
  7
ＭＳ ゴシック
100
AcDbText
  0
LINE
  5
54E
330
1F
100
AcDbEntity
  8
D-A
  6
Continuous
 62
     3
370
     9
100
AcDbLine
 10
327.8336851292113
 20
696.0427076843858
 30
0.0
 11
357.7926266146414
 21
696.0427076843858
 31
0.0
  0
LINE
  5
54F
330
1F
100
AcDbEntity
  8
D-A
  6
Continuous
 62
     3
370
     9
100
AcDbLine
 10
397.7926266146403
 20
696.0427076843858
 30
0.0
 11
427.7958350843414
 21
696.0427076843858
 31
0.0
  0
LINE
  5
550
330
1F
100
AcDbEntity
  8
D-A
  6
Continuous
 62
     3
370
     9
100
AcDbLine
 10
327.8336851292113
 20
660.7427076843837
 30
0.0
 11
357.7926266146414
 21
660.7427076843837
 31
0.0
  0
LINE
  5
551
330
1F
100
AcDbEntity
  8
D-A
  6
Continuous
 62
     3
370
     9
100
AcDbLine
 10
397.7926266146403
 20
660.7427076843837
 30
0.0
 11
427.7958350843414
 21
660.7427076843837
 31
0.0
  0
LINE
  5
552
330
1F
100
AcDbEntity
  8
D-A
  6
Continuous
 62
     3
370
     9
100
AcDbLine
 10
327.8336851292113
 20
678.3927076843829
 30
0.0
 11
357.7926266146414
 21
678.3927076843829
 31
0.0
  0
LINE
  5
553
330
1F
100
AcDbEntity
  8
D-A
  6
Continuous
 62
     3
370
     9
100
AcDbLine
 10
397.7926266146403
 20
678.3927076843829
 30
0.0
 11
427.7958350843414
 21
678.3927076843829
 31
0.0
  0
LINE
  5
554
330
1F
100
AcDbEntity
  8
D-2
  6
Continuous
 62
     3
370
     9
100
AcDbLine
 10
357.7801544340639
 20
607.71186980735
 30
0.0
 11
392.7199739088371
 21
578.3925839644714
 31
0.0
  0
LINE
  5
555
330
1F
100
AcDbEntity
  8
D-2
  6
Continuous
 62
     3
370
     9
100
AcDbLine
 10
357.7797963421858
 20
597.4577719323438
 30
0.0
 11
380.4997980987048
 21
578.3925839644714
 31
0.0
  0
LINE
  5
556
330
1F
100
AcDbEntity
  8
D-2
  6
Continuous
 62
     3
370
     9
100
AcDbLine
 10
357.7794382503077
 20
587.203674057338
 30
0.0
 11
368.2796222885725
 21
578.3925839644714
 31
0.0
  0
LINE
  5
557
330
1F
100
AcDbEntity
  8
D-2
  6
Continuous
 62
     3
370
     9
100
AcDbLine
 10
390.0584681165242
 20
578.3925839644714
 30
0.0
 11
397.7926266146403
 21
584.8823064295684
 31
0.0
  0
LINE
  5
558
330
1F
100
AcDbEntity
  8
D-2
  6
Continuous
 62
     3
370
     9
100
AcDbLine
 10
357.7908217980473
 20
787.1541835834812
 30
0.0
 11
397.7926266146403
 21
820.7196466427006
 31
0.0
  0
LINE
  5
559
330
1F
100
AcDbEntity
  8
D-2
  6
Continuous
 62
     3
370
     9
100
AcDbLine
 10
357.7873162716253
 20
812.7938273074715
 30
0.0
 11
397.7926266146403
 21
779.223902024177
 31
0.0
  0
LINE
  5
55A
330
1F
100
AcDbEntity
  8
D-2
  6
Continuous
 62
     3
370
     9
100
AcDbLine
 10
357.7904637061692
 20
776.900085708475
 30
0.0
 11
397.7926266146403
 21
810.4658492421298
 31
0.0
  0
LINE
  5
55B
330
1F
100
AcDbEntity
  8
D-2
  6
Continuous
 62
     3
370
     9
100
AcDbLine
 10
357.7869581797472
 20
802.5397294324658
 30
0.0
 11
397.7926266146403
 21
768.9695036611231
 31
0.0
  0
LINE
  5
55C
330
1F
100
AcDbEntity
  8
D-2
  6
Continuous
 62
     3
370
     9
100
AcDbLine
 10
357.7901056142912
 20
766.6459878334693
 30
0.0
 11
397.7926266146403
 21
800.2120518415591
 31
0.0
  0
LINE
  5
55D
330
1F
100
AcDbEntity
  8
D-2
  6
Continuous
 62
     3
370
     9
100
AcDbLine
 10
357.7866000878691
 20
792.2856315574596
 30
0.0
 11
397.7926266146403
 21
758.7151052980697
 31
0.0
  0
LINE
  5
55E
330
1F
100
AcDbEntity
  8
D-2
  6
Continuous
 62
     3
370
     9
100
AcDbLine
 10
357.7897475224131
 20
756.3918899584631
 30
0.0
 11
397.7926266146403
 21
789.9582544409877
 31
0.0
  0
LINE
  5
55F
330
1F
100
AcDbEntity
  8
D-2
  6
Continuous
 62
     3
370
     9
100
AcDbLine
 10
357.7862419959911
 20
782.0315336824534
 30
0.0
 11
397.7926266146403
 21
748.4607069350163
 31
0.0
  0
LINE
  5
560
330
1F
100
AcDbEntity
  8
D-2
  6
Continuous
 62
     3
370
     9
100
AcDbLine
 10
357.789389430535
 20
746.1377920834569
 30
0.0
 11
397.7926266146403
 21
779.704457040417
 31
0.0
  0
LINE
  5
561
330
1F
100
AcDbEntity
  8
D-2
  6
Continuous
 62
     3
370
     9
100
AcDbLine
 10
357.785883904113
 20
771.7774358074472
 30
0.0
 11
397.7926266146403
 21
738.206308571963
 31
0.0
  0
LINE
  5
562
330
1F
100
AcDbEntity
  8
D-2
  6
Continuous
 62
     3
370
     9
100
AcDbLine
 10
357.789031338657
 20
735.8836942084507
 30
0.0
 11
397.7926266146403
 21
769.4506596398462
 31
0.0
  0
LINE
  5
563
330
1F
100
AcDbEntity
  8
D-2
  6
Continuous
 62
     3
370
     9
100
AcDbLine
 10
357.7855258122349
 20
761.5233379324416
 30
0.0
 11
397.7926266146403
 21
727.9519102089096
 31
0.0
  0
LINE
  5
564
330
1F
100
AcDbEntity
  8
D-2
  6
Continuous
 62
     3
370
     9
100
AcDbLine
 10
357.7886732467789
 20
725.6295963334451
 30
0.0
 11
397.7926266146403
 21
759.1968622392749
 31
0.0
  0
LINE
  5
565
330
1F
100
AcDbEntity
  8
D-2
  6
Continuous
 62
     3
370
     9
100
AcDbLine
 10
357.7851677203569
 20
751.2692400574354
 30
0.0
 11
397.7926266146403
 21
717.6975118458556
 31
0.0
  0
LINE
  5
566
330
1F
100
AcDbEntity
  8
D-2
  6
Continuous
 62
     3
370
     9
100
AcDbLine
 10
357.7883151549008
 20
715.3754984584389
 30
0.0
 11
397.7926266146403
 21
748.9430648387041
 31
0.0
  0
LINE
  5
567
330
1F
100
AcDbEntity
  8
D-2
  6
Continuous
 62
     3
370
     9
100
AcDbLine
 10
357.7848096284788
 20
741.0151421824291
 30
0.0
 11
397.7926266146403
 21
707.4431134828022
 31
0.0
  0
LINE
  5
568
330
1F
100
AcDbEntity
  8
D-2
  6
Continuous
 62
     3
370
     9
100
AcDbLine
 10
357.7879570630228
 20
705.1214005834327
 30
0.0
 11
397.7926266146403
 21
738.6892674381334
 31
0.0
  0
LINE
  5
569
330
1F
100
AcDbEntity
  8
D-2
  6
Continuous
 62
     3
370
     9
100
AcDbLine
 10
357.7844515366007
 20
730.7610443074229
 30
0.0
 11
397.7926266146403
 21
697.1887151197488
 31
0.0
  0
LINE
  5
56A
330
1F
100
AcDbEntity
  8
D-2
  6
Continuous
 62
     3
370
     9
100
AcDbLine
 10
357.7875989711447
 20
694.8673027084265
 30
0.0
 11
397.7926266146403
 21
728.435470037562
 31
0.0
  0
LINE
  5
56B
330
1F
100
AcDbEntity
  8
D-2
  6
Continuous
 62
     3
370
     9
100
AcDbLine
 10
357.7840934447227
 20
720.5069464324173
 30
0.0
 11
397.7926266146403
 21
686.9343167566954
 31
0.0
  0
LINE
  5
56C
330
1F
100
AcDbEntity
  8
D-2
  6
Continuous
 62
     3
370
     9
100
AcDbLine
 10
357.7872408792666
 20
684.61320483342
 30
0.0
 11
397.7926266146403
 21
718.1816726369913
 31
0.0
  0
LINE
  5
56D
330
1F
100
AcDbEntity
  8
D-2
  6
Continuous
 62
     3
370
     9
100
AcDbLine
 10
357.7837353528446
 20
710.2528485574111
 30
0.0
 11
397.7926266146403
 21
676.6799183936419
 31
0.0
  0
LINE
  5
56E
330
1F
100
AcDbEntity
  8
D-2
  6
Continuous
 62
     3
370
     9
100
AcDbLine
 10
357.7868827873885
 20
674.3591069584145
 30
0.0
 11
397.7926266146403
 21
707.9278752364199
 31
0.0
  0
LINE
  5
56F
330
1F
100
AcDbEntity
  8
D-2
  6
Continuous
 62
     3
370
     9
100
AcDbLine
 10
357.7833772609665
 20
699.9987506824049
 30
0.0
 11
397.7926266146403
 21
666.4255200305879
 31
0.0
  0
LINE
  5
570
330
1F
100
AcDbEntity
  8
D-2
  6
Continuous
 62
     3
370
     9
100
AcDbLine
 10
357.7865246955105
 20
664.1050090834083
 30
0.0
 11
397.7926266146403
 21
697.6740778358492
 31
0.0
  0
LINE
  5
571
330
1F
100
AcDbEntity
  8
D-2
  6
Continuous
 62
     3
370
     9
100
AcDbLine
 10
357.7830191690884
 20
689.7446528073986
 30
0.0
 11
397.7926266146403
 21
656.1711216675346
 31
0.0
  0
LINE
  5
572
330
1F
100
AcDbEntity
  8
D-2
  6
Continuous
 62
     3
370
     9
100
AcDbLine
 10
357.7861666036324
 20
653.8509112084021
 30
0.0
 11
397.7926266146403
 21
687.4202804352776
 31
0.0
  0
LINE
  5
573
330
1F
100
AcDbEntity
  8
D-2
  6
Continuous
 62
     3
370
     9
100
AcDbLine
 10
357.7826610772104
 20
679.4905549323923
 30
0.0
 11
397.7926266146403
 21
645.9167233044811
 31
0.0
  0
LINE
  5
574
330
1F
100
AcDbEntity
  8
D-2
  6
Continuous
 62
     3
370
     9
100
AcDbLine
 10
357.7858085117543
 20
643.5968133333959
 30
0.0
 11
397.7926266146403
 21
677.166483034707
 31
0.0
  0
LINE
  5
575
330
1F
100
AcDbEntity
  8
D-2
  6
Continuous
 62
     3
370
     9
100
AcDbLine
 10
357.7823029853323
 20
669.2364570573866
 30
0.0
 11
397.7926266146403
 21
635.6623249414279
 31
0.0
  0
LINE
  5
576
330
1F
100
AcDbEntity
  8
D-2
  6
Continuous
 62
     3
370
     9
100
AcDbLine
 10
357.7854504198763
 20
633.3427154583901
 30
0.0
 11
397.7926266146403
 21
666.9126856341361
 31
0.0
  0
LINE
  5
577
330
1F
100
AcDbEntity
  8
D-2
  6
Continuous
 62
     3
370
     9
100
AcDbLine
 10
357.7819448934542
 20
658.9823591823804
 30
0.0
 11
397.7926266146403
 21
625.4079265783744
 31
0.0
  0
LINE
  5
578
330
1F
100
AcDbEntity
  8
D-2
  6
Continuous
 62
     3
370
     9
100
AcDbLine
 10
357.7850923279982
 20
623.0886175833839
 30
0.0
 11
397.7926266146403
 21
656.6588882335648
 31
0.0
  0
LINE
  5
579
330
1F
100
AcDbEntity
  8
D-2
  6
Continuous
 62
     3
370
     9
100
AcDbLine
 10
357.7847342361201
 20
612.8345197083777
 30
0.0
 11
397.7926266146403
 21
646.4050908329941
 31
0.0
  0
LINE
  5
57A
330
1F
100
AcDbEntity
  8
D-2
  6
Continuous
 62
     3
370
     9
100
AcDbLine
 10
357.7843761442421
 20
602.5804218333715
 30
0.0
 11
397.7926266146403
 21
636.1512934324232
 31
0.0
  0
LINE
  5
57B
330
1F
100
AcDbEntity
  8
D-2
  6
Continuous
 62
     3
370
     9
100
AcDbLine
 10
357.784018052364
 20
592.326323958366
 30
0.0
 11
397.7926266146403
 21
625.8974960318519
 31
0.0
  0
LINE
  5
57C
330
1F
100
AcDbEntity
  8
D-2
  6
Continuous
 62
     3
370
     9
100
AcDbLine
 10
357.7836599604859
 20
582.0722260833597
 30
0.0
 11
397.7926266146403
 21
615.6436986312813
 31
0.0
  0
LINE
  5
57D
330
1F
100
AcDbEntity
  8
D-2
  6
Continuous
 62
     3
370
     9
100
AcDbLine
 10
377.8384548986867
 20
578.3925839644714
 30
0.0
 11
397.7926266146403
 21
595.1361038301391
 31
0.0
  0
LINE
  5
57E
330
1F
100
AcDbEntity
  8
D-2
  6
Continuous
 62
     3
370
     9
100
AcDbLine
 10
365.618441680848
 20
578.3925839644714
 30
0.0
 11
397.7926266146403
 21
605.3899012307104
 31
0.0
  0
LINE
  5
57F
330
1F
100
AcDbEntity
  8
D-2
  6
Continuous
 62
     3
370
     9
100
AcDbLine
 10
357.780512525942
 20
617.9659676823562
 30
0.0
 11
397.7926266146403
 21
584.3903331261604
 31
0.0
  0
LINE
  5
580
330
1F
100
AcDbEntity
  8
D-2
  6
Continuous
 62
     3
370
     9
100
AcDbLine
 10
357.78087061782
 20
628.2200655573624
 30
0.0
 11
397.7926266146403
 21
594.6447314892137
 31
0.0
  0
LINE
  5
581
330
1F
100
AcDbEntity
  8
D-2
  6
Continuous
 62
     3
370
     9
100
AcDbLine
 10
357.7812287096981
 20
638.474163432368
 30
0.0
 11
397.7926266146403
 21
604.8991298522672
 31
0.0
  0
LINE
  5
582
330
1F
100
AcDbEntity
  8
D-2
  6
Continuous
 62
     3
370
     9
100
AcDbLine
 10
357.7815868015762
 20
648.7282613073742
 30
0.0
 11
397.7926266146403
 21
615.1535282153204
 31
0.0
  0
LINE
  5
583
330
1F
100
AcDbEntity
  8
D-2
  6
Continuous
 62
     3
370
     9
100
AcDbLine
 10
357.7958350843403
 20
823.0410772218845
 30
0.0
 11
397.7926266146403
 21
789.4783003872304
 31
0.0
  0
LINE
  5
584
330
1F
100
AcDbEntity
  8
D-2
  6
Continuous
 62
     3
370
     9
100
AcDbLine
 10
357.7958350843403
 20
833.2954755849379
 30
0.0
 11
397.7926266146403
 21
799.7326987502838
 31
0.0
  0
LINE
  5
585
330
1F
100
AcDbEntity
  8
D-2
  6
Continuous
 62
     3
370
     9
100
AcDbLine
 10
357.7915379818035
 20
807.6623793334936
 30
0.0
 11
397.7926266146403
 21
841.2272414438427
 31
0.0
  0
LINE
  5
586
330
1F
100
AcDbEntity
  8
D-2
  6
Continuous
 62
     3
370
     9
100
AcDbLine
 10
357.7911798899254
 20
797.4082814584874
 30
0.0
 11
397.7926266146403
 21
830.9734440432719
 31
0.0
  0
LINE
  5
587
330
1F
100
AcDbEntity
  8
D-2
  6
Continuous
 62
     3
370
     9
100
AcDbLine
 10
357.7958350843403
 20
843.5498739479913
 30
0.0
 11
397.7926266146403
 21
809.9870971133372
 31
0.0
  0
LINE
  5
588
330
1F
100
AcDbEntity
  8
D-A
  6
Continuous
 62
     3
370
     9
100
AcDbLine
 10
357.7958350843403
 20
578.3925839644714
 30
0.0
 11
357.7958350843403
 21
1038.392905636241
 31
0.0
  0
LINE
  5
589
330
1F
100
AcDbEntity
  8
D-A
  6
Continuous
 62
     3
370
     9
100
AcDbLine
 10
397.7926266146403
 20
578.3925839644714
 30
0.0
 11
397.7926266146403
 21
1038.392905636241
 31
0.0
  0
LINE
  5
58A
330
1F
100
AcDbEntity
  8
D-2
  6
Continuous
 62
     3
370
     9
100
AcDbLine
 10
357.7929703493152
 20
848.6787708335179
 30
0.0
 11
397.7926266146403
 21
882.2424310461297
 31
0.0
  0
LINE
  5
58B
330
1F
100
AcDbEntity
  8
D-2
  6
Continuous
 62
     3
370
     9
100
AcDbLine
 10
357.7926122574377
 20
838.4246729585117
 30
0.0
 11
397.7926266146403
 21
871.9886336455584
 31
0.0
  0
LINE
  5
58C
330
1F
100
AcDbEntity
  8
D-2
  6
Continuous
 62
     3
370
     9
100
AcDbLine
 10
357.7922541655596
 20
828.1705750835055
 30
0.0
 11
397.7926266146403
 21
861.7348362449865
 31
0.0
  0
LINE
  5
58D
330
1F
100
AcDbEntity
  8
D-2
  6
Continuous
 62
     3
370
     9
100
AcDbLine
 10
357.7918960736815
 20
817.9164772084993
 30
0.0
 11
397.7926266146403
 21
851.4810388444134
 31
0.0
  0
LINE
  5
58E
330
1F
100
AcDbEntity
  8
D-2
  6
Continuous
 62
     3
370
     9
100
AcDbLine
 10
357.7958350843403
 20
874.3130690371514
 30
0.0
 11
397.7933427983959
 21
840.7496912264036
 31
0.0
  0
LINE
  5
58F
330
1F
100
AcDbEntity
  8
D-2
  6
Continuous
 62
     3
370
     9
100
AcDbLine
 10
357.7958350843403
 20
864.058670674098
 30
0.0
 11
397.7929847065184
 21
830.4955933513968
 31
0.0
  0
LINE
  5
590
330
1F
100
AcDbEntity
  8
D-2
  6
Continuous
 62
     3
370
     9
100
AcDbLine
 10
357.7958350843403
 20
853.8042723110452
 30
0.0
 11
397.7926266146403
 21
820.2414954763906
 31
0.0
  0
LINE
  5
591
330
1F
100
AcDbEntity
  8
D-2
  6
Continuous
 62
     3
370
     9
100
AcDbLine
 10
357.7961931762184
 20
884.5671669121582
 30
0.0
 11
397.7937008902734
 21
851.0037891014098
 31
0.0
  0
LINE
  5
592
330
1F
100
AcDbEntity
  8
D-2
  6
Continuous
 62
     3
370
     9
100
AcDbLine
 10
357.7933284411927
 20
858.9328687085247
 30
0.0
 11
397.7929847065184
 21
892.4965289211359
 31
0.0
  0
LINE
  5
593
330
1F
100
AcDbEntity
  8
D-2
  6
Continuous
 62
     3
370
     9
100
AcDbLine
 10
357.7965512680959
 20
894.8212647871644
 30
0.0
 11
397.7940589821515
 21
861.257886976416
 31
0.0
  0
LINE
  5
594
330
1F
100
AcDbEntity
  8
D-2
  6
Continuous
 62
     3
370
     9
100
AcDbLine
 10
357.7936865330702
 20
869.1869665835309
 30
0.0
 11
397.7933427983959
 21
902.7506267961421
 31
0.0
  0
LINE
  5
595
330
1F
100
AcDbEntity
  8
D-2
  6
Continuous
 62
     3
370
     9
100
AcDbLine
 10
357.7969093599734
 20
905.0753626621706
 30
0.0
 11
397.794417074029
 21
871.5119848514228
 31
0.0
  0
LINE
  5
596
330
1F
100
AcDbEntity
  8
D-2
  6
Continuous
 62
     3
370
     9
100
AcDbLine
 10
357.7940446249477
 20
879.4410644585371
 30
0.0
 11
397.7937008902734
 21
913.0047246711489
 31
0.0
  0
LINE
  5
597
330
1F
100
AcDbEntity
  8
D-2
  6
Continuous
 62
     3
370
     9
100
AcDbLine
 10
357.7972674518514
 20
915.3294605371768
 30
0.0
 11
397.7947751659065
 21
881.766082726429
 31
0.0
  0
LINE
  5
598
330
1F
100
AcDbEntity
  8
D-2
  6
Continuous
 62
     3
370
     9
100
AcDbLine
 10
357.7944027168257
 20
889.6951623335433
 30
0.0
 11
397.7940589821515
 21
923.2588225461551
 31
0.0
  0
LINE
  5
599
330
1F
100
AcDbEntity
  8
D-2
  6
Continuous
 62
     3
370
     9
100
AcDbLine
 10
357.7976255437289
 20
925.583558412183
 30
0.0
 11
397.795133257784
 21
892.0201806014352
 31
0.0
  0
LINE
  5
59A
330
1F
100
AcDbEntity
  8
D-2
  6
Continuous
 62
     3
370
     9
100
AcDbLine
 10
357.7947608087032
 20
899.9492602085495
 30
0.0
 11
397.794417074029
 21
933.5129204211613
 31
0.0
  0
LINE
  5
59B
330
1F
100
AcDbEntity
  8
D-2
  6
Continuous
 62
     3
370
     9
100
AcDbLine
 10
357.7979836356064
 20
935.8376562871898
 30
0.0
 11
397.7954913496615
 21
902.2742784764414
 31
0.0
  0
LINE
  5
59C
330
1F
100
AcDbEntity
  8
D-2
  6
Continuous
 62
     3
370
     9
100
AcDbLine
 10
357.7951189005807
 20
910.2033580835563
 30
0.0
 11
397.7947751659065
 21
943.7670182961681
 31
0.0
  0
LINE
  5
59D
330
1F
100
AcDbEntity
  8
D-2
  6
Continuous
 62
     3
370
     9
100
AcDbLine
 10
357.7983417274839
 20
946.091754162196
 30
0.0
 11
397.7958494415395
 21
912.5283763514476
 31
0.0
  0
LINE
  5
59E
330
1F
100
AcDbEntity
  8
D-2
  6
Continuous
 62
     3
370
     9
100
AcDbLine
 10
357.7954769924588
 20
920.4574559585625
 30
0.0
 11
397.795133257784
 21
954.0211161711743
 31
0.0
  0
LINE
  5
59F
330
1F
100
AcDbEntity
  8
D-2
  6
Continuous
 62
     3
370
     9
100
AcDbLine
 10
357.7986998193614
 20
956.3458520372022
 30
0.0
 11
397.796207533417
 21
922.7824742264544
 31
0.0
  0
LINE
  5
5A0
330
1F
100
AcDbEntity
  8
D-2
  6
Continuous
 62
     3
370
     9
100
AcDbLine
 10
357.7958350843363
 20
930.7115538335687
 30
0.0
 11
397.7954913496615
 21
964.2752140461805
 31
0.0
  0
LINE
  5
5A1
330
1F
100
AcDbEntity
  8
D-2
  6
Continuous
 62
     3
370
     9
100
AcDbLine
 10
357.7990579112395
 20
966.599949912209
 30
0.0
 11
397.7965656252945
 21
933.0365721014606
 31
0.0
  0
LINE
  5
5A2
330
1F
100
AcDbEntity
  8
D-2
  6
Continuous
 62
     3
370
     9
100
AcDbLine
 10
357.7961931762138
 20
940.9656517085755
 30
0.0
 11
397.7958494415395
 21
974.5293119211867
 31
0.0
  0
LINE
  5
5A3
330
1F
100
AcDbEntity
  8
D-2
  6
Continuous
 62
     3
370
     9
100
AcDbLine
 10
357.799416003117
 20
976.8540477872152
 30
0.0
 11
397.7969237171726
 21
943.2906699764668
 31
0.0
  0
LINE
  5
5A4
330
1F
100
AcDbEntity
  8
D-2
  6
Continuous
 62
     3
370
     9
100
AcDbLine
 10
357.7965512680913
 20
951.2197495835817
 30
0.0
 11
397.796207533417
 21
984.7834097961929
 31
0.0
  0
LINE
  5
5A5
330
1F
100
AcDbEntity
  8
D-2
  6
Continuous
 62
     3
370
     9
100
AcDbLine
 10
357.7997740949945
 20
987.1081456622214
 30
0.0
 11
397.7972818090501
 21
953.5447678514736
 31
0.0
  0
LINE
  5
5A6
330
1F
100
AcDbEntity
  8
D-2
  6
Continuous
 62
     3
370
     9
100
AcDbLine
 10
357.7969093599688
 20
961.4738474585879
 30
0.0
 11
397.7965656252945
 21
995.0375076711997
 31
0.0
  0
LINE
  5
5A7
330
1F
100
AcDbEntity
  8
D-2
  6
Continuous
 62
     3
370
     9
100
AcDbLine
 10
357.8001321868726
 20
997.3622435372276
 30
0.0
 11
397.7976399009276
 21
963.7988657264798
 31
0.0
  0
LINE
  5
5A8
330
1F
100
AcDbEntity
  8
D-2
  6
Continuous
 62
     3
370
     9
100
AcDbLine
 10
357.7972674518469
 20
971.7279453335941
 30
0.0
 11
397.7969237171726
 21
1005.291605546206
 31
0.0
  0
LINE
  5
5A9
330
1F
100
AcDbEntity
  8
D-2
  6
Continuous
 62
     3
370
     9
100
AcDbLine
 10
357.8004902787501
 20
1007.616341412234
 30
0.0
 11
397.7979979928051
 21
974.052963601486
 31
0.0
  0
LINE
  5
5AA
330
1F
100
AcDbEntity
  8
D-2
  6
Continuous
 62
     3
370
     9
100
AcDbLine
 10
357.7976255437244
 20
981.9820432086003
 30
0.0
 11
397.7972818090501
 21
1015.545703421212
 31
0.0
  0
LINE
  5
5AB
330
1F
100
AcDbEntity
  8
D-2
  6
Continuous
 62
     3
370
     9
100
AcDbLine
 10
357.8008483706276
 20
1017.870439287241
 30
0.0
 11
397.7983560846826
 21
984.3070614764922
 31
0.0
  0
LINE
  5
5AC
330
1F
100
AcDbEntity
  8
D-2
  6
Continuous
 62
     3
370
     9
100
AcDbLine
 10
357.7979836356019
 20
992.2361410836071
 30
0.0
 11
397.7976399009276
 21
1025.799801296219
 31
0.0
  0
LINE
  5
5AD
330
1F
100
AcDbEntity
  8
D-2
  6
Continuous
 62
     3
370
     9
100
AcDbLine
 10
357.8012064625051
 20
1028.124537162247
 30
0.0
 11
397.7987141765607
 21
994.5611593514984
 31
0.0
  0
LINE
  5
5AE
330
1F
100
AcDbEntity
  8
D-2
  6
Continuous
 62
     3
370
     9
100
AcDbLine
 10
357.79834172748
 20
1002.490238958613
 30
0.0
 11
397.7979979928051
 21
1036.053899171225
 31
0.0
  0
LINE
  5
5AF
330
1F
100
AcDbEntity
  8
D-2
  6
Continuous
 62
     3
370
     9
100
AcDbLine
 10
357.8015645543826
 20
1038.378635037253
 30
0.0
 11
397.7990722684382
 21
1004.815257226505
 31
0.0
  0
LINE
  5
5B0
330
1F
100
AcDbEntity
  8
D-2
  6
Continuous
 62
     3
370
     9
100
AcDbLine
 10
394.4450856990488
 20
1038.392905636241
 30
0.0
 11
397.8001465440713
 21
1035.577550851524
 31
0.0
  0
LINE
  5
5B1
330
1F
100
AcDbEntity
  8
D-2
  6
Continuous
 62
     3
370
     9
100
AcDbLine
 10
357.7986998193575
 20
1012.74433683362
 30
0.0
 11
388.3655071730118
 21
1038.392905636241
 31
0.0
  0
LINE
  5
5B2
330
1F
100
AcDbEntity
  8
D-2
  6
Continuous
 62
     3
370
     9
100
AcDbLine
 10
382.2249098889171
 20
1038.392905636241
 30
0.0
 11
397.7997884521938
 21
1025.323452976518
 31
0.0
  0
LINE
  5
5B3
330
1F
100
AcDbEntity
  8
D-2
  6
Continuous
 62
     3
370
     9
100
AcDbLine
 10
357.799057911235
 20
1022.998434708626
 30
0.0
 11
376.1454939551732
 21
1038.392905636241
 31
0.0
  0
LINE
  5
5B4
330
1F
100
AcDbEntity
  8
D-2
  6
Continuous
 62
     3
370
     9
100
AcDbLine
 10
370.0047340787853
 20
1038.392905636241
 30
0.0
 11
397.7994303603157
 21
1015.069355101511
 31
0.0
  0
LINE
  5
5B5
330
1F
100
AcDbEntity
  8
D-2
  6
Continuous
 62
     3
370
     9
100
AcDbLine
 10
357.7994160031125
 20
1033.252532583633
 30
0.0
 11
363.9254807373345
 21
1038.392905636241
 31
0.0
  0
LINE
  5
5B6
330
1F
100
AcDbEntity
  8
D-A
  6
Continuous
 62
     3
370
     9
100
AcDbLine
 10
537.7901522164132
 20
696.0427076843858
 30
0.0
 11
567.793467910036
 21
696.0427076843858
 31
0.0
  0
LINE
  5
5B7
330
1F
100
AcDbEntity
  8
D-A
  6
Continuous
 62
     3
370
     9
100
AcDbLine
 10
467.7926266146403
 20
696.0427076843858
 30
0.0
 11
497.7908862878871
 21
696.0427076843858
 31
0.0
  0
LINE
  5
5B8
330
1F
100
AcDbEntity
  8
D-A
  6
Continuous
 62
     3
370
     9
100
AcDbLine
 10
537.7901522164132
 20
660.7427076843837
 30
0.0
 11
567.793467910036
 21
660.7427076843837
 31
0.0
  0
LINE
  5
5B9
330
1F
100
AcDbEntity
  8
D-A
  6
Continuous
 62
     3
370
     9
100
AcDbLine
 10
467.7926266146403
 20
660.7427076843837
 30
0.0
 11
497.7908862878871
 21
660.7427076843837
 31
0.0
  0
LINE
  5
5BA
330
1F
100
AcDbEntity
  8
D-A
  6
Continuous
 62
     3
370
     9
100
AcDbLine
 10
467.7926266146403
 20
678.3927076843829
 30
0.0
 11
497.7908862878871
 21
678.3927076843829
 31
0.0
  0
LINE
  5
5BB
330
1F
100
AcDbEntity
  8
D-A
  6
Continuous
 62
     3
370
     9
100
AcDbLine
 10
537.7901522164132
 20
678.3927076843829
 30
0.0
 11
567.793467910036
 21
678.3927076843829
 31
0.0
  0
LINE
  5
5BC
330
1F
100
AcDbEntity
  8
D-2
  6
Continuous
 62
     3
370
     9
100
AcDbLine
 10
497.7801544340639
 20
607.71186980735
 30
0.0
 11
532.7199739088371
 21
578.3925839644714
 31
0.0
  0
LINE
  5
5BD
330
1F
100
AcDbEntity
  8
D-2
  6
Continuous
 62
     3
370
     9
100
AcDbLine
 10
497.7797963421858
 20
597.4577719323438
 30
0.0
 11
520.4997980987048
 21
578.3925839644714
 31
0.0
  0
LINE
  5
5BE
330
1F
100
AcDbEntity
  8
D-2
  6
Continuous
 62
     3
370
     9
100
AcDbLine
 10
497.7794382503077
 20
587.203674057338
 30
0.0
 11
508.2796222885725
 21
578.3925839644714
 31
0.0
  0
LINE
  5
5BF
330
1F
100
AcDbEntity
  8
D-2
  6
Continuous
 62
     3
370
     9
100
AcDbLine
 10
530.0584681165242
 20
578.3925839644714
 30
0.0
 11
537.7926266146403
 21
584.8823064295684
 31
0.0
  0
LINE
  5
5C0
330
1F
100
AcDbEntity
  8
D-2
  6
Continuous
 62
     3
370
     9
100
AcDbLine
 10
497.7908217980473
 20
787.1541835834812
 30
0.0
 11
537.7926266146403
 21
820.7196466427006
 31
0.0
  0
LINE
  5
5C1
330
1F
100
AcDbEntity
  8
D-2
  6
Continuous
 62
     3
370
     9
100
AcDbLine
 10
497.7873162716253
 20
812.7938273074715
 30
0.0
 11
537.7926266146403
 21
779.223902024177
 31
0.0
  0
LINE
  5
5C2
330
1F
100
AcDbEntity
  8
D-2
  6
Continuous
 62
     3
370
     9
100
AcDbLine
 10
497.7904637061692
 20
776.900085708475
 30
0.0
 11
537.7926266146403
 21
810.4658492421298
 31
0.0
  0
LINE
  5
5C3
330
1F
100
AcDbEntity
  8
D-2
  6
Continuous
 62
     3
370
     9
100
AcDbLine
 10
497.7869581797472
 20
802.5397294324658
 30
0.0
 11
537.7926266146403
 21
768.9695036611231
 31
0.0
  0
LINE
  5
5C4
330
1F
100
AcDbEntity
  8
D-2
  6
Continuous
 62
     3
370
     9
100
AcDbLine
 10
497.7901056142912
 20
766.6459878334693
 30
0.0
 11
537.7926266146403
 21
800.2120518415591
 31
0.0
  0
LINE
  5
5C5
330
1F
100
AcDbEntity
  8
D-2
  6
Continuous
 62
     3
370
     9
100
AcDbLine
 10
497.7866000878691
 20
792.2856315574596
 30
0.0
 11
537.7926266146403
 21
758.7151052980697
 31
0.0
  0
LINE
  5
5C6
330
1F
100
AcDbEntity
  8
D-2
  6
Continuous
 62
     3
370
     9
100
AcDbLine
 10
497.7897475224131
 20
756.3918899584631
 30
0.0
 11
537.7926266146403
 21
789.9582544409877
 31
0.0
  0
LINE
  5
5C7
330
1F
100
AcDbEntity
  8
D-2
  6
Continuous
 62
     3
370
     9
100
AcDbLine
 10
497.7862419959911
 20
782.0315336824534
 30
0.0
 11
537.7926266146403
 21
748.4607069350163
 31
0.0
  0
LINE
  5
5C8
330
1F
100
AcDbEntity
  8
D-2
  6
Continuous
 62
     3
370
     9
100
AcDbLine
 10
497.789389430535
 20
746.1377920834569
 30
0.0
 11
537.7926266146403
 21
779.704457040417
 31
0.0
  0
LINE
  5
5C9
330
1F
100
AcDbEntity
  8
D-2
  6
Continuous
 62
     3
370
     9
100
AcDbLine
 10
497.785883904113
 20
771.7774358074472
 30
0.0
 11
537.7926266146403
 21
738.206308571963
 31
0.0
  0
LINE
  5
5CA
330
1F
100
AcDbEntity
  8
D-2
  6
Continuous
 62
     3
370
     9
100
AcDbLine
 10
497.789031338657
 20
735.8836942084507
 30
0.0
 11
537.7926266146403
 21
769.4506596398462
 31
0.0
  0
LINE
  5
5CB
330
1F
100
AcDbEntity
  8
D-2
  6
Continuous
 62
     3
370
     9
100
AcDbLine
 10
497.7855258122349
 20
761.5233379324416
 30
0.0
 11
537.7926266146403
 21
727.9519102089096
 31
0.0
  0
LINE
  5
5CC
330
1F
100
AcDbEntity
  8
D-2
  6
Continuous
 62
     3
370
     9
100
AcDbLine
 10
497.7886732467789
 20
725.6295963334451
 30
0.0
 11
537.7926266146403
 21
759.1968622392749
 31
0.0
  0
LINE
  5
5CD
330
1F
100
AcDbEntity
  8
D-2
  6
Continuous
 62
     3
370
     9
100
AcDbLine
 10
497.7851677203569
 20
751.2692400574354
 30
0.0
 11
537.7926266146403
 21
717.6975118458556
 31
0.0
  0
LINE
  5
5CE
330
1F
100
AcDbEntity
  8
D-2
  6
Continuous
 62
     3
370
     9
100
AcDbLine
 10
497.7883151549008
 20
715.3754984584389
 30
0.0
 11
537.7926266146403
 21
748.9430648387041
 31
0.0
  0
LINE
  5
5CF
330
1F
100
AcDbEntity
  8
D-2
  6
Continuous
 62
     3
370
     9
100
AcDbLine
 10
497.7848096284788
 20
741.0151421824291
 30
0.0
 11
537.7926266146403
 21
707.4431134828022
 31
0.0
  0
LINE
  5
5D0
330
1F
100
AcDbEntity
  8
D-2
  6
Continuous
 62
     3
370
     9
100
AcDbLine
 10
497.7879570630228
 20
705.1214005834327
 30
0.0
 11
537.7926266146403
 21
738.6892674381334
 31
0.0
  0
LINE
  5
5D1
330
1F
100
AcDbEntity
  8
D-2
  6
Continuous
 62
     3
370
     9
100
AcDbLine
 10
497.7844515366007
 20
730.7610443074229
 30
0.0
 11
537.7926266146403
 21
697.1887151197488
 31
0.0
  0
LINE
  5
5D2
330
1F
100
AcDbEntity
  8
D-2
  6
Continuous
 62
     3
370
     9
100
AcDbLine
 10
497.7875989711447
 20
694.8673027084265
 30
0.0
 11
537.7926266146403
 21
728.435470037562
 31
0.0
  0
LINE
  5
5D3
330
1F
100
AcDbEntity
  8
D-2
  6
Continuous
 62
     3
370
     9
100
AcDbLine
 10
497.7840934447227
 20
720.5069464324173
 30
0.0
 11
537.7926266146403
 21
686.9343167566954
 31
0.0
  0
LINE
  5
5D4
330
1F
100
AcDbEntity
  8
D-2
  6
Continuous
 62
     3
370
     9
100
AcDbLine
 10
497.7872408792666
 20
684.61320483342
 30
0.0
 11
537.7926266146403
 21
718.1816726369913
 31
0.0
  0
LINE
  5
5D5
330
1F
100
AcDbEntity
  8
D-2
  6
Continuous
 62
     3
370
     9
100
AcDbLine
 10
497.7837353528446
 20
710.2528485574111
 30
0.0
 11
537.7926266146403
 21
676.6799183936419
 31
0.0
  0
LINE
  5
5D6
330
1F
100
AcDbEntity
  8
D-2
  6
Continuous
 62
     3
370
     9
100
AcDbLine
 10
497.7868827873885
 20
674.3591069584145
 30
0.0
 11
537.7926266146403
 21
707.9278752364199
 31
0.0
  0
LINE
  5
5D7
330
1F
100
AcDbEntity
  8
D-2
  6
Continuous
 62
     3
370
     9
100
AcDbLine
 10
497.7833772609665
 20
699.9987506824049
 30
0.0
 11
537.7926266146403
 21
666.4255200305879
 31
0.0
  0
LINE
  5
5D8
330
1F
100
AcDbEntity
  8
D-2
  6
Continuous
 62
     3
370
     9
100
AcDbLine
 10
497.7865246955105
 20
664.1050090834083
 30
0.0
 11
537.7926266146403
 21
697.6740778358492
 31
0.0
  0
LINE
  5
5D9
330
1F
100
AcDbEntity
  8
D-2
  6
Continuous
 62
     3
370
     9
100
AcDbLine
 10
497.7830191690884
 20
689.7446528073986
 30
0.0
 11
537.7926266146403
 21
656.1711216675346
 31
0.0
  0
LINE
  5
5DA
330
1F
100
AcDbEntity
  8
D-2
  6
Continuous
 62
     3
370
     9
100
AcDbLine
 10
497.7861666036324
 20
653.8509112084021
 30
0.0
 11
537.7926266146403
 21
687.4202804352776
 31
0.0
  0
LINE
  5
5DB
330
1F
100
AcDbEntity
  8
D-2
  6
Continuous
 62
     3
370
     9
100
AcDbLine
 10
497.7826610772104
 20
679.4905549323923
 30
0.0
 11
537.7926266146403
 21
645.9167233044811
 31
0.0
  0
LINE
  5
5DC
330
1F
100
AcDbEntity
  8
D-2
  6
Continuous
 62
     3
370
     9
100
AcDbLine
 10
497.7858085117543
 20
643.5968133333959
 30
0.0
 11
537.7926266146403
 21
677.166483034707
 31
0.0
  0
LINE
  5
5DD
330
1F
100
AcDbEntity
  8
D-2
  6
Continuous
 62
     3
370
     9
100
AcDbLine
 10
497.7823029853323
 20
669.2364570573866
 30
0.0
 11
537.7926266146403
 21
635.6623249414279
 31
0.0
  0
LINE
  5
5DE
330
1F
100
AcDbEntity
  8
D-2
  6
Continuous
 62
     3
370
     9
100
AcDbLine
 10
497.7854504198763
 20
633.3427154583901
 30
0.0
 11
537.7926266146403
 21
666.9126856341361
 31
0.0
  0
LINE
  5
5DF
330
1F
100
AcDbEntity
  8
D-2
  6
Continuous
 62
     3
370
     9
100
AcDbLine
 10
497.7819448934542
 20
658.9823591823804
 30
0.0
 11
537.7926266146403
 21
625.4079265783744
 31
0.0
  0
LINE
  5
5E0
330
1F
100
AcDbEntity
  8
D-2
  6
Continuous
 62
     3
370
     9
100
AcDbLine
 10
497.7850923279982
 20
623.0886175833839
 30
0.0
 11
537.7926266146403
 21
656.6588882335648
 31
0.0
  0
LINE
  5
5E1
330
1F
100
AcDbEntity
  8
D-2
  6
Continuous
 62
     3
370
     9
100
AcDbLine
 10
497.7847342361201
 20
612.8345197083777
 30
0.0
 11
537.7926266146403
 21
646.4050908329941
 31
0.0
  0
LINE
  5
5E2
330
1F
100
AcDbEntity
  8
D-2
  6
Continuous
 62
     3
370
     9
100
AcDbLine
 10
497.7843761442421
 20
602.5804218333715
 30
0.0
 11
537.7926266146403
 21
636.1512934324232
 31
0.0
  0
LINE
  5
5E3
330
1F
100
AcDbEntity
  8
D-2
  6
Continuous
 62
     3
370
     9
100
AcDbLine
 10
497.784018052364
 20
592.326323958366
 30
0.0
 11
537.7926266146403
 21
625.8974960318519
 31
0.0
  0
LINE
  5
5E4
330
1F
100
AcDbEntity
  8
D-2
  6
Continuous
 62
     3
370
     9
100
AcDbLine
 10
497.7836599604859
 20
582.0722260833597
 30
0.0
 11
537.7926266146403
 21
615.6436986312813
 31
0.0
  0
LINE
  5
5E5
330
1F
100
AcDbEntity
  8
D-2
  6
Continuous
 62
     3
370
     9
100
AcDbLine
 10
517.8384548986867
 20
578.3925839644714
 30
0.0
 11
537.7926266146403
 21
595.1361038301391
 31
0.0
  0
LINE
  5
5E6
330
1F
100
AcDbEntity
  8
D-2
  6
Continuous
 62
     3
370
     9
100
AcDbLine
 10
505.618441680848
 20
578.3925839644714
 30
0.0
 11
537.7926266146403
 21
605.3899012307104
 31
0.0
  0
LINE
  5
5E7
330
1F
100
AcDbEntity
  8
D-2
  6
Continuous
 62
     3
370
     9
100
AcDbLine
 10
497.780512525942
 20
617.9659676823562
 30
0.0
 11
537.7926266146403
 21
584.3903331261604
 31
0.0
  0
LINE
  5
5E8
330
1F
100
AcDbEntity
  8
D-2
  6
Continuous
 62
     3
370
     9
100
AcDbLine
 10
497.78087061782
 20
628.2200655573624
 30
0.0
 11
537.7926266146403
 21
594.6447314892137
 31
0.0
  0
LINE
  5
5E9
330
1F
100
AcDbEntity
  8
D-2
  6
Continuous
 62
     3
370
     9
100
AcDbLine
 10
497.7812287096981
 20
638.474163432368
 30
0.0
 11
537.7926266146403
 21
604.8991298522672
 31
0.0
  0
LINE
  5
5EA
330
1F
100
AcDbEntity
  8
D-2
  6
Continuous
 62
     3
370
     9
100
AcDbLine
 10
497.7815868015762
 20
648.7282613073742
 30
0.0
 11
537.7926266146403
 21
615.1535282153204
 31
0.0
  0
LINE
  5
5EB
330
1F
100
AcDbEntity
  8
D-2
  6
Continuous
 62
     3
370
     9
100
AcDbLine
 10
497.7958350843403
 20
823.0410772218845
 30
0.0
 11
537.7926266146403
 21
789.4783003872304
 31
0.0
  0
LINE
  5
5EC
330
1F
100
AcDbEntity
  8
D-2
  6
Continuous
 62
     3
370
     9
100
AcDbLine
 10
497.7958350843403
 20
833.2954755849379
 30
0.0
 11
537.7926266146403
 21
799.7326987502838
 31
0.0
  0
LINE
  5
5ED
330
1F
100
AcDbEntity
  8
D-2
  6
Continuous
 62
     3
370
     9
100
AcDbLine
 10
497.7915379818035
 20
807.6623793334936
 30
0.0
 11
537.7926266146403
 21
841.2272414438427
 31
0.0
  0
LINE
  5
5EE
330
1F
100
AcDbEntity
  8
D-2
  6
Continuous
 62
     3
370
     9
100
AcDbLine
 10
497.7911798899254
 20
797.4082814584874
 30
0.0
 11
537.7926266146403
 21
830.9734440432719
 31
0.0
  0
LINE
  5
5EF
330
1F
100
AcDbEntity
  8
D-2
  6
Continuous
 62
     3
370
     9
100
AcDbLine
 10
497.7958350843403
 20
843.5498739479913
 30
0.0
 11
537.7926266146403
 21
809.9870971133372
 31
0.0
  0
LINE
  5
5F0
330
1F
100
AcDbEntity
  8
D-A
  6
Continuous
 62
     3
370
     9
100
AcDbLine
 10
497.7958350843403
 20
578.3925839644714
 30
0.0
 11
497.7958350843403
 21
1038.392905636241
 31
0.0
  0
LINE
  5
5F1
330
1F
100
AcDbEntity
  8
D-A
  6
Continuous
 62
     3
370
     9
100
AcDbLine
 10
537.7926266146403
 20
578.3925839644714
 30
0.0
 11
537.7926266146403
 21
1038.392905636241
 31
0.0
  0
LINE
  5
5F2
330
1F
100
AcDbEntity
  8
D-2
  6
Continuous
 62
     3
370
     9
100
AcDbLine
 10
497.7929703493152
 20
848.6787708335179
 30
0.0
 11
537.7926266146403
 21
882.2424310461297
 31
0.0
  0
LINE
  5
5F3
330
1F
100
AcDbEntity
  8
D-2
  6
Continuous
 62
     3
370
     9
100
AcDbLine
 10
497.7926122574377
 20
838.4246729585117
 30
0.0
 11
537.7926266146403
 21
871.9886336455584
 31
0.0
  0
LINE
  5
5F4
330
1F
100
AcDbEntity
  8
D-2
  6
Continuous
 62
     3
370
     9
100
AcDbLine
 10
497.7922541655596
 20
828.1705750835055
 30
0.0
 11
537.7926266146403
 21
861.7348362449865
 31
0.0
  0
LINE
  5
5F5
330
1F
100
AcDbEntity
  8
D-2
  6
Continuous
 62
     3
370
     9
100
AcDbLine
 10
497.7918960736815
 20
817.9164772084993
 30
0.0
 11
537.7926266146403
 21
851.4810388444134
 31
0.0
  0
LINE
  5
5F6
330
1F
100
AcDbEntity
  8
D-2
  6
Continuous
 62
     3
370
     9
100
AcDbLine
 10
497.7958350843403
 20
874.3130690371514
 30
0.0
 11
537.7933427983959
 21
840.7496912264036
 31
0.0
  0
LINE
  5
5F7
330
1F
100
AcDbEntity
  8
D-2
  6
Continuous
 62
     3
370
     9
100
AcDbLine
 10
497.7958350843403
 20
864.058670674098
 30
0.0
 11
537.7929847065184
 21
830.4955933513968
 31
0.0
  0
LINE
  5
5F8
330
1F
100
AcDbEntity
  8
D-2
  6
Continuous
 62
     3
370
     9
100
AcDbLine
 10
497.7958350843403
 20
853.8042723110452
 30
0.0
 11
537.7926266146403
 21
820.2414954763906
 31
0.0
  0
LINE
  5
5F9
330
1F
100
AcDbEntity
  8
D-2
  6
Continuous
 62
     3
370
     9
100
AcDbLine
 10
497.7961931762184
 20
884.5671669121582
 30
0.0
 11
537.7937008902734
 21
851.0037891014098
 31
0.0
  0
LINE
  5
5FA
330
1F
100
AcDbEntity
  8
D-2
  6
Continuous
 62
     3
370
     9
100
AcDbLine
 10
497.7933284411927
 20
858.9328687085247
 30
0.0
 11
537.7929847065184
 21
892.4965289211359
 31
0.0
  0
LINE
  5
5FB
330
1F
100
AcDbEntity
  8
D-2
  6
Continuous
 62
     3
370
     9
100
AcDbLine
 10
497.7965512680959
 20
894.8212647871644
 30
0.0
 11
537.7940589821515
 21
861.257886976416
 31
0.0
  0
LINE
  5
5FC
330
1F
100
AcDbEntity
  8
D-2
  6
Continuous
 62
     3
370
     9
100
AcDbLine
 10
497.7936865330702
 20
869.1869665835309
 30
0.0
 11
537.7933427983959
 21
902.7506267961421
 31
0.0
  0
LINE
  5
5FD
330
1F
100
AcDbEntity
  8
D-2
  6
Continuous
 62
     3
370
     9
100
AcDbLine
 10
497.7969093599734
 20
905.0753626621706
 30
0.0
 11
537.794417074029
 21
871.5119848514228
 31
0.0
  0
LINE
  5
5FE
330
1F
100
AcDbEntity
  8
D-2
  6
Continuous
 62
     3
370
     9
100
AcDbLine
 10
497.7940446249477
 20
879.4410644585371
 30
0.0
 11
537.7937008902734
 21
913.0047246711489
 31
0.0
  0
LINE
  5
5FF
330
1F
100
AcDbEntity
  8
D-2
  6
Continuous
 62
     3
370
     9
100
AcDbLine
 10
497.7972674518514
 20
915.3294605371768
 30
0.0
 11
537.7947751659065
 21
881.766082726429
 31
0.0
  0
LINE
  5
600
330
1F
100
AcDbEntity
  8
D-2
  6
Continuous
 62
     3
370
     9
100
AcDbLine
 10
497.7944027168257
 20
889.6951623335433
 30
0.0
 11
537.7940589821515
 21
923.2588225461551
 31
0.0
  0
LINE
  5
601
330
1F
100
AcDbEntity
  8
D-2
  6
Continuous
 62
     3
370
     9
100
AcDbLine
 10
497.7976255437289
 20
925.583558412183
 30
0.0
 11
537.795133257784
 21
892.0201806014352
 31
0.0
  0
LINE
  5
602
330
1F
100
AcDbEntity
  8
D-2
  6
Continuous
 62
     3
370
     9
100
AcDbLine
 10
497.7947608087032
 20
899.9492602085495
 30
0.0
 11
537.794417074029
 21
933.5129204211613
 31
0.0
  0
LINE
  5
603
330
1F
100
AcDbEntity
  8
D-2
  6
Continuous
 62
     3
370
     9
100
AcDbLine
 10
497.7979836356064
 20
935.8376562871898
 30
0.0
 11
537.7954913496615
 21
902.2742784764414
 31
0.0
  0
LINE
  5
604
330
1F
100
AcDbEntity
  8
D-2
  6
Continuous
 62
     3
370
     9
100
AcDbLine
 10
497.7951189005807
 20
910.2033580835563
 30
0.0
 11
537.7947751659065
 21
943.7670182961681
 31
0.0
  0
LINE
  5
605
330
1F
100
AcDbEntity
  8
D-2
  6
Continuous
 62
     3
370
     9
100
AcDbLine
 10
497.7983417274839
 20
946.091754162196
 30
0.0
 11
537.7958494415395
 21
912.5283763514476
 31
0.0
  0
LINE
  5
606
330
1F
100
AcDbEntity
  8
D-2
  6
Continuous
 62
     3
370
     9
100
AcDbLine
 10
497.7954769924588
 20
920.4574559585625
 30
0.0
 11
537.795133257784
 21
954.0211161711743
 31
0.0
  0
LINE
  5
607
330
1F
100
AcDbEntity
  8
D-2
  6
Continuous
 62
     3
370
     9
100
AcDbLine
 10
497.7986998193614
 20
956.3458520372022
 30
0.0
 11
537.796207533417
 21
922.7824742264544
 31
0.0
  0
LINE
  5
608
330
1F
100
AcDbEntity
  8
D-2
  6
Continuous
 62
     3
370
     9
100
AcDbLine
 10
497.7958350843363
 20
930.7115538335687
 30
0.0
 11
537.7954913496615
 21
964.2752140461805
 31
0.0
  0
LINE
  5
609
330
1F
100
AcDbEntity
  8
D-2
  6
Continuous
 62
     3
370
     9
100
AcDbLine
 10
497.7990579112395
 20
966.599949912209
 30
0.0
 11
537.7965656252945
 21
933.0365721014606
 31
0.0
  0
LINE
  5
60A
330
1F
100
AcDbEntity
  8
D-2
  6
Continuous
 62
     3
370
     9
100
AcDbLine
 10
497.7961931762138
 20
940.9656517085755
 30
0.0
 11
537.7958494415395
 21
974.5293119211867
 31
0.0
  0
LINE
  5
60B
330
1F
100
AcDbEntity
  8
D-2
  6
Continuous
 62
     3
370
     9
100
AcDbLine
 10
497.799416003117
 20
976.8540477872152
 30
0.0
 11
537.7969237171726
 21
943.2906699764668
 31
0.0
  0
LINE
  5
60C
330
1F
100
AcDbEntity
  8
D-2
  6
Continuous
 62
     3
370
     9
100
AcDbLine
 10
497.7965512680913
 20
951.2197495835817
 30
0.0
 11
537.796207533417
 21
984.7834097961929
 31
0.0
  0
LINE
  5
60D
330
1F
100
AcDbEntity
  8
D-2
  6
Continuous
 62
     3
370
     9
100
AcDbLine
 10
497.7997740949945
 20
987.1081456622214
 30
0.0
 11
537.7972818090501
 21
953.5447678514736
 31
0.0
  0
LINE
  5
60E
330
1F
100
AcDbEntity
  8
D-2
  6
Continuous
 62
     3
370
     9
100
AcDbLine
 10
497.7969093599688
 20
961.4738474585879
 30
0.0
 11
537.7965656252945
 21
995.0375076711997
 31
0.0
  0
LINE
  5
60F
330
1F
100
AcDbEntity
  8
D-2
  6
Continuous
 62
     3
370
     9
100
AcDbLine
 10
497.8001321868726
 20
997.3622435372276
 30
0.0
 11
537.7976399009276
 21
963.7988657264798
 31
0.0
  0
LINE
  5
610
330
1F
100
AcDbEntity
  8
D-2
  6
Continuous
 62
     3
370
     9
100
AcDbLine
 10
497.7972674518469
 20
971.7279453335941
 30
0.0
 11
537.7969237171726
 21
1005.291605546206
 31
0.0
  0
LINE
  5
611
330
1F
100
AcDbEntity
  8
D-2
  6
Continuous
 62
     3
370
     9
100
AcDbLine
 10
497.8004902787501
 20
1007.616341412234
 30
0.0
 11
537.7979979928051
 21
974.052963601486
 31
0.0
  0
LINE
  5
612
330
1F
100
AcDbEntity
  8
D-2
  6
Continuous
 62
     3
370
     9
100
AcDbLine
 10
497.7976255437244
 20
981.9820432086003
 30
0.0
 11
537.7972818090501
 21
1015.545703421212
 31
0.0
  0
LINE
  5
613
330
1F
100
AcDbEntity
  8
D-2
  6
Continuous
 62
     3
370
     9
100
AcDbLine
 10
497.8008483706276
 20
1017.870439287241
 30
0.0
 11
537.7983560846826
 21
984.3070614764922
 31
0.0
  0
LINE
  5
614
330
1F
100
AcDbEntity
  8
D-2
  6
Continuous
 62
     3
370
     9
100
AcDbLine
 10
497.7979836356019
 20
992.2361410836071
 30
0.0
 11
537.7976399009276
 21
1025.799801296219
 31
0.0
  0
LINE
  5
615
330
1F
100
AcDbEntity
  8
D-2
  6
Continuous
 62
     3
370
     9
100
AcDbLine
 10
497.8012064625051
 20
1028.124537162247
 30
0.0
 11
537.7987141765607
 21
994.5611593514984
 31
0.0
  0
LINE
  5
616
330
1F
100
AcDbEntity
  8
D-2
  6
Continuous
 62
     3
370
     9
100
AcDbLine
 10
497.79834172748
 20
1002.490238958613
 30
0.0
 11
537.7979979928051
 21
1036.053899171225
 31
0.0
  0
LINE
  5
617
330
1F
100
AcDbEntity
  8
D-2
  6
Continuous
 62
     3
370
     9
100
AcDbLine
 10
497.8015645543826
 20
1038.378635037253
 30
0.0
 11
537.7990722684382
 21
1004.815257226505
 31
0.0
  0
LINE
  5
618
330
1F
100
AcDbEntity
  8
D-2
  6
Continuous
 62
     3
370
     9
100
AcDbLine
 10
534.4450856990488
 20
1038.392905636241
 30
0.0
 11
537.8001465440713
 21
1035.577550851524
 31
0.0
  0
LINE
  5
619
330
1F
100
AcDbEntity
  8
D-2
  6
Continuous
 62
     3
370
     9
100
AcDbLine
 10
497.7986998193575
 20
1012.74433683362
 30
0.0
 11
528.3655071730118
 21
1038.392905636241
 31
0.0
  0
LINE
  5
61A
330
1F
100
AcDbEntity
  8
D-2
  6
Continuous
 62
     3
370
     9
100
AcDbLine
 10
522.2249098889171
 20
1038.392905636241
 30
0.0
 11
537.7997884521938
 21
1025.323452976518
 31
0.0
  0
LINE
  5
61B
330
1F
100
AcDbEntity
  8
D-2
  6
Continuous
 62
     3
370
     9
100
AcDbLine
 10
497.799057911235
 20
1022.998434708626
 30
0.0
 11
516.1454939551732
 21
1038.392905636241
 31
0.0
  0
LINE
  5
61C
330
1F
100
AcDbEntity
  8
D-2
  6
Continuous
 62
     3
370
     9
100
AcDbLine
 10
510.0047340787853
 20
1038.392905636241
 30
0.0
 11
537.7994303603157
 21
1015.069355101511
 31
0.0
  0
LINE
  5
61D
330
1F
100
AcDbEntity
  8
D-2
  6
Continuous
 62
     3
370
     9
100
AcDbLine
 10
497.7994160031125
 20
1033.252532583633
 30
0.0
 11
503.9254807373345
 21
1038.392905636241
 31
0.0
  0
LINE
  5
61E
330
1F
100
AcDbEntity
  8
D-2
  6
Continuous
 62
     3
370
     9
100
AcDbLine
 10
567.793467910036
 20
1053.392707684383
 30
0.0
 11
327.8336851292113
 21
1053.392707684383
 31
0.0
  0
LINE
  5
61F
330
1F
100
AcDbEntity
  8
D-2
  6
Continuous
 62
     3
370
     9
100
AcDbLine
 10
567.793467910036
 20
1038.392905636241
 30
0.0
 11
327.8336851292113
 21
1038.392905636241
 31
0.0
  0
LINE
  5
620
330
1F
100
AcDbEntity
  8
D-4
  6
Continuous
 62
     7
370
     9
100
AcDbLine
 10
377.7942308494903
 20
1149.578445654655
 30
0.0
 11
447.7942308494903
 21
1149.578445654655
 31
0.0
  0
LWPOLYLINE
  5
621
330
1F
100
AcDbEntity
  8
D-4
  6
Continuous
 62
     7
370
     9
100
AcDbPolyline
 90
        4
 70
     1
 43
1.0
 10
378.2942308494903
 20
1149.578445654655
 42
0.4142135623731
 10
377.7942308494903
 20
1150.078445654655
 42
0.4142135623731
 10
377.2942308494903
 20
1149.578445654655
 42
0.4142135623731
 10
377.7942308494903
 20
1149.078445654655
 42
0.4142135623731
  0
LWPOLYLINE
  5
622
330
1F
100
AcDbEntity
  8
D-4
  6
Continuous
 62
     7
370
     9
100
AcDbPolyline
 90
        4
 70
     1
 43
1.0
 10
448.2942308494903
 20
1149.578445654655
 42
0.4142135623731
 10
447.7942308494903
 20
1150.078445654655
 42
0.4142135623731
 10
447.2942308494903
 20
1149.578445654655
 42
0.4142135623731
 10
447.7942308494903
 20
1149.078445654655
 42
0.4142135623731
  0
LINE
  5
623
330
1F
100
AcDbEntity
  8
D-4
  6
Continuous
 62
     7
370
     9
100
AcDbLine
 10
377.7942308494903
 20
1152.578445654655
 30
0.0
 11
377.7942308494903
 21
1058.392905636241
 31
0.0
  0
LINE
  5
624
330
1F
100
AcDbEntity
  8
D-4
  6
Continuous
 62
     7
370
     9
100
AcDbLine
 10
447.7942308494903
 20
1152.578445654655
 30
0.0
 11
447.7942308494903
 21
1058.392905636241
 31
0.0
  0
TEXT
  5
625
330
1F
100
AcDbEntity
  8
D-4
  6
Continuous
 62
     2
370
   211
100
AcDbText
 10
391.5442308494903
 20
1161.218445654655
 30
0.0
 40
30.48
  1
14
 41
1.0625
  7
ＭＳ ゴシック
100
AcDbText
  0
LINE
  5
626
330
1F
100
AcDbEntity
  8
D-4
  6
Continuous
 62
     7
370
     9
100
AcDbLine
 10
447.7942308494903
 20
1149.578445654655
 30
0.0
 11
517.7942308494903
 21
1149.578445654655
 31
0.0
  0
LWPOLYLINE
  5
627
330
1F
100
AcDbEntity
  8
D-4
  6
Continuous
 62
     7
370
     9
100
AcDbPolyline
 90
        4
 70
     1
 43
1.0
 10
518.2942308494903
 20
1149.578445654655
 42
0.4142135623731
 10
517.7942308494903
 20
1150.078445654655
 42
0.4142135623731
 10
517.2942308494903
 20
1149.578445654655
 42
0.4142135623731
 10
517.7942308494903
 20
1149.078445654655
 42
0.4142135623731
  0
LINE
  5
628
330
1F
100
AcDbEntity
  8
D-4
  6
Continuous
 62
     7
370
     9
100
AcDbLine
 10
517.7942308494903
 20
1152.578445654655
 30
0.0
 11
517.7942308494903
 21
1058.392905636241
 31
0.0
  0
TEXT
  5
629
330
1F
100
AcDbEntity
  8
D-4
  6
Continuous
 62
     2
370
   211
100
AcDbText
 10
461.5442308494903
 20
1161.218445654655
 30
0.0
 40
30.48
  1
14
 41
1.0625
  7
ＭＳ ゴシック
100
AcDbText
  0
TEXT
  5
62A
330
1F
100
AcDbEntity
  8
D-5
  6
Continuous
 62
     2
370
     9
100
AcDbText
 10
481.4204844640943
 20
1265.748944046646
 30
0.0
 40
30.48
  1
C
 41
0.9999999999999998
  7
ＭＳ ゴシック
100
AcDbText
  0
LINE
  5
62B
330
1F
100
AcDbEntity
  8
D-5
  6
JWW_CENTER1
 62
     4
370
     9
100
AcDbLine
 10
414.7942308494908
 20
1256.973129193376
 30
0.0
 11
414.7942308494908
 21
1219.669804371892
 31
0.0
  0
SOLID
  5
62C
330
1F
100
AcDbEntity
  8
D-5
  6
Continuous
 62
     4
370
     9
100
AcDbTrace
 10
416.7942308494901
 20
1256.973129193376
 30
0.0
 11
416.7942308494901
 21
1296.973129193376
 31
0.0
 12
412.7942308494903
 22
1256.973129193376
 32
0.0
 13
412.7942308494903
 23
1296.973129193376
 33
0.0
  0
LINE
  5
62D
330
1F
100
AcDbEntity
  8
D-5
  6
Continuous
 62
     4
370
     9
100
AcDbLine
 10
424.4603206472027
 20
1277.95412606685
 30
0.0
 11
449.2464421815475
 21
1281.217280872351
 31
0.0
  0
LINE
  5
62E
330
1F
100
AcDbEntity
  8
D-5
  6
Continuous
 62
     4
370
     9
100
AcDbLine
 10
424.4603206472027
 20
1277.95412606685
 30
0.0
 11
473.7097133301438
 21
1277.95412606685
 31
0.0
  0
LINE
  5
62F
330
1F
100
AcDbEntity
  8
D-5
  6
Continuous
 62
     4
370
     9
100
AcDbLine
 10
424.4603206472027
 20
1277.95412606685
 30
0.0
 11
449.2464421815475
 21
1274.690971261348
 31
0.0
  0
SOLID
  5
630
330
1F
100
AcDbEntity
  8
D-5
  6
Continuous
 62
     4
370
     9
100
AcDbTrace
 10
414.7942308494902
 20
547.7463968163863
 30
0.0
 11
414.7942308494902
 21
507.746396816386
 31
0.0
 12
410.7942308494904
 22
547.7463968163863
 32
0.0
 13
410.7942308494904
 23
507.746396816386
 33
0.0
  0
LINE
  5
631
330
1F
100
AcDbEntity
  8
D-5
  6
JWW_CENTER1
 62
     4
370
     9
100
AcDbLine
 10
412.7942308494909
 20
547.7463968163863
 30
0.0
 11
412.7942308494909
 21
628.5498455431277
 31
0.0
  0
LINE
  5
632
330
1F
100
AcDbEntity
  8
D-5
  6
Continuous
 62
     4
370
     9
100
AcDbLine
 10
422.4603206472028
 20
526.7653999429126
 30
0.0
 11
471.7097133301439
 21
526.7653999429126
 31
0.0
  0
LINE
  5
633
330
1F
100
AcDbEntity
  8
D-5
  6
Continuous
 62
     4
370
     9
100
AcDbLine
 10
422.4603206472028
 20
526.7653999429126
 30
0.0
 11
447.2464421815476
 21
530.028554748414
 31
0.0
  0
LINE
  5
634
330
1F
100
AcDbEntity
  8
D-5
  6
Continuous
 62
     4
370
     9
100
AcDbLine
 10
422.4603206472028
 20
526.7653999429126
 30
0.0
 11
447.2464421815476
 21
523.5022451374109
 31
0.0
  0
TEXT
  5
635
330
1F
100
AcDbEntity
  8
D-5
  6
Continuous
 62
     2
370
     9
100
AcDbText
 10
479.4204844640944
 20
514.5602179227087
 30
0.0
 40
30.48
  1
C
 41
0.9999999999999998
  7
ＭＳ ゴシック
100
AcDbText
  0
LINE
  5
636
330
1F
100
AcDbEntity
  8
D-5
  6
Continuous
 62
     7
370
     9
100
AcDbLine
 10
-925.3670883770835
 20
-988.9783409679688
 30
0.0
 11
-1500.367507993783
 21
-988.9783409679688
 31
0.0
  0
TEXT
  5
637
330
1F
100
AcDbEntity
  8
D-5
  6
Continuous
 62
     2
370
     9
100
AcDbText
 10
-1469.116213631188
 20
-970.8386513986909
 30
0.0
 40
30.48
  1
A断面詳細図　Ｓ＝１：２
 50
0.00002676319048
 41
1.114130434782608
  7
ＭＳ ゴシック
100
AcDbText
  0
ENDSEC
  0
SECTION
  2
OBJECTS
  0
DICTIONARY
  5
C
330
0
100
AcDbDictionary
281
     1
  3
ACAD_GROUP
350
D
  3
ACAD_LAYOUT
350
1A
  3
ACAD_MLEADERSTYLE
350
639
  3
ACAD_MLINESTYLE
350
17
  3
ACAD_PLOTSETTINGS
350
19
  3
ACAD_PLOTSTYLENAME
350
E
  3
ACAD_TABLESTYLE
350
638
  3
ACAD_VISUALSTYLE
350
2A
  0
DICTIONARY
  5
D
102
{ACAD_REACTORS
330
C
102
}
330
C
100
AcDbDictionary
281
     1
  0
DICTIONARY
  5
1A
102
{ACAD_REACTORS
330
C
102
}
330
C
100
AcDbDictionary
281
     1
  3
Layout1
350
1E
  3
Layout2
350
26
  3
Model
350
22
  0
DICTIONARY
  5
639
102
{ACAD_REACTORS
330
C
102
}
330
C
100
AcDbDictionary
281
     1
  0
DICTIONARY
  5
17
102
{ACAD_REACTORS
330
C
102
}
330
C
100
AcDbDictionary
281
     1
  3
Standard
350
18
  0
DICTIONARY
  5
19
102
{ACAD_REACTORS
330
C
102
}
330
C
100
AcDbDictionary
281
     1
  0
ACDBDICTIONARYWDFLT
  5
E
102
{ACAD_REACTORS
330
C
102
}
330
C
100
AcDbDictionary
281
     1
  3
Normal
350
F
100
AcDbDictionaryWithDefault
340
F
  0
DICTIONARY
  5
638
102
{ACAD_REACTORS
330
C
102
}
330
C
100
AcDbDictionary
281
     1
  0
DICTIONARY
  5
2A
102
{ACAD_REACTORS
330
C
102
}
330
C
100
AcDbDictionary
281
     1
  3
2dWireframe
350
2F
  3
3D Hidden
350
31
  3
3dWireframe
350
30
  3
Basic
350
32
  3
Brighten
350
36
  3
ColorChange
350
3A
  3
Conceptual
350
34
  3
Dim
350
35
  3
Facepattern
350
39
  3
Flat
350
2B
  3
FlatWithEdges
350
2C
  3
Gouraud
350
2D
  3
GouraudWithEdges
350
2E
  3
Linepattern
350
38
  3
Realistic
350
33
  3
Thicken
350
37
  0
LAYOUT
  5
1E
102
{ACAD_REACTORS
330
1A
102
}
330
1A
100
AcDbPlotSettings
  1

  2
none_device
  4

  6

 40
0.0
 41
0.0
 42
0.0
 43
0.0
 44
0.0
 45
0.0
 46
0.0
 47
0.0
 48
0.0
 49
0.0
140
0.0
141
0.0
142
1.0
143
1.0
 70
   688
 72
     0
 73
     0
 74
     5
  7

 75
    16
 76
     0
 77
     5
 78
   300
147
1.0
148
0.0
149
0.0
100
AcDbLayout
  1
Layout1
 70
     1
 71
     1
 10
0.0
 20
0.0
 11
420.0
 21
297.0
 12
0.0
 22
0.0
 32
0.0
 14
1.000000000000000E+20
 24
1.000000000000000E+20
 34
1.000000000000000E+20
 15
-1.000000000000000E+20
 25
-1.000000000000000E+20
 35
-1.000000000000000E+20
146
0.0
 13
0.0
 23
0.0
 33
0.0
 16
1.0
 26
0.0
 36
0.0
 17
0.0
 27
1.0
 37
0.0
 76
     0
330
1B
  0
LAYOUT
  5
26
102
{ACAD_REACTORS
330
1A
102
}
330
1A
100
AcDbPlotSettings
  1

  2
none_device
  4

  6

 40
0.0
 41
0.0
 42
0.0
 43
0.0
 44
0.0
 45
0.0
 46
0.0
 47
0.0
 48
0.0
 49
0.0
140
0.0
141
0.0
142
1.0
143
1.0
 70
   688
 72
     0
 73
     0
 74
     5
  7

 75
    16
 76
     0
 77
     5
 78
   300
147
1.0
148
0.0
149
0.0
100
AcDbLayout
  1
Layout2
 70
     1
 71
     2
 10
0.0
 20
0.0
 11
0.0
 21
0.0
 12
0.0
 22
0.0
 32
0.0
 14
0.0
 24
0.0
 34
0.0
 15
0.0
 25
0.0
 35
0.0
146
0.0
 13
0.0
 23
0.0
 33
0.0
 16
1.0
 26
0.0
 36
0.0
 17
0.0
 27
1.0
 37
0.0
 76
     0
330
23
  0
LAYOUT
  5
22
102
{ACAD_REACTORS
330
1A
102
}
330
1A
100
AcDbPlotSettings
  1

  2
none_device
  4

  6

 40
0.0
 41
0.0
 42
0.0
 43
0.0
 44
0.0
 45
0.0
 46
0.0
 47
0.0
 48
0.0
 49
0.0
140
0.0
141
0.0
142
1.0
143
1.0
 70
  1712
 72
     0
 73
     0
 74
     0
  7

 75
     0
 76
     0
 77
     5
 78
   300
147
1.0
148
0.0
149
0.0
100
AcDbLayout
  1
Model
 70
     1
 71
     0
 10
-2100.0
 20
-1485.0
 11
2100.0
 21
1485.0
 12
0.0
 22
0.0
 32
0.0
 14
-2100.0
 24
-1485.0
 34
0.0
 15
2100.0
 25
1485.0
 35
0.0
146
0.0
 13
0.0
 23
0.0
 33
0.0
 16
1.0
 26
0.0
 36
0.0
 17
0.0
 27
1.0
 37
0.0
 76
     0
330
1F
331
29
  0
MLINESTYLE
  5
18
102
{ACAD_REACTORS
330
17
102
}
330
17
100
AcDbMlineStyle
  2
Standard
 70
     0
  3

 62
   256
 51
90.0
 52
90.0
 71
     2
 49
0.5
 62
   256
  6
BYLAYER
 49
-0.5
 62
   256
  6
BYLAYER
  0
ACDBPLACEHOLDER
  5
F
102
{ACAD_REACTORS
330
E
102
}
330
E
  0
VISUALSTYLE
  5
2F
102
{ACAD_REACTORS
330
2A
102
}
330
2A
100
AcDbVisualStyle
  2
2dWireframe
 70
     4
 71
     0
 72
     2
 73
     0
 90
        0
 40
-0.6
 41
-30.0
 62
     5
 63
     7
421
 16777215
 74
     1
 91
        4
 64
     7
 65
   257
 75
     1
175
     1
 42
1.0
 92
        0
 66
   257
 43
1.0
 76
     1
 77
     6
 78
     2
 67
     7
 79
     5
170
     0
171
     0
290
     0
174
     0
 93
        1
 44
0.0
173
     0
291
     0
 45
0.0
1001
ACAD
1000
AcDbSavedByObjectVersion
1070
     0
  0
VISUALSTYLE
  5
31
102
{ACAD_REACTORS
330
2A
102
}
330
2A
100
AcDbVisualStyle
  2
3D Hidden
 70
     6
 71
     1
 72
     2
 73
     2
 90
        0
 40
-0.6
 41
-30.0
 62
     5
 63
     7
421
 16777215
 74
     2
 91
        2
 64
     7
 65
   257
 75
     2
175
     1
 42
40.0
 92
        0
 66
   257
 43
1.0
 76
     1
 77
     6
 78
     2
 67
     7
 79
     3
170
     0
171
     0
290
     0
174
     0
 93
        1
 44
0.0
173
     0
291
     0
 45
0.0
1001
ACAD
1000
AcDbSavedByObjectVersion
1070
     0
  0
VISUALSTYLE
  5
30
102
{ACAD_REACTORS
330
2A
102
}
330
2A
100
AcDbVisualStyle
  2
3dWireframe
 70
     5
 71
     0
 72
     2
 73
     0
 90
        0
 40
-0.6
 41
-30.0
 62
     5
 63
     7
421
 16777215
 74
     1
 91
        4
 64
     7
 65
   257
 75
     1
175
     1
 42
1.0
 92
        0
 66
   257
 43
1.0
 76
     1
 77
     6
 78
     2
 67
     7
 79
     5
170
     0
171
     0
290
     0
174
     0
 93
        1
 44
0.0
173
     0
291
     0
 45
0.0
1001
ACAD
1000
AcDbSavedByObjectVersion
1070
     0
  0
VISUALSTYLE
  5
32
102
{ACAD_REACTORS
330
2A
102
}
330
2A
100
AcDbVisualStyle
  2
Basic
 70
     7
 71
     1
 72
     0
 73
     1
 90
        0
 40
-0.6
 41
-30.0
 62
     5
 63
     7
421
 16777215
 74
     0
 91
        4
 64
     7
 65
   257
 75
     1
175
     1
 42
1.0
 92
        8
 66
     7
 43
1.0
 76
     1
 77
     6
 78
     2
 67
     7
 79
     5
170
     0
171
     0
290
     0
174
     0
 93
        1
 44
0.0
173
     0
291
     1
 45
0.0
1001
ACAD
1000
AcDbSavedByObjectVersion
1070
     0
  0
VISUALSTYLE
  5
36
102
{ACAD_REACTORS
330
2A
102
}
330
2A
100
AcDbVisualStyle
  2
Brighten
 70
    12
 71
     2
 72
     2
 73
     0
 90
        0
 40
-0.6
 41
-30.0
 62
     5
 63
     7
421
 16777215
 74
     1
 91
        4
 64
     7
 65
   257
 75
     1
175
     1
 42
1.0
 92
        8
 66
     7
 43
1.0
 76
     1
 77
     6
 78
     2
 67
     7
 79
     5
170
     0
171
     0
290
     0
174
     0
 93
        1
 44
50.0
173
     0
291
     1
 45
0.0
1001
ACAD
1000
AcDbSavedByObjectVersion
1070
     0
  0
VISUALSTYLE
  5
3A
102
{ACAD_REACTORS
330
2A
102
}
330
2A
100
AcDbVisualStyle
  2
ColorChange
 70
    16
 71
     2
 72
     2
 73
     3
 90
        0
 40
-0.6
 41
-30.0
 62
     5
 63
     8
421
  8421504
 74
     1
 91
        4
 64
     7
 65
   257
 75
     1
175
     1
 42
1.0
 92
        8
 66
     8
424
  8421504
 43
1.0
 76
     1
 77
     6
 78
     2
 67
     7
 79
     5
170
     0
171
     0
290
     0
174
     0
 93
        1
 44
0.0
173
     0
291
     1
 45
0.0
1001
ACAD
1000
AcDbSavedByObjectVersion
1070
     0
  0
VISUALSTYLE
  5
34
102
{ACAD_REACTORS
330
2A
102
}
330
2A
100
AcDbVisualStyle
  2
Conceptual
 70
     9
 71
     3
 72
     2
 73
     0
 90
        0
 40
-0.6
 41
-30.0
 62
     5
 63
     7
421
 16777215
 74
     2
 91
        2
 64
     7
 65
   257
 75
     1
175
     1
 42
40.0
 92
        8
 66
     7
 43
1.0
 76
     1
 77
     6
 78
     2
 67
     7
 79
     3
170
     0
171
     0
290
     0
174
     0
 93
        1
 44
0.0
173
     0
291
     0
 45
0.0
1001
ACAD
1000
AcDbSavedByObjectVersion
1070
     0
  0
VISUALSTYLE
  5
35
102
{ACAD_REACTORS
330
2A
102
}
330
2A
100
AcDbVisualStyle
  2
Dim
 70
    11
 71
     2
 72
     2
 73
     0
 90
        0
 40
-0.6
 41
-30.0
 62
     5
 63
     7
421
 16777215
 74
     1
 91
        4
 64
     7
 65
   257
 75
     1
175
     1
 42
1.0
 92
        8
 66
     7
 43
1.0
 76
     1
 77
     6
 78
     2
 67
     7
 79
     5
170
     0
171
     0
290
     0
174
     0
 93
        1
 44
-50.0
173
     0
291
     1
 45
0.0
1001
ACAD
1000
AcDbSavedByObjectVersion
1070
     0
  0
VISUALSTYLE
  5
39
102
{ACAD_REACTORS
330
2A
102
}
330
2A
100
AcDbVisualStyle
  2
Facepattern
 70
    15
 71
     2
 72
     2
 73
     0
 90
        0
 40
-0.6
 41
-30.0
 62
     5
 63
     7
421
 16777215
 74
     1
 91
        4
 64
     7
 65
   257
 75
     1
175
     1
 42
1.0
 92
        8
 66
     7
 43
1.0
 76
     1
 77
     6
 78
     2
 67
     7
 79
     5
170
     0
171
     0
290
     0
174
     0
 93
        1
 44
0.0
173
     0
291
     1
 45
0.0
1001
ACAD
1000
AcDbSavedByObjectVersion
1070
     0
  0
VISUALSTYLE
  5
2B
102
{ACAD_REACTORS
330
2A
102
}
330
2A
100
AcDbVisualStyle
  2
Flat
 70
     0
 71
     2
 72
     1
 73
     1
 90
        2
 40
-0.6
 41
30.0
 62
     5
 63
     7
421
 16777215
 74
     0
 91
        4
 64
     7
 65
   257
 75
     1
175
     1
 42
1.0
 92
        8
 66
     7
 43
1.0
 76
     1
 77
     6
 78
     2
 67
     7
 79
     5
170
     0
171
     0
290
     0
174
     0
 93
       13
 44
0.0
173
     0
291
     1
 45
0.0
1001
ACAD
1000
AcDbSavedByObjectVersion
1070
     0
  0
VISUALSTYLE
  5
2C
102
{ACAD_REACTORS
330
2A
102
}
330
2A
100
AcDbVisualStyle
  2
FlatWithEdges
 70
     1
 71
     2
 72
     1
 73
     1
 90
        2
 40
-0.6
 41
30.0
 62
     5
 63
     7
421
 16777215
 74
     1
 91
        4
 64
     7
 65
   257
 75
     1
175
     1
 42
1.0
 92
        0
 66
   257
 43
1.0
 76
     1
 77
     6
 78
     2
 67
     7
 79
     5
170
     0
171
     0
290
     0
174
     0
 93
       13
 44
0.0
173
     0
291
     1
 45
0.0
1001
ACAD
1000
AcDbSavedByObjectVersion
1070
     0
  0
VISUALSTYLE
  5
2D
102
{ACAD_REACTORS
330
2A
102
}
330
2A
100
AcDbVisualStyle
  2
Gouraud
 70
     2
 71
     2
 72
     2
 73
     1
 90
        2
 40
-0.6
 41
30.0
 62
     5
 63
     7
421
 16777215
 74
     0
 91
        4
 64
     7
 65
   257
 75
     1
175
     1
 42
1.0
 92
        0
 66
     7
 43
1.0
 76
     1
 77
     6
 78
     2
 67
     7
 79
     5
170
     0
171
     0
290
     0
174
     0
 93
       13
 44
0.0
173
     0
291
     1
 45
0.0
1001
ACAD
1000
AcDbSavedByObjectVersion
1070
     0
  0
VISUALSTYLE
  5
2E
102
{ACAD_REACTORS
330
2A
102
}
330
2A
100
AcDbVisualStyle
  2
GouraudWithEdges
 70
     3
 71
     2
 72
     2
 73
     1
 90
        2
 40
-0.6
 41
30.0
 62
     5
 63
     7
421
 16777215
 74
     1
 91
        4
 64
     7
 65
   257
 75
     1
175
     1
 42
1.0
 92
        0
 66
   257
 43
1.0
 76
     1
 77
     6
 78
     2
 67
     7
 79
     5
170
     0
171
     0
290
     0
174
     0
 93
       13
 44
0.0
173
     0
291
     1
 45
0.0
1001
ACAD
1000
AcDbSavedByObjectVersion
1070
     0
  0
VISUALSTYLE
  5
38
102
{ACAD_REACTORS
330
2A
102
}
330
2A
100
AcDbVisualStyle
  2
Linepattern
 70
    14
 71
     2
 72
     2
 73
     0
 90
        0
 40
-0.6
 41
-30.0
 62
     5
 63
     7
421
 16777215
 74
     1
 91
        4
 64
     7
 65
   257
 75
     7
175
     7
 42
1.0
 92
        8
 66
     7
 43
1.0
 76
     1
 77
     6
 78
     2
 67
     7
 79
     5
170
     0
171
     0
290
     0
174
     0
 93
        1
 44
0.0
173
     0
291
     1
 45
0.0
1001
ACAD
1000
AcDbSavedByObjectVersion
1070
     0
  0
VISUALSTYLE
  5
33
102
{ACAD_REACTORS
330
2A
102
}
330
2A
100
AcDbVisualStyle
  2
Realistic
 70
     8
 71
     2
 72
     2
 73
     0
 90
        0
 40
-0.6
 41
-30.0
 62
     5
 63
     7
421
 16777215
 74
     1
 91
        0
 64
     7
 65
   257
 75
     1
175
     1
 42
1.0
 92
        8
 66
     8
424
  7895160
 43
1.0
 76
     1
 77
     6
 78
     2
 67
     7
 79
     5
170
     0
171
     0
290
     0
174
     0
 93
       13
 44
0.0
173
     0
291
     0
 45
0.0
1001
ACAD
1000
AcDbSavedByObjectVersion
1070
     0
  0
VISUALSTYLE
  5
37
102
{ACAD_REACTORS
330
2A
102
}
330
2A
100
AcDbVisualStyle
  2
Thicken
 70
    13
 71
     2
 72
     2
 73
     0
 90
        0
 40
-0.6
 41
-30.0
 62
     5
 63
     7
421
 16777215
 74
     1
 91
        4
 64
     7
 65
   257
 75
     1
175
     1
 42
1.0
 92
       12
 66
     7
 43
1.0
 76
     1
 77
     6
 78
     2
 67
     7
 79
     5
170
     0
171
     0
290
     0
174
     0
 93
        1
 44
0.0
173
     0
291
     1
 45
0.0
1001
ACAD
1000
AcDbSavedByObjectVersion
1070
     0
  0
ENDSEC
  0
EOF
