  0
SECTION
  2
HEADER
  9
$ACADVER
  1
AC1018
  9
$ACADMAINTVER
 70
     0
  9
$DWGCODEPAGE
  3
ANSI_932
  9
$INSBASE
 10
0.0
 20
0.0
 30
0.0
  9
$EXTMIN
 10
-2100.0
 20
-1485.0
 30
0.0
  9
$EXTMAX
 10
2100.0
 20
1485.0
 30
0.0
  9
$LIMMIN
 10
-2100.0
 20
-1485.0
  9
$LIMMAX
 10
2100.0
 20
1485.0
  9
$ORTHOMODE
 70
     0
  9
$REGENMODE
 70
     1
  9
$FILLMODE
 70
     1
  9
$QTEXTMODE
 70
     0
  9
$MIRRTEXT
 70
     1
  9
$LTSCALE
 40
10.0
  9
$ATTMODE
 70
     1
  9
$TEXTSIZE
 40
2.5
  9
$TRACEWID
 40
1.0
  9
$TEXTSTYLE
  7
Standard
  9
$CLAYER
  8
0
  9
$CELTYPE
  6
ByLayer
  9
$CECOLOR
 62
   256
  9
$CELTSCALE
 40
1.0
  9
$DISPSILH
 70
     0
  9
$DIMSCALE
 40
1.0
  9
$DIMASZ
 40
2.5
  9
$DIMEXO
 40
0.625
  9
$DIMDLI
 40
3.75
  9
$DIMRND
 40
0.0
  9
$DIMDLE
 40
0.0
  9
$DIMEXE
 40
1.25
  9
$DIMTP
 40
0.0
  9
$DIMTM
 40
0.0
  9
$DIMTXT
 40
2.5
  9
$DIMCEN
 40
2.5
  9
$DIMTSZ
 40
0.0
  9
$DIMTOL
 70
     0
  9
$DIMLIM
 70
     0
  9
$DIMTIH
 70
     0
  9
$DIMTOH
 70
     0
  9
$DIMSE1
 70
     0
  9
$DIMSE2
 70
     0
  9
$DIMTAD
 70
     1
  9
$DIMZIN
 70
     8
  9
$DIMBLK
  1

  9
$DIMASO
 70
     1
  9
$DIMSHO
 70
     1
  9
$DIMPOST
  1

  9
$DIMAPOST
  1

  9
$DIMALT
 70
     0
  9
$DIMALTD
 70
     3
  9
$DIMALTF
 40
0.03937007874016
  9
$DIMLFAC
 40
1.0
  9
$DIMTOFL
 70
     1
  9
$DIMTVP
 40
0.0
  9
$DIMTIX
 70
     0
  9
$DIMSOXD
 70
     0
  9
$DIMSAH
 70
     0
  9
$DIMBLK1
  1

  9
$DIMBLK2
  1

  9
$DIMSTYLE
  2
ISO-25
  9
$DIMCLRD
 70
     0
  9
$DIMCLRE
 70
     0
  9
$DIMCLRT
 70
     0
  9
$DIMTFAC
 40
1.0
  9
$DIMGAP
 40
0.625
  9
$DIMJUST
 70
     0
  9
$DIMSD1
 70
     0
  9
$DIMSD2
 70
     0
  9
$DIMTOLJ
 70
     0
  9
$DIMTZIN
 70
     8
  9
$DIMALTZ
 70
     0
  9
$DIMALTTZ
 70
     0
  9
$DIMUPT
 70
     0
  9
$DIMDEC
 70
     2
  9
$DIMTDEC
 70
     2
  9
$DIMALTU
 70
     2
  9
$DIMALTTD
 70
     3
  9
$DIMTXSTY
  7
Standard
  9
$DIMAUNIT
 70
     0
  9
$DIMADEC
 70
     0
  9
$DIMALTRND
 40
0.0
  9
$DIMAZIN
 70
     0
  9
$DIMDSEP
 70
    44
  9
$DIMATFIT
 70
     3
  9
$DIMFRAC
 70
     0
  9
$DIMLDRBLK
  1

  9
$DIMLUNIT
 70
     2
  9
$DIMLWD
 70
    -2
  9
$DIMLWE
 70
    -2
  9
$DIMTMOVE
 70
     0
  9
$LUNITS
 70
     2
  9
$LUPREC
 70
     4
  9
$SKETCHINC
 40
1.0
  9
$FILLETRAD
 40
10.0
  9
$AUNITS
 70
     0
  9
$AUPREC
 70
     0
  9
$MENU
  1
.
  9
$ELEVATION
 40
0.0
  9
$PELEVATION
 40
0.0
  9
$THICKNESS
 40
0.0
  9
$LIMCHECK
 70
     0
  9
$CHAMFERA
 40
10.0
  9
$CHAMFERB
 40
10.0
  9
$CHAMFERC
 40
20.0
  9
$CHAMFERD
 40
0.0
  9
$SKPOLY
 70
     0
  9
$TDCREATE
 40
2458442.479557651
  9
$TDUCREATE
 40
2458442.104557651
  9
$TDUPDATE
 40
2458442.479557662
  9
$TDUUPDATE
 40
2458442.104557662
  9
$TDINDWG
 40
0.0000000116
  9
$TDUSRTIMER
 40
0.0000000116
  9
$USRTIMER
 70
     1
  9
$ANGBASE
 50
0.0
  9
$ANGDIR
 70
     0
  9
$PDMODE
 70
     0
  9
$PDSIZE
 40
0.0
  9
$PLINEWID
 40
0.0
  9
$SPLFRAME
 70
     0
  9
$SPLINETYPE
 70
     6
  9
$SPLINESEGS
 70
     8
  9
$HANDSEED
  5
5DB
  9
$SURFTAB1
 70
     6
  9
$SURFTAB2
 70
     6
  9
$SURFTYPE
 70
     6
  9
$SURFU
 70
     6
  9
$SURFV
 70
     6
  9
$UCSBASE
  2

  9
$UCSNAME
  2

  9
$UCSORG
 10
0.0
 20
0.0
 30
0.0
  9
$UCSXDIR
 10
1.0
 20
0.0
 30
0.0
  9
$UCSYDIR
 10
0.0
 20
1.0
 30
0.0
  9
$UCSORTHOREF
  2

  9
$UCSORTHOVIEW
 70
     0
  9
$UCSORGTOP
 10
0.0
 20
0.0
 30
0.0
  9
$UCSORGBOTTOM
 10
0.0
 20
0.0
 30
0.0
  9
$UCSORGLEFT
 10
0.0
 20
0.0
 30
0.0
  9
$UCSORGRIGHT
 10
0.0
 20
0.0
 30
0.0
  9
$UCSORGFRONT
 10
0.0
 20
0.0
 30
0.0
  9
$UCSORGBACK
 10
0.0
 20
0.0
 30
0.0
  9
$PUCSBASE
  2

  9
$PUCSNAME
  2

  9
$PUCSORG
 10
0.0
 20
0.0
 30
0.0
  9
$PUCSXDIR
 10
1.0
 20
0.0
 30
0.0
  9
$PUCSYDIR
 10
0.0
 20
1.0
 30
0.0
  9
$PUCSORTHOREF
  2

  9
$PUCSORTHOVIEW
 70
     0
  9
$PUCSORGTOP
 10
0.0
 20
0.0
 30
0.0
  9
$PUCSORGBOTTOM
 10
0.0
 20
0.0
 30
0.0
  9
$PUCSORGLEFT
 10
0.0
 20
0.0
 30
0.0
  9
$PUCSORGRIGHT
 10
0.0
 20
0.0
 30
0.0
  9
$PUCSORGFRONT
 10
0.0
 20
0.0
 30
0.0
  9
$PUCSORGBACK
 10
0.0
 20
0.0
 30
0.0
  9
$USERI1
 70
     0
  9
$USERI2
 70
     0
  9
$USERI3
 70
     0
  9
$USERI4
 70
     0
  9
$USERI5
 70
     0
  9
$USERR1
 40
0.0
  9
$USERR2
 40
0.0
  9
$USERR3
 40
0.0
  9
$USERR4
 40
0.0
  9
$USERR5
 40
0.0
  9
$WORLDVIEW
 70
     1
  9
$SHADEDGE
 70
     3
  9
$SHADEDIF
 70
    70
  9
$TILEMODE
 70
     1
  9
$MAXACTVP
 70
    64
  9
$PINSBASE
 10
0.0
 20
0.0
 30
0.0
  9
$PLIMCHECK
 70
     0
  9
$PEXTMIN
 10
1.000000000000000E+20
 20
1.000000000000000E+20
 30
1.000000000000000E+20
  9
$PEXTMAX
 10
-1.000000000000000E+20
 20
-1.000000000000000E+20
 30
-1.000000000000000E+20
  9
$PLIMMIN
 10
0.0
 20
0.0
  9
$PLIMMAX
 10
420.0
 20
297.0
  9
$UNITMODE
 70
     0
  9
$VISRETAIN
 70
     1
  9
$PLINEGEN
 70
     0
  9
$PSLTSCALE
 70
     1
  9
$TREEDEPTH
 70
  3020
  9
$CMLSTYLE
  2
Standard
  9
$CMLJUST
 70
     0
  9
$CMLSCALE
 40
20.0
  9
$PROXYGRAPHICS
 70
     1
  9
$MEASUREMENT
 70
     1
  9
$CELWEIGHT
370
    -1
  9
$ENDCAPS
280
     0
  9
$JOINSTYLE
280
     0
  9
$LWDISPLAY
290
     0
  9
$INSUNITS
 70
     4
  9
$HYPERLINKBASE
  1

  9
$STYLESHEET
  1

  9
$XEDIT
290
     1
  9
$CEPSNTYPE
380
     0
  9
$PSTYLEMODE
290
     1
  9
$FINGERPRINTGUID
  2
{25036D1D-FBFA-40F2-9F2E-2E9136F87EDE}
  9
$VERSIONGUID
  2
{FAEB1C32-E019-11D5-929B-00C0DF256EC4}
  9
$EXTNAMES
290
     1
  9
$PSVPSCALE
 40
0.0
  9
$OLESTARTUP
290
     0
  9
$SORTENTS
280
   127
  9
$INDEXCTL
280
     0
  9
$HIDETEXT
280
     1
  9
$XCLIPFRAME
290
     0
  9
$HALOGAP
280
     0
  9
$OBSCOLOR
 70
   257
  9
$OBSLTYPE
280
     0
  9
$INTERSECTIONDISPLAY
280
     0
  9
$INTERSECTIONCOLOR
 70
   257
  9
$DIMASSOC
280
     2
  9
$PROJECTNAME
  1

  0
ENDSEC
  0
SECTION
  2
CLASSES
  0
CLASS
  1
ACDBDICTIONARYWDFLT
  2
AcDbDictionaryWithDefault
  3
ObjectDBX Classes
 90
        0
 91
        4
280
     0
281
     0
  0
CLASS
  1
VISUALSTYLE
  2
AcDbVisualStyle
  3
ObjectDBX Classes
 90
     4095
 91
        4
280
     0
281
     0
  0
ENDSEC
  0
SECTION
  2
TABLES
  0
TABLE
  2
VPORT
  5
8
330
0
100
AcDbSymbolTable
 70
     1
  0
VPORT
  5
29
330
8
100
AcDbSymbolTableRecord
100
AcDbViewportTableRecord
  2
*Active
 70
     0
 10
0.0
 20
0.0
 11
1.0
 21
1.0
 12
0.0
 22
0.0
 13
0.0
 23
0.0
 14
10.0
 24
10.0
 15
10.0
 25
10.0
 16
0.0
 26
0.0
 36
1.0
 17
0.0
 27
0.0
 37
0.0
 40
3267.0
 41
1.414141414141414
 42
50.0
 43
0.0
 44
0.0
 50
0.0
 51
0.0
 71
     0
 72
 10000
 73
     1
 74
     3
 75
     0
 76
     0
 77
     0
 78
     0
281
     0
 65
     1
110
0.0
120
0.0
130
0.0
111
1.0
121
0.0
131
0.0
112
0.0
122
1.0
132
0.0
 79
     0
146
0.0
  0
ENDTAB
  0
TABLE
  2
LTYPE
  5
5
330
0
100
AcDbSymbolTable
 70
     5
  0
LTYPE
  5
14
330
5
100
AcDbSymbolTableRecord
100
AcDbLinetypeTableRecord
  2
ByBlock
 70
     0
  3

 72
    65
 73
     0
 40
0.0
  0
LTYPE
  5
15
330
5
100
AcDbSymbolTableRecord
100
AcDbLinetypeTableRecord
  2
ByLayer
 70
     0
  3

 72
    65
 73
     0
 40
0.0
  0
LTYPE
  5
16
330
5
100
AcDbSymbolTableRecord
100
AcDbLinetypeTableRecord
  2
Continuous
 70
     0
  3
Solid line
 72
    65
 73
     0
 40
0.0
  0
LTYPE
  5
3C
330
5
100
AcDbSymbolTableRecord
100
AcDbLinetypeTableRecord
  2
JWW_DASHED3
 70
     0
  3
---  ------  ------  ------  ---
 72
    65
 73
     2
 40
3.386666666666667
 49
2.54
 74
     0
 49
-0.8466666666666667
 74
     0
  0
LTYPE
  5
3D
330
5
100
AcDbSymbolTableRecord
100
AcDbLinetypeTableRecord
  2
JWW_CENTER1
 70
     0
  3
-----  --  ----------  --  -----
 72
    65
 73
     4
 40
6.773333333333333
 49
4.233333333333333
 74
     0
 49
-0.8466666666666667
 74
     0
 49
0.8466666666666667
 74
     0
 49
-0.8466666666666667
 74
     0
  0
LTYPE
  5
3E
330
5
100
AcDbSymbolTableRecord
100
AcDbLinetypeTableRecord
  2
JWW_DASHED2
 70
     0
  3
--    ----    ----    ----    --
 72
    65
 73
     2
 40
3.386666666666667
 49
1.693333333333333
 74
     0
 49
-1.693333333333333
 74
     0
  0
LTYPE
  5
3F
330
5
100
AcDbSymbolTableRecord
100
AcDbLinetypeTableRecord
  2
JWW_CENTER2
 70
     0
  3
-------------  --  -------------
 72
    65
 73
     4
 40
13.54666666666667
 49
11.00666666666667
 74
     0
 49
-0.8466666666666667
 74
     0
 49
0.8466666666666667
 74
     0
 49
-0.8466666666666667
 74
     0
  0
ENDTAB
  0
TABLE
  2
LAYER
  5
2
330
0
100
AcDbSymbolTable
 70
    18
  0
LAYER
  5
10
330
2
100
AcDbSymbolTableRecord
100
AcDbLayerTableRecord
  2
0
 70
     0
 62
     7
  6
Continuous
370
    -3
390
F
  0
LAYER
  5
40
330
2
100
AcDbSymbolTableRecord
100
AcDbLayerTableRecord
  2
C-1
 70
     0
 62
     7
  6
Continuous
370
    -1
390
F
  0
LAYER
  5
41
330
2
100
AcDbSymbolTableRecord
100
AcDbLayerTableRecord
  2
F-5ﾚｲﾔ
 70
     0
 62
     7
  6
Continuous
370
    -1
390
F
  0
LAYER
  5
42
330
2
100
AcDbSymbolTableRecord
100
AcDbLayerTableRecord
  2
C-2
 70
     0
 62
     7
  6
Continuous
370
    -1
390
F
  0
LAYER
  5
43
330
2
100
AcDbSymbolTableRecord
100
AcDbLayerTableRecord
  2
C-A
 70
     0
 62
     7
  6
Continuous
370
    -1
390
F
  0
LAYER
  5
44
330
2
100
AcDbSymbolTableRecord
100
AcDbLayerTableRecord
  2
D-4
 70
     0
 62
     7
  6
Continuous
370
    -1
390
F
  0
LAYER
  5
45
330
2
100
AcDbSymbolTableRecord
100
AcDbLayerTableRecord
  2
D-2
 70
     0
 62
     7
  6
Continuous
370
    -1
390
F
  0
LAYER
  5
46
330
2
100
AcDbSymbolTableRecord
100
AcDbLayerTableRecord
  2
D-5
 70
     0
 62
     7
  6
Continuous
370
    -1
390
F
  0
LAYER
  5
47
330
2
100
AcDbSymbolTableRecord
100
AcDbLayerTableRecord
  2
C-4
 70
     0
 62
     7
  6
Continuous
370
    -1
390
F
  0
LAYER
  5
48
330
2
100
AcDbSymbolTableRecord
100
AcDbLayerTableRecord
  2
C-5
 70
     0
 62
     7
  6
Continuous
370
    -1
390
F
  0
LAYER
  5
49
330
2
100
AcDbSymbolTableRecord
100
AcDbLayerTableRecord
  2
D-0
 70
     0
 62
     7
  6
Continuous
370
    -1
390
F
  0
LAYER
  5
4A
330
2
100
AcDbSymbolTableRecord
100
AcDbLayerTableRecord
  2
D-A
 70
     0
 62
     7
  6
Continuous
370
    -1
390
F
  0
LAYER
  5
4B
330
2
100
AcDbSymbolTableRecord
100
AcDbLayerTableRecord
  2
C-3
 70
     0
 62
     7
  6
Continuous
370
    -1
390
F
  0
LAYER
  5
4C
330
2
100
AcDbSymbolTableRecord
100
AcDbLayerTableRecord
  2
C-9
 70
     0
 62
     7
  6
Continuous
370
    -1
390
F
  0
LAYER
  5
4D
330
2
100
AcDbSymbolTableRecord
100
AcDbLayerTableRecord
  2
D-1
 70
     0
 62
     7
  6
Continuous
370
    -1
390
F
  0
LAYER
  5
4E
330
2
100
AcDbSymbolTableRecord
100
AcDbLayerTableRecord
  2
D-6
 70
     0
 62
     7
  6
Continuous
370
    -1
390
F
  0
LAYER
  5
4F
330
2
100
AcDbSymbolTableRecord
100
AcDbLayerTableRecord
  2
D-9
 70
     0
 62
     7
  6
Continuous
370
    -1
390
F
  0
LAYER
  5
50
330
2
100
AcDbSymbolTableRecord
100
AcDbLayerTableRecord
  2
F-4ﾚｲﾔ
 70
     0
 62
     7
  6
Continuous
370
    -1
390
F
  0
ENDTAB
  0
TABLE
  2
STYLE
  5
3
330
0
100
AcDbSymbolTable
 70
     2
  0
STYLE
  5
11
330
3
100
AcDbSymbolTableRecord
100
AcDbTextStyleTableRecord
  2
Standard
 70
     0
 40
0.0
 41
1.0
 50
0.0
 71
     0
 42
2.5
  3
txt
  4

1001
ACAD
1000

1071
        0
  0
STYLE
  5
3B
330
3
100
AcDbSymbolTableRecord
100
AcDbTextStyleTableRecord
  2
ＭＳ ゴシック
 70
     0
 40
1.0
 41
1.0
 50
0.0
 71
     0
 42
10.0
  3

  4

1001
ACAD
1000
MS Gothic
1071
    32817
  0
ENDTAB
  0
TABLE
  2
VIEW
  5
6
330
0
100
AcDbSymbolTable
 70
     0
  0
ENDTAB
  0
TABLE
  2
UCS
  5
7
330
0
100
AcDbSymbolTable
 70
     0
  0
ENDTAB
  0
TABLE
  2
APPID
  5
9
330
0
100
AcDbSymbolTable
 70
     1
  0
APPID
  5
12
330
9
100
AcDbSymbolTableRecord
100
AcDbRegAppTableRecord
  2
ACAD
 70
     0
  0
ENDTAB
  0
TABLE
  2
DIMSTYLE
  5
A
330
0
100
AcDbSymbolTable
 70
     1
100
AcDbDimStyleTable
  0
DIMSTYLE
105
27
330
A
100
AcDbSymbolTableRecord
100
AcDbDimStyleTableRecord
  2
ISO-25
 70
     0
 41
2.5
 42
0.625
 43
3.75
 44
1.25
 73
     0
 74
     0
 77
     1
 78
     8
140
2.5
141
2.5
143
0.03937007874016
147
0.625
171
     3
172
     1
271
     2
272
     2
274
     3
278
    44
283
     0
284
     8
340
11
  0
ENDTAB
  0
TABLE
  2
BLOCK_RECORD
  5
1
330
0
100
AcDbSymbolTable
 70
     1
  0
BLOCK_RECORD
  5
1F
330
1
100
AcDbSymbolTableRecord
100
AcDbBlockTableRecord
  2
*Model_Space
340
22
  0
BLOCK_RECORD
  5
1B
330
1
100
AcDbSymbolTableRecord
100
AcDbBlockTableRecord
  2
*Paper_Space
340
1E
  0
BLOCK_RECORD
  5
23
330
1
100
AcDbSymbolTableRecord
100
AcDbBlockTableRecord
  2
*Paper_Space0
340
26
  0
ENDTAB
  0
ENDSEC
  0
SECTION
  2
BLOCKS
  0
BLOCK
  5
20
330
1F
100
AcDbEntity
  8
0
100
AcDbBlockBegin
  2
*Model_Space
 70
     0
 10
0.0
 20
0.0
 30
0.0
  3
*Model_Space
  1

  0
ENDBLK
  5
21
330
1F
100
AcDbEntity
  8
0
100
AcDbBlockEnd
  0
BLOCK
  5
1C
330
1B
100
AcDbEntity
 67
     1
  8
0
100
AcDbBlockBegin
  2
*Paper_Space
 70
     0
 10
0.0
 20
0.0
 30
0.0
  3
*Paper_Space
  1

  0
ENDBLK
  5
1D
330
1B
100
AcDbEntity
 67
     1
  8
0
100
AcDbBlockEnd
  0
BLOCK
  5
24
330
23
100
AcDbEntity
  8
0
100
AcDbBlockBegin
  2
*Paper_Space0
 70
     0
 10
0.0
 20
0.0
 30
0.0
  3
*Paper_Space0
  1

  0
ENDBLK
  5
25
330
23
100
AcDbEntity
  8
0
100
AcDbBlockEnd
  0
ENDSEC
  0
SECTION
  2
ENTITIES
  0
LINE
  5
51
330
1F
100
AcDbEntity
  8
C-1
  6
JWW_DASHED3
 62
     2
370
     9
100
AcDbLine
 10
-425.1156421053508
 20
908.614925970893
 30
0.0
 11
-425.1156421053508
 21
486.6157111799302
 31
0.0
  0
LINE
  5
52
330
1F
100
AcDbEntity
  8
C-1
  6
JWW_DASHED3
 62
     2
370
     9
100
AcDbLine
 10
-425.1156421053508
 20
908.614925970893
 30
0.0
 11
-825.1164669047597
 21
908.614925970893
 31
0.0
  0
TEXT
  5
53
330
1F
100
AcDbEntity
  8
F-5ﾚｲﾔ
  6
Continuous
 62
     2
370
     9
100
AcDbText
 10
-845.3997081828237
 20
-1322.642571106638
 30
0.0
 40
30.48
  1
ステンレス製　細目ノンスリップタイプ（ローレット模様）グレーチング（すきま6mm）
 41
0.774367088607595
  7
ＭＳ ゴシック
100
AcDbText
  0
LINE
  5
54
330
1F
100
AcDbEntity
  8
C-2
  6
Continuous
 62
     3
370
     9
100
AcDbLine
 10
-400.1161782249665
 20
933.6147610110112
 30
0.0
 11
-400.1161782249665
 21
483.6146372911
 31
0.0
  0
LINE
  5
55
330
1F
100
AcDbEntity
  8
C-2
  6
Continuous
 62
     3
370
     9
100
AcDbLine
 10
-400.1161782249665
 20
483.6146372911
 30
0.0
 11
-850.1163019448779
 21
483.6146372911
 31
0.0
  0
LINE
  5
56
330
1F
100
AcDbEntity
  8
C-2
  6
Continuous
 62
     3
370
     9
100
AcDbLine
 10
-850.1163019448779
 20
483.6146372911
 30
0.0
 11
-850.1163019448779
 21
933.6147610110112
 31
0.0
  0
LINE
  5
57
330
1F
100
AcDbEntity
  8
C-2
  6
Continuous
 62
     3
370
     9
100
AcDbLine
 10
-400.1161782249665
 20
933.6147610110112
 30
0.0
 11
-850.1163019448779
 21
933.6147610110112
 31
0.0
  0
LINE
  5
58
330
1F
100
AcDbEntity
  8
C-1
  6
JWW_DASHED3
 62
     2
370
     9
100
AcDbLine
 10
-425.1156421053508
 20
508.6152146506862
 30
0.0
 11
-825.1164669047597
 21
508.6152146506862
 31
0.0
  0
LINE
  5
59
330
1F
100
AcDbEntity
  8
C-1
  6
JWW_DASHED3
 62
     2
370
     9
100
AcDbLine
 10
-825.1164669047597
 20
508.6152146506862
 30
0.0
 11
-825.1164669047597
 21
908.614925970893
 31
0.0
  0
LINE
  5
5A
330
1F
100
AcDbEntity
  8
C-A
  6
Continuous
 62
     3
370
     9
100
AcDbLine
 10
-400.1161782249665
 20
930.6150480412055
 30
0.0
 11
-850.1163019448779
 21
930.6150480412055
 31
0.0
  0
LINE
  5
5B
330
1F
100
AcDbEntity
  8
C-A
  6
Continuous
 62
     3
370
     9
100
AcDbLine
 10
-842.1159538795274
 20
486.6157111799302
 30
0.0
 11
-842.1159538795274
 21
930.6150480412055
 31
0.0
  0
LINE
  5
5C
330
1F
100
AcDbEntity
  8
C-A
  6
Continuous
 62
     3
370
     9
100
AcDbLine
 10
-839.115993469899
 20
486.6157111799302
 30
0.0
 11
-839.115993469899
 21
930.6150480412055
 31
0.0
  0
LINE
  5
5D
330
1F
100
AcDbEntity
  8
C-A
  6
Continuous
 62
     3
370
     9
100
AcDbLine
 10
-831.1171300434842
 20
486.6157111799302
 30
0.0
 11
-831.1171300434842
 21
930.6150480412055
 31
0.0
  0
LINE
  5
5E
330
1F
100
AcDbEntity
  8
C-A
  6
Continuous
 62
     3
370
     9
100
AcDbLine
 10
-825.1164669047597
 20
486.6157111799302
 30
0.0
 11
-825.1164669047597
 21
930.6150480412055
 31
0.0
  0
LINE
  5
5F
330
1F
100
AcDbEntity
  8
C-A
  6
Continuous
 62
     3
370
     9
100
AcDbLine
 10
-817.1166137190545
 20
486.6157111799302
 30
0.0
 11
-817.1166137190545
 21
930.6150480412055
 31
0.0
  0
LINE
  5
60
330
1F
100
AcDbEntity
  8
C-A
  6
Continuous
 62
     3
370
     9
100
AcDbLine
 10
-811.1159505803298
 20
486.6157111799302
 30
0.0
 11
-811.1159505803298
 21
930.6150480412055
 31
0.0
  0
LINE
  5
61
330
1F
100
AcDbEntity
  8
C-A
  6
Continuous
 62
     3
370
     9
100
AcDbLine
 10
-803.1162211145357
 20
486.6157111799302
 30
0.0
 11
-803.1162211145357
 21
930.6150480412055
 31
0.0
  0
LINE
  5
62
330
1F
100
AcDbEntity
  8
C-A
  6
Continuous
 62
     3
370
     9
100
AcDbLine
 10
-797.1160528554562
 20
486.6157111799302
 30
0.0
 11
-797.1160528554562
 21
930.6150480412055
 31
0.0
  0
LINE
  5
63
330
1F
100
AcDbEntity
  8
C-A
  6
Continuous
 62
     3
370
     9
100
AcDbLine
 10
-789.116199669751
 20
486.6157111799302
 30
0.0
 11
-789.116199669751
 21
930.6150480412055
 31
0.0
  0
LINE
  5
64
330
1F
100
AcDbEntity
  8
C-A
  6
Continuous
 62
     3
370
     9
100
AcDbLine
 10
-783.1161551305831
 20
486.6157111799302
 30
0.0
 11
-783.1161551305831
 21
930.6150480412055
 31
0.0
  0
LINE
  5
65
330
1F
100
AcDbEntity
  8
C-A
  6
Continuous
 62
     3
370
     9
100
AcDbLine
 10
-775.1161782249665
 20
486.6157111799302
 30
0.0
 11
-775.1161782249665
 21
930.6150480412055
 31
0.0
  0
LINE
  5
66
330
1F
100
AcDbEntity
  8
C-A
  6
Continuous
 62
     3
370
     9
100
AcDbLine
 10
-769.1166285654438
 20
486.6157111799302
 30
0.0
 11
-769.1166285654438
 21
930.6150480412055
 31
0.0
  0
LINE
  5
67
330
1F
100
AcDbEntity
  8
C-A
  6
Continuous
 62
     3
370
     9
100
AcDbLine
 10
-761.1167753797386
 20
486.6157111799302
 30
0.0
 11
-761.1167753797386
 21
930.6150480412055
 31
0.0
  0
LINE
  5
68
330
1F
100
AcDbEntity
  8
C-A
  6
Continuous
 62
     3
370
     9
100
AcDbLine
 10
-755.1166071206592
 20
486.6157111799302
 30
0.0
 11
-755.1166071206592
 21
930.6150480412055
 31
0.0
  0
LINE
  5
69
330
1F
100
AcDbEntity
  8
C-A
  6
Continuous
 62
     3
370
     9
100
AcDbLine
 10
-747.1163827752198
 20
486.6157111799302
 30
0.0
 11
-747.1163827752198
 21
930.6150480412055
 31
0.0
  0
LINE
  5
6A
330
1F
100
AcDbEntity
  8
C-A
  6
Continuous
 62
     3
370
     9
100
AcDbLine
 10
-741.1162145161404
 20
486.6157111799302
 30
0.0
 11
-741.1162145161404
 21
930.6150480412055
 31
0.0
  0
LINE
  5
6B
330
1F
100
AcDbEntity
  8
C-A
  6
Continuous
 62
     3
370
     9
100
AcDbLine
 10
-733.1163613304352
 20
486.6157111799302
 30
0.0
 11
-733.1163613304352
 21
930.6150480412055
 31
0.0
  0
LINE
  5
6C
330
1F
100
AcDbEntity
  8
C-A
  6
Continuous
 62
     3
370
     9
100
AcDbLine
 10
-727.116687951001
 20
486.6157111799302
 30
0.0
 11
-727.116687951001
 21
930.6150480412055
 31
0.0
  0
LINE
  5
6D
330
1F
100
AcDbEntity
  8
C-A
  6
Continuous
 62
     3
370
     9
100
AcDbLine
 10
-719.1163398856506
 20
486.6157111799302
 30
0.0
 11
-719.1163398856506
 21
930.6150480412055
 31
0.0
  0
LINE
  5
6E
330
1F
100
AcDbEntity
  8
C-A
  6
Continuous
 62
     3
370
     9
100
AcDbLine
 10
-713.1172851057732
 20
486.6157111799302
 30
0.0
 11
-713.1172851057732
 21
930.6150480412055
 31
0.0
  0
LINE
  5
6F
330
1F
100
AcDbEntity
  8
C-A
  6
Continuous
 62
     3
370
     9
100
AcDbLine
 10
-705.1174319200677
 20
486.6157111799302
 30
0.0
 11
-705.1174319200677
 21
930.6150480412055
 31
0.0
  0
LINE
  5
70
330
1F
100
AcDbEntity
  8
C-A
  6
Continuous
 62
     3
370
     9
100
AcDbLine
 10
-699.1167687813434
 20
486.6157111799302
 30
0.0
 11
-699.1167687813434
 21
930.6150480412055
 31
0.0
  0
LINE
  5
71
330
1F
100
AcDbEntity
  8
C-A
  6
Continuous
 62
     3
370
     9
100
AcDbLine
 10
-691.1169155956381
 20
486.6157111799302
 30
0.0
 11
-691.1169155956381
 21
930.6150480412055
 31
0.0
  0
LINE
  5
72
330
1F
100
AcDbEntity
  8
C-A
  6
Continuous
 62
     3
370
     9
100
AcDbLine
 10
-685.1163761768246
 20
486.6157111799302
 30
0.0
 11
-685.1163761768246
 21
930.6150480412055
 31
0.0
  0
LINE
  5
73
330
1F
100
AcDbEntity
  8
C-A
  6
Continuous
 62
     3
370
     9
100
AcDbLine
 10
-677.1165229911194
 20
486.6157111799302
 30
0.0
 11
-677.1165229911194
 21
930.6150480412055
 31
0.0
  0
LINE
  5
74
330
1F
100
AcDbEntity
  8
C-A
  6
Continuous
 62
     3
370
     9
100
AcDbLine
 10
-671.1163547320399
 20
486.6157111799302
 30
0.0
 11
-671.1163547320399
 21
930.6150480412055
 31
0.0
  0
LINE
  5
75
330
1F
100
AcDbEntity
  8
C-A
  6
Continuous
 62
     3
370
     9
100
AcDbLine
 10
-663.11699642598
 20
486.6157111799302
 30
0.0
 11
-663.11699642598
 21
930.6150480412055
 31
0.0
  0
LINE
  5
76
330
1F
100
AcDbEntity
  8
C-A
  6
Continuous
 62
     3
370
     9
100
AcDbLine
 10
-657.1163332872552
 20
486.6157111799302
 30
0.0
 11
-657.1163332872552
 21
930.6150480412055
 31
0.0
  0
LINE
  5
77
330
1F
100
AcDbEntity
  8
C-A
  6
Continuous
 62
     3
370
     9
100
AcDbLine
 10
-649.1166038214615
 20
486.6157111799302
 30
0.0
 11
-649.1166038214615
 21
930.6150480412055
 31
0.0
  0
LINE
  5
78
330
1F
100
AcDbEntity
  8
C-A
  6
Continuous
 62
     3
370
     9
100
AcDbLine
 10
-817.1166137190545
 20
858.6147610110112
 30
0.0
 11
-811.1169403396204
 21
858.6147610110112
 31
0.0
  0
LINE
  5
79
330
1F
100
AcDbEntity
  8
C-A
  6
Continuous
 62
     3
370
     9
100
AcDbLine
 10
-803.1172108738264
 20
858.6147610110112
 30
0.0
 11
-797.1165477351017
 21
858.6147610110112
 31
0.0
  0
LINE
  5
7A
330
1F
100
AcDbEntity
  8
C-A
  6
Continuous
 62
     3
370
     9
100
AcDbLine
 10
-789.1166945493965
 20
858.6147610110112
 30
0.0
 11
-783.116526290317
 21
858.6147610110112
 31
0.0
  0
LINE
  5
7B
330
1F
100
AcDbEntity
  8
C-A
  6
Continuous
 62
     3
370
     9
100
AcDbLine
 10
-775.1167968245232
 20
858.6147610110112
 30
0.0
 11
-769.1171234450892
 21
858.6147610110112
 31
0.0
  0
LINE
  5
7C
330
1F
100
AcDbEntity
  8
C-A
  6
Continuous
 62
     3
370
     9
100
AcDbLine
 10
-761.1167753797386
 20
858.6147610110112
 30
0.0
 11
-755.1175968799496
 21
858.6147610110112
 31
0.0
  0
LINE
  5
7D
330
1F
100
AcDbEntity
  8
C-A
  6
Continuous
 62
     3
370
     9
100
AcDbLine
 10
-747.1168776548652
 20
858.6147610110112
 30
0.0
 11
-741.117204275431
 21
858.6147610110112
 31
0.0
  0
LINE
  5
7E
330
1F
100
AcDbEntity
  8
C-A
  6
Continuous
 62
     3
370
     9
100
AcDbLine
 10
-733.1173510897258
 20
858.6147610110112
 30
0.0
 11
-727.116687951001
 21
858.6147610110112
 31
0.0
  0
LINE
  5
7F
330
1F
100
AcDbEntity
  8
C-A
  6
Continuous
 62
     3
370
     9
100
AcDbLine
 10
-719.1168347652958
 20
858.6147610110112
 30
0.0
 11
-713.1172851057732
 21
858.6147610110112
 31
0.0
  0
LINE
  5
80
330
1F
100
AcDbEntity
  8
C-A
  6
Continuous
 62
     3
370
     9
100
AcDbLine
 10
-705.1174319200677
 20
858.6147610110112
 30
0.0
 11
-699.1167687813434
 21
858.6147610110112
 31
0.0
  0
LINE
  5
81
330
1F
100
AcDbEntity
  8
C-A
  6
Continuous
 62
     3
370
     9
100
AcDbLine
 10
-691.1169155956381
 20
858.6147610110112
 30
0.0
 11
-685.1168710564698
 21
858.6147610110112
 31
0.0
  0
LINE
  5
82
330
1F
100
AcDbEntity
  8
C-A
  6
Continuous
 62
     3
370
     9
100
AcDbLine
 10
-677.11751275041
 20
858.6147610110112
 30
0.0
 11
-671.1168496116852
 21
858.6147610110112
 31
0.0
  0
LINE
  5
83
330
1F
100
AcDbEntity
  8
C-A
  6
Continuous
 62
     3
370
     9
100
AcDbLine
 10
-663.1174913056253
 20
858.6147610110112
 30
0.0
 11
-657.1174467664573
 21
858.6147610110112
 31
0.0
  0
LINE
  5
84
330
1F
100
AcDbEntity
  8
C-A
  6
Continuous
 62
     3
370
     9
100
AcDbLine
 10
-649.1175935807519
 20
858.6147610110112
 30
0.0
 11
-643.1174253216727
 21
858.6147610110112
 31
0.0
  0
LINE
  5
85
330
1F
100
AcDbEntity
  8
C-A
  6
Continuous
 62
     3
370
     9
100
AcDbLine
 10
-635.1180670156125
 20
858.6147610110112
 30
0.0
 11
-629.1180224764446
 21
858.6147610110112
 31
0.0
  0
LINE
  5
86
330
1F
100
AcDbEntity
  8
C-A
  6
Continuous
 62
     3
370
     9
100
AcDbLine
 10
-621.1180455708279
 20
858.6147610110112
 30
0.0
 11
-615.1184959113052
 21
858.6147610110112
 31
0.0
  0
LINE
  5
87
330
1F
100
AcDbEntity
  8
C-A
  6
Continuous
 62
     3
370
     9
100
AcDbLine
 10
-607.1186427256
 20
858.6147610110112
 30
0.0
 11
-601.1179795868753
 21
858.6147610110112
 31
0.0
  0
LINE
  5
88
330
1F
100
AcDbEntity
  8
C-A
  6
Continuous
 62
     3
370
     9
100
AcDbLine
 10
-593.1186212808154
 20
858.6147610110112
 30
0.0
 11
-587.1185767416472
 21
858.6147610110112
 31
0.0
  0
LINE
  5
89
330
1F
100
AcDbEntity
  8
C-A
  6
Continuous
 62
     3
370
     9
100
AcDbLine
 10
-579.118723555942
 20
858.6147610110112
 30
0.0
 11
-573.1185552968625
 21
858.6147610110112
 31
0.0
  0
LINE
  5
8A
330
1F
100
AcDbEntity
  8
C-A
  6
Continuous
 62
     3
370
     9
100
AcDbLine
 10
-565.1191969908027
 20
858.6147610110112
 30
0.0
 11
-559.1191524516347
 21
858.6147610110112
 31
0.0
  0
LINE
  5
8B
330
1F
100
AcDbEntity
  8
C-A
  6
Continuous
 62
     3
370
     9
100
AcDbLine
 10
-551.1192992659292
 20
858.6147610110112
 30
0.0
 11
-545.1196258864951
 21
858.6147610110112
 31
0.0
  0
LINE
  5
8C
330
1F
100
AcDbEntity
  8
C-A
  6
Continuous
 62
     3
370
     9
100
AcDbLine
 10
-537.1197727007899
 20
858.6147610110112
 30
0.0
 11
-531.1192332819767
 21
858.6147610110112
 31
0.0
  0
LINE
  5
8D
330
1F
100
AcDbEntity
  8
C-A
  6
Continuous
 62
     3
370
     9
100
AcDbLine
 10
-523.1197512560052
 20
858.6147610110112
 30
0.0
 11
-517.1197067168373
 21
858.6147610110112
 31
0.0
  0
LINE
  5
8E
330
1F
100
AcDbEntity
  8
C-A
  6
Continuous
 62
     3
370
     9
100
AcDbLine
 10
-509.1198535311321
 20
858.6147610110112
 30
0.0
 11
-503.1196852720527
 21
858.6147610110112
 31
0.0
  0
LINE
  5
8F
330
1F
100
AcDbEntity
  8
C-A
  6
Continuous
 62
     3
370
     9
100
AcDbLine
 10
-495.120450685904
 20
858.6147610110112
 30
0.0
 11
-489.1197875471792
 21
858.6147610110112
 31
0.0
  0
LINE
  5
90
330
1F
100
AcDbEntity
  8
C-A
  6
Continuous
 62
     3
370
     9
100
AcDbLine
 10
-481.1204292411193
 20
858.6147610110112
 30
0.0
 11
-475.1203847019514
 21
858.6147610110112
 31
0.0
  0
LINE
  5
91
330
1F
100
AcDbEntity
  8
C-A
  6
Continuous
 62
     3
370
     9
100
AcDbLine
 10
-467.1204077963347
 20
858.6147610110112
 30
0.0
 11
-461.1203632571667
 21
858.6147610110112
 31
0.0
  0
LINE
  5
92
330
1F
100
AcDbEntity
  8
C-A
  6
Continuous
 62
     3
370
     9
100
AcDbLine
 10
-453.1214998307519
 20
858.6147610110112
 30
0.0
 11
-447.1208366920274
 21
858.6147610110112
 31
0.0
  0
LINE
  5
93
330
1F
100
AcDbEntity
  8
C-A
  6
Continuous
 62
     3
370
     9
100
AcDbLine
 10
-831.1171300434842
 20
858.6147610110112
 30
0.0
 11
-825.1164669047597
 21
858.6147610110112
 31
0.0
  0
LINE
  5
94
330
1F
100
AcDbEntity
  8
C-A
  6
Continuous
 62
     3
370
     9
100
AcDbLine
 10
-842.1159538795274
 20
858.6147610110112
 30
0.0
 11
-839.115993469899
 21
858.6147610110112
 31
0.0
  0
LINE
  5
95
330
1F
100
AcDbEntity
  8
C-A
  6
Continuous
 62
     3
370
     9
100
AcDbLine
 10
-439.1171481890711
 20
858.6147610110112
 30
0.0
 11
-433.1169799299917
 21
858.6147610110112
 31
0.0
  0
LINE
  5
96
330
1F
100
AcDbEntity
  8
C-A
  6
Continuous
 62
     3
370
     9
100
AcDbLine
 10
-425.1131677071245
 20
858.6147610110112
 30
0.0
 11
-419.1125045683998
 21
858.6147610110112
 31
0.0
  0
LINE
  5
97
330
1F
100
AcDbEntity
  8
C-A
  6
Continuous
 62
     3
370
     9
100
AcDbLine
 10
-411.1091872251777
 20
858.6147610110112
 30
0.0
 11
-408.1171448898735
 21
858.6147610110112
 31
0.0
  0
LINE
  5
98
330
1F
100
AcDbEntity
  8
C-A
  6
Continuous
 62
     3
370
     9
100
AcDbLine
 10
-817.1166137190545
 20
758.614925970893
 30
0.0
 11
-811.1169403396204
 21
758.614925970893
 31
0.0
  0
LINE
  5
99
330
1F
100
AcDbEntity
  8
C-A
  6
Continuous
 62
     3
370
     9
100
AcDbLine
 10
-803.1172108738264
 20
758.614925970893
 30
0.0
 11
-797.1165477351017
 21
758.614925970893
 31
0.0
  0
LINE
  5
9A
330
1F
100
AcDbEntity
  8
C-A
  6
Continuous
 62
     3
370
     9
100
AcDbLine
 10
-789.1166945493965
 20
758.614925970893
 30
0.0
 11
-783.116526290317
 21
758.614925970893
 31
0.0
  0
LINE
  5
9B
330
1F
100
AcDbEntity
  8
C-A
  6
Continuous
 62
     3
370
     9
100
AcDbLine
 10
-775.1167968245232
 20
758.614925970893
 30
0.0
 11
-769.1171234450892
 21
758.614925970893
 31
0.0
  0
LINE
  5
9C
330
1F
100
AcDbEntity
  8
C-A
  6
Continuous
 62
     3
370
     9
100
AcDbLine
 10
-761.1167753797386
 20
758.614925970893
 30
0.0
 11
-755.1175968799496
 21
758.614925970893
 31
0.0
  0
LINE
  5
9D
330
1F
100
AcDbEntity
  8
C-A
  6
Continuous
 62
     3
370
     9
100
AcDbLine
 10
-747.1168776548652
 20
758.614925970893
 30
0.0
 11
-741.117204275431
 21
758.614925970893
 31
0.0
  0
LINE
  5
9E
330
1F
100
AcDbEntity
  8
C-A
  6
Continuous
 62
     3
370
     9
100
AcDbLine
 10
-733.1173510897258
 20
758.614925970893
 30
0.0
 11
-727.116687951001
 21
758.614925970893
 31
0.0
  0
LINE
  5
9F
330
1F
100
AcDbEntity
  8
C-A
  6
Continuous
 62
     3
370
     9
100
AcDbLine
 10
-719.1168347652958
 20
758.614925970893
 30
0.0
 11
-713.1172851057732
 21
758.614925970893
 31
0.0
  0
LINE
  5
A0
330
1F
100
AcDbEntity
  8
C-A
  6
Continuous
 62
     3
370
     9
100
AcDbLine
 10
-705.1174319200677
 20
758.614925970893
 30
0.0
 11
-699.1167687813434
 21
758.614925970893
 31
0.0
  0
LINE
  5
A1
330
1F
100
AcDbEntity
  8
C-A
  6
Continuous
 62
     3
370
     9
100
AcDbLine
 10
-691.1169155956381
 20
758.614925970893
 30
0.0
 11
-685.1168710564698
 21
758.614925970893
 31
0.0
  0
LINE
  5
A2
330
1F
100
AcDbEntity
  8
C-A
  6
Continuous
 62
     3
370
     9
100
AcDbLine
 10
-677.11751275041
 20
758.614925970893
 30
0.0
 11
-671.1168496116852
 21
758.614925970893
 31
0.0
  0
LINE
  5
A3
330
1F
100
AcDbEntity
  8
C-A
  6
Continuous
 62
     3
370
     9
100
AcDbLine
 10
-663.1174913056253
 20
758.614925970893
 30
0.0
 11
-657.1174467664573
 21
758.614925970893
 31
0.0
  0
LINE
  5
A4
330
1F
100
AcDbEntity
  8
C-A
  6
Continuous
 62
     3
370
     9
100
AcDbLine
 10
-649.1175935807519
 20
758.614925970893
 30
0.0
 11
-643.1174253216727
 21
758.614925970893
 31
0.0
  0
LINE
  5
A5
330
1F
100
AcDbEntity
  8
C-A
  6
Continuous
 62
     3
370
     9
100
AcDbLine
 10
-635.1180670156125
 20
758.614925970893
 30
0.0
 11
-629.1180224764446
 21
758.614925970893
 31
0.0
  0
LINE
  5
A6
330
1F
100
AcDbEntity
  8
C-A
  6
Continuous
 62
     3
370
     9
100
AcDbLine
 10
-621.1180455708279
 20
758.614925970893
 30
0.0
 11
-615.1184959113052
 21
758.614925970893
 31
0.0
  0
LINE
  5
A7
330
1F
100
AcDbEntity
  8
C-A
  6
Continuous
 62
     3
370
     9
100
AcDbLine
 10
-607.1186427256
 20
758.614925970893
 30
0.0
 11
-601.1179795868753
 21
758.614925970893
 31
0.0
  0
LINE
  5
A8
330
1F
100
AcDbEntity
  8
C-A
  6
Continuous
 62
     3
370
     9
100
AcDbLine
 10
-593.1186212808154
 20
758.614925970893
 30
0.0
 11
-587.1185767416472
 21
758.614925970893
 31
0.0
  0
LINE
  5
A9
330
1F
100
AcDbEntity
  8
C-A
  6
Continuous
 62
     3
370
     9
100
AcDbLine
 10
-579.118723555942
 20
758.614925970893
 30
0.0
 11
-573.1185552968625
 21
758.614925970893
 31
0.0
  0
LINE
  5
AA
330
1F
100
AcDbEntity
  8
C-A
  6
Continuous
 62
     3
370
     9
100
AcDbLine
 10
-565.1191969908027
 20
758.614925970893
 30
0.0
 11
-559.1191524516347
 21
758.614925970893
 31
0.0
  0
LINE
  5
AB
330
1F
100
AcDbEntity
  8
C-A
  6
Continuous
 62
     3
370
     9
100
AcDbLine
 10
-551.1192992659292
 20
758.614925970893
 30
0.0
 11
-545.1196258864951
 21
758.614925970893
 31
0.0
  0
LINE
  5
AC
330
1F
100
AcDbEntity
  8
C-A
  6
Continuous
 62
     3
370
     9
100
AcDbLine
 10
-537.1197727007899
 20
758.614925970893
 30
0.0
 11
-531.1192332819767
 21
758.614925970893
 31
0.0
  0
LINE
  5
AD
330
1F
100
AcDbEntity
  8
C-A
  6
Continuous
 62
     3
370
     9
100
AcDbLine
 10
-523.1197512560052
 20
758.614925970893
 30
0.0
 11
-517.1197067168373
 21
758.614925970893
 31
0.0
  0
LINE
  5
AE
330
1F
100
AcDbEntity
  8
C-A
  6
Continuous
 62
     3
370
     9
100
AcDbLine
 10
-509.1198535311321
 20
758.614925970893
 30
0.0
 11
-503.1196852720527
 21
758.614925970893
 31
0.0
  0
LINE
  5
AF
330
1F
100
AcDbEntity
  8
C-A
  6
Continuous
 62
     3
370
     9
100
AcDbLine
 10
-495.120450685904
 20
758.614925970893
 30
0.0
 11
-489.1197875471792
 21
758.614925970893
 31
0.0
  0
LINE
  5
B0
330
1F
100
AcDbEntity
  8
C-A
  6
Continuous
 62
     3
370
     9
100
AcDbLine
 10
-481.1204292411193
 20
758.614925970893
 30
0.0
 11
-475.1203847019514
 21
758.614925970893
 31
0.0
  0
LINE
  5
B1
330
1F
100
AcDbEntity
  8
C-A
  6
Continuous
 62
     3
370
     9
100
AcDbLine
 10
-467.1204077963347
 20
758.614925970893
 30
0.0
 11
-461.1203632571667
 21
758.614925970893
 31
0.0
  0
LINE
  5
B2
330
1F
100
AcDbEntity
  8
C-A
  6
Continuous
 62
     3
370
     9
100
AcDbLine
 10
-453.1214998307519
 20
758.614925970893
 30
0.0
 11
-447.1208366920274
 21
758.614925970893
 31
0.0
  0
LINE
  5
B3
330
1F
100
AcDbEntity
  8
C-A
  6
Continuous
 62
     3
370
     9
100
AcDbLine
 10
-831.1171300434842
 20
758.614925970893
 30
0.0
 11
-825.1164669047597
 21
758.614925970893
 31
0.0
  0
LINE
  5
B4
330
1F
100
AcDbEntity
  8
C-A
  6
Continuous
 62
     3
370
     9
100
AcDbLine
 10
-842.1159538795274
 20
758.614925970893
 30
0.0
 11
-839.115993469899
 21
758.614925970893
 31
0.0
  0
LINE
  5
B5
330
1F
100
AcDbEntity
  8
C-A
  6
Continuous
 62
     3
370
     9
100
AcDbLine
 10
-439.1171481890711
 20
758.614925970893
 30
0.0
 11
-433.1169799299917
 21
758.614925970893
 31
0.0
  0
LINE
  5
B6
330
1F
100
AcDbEntity
  8
C-A
  6
Continuous
 62
     3
370
     9
100
AcDbLine
 10
-425.1131677071245
 20
758.614925970893
 30
0.0
 11
-419.1125045683998
 21
758.614925970893
 31
0.0
  0
LINE
  5
B7
330
1F
100
AcDbEntity
  8
C-A
  6
Continuous
 62
     3
370
     9
100
AcDbLine
 10
-411.1091872251777
 20
758.614925970893
 30
0.0
 11
-408.1171448898735
 21
758.614925970893
 31
0.0
  0
LINE
  5
B8
330
1F
100
AcDbEntity
  8
C-A
  6
Continuous
 62
     3
370
     9
100
AcDbLine
 10
-817.1166137190545
 20
658.6148434909524
 30
0.0
 11
-811.1169403396204
 21
658.6148434909524
 31
0.0
  0
LINE
  5
B9
330
1F
100
AcDbEntity
  8
C-A
  6
Continuous
 62
     3
370
     9
100
AcDbLine
 10
-803.1172108738264
 20
658.6148434909524
 30
0.0
 11
-797.1165477351017
 21
658.6148434909524
 31
0.0
  0
LINE
  5
BA
330
1F
100
AcDbEntity
  8
C-A
  6
Continuous
 62
     3
370
     9
100
AcDbLine
 10
-789.1166945493965
 20
658.6148434909524
 30
0.0
 11
-783.116526290317
 21
658.6148434909524
 31
0.0
  0
LINE
  5
BB
330
1F
100
AcDbEntity
  8
C-A
  6
Continuous
 62
     3
370
     9
100
AcDbLine
 10
-775.1167968245232
 20
658.6148434909524
 30
0.0
 11
-769.1171234450892
 21
658.6148434909524
 31
0.0
  0
LINE
  5
BC
330
1F
100
AcDbEntity
  8
C-A
  6
Continuous
 62
     3
370
     9
100
AcDbLine
 10
-761.1167753797386
 20
658.6148434909524
 30
0.0
 11
-755.1175968799496
 21
658.6148434909524
 31
0.0
  0
LINE
  5
BD
330
1F
100
AcDbEntity
  8
C-A
  6
Continuous
 62
     3
370
     9
100
AcDbLine
 10
-747.1168776548652
 20
658.6148434909524
 30
0.0
 11
-741.117204275431
 21
658.6148434909524
 31
0.0
  0
LINE
  5
BE
330
1F
100
AcDbEntity
  8
C-A
  6
Continuous
 62
     3
370
     9
100
AcDbLine
 10
-733.1173510897258
 20
658.6148434909524
 30
0.0
 11
-727.116687951001
 21
658.6148434909524
 31
0.0
  0
LINE
  5
BF
330
1F
100
AcDbEntity
  8
C-A
  6
Continuous
 62
     3
370
     9
100
AcDbLine
 10
-719.1168347652958
 20
658.6148434909524
 30
0.0
 11
-713.1172851057732
 21
658.6148434909524
 31
0.0
  0
LINE
  5
C0
330
1F
100
AcDbEntity
  8
C-A
  6
Continuous
 62
     3
370
     9
100
AcDbLine
 10
-705.1174319200677
 20
658.6148434909524
 30
0.0
 11
-699.1167687813434
 21
658.6148434909524
 31
0.0
  0
LINE
  5
C1
330
1F
100
AcDbEntity
  8
C-A
  6
Continuous
 62
     3
370
     9
100
AcDbLine
 10
-691.1169155956381
 20
658.6148434909524
 30
0.0
 11
-685.1168710564698
 21
658.6148434909524
 31
0.0
  0
LINE
  5
C2
330
1F
100
AcDbEntity
  8
C-A
  6
Continuous
 62
     3
370
     9
100
AcDbLine
 10
-677.11751275041
 20
658.6148434909524
 30
0.0
 11
-671.1168496116852
 21
658.6148434909524
 31
0.0
  0
LINE
  5
C3
330
1F
100
AcDbEntity
  8
C-A
  6
Continuous
 62
     3
370
     9
100
AcDbLine
 10
-663.1174913056253
 20
658.6148434909524
 30
0.0
 11
-657.1174467664573
 21
658.6148434909524
 31
0.0
  0
LINE
  5
C4
330
1F
100
AcDbEntity
  8
C-A
  6
Continuous
 62
     3
370
     9
100
AcDbLine
 10
-649.1175935807519
 20
658.6148434909524
 30
0.0
 11
-643.1174253216727
 21
658.6148434909524
 31
0.0
  0
LINE
  5
C5
330
1F
100
AcDbEntity
  8
C-A
  6
Continuous
 62
     3
370
     9
100
AcDbLine
 10
-635.1180670156125
 20
658.6148434909524
 30
0.0
 11
-629.1180224764446
 21
658.6148434909524
 31
0.0
  0
LINE
  5
C6
330
1F
100
AcDbEntity
  8
C-A
  6
Continuous
 62
     3
370
     9
100
AcDbLine
 10
-621.1180455708279
 20
658.6148434909524
 30
0.0
 11
-615.1184959113052
 21
658.6148434909524
 31
0.0
  0
LINE
  5
C7
330
1F
100
AcDbEntity
  8
C-A
  6
Continuous
 62
     3
370
     9
100
AcDbLine
 10
-607.1186427256
 20
658.6148434909524
 30
0.0
 11
-601.1179795868753
 21
658.6148434909524
 31
0.0
  0
LINE
  5
C8
330
1F
100
AcDbEntity
  8
C-A
  6
Continuous
 62
     3
370
     9
100
AcDbLine
 10
-593.1186212808154
 20
658.6148434909524
 30
0.0
 11
-587.1185767416472
 21
658.6148434909524
 31
0.0
  0
LINE
  5
C9
330
1F
100
AcDbEntity
  8
C-A
  6
Continuous
 62
     3
370
     9
100
AcDbLine
 10
-579.118723555942
 20
658.6148434909524
 30
0.0
 11
-573.1185552968625
 21
658.6148434909524
 31
0.0
  0
LINE
  5
CA
330
1F
100
AcDbEntity
  8
C-A
  6
Continuous
 62
     3
370
     9
100
AcDbLine
 10
-565.1191969908027
 20
658.6148434909524
 30
0.0
 11
-559.1191524516347
 21
658.6148434909524
 31
0.0
  0
LINE
  5
CB
330
1F
100
AcDbEntity
  8
C-A
  6
Continuous
 62
     3
370
     9
100
AcDbLine
 10
-551.1192992659292
 20
658.6148434909524
 30
0.0
 11
-545.1196258864951
 21
658.6148434909524
 31
0.0
  0
LINE
  5
CC
330
1F
100
AcDbEntity
  8
C-A
  6
Continuous
 62
     3
370
     9
100
AcDbLine
 10
-537.1197727007899
 20
658.6148434909524
 30
0.0
 11
-531.1192332819767
 21
658.6148434909524
 31
0.0
  0
LINE
  5
CD
330
1F
100
AcDbEntity
  8
C-A
  6
Continuous
 62
     3
370
     9
100
AcDbLine
 10
-523.1197512560052
 20
658.6148434909524
 30
0.0
 11
-517.1197067168373
 21
658.6148434909524
 31
0.0
  0
LINE
  5
CE
330
1F
100
AcDbEntity
  8
C-A
  6
Continuous
 62
     3
370
     9
100
AcDbLine
 10
-509.1198535311321
 20
658.6148434909524
 30
0.0
 11
-503.1196852720527
 21
658.6148434909524
 31
0.0
  0
LINE
  5
CF
330
1F
100
AcDbEntity
  8
C-A
  6
Continuous
 62
     3
370
     9
100
AcDbLine
 10
-495.120450685904
 20
658.6148434909524
 30
0.0
 11
-489.1197875471792
 21
658.6148434909524
 31
0.0
  0
LINE
  5
D0
330
1F
100
AcDbEntity
  8
C-A
  6
Continuous
 62
     3
370
     9
100
AcDbLine
 10
-831.1171300434842
 20
658.6148434909524
 30
0.0
 11
-825.1164669047597
 21
658.6148434909524
 31
0.0
  0
LINE
  5
D1
330
1F
100
AcDbEntity
  8
C-A
  6
Continuous
 62
     3
370
     9
100
AcDbLine
 10
-842.1159538795274
 20
658.6148434909524
 30
0.0
 11
-839.115993469899
 21
658.6148434909524
 31
0.0
  0
LINE
  5
D2
330
1F
100
AcDbEntity
  8
C-A
  6
Continuous
 62
     3
370
     9
100
AcDbLine
 10
-817.1166137190545
 20
558.6150084508338
 30
0.0
 11
-811.1169403396204
 21
558.6150084508338
 31
0.0
  0
LINE
  5
D3
330
1F
100
AcDbEntity
  8
C-A
  6
Continuous
 62
     3
370
     9
100
AcDbLine
 10
-803.1172108738264
 20
558.6150084508338
 30
0.0
 11
-797.1165477351017
 21
558.6150084508338
 31
0.0
  0
LINE
  5
D4
330
1F
100
AcDbEntity
  8
C-A
  6
Continuous
 62
     3
370
     9
100
AcDbLine
 10
-789.1166945493965
 20
558.6150084508338
 30
0.0
 11
-783.116526290317
 21
558.6150084508338
 31
0.0
  0
LINE
  5
D5
330
1F
100
AcDbEntity
  8
C-A
  6
Continuous
 62
     3
370
     9
100
AcDbLine
 10
-775.1167968245232
 20
558.6150084508338
 30
0.0
 11
-769.1171234450892
 21
558.6150084508338
 31
0.0
  0
LINE
  5
D6
330
1F
100
AcDbEntity
  8
C-A
  6
Continuous
 62
     3
370
     9
100
AcDbLine
 10
-761.1167753797386
 20
558.6150084508338
 30
0.0
 11
-755.1175968799496
 21
558.6150084508338
 31
0.0
  0
LINE
  5
D7
330
1F
100
AcDbEntity
  8
C-A
  6
Continuous
 62
     3
370
     9
100
AcDbLine
 10
-747.1168776548652
 20
558.6150084508338
 30
0.0
 11
-741.117204275431
 21
558.6150084508338
 31
0.0
  0
LINE
  5
D8
330
1F
100
AcDbEntity
  8
C-A
  6
Continuous
 62
     3
370
     9
100
AcDbLine
 10
-733.1173510897258
 20
558.6150084508338
 30
0.0
 11
-727.116687951001
 21
558.6150084508338
 31
0.0
  0
LINE
  5
D9
330
1F
100
AcDbEntity
  8
C-A
  6
Continuous
 62
     3
370
     9
100
AcDbLine
 10
-719.1168347652958
 20
558.6150084508338
 30
0.0
 11
-713.1172851057732
 21
558.6150084508338
 31
0.0
  0
LINE
  5
DA
330
1F
100
AcDbEntity
  8
C-A
  6
Continuous
 62
     3
370
     9
100
AcDbLine
 10
-705.1174319200677
 20
558.6150084508338
 30
0.0
 11
-699.1167687813434
 21
558.6150084508338
 31
0.0
  0
LINE
  5
DB
330
1F
100
AcDbEntity
  8
C-A
  6
Continuous
 62
     3
370
     9
100
AcDbLine
 10
-691.1169155956381
 20
558.6150084508338
 30
0.0
 11
-685.1168710564698
 21
558.6150084508338
 31
0.0
  0
LINE
  5
DC
330
1F
100
AcDbEntity
  8
C-A
  6
Continuous
 62
     3
370
     9
100
AcDbLine
 10
-677.11751275041
 20
558.6150084508338
 30
0.0
 11
-671.1168496116852
 21
558.6150084508338
 31
0.0
  0
LINE
  5
DD
330
1F
100
AcDbEntity
  8
C-A
  6
Continuous
 62
     3
370
     9
100
AcDbLine
 10
-663.1174913056253
 20
558.6150084508338
 30
0.0
 11
-657.1174467664573
 21
558.6150084508338
 31
0.0
  0
LINE
  5
DE
330
1F
100
AcDbEntity
  8
C-A
  6
Continuous
 62
     3
370
     9
100
AcDbLine
 10
-649.1175935807519
 20
558.6150084508338
 30
0.0
 11
-643.1174253216727
 21
558.6150084508338
 31
0.0
  0
LINE
  5
DF
330
1F
100
AcDbEntity
  8
C-A
  6
Continuous
 62
     3
370
     9
100
AcDbLine
 10
-635.1180670156125
 20
558.6150084508338
 30
0.0
 11
-629.1180224764446
 21
558.6150084508338
 31
0.0
  0
LINE
  5
E0
330
1F
100
AcDbEntity
  8
C-A
  6
Continuous
 62
     3
370
     9
100
AcDbLine
 10
-621.1180455708279
 20
558.6150084508338
 30
0.0
 11
-615.1184959113052
 21
558.6150084508338
 31
0.0
  0
LINE
  5
E1
330
1F
100
AcDbEntity
  8
C-A
  6
Continuous
 62
     3
370
     9
100
AcDbLine
 10
-607.1186427256
 20
558.6150084508338
 30
0.0
 11
-601.1179795868753
 21
558.6150084508338
 31
0.0
  0
LINE
  5
E2
330
1F
100
AcDbEntity
  8
C-A
  6
Continuous
 62
     3
370
     9
100
AcDbLine
 10
-593.1186212808154
 20
558.6150084508338
 30
0.0
 11
-587.1185767416472
 21
558.6150084508338
 31
0.0
  0
LINE
  5
E3
330
1F
100
AcDbEntity
  8
C-A
  6
Continuous
 62
     3
370
     9
100
AcDbLine
 10
-831.1171300434842
 20
558.6150084508338
 30
0.0
 11
-825.1164669047597
 21
558.6150084508338
 31
0.0
  0
LINE
  5
E4
330
1F
100
AcDbEntity
  8
C-A
  6
Continuous
 62
     3
370
     9
100
AcDbLine
 10
-842.1159538795274
 20
558.6150084508338
 30
0.0
 11
-839.115993469899
 21
558.6150084508338
 31
0.0
  0
LINE
  5
E5
330
1F
100
AcDbEntity
  8
C-A
  6
Continuous
 62
     3
370
     9
100
AcDbLine
 10
-817.1166137190545
 20
862.1647610110114
 30
0.0
 11
-811.1169403396204
 21
862.1647610110114
 31
0.0
  0
LINE
  5
E6
330
1F
100
AcDbEntity
  8
C-A
  6
Continuous
 62
     3
370
     9
100
AcDbLine
 10
-803.1172108738264
 20
862.1647610110114
 30
0.0
 11
-797.1165477351017
 21
862.1647610110114
 31
0.0
  0
LINE
  5
E7
330
1F
100
AcDbEntity
  8
C-A
  6
Continuous
 62
     3
370
     9
100
AcDbLine
 10
-789.1166945493965
 20
862.1647610110114
 30
0.0
 11
-783.116526290317
 21
862.1647610110114
 31
0.0
  0
LINE
  5
E8
330
1F
100
AcDbEntity
  8
C-A
  6
Continuous
 62
     3
370
     9
100
AcDbLine
 10
-775.1167968245232
 20
862.1647610110114
 30
0.0
 11
-769.1171234450892
 21
862.1647610110114
 31
0.0
  0
LINE
  5
E9
330
1F
100
AcDbEntity
  8
C-A
  6
Continuous
 62
     3
370
     9
100
AcDbLine
 10
-761.1167753797386
 20
862.1647610110114
 30
0.0
 11
-755.1175968799496
 21
862.1647610110114
 31
0.0
  0
LINE
  5
EA
330
1F
100
AcDbEntity
  8
C-A
  6
Continuous
 62
     3
370
     9
100
AcDbLine
 10
-747.1168776548652
 20
862.1647610110114
 30
0.0
 11
-741.117204275431
 21
862.1647610110114
 31
0.0
  0
LINE
  5
EB
330
1F
100
AcDbEntity
  8
C-A
  6
Continuous
 62
     3
370
     9
100
AcDbLine
 10
-733.1173510897258
 20
862.1647610110114
 30
0.0
 11
-727.116687951001
 21
862.1647610110114
 31
0.0
  0
LINE
  5
EC
330
1F
100
AcDbEntity
  8
C-A
  6
Continuous
 62
     3
370
     9
100
AcDbLine
 10
-719.1168347652958
 20
862.1647610110114
 30
0.0
 11
-713.1172851057732
 21
862.1647610110114
 31
0.0
  0
LINE
  5
ED
330
1F
100
AcDbEntity
  8
C-A
  6
Continuous
 62
     3
370
     9
100
AcDbLine
 10
-705.1174319200677
 20
862.1647610110114
 30
0.0
 11
-699.1167687813434
 21
862.1647610110114
 31
0.0
  0
LINE
  5
EE
330
1F
100
AcDbEntity
  8
C-A
  6
Continuous
 62
     3
370
     9
100
AcDbLine
 10
-691.1169155956381
 20
862.1647610110114
 30
0.0
 11
-685.1168710564698
 21
862.1647610110114
 31
0.0
  0
LINE
  5
EF
330
1F
100
AcDbEntity
  8
C-A
  6
Continuous
 62
     3
370
     9
100
AcDbLine
 10
-677.11751275041
 20
862.1647610110114
 30
0.0
 11
-671.1168496116852
 21
862.1647610110114
 31
0.0
  0
LINE
  5
F0
330
1F
100
AcDbEntity
  8
C-A
  6
Continuous
 62
     3
370
     9
100
AcDbLine
 10
-663.1174913056253
 20
862.1647610110114
 30
0.0
 11
-657.1174467664573
 21
862.1647610110114
 31
0.0
  0
LINE
  5
F1
330
1F
100
AcDbEntity
  8
C-A
  6
Continuous
 62
     3
370
     9
100
AcDbLine
 10
-649.1175935807519
 20
862.1647610110114
 30
0.0
 11
-643.1174253216727
 21
862.1647610110114
 31
0.0
  0
LINE
  5
F2
330
1F
100
AcDbEntity
  8
C-A
  6
Continuous
 62
     3
370
     9
100
AcDbLine
 10
-635.1180670156125
 20
862.1647610110114
 30
0.0
 11
-629.1180224764446
 21
862.1647610110114
 31
0.0
  0
LINE
  5
F3
330
1F
100
AcDbEntity
  8
C-A
  6
Continuous
 62
     3
370
     9
100
AcDbLine
 10
-621.1180455708279
 20
862.1647610110114
 30
0.0
 11
-615.1184959113052
 21
862.1647610110114
 31
0.0
  0
LINE
  5
F4
330
1F
100
AcDbEntity
  8
C-A
  6
Continuous
 62
     3
370
     9
100
AcDbLine
 10
-607.1186427256
 20
862.1647610110114
 30
0.0
 11
-601.1179795868753
 21
862.1647610110114
 31
0.0
  0
LINE
  5
F5
330
1F
100
AcDbEntity
  8
C-A
  6
Continuous
 62
     3
370
     9
100
AcDbLine
 10
-593.1186212808154
 20
862.1647610110114
 30
0.0
 11
-587.1185767416472
 21
862.1647610110114
 31
0.0
  0
LINE
  5
F6
330
1F
100
AcDbEntity
  8
C-A
  6
Continuous
 62
     3
370
     9
100
AcDbLine
 10
-579.118723555942
 20
862.1647610110114
 30
0.0
 11
-573.1185552968625
 21
862.1647610110114
 31
0.0
  0
LINE
  5
F7
330
1F
100
AcDbEntity
  8
C-A
  6
Continuous
 62
     3
370
     9
100
AcDbLine
 10
-565.1191969908027
 20
862.1647610110114
 30
0.0
 11
-559.1191524516347
 21
862.1647610110114
 31
0.0
  0
LINE
  5
F8
330
1F
100
AcDbEntity
  8
C-A
  6
Continuous
 62
     3
370
     9
100
AcDbLine
 10
-551.1192992659292
 20
862.1647610110114
 30
0.0
 11
-545.1196258864951
 21
862.1647610110114
 31
0.0
  0
LINE
  5
F9
330
1F
100
AcDbEntity
  8
C-A
  6
Continuous
 62
     3
370
     9
100
AcDbLine
 10
-537.1197727007899
 20
862.1647610110114
 30
0.0
 11
-531.1192332819767
 21
862.1647610110114
 31
0.0
  0
LINE
  5
FA
330
1F
100
AcDbEntity
  8
C-A
  6
Continuous
 62
     3
370
     9
100
AcDbLine
 10
-523.1197512560052
 20
862.1647610110114
 30
0.0
 11
-517.1197067168373
 21
862.1647610110114
 31
0.0
  0
LINE
  5
FB
330
1F
100
AcDbEntity
  8
C-A
  6
Continuous
 62
     3
370
     9
100
AcDbLine
 10
-509.1198535311321
 20
862.1647610110114
 30
0.0
 11
-503.1196852720527
 21
862.1647610110114
 31
0.0
  0
LINE
  5
FC
330
1F
100
AcDbEntity
  8
C-A
  6
Continuous
 62
     3
370
     9
100
AcDbLine
 10
-495.120450685904
 20
862.1647610110114
 30
0.0
 11
-489.1197875471792
 21
862.1647610110114
 31
0.0
  0
LINE
  5
FD
330
1F
100
AcDbEntity
  8
C-A
  6
Continuous
 62
     3
370
     9
100
AcDbLine
 10
-481.1204292411193
 20
862.1647610110114
 30
0.0
 11
-475.1203847019514
 21
862.1647610110114
 31
0.0
  0
LINE
  5
FE
330
1F
100
AcDbEntity
  8
C-A
  6
Continuous
 62
     3
370
     9
100
AcDbLine
 10
-467.1204077963347
 20
862.1647610110114
 30
0.0
 11
-461.1203632571667
 21
862.1647610110114
 31
0.0
  0
LINE
  5
FF
330
1F
100
AcDbEntity
  8
C-A
  6
Continuous
 62
     3
370
     9
100
AcDbLine
 10
-453.1214998307519
 20
862.1647610110114
 30
0.0
 11
-447.1208366920274
 21
862.1647610110114
 31
0.0
  0
LINE
  5
100
330
1F
100
AcDbEntity
  8
C-A
  6
Continuous
 62
     3
370
     9
100
AcDbLine
 10
-831.1171300434842
 20
862.1647610110114
 30
0.0
 11
-825.1164669047597
 21
862.1647610110114
 31
0.0
  0
LINE
  5
101
330
1F
100
AcDbEntity
  8
C-A
  6
Continuous
 62
     3
370
     9
100
AcDbLine
 10
-842.1159538795274
 20
862.1647610110114
 30
0.0
 11
-839.115993469899
 21
862.1647610110114
 31
0.0
  0
LINE
  5
102
330
1F
100
AcDbEntity
  8
C-A
  6
Continuous
 62
     3
370
     9
100
AcDbLine
 10
-439.1171481890711
 20
862.1647610110114
 30
0.0
 11
-433.1169799299917
 21
862.1647610110114
 31
0.0
  0
LINE
  5
103
330
1F
100
AcDbEntity
  8
C-A
  6
Continuous
 62
     3
370
     9
100
AcDbLine
 10
-425.1131677071245
 20
862.1647610110114
 30
0.0
 11
-419.1125045683998
 21
862.1647610110114
 31
0.0
  0
LINE
  5
104
330
1F
100
AcDbEntity
  8
C-A
  6
Continuous
 62
     3
370
     9
100
AcDbLine
 10
-411.1091872251777
 20
862.1647610110114
 30
0.0
 11
-408.1171448898735
 21
862.1647610110114
 31
0.0
  0
LINE
  5
105
330
1F
100
AcDbEntity
  8
C-A
  6
Continuous
 62
     3
370
     9
100
AcDbLine
 10
-817.1166137190545
 20
855.0647610110116
 30
0.0
 11
-811.1169403396204
 21
855.0647610110116
 31
0.0
  0
LINE
  5
106
330
1F
100
AcDbEntity
  8
C-A
  6
Continuous
 62
     3
370
     9
100
AcDbLine
 10
-803.1172108738264
 20
855.0647610110116
 30
0.0
 11
-797.1165477351017
 21
855.0647610110116
 31
0.0
  0
LINE
  5
107
330
1F
100
AcDbEntity
  8
C-A
  6
Continuous
 62
     3
370
     9
100
AcDbLine
 10
-789.1166945493965
 20
855.0647610110116
 30
0.0
 11
-783.116526290317
 21
855.0647610110116
 31
0.0
  0
LINE
  5
108
330
1F
100
AcDbEntity
  8
C-A
  6
Continuous
 62
     3
370
     9
100
AcDbLine
 10
-775.1167968245232
 20
855.0647610110116
 30
0.0
 11
-769.1171234450892
 21
855.0647610110116
 31
0.0
  0
LINE
  5
109
330
1F
100
AcDbEntity
  8
C-A
  6
Continuous
 62
     3
370
     9
100
AcDbLine
 10
-761.1167753797386
 20
855.0647610110116
 30
0.0
 11
-755.1175968799496
 21
855.0647610110116
 31
0.0
  0
LINE
  5
10A
330
1F
100
AcDbEntity
  8
C-A
  6
Continuous
 62
     3
370
     9
100
AcDbLine
 10
-747.1168776548652
 20
855.0647610110116
 30
0.0
 11
-741.117204275431
 21
855.0647610110116
 31
0.0
  0
LINE
  5
10B
330
1F
100
AcDbEntity
  8
C-A
  6
Continuous
 62
     3
370
     9
100
AcDbLine
 10
-733.1173510897258
 20
855.0647610110116
 30
0.0
 11
-727.116687951001
 21
855.0647610110116
 31
0.0
  0
LINE
  5
10C
330
1F
100
AcDbEntity
  8
C-A
  6
Continuous
 62
     3
370
     9
100
AcDbLine
 10
-719.1168347652958
 20
855.0647610110116
 30
0.0
 11
-713.1172851057732
 21
855.0647610110116
 31
0.0
  0
LINE
  5
10D
330
1F
100
AcDbEntity
  8
C-A
  6
Continuous
 62
     3
370
     9
100
AcDbLine
 10
-705.1174319200677
 20
855.0647610110116
 30
0.0
 11
-699.1167687813434
 21
855.0647610110116
 31
0.0
  0
LINE
  5
10E
330
1F
100
AcDbEntity
  8
C-A
  6
Continuous
 62
     3
370
     9
100
AcDbLine
 10
-691.1169155956381
 20
855.0647610110116
 30
0.0
 11
-685.1168710564698
 21
855.0647610110116
 31
0.0
  0
LINE
  5
10F
330
1F
100
AcDbEntity
  8
C-A
  6
Continuous
 62
     3
370
     9
100
AcDbLine
 10
-677.11751275041
 20
855.0647610110116
 30
0.0
 11
-671.1168496116852
 21
855.0647610110116
 31
0.0
  0
LINE
  5
110
330
1F
100
AcDbEntity
  8
C-A
  6
Continuous
 62
     3
370
     9
100
AcDbLine
 10
-663.1174913056253
 20
855.0647610110116
 30
0.0
 11
-657.1174467664573
 21
855.0647610110116
 31
0.0
  0
LINE
  5
111
330
1F
100
AcDbEntity
  8
C-A
  6
Continuous
 62
     3
370
     9
100
AcDbLine
 10
-649.1175935807519
 20
855.0647610110116
 30
0.0
 11
-643.1174253216727
 21
855.0647610110116
 31
0.0
  0
LINE
  5
112
330
1F
100
AcDbEntity
  8
C-A
  6
Continuous
 62
     3
370
     9
100
AcDbLine
 10
-635.1180670156125
 20
855.0647610110116
 30
0.0
 11
-629.1180224764446
 21
855.0647610110116
 31
0.0
  0
LINE
  5
113
330
1F
100
AcDbEntity
  8
C-A
  6
Continuous
 62
     3
370
     9
100
AcDbLine
 10
-621.1180455708279
 20
855.0647610110116
 30
0.0
 11
-615.1184959113052
 21
855.0647610110116
 31
0.0
  0
LINE
  5
114
330
1F
100
AcDbEntity
  8
C-A
  6
Continuous
 62
     3
370
     9
100
AcDbLine
 10
-607.1186427256
 20
855.0647610110116
 30
0.0
 11
-601.1179795868753
 21
855.0647610110116
 31
0.0
  0
LINE
  5
115
330
1F
100
AcDbEntity
  8
C-A
  6
Continuous
 62
     3
370
     9
100
AcDbLine
 10
-593.1186212808154
 20
855.0647610110116
 30
0.0
 11
-587.1185767416472
 21
855.0647610110116
 31
0.0
  0
LINE
  5
116
330
1F
100
AcDbEntity
  8
C-A
  6
Continuous
 62
     3
370
     9
100
AcDbLine
 10
-579.118723555942
 20
855.0647610110116
 30
0.0
 11
-573.1185552968625
 21
855.0647610110116
 31
0.0
  0
LINE
  5
117
330
1F
100
AcDbEntity
  8
C-A
  6
Continuous
 62
     3
370
     9
100
AcDbLine
 10
-565.1191969908027
 20
855.0647610110116
 30
0.0
 11
-559.1191524516347
 21
855.0647610110116
 31
0.0
  0
LINE
  5
118
330
1F
100
AcDbEntity
  8
C-A
  6
Continuous
 62
     3
370
     9
100
AcDbLine
 10
-551.1192992659292
 20
855.0647610110116
 30
0.0
 11
-545.1196258864951
 21
855.0647610110116
 31
0.0
  0
LINE
  5
119
330
1F
100
AcDbEntity
  8
C-A
  6
Continuous
 62
     3
370
     9
100
AcDbLine
 10
-537.1197727007899
 20
855.0647610110116
 30
0.0
 11
-531.1192332819767
 21
855.0647610110116
 31
0.0
  0
LINE
  5
11A
330
1F
100
AcDbEntity
  8
C-A
  6
Continuous
 62
     3
370
     9
100
AcDbLine
 10
-523.1197512560052
 20
855.0647610110116
 30
0.0
 11
-517.1197067168373
 21
855.0647610110116
 31
0.0
  0
LINE
  5
11B
330
1F
100
AcDbEntity
  8
C-A
  6
Continuous
 62
     3
370
     9
100
AcDbLine
 10
-509.1198535311321
 20
855.0647610110116
 30
0.0
 11
-503.1196852720527
 21
855.0647610110116
 31
0.0
  0
LINE
  5
11C
330
1F
100
AcDbEntity
  8
C-A
  6
Continuous
 62
     3
370
     9
100
AcDbLine
 10
-495.120450685904
 20
855.0647610110116
 30
0.0
 11
-489.1197875471792
 21
855.0647610110116
 31
0.0
  0
LINE
  5
11D
330
1F
100
AcDbEntity
  8
C-A
  6
Continuous
 62
     3
370
     9
100
AcDbLine
 10
-481.1204292411193
 20
855.0647610110116
 30
0.0
 11
-475.1203847019514
 21
855.0647610110116
 31
0.0
  0
LINE
  5
11E
330
1F
100
AcDbEntity
  8
C-A
  6
Continuous
 62
     3
370
     9
100
AcDbLine
 10
-467.1204077963347
 20
855.0647610110116
 30
0.0
 11
-461.1203632571667
 21
855.0647610110116
 31
0.0
  0
LINE
  5
11F
330
1F
100
AcDbEntity
  8
C-A
  6
Continuous
 62
     3
370
     9
100
AcDbLine
 10
-453.1214998307519
 20
855.0647610110116
 30
0.0
 11
-447.1208366920274
 21
855.0647610110116
 31
0.0
  0
LINE
  5
120
330
1F
100
AcDbEntity
  8
C-A
  6
Continuous
 62
     3
370
     9
100
AcDbLine
 10
-831.1171300434842
 20
855.0647610110116
 30
0.0
 11
-825.1164669047597
 21
855.0647610110116
 31
0.0
  0
LINE
  5
121
330
1F
100
AcDbEntity
  8
C-A
  6
Continuous
 62
     3
370
     9
100
AcDbLine
 10
-842.1159538795274
 20
855.0647610110116
 30
0.0
 11
-839.115993469899
 21
855.0647610110116
 31
0.0
  0
LINE
  5
122
330
1F
100
AcDbEntity
  8
C-A
  6
Continuous
 62
     3
370
     9
100
AcDbLine
 10
-439.1171481890711
 20
855.0647610110116
 30
0.0
 11
-433.1169799299917
 21
855.0647610110116
 31
0.0
  0
LINE
  5
123
330
1F
100
AcDbEntity
  8
C-A
  6
Continuous
 62
     3
370
     9
100
AcDbLine
 10
-425.1131677071245
 20
855.0647610110116
 30
0.0
 11
-419.1125045683998
 21
855.0647610110116
 31
0.0
  0
LINE
  5
124
330
1F
100
AcDbEntity
  8
C-A
  6
Continuous
 62
     3
370
     9
100
AcDbLine
 10
-411.1091872251777
 20
855.0647610110116
 30
0.0
 11
-408.1171448898735
 21
855.0647610110116
 31
0.0
  0
LINE
  5
125
330
1F
100
AcDbEntity
  8
C-A
  6
Continuous
 62
     3
370
     9
100
AcDbLine
 10
-817.1166137190545
 20
762.1649259708931
 30
0.0
 11
-811.1169403396204
 21
762.1649259708931
 31
0.0
  0
LINE
  5
126
330
1F
100
AcDbEntity
  8
C-A
  6
Continuous
 62
     3
370
     9
100
AcDbLine
 10
-803.1172108738264
 20
762.1649259708931
 30
0.0
 11
-797.1165477351017
 21
762.1649259708931
 31
0.0
  0
LINE
  5
127
330
1F
100
AcDbEntity
  8
C-A
  6
Continuous
 62
     3
370
     9
100
AcDbLine
 10
-789.1166945493965
 20
762.1649259708931
 30
0.0
 11
-783.116526290317
 21
762.1649259708931
 31
0.0
  0
LINE
  5
128
330
1F
100
AcDbEntity
  8
C-A
  6
Continuous
 62
     3
370
     9
100
AcDbLine
 10
-775.1167968245232
 20
762.1649259708931
 30
0.0
 11
-769.1171234450892
 21
762.1649259708931
 31
0.0
  0
LINE
  5
129
330
1F
100
AcDbEntity
  8
C-A
  6
Continuous
 62
     3
370
     9
100
AcDbLine
 10
-761.1167753797386
 20
762.1649259708931
 30
0.0
 11
-755.1175968799496
 21
762.1649259708931
 31
0.0
  0
LINE
  5
12A
330
1F
100
AcDbEntity
  8
C-A
  6
Continuous
 62
     3
370
     9
100
AcDbLine
 10
-747.1168776548652
 20
762.1649259708931
 30
0.0
 11
-741.117204275431
 21
762.1649259708931
 31
0.0
  0
LINE
  5
12B
330
1F
100
AcDbEntity
  8
C-A
  6
Continuous
 62
     3
370
     9
100
AcDbLine
 10
-733.1173510897258
 20
762.1649259708931
 30
0.0
 11
-727.116687951001
 21
762.1649259708931
 31
0.0
  0
LINE
  5
12C
330
1F
100
AcDbEntity
  8
C-A
  6
Continuous
 62
     3
370
     9
100
AcDbLine
 10
-719.1168347652958
 20
762.1649259708931
 30
0.0
 11
-713.1172851057732
 21
762.1649259708931
 31
0.0
  0
LINE
  5
12D
330
1F
100
AcDbEntity
  8
C-A
  6
Continuous
 62
     3
370
     9
100
AcDbLine
 10
-705.1174319200677
 20
762.1649259708931
 30
0.0
 11
-699.1167687813434
 21
762.1649259708931
 31
0.0
  0
LINE
  5
12E
330
1F
100
AcDbEntity
  8
C-A
  6
Continuous
 62
     3
370
     9
100
AcDbLine
 10
-691.1169155956381
 20
762.1649259708931
 30
0.0
 11
-685.1168710564698
 21
762.1649259708931
 31
0.0
  0
LINE
  5
12F
330
1F
100
AcDbEntity
  8
C-A
  6
Continuous
 62
     3
370
     9
100
AcDbLine
 10
-677.11751275041
 20
762.1649259708931
 30
0.0
 11
-671.1168496116852
 21
762.1649259708931
 31
0.0
  0
LINE
  5
130
330
1F
100
AcDbEntity
  8
C-A
  6
Continuous
 62
     3
370
     9
100
AcDbLine
 10
-663.1174913056253
 20
762.1649259708931
 30
0.0
 11
-657.1174467664573
 21
762.1649259708931
 31
0.0
  0
LINE
  5
131
330
1F
100
AcDbEntity
  8
C-A
  6
Continuous
 62
     3
370
     9
100
AcDbLine
 10
-649.1175935807519
 20
762.1649259708931
 30
0.0
 11
-643.1174253216727
 21
762.1649259708931
 31
0.0
  0
LINE
  5
132
330
1F
100
AcDbEntity
  8
C-A
  6
Continuous
 62
     3
370
     9
100
AcDbLine
 10
-635.1180670156125
 20
762.1649259708931
 30
0.0
 11
-629.1180224764446
 21
762.1649259708931
 31
0.0
  0
LINE
  5
133
330
1F
100
AcDbEntity
  8
C-A
  6
Continuous
 62
     3
370
     9
100
AcDbLine
 10
-621.1180455708279
 20
762.1649259708931
 30
0.0
 11
-615.1184959113052
 21
762.1649259708931
 31
0.0
  0
LINE
  5
134
330
1F
100
AcDbEntity
  8
C-A
  6
Continuous
 62
     3
370
     9
100
AcDbLine
 10
-607.1186427256
 20
762.1649259708931
 30
0.0
 11
-601.1179795868753
 21
762.1649259708931
 31
0.0
  0
LINE
  5
135
330
1F
100
AcDbEntity
  8
C-A
  6
Continuous
 62
     3
370
     9
100
AcDbLine
 10
-593.1186212808154
 20
762.1649259708931
 30
0.0
 11
-587.1185767416472
 21
762.1649259708931
 31
0.0
  0
LINE
  5
136
330
1F
100
AcDbEntity
  8
C-A
  6
Continuous
 62
     3
370
     9
100
AcDbLine
 10
-579.118723555942
 20
762.1649259708931
 30
0.0
 11
-573.1185552968625
 21
762.1649259708931
 31
0.0
  0
LINE
  5
137
330
1F
100
AcDbEntity
  8
C-A
  6
Continuous
 62
     3
370
     9
100
AcDbLine
 10
-565.1191969908027
 20
762.1649259708931
 30
0.0
 11
-559.1191524516347
 21
762.1649259708931
 31
0.0
  0
LINE
  5
138
330
1F
100
AcDbEntity
  8
C-A
  6
Continuous
 62
     3
370
     9
100
AcDbLine
 10
-551.1192992659292
 20
762.1649259708931
 30
0.0
 11
-545.1196258864951
 21
762.1649259708931
 31
0.0
  0
LINE
  5
139
330
1F
100
AcDbEntity
  8
C-A
  6
Continuous
 62
     3
370
     9
100
AcDbLine
 10
-537.1197727007899
 20
762.1649259708931
 30
0.0
 11
-531.1192332819767
 21
762.1649259708931
 31
0.0
  0
LINE
  5
13A
330
1F
100
AcDbEntity
  8
C-A
  6
Continuous
 62
     3
370
     9
100
AcDbLine
 10
-523.1197512560052
 20
762.1649259708931
 30
0.0
 11
-517.1197067168373
 21
762.1649259708931
 31
0.0
  0
LINE
  5
13B
330
1F
100
AcDbEntity
  8
C-A
  6
Continuous
 62
     3
370
     9
100
AcDbLine
 10
-509.1198535311321
 20
762.1649259708931
 30
0.0
 11
-503.1196852720527
 21
762.1649259708931
 31
0.0
  0
LINE
  5
13C
330
1F
100
AcDbEntity
  8
C-A
  6
Continuous
 62
     3
370
     9
100
AcDbLine
 10
-495.120450685904
 20
762.1649259708931
 30
0.0
 11
-489.1197875471792
 21
762.1649259708931
 31
0.0
  0
LINE
  5
13D
330
1F
100
AcDbEntity
  8
C-A
  6
Continuous
 62
     3
370
     9
100
AcDbLine
 10
-481.1204292411193
 20
762.1649259708931
 30
0.0
 11
-475.1203847019514
 21
762.1649259708931
 31
0.0
  0
LINE
  5
13E
330
1F
100
AcDbEntity
  8
C-A
  6
Continuous
 62
     3
370
     9
100
AcDbLine
 10
-467.1204077963347
 20
762.1649259708931
 30
0.0
 11
-461.1203632571667
 21
762.1649259708931
 31
0.0
  0
LINE
  5
13F
330
1F
100
AcDbEntity
  8
C-A
  6
Continuous
 62
     3
370
     9
100
AcDbLine
 10
-453.1214998307519
 20
762.1649259708931
 30
0.0
 11
-447.1208366920274
 21
762.1649259708931
 31
0.0
  0
LINE
  5
140
330
1F
100
AcDbEntity
  8
C-A
  6
Continuous
 62
     3
370
     9
100
AcDbLine
 10
-831.1171300434842
 20
762.1649259708931
 30
0.0
 11
-825.1164669047597
 21
762.1649259708931
 31
0.0
  0
LINE
  5
141
330
1F
100
AcDbEntity
  8
C-A
  6
Continuous
 62
     3
370
     9
100
AcDbLine
 10
-842.1159538795274
 20
762.1649259708931
 30
0.0
 11
-839.115993469899
 21
762.1649259708931
 31
0.0
  0
LINE
  5
142
330
1F
100
AcDbEntity
  8
C-A
  6
Continuous
 62
     3
370
     9
100
AcDbLine
 10
-439.1171481890711
 20
762.1649259708931
 30
0.0
 11
-433.1169799299917
 21
762.1649259708931
 31
0.0
  0
LINE
  5
143
330
1F
100
AcDbEntity
  8
C-A
  6
Continuous
 62
     3
370
     9
100
AcDbLine
 10
-425.1131677071245
 20
762.1649259708931
 30
0.0
 11
-419.1125045683998
 21
762.1649259708931
 31
0.0
  0
LINE
  5
144
330
1F
100
AcDbEntity
  8
C-A
  6
Continuous
 62
     3
370
     9
100
AcDbLine
 10
-411.1091872251777
 20
762.1649259708931
 30
0.0
 11
-408.1171448898735
 21
762.1649259708931
 31
0.0
  0
LINE
  5
145
330
1F
100
AcDbEntity
  8
C-A
  6
Continuous
 62
     3
370
     9
100
AcDbLine
 10
-817.1166137190545
 20
755.0649259708928
 30
0.0
 11
-811.1169403396204
 21
755.0649259708928
 31
0.0
  0
LINE
  5
146
330
1F
100
AcDbEntity
  8
C-A
  6
Continuous
 62
     3
370
     9
100
AcDbLine
 10
-803.1172108738264
 20
755.0649259708928
 30
0.0
 11
-797.1165477351017
 21
755.0649259708928
 31
0.0
  0
LINE
  5
147
330
1F
100
AcDbEntity
  8
C-A
  6
Continuous
 62
     3
370
     9
100
AcDbLine
 10
-789.1166945493965
 20
755.0649259708928
 30
0.0
 11
-783.116526290317
 21
755.0649259708928
 31
0.0
  0
LINE
  5
148
330
1F
100
AcDbEntity
  8
C-A
  6
Continuous
 62
     3
370
     9
100
AcDbLine
 10
-775.1167968245232
 20
755.0649259708928
 30
0.0
 11
-769.1171234450892
 21
755.0649259708928
 31
0.0
  0
LINE
  5
149
330
1F
100
AcDbEntity
  8
C-A
  6
Continuous
 62
     3
370
     9
100
AcDbLine
 10
-761.1167753797386
 20
755.0649259708928
 30
0.0
 11
-755.1175968799496
 21
755.0649259708928
 31
0.0
  0
LINE
  5
14A
330
1F
100
AcDbEntity
  8
C-A
  6
Continuous
 62
     3
370
     9
100
AcDbLine
 10
-747.1168776548652
 20
755.0649259708928
 30
0.0
 11
-741.117204275431
 21
755.0649259708928
 31
0.0
  0
LINE
  5
14B
330
1F
100
AcDbEntity
  8
C-A
  6
Continuous
 62
     3
370
     9
100
AcDbLine
 10
-733.1173510897258
 20
755.0649259708928
 30
0.0
 11
-727.116687951001
 21
755.0649259708928
 31
0.0
  0
LINE
  5
14C
330
1F
100
AcDbEntity
  8
C-A
  6
Continuous
 62
     3
370
     9
100
AcDbLine
 10
-719.1168347652958
 20
755.0649259708928
 30
0.0
 11
-713.1172851057732
 21
755.0649259708928
 31
0.0
  0
LINE
  5
14D
330
1F
100
AcDbEntity
  8
C-A
  6
Continuous
 62
     3
370
     9
100
AcDbLine
 10
-705.1174319200677
 20
755.0649259708928
 30
0.0
 11
-699.1167687813434
 21
755.0649259708928
 31
0.0
  0
LINE
  5
14E
330
1F
100
AcDbEntity
  8
C-A
  6
Continuous
 62
     3
370
     9
100
AcDbLine
 10
-691.1169155956381
 20
755.0649259708928
 30
0.0
 11
-685.1168710564698
 21
755.0649259708928
 31
0.0
  0
LINE
  5
14F
330
1F
100
AcDbEntity
  8
C-A
  6
Continuous
 62
     3
370
     9
100
AcDbLine
 10
-677.11751275041
 20
755.0649259708928
 30
0.0
 11
-671.1168496116852
 21
755.0649259708928
 31
0.0
  0
LINE
  5
150
330
1F
100
AcDbEntity
  8
C-A
  6
Continuous
 62
     3
370
     9
100
AcDbLine
 10
-663.1174913056253
 20
755.0649259708928
 30
0.0
 11
-657.1174467664573
 21
755.0649259708928
 31
0.0
  0
LINE
  5
151
330
1F
100
AcDbEntity
  8
C-A
  6
Continuous
 62
     3
370
     9
100
AcDbLine
 10
-649.1175935807519
 20
755.0649259708928
 30
0.0
 11
-643.1174253216727
 21
755.0649259708928
 31
0.0
  0
LINE
  5
152
330
1F
100
AcDbEntity
  8
C-A
  6
Continuous
 62
     3
370
     9
100
AcDbLine
 10
-635.1180670156125
 20
755.0649259708928
 30
0.0
 11
-629.1180224764446
 21
755.0649259708928
 31
0.0
  0
LINE
  5
153
330
1F
100
AcDbEntity
  8
C-A
  6
Continuous
 62
     3
370
     9
100
AcDbLine
 10
-621.1180455708279
 20
755.0649259708928
 30
0.0
 11
-615.1184959113052
 21
755.0649259708928
 31
0.0
  0
LINE
  5
154
330
1F
100
AcDbEntity
  8
C-A
  6
Continuous
 62
     3
370
     9
100
AcDbLine
 10
-607.1186427256
 20
755.0649259708928
 30
0.0
 11
-601.1179795868753
 21
755.0649259708928
 31
0.0
  0
LINE
  5
155
330
1F
100
AcDbEntity
  8
C-A
  6
Continuous
 62
     3
370
     9
100
AcDbLine
 10
-593.1186212808154
 20
755.0649259708928
 30
0.0
 11
-587.1185767416472
 21
755.0649259708928
 31
0.0
  0
LINE
  5
156
330
1F
100
AcDbEntity
  8
C-A
  6
Continuous
 62
     3
370
     9
100
AcDbLine
 10
-579.118723555942
 20
755.0649259708928
 30
0.0
 11
-573.1185552968625
 21
755.0649259708928
 31
0.0
  0
LINE
  5
157
330
1F
100
AcDbEntity
  8
C-A
  6
Continuous
 62
     3
370
     9
100
AcDbLine
 10
-565.1191969908027
 20
755.0649259708928
 30
0.0
 11
-559.1191524516347
 21
755.0649259708928
 31
0.0
  0
LINE
  5
158
330
1F
100
AcDbEntity
  8
C-A
  6
Continuous
 62
     3
370
     9
100
AcDbLine
 10
-551.1192992659292
 20
755.0649259708928
 30
0.0
 11
-545.1196258864951
 21
755.0649259708928
 31
0.0
  0
LINE
  5
159
330
1F
100
AcDbEntity
  8
C-A
  6
Continuous
 62
     3
370
     9
100
AcDbLine
 10
-537.1197727007899
 20
755.0649259708928
 30
0.0
 11
-531.1192332819767
 21
755.0649259708928
 31
0.0
  0
LINE
  5
15A
330
1F
100
AcDbEntity
  8
C-A
  6
Continuous
 62
     3
370
     9
100
AcDbLine
 10
-523.1197512560052
 20
755.0649259708928
 30
0.0
 11
-517.1197067168373
 21
755.0649259708928
 31
0.0
  0
LINE
  5
15B
330
1F
100
AcDbEntity
  8
C-A
  6
Continuous
 62
     3
370
     9
100
AcDbLine
 10
-509.1198535311321
 20
755.0649259708928
 30
0.0
 11
-503.1196852720527
 21
755.0649259708928
 31
0.0
  0
LINE
  5
15C
330
1F
100
AcDbEntity
  8
C-A
  6
Continuous
 62
     3
370
     9
100
AcDbLine
 10
-495.120450685904
 20
755.0649259708928
 30
0.0
 11
-489.1197875471792
 21
755.0649259708928
 31
0.0
  0
LINE
  5
15D
330
1F
100
AcDbEntity
  8
C-A
  6
Continuous
 62
     3
370
     9
100
AcDbLine
 10
-481.1204292411193
 20
755.0649259708928
 30
0.0
 11
-475.1203847019514
 21
755.0649259708928
 31
0.0
  0
LINE
  5
15E
330
1F
100
AcDbEntity
  8
C-A
  6
Continuous
 62
     3
370
     9
100
AcDbLine
 10
-467.1204077963347
 20
755.0649259708928
 30
0.0
 11
-461.1203632571667
 21
755.0649259708928
 31
0.0
  0
LINE
  5
15F
330
1F
100
AcDbEntity
  8
C-A
  6
Continuous
 62
     3
370
     9
100
AcDbLine
 10
-453.1214998307519
 20
755.0649259708928
 30
0.0
 11
-447.1208366920274
 21
755.0649259708928
 31
0.0
  0
LINE
  5
160
330
1F
100
AcDbEntity
  8
C-A
  6
Continuous
 62
     3
370
     9
100
AcDbLine
 10
-831.1171300434842
 20
755.0649259708928
 30
0.0
 11
-825.1164669047597
 21
755.0649259708928
 31
0.0
  0
LINE
  5
161
330
1F
100
AcDbEntity
  8
C-A
  6
Continuous
 62
     3
370
     9
100
AcDbLine
 10
-842.1159538795274
 20
755.0649259708928
 30
0.0
 11
-839.115993469899
 21
755.0649259708928
 31
0.0
  0
LINE
  5
162
330
1F
100
AcDbEntity
  8
C-A
  6
Continuous
 62
     3
370
     9
100
AcDbLine
 10
-439.1171481890711
 20
755.0649259708928
 30
0.0
 11
-433.1169799299917
 21
755.0649259708928
 31
0.0
  0
LINE
  5
163
330
1F
100
AcDbEntity
  8
C-A
  6
Continuous
 62
     3
370
     9
100
AcDbLine
 10
-425.1131677071245
 20
755.0649259708928
 30
0.0
 11
-419.1125045683998
 21
755.0649259708928
 31
0.0
  0
LINE
  5
164
330
1F
100
AcDbEntity
  8
C-A
  6
Continuous
 62
     3
370
     9
100
AcDbLine
 10
-411.1091872251777
 20
755.0649259708928
 30
0.0
 11
-408.1171448898735
 21
755.0649259708928
 31
0.0
  0
LINE
  5
165
330
1F
100
AcDbEntity
  8
C-A
  6
Continuous
 62
     3
370
     9
100
AcDbLine
 10
-817.1166137190545
 20
662.164843490952
 30
0.0
 11
-811.1169403396204
 21
662.164843490952
 31
0.0
  0
LINE
  5
166
330
1F
100
AcDbEntity
  8
C-A
  6
Continuous
 62
     3
370
     9
100
AcDbLine
 10
-803.1172108738264
 20
662.164843490952
 30
0.0
 11
-797.1165477351017
 21
662.164843490952
 31
0.0
  0
LINE
  5
167
330
1F
100
AcDbEntity
  8
C-A
  6
Continuous
 62
     3
370
     9
100
AcDbLine
 10
-789.1166945493965
 20
662.164843490952
 30
0.0
 11
-783.116526290317
 21
662.164843490952
 31
0.0
  0
LINE
  5
168
330
1F
100
AcDbEntity
  8
C-A
  6
Continuous
 62
     3
370
     9
100
AcDbLine
 10
-775.1167968245232
 20
662.164843490952
 30
0.0
 11
-769.1171234450892
 21
662.164843490952
 31
0.0
  0
LINE
  5
169
330
1F
100
AcDbEntity
  8
C-A
  6
Continuous
 62
     3
370
     9
100
AcDbLine
 10
-761.1167753797386
 20
662.164843490952
 30
0.0
 11
-755.1175968799496
 21
662.164843490952
 31
0.0
  0
LINE
  5
16A
330
1F
100
AcDbEntity
  8
C-A
  6
Continuous
 62
     3
370
     9
100
AcDbLine
 10
-747.1168776548652
 20
662.164843490952
 30
0.0
 11
-741.117204275431
 21
662.164843490952
 31
0.0
  0
LINE
  5
16B
330
1F
100
AcDbEntity
  8
C-A
  6
Continuous
 62
     3
370
     9
100
AcDbLine
 10
-733.1173510897258
 20
662.164843490952
 30
0.0
 11
-727.116687951001
 21
662.164843490952
 31
0.0
  0
LINE
  5
16C
330
1F
100
AcDbEntity
  8
C-A
  6
Continuous
 62
     3
370
     9
100
AcDbLine
 10
-719.1168347652958
 20
662.164843490952
 30
0.0
 11
-713.1172851057732
 21
662.164843490952
 31
0.0
  0
LINE
  5
16D
330
1F
100
AcDbEntity
  8
C-A
  6
Continuous
 62
     3
370
     9
100
AcDbLine
 10
-705.1174319200677
 20
662.164843490952
 30
0.0
 11
-699.1167687813434
 21
662.164843490952
 31
0.0
  0
LINE
  5
16E
330
1F
100
AcDbEntity
  8
C-A
  6
Continuous
 62
     3
370
     9
100
AcDbLine
 10
-691.1169155956381
 20
662.164843490952
 30
0.0
 11
-685.1168710564698
 21
662.164843490952
 31
0.0
  0
LINE
  5
16F
330
1F
100
AcDbEntity
  8
C-A
  6
Continuous
 62
     3
370
     9
100
AcDbLine
 10
-677.11751275041
 20
662.164843490952
 30
0.0
 11
-671.1168496116852
 21
662.164843490952
 31
0.0
  0
LINE
  5
170
330
1F
100
AcDbEntity
  8
C-A
  6
Continuous
 62
     3
370
     9
100
AcDbLine
 10
-663.1174913056253
 20
662.164843490952
 30
0.0
 11
-657.1174467664573
 21
662.164843490952
 31
0.0
  0
LINE
  5
171
330
1F
100
AcDbEntity
  8
C-A
  6
Continuous
 62
     3
370
     9
100
AcDbLine
 10
-649.1175935807519
 20
662.164843490952
 30
0.0
 11
-643.1174253216727
 21
662.164843490952
 31
0.0
  0
LINE
  5
172
330
1F
100
AcDbEntity
  8
C-A
  6
Continuous
 62
     3
370
     9
100
AcDbLine
 10
-635.1180670156125
 20
662.164843490952
 30
0.0
 11
-629.1180224764446
 21
662.164843490952
 31
0.0
  0
LINE
  5
173
330
1F
100
AcDbEntity
  8
C-A
  6
Continuous
 62
     3
370
     9
100
AcDbLine
 10
-621.1180455708279
 20
662.164843490952
 30
0.0
 11
-615.1184959113052
 21
662.164843490952
 31
0.0
  0
LINE
  5
174
330
1F
100
AcDbEntity
  8
C-A
  6
Continuous
 62
     3
370
     9
100
AcDbLine
 10
-607.1186427256
 20
662.164843490952
 30
0.0
 11
-601.1179795868753
 21
662.164843490952
 31
0.0
  0
LINE
  5
175
330
1F
100
AcDbEntity
  8
C-A
  6
Continuous
 62
     3
370
     9
100
AcDbLine
 10
-593.1186212808154
 20
662.164843490952
 30
0.0
 11
-587.1185767416472
 21
662.164843490952
 31
0.0
  0
LINE
  5
176
330
1F
100
AcDbEntity
  8
C-A
  6
Continuous
 62
     3
370
     9
100
AcDbLine
 10
-579.118723555942
 20
662.164843490952
 30
0.0
 11
-573.1185552968625
 21
662.164843490952
 31
0.0
  0
LINE
  5
177
330
1F
100
AcDbEntity
  8
C-A
  6
Continuous
 62
     3
370
     9
100
AcDbLine
 10
-565.1191969908027
 20
662.164843490952
 30
0.0
 11
-559.1191524516347
 21
662.164843490952
 31
0.0
  0
LINE
  5
178
330
1F
100
AcDbEntity
  8
C-A
  6
Continuous
 62
     3
370
     9
100
AcDbLine
 10
-551.1192992659292
 20
662.164843490952
 30
0.0
 11
-545.1196258864951
 21
662.164843490952
 31
0.0
  0
LINE
  5
179
330
1F
100
AcDbEntity
  8
C-A
  6
Continuous
 62
     3
370
     9
100
AcDbLine
 10
-537.1197727007899
 20
662.164843490952
 30
0.0
 11
-531.1192332819767
 21
662.164843490952
 31
0.0
  0
LINE
  5
17A
330
1F
100
AcDbEntity
  8
C-A
  6
Continuous
 62
     3
370
     9
100
AcDbLine
 10
-523.1197512560052
 20
662.164843490952
 30
0.0
 11
-517.1197067168373
 21
662.164843490952
 31
0.0
  0
LINE
  5
17B
330
1F
100
AcDbEntity
  8
C-A
  6
Continuous
 62
     3
370
     9
100
AcDbLine
 10
-509.1198535311321
 20
662.164843490952
 30
0.0
 11
-503.1196852720527
 21
662.164843490952
 31
0.0
  0
LINE
  5
17C
330
1F
100
AcDbEntity
  8
C-A
  6
Continuous
 62
     3
370
     9
100
AcDbLine
 10
-495.120450685904
 20
662.164843490952
 30
0.0
 11
-489.1197875471792
 21
662.164843490952
 31
0.0
  0
LINE
  5
17D
330
1F
100
AcDbEntity
  8
C-A
  6
Continuous
 62
     3
370
     9
100
AcDbLine
 10
-481.1204292411193
 20
662.164843490952
 30
0.0
 11
-475.1203847019514
 21
662.164843490952
 31
0.0
  0
LINE
  5
17E
330
1F
100
AcDbEntity
  8
C-A
  6
Continuous
 62
     3
370
     9
100
AcDbLine
 10
-831.1171300434842
 20
662.164843490952
 30
0.0
 11
-825.1164669047597
 21
662.164843490952
 31
0.0
  0
LINE
  5
17F
330
1F
100
AcDbEntity
  8
C-A
  6
Continuous
 62
     3
370
     9
100
AcDbLine
 10
-842.1159538795274
 20
662.164843490952
 30
0.0
 11
-839.115993469899
 21
662.164843490952
 31
0.0
  0
LINE
  5
180
330
1F
100
AcDbEntity
  8
C-A
  6
Continuous
 62
     3
370
     9
100
AcDbLine
 10
-817.1166137190545
 20
655.0648434909516
 30
0.0
 11
-811.1169403396204
 21
655.0648434909516
 31
0.0
  0
LINE
  5
181
330
1F
100
AcDbEntity
  8
C-A
  6
Continuous
 62
     3
370
     9
100
AcDbLine
 10
-803.1172108738264
 20
655.0648434909516
 30
0.0
 11
-797.1165477351017
 21
655.0648434909516
 31
0.0
  0
LINE
  5
182
330
1F
100
AcDbEntity
  8
C-A
  6
Continuous
 62
     3
370
     9
100
AcDbLine
 10
-789.1166945493965
 20
655.0648434909516
 30
0.0
 11
-783.116526290317
 21
655.0648434909516
 31
0.0
  0
LINE
  5
183
330
1F
100
AcDbEntity
  8
C-A
  6
Continuous
 62
     3
370
     9
100
AcDbLine
 10
-775.1167968245232
 20
655.0648434909516
 30
0.0
 11
-769.1171234450892
 21
655.0648434909516
 31
0.0
  0
LINE
  5
184
330
1F
100
AcDbEntity
  8
C-A
  6
Continuous
 62
     3
370
     9
100
AcDbLine
 10
-761.1167753797386
 20
655.0648434909516
 30
0.0
 11
-755.1175968799496
 21
655.0648434909516
 31
0.0
  0
LINE
  5
185
330
1F
100
AcDbEntity
  8
C-A
  6
Continuous
 62
     3
370
     9
100
AcDbLine
 10
-747.1168776548652
 20
655.0648434909516
 30
0.0
 11
-741.117204275431
 21
655.0648434909516
 31
0.0
  0
LINE
  5
186
330
1F
100
AcDbEntity
  8
C-A
  6
Continuous
 62
     3
370
     9
100
AcDbLine
 10
-733.1173510897258
 20
655.0648434909516
 30
0.0
 11
-727.116687951001
 21
655.0648434909516
 31
0.0
  0
LINE
  5
187
330
1F
100
AcDbEntity
  8
C-A
  6
Continuous
 62
     3
370
     9
100
AcDbLine
 10
-719.1168347652958
 20
655.0648434909516
 30
0.0
 11
-713.1172851057732
 21
655.0648434909516
 31
0.0
  0
LINE
  5
188
330
1F
100
AcDbEntity
  8
C-A
  6
Continuous
 62
     3
370
     9
100
AcDbLine
 10
-705.1174319200677
 20
655.0648434909516
 30
0.0
 11
-699.1167687813434
 21
655.0648434909516
 31
0.0
  0
LINE
  5
189
330
1F
100
AcDbEntity
  8
C-A
  6
Continuous
 62
     3
370
     9
100
AcDbLine
 10
-691.1169155956381
 20
655.0648434909516
 30
0.0
 11
-685.1168710564698
 21
655.0648434909516
 31
0.0
  0
LINE
  5
18A
330
1F
100
AcDbEntity
  8
C-A
  6
Continuous
 62
     3
370
     9
100
AcDbLine
 10
-677.11751275041
 20
655.0648434909516
 30
0.0
 11
-671.1168496116852
 21
655.0648434909516
 31
0.0
  0
LINE
  5
18B
330
1F
100
AcDbEntity
  8
C-A
  6
Continuous
 62
     3
370
     9
100
AcDbLine
 10
-663.1174913056253
 20
655.0648434909516
 30
0.0
 11
-657.1174467664573
 21
655.0648434909516
 31
0.0
  0
LINE
  5
18C
330
1F
100
AcDbEntity
  8
C-A
  6
Continuous
 62
     3
370
     9
100
AcDbLine
 10
-649.1175935807519
 20
655.0648434909516
 30
0.0
 11
-643.1174253216727
 21
655.0648434909516
 31
0.0
  0
LINE
  5
18D
330
1F
100
AcDbEntity
  8
C-A
  6
Continuous
 62
     3
370
     9
100
AcDbLine
 10
-635.1180670156125
 20
655.0648434909516
 30
0.0
 11
-629.1180224764446
 21
655.0648434909516
 31
0.0
  0
LINE
  5
18E
330
1F
100
AcDbEntity
  8
C-A
  6
Continuous
 62
     3
370
     9
100
AcDbLine
 10
-621.1180455708279
 20
655.0648434909516
 30
0.0
 11
-615.1184959113052
 21
655.0648434909516
 31
0.0
  0
LINE
  5
18F
330
1F
100
AcDbEntity
  8
C-A
  6
Continuous
 62
     3
370
     9
100
AcDbLine
 10
-607.1186427256
 20
655.0648434909516
 30
0.0
 11
-601.1179795868753
 21
655.0648434909516
 31
0.0
  0
LINE
  5
190
330
1F
100
AcDbEntity
  8
C-A
  6
Continuous
 62
     3
370
     9
100
AcDbLine
 10
-593.1186212808154
 20
655.0648434909516
 30
0.0
 11
-587.1185767416472
 21
655.0648434909516
 31
0.0
  0
LINE
  5
191
330
1F
100
AcDbEntity
  8
C-A
  6
Continuous
 62
     3
370
     9
100
AcDbLine
 10
-579.118723555942
 20
655.0648434909516
 30
0.0
 11
-573.1185552968625
 21
655.0648434909516
 31
0.0
  0
LINE
  5
192
330
1F
100
AcDbEntity
  8
C-A
  6
Continuous
 62
     3
370
     9
100
AcDbLine
 10
-565.1191969908027
 20
655.0648434909516
 30
0.0
 11
-559.1191524516347
 21
655.0648434909516
 31
0.0
  0
LINE
  5
193
330
1F
100
AcDbEntity
  8
C-A
  6
Continuous
 62
     3
370
     9
100
AcDbLine
 10
-551.1192992659292
 20
655.0648434909516
 30
0.0
 11
-545.1196258864951
 21
655.0648434909516
 31
0.0
  0
LINE
  5
194
330
1F
100
AcDbEntity
  8
C-A
  6
Continuous
 62
     3
370
     9
100
AcDbLine
 10
-537.1197727007899
 20
655.0648434909516
 30
0.0
 11
-531.1192332819767
 21
655.0648434909516
 31
0.0
  0
LINE
  5
195
330
1F
100
AcDbEntity
  8
C-A
  6
Continuous
 62
     3
370
     9
100
AcDbLine
 10
-523.1197512560052
 20
655.0648434909516
 30
0.0
 11
-517.1197067168373
 21
655.0648434909516
 31
0.0
  0
LINE
  5
196
330
1F
100
AcDbEntity
  8
C-A
  6
Continuous
 62
     3
370
     9
100
AcDbLine
 10
-509.1198535311321
 20
655.0648434909516
 30
0.0
 11
-503.1196852720527
 21
655.0648434909516
 31
0.0
  0
LINE
  5
197
330
1F
100
AcDbEntity
  8
C-A
  6
Continuous
 62
     3
370
     9
100
AcDbLine
 10
-495.120450685904
 20
655.0648434909516
 30
0.0
 11
-489.1197875471792
 21
655.0648434909516
 31
0.0
  0
LINE
  5
198
330
1F
100
AcDbEntity
  8
C-A
  6
Continuous
 62
     3
370
     9
100
AcDbLine
 10
-831.1171300434842
 20
655.0648434909516
 30
0.0
 11
-825.1164669047597
 21
655.0648434909516
 31
0.0
  0
LINE
  5
199
330
1F
100
AcDbEntity
  8
C-A
  6
Continuous
 62
     3
370
     9
100
AcDbLine
 10
-842.1159538795274
 20
655.0648434909516
 30
0.0
 11
-839.115993469899
 21
655.0648434909516
 31
0.0
  0
LINE
  5
19A
330
1F
100
AcDbEntity
  8
C-A
  6
Continuous
 62
     3
370
     9
100
AcDbLine
 10
-817.1166137190545
 20
562.1650084508337
 30
0.0
 11
-811.1169403396204
 21
562.1650084508337
 31
0.0
  0
LINE
  5
19B
330
1F
100
AcDbEntity
  8
C-A
  6
Continuous
 62
     3
370
     9
100
AcDbLine
 10
-803.1172108738264
 20
562.1650084508337
 30
0.0
 11
-797.1165477351017
 21
562.1650084508337
 31
0.0
  0
LINE
  5
19C
330
1F
100
AcDbEntity
  8
C-A
  6
Continuous
 62
     3
370
     9
100
AcDbLine
 10
-789.1166945493965
 20
562.1650084508337
 30
0.0
 11
-783.116526290317
 21
562.1650084508337
 31
0.0
  0
LINE
  5
19D
330
1F
100
AcDbEntity
  8
C-A
  6
Continuous
 62
     3
370
     9
100
AcDbLine
 10
-775.1167968245232
 20
562.1650084508337
 30
0.0
 11
-769.1171234450892
 21
562.1650084508337
 31
0.0
  0
LINE
  5
19E
330
1F
100
AcDbEntity
  8
C-A
  6
Continuous
 62
     3
370
     9
100
AcDbLine
 10
-761.1167753797386
 20
562.1650084508337
 30
0.0
 11
-755.1175968799496
 21
562.1650084508337
 31
0.0
  0
LINE
  5
19F
330
1F
100
AcDbEntity
  8
C-A
  6
Continuous
 62
     3
370
     9
100
AcDbLine
 10
-747.1168776548652
 20
562.1650084508337
 30
0.0
 11
-741.117204275431
 21
562.1650084508337
 31
0.0
  0
LINE
  5
1A0
330
1F
100
AcDbEntity
  8
C-A
  6
Continuous
 62
     3
370
     9
100
AcDbLine
 10
-733.1173510897258
 20
562.1650084508337
 30
0.0
 11
-727.116687951001
 21
562.1650084508337
 31
0.0
  0
LINE
  5
1A1
330
1F
100
AcDbEntity
  8
C-A
  6
Continuous
 62
     3
370
     9
100
AcDbLine
 10
-719.1168347652958
 20
562.1650084508337
 30
0.0
 11
-713.1172851057732
 21
562.1650084508337
 31
0.0
  0
LINE
  5
1A2
330
1F
100
AcDbEntity
  8
C-A
  6
Continuous
 62
     3
370
     9
100
AcDbLine
 10
-705.1174319200677
 20
562.1650084508337
 30
0.0
 11
-699.1167687813434
 21
562.1650084508337
 31
0.0
  0
LINE
  5
1A3
330
1F
100
AcDbEntity
  8
C-A
  6
Continuous
 62
     3
370
     9
100
AcDbLine
 10
-691.1169155956381
 20
562.1650084508337
 30
0.0
 11
-685.1168710564698
 21
562.1650084508337
 31
0.0
  0
LINE
  5
1A4
330
1F
100
AcDbEntity
  8
C-A
  6
Continuous
 62
     3
370
     9
100
AcDbLine
 10
-677.11751275041
 20
562.1650084508337
 30
0.0
 11
-671.1168496116852
 21
562.1650084508337
 31
0.0
  0
LINE
  5
1A5
330
1F
100
AcDbEntity
  8
C-A
  6
Continuous
 62
     3
370
     9
100
AcDbLine
 10
-663.1174913056253
 20
562.1650084508337
 30
0.0
 11
-657.1174467664573
 21
562.1650084508337
 31
0.0
  0
LINE
  5
1A6
330
1F
100
AcDbEntity
  8
C-A
  6
Continuous
 62
     3
370
     9
100
AcDbLine
 10
-649.1175935807519
 20
562.1650084508337
 30
0.0
 11
-643.1174253216727
 21
562.1650084508337
 31
0.0
  0
LINE
  5
1A7
330
1F
100
AcDbEntity
  8
C-A
  6
Continuous
 62
     3
370
     9
100
AcDbLine
 10
-635.1180670156125
 20
562.1650084508337
 30
0.0
 11
-629.1180224764446
 21
562.1650084508337
 31
0.0
  0
LINE
  5
1A8
330
1F
100
AcDbEntity
  8
C-A
  6
Continuous
 62
     3
370
     9
100
AcDbLine
 10
-621.1180455708279
 20
562.1650084508337
 30
0.0
 11
-615.1184959113052
 21
562.1650084508337
 31
0.0
  0
LINE
  5
1A9
330
1F
100
AcDbEntity
  8
C-A
  6
Continuous
 62
     3
370
     9
100
AcDbLine
 10
-607.1186427256
 20
562.1650084508337
 30
0.0
 11
-601.1179795868753
 21
562.1650084508337
 31
0.0
  0
LINE
  5
1AA
330
1F
100
AcDbEntity
  8
C-A
  6
Continuous
 62
     3
370
     9
100
AcDbLine
 10
-593.1186212808154
 20
562.1650084508337
 30
0.0
 11
-587.1185767416472
 21
562.1650084508337
 31
0.0
  0
LINE
  5
1AB
330
1F
100
AcDbEntity
  8
C-A
  6
Continuous
 62
     3
370
     9
100
AcDbLine
 10
-579.118723555942
 20
562.1650084508337
 30
0.0
 11
-573.1185552968625
 21
562.1650084508337
 31
0.0
  0
LINE
  5
1AC
330
1F
100
AcDbEntity
  8
C-A
  6
Continuous
 62
     3
370
     9
100
AcDbLine
 10
-831.1171300434842
 20
562.1650084508337
 30
0.0
 11
-825.1164669047597
 21
562.1650084508337
 31
0.0
  0
LINE
  5
1AD
330
1F
100
AcDbEntity
  8
C-A
  6
Continuous
 62
     3
370
     9
100
AcDbLine
 10
-842.1159538795274
 20
562.1650084508337
 30
0.0
 11
-839.115993469899
 21
562.1650084508337
 31
0.0
  0
LINE
  5
1AE
330
1F
100
AcDbEntity
  8
C-A
  6
Continuous
 62
     3
370
     9
100
AcDbLine
 10
-817.1166137190545
 20
555.065008450834
 30
0.0
 11
-811.1169403396204
 21
555.065008450834
 31
0.0
  0
LINE
  5
1AF
330
1F
100
AcDbEntity
  8
C-A
  6
Continuous
 62
     3
370
     9
100
AcDbLine
 10
-803.1172108738264
 20
555.065008450834
 30
0.0
 11
-797.1165477351017
 21
555.065008450834
 31
0.0
  0
LINE
  5
1B0
330
1F
100
AcDbEntity
  8
C-A
  6
Continuous
 62
     3
370
     9
100
AcDbLine
 10
-789.1166945493965
 20
555.065008450834
 30
0.0
 11
-783.116526290317
 21
555.065008450834
 31
0.0
  0
LINE
  5
1B1
330
1F
100
AcDbEntity
  8
C-A
  6
Continuous
 62
     3
370
     9
100
AcDbLine
 10
-775.1167968245232
 20
555.065008450834
 30
0.0
 11
-769.1171234450892
 21
555.065008450834
 31
0.0
  0
LINE
  5
1B2
330
1F
100
AcDbEntity
  8
C-A
  6
Continuous
 62
     3
370
     9
100
AcDbLine
 10
-761.1167753797386
 20
555.065008450834
 30
0.0
 11
-755.1175968799496
 21
555.065008450834
 31
0.0
  0
LINE
  5
1B3
330
1F
100
AcDbEntity
  8
C-A
  6
Continuous
 62
     3
370
     9
100
AcDbLine
 10
-747.1168776548652
 20
555.065008450834
 30
0.0
 11
-741.117204275431
 21
555.065008450834
 31
0.0
  0
LINE
  5
1B4
330
1F
100
AcDbEntity
  8
C-A
  6
Continuous
 62
     3
370
     9
100
AcDbLine
 10
-733.1173510897258
 20
555.065008450834
 30
0.0
 11
-727.116687951001
 21
555.065008450834
 31
0.0
  0
LINE
  5
1B5
330
1F
100
AcDbEntity
  8
C-A
  6
Continuous
 62
     3
370
     9
100
AcDbLine
 10
-719.1168347652958
 20
555.065008450834
 30
0.0
 11
-713.1172851057732
 21
555.065008450834
 31
0.0
  0
LINE
  5
1B6
330
1F
100
AcDbEntity
  8
C-A
  6
Continuous
 62
     3
370
     9
100
AcDbLine
 10
-705.1174319200677
 20
555.065008450834
 30
0.0
 11
-699.1167687813434
 21
555.065008450834
 31
0.0
  0
LINE
  5
1B7
330
1F
100
AcDbEntity
  8
C-A
  6
Continuous
 62
     3
370
     9
100
AcDbLine
 10
-691.1169155956381
 20
555.065008450834
 30
0.0
 11
-685.1168710564698
 21
555.065008450834
 31
0.0
  0
LINE
  5
1B8
330
1F
100
AcDbEntity
  8
C-A
  6
Continuous
 62
     3
370
     9
100
AcDbLine
 10
-677.11751275041
 20
555.065008450834
 30
0.0
 11
-671.1168496116852
 21
555.065008450834
 31
0.0
  0
LINE
  5
1B9
330
1F
100
AcDbEntity
  8
C-A
  6
Continuous
 62
     3
370
     9
100
AcDbLine
 10
-663.1174913056253
 20
555.065008450834
 30
0.0
 11
-657.1174467664573
 21
555.065008450834
 31
0.0
  0
LINE
  5
1BA
330
1F
100
AcDbEntity
  8
C-A
  6
Continuous
 62
     3
370
     9
100
AcDbLine
 10
-649.1175935807519
 20
555.065008450834
 30
0.0
 11
-643.1174253216727
 21
555.065008450834
 31
0.0
  0
LINE
  5
1BB
330
1F
100
AcDbEntity
  8
C-A
  6
Continuous
 62
     3
370
     9
100
AcDbLine
 10
-635.1180670156125
 20
555.065008450834
 30
0.0
 11
-629.1180224764446
 21
555.065008450834
 31
0.0
  0
LINE
  5
1BC
330
1F
100
AcDbEntity
  8
C-A
  6
Continuous
 62
     3
370
     9
100
AcDbLine
 10
-621.1180455708279
 20
555.065008450834
 30
0.0
 11
-615.1184959113052
 21
555.065008450834
 31
0.0
  0
LINE
  5
1BD
330
1F
100
AcDbEntity
  8
C-A
  6
Continuous
 62
     3
370
     9
100
AcDbLine
 10
-607.1186427256
 20
555.065008450834
 30
0.0
 11
-601.1179795868753
 21
555.065008450834
 31
0.0
  0
LINE
  5
1BE
330
1F
100
AcDbEntity
  8
C-A
  6
Continuous
 62
     3
370
     9
100
AcDbLine
 10
-593.1186212808154
 20
555.065008450834
 30
0.0
 11
-587.1185767416472
 21
555.065008450834
 31
0.0
  0
LINE
  5
1BF
330
1F
100
AcDbEntity
  8
C-A
  6
Continuous
 62
     3
370
     9
100
AcDbLine
 10
-831.1171300434842
 20
555.065008450834
 30
0.0
 11
-825.1164669047597
 21
555.065008450834
 31
0.0
  0
LINE
  5
1C0
330
1F
100
AcDbEntity
  8
C-A
  6
Continuous
 62
     3
370
     9
100
AcDbLine
 10
-842.1159538795274
 20
555.065008450834
 30
0.0
 11
-839.115993469899
 21
555.065008450834
 31
0.0
  0
LINE
  5
1C1
330
1F
100
AcDbEntity
  8
C-A
  6
Continuous
 62
     3
370
     9
100
AcDbLine
 10
-643.1159406827368
 20
486.6157111799302
 30
0.0
 11
-643.1159406827368
 21
930.6150480412055
 31
0.0
  0
LINE
  5
1C2
330
1F
100
AcDbEntity
  8
C-A
  6
Continuous
 62
     3
370
     9
100
AcDbLine
 10
-635.1160874970316
 20
486.6157111799302
 30
0.0
 11
-635.1160874970316
 21
930.6150480412055
 31
0.0
  0
LINE
  5
1C3
330
1F
100
AcDbEntity
  8
C-A
  6
Continuous
 62
     3
370
     9
100
AcDbLine
 10
-629.1160429578636
 20
486.6157111799302
 30
0.0
 11
-629.1160429578636
 21
930.6150480412055
 31
0.0
  0
LINE
  5
1C4
330
1F
100
AcDbEntity
  8
C-A
  6
Continuous
 62
     3
370
     9
100
AcDbLine
 10
-621.1160660522469
 20
486.6157111799302
 30
0.0
 11
-621.1160660522469
 21
930.6150480412055
 31
0.0
  0
LINE
  5
1C5
330
1F
100
AcDbEntity
  8
C-A
  6
Continuous
 62
     3
370
     9
100
AcDbLine
 10
-615.116021513079
 20
486.6157111799302
 30
0.0
 11
-615.116021513079
 21
930.6150480412055
 31
0.0
  0
LINE
  5
1C6
330
1F
100
AcDbEntity
  8
C-A
  6
Continuous
 62
     3
370
     9
100
AcDbLine
 10
-607.1161683273735
 20
486.6157111799302
 30
0.0
 11
-607.1161683273735
 21
930.6150480412055
 31
0.0
  0
LINE
  5
1C7
330
1F
100
AcDbEntity
  8
C-A
  6
Continuous
 62
     3
370
     9
100
AcDbLine
 10
-601.1164949479394
 20
486.6157111799302
 30
0.0
 11
-601.1164949479394
 21
930.6150480412055
 31
0.0
  0
LINE
  5
1C8
330
1F
100
AcDbEntity
  8
C-A
  6
Continuous
 62
     3
370
     9
100
AcDbLine
 10
-593.1166417622342
 20
486.6157111799302
 30
0.0
 11
-593.1166417622342
 21
930.6150480412055
 31
0.0
  0
LINE
  5
1C9
330
1F
100
AcDbEntity
  8
C-A
  6
Continuous
 62
     3
370
     9
100
AcDbLine
 10
-587.1161023434208
 20
486.6157111799302
 30
0.0
 11
-587.1161023434208
 21
930.6150480412055
 31
0.0
  0
LINE
  5
1CA
330
1F
100
AcDbEntity
  8
C-A
  6
Continuous
 62
     3
370
     9
100
AcDbLine
 10
-565.116227712931
 20
486.6157111799302
 30
0.0
 11
-565.116227712931
 21
930.6150480412055
 31
0.0
  0
LINE
  5
1CB
330
1F
100
AcDbEntity
  8
C-A
  6
Continuous
 62
     3
370
     9
100
AcDbLine
 10
-559.1166780534081
 20
486.6157111799302
 30
0.0
 11
-559.1166780534081
 21
930.6150480412055
 31
0.0
  0
LINE
  5
1CC
330
1F
100
AcDbEntity
  8
C-A
  6
Continuous
 62
     3
370
     9
100
AcDbLine
 10
-551.1163299880576
 20
486.6157111799302
 30
0.0
 11
-551.1163299880576
 21
930.6150480412055
 31
0.0
  0
LINE
  5
1CD
330
1F
100
AcDbEntity
  8
C-A
  6
Continuous
 62
     3
370
     9
100
AcDbLine
 10
-545.1171514882687
 20
486.6157111799302
 30
0.0
 11
-545.1171514882687
 21
930.6150480412055
 31
0.0
  0
LINE
  5
1CE
330
1F
100
AcDbEntity
  8
C-A
  6
Continuous
 62
     3
370
     9
100
AcDbLine
 10
-537.1172983025635
 20
486.6157111799302
 30
0.0
 11
-537.1172983025635
 21
930.6150480412055
 31
0.0
  0
LINE
  5
1CF
330
1F
100
AcDbEntity
  8
C-A
  6
Continuous
 62
     3
370
     9
100
AcDbLine
 10
-531.1167588837503
 20
486.6157111799302
 30
0.0
 11
-531.1167588837503
 21
930.6150480412055
 31
0.0
  0
LINE
  5
1D0
330
1F
100
AcDbEntity
  8
C-A
  6
Continuous
 62
     3
370
     9
100
AcDbLine
 10
-523.1169056980451
 20
486.6157111799302
 30
0.0
 11
-523.1169056980451
 21
930.6150480412055
 31
0.0
  0
LINE
  5
1D1
330
1F
100
AcDbEntity
  8
C-A
  6
Continuous
 62
     3
370
     9
100
AcDbLine
 10
-517.1162425593204
 20
486.6157111799302
 30
0.0
 11
-517.1162425593204
 21
930.6150480412055
 31
0.0
  0
LINE
  5
1D2
330
1F
100
AcDbEntity
  8
C-A
  6
Continuous
 62
     3
370
     9
100
AcDbLine
 10
-509.1163893736152
 20
486.6157111799302
 30
0.0
 11
-509.1163893736152
 21
930.6150480412055
 31
0.0
  0
LINE
  5
1D3
330
1F
100
AcDbEntity
  8
C-A
  6
Continuous
 62
     3
370
     9
100
AcDbLine
 10
-503.116715994181
 20
486.6157111799302
 30
0.0
 11
-503.116715994181
 21
930.6150480412055
 31
0.0
  0
LINE
  5
1D4
330
1F
100
AcDbEntity
  8
C-A
  6
Continuous
 62
     3
370
     9
100
AcDbLine
 10
-495.116986528387
 20
486.6157111799302
 30
0.0
 11
-495.116986528387
 21
930.6150480412055
 31
0.0
  0
LINE
  5
1D5
330
1F
100
AcDbEntity
  8
C-A
  6
Continuous
 62
     3
370
     9
100
AcDbLine
 10
-489.1163233896626
 20
486.6157111799302
 30
0.0
 11
-489.1163233896626
 21
930.6150480412055
 31
0.0
  0
LINE
  5
1D6
330
1F
100
AcDbEntity
  8
C-A
  6
Continuous
 62
     3
370
     9
100
AcDbLine
 10
-467.1169436388178
 20
486.6157111799302
 30
0.0
 11
-467.1169436388178
 21
930.6150480412055
 31
0.0
  0
LINE
  5
1D7
330
1F
100
AcDbEntity
  8
C-A
  6
Continuous
 62
     3
370
     9
100
AcDbLine
 10
-461.1164042200045
 20
486.6157111799302
 30
0.0
 11
-461.1164042200045
 21
930.6150480412055
 31
0.0
  0
LINE
  5
1D8
330
1F
100
AcDbEntity
  8
C-A
  6
Continuous
 62
     3
370
     9
100
AcDbLine
 10
-453.1165510342993
 20
486.6157111799302
 30
0.0
 11
-453.1165510342993
 21
930.6150480412055
 31
0.0
  0
LINE
  5
1D9
330
1F
100
AcDbEntity
  8
C-A
  6
Continuous
 62
     3
370
     9
100
AcDbLine
 10
-447.1163827752198
 20
486.6157111799302
 30
0.0
 11
-447.1163827752198
 21
930.6150480412055
 31
0.0
  0
LINE
  5
1DA
330
1F
100
AcDbEntity
  8
C-A
  6
Continuous
 62
     3
370
     9
100
AcDbLine
 10
-439.1165295895146
 20
486.6157111799302
 30
0.0
 11
-439.1165295895146
 21
930.6150480412055
 31
0.0
  0
LINE
  5
1DB
330
1F
100
AcDbEntity
  8
C-A
  6
Continuous
 62
     3
370
     9
100
AcDbLine
 10
-433.1164850503467
 20
486.6157111799302
 30
0.0
 11
-433.1164850503467
 21
930.6150480412055
 31
0.0
  0
LINE
  5
1DC
330
1F
100
AcDbEntity
  8
C-A
  6
Continuous
 62
     3
370
     9
100
AcDbLine
 10
-425.1166318646415
 20
486.6157111799302
 30
0.0
 11
-425.1166318646415
 21
930.6150480412055
 31
0.0
  0
LINE
  5
1DD
330
1F
100
AcDbEntity
  8
C-A
  6
Continuous
 62
     3
370
     9
100
AcDbLine
 10
-419.1159687259167
 20
486.6157111799302
 30
0.0
 11
-419.1159687259167
 21
930.6150480412055
 31
0.0
  0
LINE
  5
1DE
330
1F
100
AcDbEntity
  8
C-A
  6
Continuous
 62
     3
370
     9
100
AcDbLine
 10
-411.1161155402115
 20
486.6157111799302
 30
0.0
 11
-411.1161155402115
 21
930.6150480412055
 31
0.0
  0
LINE
  5
1DF
330
1F
100
AcDbEntity
  8
C-A
  6
Continuous
 62
     3
370
     9
100
AcDbLine
 10
-400.1161782249665
 20
486.6157111799302
 30
0.0
 11
-850.1163019448779
 21
486.6157111799302
 31
0.0
  0
LINE
  5
1E0
330
1F
100
AcDbEntity
  8
C-A
  6
Continuous
 62
     3
370
     9
100
AcDbLine
 10
-579.1162491577156
 20
486.6157111799302
 30
0.0
 11
-579.1162491577156
 21
930.6150480412055
 31
0.0
  0
LINE
  5
1E1
330
1F
100
AcDbEntity
  8
C-A
  6
Continuous
 62
     3
370
     9
100
AcDbLine
 10
-573.1160808986363
 20
486.6157111799302
 30
0.0
 11
-573.1160808986363
 21
930.6150480412055
 31
0.0
  0
LINE
  5
1E2
330
1F
100
AcDbEntity
  8
C-A
  6
Continuous
 62
     3
370
     9
100
AcDbLine
 10
-579.1162491577156
 20
558.6150084508338
 30
0.0
 11
-573.1160808986363
 21
558.6150084508338
 31
0.0
  0
LINE
  5
1E3
330
1F
100
AcDbEntity
  8
C-A
  6
Continuous
 62
     3
370
     9
100
AcDbLine
 10
-579.1162491577156
 20
555.065008450834
 30
0.0
 11
-573.1160808986363
 21
555.065008450834
 31
0.0
  0
LINE
  5
1E4
330
1F
100
AcDbEntity
  8
C-A
  6
Continuous
 62
     3
370
     9
100
AcDbLine
 10
-481.1164702039574
 20
486.6157111799302
 30
0.0
 11
-481.1164702039574
 21
930.6150480412055
 31
0.0
  0
LINE
  5
1E5
330
1F
100
AcDbEntity
  8
C-A
  6
Continuous
 62
     3
370
     9
100
AcDbLine
 10
-475.116796824523
 20
486.6157111799302
 30
0.0
 11
-475.116796824523
 21
930.6150480412055
 31
0.0
  0
LINE
  5
1E6
330
1F
100
AcDbEntity
  8
C-A
  6
Continuous
 62
     3
370
     9
100
AcDbLine
 10
-481.1164702039574
 20
658.6148434909524
 30
0.0
 11
-475.116796824523
 21
658.6148434909524
 31
0.0
  0
LINE
  5
1E7
330
1F
100
AcDbEntity
  8
C-A
  6
Continuous
 62
     3
370
     9
100
AcDbLine
 10
-481.1164702039574
 20
655.0648434909516
 30
0.0
 11
-475.116796824523
 21
655.0648434909516
 31
0.0
  0
LINE
  5
1E8
330
1F
100
AcDbEntity
  8
C-A
  6
Continuous
 62
     3
370
     9
100
AcDbLine
 10
-467.1191714220209
 20
662.164843490952
 30
0.0
 11
-461.119126882853
 21
662.164843490952
 31
0.0
  0
LINE
  5
1E9
330
1F
100
AcDbEntity
  8
C-A
  6
Continuous
 62
     3
370
     9
100
AcDbLine
 10
-467.115212384859
 20
658.6148434909524
 30
0.0
 11
-461.1155390054246
 21
658.6148434909524
 31
0.0
  0
LINE
  5
1EA
330
1F
100
AcDbEntity
  8
C-A
  6
Continuous
 62
     3
370
     9
100
AcDbLine
 10
-467.115212384859
 20
655.0648434909516
 30
0.0
 11
-461.1155390054246
 21
655.0648434909516
 31
0.0
  0
LINE
  5
1EB
330
1F
100
AcDbEntity
  8
C-A
  6
Continuous
 62
     3
370
     9
100
AcDbLine
 10
-453.1179136029226
 20
662.164843490952
 30
0.0
 11
-447.1178690637546
 21
662.164843490952
 31
0.0
  0
LINE
  5
1EC
330
1F
100
AcDbEntity
  8
C-A
  6
Continuous
 62
     3
370
     9
100
AcDbLine
 10
-453.1139545657606
 20
658.6148434909524
 30
0.0
 11
-447.1142811863262
 21
658.6148434909524
 31
0.0
  0
LINE
  5
1ED
330
1F
100
AcDbEntity
  8
C-A
  6
Continuous
 62
     3
370
     9
100
AcDbLine
 10
-453.1139545657606
 20
655.0648434909516
 30
0.0
 11
-447.1142811863262
 21
655.0648434909516
 31
0.0
  0
LINE
  5
1EE
330
1F
100
AcDbEntity
  8
C-A
  6
Continuous
 62
     3
370
     9
100
AcDbLine
 10
-439.1166557838241
 20
662.164843490952
 30
0.0
 11
-433.1166112446562
 21
662.164843490952
 31
0.0
  0
LINE
  5
1EF
330
1F
100
AcDbEntity
  8
C-A
  6
Continuous
 62
     3
370
     9
100
AcDbLine
 10
-439.1126967466622
 20
658.6148434909524
 30
0.0
 11
-433.1130233672278
 21
658.6148434909524
 31
0.0
  0
LINE
  5
1F0
330
1F
100
AcDbEntity
  8
C-A
  6
Continuous
 62
     3
370
     9
100
AcDbLine
 10
-439.1126967466622
 20
655.0648434909516
 30
0.0
 11
-433.1130233672278
 21
655.0648434909516
 31
0.0
  0
LINE
  5
1F1
330
1F
100
AcDbEntity
  8
C-A
  6
Continuous
 62
     3
370
     9
100
AcDbLine
 10
-425.1153979647257
 20
662.164843490952
 30
0.0
 11
-419.1153534255578
 21
662.164843490952
 31
0.0
  0
LINE
  5
1F2
330
1F
100
AcDbEntity
  8
C-A
  6
Continuous
 62
     3
370
     9
100
AcDbLine
 10
-425.1114389275638
 20
658.6148434909524
 30
0.0
 11
-419.1117655481294
 21
658.6148434909524
 31
0.0
  0
LINE
  5
1F3
330
1F
100
AcDbEntity
  8
C-A
  6
Continuous
 62
     3
370
     9
100
AcDbLine
 10
-425.1114389275638
 20
655.0648434909516
 30
0.0
 11
-419.1117655481294
 21
655.0648434909516
 31
0.0
  0
LINE
  5
1F4
330
1F
100
AcDbEntity
  8
C-A
  6
Continuous
 62
     3
370
     9
100
AcDbLine
 10
-565.1178987565332
 20
562.1650084508337
 30
0.0
 11
-559.1177304974537
 21
562.1650084508337
 31
0.0
  0
LINE
  5
1F5
330
1F
100
AcDbEntity
  8
C-A
  6
Continuous
 62
     3
370
     9
100
AcDbLine
 10
-565.1154243583069
 20
558.6150084508338
 30
0.0
 11
-559.1152560992275
 21
558.6150084508338
 31
0.0
  0
LINE
  5
1F6
330
1F
100
AcDbEntity
  8
C-A
  6
Continuous
 62
     3
370
     9
100
AcDbLine
 10
-565.1154243583069
 20
555.065008450834
 30
0.0
 11
-559.1152560992275
 21
555.065008450834
 31
0.0
  0
LINE
  5
1F7
330
1F
100
AcDbEntity
  8
C-A
  6
Continuous
 62
     3
370
     9
100
AcDbLine
 10
-551.1170739571244
 20
562.1650084508337
 30
0.0
 11
-545.116905698045
 21
562.1650084508337
 31
0.0
  0
LINE
  5
1F8
330
1F
100
AcDbEntity
  8
C-A
  6
Continuous
 62
     3
370
     9
100
AcDbLine
 10
-551.1145995588981
 20
558.6150084508338
 30
0.0
 11
-545.1144312998188
 21
558.6150084508338
 31
0.0
  0
LINE
  5
1F9
330
1F
100
AcDbEntity
  8
C-A
  6
Continuous
 62
     3
370
     9
100
AcDbLine
 10
-551.1145995588981
 20
555.065008450834
 30
0.0
 11
-545.1144312998188
 21
555.065008450834
 31
0.0
  0
LINE
  5
1FA
330
1F
100
AcDbEntity
  8
C-A
  6
Continuous
 62
     3
370
     9
100
AcDbLine
 10
-537.1162491577156
 20
562.1650084508337
 30
0.0
 11
-531.1160808986363
 21
562.1650084508337
 31
0.0
  0
LINE
  5
1FB
330
1F
100
AcDbEntity
  8
C-A
  6
Continuous
 62
     3
370
     9
100
AcDbLine
 10
-537.1137747594894
 20
558.6150084508338
 30
0.0
 11
-531.1136065004099
 21
558.6150084508338
 31
0.0
  0
LINE
  5
1FC
330
1F
100
AcDbEntity
  8
C-A
  6
Continuous
 62
     3
370
     9
100
AcDbLine
 10
-537.1137747594894
 20
555.065008450834
 30
0.0
 11
-531.1136065004099
 21
555.065008450834
 31
0.0
  0
LINE
  5
1FD
330
1F
100
AcDbEntity
  8
C-A
  6
Continuous
 62
     3
370
     9
100
AcDbLine
 10
-523.1154243583069
 20
562.1650084508337
 30
0.0
 11
-517.1152560992275
 21
562.1650084508337
 31
0.0
  0
LINE
  5
1FE
330
1F
100
AcDbEntity
  8
C-A
  6
Continuous
 62
     3
370
     9
100
AcDbLine
 10
-523.1129499600806
 20
558.6150084508338
 30
0.0
 11
-517.1127817010012
 21
558.6150084508338
 31
0.0
  0
LINE
  5
1FF
330
1F
100
AcDbEntity
  8
C-A
  6
Continuous
 62
     3
370
     9
100
AcDbLine
 10
-523.1129499600806
 20
555.065008450834
 30
0.0
 11
-517.1127817010012
 21
555.065008450834
 31
0.0
  0
LINE
  5
200
330
1F
100
AcDbEntity
  8
C-A
  6
Continuous
 62
     3
370
     9
100
AcDbLine
 10
-509.1145995588981
 20
562.1650084508337
 30
0.0
 11
-503.1144312998186
 21
562.1650084508337
 31
0.0
  0
LINE
  5
201
330
1F
100
AcDbEntity
  8
C-A
  6
Continuous
 62
     3
370
     9
100
AcDbLine
 10
-509.1121251606718
 20
558.6150084508338
 30
0.0
 11
-503.1119569015924
 21
558.6150084508338
 31
0.0
  0
LINE
  5
202
330
1F
100
AcDbEntity
  8
C-A
  6
Continuous
 62
     3
370
     9
100
AcDbLine
 10
-509.1121251606718
 20
555.065008450834
 30
0.0
 11
-503.1119569015924
 21
555.065008450834
 31
0.0
  0
LINE
  5
203
330
1F
100
AcDbEntity
  8
C-A
  6
Continuous
 62
     3
370
     9
100
AcDbLine
 10
-495.1137747594893
 20
562.1650084508337
 30
0.0
 11
-489.1136065004099
 21
562.1650084508337
 31
0.0
  0
LINE
  5
204
330
1F
100
AcDbEntity
  8
C-A
  6
Continuous
 62
     3
370
     9
100
AcDbLine
 10
-495.111300361263
 20
558.6150084508338
 30
0.0
 11
-489.1111321021836
 21
558.6150084508338
 31
0.0
  0
LINE
  5
205
330
1F
100
AcDbEntity
  8
C-A
  6
Continuous
 62
     3
370
     9
100
AcDbLine
 10
-495.111300361263
 20
555.065008450834
 30
0.0
 11
-489.1111321021836
 21
555.065008450834
 31
0.0
  0
LINE
  5
206
330
1F
100
AcDbEntity
  8
C-A
  6
Continuous
 62
     3
370
     9
100
AcDbLine
 10
-481.1129499600805
 20
562.1650084508337
 30
0.0
 11
-475.1127817010012
 21
562.1650084508337
 31
0.0
  0
LINE
  5
207
330
1F
100
AcDbEntity
  8
C-A
  6
Continuous
 62
     3
370
     9
100
AcDbLine
 10
-481.1104755618543
 20
558.6150084508338
 30
0.0
 11
-475.1103073027748
 21
558.6150084508338
 31
0.0
  0
LINE
  5
208
330
1F
100
AcDbEntity
  8
C-A
  6
Continuous
 62
     3
370
     9
100
AcDbLine
 10
-481.1104755618543
 20
555.065008450834
 30
0.0
 11
-475.1103073027748
 21
555.065008450834
 31
0.0
  0
LINE
  5
209
330
1F
100
AcDbEntity
  8
C-A
  6
Continuous
 62
     3
370
     9
100
AcDbLine
 10
-467.1121251606718
 20
562.1650084508337
 30
0.0
 11
-461.1119569015924
 21
562.1650084508337
 31
0.0
  0
LINE
  5
20A
330
1F
100
AcDbEntity
  8
C-A
  6
Continuous
 62
     3
370
     9
100
AcDbLine
 10
-467.1096507624455
 20
558.6150084508338
 30
0.0
 11
-461.1094825033661
 21
558.6150084508338
 31
0.0
  0
LINE
  5
20B
330
1F
100
AcDbEntity
  8
C-A
  6
Continuous
 62
     3
370
     9
100
AcDbLine
 10
-467.1096507624455
 20
555.065008450834
 30
0.0
 11
-461.1094825033661
 21
555.065008450834
 31
0.0
  0
LINE
  5
20C
330
1F
100
AcDbEntity
  8
C-A
  6
Continuous
 62
     3
370
     9
100
AcDbLine
 10
-453.111300361263
 20
562.1650084508337
 30
0.0
 11
-447.1111321021835
 21
562.1650084508337
 31
0.0
  0
LINE
  5
20D
330
1F
100
AcDbEntity
  8
C-A
  6
Continuous
 62
     3
370
     9
100
AcDbLine
 10
-453.1088259630367
 20
558.6150084508338
 30
0.0
 11
-447.1086577039573
 21
558.6150084508338
 31
0.0
  0
LINE
  5
20E
330
1F
100
AcDbEntity
  8
C-A
  6
Continuous
 62
     3
370
     9
100
AcDbLine
 10
-453.1088259630367
 20
555.065008450834
 30
0.0
 11
-447.1086577039573
 21
555.065008450834
 31
0.0
  0
LINE
  5
20F
330
1F
100
AcDbEntity
  8
C-A
  6
Continuous
 62
     3
370
     9
100
AcDbLine
 10
-439.1104755618542
 20
562.1650084508337
 30
0.0
 11
-433.1103073027748
 21
562.1650084508337
 31
0.0
  0
LINE
  5
210
330
1F
100
AcDbEntity
  8
C-A
  6
Continuous
 62
     3
370
     9
100
AcDbLine
 10
-439.1080011636279
 20
558.6150084508338
 30
0.0
 11
-433.1078329045485
 21
558.6150084508338
 31
0.0
  0
LINE
  5
211
330
1F
100
AcDbEntity
  8
C-A
  6
Continuous
 62
     3
370
     9
100
AcDbLine
 10
-439.1080011636279
 20
555.065008450834
 30
0.0
 11
-433.1078329045485
 21
555.065008450834
 31
0.0
  0
LINE
  5
212
330
1F
100
AcDbEntity
  8
C-A
  6
Continuous
 62
     3
370
     9
100
AcDbLine
 10
-425.1096507624454
 20
562.1650084508337
 30
0.0
 11
-419.1094825033661
 21
562.1650084508337
 31
0.0
  0
LINE
  5
213
330
1F
100
AcDbEntity
  8
C-A
  6
Continuous
 62
     3
370
     9
100
AcDbLine
 10
-425.1071763642192
 20
558.6150084508338
 30
0.0
 11
-419.1070081051397
 21
558.6150084508338
 31
0.0
  0
LINE
  5
214
330
1F
100
AcDbEntity
  8
C-A
  6
Continuous
 62
     3
370
     9
100
AcDbLine
 10
-425.1071763642192
 20
555.065008450834
 30
0.0
 11
-419.1070081051397
 21
555.065008450834
 31
0.0
  0
LINE
  5
215
330
1F
100
AcDbEntity
  8
C-A
  6
Continuous
 62
     3
370
     9
100
AcDbLine
 10
-411.1088259630367
 20
562.1650084508337
 30
0.0
 11
-408.1171448898735
 21
562.1650084508337
 31
0.0
  0
LINE
  5
216
330
1F
100
AcDbEntity
  8
C-A
  6
Continuous
 62
     3
370
     9
100
AcDbLine
 10
-411.1063515648104
 20
558.6150084508338
 30
0.0
 11
-408.1171448898735
 21
558.6150084508338
 31
0.0
  0
LINE
  5
217
330
1F
100
AcDbEntity
  8
C-A
  6
Continuous
 62
     3
370
     9
100
AcDbLine
 10
-411.1063515648104
 20
555.065008450834
 30
0.0
 11
-408.1171448898735
 21
555.065008450834
 31
0.0
  0
LINE
  5
218
330
1F
100
AcDbEntity
  8
C-A
  6
Continuous
 62
     3
370
     9
100
AcDbLine
 10
-411.1141401456274
 20
662.164843490952
 30
0.0
 11
-408.1171448898735
 21
662.164843490952
 31
0.0
  0
LINE
  5
219
330
1F
100
AcDbEntity
  8
C-A
  6
Continuous
 62
     3
370
     9
100
AcDbLine
 10
-411.1101811084654
 20
658.6148434909524
 30
0.0
 11
-408.1171448898735
 21
658.6148434909524
 31
0.0
  0
LINE
  5
21A
330
1F
100
AcDbEntity
  8
C-A
  6
Continuous
 62
     3
370
     9
100
AcDbLine
 10
-411.1101811084654
 20
655.0648434909516
 30
0.0
 11
-408.1171448898735
 21
655.0648434909516
 31
0.0
  0
LINE
  5
21B
330
1F
100
AcDbEntity
  8
C-A
  6
Continuous
 62
     3
370
     9
100
AcDbLine
 10
-408.1171448898735
 20
486.6157111799302
 30
0.0
 11
-408.1171448898735
 21
930.6150480412055
 31
0.0
  0
LINE
  5
21C
330
1F
100
AcDbEntity
  8
D-4
  6
Continuous
 62
     7
370
     9
100
AcDbLine
 10
898.3841887768209
 20
369.3218143653583
 30
0.0
 11
898.3841887768209
 21
269.1677109718036
 31
0.0
  0
LWPOLYLINE
  5
21D
330
1F
100
AcDbEntity
  8
D-4
  6
Continuous
 62
     7
370
     9
100
AcDbPolyline
 90
        4
 70
     1
 43
1.0
 10
898.8841887768208
 20
369.3218143653583
 42
0.4142135623731
 10
898.3841887768209
 20
369.8218143653583
 42
0.4142135623731
 10
897.8841887768209
 20
369.3218143653583
 42
0.4142135623731
 10
898.3841887768209
 20
368.8218143653583
 42
0.4142135623731
  0
LWPOLYLINE
  5
21E
330
1F
100
AcDbEntity
  8
D-4
  6
Continuous
 62
     7
370
     9
100
AcDbPolyline
 90
        4
 70
     1
 43
1.0
 10
898.8841887768208
 20
269.1677109718036
 42
0.4142135623731
 10
898.3841887768209
 20
269.6677109718036
 42
0.4142135623731
 10
897.8841887768209
 20
269.1677109718036
 42
0.4142135623731
 10
898.3841887768209
 20
268.6677109718036
 42
0.4142135623731
  0
LINE
  5
21F
330
1F
100
AcDbEntity
  8
D-4
  6
Continuous
 62
     7
370
     9
100
AcDbLine
 10
901.384188776821
 20
369.3218143653583
 30
0.0
 11
773.5203024432376
 21
369.3218143653583
 31
0.0
  0
LINE
  5
220
330
1F
100
AcDbEntity
  8
D-4
  6
Continuous
 62
     7
370
     9
100
AcDbLine
 10
901.384188776821
 20
269.1677109718036
 30
0.0
 11
773.5203024432376
 21
269.1677109718036
 31
0.0
  0
TEXT
  5
221
330
1F
100
AcDbEntity
  8
D-4
  6
Continuous
 62
     2
370
   211
100
AcDbText
 10
886.7441887768213
 20
297.994762668581
 30
0.0
 40
30.48
  1
20
 50
90.0
 41
1.0625
  7
ＭＳ ゴシック
100
AcDbText
  0
LINE
  5
222
330
1F
100
AcDbEntity
  8
D-2
  6
Continuous
 62
     3
370
     9
100
AcDbLine
 10
676.8208395526129
 20
362.321753330202
 30
0.0
 11
676.8208395526129
 21
369.3218143653583
 31
0.0
  0
LINE
  5
223
330
1F
100
AcDbEntity
  8
D-2
  6
Continuous
 62
     3
370
     9
100
AcDbLine
 10
745.9450412239072
 20
369.3218143653583
 30
0.0
 11
676.8208395526129
 21
369.3218143653583
 31
0.0
  0
LINE
  5
224
330
1F
100
AcDbEntity
  8
D-2
  6
Continuous
 62
     3
370
     9
100
AcDbLine
 10
716.8202292010504
 20
369.3218143653583
 30
0.0
 11
716.8202292010504
 21
362.321753330202
 31
0.0
  0
LINE
  5
225
330
1F
100
AcDbEntity
  8
D-2
  6
Continuous
 62
     3
370
     9
100
AcDbLine
 10
716.8202292010504
 20
362.321753330202
 30
0.0
 11
676.8208395526129
 21
362.321753330202
 31
0.0
  0
LINE
  5
226
330
1F
100
AcDbEntity
  8
D-2
  6
Continuous
 62
     3
370
     9
100
AcDbLine
 10
693.3203512713628
 20
362.321753330202
 30
0.0
 11
693.3203512713628
 21
269.326753330202
 31
0.0
  0
LINE
  5
227
330
1F
100
AcDbEntity
  8
D-2
  6
Continuous
 62
     3
370
     9
100
AcDbLine
 10
700.3207174823006
 20
362.321753330202
 30
0.0
 11
700.3207174823006
 21
269.326753330202
 31
0.0
  0
ARC
  5
228
330
1F
100
AcDbEntity
  8
D-2
  6
Continuous
 62
     3
370
     9
100
AcDbCircle
 10
688.3203512713628
 20
357.321753330202
 30
0.0
 40
5.0
100
AcDbArc
 50
0.0
 51
90.0
  0
ARC
  5
229
330
1F
100
AcDbEntity
  8
D-2
  6
Continuous
 62
     3
370
     9
100
AcDbCircle
 10
705.3207174823006
 20
357.321753330202
 30
0.0
 40
5.0
100
AcDbArc
 50
90.0
 51
180.0
  0
LINE
  5
22A
330
1F
100
AcDbEntity
  8
D-2
  6
Continuous
 62
     3
370
     9
100
AcDbLine
 10
993.4408125721568
 20
329.4379882851223
 30
0.0
 11
993.4408125721568
 21
388.4505035694867
 31
0.0
  0
LINE
  5
22B
330
1F
100
AcDbEntity
  8
D-2
  6
Continuous
 62
     3
370
     9
100
AcDbLine
 10
993.4408125721568
 20
249.2668301000987
 30
0.0
 11
993.4408125721568
 21
309.4369049110987
 31
0.0
  0
LINE
  5
22C
330
1F
100
AcDbEntity
  8
D-2
  6
Continuous
 62
     3
370
     9
100
AcDbLine
 10
1008.441667064345
 20
329.4379882851223
 30
0.0
 11
993.4408125721568
 21
329.4379882851223
 31
0.0
  0
LINE
  5
22D
330
1F
100
AcDbEntity
  8
D-2
  6
Continuous
 62
     3
370
     9
100
AcDbLine
 10
1008.441667064345
 20
329.4379882851223
 30
0.0
 11
978.4406905018436
 21
309.4369049110987
 31
0.0
  0
LINE
  5
22E
330
1F
100
AcDbEntity
  8
D-2
  6
Continuous
 62
     3
370
     9
100
AcDbLine
 10
993.4408125721568
 20
309.4369049110987
 30
0.0
 11
978.4406905018436
 21
309.4369049110987
 31
0.0
  0
LINE
  5
22F
330
1F
100
AcDbEntity
  8
D-5
  6
Continuous
 62
     7
370
     9
100
AcDbLine
 10
525.1620438440291
 20
55.41478274144694
 30
0.0
 11
743.1004641920878
 21
55.41478274144694
 31
0.0
  0
TEXT
  5
230
330
1F
100
AcDbEntity
  8
D-5
  6
Continuous
 62
     2
370
     9
100
AcDbText
 10
535.3812540180586
 20
76.05478274144694
 30
0.0
 40
30.48
  1
B-B断面図
 41
1.097222222222222
  7
ＭＳ ゴシック
100
AcDbText
  0
LINE
  5
231
330
1F
100
AcDbEntity
  8
D-4
  6
Continuous
 62
     7
370
     9
100
AcDbLine
 10
1250.031018064844
 20
369.3218143653583
 30
0.0
 11
1265.250053790063
 21
389.1556478726392
 31
0.0
  0
LINE
  5
232
330
1F
100
AcDbEntity
  8
D-4
  6
Continuous
 62
     7
370
     9
100
AcDbLine
 10
1250.031018064844
 20
369.3218143653583
 30
0.0
 11
1269.864851572125
 21
384.5408500905763
 31
0.0
  0
LINE
  5
233
330
1F
100
AcDbEntity
  8
D-4
  6
Continuous
 62
     7
370
     9
100
AcDbLine
 10
1250.031018064844
 20
369.3218143653583
 30
0.0
 11
1318.949200555168
 21
438.2399968556815
 31
0.0
  0
LINE
  5
234
330
1F
100
AcDbEntity
  8
D-4
  6
Continuous
 62
     7
370
     9
100
AcDbLine
 10
1487.500635769687
 20
438.2399968556815
 30
0.0
 11
1318.949200555168
 21
438.2399968556815
 31
0.0
  0
TEXT
  5
235
330
1F
100
AcDbEntity
  8
D-5
  6
Continuous
 62
     7
370
     9
100
AcDbText
 10
1318.202967007778
 20
447.4699968556815
 30
0.0
 40
22.86
  1
メインバー
 41
1.133333333333333
  7
ＭＳ ゴシック
100
AcDbText
  0
LINE
  5
236
330
1F
100
AcDbEntity
  8
D-4
  6
Continuous
 62
     7
370
     9
100
AcDbLine
 10
993.4408125721568
 20
440.1346454065925
 30
0.0
 11
1184.188622674384
 21
440.1346454065925
 31
0.0
  0
LWPOLYLINE
  5
237
330
1F
100
AcDbEntity
  8
D-4
  6
Continuous
 62
     7
370
     9
100
AcDbPolyline
 90
        4
 70
     1
 43
1.0
 10
1184.688622674384
 20
440.1346454065925
 42
0.4142135623731
 10
1184.188622674384
 20
440.6346454065925
 42
0.4142135623731
 10
1183.688622674384
 20
440.1346454065925
 42
0.4142135623731
 10
1184.188622674384
 20
439.6346454065926
 42
0.4142135623731
  0
LINE
  5
238
330
1F
100
AcDbEntity
  8
D-4
  6
Continuous
 62
     7
370
     9
100
AcDbLine
 10
1184.188622674384
 20
443.1346454065925
 30
0.0
 11
1184.188622674384
 21
357.3292474576302
 31
0.0
  0
TEXT
  5
239
330
1F
100
AcDbEntity
  8
D-4
  6
Continuous
 62
     2
370
   211
100
AcDbText
 10
993.4408125721568
 20
451.7746454065926
 30
0.0
 40
30.48
  1
100
 41
1.083333333333333
  7
ＭＳ ゴシック
100
AcDbText
  0
LINE
  5
23A
330
1F
100
AcDbEntity
  8
C-4
  6
Continuous
 62
     7
370
     9
100
AcDbLine
 10
-825.1154771454691
 20
1073.573422155974
 30
0.0
 11
-425.1156421053508
 21
1073.573422155974
 31
0.0
  0
LINE
  5
23B
330
1F
100
AcDbEntity
  8
C-4
  6
Continuous
 62
     7
370
     9
100
AcDbLine
 10
-825.1154771454691
 20
953.6153218746097
 30
0.0
 11
-825.1154771454691
 21
1076.573877445248
 31
0.0
  0
LINE
  5
23C
330
1F
100
AcDbEntity
  8
C-4
  6
Continuous
 62
     7
370
     9
100
AcDbLine
 10
-425.1156421053508
 20
953.6153218746097
 30
0.0
 11
-425.1156421053508
 21
1076.573877445248
 31
0.0
  0
LINE
  5
23D
330
1F
100
AcDbEntity
  8
C-4
  6
Continuous
 62
     7
370
     9
100
AcDbLine
 10
-850.1163019448779
 20
1073.573422155974
 30
0.0
 11
-825.1154771454691
 21
1073.573422155974
 31
0.0
  0
LINE
  5
23E
330
1F
100
AcDbEntity
  8
C-4
  6
Continuous
 62
     7
370
     9
100
AcDbLine
 10
-425.1156421053508
 20
1073.573422155974
 30
0.0
 11
-400.1161782249665
 21
1073.573422155974
 31
0.0
  0
TEXT
  5
23F
330
1F
100
AcDbEntity
  8
C-4
  6
Continuous
 62
     2
370
     9
100
AcDbText
 10
-824.2484397589612
 20
1084.21319121214
 30
0.0
 40
30.48
  1
25
 41
1.0625
  7
ＭＳ ゴシック
100
AcDbText
  0
TEXT
  5
240
330
1F
100
AcDbEntity
  8
C-4
  6
Continuous
 62
     2
370
     9
100
AcDbText
 10
-472.4967720145568
 20
1084.21319121214
 30
0.0
 40
30.48
  1
25
 41
1.0625
  7
ＭＳ ゴシック
100
AcDbText
  0
TEXT
  5
241
330
1F
100
AcDbEntity
  8
C-4
  6
Continuous
 62
     2
370
     9
100
AcDbText
 10
-657.6163019448777
 20
1084.212943772318
 30
0.0
 40
30.48
  1
400
 41
1.083333333333333
  7
ＭＳ ゴシック
100
AcDbText
  0
LWPOLYLINE
  5
242
330
1F
100
AcDbEntity
  8
C-4
  6
Continuous
 62
     7
370
     9
100
AcDbPolyline
 90
        4
 70
     1
 43
1.0
 10
-824.6154771454691
 20
1073.573422155974
 42
0.4142135623731
 10
-825.1154771454691
 20
1074.073422155974
 42
0.4142135623731
 10
-825.6154771454691
 20
1073.573422155974
 42
0.4142135623731
 10
-825.1154771454691
 20
1073.073422155974
 42
0.4142135623731
  0
LWPOLYLINE
  5
243
330
1F
100
AcDbEntity
  8
C-4
  6
Continuous
 62
     7
370
     9
100
AcDbPolyline
 90
        4
 70
     1
 43
1.0
 10
-424.6156421053508
 20
1073.573422155974
 42
0.4142135623731
 10
-425.1156421053508
 20
1074.073422155974
 42
0.4142135623731
 10
-425.6156421053508
 20
1073.573422155974
 42
0.4142135623731
 10
-425.1156421053508
 20
1073.073422155974
 42
0.4142135623731
  0
LWPOLYLINE
  5
244
330
1F
100
AcDbEntity
  8
C-4
  6
Continuous
 62
     7
370
     9
100
AcDbPolyline
 90
        4
 70
     1
 43
1.0
 10
-849.6163019448779
 20
1073.573422155974
 42
0.4142135623731
 10
-850.1163019448779
 20
1074.073422155974
 42
0.4142135623731
 10
-850.6163019448779
 20
1073.573422155974
 42
0.4142135623731
 10
-850.1163019448779
 20
1073.073422155974
 42
0.4142135623731
  0
LWPOLYLINE
  5
245
330
1F
100
AcDbEntity
  8
C-4
  6
Continuous
 62
     7
370
     9
100
AcDbPolyline
 90
        4
 70
     1
 43
1.0
 10
-399.6161782249665
 20
1073.573422155974
 42
0.4142135623731
 10
-400.1161782249665
 20
1074.073422155974
 42
0.4142135623731
 10
-400.6161782249665
 20
1073.573422155974
 42
0.4142135623731
 10
-400.1161782249665
 20
1073.073422155974
 42
0.4142135623731
  0
SOLID
  5
246
330
1F
100
AcDbEntity
  8
C-5
  6
Continuous
 62
     4
370
     9
100
AcDbTrace
 10
-623.1162400849222
 20
968.6311933812285
 30
0.0
 11
-623.1162400849222
 21
1008.631193381229
 31
0.0
 12
-627.1162400849222
 22
968.6311933812285
 32
0.0
 13
-627.1162400849222
 23
1008.631193381229
 33
0.0
  0
LINE
  5
247
330
1F
100
AcDbEntity
  8
C-5
  6
Continuous
 62
     4
370
     9
100
AcDbLine
 10
-615.4501502872101
 20
989.6121902547022
 30
0.0
 11
-566.2007576042685
 21
989.6121902547022
 31
0.0
  0
LINE
  5
248
330
1F
100
AcDbEntity
  8
C-5
  6
Continuous
 62
     4
370
     9
100
AcDbLine
 10
-615.4501502872101
 20
989.6121902547022
 30
0.0
 11
-590.664028752865
 21
986.349035449201
 31
0.0
  0
LINE
  5
249
330
1F
100
AcDbEntity
  8
C-5
  6
Continuous
 62
     4
370
     9
100
AcDbLine
 10
-615.4501502872101
 20
989.6121902547022
 30
0.0
 11
-590.664028752865
 21
992.8753450602037
 31
0.0
  0
TEXT
  5
24A
330
1F
100
AcDbEntity
  8
C-5
  6
Continuous
 62
     2
370
     9
100
AcDbText
 10
-558.489986470318
 20
977.4070082344987
 30
0.0
 40
30.48
  1
A
 41
0.9999999999999998
  7
ＭＳ ゴシック
100
AcDbText
  0
LINE
  5
24B
330
1F
100
AcDbEntity
  8
C-5
  6
JWW_CENTER1
 62
     4
370
     9
100
AcDbLine
 10
-625.1162400849221
 20
968.6311933812285
 30
0.0
 11
-625.1162400849221
 21
782.3999812321974
 31
0.0
  0
LINE
  5
24C
330
1F
100
AcDbEntity
  8
D-5
  6
Continuous
 62
     7
370
     9
100
AcDbLine
 10
-667.1904517675325
 20
-1056.66551649795
 30
0.0
 11
-1185.228187616589
 21
-1056.66551649795
 31
0.0
  0
TEXT
  5
24D
330
1F
100
AcDbEntity
  8
D-5
  6
Continuous
 62
     2
370
     9
100
AcDbText
 10
-1182.459313544794
 20
-1038.525821673735
 30
0.0
 40
30.48
  1
A断面詳細図　Ｓ＝１：２
 50
359.9999375525338
 41
1.114130434782609
  7
ＭＳ ゴシック
100
AcDbText
  0
LINE
  5
24E
330
1F
100
AcDbEntity
  8
D-2
  6
Continuous
 62
     3
370
     9
100
AcDbLine
 10
700.3207174823006
 20
333.9992283057881
 30
0.0
 11
745.9450412239072
 21
333.9992283057881
 31
0.0
  0
LINE
  5
24F
330
1F
100
AcDbEntity
  8
D-2
  6
Continuous
 62
     3
370
     9
100
AcDbLine
 10
700.3207174823006
 20
316.3218143653583
 30
0.0
 11
745.9450412239072
 21
316.3218143653583
 31
0.0
  0
LINE
  5
250
330
1F
100
AcDbEntity
  8
D-2
  6
Continuous
 62
     3
370
     9
100
AcDbLine
 10
700.3207174823006
 20
298.6437137794208
 30
0.0
 11
745.9450412239072
 21
298.6437137794208
 31
0.0
  0
LINE
  5
251
330
1F
100
AcDbEntity
  8
D-2
  6
Continuous
 62
     3
370
     9
100
AcDbLine
 10
1189.366300963024
 20
303.8218968452991
 30
0.0
 11
1196.68816903471
 21
303.8218968452991
 31
0.0
  0
LINE
  5
252
330
1F
100
AcDbEntity
  8
D-2
  6
Continuous
 62
     3
370
     9
100
AcDbLine
 10
1196.68816903471
 20
311.144507236452
 30
0.0
 11
1196.68816903471
 21
303.8218968452991
 31
0.0
  0
LINE
  5
253
330
1F
100
AcDbEntity
  8
D-2
  6
Continuous
 62
     3
370
     9
100
AcDbLine
 10
1201.866218483084
 20
316.3218143653583
 30
0.0
 11
1184.18825151465
 21
298.6445897163928
 31
0.0
  0
LINE
  5
254
330
1F
100
AcDbEntity
  8
D-2
  6
Continuous
 62
     3
370
     9
100
AcDbLine
 10
1184.188622674384
 20
333.9997813337915
 30
0.0
 11
1201.866218483084
 21
316.3218143653583
 31
0.0
  0
LINE
  5
255
330
1F
100
AcDbEntity
  8
D-2
  6
Continuous
 62
     3
370
     9
100
AcDbLine
 10
1196.68816903471
 20
328.8224742048852
 30
0.0
 11
1196.68816903471
 21
321.5002349734663
 31
0.0
  0
LINE
  5
256
330
1F
100
AcDbEntity
  8
D-2
  6
Continuous
 62
     3
370
     9
100
AcDbLine
 10
1189.366300963024
 20
328.8224742048852
 30
0.0
 11
1196.68816903471
 21
328.8224742048852
 31
0.0
  0
LINE
  5
257
330
1F
100
AcDbEntity
  8
D-2
  6
Continuous
 62
     3
370
     9
100
AcDbLine
 10
1166.510655705951
 20
316.3218143653583
 30
0.0
 11
1184.188622674384
 21
333.9997813337915
 31
0.0
  0
LINE
  5
258
330
1F
100
AcDbEntity
  8
D-2
  6
Continuous
 62
     3
370
     9
100
AcDbLine
 10
1171.688333994591
 20
328.8224742048852
 30
0.0
 11
1179.011315545478
 21
328.8224742048852
 31
0.0
  0
LINE
  5
259
330
1F
100
AcDbEntity
  8
D-2
  6
Continuous
 62
     3
370
     9
100
AcDbLine
 10
1171.688333994591
 20
328.8224742048852
 30
0.0
 11
1171.688333994591
 21
321.4998638137322
 31
0.0
  0
LINE
  5
25A
330
1F
100
AcDbEntity
  8
D-2
  6
Continuous
 62
     3
370
     9
100
AcDbLine
 10
1184.18825151465
 20
298.6445897163928
 30
0.0
 11
1166.510655705951
 21
316.3218143653583
 31
0.0
  0
LINE
  5
25B
330
1F
100
AcDbEntity
  8
D-2
  6
Continuous
 62
     3
370
     9
100
AcDbLine
 10
1171.688333994591
 20
311.144507236452
 30
0.0
 11
1171.688333994591
 21
303.8218968452991
 31
0.0
  0
LINE
  5
25C
330
1F
100
AcDbEntity
  8
D-2
  6
Continuous
 62
     3
370
     9
100
AcDbLine
 10
1171.688333994591
 20
303.8218968452991
 30
0.0
 11
1179.01057322601
 21
303.8218968452991
 31
0.0
  0
LINE
  5
25D
330
1F
100
AcDbEntity
  8
D-2
  6
JWW_CENTER1
 62
     3
370
     9
100
AcDbLine
 10
1210.696108553819
 20
316.3218143653583
 30
0.0
 11
1157.680765635216
 21
316.3218143653583
 31
0.0
  0
LINE
  5
25E
330
1F
100
AcDbEntity
  8
D-2
  6
JWW_CENTER1
 62
     3
370
     9
100
AcDbLine
 10
1184.188622674384
 20
289.8146996456581
 30
0.0
 11
1184.188622674384
 21
342.8300425642602
 31
0.0
  0
LINE
  5
25F
330
1F
100
AcDbEntity
  8
D-4
  6
Continuous
 62
     7
370
     9
100
AcDbLine
 10
1175.349453610301
 20
307.4832020408755
 30
0.0
 11
1160.130417885083
 21
287.6493685335948
 31
0.0
  0
LINE
  5
260
330
1F
100
AcDbEntity
  8
D-4
  6
Continuous
 62
     7
370
     9
100
AcDbLine
 10
1175.349453610301
 20
307.4832020408755
 30
0.0
 11
1155.51562010302
 21
292.2641663156575
 31
0.0
  0
LINE
  5
261
330
1F
100
AcDbEntity
  8
D-4
  6
Continuous
 62
     7
370
     9
100
AcDbLine
 10
1175.349453610301
 20
307.4832020408755
 30
0.0
 11
1056.643636347754
 21
188.777384778329
 31
0.0
  0
LINE
  5
262
330
1F
100
AcDbEntity
  8
D-4
  6
Continuous
 62
     7
370
     9
100
AcDbLine
 10
885.3358457269228
 20
188.777384778329
 30
0.0
 11
1056.643636347754
 21
188.777384778329
 31
0.0
  0
TEXT
  5
263
330
1F
100
AcDbEntity
  8
D-5
  6
Continuous
 62
     7
370
     9
100
AcDbText
 10
887.3274676320965
 20
198.0073847783289
 30
0.0
 40
22.86
  1
クロスバー
 41
1.133333333333333
  7
ＭＳ ゴシック
100
AcDbText
  0
LINE
  5
264
330
1F
100
AcDbEntity
  8
D-0
  6
Continuous
 62
     3
370
     9
100
AcDbLine
 10
1559.188622674385
 20
369.3218143653583
 30
0.0
 11
1559.188622674385
 21
269.3215669255358
 31
0.0
  0
LINE
  5
265
330
1F
100
AcDbEntity
  8
D-0
  6
Continuous
 62
     3
370
     9
100
AcDbLine
 10
1544.188573186421
 20
369.3218143653583
 30
0.0
 11
1544.188573186421
 21
269.3215669255358
 31
0.0
  0
LINE
  5
266
330
1F
100
AcDbEntity
  8
D-0
  6
Continuous
 62
     3
370
     9
100
AcDbLine
 10
993.4408125721568
 20
362.3217417830102
 30
0.0
 11
1544.188573186421
 21
362.3217417830102
 31
0.0
  0
LINE
  5
267
330
1F
100
AcDbEntity
  8
D-0
  6
Continuous
 62
     3
370
     9
100
AcDbLine
 10
1559.188622674385
 20
369.3218143653583
 30
0.0
 11
993.4408125721568
 21
369.3218143653583
 31
0.0
  0
LINE
  5
268
330
1F
100
AcDbEntity
  8
D-0
  6
Continuous
 62
     3
370
     9
100
AcDbLine
 10
1559.188622674385
 20
269.3215669255358
 30
0.0
 11
993.4408125721568
 21
269.3215669255358
 31
0.0
  0
LINE
  5
269
330
1F
100
AcDbEntity
  8
D-4
  6
Continuous
 62
     7
370
     9
100
AcDbLine
 10
1559.188622674385
 20
313.9743315789344
 30
0.0
 11
1574.407658399603
 21
333.8081650862154
 31
0.0
  0
LINE
  5
26A
330
1F
100
AcDbEntity
  8
D-4
  6
Continuous
 62
     7
370
     9
100
AcDbLine
 10
1559.188622674385
 20
313.9743315789344
 30
0.0
 11
1579.022456181667
 21
329.1933673041525
 31
0.0
  0
LINE
  5
26B
330
1F
100
AcDbEntity
  8
D-4
  6
Continuous
 62
     7
370
     9
100
AcDbLine
 10
1559.188622674385
 20
313.9743315789344
 30
0.0
 11
1628.106805164709
 21
382.8925140692576
 31
0.0
  0
LINE
  5
26C
330
1F
100
AcDbEntity
  8
D-4
  6
Continuous
 62
     7
370
     9
100
AcDbLine
 10
1628.106805164709
 20
382.8925140692576
 30
0.0
 11
1798.152447107183
 21
382.8925140692576
 31
0.0
  0
TEXT
  5
26D
330
1F
100
AcDbEntity
  8
D-5
  6
Continuous
 62
     7
370
     9
100
AcDbText
 10
1628.106805164709
 20
392.1225140692576
 30
0.0
 40
22.86
  1
サイドバー
 41
1.133333333333333
  7
ＭＳ ゴシック
100
AcDbText
  0
LINE
  5
26E
330
1F
100
AcDbEntity
  8
D-5
  6
Continuous
 62
     7
370
     9
100
AcDbLine
 10
1176.591129978243
 20
55.41478274144694
 30
0.0
 11
1373.511251692572
 21
55.41478274144694
 31
0.0
  0
TEXT
  5
26F
330
1F
100
AcDbEntity
  8
D-5
  6
Continuous
 62
     2
370
     9
100
AcDbText
 10
1178.828244411134
 20
76.05478274144694
 30
0.0
 40
30.48
  1
C-C断面図
 41
1.097222222222221
  7
ＭＳ ゴシック
100
AcDbText
  0
LINE
  5
270
330
1F
100
AcDbEntity
  8
D-5
  6
Continuous
 62
     7
370
     9
100
AcDbLine
 10
624.1788517631658
 20
-117.2819200065668
 30
0.0
 11
1269.809059221205
 21
-117.2819200065668
 31
0.0
  0
TEXT
  5
271
330
1F
100
AcDbEntity
  8
D-5
  6
Continuous
 62
     2
370
     9
100
AcDbText
 10
639.1793400444158
 20
-96.64192000656676
 30
0.0
 40
30.48
  1
メインバー詳細図　Ｓ＝１：２
 41
1.116071428571427
  7
ＭＳ ゴシック
100
AcDbText
  0
LINE
  5
272
330
1F
100
AcDbEntity
  8
D-2
  6
Continuous
 62
     3
370
     9
100
AcDbLine
 10
646.8208395526129
 20
369.3218143653583
 30
0.0
 11
606.8214499041754
 21
369.3218143653583
 31
0.0
  0
LINE
  5
273
330
1F
100
AcDbEntity
  8
D-2
  6
Continuous
 62
     3
370
     9
100
AcDbLine
 10
606.8214499041754
 20
369.3218143653583
 30
0.0
 11
606.8214499041754
 21
362.321753330202
 31
0.0
  0
LINE
  5
274
330
1F
100
AcDbEntity
  8
D-2
  6
Continuous
 62
     3
370
     9
100
AcDbLine
 10
646.8208395526129
 20
369.3218143653583
 30
0.0
 11
646.8208395526129
 21
362.321753330202
 31
0.0
  0
LINE
  5
275
330
1F
100
AcDbEntity
  8
D-2
  6
Continuous
 62
     3
370
     9
100
AcDbLine
 10
623.3209616229253
 20
362.321753330202
 30
0.0
 11
623.3209616229253
 21
269.326753330202
 31
0.0
  0
LINE
  5
276
330
1F
100
AcDbEntity
  8
D-2
  6
Continuous
 62
     3
370
     9
100
AcDbLine
 10
630.321327833863
 20
362.321753330202
 30
0.0
 11
630.321327833863
 21
269.326753330202
 31
0.0
  0
LINE
  5
277
330
1F
100
AcDbEntity
  8
D-2
  6
Continuous
 62
     3
370
     9
100
AcDbLine
 10
646.8208395526129
 20
369.3218143653583
 30
0.0
 11
676.8208395526129
 21
369.3218143653583
 31
0.0
  0
LINE
  5
278
330
1F
100
AcDbEntity
  8
D-2
  6
Continuous
 62
     3
370
     9
100
AcDbLine
 10
606.8214499041754
 20
362.321753330202
 30
0.0
 11
646.8208395526129
 21
362.321753330202
 31
0.0
  0
ARC
  5
279
330
1F
100
AcDbEntity
  8
D-2
  6
Continuous
 62
     3
370
     9
100
AcDbCircle
 10
618.3209616229253
 20
357.321753330202
 30
0.0
 40
5.0
100
AcDbArc
 50
0.0
 51
90.0
  0
ARC
  5
27A
330
1F
100
AcDbEntity
  8
D-2
  6
Continuous
 62
     3
370
     9
100
AcDbCircle
 10
635.321327833863
 20
357.321753330202
 30
0.0
 40
5.0
100
AcDbArc
 50
90.0
 51
180.0
  0
LINE
  5
27B
330
1F
100
AcDbEntity
  8
D-2
  6
Continuous
 62
     3
370
     9
100
AcDbLine
 10
630.3209616229254
 20
333.9992283057881
 30
0.0
 11
693.3203512713628
 21
333.9992283057881
 31
0.0
  0
LINE
  5
27C
330
1F
100
AcDbEntity
  8
D-2
  6
Continuous
 62
     3
370
     9
100
AcDbLine
 10
630.3209616229254
 20
316.3218143653583
 30
0.0
 11
693.3203512713628
 21
316.3218143653583
 31
0.0
  0
LINE
  5
27D
330
1F
100
AcDbEntity
  8
D-2
  6
Continuous
 62
     3
370
     9
100
AcDbLine
 10
630.3209616229254
 20
298.6437137794208
 30
0.0
 11
693.3203512713628
 21
298.6437137794208
 31
0.0
  0
LINE
  5
27E
330
1F
100
AcDbEntity
  8
D-2
  6
Continuous
 62
     3
370
     9
100
AcDbLine
 10
553.321571974488
 20
362.321753330202
 30
0.0
 11
553.321571974488
 21
269.326753330202
 31
0.0
  0
LINE
  5
27F
330
1F
100
AcDbEntity
  8
D-2
  6
Continuous
 62
     3
370
     9
100
AcDbLine
 10
560.3219381854256
 20
362.321753330202
 30
0.0
 11
560.3219381854256
 21
269.326753330202
 31
0.0
  0
LINE
  5
280
330
1F
100
AcDbEntity
  8
D-2
  6
Continuous
 62
     3
370
     9
100
AcDbLine
 10
536.8220602557379
 20
369.3218143653583
 30
0.0
 11
536.8220602557379
 21
362.321753330202
 31
0.0
  0
LINE
  5
281
330
1F
100
AcDbEntity
  8
D-2
  6
Continuous
 62
     3
370
     9
100
AcDbLine
 10
536.8220602557379
 20
362.321753330202
 30
0.0
 11
576.8214499041754
 21
362.321753330202
 31
0.0
  0
ARC
  5
282
330
1F
100
AcDbEntity
  8
D-2
  6
Continuous
 62
     3
370
     9
100
AcDbCircle
 10
548.321571974488
 20
357.321753330202
 30
0.0
 40
5.0
100
AcDbArc
 50
0.0
 51
90.0
  0
ARC
  5
283
330
1F
100
AcDbEntity
  8
D-2
  6
Continuous
 62
     3
370
     9
100
AcDbCircle
 10
565.3219381854256
 20
357.321753330202
 30
0.0
 40
5.0
100
AcDbArc
 50
90.0
 51
180.0
  0
LINE
  5
284
330
1F
100
AcDbEntity
  8
D-2
  6
Continuous
 62
     3
370
     9
100
AcDbLine
 10
505.7921250631189
 20
369.3218143653583
 30
0.0
 11
606.8207174823003
 21
369.3218143653583
 31
0.0
  0
LINE
  5
285
330
1F
100
AcDbEntity
  8
D-2
  6
Continuous
 62
     3
370
     9
100
AcDbLine
 10
505.7921250631189
 20
269.1677109718036
 30
0.0
 11
745.9450412239072
 21
269.1677109718036
 31
0.0
  0
LINE
  5
286
330
1F
100
AcDbEntity
  8
D-2
  6
Continuous
 62
     3
370
     9
100
AcDbLine
 10
560.8219381854257
 20
298.6437137794208
 30
0.0
 11
623.3209616229253
 21
298.6437137794208
 31
0.0
  0
LINE
  5
287
330
1F
100
AcDbEntity
  8
D-2
  6
Continuous
 62
     3
370
     9
100
AcDbLine
 10
560.8219381854257
 20
316.3218143653583
 30
0.0
 11
623.3209616229253
 21
316.3218143653583
 31
0.0
  0
LINE
  5
288
330
1F
100
AcDbEntity
  8
D-2
  6
Continuous
 62
     3
370
     9
100
AcDbLine
 10
560.8219381854257
 20
333.9992283057881
 30
0.0
 11
623.3209616229253
 21
333.9992283057881
 31
0.0
  0
LINE
  5
289
330
1F
100
AcDbEntity
  8
D-2
  6
Continuous
 62
     3
370
     9
100
AcDbLine
 10
505.7921250631189
 20
333.9992283057881
 30
0.0
 11
553.321571974488
 21
333.9992283057881
 31
0.0
  0
LINE
  5
28A
330
1F
100
AcDbEntity
  8
D-2
  6
Continuous
 62
     3
370
     9
100
AcDbLine
 10
505.7921250631189
 20
316.3218143653583
 30
0.0
 11
553.321571974488
 21
316.3218143653583
 31
0.0
  0
LINE
  5
28B
330
1F
100
AcDbEntity
  8
D-2
  6
Continuous
 62
     3
370
     9
100
AcDbLine
 10
505.7921250631189
 20
298.6437137794208
 30
0.0
 11
553.321571974488
 21
298.6437137794208
 31
0.0
  0
LINE
  5
28C
330
1F
100
AcDbEntity
  8
D-2
  6
Continuous
 62
     3
370
     9
100
AcDbLine
 10
576.8214499041754
 20
362.321753330202
 30
0.0
 11
576.8214499041754
 21
369.3218143653583
 31
0.0
  0
LINE
  5
28D
330
1F
100
AcDbEntity
  8
D-4
  6
Continuous
 62
     7
370
     9
100
AcDbLine
 10
536.8220602557379
 20
440.1346454065925
 30
0.0
 11
576.8214499041754
 21
440.1346454065925
 31
0.0
  0
LWPOLYLINE
  5
28E
330
1F
100
AcDbEntity
  8
D-4
  6
Continuous
 62
     7
370
     9
100
AcDbPolyline
 90
        4
 70
     1
 43
1.0
 10
537.3220602557378
 20
440.1346454065925
 42
0.4142135623731
 10
536.8220602557379
 20
440.6346454065925
 42
0.4142135623731
 10
536.3220602557379
 20
440.1346454065925
 42
0.4142135623731
 10
536.8220602557379
 20
439.6346454065926
 42
0.4142135623731
  0
LWPOLYLINE
  5
28F
330
1F
100
AcDbEntity
  8
D-4
  6
Continuous
 62
     7
370
     9
100
AcDbPolyline
 90
        4
 70
     1
 43
1.0
 10
577.3214499041753
 20
440.1346454065925
 42
0.4142135623731
 10
576.8214499041754
 20
440.6346454065925
 42
0.4142135623731
 10
576.3214499041754
 20
440.1346454065925
 42
0.4142135623731
 10
576.8214499041754
 20
439.6346454065926
 42
0.4142135623731
  0
LINE
  5
290
330
1F
100
AcDbEntity
  8
D-4
  6
Continuous
 62
     7
370
     9
100
AcDbLine
 10
536.8220602557379
 20
443.1346454065925
 30
0.0
 11
536.8220602557379
 21
389.3218143653583
 31
0.0
  0
LINE
  5
291
330
1F
100
AcDbEntity
  8
D-4
  6
Continuous
 62
     7
370
     9
100
AcDbLine
 10
576.8214499041754
 20
443.1346454065925
 30
0.0
 11
576.8214499041754
 21
389.3218143653583
 31
0.0
  0
TEXT
  5
292
330
1F
100
AcDbEntity
  8
D-4
  6
Continuous
 62
     2
370
   211
100
AcDbText
 10
546.8217550799567
 20
451.7746454065926
 30
0.0
 40
30.48
  1
8
 41
0.9999999999999998
  7
ＭＳ ゴシック
100
AcDbText
  0
LINE
  5
293
330
1F
100
AcDbEntity
  8
D-4
  6
Continuous
 62
     7
370
     9
100
AcDbLine
 10
576.8214499041754
 20
440.1346454065925
 30
0.0
 11
606.8207174823003
 21
440.1346454065925
 31
0.0
  0
LWPOLYLINE
  5
294
330
1F
100
AcDbEntity
  8
D-4
  6
Continuous
 62
     7
370
     9
100
AcDbPolyline
 90
        4
 70
     1
 43
1.0
 10
607.3207174823003
 20
440.1346454065925
 42
0.4142135623731
 10
606.8207174823003
 20
440.6346454065925
 42
0.4142135623731
 10
606.3207174823003
 20
440.1346454065925
 42
0.4142135623731
 10
606.8207174823003
 20
439.6346454065926
 42
0.4142135623731
  0
LINE
  5
295
330
1F
100
AcDbEntity
  8
D-4
  6
Continuous
 62
     7
370
     9
100
AcDbLine
 10
606.8207174823003
 20
443.1346454065925
 30
0.0
 11
606.8207174823003
 21
389.3218143653583
 31
0.0
  0
TEXT
  5
296
330
1F
100
AcDbEntity
  8
D-4
  6
Continuous
 62
     2
370
   211
100
AcDbText
 10
581.8210836932378
 20
451.7746454065926
 30
0.0
 40
30.48
  1
6
 41
0.9999999999999998
  7
ＭＳ ゴシック
100
AcDbText
  0
LINE
  5
297
330
1F
100
AcDbEntity
  8
D-4
  6
Continuous
 62
     7
370
     9
100
AcDbLine
 10
606.8207174823003
 20
440.1346454065925
 30
0.0
 11
646.8208395526129
 21
440.1346454065925
 31
0.0
  0
LWPOLYLINE
  5
298
330
1F
100
AcDbEntity
  8
D-4
  6
Continuous
 62
     7
370
     9
100
AcDbPolyline
 90
        4
 70
     1
 43
1.0
 10
647.3208395526128
 20
440.1346454065925
 42
0.4142135623731
 10
646.8208395526129
 20
440.6346454065925
 42
0.4142135623731
 10
646.3208395526129
 20
440.1346454065925
 42
0.4142135623731
 10
646.8208395526129
 20
439.6346454065926
 42
0.4142135623731
  0
LINE
  5
299
330
1F
100
AcDbEntity
  8
D-4
  6
Continuous
 62
     7
370
     9
100
AcDbLine
 10
646.8208395526129
 20
443.1346454065925
 30
0.0
 11
646.8208395526129
 21
389.3218143653583
 31
0.0
  0
TEXT
  5
29A
330
1F
100
AcDbEntity
  8
D-4
  6
Continuous
 62
     2
370
   211
100
AcDbText
 10
616.8207785174566
 20
451.7746454065926
 30
0.0
 40
30.48
  1
8
 41
0.9999999999999998
  7
ＭＳ ゴシック
100
AcDbText
  0
LINE
  5
29B
330
1F
100
AcDbEntity
  8
D-4
  6
Continuous
 62
     7
370
     9
100
AcDbLine
 10
646.8208395526129
 20
440.1346454065925
 30
0.0
 11
676.8208395526129
 21
440.1346454065925
 31
0.0
  0
LWPOLYLINE
  5
29C
330
1F
100
AcDbEntity
  8
D-4
  6
Continuous
 62
     7
370
     9
100
AcDbPolyline
 90
        4
 70
     1
 43
1.0
 10
677.3208395526128
 20
440.1346454065925
 42
0.4142135623731
 10
676.8208395526129
 20
440.6346454065925
 42
0.4142135623731
 10
676.3208395526129
 20
440.1346454065925
 42
0.4142135623731
 10
676.8208395526129
 20
439.6346454065926
 42
0.4142135623731
  0
LINE
  5
29D
330
1F
100
AcDbEntity
  8
D-4
  6
Continuous
 62
     7
370
     9
100
AcDbLine
 10
676.8208395526129
 20
443.1346454065925
 30
0.0
 11
676.8208395526129
 21
389.3218143653583
 31
0.0
  0
TEXT
  5
29E
330
1F
100
AcDbEntity
  8
D-4
  6
Continuous
 62
     2
370
   211
100
AcDbText
 10
651.8208395526129
 20
451.7746454065926
 30
0.0
 40
30.48
  1
6
 41
0.9999999999999998
  7
ＭＳ ゴシック
100
AcDbText
  0
LINE
  5
29F
330
1F
100
AcDbEntity
  8
D-4
  6
Continuous
 62
     7
370
     9
100
AcDbLine
 10
676.8208395526129
 20
440.1346454065925
 30
0.0
 11
716.8202292010504
 21
440.1346454065925
 31
0.0
  0
LWPOLYLINE
  5
2A0
330
1F
100
AcDbEntity
  8
D-4
  6
Continuous
 62
     7
370
     9
100
AcDbPolyline
 90
        4
 70
     1
 43
1.0
 10
717.3202292010503
 20
440.1346454065925
 42
0.4142135623731
 10
716.8202292010504
 20
440.6346454065925
 42
0.4142135623731
 10
716.3202292010504
 20
440.1346454065925
 42
0.4142135623731
 10
716.8202292010504
 20
439.6346454065926
 42
0.4142135623731
  0
LINE
  5
2A1
330
1F
100
AcDbEntity
  8
D-4
  6
Continuous
 62
     7
370
     9
100
AcDbLine
 10
716.8202292010504
 20
443.1346454065925
 30
0.0
 11
716.8202292010504
 21
389.3218143653583
 31
0.0
  0
TEXT
  5
2A2
330
1F
100
AcDbEntity
  8
D-4
  6
Continuous
 62
     2
370
   211
100
AcDbText
 10
686.8205343768317
 20
451.7746454065926
 30
0.0
 40
30.48
  1
8
 41
0.9999999999999998
  7
ＭＳ ゴシック
100
AcDbText
  0
LINE
  5
2A3
330
1F
100
AcDbEntity
  8
D-A
  6
Continuous
 62
     3
370
     9
100
AcDbLine
 10
506.8599103006089
 20
675.8809954293715
 30
0.0
 11
536.8188517860385
 21
675.8809954293715
 31
0.0
  0
LINE
  5
2A4
330
1F
100
AcDbEntity
  8
D-A
  6
Continuous
 62
     3
370
     9
100
AcDbLine
 10
716.8110244396495
 20
675.8809954293715
 30
0.0
 11
746.8143401332724
 21
675.8809954293715
 31
0.0
  0
LINE
  5
2A5
330
1F
100
AcDbEntity
  8
D-A
  6
Continuous
 62
     3
370
     9
100
AcDbLine
 10
646.8140102135088
 20
675.8809954293715
 30
0.0
 11
676.8117585111235
 21
675.8809954293715
 31
0.0
  0
LINE
  5
2A6
330
1F
100
AcDbEntity
  8
D-A
  6
Continuous
 62
     3
370
     9
100
AcDbLine
 10
576.818851786038
 20
675.8809954293715
 30
0.0
 11
606.81721868321
 21
675.8809954293715
 31
0.0
  0
LINE
  5
2A7
330
1F
100
AcDbEntity
  8
D-A
  6
Continuous
 62
     3
370
     9
100
AcDbLine
 10
506.8599103006089
 20
711.3809954293733
 30
0.0
 11
536.8188517860385
 21
711.3809954293733
 31
0.0
  0
LINE
  5
2A8
330
1F
100
AcDbEntity
  8
D-A
  6
Continuous
 62
     3
370
     9
100
AcDbLine
 10
716.8110244396495
 20
711.3809954293733
 30
0.0
 11
746.8143401332724
 21
711.3809954293733
 31
0.0
  0
LINE
  5
2A9
330
1F
100
AcDbEntity
  8
D-A
  6
Continuous
 62
     3
370
     9
100
AcDbLine
 10
646.8140102135088
 20
711.3809954293733
 30
0.0
 11
676.8117585111235
 21
711.3809954293733
 31
0.0
  0
LINE
  5
2AA
330
1F
100
AcDbEntity
  8
D-A
  6
Continuous
 62
     3
370
     9
100
AcDbLine
 10
576.818851786038
 20
711.3809954293733
 30
0.0
 11
606.81721868321
 21
711.3809954293733
 31
0.0
  0
LINE
  5
2AB
330
1F
100
AcDbEntity
  8
D-A
  6
Continuous
 62
     3
370
     9
100
AcDbLine
 10
576.818851786038
 20
693.6309954293708
 30
0.0
 11
606.81721868321
 21
693.6309954293708
 31
0.0
  0
LINE
  5
2AC
330
1F
100
AcDbEntity
  8
D-A
  6
Continuous
 62
     3
370
     9
100
AcDbLine
 10
646.8140102135088
 20
693.6309954293708
 30
0.0
 11
676.8117585111235
 21
693.6309954293708
 31
0.0
  0
LINE
  5
2AD
330
1F
100
AcDbEntity
  8
D-A
  6
Continuous
 62
     3
370
     9
100
AcDbLine
 10
716.8110244396495
 20
693.6309954293708
 30
0.0
 11
746.8143401332724
 21
693.6309954293708
 31
0.0
  0
LINE
  5
2AE
330
1F
100
AcDbEntity
  8
D-A
  6
Continuous
 62
     3
370
     9
100
AcDbLine
 10
506.8599103006089
 20
693.6309954293708
 30
0.0
 11
536.8188517860385
 21
693.6309954293708
 31
0.0
  0
LINE
  5
2AF
330
1F
100
AcDbEntity
  8
D-2
  6
Continuous
 62
     3
370
     9
100
AcDbLine
 10
676.8010266573002
 20
622.9501575523377
 30
0.0
 11
711.7408461320729
 21
593.6308717094594
 31
0.0
  0
LINE
  5
2B0
330
1F
100
AcDbEntity
  8
D-2
  6
Continuous
 62
     3
370
     9
100
AcDbLine
 10
676.8006685654221
 20
612.6960596773315
 30
0.0
 11
699.5206703219405
 21
593.6308717094594
 31
0.0
  0
LINE
  5
2B1
330
1F
100
AcDbEntity
  8
D-2
  6
Continuous
 62
     3
370
     9
100
AcDbLine
 10
676.8003104735441
 20
602.441961802326
 30
0.0
 11
687.3004945118088
 21
593.6308717094594
 31
0.0
  0
LINE
  5
2B2
330
1F
100
AcDbEntity
  8
D-2
  6
Continuous
 62
     3
370
     9
100
AcDbLine
 10
709.0793403397605
 20
593.6308717094594
 30
0.0
 11
716.8134988378766
 21
600.1205941745561
 31
0.0
  0
LINE
  5
2B3
330
1F
100
AcDbEntity
  8
D-2
  6
Continuous
 62
     3
370
     9
100
AcDbLine
 10
676.8116940212836
 20
802.3924713284689
 30
0.0
 11
716.8134988378766
 21
835.9579343876883
 31
0.0
  0
LINE
  5
2B4
330
1F
100
AcDbEntity
  8
D-2
  6
Continuous
 62
     3
370
     9
100
AcDbLine
 10
676.8081884948616
 20
828.0321150524592
 30
0.0
 11
716.8134988378766
 21
794.4621897691644
 31
0.0
  0
LINE
  5
2B5
330
1F
100
AcDbEntity
  8
D-2
  6
Continuous
 62
     3
370
     9
100
AcDbLine
 10
676.8113359294056
 20
792.1383734534627
 30
0.0
 11
716.8134988378766
 21
825.7041369871174
 31
0.0
  0
LINE
  5
2B6
330
1F
100
AcDbEntity
  8
D-2
  6
Continuous
 62
     3
370
     9
100
AcDbLine
 10
676.8078304029835
 20
817.7780171774532
 30
0.0
 11
716.8134988378766
 21
784.2077914061108
 31
0.0
  0
LINE
  5
2B7
330
1F
100
AcDbEntity
  8
D-2
  6
Continuous
 62
     3
370
     9
100
AcDbLine
 10
676.8109778375275
 20
781.8842755784567
 30
0.0
 11
716.8134988378766
 21
815.4503395865468
 31
0.0
  0
LINE
  5
2B8
330
1F
100
AcDbEntity
  8
D-2
  6
Continuous
 62
     3
370
     9
100
AcDbLine
 10
676.8074723111055
 20
807.5239193024472
 30
0.0
 11
716.8134988378766
 21
773.9533930430573
 31
0.0
  0
LINE
  5
2B9
330
1F
100
AcDbEntity
  8
D-2
  6
Continuous
 62
     3
370
     9
100
AcDbLine
 10
676.8106197456494
 20
771.6301777034507
 30
0.0
 11
716.8134988378766
 21
805.1965421859754
 31
0.0
  0
LINE
  5
2BA
330
1F
100
AcDbEntity
  8
D-2
  6
Continuous
 62
     3
370
     9
100
AcDbLine
 10
676.8071142192274
 20
797.269821427441
 30
0.0
 11
716.8134988378766
 21
763.698994680004
 31
0.0
  0
LINE
  5
2BB
330
1F
100
AcDbEntity
  8
D-2
  6
Continuous
 62
     3
370
     9
100
AcDbLine
 10
676.8102616537714
 20
761.3760798284445
 30
0.0
 11
716.8134988378766
 21
794.9427447854046
 31
0.0
  0
LINE
  5
2BC
330
1F
100
AcDbEntity
  8
D-2
  6
Continuous
 62
     3
370
     9
100
AcDbLine
 10
676.8067561273493
 20
787.0157235524348
 30
0.0
 11
716.8134988378766
 21
753.4445963169505
 31
0.0
  0
LINE
  5
2BD
330
1F
100
AcDbEntity
  8
D-2
  6
Continuous
 62
     3
370
     9
100
AcDbLine
 10
676.8099035618933
 20
751.1219819534383
 30
0.0
 11
716.8134988378766
 21
784.6889473848336
 31
0.0
  0
LINE
  5
2BE
330
1F
100
AcDbEntity
  8
D-2
  6
Continuous
 62
     3
370
     9
100
AcDbLine
 10
676.8063980354713
 20
776.7616256774289
 30
0.0
 11
716.8134988378766
 21
743.1901979538969
 31
0.0
  0
LINE
  5
2BF
330
1F
100
AcDbEntity
  8
D-2
  6
Continuous
 62
     3
370
     9
100
AcDbLine
 10
676.8095454700152
 20
740.8678840784324
 30
0.0
 11
716.8134988378766
 21
774.4351499842626
 31
0.0
  0
LINE
  5
2C0
330
1F
100
AcDbEntity
  8
D-2
  6
Continuous
 62
     3
370
     9
100
AcDbLine
 10
676.8060399435932
 20
766.507527802423
 30
0.0
 11
716.8134988378766
 21
732.9357995908433
 31
0.0
  0
LINE
  5
2C1
330
1F
100
AcDbEntity
  8
D-2
  6
Continuous
 62
     3
370
     9
100
AcDbLine
 10
676.8091873781372
 20
730.6137862034266
 30
0.0
 11
716.8134988378766
 21
764.1813525836917
 31
0.0
  0
LINE
  5
2C2
330
1F
100
AcDbEntity
  8
D-2
  6
Continuous
 62
     3
370
     9
100
AcDbLine
 10
676.8056818517151
 20
756.2534299274168
 30
0.0
 11
716.8134988378766
 21
722.6814012277898
 31
0.0
  0
LINE
  5
2C3
330
1F
100
AcDbEntity
  8
D-2
  6
Continuous
 62
     3
370
     9
100
AcDbLine
 10
676.8088292862591
 20
720.3596883284204
 30
0.0
 11
716.8134988378766
 21
753.9275551831207
 31
0.0
  0
LINE
  5
2C4
330
1F
100
AcDbEntity
  8
D-2
  6
Continuous
 62
     3
370
     9
100
AcDbLine
 10
676.805323759837
 20
745.9993320524106
 30
0.0
 11
716.8134988378766
 21
712.4270028647366
 31
0.0
  0
LINE
  5
2C5
330
1F
100
AcDbEntity
  8
D-2
  6
Continuous
 62
     3
370
     9
100
AcDbLine
 10
676.808471194381
 20
710.1055904534142
 30
0.0
 11
716.8134988378766
 21
743.6737577825497
 31
0.0
  0
LINE
  5
2C6
330
1F
100
AcDbEntity
  8
D-2
  6
Continuous
 62
     3
370
     9
100
AcDbLine
 10
676.804965667959
 20
735.7452341774047
 30
0.0
 11
716.8134988378766
 21
702.172604501683
 31
0.0
  0
LINE
  5
2C7
330
1F
100
AcDbEntity
  8
D-2
  6
Continuous
 62
     3
370
     9
100
AcDbLine
 10
676.808113102503
 20
699.8514925784079
 30
0.0
 11
716.8134988378766
 21
733.4199603819789
 31
0.0
  0
LINE
  5
2C8
330
1F
100
AcDbEntity
  8
D-2
  6
Continuous
 62
     3
370
     9
100
AcDbLine
 10
676.8046075760809
 20
725.4911363023987
 30
0.0
 11
716.8134988378766
 21
691.9182061386298
 31
0.0
  0
LINE
  5
2C9
330
1F
100
AcDbEntity
  8
D-2
  6
Continuous
 62
     3
370
     9
100
AcDbLine
 10
676.8077550106249
 20
689.5973947034022
 30
0.0
 11
716.8134988378766
 21
723.1661629814075
 31
0.0
  0
LINE
  5
2CA
330
1F
100
AcDbEntity
  8
D-2
  6
Continuous
 62
     3
370
     9
100
AcDbLine
 10
676.8042494842028
 20
715.2370384273925
 30
0.0
 11
716.8134988378766
 21
681.6638077755758
 31
0.0
  0
LINE
  5
2CB
330
1F
100
AcDbEntity
  8
D-2
  6
Continuous
 62
     3
370
     9
100
AcDbLine
 10
676.8073969187468
 20
679.343296828396
 30
0.0
 11
716.8134988378766
 21
712.9123655808369
 31
0.0
  0
LINE
  5
2CC
330
1F
100
AcDbEntity
  8
D-2
  6
Continuous
 62
     3
370
     9
100
AcDbLine
 10
676.8038913923248
 20
704.9829405523863
 30
0.0
 11
716.8134988378766
 21
671.4094094125223
 31
0.0
  0
LINE
  5
2CD
330
1F
100
AcDbEntity
  8
D-2
  6
Continuous
 62
     3
370
     9
100
AcDbLine
 10
676.8070388268687
 20
669.0891989533898
 30
0.0
 11
716.8134988378766
 21
702.6585681802655
 31
0.0
  0
LINE
  5
2CE
330
1F
100
AcDbEntity
  8
D-2
  6
Continuous
 62
     3
370
     9
100
AcDbLine
 10
676.8035333004467
 20
694.72884267738
 30
0.0
 11
716.8134988378766
 21
661.1550110494691
 31
0.0
  0
LINE
  5
2CF
330
1F
100
AcDbEntity
  8
D-2
  6
Continuous
 62
     3
370
     9
100
AcDbLine
 10
676.8066807349907
 20
658.8351010783836
 30
0.0
 11
716.8134988378766
 21
692.4047707796947
 31
0.0
  0
LINE
  5
2D0
330
1F
100
AcDbEntity
  8
D-2
  6
Continuous
 62
     3
370
     9
100
AcDbLine
 10
676.8031752085686
 20
684.4747448023745
 30
0.0
 11
716.8134988378766
 21
650.9006126864156
 31
0.0
  0
LINE
  5
2D1
330
1F
100
AcDbEntity
  8
D-2
  6
Continuous
 62
     3
370
     9
100
AcDbLine
 10
676.8063226431126
 20
648.581003203378
 30
0.0
 11
716.8134988378766
 21
682.150973379124
 31
0.0
  0
LINE
  5
2D2
330
1F
100
AcDbEntity
  8
D-2
  6
Continuous
 62
     3
370
     9
100
AcDbLine
 10
676.8028171166906
 20
674.2206469273683
 30
0.0
 11
716.8134988378766
 21
640.6462143233623
 31
0.0
  0
LINE
  5
2D3
330
1F
100
AcDbEntity
  8
D-2
  6
Continuous
 62
     3
370
     9
100
AcDbLine
 10
676.8059645512345
 20
638.3269053283718
 30
0.0
 11
716.8134988378766
 21
671.8971759785527
 31
0.0
  0
LINE
  5
2D4
330
1F
100
AcDbEntity
  8
D-2
  6
Continuous
 62
     3
370
     9
100
AcDbLine
 10
676.8056064593565
 20
628.0728074533656
 30
0.0
 11
716.8134988378766
 21
661.6433785779818
 31
0.0
  0
LINE
  5
2D5
330
1F
100
AcDbEntity
  8
D-2
  6
Continuous
 62
     3
370
     9
100
AcDbLine
 10
676.8052483674784
 20
617.8187095783594
 30
0.0
 11
716.8134988378766
 21
651.3895811774112
 31
0.0
  0
LINE
  5
2D6
330
1F
100
AcDbEntity
  8
D-2
  6
Continuous
 62
     3
370
     9
100
AcDbLine
 10
676.8048902756003
 20
607.5646117033536
 30
0.0
 11
716.8134988378766
 21
641.1357837768398
 31
0.0
  0
LINE
  5
2D7
330
1F
100
AcDbEntity
  8
D-2
  6
Continuous
 62
     3
370
     9
100
AcDbLine
 10
676.8045321837222
 20
597.3105138283474
 30
0.0
 11
716.8134988378766
 21
630.881986376269
 31
0.0
  0
LINE
  5
2D8
330
1F
100
AcDbEntity
  8
D-2
  6
Continuous
 62
     3
370
     9
100
AcDbLine
 10
696.8593271219224
 20
593.6308717094594
 30
0.0
 11
716.8134988378766
 21
610.374391575127
 31
0.0
  0
LINE
  5
2D9
330
1F
100
AcDbEntity
  8
D-2
  6
Continuous
 62
     3
370
     9
100
AcDbLine
 10
684.6393139040838
 20
593.6308717094594
 30
0.0
 11
716.8134988378766
 21
620.6281889756983
 31
0.0
  0
LINE
  5
2DA
330
1F
100
AcDbEntity
  8
D-2
  6
Continuous
 62
     3
370
     9
100
AcDbLine
 10
676.8013847491783
 20
633.2042554273439
 30
0.0
 11
716.8134988378766
 21
599.6286208711481
 31
0.0
  0
LINE
  5
2DB
330
1F
100
AcDbEntity
  8
D-2
  6
Continuous
 62
     3
370
     9
100
AcDbLine
 10
676.8017428410564
 20
643.4583533023501
 30
0.0
 11
716.8134988378766
 21
609.8830192342016
 31
0.0
  0
LINE
  5
2DC
330
1F
100
AcDbEntity
  8
D-2
  6
Continuous
 62
     3
370
     9
100
AcDbLine
 10
676.8021009329344
 20
653.7124511773559
 30
0.0
 11
716.8134988378766
 21
620.1374175972549
 31
0.0
  0
LINE
  5
2DD
330
1F
100
AcDbEntity
  8
D-2
  6
Continuous
 62
     3
370
     9
100
AcDbLine
 10
676.8024590248125
 20
663.9665490523621
 30
0.0
 11
716.8134988378766
 21
630.3918159603083
 31
0.0
  0
LINE
  5
2DE
330
1F
100
AcDbEntity
  8
D-2
  6
Continuous
 62
     3
370
     9
100
AcDbLine
 10
676.8167073075766
 20
838.2793649668722
 30
0.0
 11
716.8134988378766
 21
804.716588132218
 31
0.0
  0
SOLID
  5
2DF
330
1F
100
AcDbEntity
  8
D-5
  6
Continuous
 62
     4
370
     9
100
AcDbTrace
 10
593.7172549743842
 20
562.984684561374
 30
0.0
 11
593.7172549743842
 21
522.9846845613739
 31
0.0
 12
589.7172549743844
 22
562.984684561374
 32
0.0
 13
589.7172549743844
 23
522.9846845613739
 33
0.0
  0
LINE
  5
2E0
330
1F
100
AcDbEntity
  8
D-5
  6
Continuous
 62
     4
370
     9
100
AcDbLine
 10
601.3833447720963
 20
542.0036876879003
 30
0.0
 11
650.632737455038
 21
542.0036876879003
 31
0.0
  0
LINE
  5
2E1
330
1F
100
AcDbEntity
  8
D-5
  6
Continuous
 62
     4
370
     9
100
AcDbLine
 10
601.3833447720963
 20
542.0036876879003
 30
0.0
 11
626.1694663064417
 21
545.2668424934017
 31
0.0
  0
LINE
  5
2E2
330
1F
100
AcDbEntity
  8
D-5
  6
Continuous
 62
     4
370
     9
100
AcDbLine
 10
601.3833447720963
 20
542.0036876879003
 30
0.0
 11
626.1694663064417
 21
538.7405328823988
 31
0.0
  0
LINE
  5
2E3
330
1F
100
AcDbEntity
  8
D-5
  6
JWW_CENTER1
 62
     4
370
     9
100
AcDbLine
 10
591.7172549743843
 20
562.984684561374
 30
0.0
 11
591.7172549743843
 21
643.7881332881158
 31
0.0
  0
TEXT
  5
2E4
330
1F
100
AcDbEntity
  8
D-5
  6
Continuous
 62
     2
370
     9
100
AcDbText
 10
658.3435085889881
 20
529.7985056676965
 30
0.0
 40
30.48
  1
C
 41
0.9999999999999998
  7
ＭＳ ゴシック
100
AcDbText
  0
LINE
  5
2E5
330
1F
100
AcDbEntity
  8
D-5
  6
JWW_CENTER1
 62
     4
370
     9
100
AcDbLine
 10
455.5204291336407
 20
653.7564895664079
 30
0.0
 11
492.6371326350222
 21
653.7564895664079
 31
0.0
  0
SOLID
  5
2E6
330
1F
100
AcDbEntity
  8
D-5
  6
Continuous
 62
     4
370
     9
100
AcDbTrace
 10
455.5204291336407
 20
651.7564895664079
 30
0.0
 11
415.5204291336407
 21
651.7564895664079
 31
0.0
 12
455.5204291336407
 22
655.7564895664077
 32
0.0
 13
415.5204291336407
 23
655.7564895664077
 33
0.0
  0
LINE
  5
2E7
330
1F
100
AcDbEntity
  8
D-5
  6
Continuous
 62
     4
370
     9
100
AcDbLine
 10
434.539432260167
 20
644.090399768696
 30
0.0
 11
434.539432260167
 21
594.841007085754
 31
0.0
  0
LINE
  5
2E8
330
1F
100
AcDbEntity
  8
D-5
  6
Continuous
 62
     4
370
     9
100
AcDbLine
 10
434.539432260167
 20
644.090399768696
 30
0.0
 11
437.8025870656684
 21
619.3042782343505
 31
0.0
  0
LINE
  5
2E9
330
1F
100
AcDbEntity
  8
D-5
  6
Continuous
 62
     4
370
     9
100
AcDbLine
 10
434.539432260167
 20
644.090399768696
 30
0.0
 11
431.2762774546657
 21
619.3042782343505
 31
0.0
  0
TEXT
  5
2EA
330
1F
100
AcDbEntity
  8
D-5
  6
Continuous
 62
     2
370
     9
100
AcDbText
 10
424.539432260167
 20
554.5149072483417
 30
0.0
 40
30.48
  1
B
 41
0.9999999999999998
  7
ＭＳ ゴシック
100
AcDbText
  0
LINE
  5
2EB
330
1F
100
AcDbEntity
  8
D-5
  6
JWW_CENTER1
 62
     4
370
     9
100
AcDbLine
 10
803.9509687780957
 20
653.7564895664079
 30
0.0
 11
766.8342652767147
 21
653.7564895664079
 31
0.0
  0
SOLID
  5
2EC
330
1F
100
AcDbEntity
  8
D-5
  6
Continuous
 62
     4
370
     9
100
AcDbTrace
 10
803.9509687780957
 20
655.7564895664077
 30
0.0
 11
843.9509687780957
 21
655.7564895664077
 31
0.0
 12
803.9509687780957
 22
651.7564895664079
 32
0.0
 13
843.9509687780957
 23
651.7564895664079
 33
0.0
  0
LINE
  5
2ED
330
1F
100
AcDbEntity
  8
D-2
  6
Continuous
 62
     3
370
     9
100
AcDbLine
 10
676.8131263887958
 20
843.4088628284928
 30
0.0
 11
716.8134988378766
 21
876.9731239899734
 31
0.0
  0
LINE
  5
2EE
330
1F
100
AcDbEntity
  8
D-2
  6
Continuous
 62
     3
370
     9
100
AcDbLine
 10
676.8127682969179
 20
833.1547649534868
 30
0.0
 11
716.8134988378766
 21
866.7193265894011
 31
0.0
  0
LINE
  5
2EF
330
1F
100
AcDbEntity
  8
D-2
  6
Continuous
 62
     3
370
     9
100
AcDbLine
 10
676.8124102050398
 20
822.900667078481
 30
0.0
 11
716.8134988378766
 21
856.4655291888303
 31
0.0
  0
LINE
  5
2F0
330
1F
100
AcDbEntity
  8
D-2
  6
Continuous
 62
     3
370
     9
100
AcDbLine
 10
676.8120521131617
 20
812.6465692034751
 30
0.0
 11
716.8134988378766
 21
846.2117317882594
 31
0.0
  0
LINE
  5
2F1
330
1F
100
AcDbEntity
  8
D-2
  6
Continuous
 62
     3
370
     9
100
AcDbLine
 10
676.8167073075766
 20
869.0425600560322
 30
0.0
 11
716.8134988378766
 21
835.4797832213783
 31
0.0
  0
LINE
  5
2F2
330
1F
100
AcDbEntity
  8
D-2
  6
Continuous
 62
     3
370
     9
100
AcDbLine
 10
676.8167073075766
 20
858.788161692979
 30
0.0
 11
716.8134988378766
 21
825.2253848583248
 31
0.0
  0
LINE
  5
2F3
330
1F
100
AcDbEntity
  8
D-2
  6
Continuous
 62
     3
370
     9
100
AcDbLine
 10
676.8167073075766
 20
848.5337633299255
 30
0.0
 11
716.8134988378766
 21
814.9709864952715
 31
0.0
  0
LINE
  5
2F4
330
1F
100
AcDbEntity
  8
D-2
  6
Continuous
 62
     3
370
     9
100
AcDbLine
 10
676.8170653994543
 20
879.2966579310387
 30
0.0
 11
716.8138569297544
 21
845.7338810963846
 31
0.0
  0
LINE
  5
2F5
330
1F
100
AcDbEntity
  8
D-2
  6
Continuous
 62
     3
370
     9
100
AcDbLine
 10
676.8134844806735
 20
853.6629607034992
 30
0.0
 11
716.8138569297544
 21
887.2272218649798
 31
0.0
  0
LINE
  5
2F6
330
1F
100
AcDbEntity
  8
D-A
  6
Continuous
 62
     3
370
     9
100
AcDbLine
 10
746.8143401332724
 20
1053.631193381229
 30
0.0
 11
506.8599103006089
 21
1053.631193381229
 31
0.0
  0
SOLID
  5
2F7
330
1F
100
AcDbEntity
  8
D-5
  6
Continuous
 62
     4
370
     9
100
AcDbTrace
 10
593.7172549743842
 20
1244.943861458415
 30
0.0
 11
593.7172549743842
 21
1284.943861458415
 31
0.0
 12
589.7172549743844
 22
1244.943861458415
 32
0.0
 13
589.7172549743844
 23
1284.943861458415
 33
0.0
  0
LINE
  5
2F8
330
1F
100
AcDbEntity
  8
D-5
  6
Continuous
 62
     4
370
     9
100
AcDbLine
 10
601.3833447720963
 20
1265.924858331889
 30
0.0
 11
650.632737455038
 21
1265.924858331889
 31
0.0
  0
LINE
  5
2F9
330
1F
100
AcDbEntity
  8
D-5
  6
Continuous
 62
     4
370
     9
100
AcDbLine
 10
601.3833447720963
 20
1265.924858331889
 30
0.0
 11
626.1694663064417
 21
1262.661703526387
 31
0.0
  0
LINE
  5
2FA
330
1F
100
AcDbEntity
  8
D-5
  6
Continuous
 62
     4
370
     9
100
AcDbLine
 10
601.3833447720963
 20
1265.924858331889
 30
0.0
 11
626.1694663064417
 21
1269.18801313739
 31
0.0
  0
LINE
  5
2FB
330
1F
100
AcDbEntity
  8
D-5
  6
JWW_CENTER1
 62
     4
370
     9
100
AcDbLine
 10
591.7172549743843
 20
1244.943861458415
 30
0.0
 11
591.7172549743843
 21
1207.640536636931
 31
0.0
  0
LINE
  5
2FC
330
1F
100
AcDbEntity
  8
D-4
  6
Continuous
 62
     7
370
     9
100
AcDbLine
 10
556.8188517860382
 20
1137.549177919694
 30
0.0
 11
626.2188762001007
 21
1137.549177919694
 31
0.0
  0
LWPOLYLINE
  5
2FD
330
1F
100
AcDbEntity
  8
D-4
  6
Continuous
 62
     7
370
     9
100
AcDbPolyline
 90
        4
 70
     1
 43
1.0
 10
557.3188517860382
 20
1137.549177919694
 42
0.4142135623731
 10
556.8188517860382
 20
1138.049177919694
 42
0.4142135623731
 10
556.3188517860383
 20
1137.549177919694
 42
0.4142135623731
 10
556.8188517860382
 20
1137.049177919694
 42
0.4142135623731
  0
LWPOLYLINE
  5
2FE
330
1F
100
AcDbEntity
  8
D-4
  6
Continuous
 62
     7
370
     9
100
AcDbPolyline
 90
        4
 70
     1
 43
1.0
 10
626.7188762001007
 20
1137.549177919694
 42
0.4142135623731
 10
626.2188762001007
 20
1138.049177919694
 42
0.4142135623731
 10
625.7188762001008
 20
1137.549177919694
 42
0.4142135623731
 10
626.2188762001007
 20
1137.049177919694
 42
0.4142135623731
  0
LINE
  5
2FF
330
1F
100
AcDbEntity
  8
D-4
  6
Continuous
 62
     7
370
     9
100
AcDbLine
 10
556.8188517860382
 20
1140.549177919694
 30
0.0
 11
556.8188517860382
 21
1088.630995429371
 31
0.0
  0
LINE
  5
300
330
1F
100
AcDbEntity
  8
D-4
  6
Continuous
 62
     7
370
     9
100
AcDbLine
 10
626.2188762001007
 20
1140.549177919694
 30
0.0
 11
626.2188762001007
 21
1088.630995429371
 31
0.0
  0
LINE
  5
301
330
1F
100
AcDbEntity
  8
D-4
  6
Continuous
 62
     7
370
     9
100
AcDbLine
 10
626.2188762001007
 20
1137.549177919694
 30
0.0
 11
695.8692057899445
 21
1137.549177919694
 31
0.0
  0
LWPOLYLINE
  5
302
330
1F
100
AcDbEntity
  8
D-4
  6
Continuous
 62
     7
370
     9
100
AcDbPolyline
 90
        4
 70
     1
 43
1.0
 10
696.3692057899445
 20
1137.549177919694
 42
0.4142135623731
 10
695.8692057899445
 20
1138.049177919694
 42
0.4142135623731
 10
695.3692057899445
 20
1137.549177919694
 42
0.4142135623731
 10
695.8692057899445
 20
1137.049177919694
 42
0.4142135623731
  0
LINE
  5
303
330
1F
100
AcDbEntity
  8
D-4
  6
Continuous
 62
     7
370
     9
100
AcDbLine
 10
695.8692057899445
 20
1140.549177919694
 30
0.0
 11
695.8692057899445
 21
1088.630995429371
 31
0.0
  0
TEXT
  5
304
330
1F
100
AcDbEntity
  8
D-5
  6
Continuous
 62
     2
370
     9
100
AcDbText
 10
658.3435085889881
 20
1253.719676311685
 30
0.0
 40
30.48
  1
C
 41
0.9999999999999998
  7
ＭＳ ゴシック
100
AcDbText
  0
TEXT
  5
305
330
1F
100
AcDbEntity
  8
D-4
  6
Continuous
 62
     2
370
   211
100
AcDbText
 10
639.7940409950228
 20
1149.189177919694
 30
0.0
 40
30.48
  1
14
 41
1.0625
  7
ＭＳ ゴシック
100
AcDbText
  0
TEXT
  5
306
330
1F
100
AcDbEntity
  8
D-4
  6
Continuous
 62
     2
370
   211
100
AcDbText
 10
570.2688639930694
 20
1149.189177919694
 30
0.0
 40
30.48
  1
14
 41
1.0625
  7
ＭＳ ゴシック
100
AcDbText
  0
LINE
  5
307
330
1F
100
AcDbEntity
  8
D-A
  6
Continuous
 62
     3
370
     9
100
AcDbLine
 10
676.8167073075766
 20
593.6308717094594
 30
0.0
 11
676.8167073075766
 21
1053.631193381229
 31
0.0
  0
LINE
  5
308
330
1F
100
AcDbEntity
  8
D-A
  6
Continuous
 62
     3
370
     9
100
AcDbLine
 10
716.8134988378766
 20
593.6308717094594
 30
0.0
 11
716.8134988378766
 21
1053.631193381229
 31
0.0
  0
LINE
  5
309
330
1F
100
AcDbEntity
  8
D-2
  6
Continuous
 62
     3
370
     9
100
AcDbLine
 10
676.8138425725513
 20
863.9170585785055
 30
0.0
 11
716.8142150216322
 21
897.4813197399861
 31
0.0
  0
LINE
  5
30A
330
1F
100
AcDbEntity
  8
D-2
  6
Continuous
 62
     3
370
     9
100
AcDbLine
 10
676.8174234913322
 20
889.550755806045
 30
0.0
 11
716.8142150216322
 21
855.9879789713909
 31
0.0
  0
LINE
  5
30B
330
1F
100
AcDbEntity
  8
D-2
  6
Continuous
 62
     3
370
     9
100
AcDbLine
 10
676.8142006644291
 20
874.1711564535119
 30
0.0
 11
716.8145731135099
 21
907.7354176149925
 31
0.0
  0
LINE
  5
30C
330
1F
100
AcDbEntity
  8
D-2
  6
Continuous
 62
     3
370
     9
100
AcDbLine
 10
676.8177815832099
 20
899.8048536810513
 30
0.0
 11
716.8145731135099
 21
866.2420768463973
 31
0.0
  0
LINE
  5
30D
330
1F
100
AcDbEntity
  8
D-2
  6
Continuous
 62
     3
370
     9
100
AcDbLine
 10
676.814558756307
 20
884.4252543285182
 30
0.0
 11
716.8149312053878
 21
917.9895154899988
 31
0.0
  0
LINE
  5
30E
330
1F
100
AcDbEntity
  8
D-2
  6
Continuous
 62
     3
370
     9
100
AcDbLine
 10
676.8181396750878
 20
910.0589515560578
 30
0.0
 11
716.8149312053878
 21
876.4961747214036
 31
0.0
  0
LINE
  5
30F
330
1F
100
AcDbEntity
  8
D-2
  6
Continuous
 62
     3
370
     9
100
AcDbLine
 10
676.8149168481847
 20
894.6793522035246
 30
0.0
 11
716.8152892972655
 21
928.2436133650051
 31
0.0
  0
LINE
  5
310
330
1F
100
AcDbEntity
  8
D-2
  6
Continuous
 62
     3
370
     9
100
AcDbLine
 10
676.8184977669655
 20
920.3130494310641
 30
0.0
 11
716.8152892972655
 21
886.75027259641
 31
0.0
  0
LINE
  5
311
330
1F
100
AcDbEntity
  8
D-2
  6
Continuous
 62
     3
370
     9
100
AcDbLine
 10
676.8152749400624
 20
904.933450078531
 30
0.0
 11
716.8156473891434
 21
938.4977112400115
 31
0.0
  0
LINE
  5
312
330
1F
100
AcDbEntity
  8
D-2
  6
Continuous
 62
     3
370
     9
100
AcDbLine
 10
676.8188558588433
 20
930.5671473060704
 30
0.0
 11
716.8156473891434
 21
897.0043704714163
 31
0.0
  0
LINE
  5
313
330
1F
100
AcDbEntity
  8
D-2
  6
Continuous
 62
     3
370
     9
100
AcDbLine
 10
676.8156330319403
 20
915.1875479535373
 30
0.0
 11
716.8160054810211
 21
948.7518091150179
 31
0.0
  0
LINE
  5
314
330
1F
100
AcDbEntity
  8
D-2
  6
Continuous
 62
     3
370
     9
100
AcDbLine
 10
676.8192139507211
 20
940.8212451810767
 30
0.0
 11
716.8160054810211
 21
907.2584683464227
 31
0.0
  0
LINE
  5
315
330
1F
100
AcDbEntity
  8
D-2
  6
Continuous
 62
     3
370
     9
100
AcDbLine
 10
676.8159911238181
 20
925.4416458285436
 30
0.0
 11
716.8163635728989
 21
959.0059069900242
 31
0.0
  0
LINE
  5
316
330
1F
100
AcDbEntity
  8
D-2
  6
Continuous
 62
     3
370
     9
100
AcDbLine
 10
676.8195720425989
 20
951.075343056083
 30
0.0
 11
716.8163635728989
 21
917.5125662214291
 31
0.0
  0
LINE
  5
317
330
1F
100
AcDbEntity
  8
D-2
  6
Continuous
 62
     3
370
     9
100
AcDbLine
 10
676.8163492156958
 20
935.69574370355
 30
0.0
 11
716.8167216647767
 21
969.2600048650306
 31
0.0
  0
LINE
  5
318
330
1F
100
AcDbEntity
  8
D-2
  6
Continuous
 62
     3
370
     9
100
AcDbLine
 10
676.8199301344766
 20
961.3294409310895
 30
0.0
 11
716.8167216647767
 21
927.7666640964354
 31
0.0
  0
LINE
  5
319
330
1F
100
AcDbEntity
  8
D-2
  6
Continuous
 62
     3
370
     9
100
AcDbLine
 10
676.8167073075736
 20
945.9498415785563
 30
0.0
 11
716.8170797566545
 21
979.514102740037
 31
0.0
  0
LINE
  5
31A
330
1F
100
AcDbEntity
  8
D-2
  6
Continuous
 62
     3
370
     9
100
AcDbLine
 10
676.8202882263545
 20
971.5835388060958
 30
0.0
 11
716.8170797566545
 21
938.0207619714417
 31
0.0
  0
LINE
  5
31B
330
1F
100
AcDbEntity
  8
D-2
  6
Continuous
 62
     3
370
     9
100
AcDbLine
 10
676.8170653994514
 20
956.2039394535627
 30
0.0
 11
716.8174378485322
 21
989.7682006150433
 31
0.0
  0
LINE
  5
31C
330
1F
100
AcDbEntity
  8
D-2
  6
Continuous
 62
     3
370
     9
100
AcDbLine
 10
676.8206463182322
 20
981.8376366811021
 30
0.0
 11
716.8174378485322
 21
948.2748598464481
 31
0.0
  0
LINE
  5
31D
330
1F
100
AcDbEntity
  8
D-2
  6
Continuous
 62
     3
370
     9
100
AcDbLine
 10
676.8174234913292
 20
966.458037328569
 30
0.0
 11
716.8177959404101
 21
1000.02229849005
 31
0.0
  0
LINE
  5
31E
330
1F
100
AcDbEntity
  8
D-2
  6
Continuous
 62
     3
370
     9
100
AcDbLine
 10
676.82100441011
 20
992.0917345561086
 30
0.0
 11
716.8177959404101
 21
958.5289577214544
 31
0.0
  0
LINE
  5
31F
330
1F
100
AcDbEntity
  8
D-2
  6
Continuous
 62
     3
370
     9
100
AcDbLine
 10
676.817781583207
 20
976.7121352035754
 30
0.0
 11
716.8181540322878
 21
1010.276396365056
 31
0.0
  0
LINE
  5
320
330
1F
100
AcDbEntity
  8
D-2
  6
Continuous
 62
     3
370
     9
100
AcDbLine
 10
676.8213625019878
 20
1002.345832431115
 30
0.0
 11
716.8181540322878
 21
968.7830555964608
 31
0.0
  0
LINE
  5
321
330
1F
100
AcDbEntity
  8
D-2
  6
Continuous
 62
     3
370
     9
100
AcDbLine
 10
676.8181396750847
 20
986.9662330785818
 30
0.0
 11
716.8185121241656
 21
1020.530494240062
 31
0.0
  0
LINE
  5
322
330
1F
100
AcDbEntity
  8
D-2
  6
Continuous
 62
     3
370
     9
100
AcDbLine
 10
676.8217205938656
 20
1012.599930306121
 30
0.0
 11
716.8185121241656
 21
979.0371534714671
 31
0.0
  0
LINE
  5
323
330
1F
100
AcDbEntity
  8
D-2
  6
Continuous
 62
     3
370
     9
100
AcDbLine
 10
676.8184977669625
 20
997.2203309535881
 30
0.0
 11
716.8188702160434
 21
1030.784592115069
 31
0.0
  0
LINE
  5
324
330
1F
100
AcDbEntity
  8
D-2
  6
Continuous
 62
     3
370
     9
100
AcDbLine
 10
676.8220786857433
 20
1022.854028181128
 30
0.0
 11
716.8188702160434
 21
989.2912513464735
 31
0.0
  0
LINE
  5
325
330
1F
100
AcDbEntity
  8
D-2
  6
Continuous
 62
     3
370
     9
100
AcDbLine
 10
676.8188558588404
 20
1007.474428828594
 30
0.0
 11
716.8192283079212
 21
1041.038689990075
 31
0.0
  0
LINE
  5
326
330
1F
100
AcDbEntity
  8
D-2
  6
Continuous
 62
     3
370
     9
100
AcDbLine
 10
676.8224367776212
 20
1033.108126056134
 30
0.0
 11
716.8192283079212
 21
999.5453492214799
 31
0.0
  0
LINE
  5
327
330
1F
100
AcDbEntity
  8
D-2
  6
Continuous
 62
     3
370
     9
100
AcDbLine
 10
676.8192139507181
 20
1017.728526703601
 30
0.0
 11
716.8195863997989
 21
1051.292787865081
 31
0.0
  0
LINE
  5
328
330
1F
100
AcDbEntity
  8
D-2
  6
Continuous
 62
     3
370
     9
100
AcDbLine
 10
676.8227948694989
 20
1043.36222393114
 30
0.0
 11
716.8195863997989
 21
1009.799447096486
 31
0.0
  0
LINE
  5
329
330
1F
100
AcDbEntity
  8
D-2
  6
Continuous
 62
     3
370
     9
100
AcDbLine
 10
676.8231529613768
 20
1053.616321806147
 30
0.0
 11
716.8199444916768
 21
1020.053544971493
 31
0.0
  0
LINE
  5
32A
330
1F
100
AcDbEntity
  8
D-2
  6
Continuous
 62
     3
370
     9
100
AcDbLine
 10
713.4659579222881
 20
1053.631193381229
 30
0.0
 11
716.8210187673101
 21
1050.815838596512
 31
0.0
  0
LINE
  5
32B
330
1F
100
AcDbEntity
  8
D-2
  6
Continuous
 62
     3
370
     9
100
AcDbLine
 10
676.8195720425958
 20
1027.982624578607
 30
0.0
 11
707.3863793962506
 21
1053.631193381229
 31
0.0
  0
LINE
  5
32C
330
1F
100
AcDbEntity
  8
D-2
  6
Continuous
 62
     3
370
     9
100
AcDbLine
 10
701.2457821121561
 20
1053.631193381229
 30
0.0
 11
716.8206606754324
 21
1040.561740721505
 31
0.0
  0
LINE
  5
32D
330
1F
100
AcDbEntity
  8
D-2
  6
Continuous
 62
     3
370
     9
100
AcDbLine
 10
676.8199301344737
 20
1038.236722453614
 30
0.0
 11
695.1663661784121
 21
1053.631193381229
 31
0.0
  0
LINE
  5
32E
330
1F
100
AcDbEntity
  8
D-2
  6
Continuous
 62
     3
370
     9
100
AcDbLine
 10
689.025606302024
 20
1053.631193381229
 30
0.0
 11
716.8203025835545
 21
1030.307642846499
 31
0.0
  0
LINE
  5
32F
330
1F
100
AcDbEntity
  8
D-2
  6
Continuous
 62
     3
370
     9
100
AcDbLine
 10
676.8202882263515
 20
1048.49082032862
 30
0.0
 11
682.9463529605734
 21
1053.631193381229
 31
0.0
  0
LINE
  5
330
330
1F
100
AcDbEntity
  8
D-2
  6
Continuous
 62
     3
370
     9
100
AcDbLine
 10
746.8143401332724
 20
1068.630995429371
 30
0.0
 11
506.8599103006089
 21
1068.630995429371
 31
0.0
  0
LINE
  5
331
330
1F
100
AcDbEntity
  8
D-2
  6
Continuous
 62
     3
370
     9
100
AcDbLine
 10
606.8015380329324
 20
622.9501575523377
 30
0.0
 11
641.7413575077051
 21
593.6308717094594
 31
0.0
  0
LINE
  5
332
330
1F
100
AcDbEntity
  8
D-2
  6
Continuous
 62
     3
370
     9
100
AcDbLine
 10
606.8011799410543
 20
612.6960596773315
 30
0.0
 11
629.5211816975727
 21
593.6308717094594
 31
0.0
  0
LINE
  5
333
330
1F
100
AcDbEntity
  8
D-2
  6
Continuous
 62
     3
370
     9
100
AcDbLine
 10
606.8008218491763
 20
602.441961802326
 30
0.0
 11
617.301005887441
 21
593.6308717094594
 31
0.0
  0
LINE
  5
334
330
1F
100
AcDbEntity
  8
D-2
  6
Continuous
 62
     3
370
     9
100
AcDbLine
 10
639.0798517153927
 20
593.6308717094594
 30
0.0
 11
646.8140102135088
 21
600.1205941745561
 31
0.0
  0
LINE
  5
335
330
1F
100
AcDbEntity
  8
D-2
  6
Continuous
 62
     3
370
     9
100
AcDbLine
 10
606.8122053969158
 20
802.3924713284689
 30
0.0
 11
646.8140102135088
 21
835.9579343876883
 31
0.0
  0
LINE
  5
336
330
1F
100
AcDbEntity
  8
D-2
  6
Continuous
 62
     3
370
     9
100
AcDbLine
 10
606.8086998704938
 20
828.0321150524592
 30
0.0
 11
646.8140102135088
 21
794.4621897691644
 31
0.0
  0
LINE
  5
337
330
1F
100
AcDbEntity
  8
D-2
  6
Continuous
 62
     3
370
     9
100
AcDbLine
 10
606.8118473050378
 20
792.1383734534627
 30
0.0
 11
646.8140102135088
 21
825.7041369871174
 31
0.0
  0
LINE
  5
338
330
1F
100
AcDbEntity
  8
D-2
  6
Continuous
 62
     3
370
     9
100
AcDbLine
 10
606.8083417786157
 20
817.7780171774532
 30
0.0
 11
646.8140102135088
 21
784.2077914061108
 31
0.0
  0
LINE
  5
339
330
1F
100
AcDbEntity
  8
D-2
  6
Continuous
 62
     3
370
     9
100
AcDbLine
 10
606.8114892131597
 20
781.8842755784567
 30
0.0
 11
646.8140102135088
 21
815.4503395865468
 31
0.0
  0
LINE
  5
33A
330
1F
100
AcDbEntity
  8
D-2
  6
Continuous
 62
     3
370
     9
100
AcDbLine
 10
606.8079836867377
 20
807.5239193024472
 30
0.0
 11
646.8140102135088
 21
773.9533930430573
 31
0.0
  0
LINE
  5
33B
330
1F
100
AcDbEntity
  8
D-2
  6
Continuous
 62
     3
370
     9
100
AcDbLine
 10
606.8111311212816
 20
771.6301777034507
 30
0.0
 11
646.8140102135088
 21
805.1965421859754
 31
0.0
  0
LINE
  5
33C
330
1F
100
AcDbEntity
  8
D-2
  6
Continuous
 62
     3
370
     9
100
AcDbLine
 10
606.8076255948596
 20
797.269821427441
 30
0.0
 11
646.8140102135088
 21
763.698994680004
 31
0.0
  0
LINE
  5
33D
330
1F
100
AcDbEntity
  8
D-2
  6
Continuous
 62
     3
370
     9
100
AcDbLine
 10
606.8107730294035
 20
761.3760798284445
 30
0.0
 11
646.8140102135088
 21
794.9427447854046
 31
0.0
  0
LINE
  5
33E
330
1F
100
AcDbEntity
  8
D-2
  6
Continuous
 62
     3
370
     9
100
AcDbLine
 10
606.8072675029815
 20
787.0157235524348
 30
0.0
 11
646.8140102135088
 21
753.4445963169505
 31
0.0
  0
LINE
  5
33F
330
1F
100
AcDbEntity
  8
D-2
  6
Continuous
 62
     3
370
     9
100
AcDbLine
 10
606.8104149375255
 20
751.1219819534383
 30
0.0
 11
646.8140102135088
 21
784.6889473848336
 31
0.0
  0
LINE
  5
340
330
1F
100
AcDbEntity
  8
D-2
  6
Continuous
 62
     3
370
     9
100
AcDbLine
 10
606.8069094111034
 20
776.7616256774289
 30
0.0
 11
646.8140102135088
 21
743.1901979538969
 31
0.0
  0
LINE
  5
341
330
1F
100
AcDbEntity
  8
D-2
  6
Continuous
 62
     3
370
     9
100
AcDbLine
 10
606.8100568456474
 20
740.8678840784324
 30
0.0
 11
646.8140102135088
 21
774.4351499842626
 31
0.0
  0
LINE
  5
342
330
1F
100
AcDbEntity
  8
D-2
  6
Continuous
 62
     3
370
     9
100
AcDbLine
 10
606.8065513192254
 20
766.507527802423
 30
0.0
 11
646.8140102135088
 21
732.9357995908433
 31
0.0
  0
LINE
  5
343
330
1F
100
AcDbEntity
  8
D-2
  6
Continuous
 62
     3
370
     9
100
AcDbLine
 10
606.8096987537693
 20
730.6137862034266
 30
0.0
 11
646.8140102135088
 21
764.1813525836917
 31
0.0
  0
LINE
  5
344
330
1F
100
AcDbEntity
  8
D-2
  6
Continuous
 62
     3
370
     9
100
AcDbLine
 10
606.8061932273473
 20
756.2534299274168
 30
0.0
 11
646.8140102135088
 21
722.6814012277898
 31
0.0
  0
LINE
  5
345
330
1F
100
AcDbEntity
  8
D-2
  6
Continuous
 62
     3
370
     9
100
AcDbLine
 10
606.8093406618913
 20
720.3596883284204
 30
0.0
 11
646.8140102135088
 21
753.9275551831207
 31
0.0
  0
LINE
  5
346
330
1F
100
AcDbEntity
  8
D-2
  6
Continuous
 62
     3
370
     9
100
AcDbLine
 10
606.8058351354692
 20
745.9993320524106
 30
0.0
 11
646.8140102135088
 21
712.4270028647366
 31
0.0
  0
LINE
  5
347
330
1F
100
AcDbEntity
  8
D-2
  6
Continuous
 62
     3
370
     9
100
AcDbLine
 10
606.8089825700132
 20
710.1055904534142
 30
0.0
 11
646.8140102135088
 21
743.6737577825497
 31
0.0
  0
LINE
  5
348
330
1F
100
AcDbEntity
  8
D-2
  6
Continuous
 62
     3
370
     9
100
AcDbLine
 10
606.8054770435912
 20
735.7452341774047
 30
0.0
 11
646.8140102135088
 21
702.172604501683
 31
0.0
  0
LINE
  5
349
330
1F
100
AcDbEntity
  8
D-2
  6
Continuous
 62
     3
370
     9
100
AcDbLine
 10
606.8086244781351
 20
699.8514925784079
 30
0.0
 11
646.8140102135088
 21
733.4199603819789
 31
0.0
  0
LINE
  5
34A
330
1F
100
AcDbEntity
  8
D-2
  6
Continuous
 62
     3
370
     9
100
AcDbLine
 10
606.8051189517131
 20
725.4911363023987
 30
0.0
 11
646.8140102135088
 21
691.9182061386298
 31
0.0
  0
LINE
  5
34B
330
1F
100
AcDbEntity
  8
D-2
  6
Continuous
 62
     3
370
     9
100
AcDbLine
 10
606.8082663862571
 20
689.5973947034022
 30
0.0
 11
646.8140102135088
 21
723.1661629814075
 31
0.0
  0
LINE
  5
34C
330
1F
100
AcDbEntity
  8
D-2
  6
Continuous
 62
     3
370
     9
100
AcDbLine
 10
606.804760859835
 20
715.2370384273925
 30
0.0
 11
646.8140102135088
 21
681.6638077755758
 31
0.0
  0
LINE
  5
34D
330
1F
100
AcDbEntity
  8
D-2
  6
Continuous
 62
     3
370
     9
100
AcDbLine
 10
606.807908294379
 20
679.343296828396
 30
0.0
 11
646.8140102135088
 21
712.9123655808369
 31
0.0
  0
LINE
  5
34E
330
1F
100
AcDbEntity
  8
D-2
  6
Continuous
 62
     3
370
     9
100
AcDbLine
 10
606.804402767957
 20
704.9829405523863
 30
0.0
 11
646.8140102135088
 21
671.4094094125223
 31
0.0
  0
LINE
  5
34F
330
1F
100
AcDbEntity
  8
D-2
  6
Continuous
 62
     3
370
     9
100
AcDbLine
 10
606.8075502025009
 20
669.0891989533898
 30
0.0
 11
646.8140102135088
 21
702.6585681802655
 31
0.0
  0
LINE
  5
350
330
1F
100
AcDbEntity
  8
D-2
  6
Continuous
 62
     3
370
     9
100
AcDbLine
 10
606.8040446760789
 20
694.72884267738
 30
0.0
 11
646.8140102135088
 21
661.1550110494691
 31
0.0
  0
LINE
  5
351
330
1F
100
AcDbEntity
  8
D-2
  6
Continuous
 62
     3
370
     9
100
AcDbLine
 10
606.8071921106229
 20
658.8351010783836
 30
0.0
 11
646.8140102135088
 21
692.4047707796947
 31
0.0
  0
LINE
  5
352
330
1F
100
AcDbEntity
  8
D-2
  6
Continuous
 62
     3
370
     9
100
AcDbLine
 10
606.8036865842008
 20
684.4747448023745
 30
0.0
 11
646.8140102135088
 21
650.9006126864156
 31
0.0
  0
LINE
  5
353
330
1F
100
AcDbEntity
  8
D-2
  6
Continuous
 62
     3
370
     9
100
AcDbLine
 10
606.8068340187448
 20
648.581003203378
 30
0.0
 11
646.8140102135088
 21
682.150973379124
 31
0.0
  0
LINE
  5
354
330
1F
100
AcDbEntity
  8
D-2
  6
Continuous
 62
     3
370
     9
100
AcDbLine
 10
606.8033284923227
 20
674.2206469273683
 30
0.0
 11
646.8140102135088
 21
640.6462143233623
 31
0.0
  0
LINE
  5
355
330
1F
100
AcDbEntity
  8
D-2
  6
Continuous
 62
     3
370
     9
100
AcDbLine
 10
606.8064759268667
 20
638.3269053283718
 30
0.0
 11
646.8140102135088
 21
671.8971759785527
 31
0.0
  0
LINE
  5
356
330
1F
100
AcDbEntity
  8
D-2
  6
Continuous
 62
     3
370
     9
100
AcDbLine
 10
606.8061178349886
 20
628.0728074533656
 30
0.0
 11
646.8140102135088
 21
661.6433785779818
 31
0.0
  0
LINE
  5
357
330
1F
100
AcDbEntity
  8
D-2
  6
Continuous
 62
     3
370
     9
100
AcDbLine
 10
606.8057597431106
 20
617.8187095783594
 30
0.0
 11
646.8140102135088
 21
651.3895811774112
 31
0.0
  0
LINE
  5
358
330
1F
100
AcDbEntity
  8
D-2
  6
Continuous
 62
     3
370
     9
100
AcDbLine
 10
606.8054016512325
 20
607.5646117033536
 30
0.0
 11
646.8140102135088
 21
641.1357837768398
 31
0.0
  0
LINE
  5
359
330
1F
100
AcDbEntity
  8
D-2
  6
Continuous
 62
     3
370
     9
100
AcDbLine
 10
606.8050435593544
 20
597.3105138283474
 30
0.0
 11
646.8140102135088
 21
630.881986376269
 31
0.0
  0
LINE
  5
35A
330
1F
100
AcDbEntity
  8
D-2
  6
Continuous
 62
     3
370
     9
100
AcDbLine
 10
626.8598384975546
 20
593.6308717094594
 30
0.0
 11
646.8140102135088
 21
610.374391575127
 31
0.0
  0
LINE
  5
35B
330
1F
100
AcDbEntity
  8
D-2
  6
Continuous
 62
     3
370
     9
100
AcDbLine
 10
614.639825279716
 20
593.6308717094594
 30
0.0
 11
646.8140102135088
 21
620.6281889756983
 31
0.0
  0
LINE
  5
35C
330
1F
100
AcDbEntity
  8
D-2
  6
Continuous
 62
     3
370
     9
100
AcDbLine
 10
606.8018961248105
 20
633.2042554273439
 30
0.0
 11
646.8140102135088
 21
599.6286208711481
 31
0.0
  0
LINE
  5
35D
330
1F
100
AcDbEntity
  8
D-2
  6
Continuous
 62
     3
370
     9
100
AcDbLine
 10
606.8022542166885
 20
643.4583533023501
 30
0.0
 11
646.8140102135088
 21
609.8830192342016
 31
0.0
  0
LINE
  5
35E
330
1F
100
AcDbEntity
  8
D-2
  6
Continuous
 62
     3
370
     9
100
AcDbLine
 10
606.8026123085666
 20
653.7124511773559
 30
0.0
 11
646.8140102135088
 21
620.1374175972549
 31
0.0
  0
LINE
  5
35F
330
1F
100
AcDbEntity
  8
D-2
  6
Continuous
 62
     3
370
     9
100
AcDbLine
 10
606.8029704004447
 20
663.9665490523621
 30
0.0
 11
646.8140102135088
 21
630.3918159603083
 31
0.0
  0
LINE
  5
360
330
1F
100
AcDbEntity
  8
D-2
  6
Continuous
 62
     3
370
     9
100
AcDbLine
 10
606.8172186832088
 20
838.2793649668722
 30
0.0
 11
646.8140102135088
 21
804.716588132218
 31
0.0
  0
LINE
  5
361
330
1F
100
AcDbEntity
  8
D-2
  6
Continuous
 62
     3
370
     9
100
AcDbLine
 10
606.813637764428
 20
843.4088628284928
 30
0.0
 11
646.8140102135088
 21
876.9731239899734
 31
0.0
  0
LINE
  5
362
330
1F
100
AcDbEntity
  8
D-2
  6
Continuous
 62
     3
370
     9
100
AcDbLine
 10
606.81327967255
 20
833.1547649534868
 30
0.0
 11
646.8140102135088
 21
866.7193265894011
 31
0.0
  0
LINE
  5
363
330
1F
100
AcDbEntity
  8
D-2
  6
Continuous
 62
     3
370
     9
100
AcDbLine
 10
606.812921580672
 20
822.900667078481
 30
0.0
 11
646.8140102135088
 21
856.4655291888303
 31
0.0
  0
LINE
  5
364
330
1F
100
AcDbEntity
  8
D-2
  6
Continuous
 62
     3
370
     9
100
AcDbLine
 10
606.8125634887939
 20
812.6465692034751
 30
0.0
 11
646.8140102135088
 21
846.2117317882594
 31
0.0
  0
LINE
  5
365
330
1F
100
AcDbEntity
  8
D-2
  6
Continuous
 62
     3
370
     9
100
AcDbLine
 10
606.8172186832088
 20
869.0425600560322
 30
0.0
 11
646.8140102135088
 21
835.4797832213783
 31
0.0
  0
LINE
  5
366
330
1F
100
AcDbEntity
  8
D-2
  6
Continuous
 62
     3
370
     9
100
AcDbLine
 10
606.8172186832088
 20
858.788161692979
 30
0.0
 11
646.8140102135088
 21
825.2253848583248
 31
0.0
  0
LINE
  5
367
330
1F
100
AcDbEntity
  8
D-2
  6
Continuous
 62
     3
370
     9
100
AcDbLine
 10
606.8172186832088
 20
848.5337633299255
 30
0.0
 11
646.8140102135088
 21
814.9709864952715
 31
0.0
  0
LINE
  5
368
330
1F
100
AcDbEntity
  8
D-2
  6
Continuous
 62
     3
370
     9
100
AcDbLine
 10
606.8175767750865
 20
879.2966579310387
 30
0.0
 11
646.8143683053866
 21
845.7338810963846
 31
0.0
  0
LINE
  5
369
330
1F
100
AcDbEntity
  8
D-2
  6
Continuous
 62
     3
370
     9
100
AcDbLine
 10
606.8139958563057
 20
853.6629607034992
 30
0.0
 11
646.8143683053866
 21
887.2272218649798
 31
0.0
  0
LINE
  5
36A
330
1F
100
AcDbEntity
  8
D-A
  6
Continuous
 62
     3
370
     9
100
AcDbLine
 10
606.8172186832088
 20
593.6308717094594
 30
0.0
 11
606.8172186832088
 21
1053.631193381229
 31
0.0
  0
LINE
  5
36B
330
1F
100
AcDbEntity
  8
D-A
  6
Continuous
 62
     3
370
     9
100
AcDbLine
 10
646.8140102135088
 20
593.6308717094594
 30
0.0
 11
646.8140102135088
 21
1053.631193381229
 31
0.0
  0
LINE
  5
36C
330
1F
100
AcDbEntity
  8
D-2
  6
Continuous
 62
     3
370
     9
100
AcDbLine
 10
606.8143539481835
 20
863.9170585785055
 30
0.0
 11
646.8147263972644
 21
897.4813197399861
 31
0.0
  0
LINE
  5
36D
330
1F
100
AcDbEntity
  8
D-2
  6
Continuous
 62
     3
370
     9
100
AcDbLine
 10
606.8179348669644
 20
889.550755806045
 30
0.0
 11
646.8147263972644
 21
855.9879789713909
 31
0.0
  0
LINE
  5
36E
330
1F
100
AcDbEntity
  8
D-2
  6
Continuous
 62
     3
370
     9
100
AcDbLine
 10
606.8147120400613
 20
874.1711564535119
 30
0.0
 11
646.8150844891421
 21
907.7354176149925
 31
0.0
  0
LINE
  5
36F
330
1F
100
AcDbEntity
  8
D-2
  6
Continuous
 62
     3
370
     9
100
AcDbLine
 10
606.8182929588421
 20
899.8048536810513
 30
0.0
 11
646.8150844891421
 21
866.2420768463973
 31
0.0
  0
LINE
  5
370
330
1F
100
AcDbEntity
  8
D-2
  6
Continuous
 62
     3
370
     9
100
AcDbLine
 10
606.8150701319391
 20
884.4252543285182
 30
0.0
 11
646.81544258102
 21
917.9895154899988
 31
0.0
  0
LINE
  5
371
330
1F
100
AcDbEntity
  8
D-2
  6
Continuous
 62
     3
370
     9
100
AcDbLine
 10
606.81865105072
 20
910.0589515560578
 30
0.0
 11
646.81544258102
 21
876.4961747214036
 31
0.0
  0
LINE
  5
372
330
1F
100
AcDbEntity
  8
D-2
  6
Continuous
 62
     3
370
     9
100
AcDbLine
 10
606.8154282238169
 20
894.6793522035246
 30
0.0
 11
646.8158006728977
 21
928.2436133650051
 31
0.0
  0
LINE
  5
373
330
1F
100
AcDbEntity
  8
D-2
  6
Continuous
 62
     3
370
     9
100
AcDbLine
 10
606.8190091425977
 20
920.3130494310641
 30
0.0
 11
646.8158006728977
 21
886.75027259641
 31
0.0
  0
LINE
  5
374
330
1F
100
AcDbEntity
  8
D-2
  6
Continuous
 62
     3
370
     9
100
AcDbLine
 10
606.8157863156946
 20
904.933450078531
 30
0.0
 11
646.8161587647755
 21
938.4977112400115
 31
0.0
  0
LINE
  5
375
330
1F
100
AcDbEntity
  8
D-2
  6
Continuous
 62
     3
370
     9
100
AcDbLine
 10
606.8193672344755
 20
930.5671473060704
 30
0.0
 11
646.8161587647755
 21
897.0043704714163
 31
0.0
  0
LINE
  5
376
330
1F
100
AcDbEntity
  8
D-2
  6
Continuous
 62
     3
370
     9
100
AcDbLine
 10
606.8161444075724
 20
915.1875479535373
 30
0.0
 11
646.8165168566533
 21
948.7518091150179
 31
0.0
  0
LINE
  5
377
330
1F
100
AcDbEntity
  8
D-2
  6
Continuous
 62
     3
370
     9
100
AcDbLine
 10
606.8197253263533
 20
940.8212451810767
 30
0.0
 11
646.8165168566533
 21
907.2584683464227
 31
0.0
  0
LINE
  5
378
330
1F
100
AcDbEntity
  8
D-2
  6
Continuous
 62
     3
370
     9
100
AcDbLine
 10
606.8165024994503
 20
925.4416458285436
 30
0.0
 11
646.8168749485311
 21
959.0059069900242
 31
0.0
  0
LINE
  5
379
330
1F
100
AcDbEntity
  8
D-2
  6
Continuous
 62
     3
370
     9
100
AcDbLine
 10
606.8200834182311
 20
951.075343056083
 30
0.0
 11
646.8168749485311
 21
917.5125662214291
 31
0.0
  0
LINE
  5
37A
330
1F
100
AcDbEntity
  8
D-2
  6
Continuous
 62
     3
370
     9
100
AcDbLine
 10
606.816860591328
 20
935.69574370355
 30
0.0
 11
646.8172330404088
 21
969.2600048650306
 31
0.0
  0
LINE
  5
37B
330
1F
100
AcDbEntity
  8
D-2
  6
Continuous
 62
     3
370
     9
100
AcDbLine
 10
606.8204415101088
 20
961.3294409310895
 30
0.0
 11
646.8172330404088
 21
927.7666640964354
 31
0.0
  0
LINE
  5
37C
330
1F
100
AcDbEntity
  8
D-2
  6
Continuous
 62
     3
370
     9
100
AcDbLine
 10
606.8172186832057
 20
945.9498415785563
 30
0.0
 11
646.8175911322867
 21
979.514102740037
 31
0.0
  0
LINE
  5
37D
330
1F
100
AcDbEntity
  8
D-2
  6
Continuous
 62
     3
370
     9
100
AcDbLine
 10
606.8207996019867
 20
971.5835388060958
 30
0.0
 11
646.8175911322867
 21
938.0207619714417
 31
0.0
  0
LINE
  5
37E
330
1F
100
AcDbEntity
  8
D-2
  6
Continuous
 62
     3
370
     9
100
AcDbLine
 10
606.8175767750836
 20
956.2039394535627
 30
0.0
 11
646.8179492241644
 21
989.7682006150433
 31
0.0
  0
LINE
  5
37F
330
1F
100
AcDbEntity
  8
D-2
  6
Continuous
 62
     3
370
     9
100
AcDbLine
 10
606.8211576938644
 20
981.8376366811021
 30
0.0
 11
646.8179492241644
 21
948.2748598464481
 31
0.0
  0
LINE
  5
380
330
1F
100
AcDbEntity
  8
D-2
  6
Continuous
 62
     3
370
     9
100
AcDbLine
 10
606.8179348669614
 20
966.458037328569
 30
0.0
 11
646.8183073160423
 21
1000.02229849005
 31
0.0
  0
LINE
  5
381
330
1F
100
AcDbEntity
  8
D-2
  6
Continuous
 62
     3
370
     9
100
AcDbLine
 10
606.8215157857422
 20
992.0917345561086
 30
0.0
 11
646.8183073160423
 21
958.5289577214544
 31
0.0
  0
LINE
  5
382
330
1F
100
AcDbEntity
  8
D-2
  6
Continuous
 62
     3
370
     9
100
AcDbLine
 10
606.8182929588392
 20
976.7121352035754
 30
0.0
 11
646.81866540792
 21
1010.276396365056
 31
0.0
  0
LINE
  5
383
330
1F
100
AcDbEntity
  8
D-2
  6
Continuous
 62
     3
370
     9
100
AcDbLine
 10
606.82187387762
 20
1002.345832431115
 30
0.0
 11
646.81866540792
 21
968.7830555964608
 31
0.0
  0
LINE
  5
384
330
1F
100
AcDbEntity
  8
D-2
  6
Continuous
 62
     3
370
     9
100
AcDbLine
 10
606.8186510507169
 20
986.9662330785818
 30
0.0
 11
646.8190234997978
 21
1020.530494240062
 31
0.0
  0
LINE
  5
385
330
1F
100
AcDbEntity
  8
D-2
  6
Continuous
 62
     3
370
     9
100
AcDbLine
 10
606.8222319694978
 20
1012.599930306121
 30
0.0
 11
646.8190234997978
 21
979.0371534714671
 31
0.0
  0
LINE
  5
386
330
1F
100
AcDbEntity
  8
D-2
  6
Continuous
 62
     3
370
     9
100
AcDbLine
 10
606.8190091425947
 20
997.2203309535881
 30
0.0
 11
646.8193815916756
 21
1030.784592115069
 31
0.0
  0
LINE
  5
387
330
1F
100
AcDbEntity
  8
D-2
  6
Continuous
 62
     3
370
     9
100
AcDbLine
 10
606.8225900613755
 20
1022.854028181128
 30
0.0
 11
646.8193815916756
 21
989.2912513464735
 31
0.0
  0
LINE
  5
388
330
1F
100
AcDbEntity
  8
D-2
  6
Continuous
 62
     3
370
     9
100
AcDbLine
 10
606.8193672344726
 20
1007.474428828594
 30
0.0
 11
646.8197396835534
 21
1041.038689990075
 31
0.0
  0
LINE
  5
389
330
1F
100
AcDbEntity
  8
D-2
  6
Continuous
 62
     3
370
     9
100
AcDbLine
 10
606.8229481532534
 20
1033.108126056134
 30
0.0
 11
646.8197396835534
 21
999.5453492214799
 31
0.0
  0
LINE
  5
38A
330
1F
100
AcDbEntity
  8
D-2
  6
Continuous
 62
     3
370
     9
100
AcDbLine
 10
606.8197253263503
 20
1017.728526703601
 30
0.0
 11
646.8200977754311
 21
1051.292787865081
 31
0.0
  0
LINE
  5
38B
330
1F
100
AcDbEntity
  8
D-2
  6
Continuous
 62
     3
370
     9
100
AcDbLine
 10
606.8233062451311
 20
1043.36222393114
 30
0.0
 11
646.8200977754311
 21
1009.799447096486
 31
0.0
  0
LINE
  5
38C
330
1F
100
AcDbEntity
  8
D-2
  6
Continuous
 62
     3
370
     9
100
AcDbLine
 10
606.823664337009
 20
1053.616321806147
 30
0.0
 11
646.820455867309
 21
1020.053544971493
 31
0.0
  0
LINE
  5
38D
330
1F
100
AcDbEntity
  8
D-2
  6
Continuous
 62
     3
370
     9
100
AcDbLine
 10
643.4664692979203
 20
1053.631193381229
 30
0.0
 11
646.8215301429423
 21
1050.815838596512
 31
0.0
  0
LINE
  5
38E
330
1F
100
AcDbEntity
  8
D-2
  6
Continuous
 62
     3
370
     9
100
AcDbLine
 10
606.820083418228
 20
1027.982624578607
 30
0.0
 11
637.3868907718828
 21
1053.631193381229
 31
0.0
  0
LINE
  5
38F
330
1F
100
AcDbEntity
  8
D-2
  6
Continuous
 62
     3
370
     9
100
AcDbLine
 10
631.2462934877883
 20
1053.631193381229
 30
0.0
 11
646.8211720510645
 21
1040.561740721505
 31
0.0
  0
LINE
  5
390
330
1F
100
AcDbEntity
  8
D-2
  6
Continuous
 62
     3
370
     9
100
AcDbLine
 10
606.8204415101059
 20
1038.236722453614
 30
0.0
 11
625.1668775540443
 21
1053.631193381229
 31
0.0
  0
LINE
  5
391
330
1F
100
AcDbEntity
  8
D-2
  6
Continuous
 62
     3
370
     9
100
AcDbLine
 10
619.0261176776562
 20
1053.631193381229
 30
0.0
 11
646.8208139591867
 21
1030.307642846499
 31
0.0
  0
LINE
  5
392
330
1F
100
AcDbEntity
  8
D-2
  6
Continuous
 62
     3
370
     9
100
AcDbLine
 10
606.8207996019837
 20
1048.49082032862
 30
0.0
 11
612.9468643362056
 21
1053.631193381229
 31
0.0
  0
LINE
  5
393
330
1F
100
AcDbEntity
  8
D-2
  6
Continuous
 62
     3
370
     9
100
AcDbLine
 10
536.8063796054615
 20
622.9501575523377
 30
0.0
 11
571.7461990802342
 21
593.6308717094594
 31
0.0
  0
LINE
  5
394
330
1F
100
AcDbEntity
  8
D-2
  6
Continuous
 62
     3
370
     9
100
AcDbLine
 10
536.8060215135835
 20
612.6960596773315
 30
0.0
 11
559.5260232701019
 21
593.6308717094594
 31
0.0
  0
LINE
  5
395
330
1F
100
AcDbEntity
  8
D-2
  6
Continuous
 62
     3
370
     9
100
AcDbLine
 10
536.8056634217054
 20
602.441961802326
 30
0.0
 11
547.3058474599701
 21
593.6308717094594
 31
0.0
  0
LINE
  5
396
330
1F
100
AcDbEntity
  8
D-2
  6
Continuous
 62
     3
370
     9
100
AcDbLine
 10
569.0846932879218
 20
593.6308717094594
 30
0.0
 11
576.818851786038
 21
600.1205941745561
 31
0.0
  0
LINE
  5
397
330
1F
100
AcDbEntity
  8
D-2
  6
Continuous
 62
     3
370
     9
100
AcDbLine
 10
536.817046969445
 20
802.3924713284689
 30
0.0
 11
576.818851786038
 21
835.9579343876883
 31
0.0
  0
LINE
  5
398
330
1F
100
AcDbEntity
  8
D-2
  6
Continuous
 62
     3
370
     9
100
AcDbLine
 10
536.8135414430229
 20
828.0321150524592
 30
0.0
 11
576.818851786038
 21
794.4621897691644
 31
0.0
  0
LINE
  5
399
330
1F
100
AcDbEntity
  8
D-2
  6
Continuous
 62
     3
370
     9
100
AcDbLine
 10
536.8166888775669
 20
792.1383734534627
 30
0.0
 11
576.818851786038
 21
825.7041369871174
 31
0.0
  0
LINE
  5
39A
330
1F
100
AcDbEntity
  8
D-2
  6
Continuous
 62
     3
370
     9
100
AcDbLine
 10
536.8131833511449
 20
817.7780171774532
 30
0.0
 11
576.818851786038
 21
784.2077914061108
 31
0.0
  0
LINE
  5
39B
330
1F
100
AcDbEntity
  8
D-2
  6
Continuous
 62
     3
370
     9
100
AcDbLine
 10
536.8163307856888
 20
781.8842755784567
 30
0.0
 11
576.818851786038
 21
815.4503395865468
 31
0.0
  0
LINE
  5
39C
330
1F
100
AcDbEntity
  8
D-2
  6
Continuous
 62
     3
370
     9
100
AcDbLine
 10
536.8128252592668
 20
807.5239193024472
 30
0.0
 11
576.818851786038
 21
773.9533930430573
 31
0.0
  0
LINE
  5
39D
330
1F
100
AcDbEntity
  8
D-2
  6
Continuous
 62
     3
370
     9
100
AcDbLine
 10
536.8159726938107
 20
771.6301777034507
 30
0.0
 11
576.818851786038
 21
805.1965421859754
 31
0.0
  0
LINE
  5
39E
330
1F
100
AcDbEntity
  8
D-2
  6
Continuous
 62
     3
370
     9
100
AcDbLine
 10
536.8124671673887
 20
797.269821427441
 30
0.0
 11
576.818851786038
 21
763.698994680004
 31
0.0
  0
LINE
  5
39F
330
1F
100
AcDbEntity
  8
D-2
  6
Continuous
 62
     3
370
     9
100
AcDbLine
 10
536.8156146019327
 20
761.3760798284445
 30
0.0
 11
576.818851786038
 21
794.9427447854046
 31
0.0
  0
LINE
  5
3A0
330
1F
100
AcDbEntity
  8
D-2
  6
Continuous
 62
     3
370
     9
100
AcDbLine
 10
536.8121090755106
 20
787.0157235524348
 30
0.0
 11
576.818851786038
 21
753.4445963169505
 31
0.0
  0
LINE
  5
3A1
330
1F
100
AcDbEntity
  8
D-2
  6
Continuous
 62
     3
370
     9
100
AcDbLine
 10
536.8152565100546
 20
751.1219819534383
 30
0.0
 11
576.818851786038
 21
784.6889473848336
 31
0.0
  0
LINE
  5
3A2
330
1F
100
AcDbEntity
  8
D-2
  6
Continuous
 62
     3
370
     9
100
AcDbLine
 10
536.8117509836326
 20
776.7616256774289
 30
0.0
 11
576.818851786038
 21
743.1901979538969
 31
0.0
  0
LINE
  5
3A3
330
1F
100
AcDbEntity
  8
D-2
  6
Continuous
 62
     3
370
     9
100
AcDbLine
 10
536.8148984181765
 20
740.8678840784324
 30
0.0
 11
576.818851786038
 21
774.4351499842626
 31
0.0
  0
LINE
  5
3A4
330
1F
100
AcDbEntity
  8
D-2
  6
Continuous
 62
     3
370
     9
100
AcDbLine
 10
536.8113928917545
 20
766.507527802423
 30
0.0
 11
576.818851786038
 21
732.9357995908433
 31
0.0
  0
LINE
  5
3A5
330
1F
100
AcDbEntity
  8
D-2
  6
Continuous
 62
     3
370
     9
100
AcDbLine
 10
536.8145403262985
 20
730.6137862034266
 30
0.0
 11
576.818851786038
 21
764.1813525836917
 31
0.0
  0
LINE
  5
3A6
330
1F
100
AcDbEntity
  8
D-2
  6
Continuous
 62
     3
370
     9
100
AcDbLine
 10
536.8110347998764
 20
756.2534299274168
 30
0.0
 11
576.818851786038
 21
722.6814012277898
 31
0.0
  0
LINE
  5
3A7
330
1F
100
AcDbEntity
  8
D-2
  6
Continuous
 62
     3
370
     9
100
AcDbLine
 10
536.8141822344204
 20
720.3596883284204
 30
0.0
 11
576.818851786038
 21
753.9275551831207
 31
0.0
  0
LINE
  5
3A8
330
1F
100
AcDbEntity
  8
D-2
  6
Continuous
 62
     3
370
     9
100
AcDbLine
 10
536.8106767079984
 20
745.9993320524106
 30
0.0
 11
576.818851786038
 21
712.4270028647366
 31
0.0
  0
LINE
  5
3A9
330
1F
100
AcDbEntity
  8
D-2
  6
Continuous
 62
     3
370
     9
100
AcDbLine
 10
536.8138241425423
 20
710.1055904534142
 30
0.0
 11
576.818851786038
 21
743.6737577825497
 31
0.0
  0
LINE
  5
3AA
330
1F
100
AcDbEntity
  8
D-2
  6
Continuous
 62
     3
370
     9
100
AcDbLine
 10
536.8103186161203
 20
735.7452341774047
 30
0.0
 11
576.818851786038
 21
702.172604501683
 31
0.0
  0
LINE
  5
3AB
330
1F
100
AcDbEntity
  8
D-2
  6
Continuous
 62
     3
370
     9
100
AcDbLine
 10
536.8134660506643
 20
699.8514925784079
 30
0.0
 11
576.818851786038
 21
733.4199603819789
 31
0.0
  0
LINE
  5
3AC
330
1F
100
AcDbEntity
  8
D-2
  6
Continuous
 62
     3
370
     9
100
AcDbLine
 10
536.8099605242422
 20
725.4911363023987
 30
0.0
 11
576.818851786038
 21
691.9182061386298
 31
0.0
  0
LINE
  5
3AD
330
1F
100
AcDbEntity
  8
D-2
  6
Continuous
 62
     3
370
     9
100
AcDbLine
 10
536.8131079587862
 20
689.5973947034022
 30
0.0
 11
576.818851786038
 21
723.1661629814075
 31
0.0
  0
LINE
  5
3AE
330
1F
100
AcDbEntity
  8
D-2
  6
Continuous
 62
     3
370
     9
100
AcDbLine
 10
536.8096024323642
 20
715.2370384273925
 30
0.0
 11
576.818851786038
 21
681.6638077755758
 31
0.0
  0
LINE
  5
3AF
330
1F
100
AcDbEntity
  8
D-2
  6
Continuous
 62
     3
370
     9
100
AcDbLine
 10
536.8127498669081
 20
679.343296828396
 30
0.0
 11
576.818851786038
 21
712.9123655808369
 31
0.0
  0
LINE
  5
3B0
330
1F
100
AcDbEntity
  8
D-2
  6
Continuous
 62
     3
370
     9
100
AcDbLine
 10
536.8092443404861
 20
704.9829405523863
 30
0.0
 11
576.818851786038
 21
671.4094094125223
 31
0.0
  0
LINE
  5
3B1
330
1F
100
AcDbEntity
  8
D-2
  6
Continuous
 62
     3
370
     9
100
AcDbLine
 10
536.81239177503
 20
669.0891989533898
 30
0.0
 11
576.818851786038
 21
702.6585681802655
 31
0.0
  0
LINE
  5
3B2
330
1F
100
AcDbEntity
  8
D-2
  6
Continuous
 62
     3
370
     9
100
AcDbLine
 10
536.808886248608
 20
694.72884267738
 30
0.0
 11
576.818851786038
 21
661.1550110494691
 31
0.0
  0
LINE
  5
3B3
330
1F
100
AcDbEntity
  8
D-2
  6
Continuous
 62
     3
370
     9
100
AcDbLine
 10
536.812033683152
 20
658.8351010783836
 30
0.0
 11
576.818851786038
 21
692.4047707796947
 31
0.0
  0
LINE
  5
3B4
330
1F
100
AcDbEntity
  8
D-2
  6
Continuous
 62
     3
370
     9
100
AcDbLine
 10
536.80852815673
 20
684.4747448023745
 30
0.0
 11
576.818851786038
 21
650.9006126864156
 31
0.0
  0
LINE
  5
3B5
330
1F
100
AcDbEntity
  8
D-2
  6
Continuous
 62
     3
370
     9
100
AcDbLine
 10
536.8116755912739
 20
648.581003203378
 30
0.0
 11
576.818851786038
 21
682.150973379124
 31
0.0
  0
LINE
  5
3B6
330
1F
100
AcDbEntity
  8
D-2
  6
Continuous
 62
     3
370
     9
100
AcDbLine
 10
536.8081700648519
 20
674.2206469273683
 30
0.0
 11
576.818851786038
 21
640.6462143233623
 31
0.0
  0
LINE
  5
3B7
330
1F
100
AcDbEntity
  8
D-2
  6
Continuous
 62
     3
370
     9
100
AcDbLine
 10
536.8113174993958
 20
638.3269053283718
 30
0.0
 11
576.818851786038
 21
671.8971759785527
 31
0.0
  0
LINE
  5
3B8
330
1F
100
AcDbEntity
  8
D-2
  6
Continuous
 62
     3
370
     9
100
AcDbLine
 10
536.8109594075178
 20
628.0728074533656
 30
0.0
 11
576.818851786038
 21
661.6433785779818
 31
0.0
  0
LINE
  5
3B9
330
1F
100
AcDbEntity
  8
D-2
  6
Continuous
 62
     3
370
     9
100
AcDbLine
 10
536.8106013156397
 20
617.8187095783594
 30
0.0
 11
576.818851786038
 21
651.3895811774112
 31
0.0
  0
LINE
  5
3BA
330
1F
100
AcDbEntity
  8
D-2
  6
Continuous
 62
     3
370
     9
100
AcDbLine
 10
536.8102432237616
 20
607.5646117033536
 30
0.0
 11
576.818851786038
 21
641.1357837768398
 31
0.0
  0
LINE
  5
3BB
330
1F
100
AcDbEntity
  8
D-2
  6
Continuous
 62
     3
370
     9
100
AcDbLine
 10
536.8098851318836
 20
597.3105138283474
 30
0.0
 11
576.818851786038
 21
630.881986376269
 31
0.0
  0
LINE
  5
3BC
330
1F
100
AcDbEntity
  8
D-2
  6
Continuous
 62
     3
370
     9
100
AcDbLine
 10
556.8646800700838
 20
593.6308717094594
 30
0.0
 11
576.818851786038
 21
610.374391575127
 31
0.0
  0
LINE
  5
3BD
330
1F
100
AcDbEntity
  8
D-2
  6
Continuous
 62
     3
370
     9
100
AcDbLine
 10
544.6446668522451
 20
593.6308717094594
 30
0.0
 11
576.818851786038
 21
620.6281889756983
 31
0.0
  0
LINE
  5
3BE
330
1F
100
AcDbEntity
  8
D-2
  6
Continuous
 62
     3
370
     9
100
AcDbLine
 10
536.8067376973396
 20
633.2042554273439
 30
0.0
 11
576.818851786038
 21
599.6286208711481
 31
0.0
  0
LINE
  5
3BF
330
1F
100
AcDbEntity
  8
D-2
  6
Continuous
 62
     3
370
     9
100
AcDbLine
 10
536.8070957892177
 20
643.4583533023501
 30
0.0
 11
576.818851786038
 21
609.8830192342016
 31
0.0
  0
LINE
  5
3C0
330
1F
100
AcDbEntity
  8
D-2
  6
Continuous
 62
     3
370
     9
100
AcDbLine
 10
536.8074538810957
 20
653.7124511773559
 30
0.0
 11
576.818851786038
 21
620.1374175972549
 31
0.0
  0
LINE
  5
3C1
330
1F
100
AcDbEntity
  8
D-2
  6
Continuous
 62
     3
370
     9
100
AcDbLine
 10
536.8078119729738
 20
663.9665490523621
 30
0.0
 11
576.818851786038
 21
630.3918159603083
 31
0.0
  0
LINE
  5
3C2
330
1F
100
AcDbEntity
  8
D-2
  6
Continuous
 62
     3
370
     9
100
AcDbLine
 10
536.8220602557379
 20
838.2793649668722
 30
0.0
 11
576.818851786038
 21
804.716588132218
 31
0.0
  0
LINE
  5
3C3
330
1F
100
AcDbEntity
  8
D-2
  6
Continuous
 62
     3
370
     9
100
AcDbLine
 10
536.8184793369571
 20
843.4088628284928
 30
0.0
 11
576.818851786038
 21
876.9731239899734
 31
0.0
  0
LINE
  5
3C4
330
1F
100
AcDbEntity
  8
D-2
  6
Continuous
 62
     3
370
     9
100
AcDbLine
 10
536.8181212450792
 20
833.1547649534868
 30
0.0
 11
576.818851786038
 21
866.7193265894011
 31
0.0
  0
LINE
  5
3C5
330
1F
100
AcDbEntity
  8
D-2
  6
Continuous
 62
     3
370
     9
100
AcDbLine
 10
536.8177631532011
 20
822.900667078481
 30
0.0
 11
576.818851786038
 21
856.4655291888303
 31
0.0
  0
LINE
  5
3C6
330
1F
100
AcDbEntity
  8
D-2
  6
Continuous
 62
     3
370
     9
100
AcDbLine
 10
536.817405061323
 20
812.6465692034751
 30
0.0
 11
576.818851786038
 21
846.2117317882594
 31
0.0
  0
LINE
  5
3C7
330
1F
100
AcDbEntity
  8
D-2
  6
Continuous
 62
     3
370
     9
100
AcDbLine
 10
536.8220602557379
 20
869.0425600560322
 30
0.0
 11
576.818851786038
 21
835.4797832213783
 31
0.0
  0
LINE
  5
3C8
330
1F
100
AcDbEntity
  8
D-2
  6
Continuous
 62
     3
370
     9
100
AcDbLine
 10
536.8220602557379
 20
858.788161692979
 30
0.0
 11
576.818851786038
 21
825.2253848583248
 31
0.0
  0
LINE
  5
3C9
330
1F
100
AcDbEntity
  8
D-2
  6
Continuous
 62
     3
370
     9
100
AcDbLine
 10
536.8220602557379
 20
848.5337633299255
 30
0.0
 11
576.818851786038
 21
814.9709864952715
 31
0.0
  0
LINE
  5
3CA
330
1F
100
AcDbEntity
  8
D-2
  6
Continuous
 62
     3
370
     9
100
AcDbLine
 10
536.8224183476157
 20
879.2966579310387
 30
0.0
 11
576.8192098779157
 21
845.7338810963846
 31
0.0
  0
LINE
  5
3CB
330
1F
100
AcDbEntity
  8
D-2
  6
Continuous
 62
     3
370
     9
100
AcDbLine
 10
536.8188374288349
 20
853.6629607034992
 30
0.0
 11
576.8192098779157
 21
887.2272218649798
 31
0.0
  0
LINE
  5
3CC
330
1F
100
AcDbEntity
  8
D-A
  6
Continuous
 62
     3
370
     9
100
AcDbLine
 10
536.8220602557379
 20
593.6308717094594
 30
0.0
 11
536.8220602557379
 21
1053.631193381229
 31
0.0
  0
LINE
  5
3CD
330
1F
100
AcDbEntity
  8
D-A
  6
Continuous
 62
     3
370
     9
100
AcDbLine
 10
576.818851786038
 20
593.6308717094594
 30
0.0
 11
576.818851786038
 21
1053.631193381229
 31
0.0
  0
LINE
  5
3CE
330
1F
100
AcDbEntity
  8
D-2
  6
Continuous
 62
     3
370
     9
100
AcDbLine
 10
536.8191955207126
 20
863.9170585785055
 30
0.0
 11
576.8195679697935
 21
897.4813197399861
 31
0.0
  0
LINE
  5
3CF
330
1F
100
AcDbEntity
  8
D-2
  6
Continuous
 62
     3
370
     9
100
AcDbLine
 10
536.8227764394935
 20
889.550755806045
 30
0.0
 11
576.8195679697935
 21
855.9879789713909
 31
0.0
  0
LINE
  5
3D0
330
1F
100
AcDbEntity
  8
D-2
  6
Continuous
 62
     3
370
     9
100
AcDbLine
 10
536.8195536125904
 20
874.1711564535119
 30
0.0
 11
576.8199260616713
 21
907.7354176149925
 31
0.0
  0
LINE
  5
3D1
330
1F
100
AcDbEntity
  8
D-2
  6
Continuous
 62
     3
370
     9
100
AcDbLine
 10
536.8231345313712
 20
899.8048536810513
 30
0.0
 11
576.8199260616713
 21
866.2420768463973
 31
0.0
  0
LINE
  5
3D2
330
1F
100
AcDbEntity
  8
D-2
  6
Continuous
 62
     3
370
     9
100
AcDbLine
 10
536.8199117044683
 20
884.4252543285182
 30
0.0
 11
576.8202841535491
 21
917.9895154899988
 31
0.0
  0
LINE
  5
3D3
330
1F
100
AcDbEntity
  8
D-2
  6
Continuous
 62
     3
370
     9
100
AcDbLine
 10
536.8234926232491
 20
910.0589515560578
 30
0.0
 11
576.8202841535491
 21
876.4961747214036
 31
0.0
  0
LINE
  5
3D4
330
1F
100
AcDbEntity
  8
D-2
  6
Continuous
 62
     3
370
     9
100
AcDbLine
 10
536.820269796346
 20
894.6793522035246
 30
0.0
 11
576.8206422454268
 21
928.2436133650051
 31
0.0
  0
LINE
  5
3D5
330
1F
100
AcDbEntity
  8
D-2
  6
Continuous
 62
     3
370
     9
100
AcDbLine
 10
536.8238507151268
 20
920.3130494310641
 30
0.0
 11
576.8206422454268
 21
886.75027259641
 31
0.0
  0
LINE
  5
3D6
330
1F
100
AcDbEntity
  8
D-2
  6
Continuous
 62
     3
370
     9
100
AcDbLine
 10
536.8206278882237
 20
904.933450078531
 30
0.0
 11
576.8210003373047
 21
938.4977112400115
 31
0.0
  0
LINE
  5
3D7
330
1F
100
AcDbEntity
  8
D-2
  6
Continuous
 62
     3
370
     9
100
AcDbLine
 10
536.8242088070047
 20
930.5671473060704
 30
0.0
 11
576.8210003373047
 21
897.0043704714163
 31
0.0
  0
LINE
  5
3D8
330
1F
100
AcDbEntity
  8
D-2
  6
Continuous
 62
     3
370
     9
100
AcDbLine
 10
536.8209859801016
 20
915.1875479535373
 30
0.0
 11
576.8213584291824
 21
948.7518091150179
 31
0.0
  0
LINE
  5
3D9
330
1F
100
AcDbEntity
  8
D-2
  6
Continuous
 62
     3
370
     9
100
AcDbLine
 10
536.8245668988824
 20
940.8212451810767
 30
0.0
 11
576.8213584291824
 21
907.2584683464227
 31
0.0
  0
LINE
  5
3DA
330
1F
100
AcDbEntity
  8
D-2
  6
Continuous
 62
     3
370
     9
100
AcDbLine
 10
536.8213440719794
 20
925.4416458285436
 30
0.0
 11
576.8217165210602
 21
959.0059069900242
 31
0.0
  0
LINE
  5
3DB
330
1F
100
AcDbEntity
  8
D-2
  6
Continuous
 62
     3
370
     9
100
AcDbLine
 10
536.8249249907602
 20
951.075343056083
 30
0.0
 11
576.8217165210602
 21
917.5125662214291
 31
0.0
  0
LINE
  5
3DC
330
1F
100
AcDbEntity
  8
D-2
  6
Continuous
 62
     3
370
     9
100
AcDbLine
 10
536.8217021638571
 20
935.69574370355
 30
0.0
 11
576.822074612938
 21
969.2600048650306
 31
0.0
  0
LINE
  5
3DD
330
1F
100
AcDbEntity
  8
D-2
  6
Continuous
 62
     3
370
     9
100
AcDbLine
 10
536.825283082638
 20
961.3294409310895
 30
0.0
 11
576.822074612938
 21
927.7666640964354
 31
0.0
  0
LINE
  5
3DE
330
1F
100
AcDbEntity
  8
D-2
  6
Continuous
 62
     3
370
     9
100
AcDbLine
 10
536.8220602557349
 20
945.9498415785563
 30
0.0
 11
576.8224327048158
 21
979.514102740037
 31
0.0
  0
LINE
  5
3DF
330
1F
100
AcDbEntity
  8
D-2
  6
Continuous
 62
     3
370
     9
100
AcDbLine
 10
536.8256411745158
 20
971.5835388060958
 30
0.0
 11
576.8224327048158
 21
938.0207619714417
 31
0.0
  0
LINE
  5
3E0
330
1F
100
AcDbEntity
  8
D-2
  6
Continuous
 62
     3
370
     9
100
AcDbLine
 10
536.8224183476127
 20
956.2039394535627
 30
0.0
 11
576.8227907966935
 21
989.7682006150433
 31
0.0
  0
LINE
  5
3E1
330
1F
100
AcDbEntity
  8
D-2
  6
Continuous
 62
     3
370
     9
100
AcDbLine
 10
536.8259992663935
 20
981.8376366811021
 30
0.0
 11
576.8227907966935
 21
948.2748598464481
 31
0.0
  0
LINE
  5
3E2
330
1F
100
AcDbEntity
  8
D-2
  6
Continuous
 62
     3
370
     9
100
AcDbLine
 10
536.8227764394906
 20
966.458037328569
 30
0.0
 11
576.8231488885714
 21
1000.02229849005
 31
0.0
  0
LINE
  5
3E3
330
1F
100
AcDbEntity
  8
D-2
  6
Continuous
 62
     3
370
     9
100
AcDbLine
 10
536.8263573582714
 20
992.0917345561086
 30
0.0
 11
576.8231488885714
 21
958.5289577214544
 31
0.0
  0
LINE
  5
3E4
330
1F
100
AcDbEntity
  8
D-2
  6
Continuous
 62
     3
370
     9
100
AcDbLine
 10
536.8231345313683
 20
976.7121352035754
 30
0.0
 11
576.8235069804491
 21
1010.276396365056
 31
0.0
  0
LINE
  5
3E5
330
1F
100
AcDbEntity
  8
D-2
  6
Continuous
 62
     3
370
     9
100
AcDbLine
 10
536.8267154501491
 20
1002.345832431115
 30
0.0
 11
576.8235069804491
 21
968.7830555964608
 31
0.0
  0
LINE
  5
3E6
330
1F
100
AcDbEntity
  8
D-2
  6
Continuous
 62
     3
370
     9
100
AcDbLine
 10
536.823492623246
 20
986.9662330785818
 30
0.0
 11
576.823865072327
 21
1020.530494240062
 31
0.0
  0
LINE
  5
3E7
330
1F
100
AcDbEntity
  8
D-2
  6
Continuous
 62
     3
370
     9
100
AcDbLine
 10
536.8270735420269
 20
1012.599930306121
 30
0.0
 11
576.823865072327
 21
979.0371534714671
 31
0.0
  0
LINE
  5
3E8
330
1F
100
AcDbEntity
  8
D-2
  6
Continuous
 62
     3
370
     9
100
AcDbLine
 10
536.8238507151239
 20
997.2203309535881
 30
0.0
 11
576.8242231642047
 21
1030.784592115069
 31
0.0
  0
LINE
  5
3E9
330
1F
100
AcDbEntity
  8
D-2
  6
Continuous
 62
     3
370
     9
100
AcDbLine
 10
536.8274316339047
 20
1022.854028181128
 30
0.0
 11
576.8242231642047
 21
989.2912513464735
 31
0.0
  0
LINE
  5
3EA
330
1F
100
AcDbEntity
  8
D-2
  6
Continuous
 62
     3
370
     9
100
AcDbLine
 10
536.8242088070017
 20
1007.474428828594
 30
0.0
 11
576.8245812560825
 21
1041.038689990075
 31
0.0
  0
LINE
  5
3EB
330
1F
100
AcDbEntity
  8
D-2
  6
Continuous
 62
     3
370
     9
100
AcDbLine
 10
536.8277897257825
 20
1033.108126056134
 30
0.0
 11
576.8245812560825
 21
999.5453492214799
 31
0.0
  0
LINE
  5
3EC
330
1F
100
AcDbEntity
  8
D-2
  6
Continuous
 62
     3
370
     9
100
AcDbLine
 10
536.8245668988794
 20
1017.728526703601
 30
0.0
 11
576.8249393479603
 21
1051.292787865081
 31
0.0
  0
LINE
  5
3ED
330
1F
100
AcDbEntity
  8
D-2
  6
Continuous
 62
     3
370
     9
100
AcDbLine
 10
536.8281478176602
 20
1043.36222393114
 30
0.0
 11
576.8249393479603
 21
1009.799447096486
 31
0.0
  0
LINE
  5
3EE
330
1F
100
AcDbEntity
  8
D-2
  6
Continuous
 62
     3
370
     9
100
AcDbLine
 10
536.8285059095381
 20
1053.616321806147
 30
0.0
 11
576.8252974398381
 21
1020.053544971493
 31
0.0
  0
LINE
  5
3EF
330
1F
100
AcDbEntity
  8
D-2
  6
Continuous
 62
     3
370
     9
100
AcDbLine
 10
573.4713108704494
 20
1053.631193381229
 30
0.0
 11
576.8263717154714
 21
1050.815838596512
 31
0.0
  0
LINE
  5
3F0
330
1F
100
AcDbEntity
  8
D-2
  6
Continuous
 62
     3
370
     9
100
AcDbLine
 10
536.8249249907572
 20
1027.982624578607
 30
0.0
 11
567.3917323444119
 21
1053.631193381229
 31
0.0
  0
LINE
  5
3F1
330
1F
100
AcDbEntity
  8
D-2
  6
Continuous
 62
     3
370
     9
100
AcDbLine
 10
561.2511350603174
 20
1053.631193381229
 30
0.0
 11
576.8260136235937
 21
1040.561740721505
 31
0.0
  0
LINE
  5
3F2
330
1F
100
AcDbEntity
  8
D-2
  6
Continuous
 62
     3
370
     9
100
AcDbLine
 10
536.825283082635
 20
1038.236722453614
 30
0.0
 11
555.1717191265734
 21
1053.631193381229
 31
0.0
  0
LINE
  5
3F3
330
1F
100
AcDbEntity
  8
D-2
  6
Continuous
 62
     3
370
     9
100
AcDbLine
 10
549.0309592501853
 20
1053.631193381229
 30
0.0
 11
576.8256555317158
 21
1030.307642846499
 31
0.0
  0
LINE
  5
3F4
330
1F
100
AcDbEntity
  8
D-2
  6
Continuous
 62
     3
370
     9
100
AcDbLine
 10
536.8256411745128
 20
1048.49082032862
 30
0.0
 11
542.9517059087348
 21
1053.631193381229
 31
0.0
  0
LINE
  5
3F5
330
1F
100
AcDbEntity
  8
D-5
  6
Continuous
 62
     7
370
     9
100
AcDbLine
 10
716.8134988378766
 20
903.6309954293708
 30
0.0
 11
736.6473323451577
 21
918.8500311545888
 31
0.0
  0
LINE
  5
3F6
330
1F
100
AcDbEntity
  8
D-5
  6
Continuous
 62
     7
370
     9
100
AcDbLine
 10
716.8134988378766
 20
903.6309954293708
 30
0.0
 11
732.0325345630947
 21
923.4648289366512
 31
0.0
  0
LINE
  5
3F7
330
1F
100
AcDbEntity
  8
D-5
  6
Continuous
 62
     7
370
     9
100
AcDbLine
 10
716.8134988378766
 20
903.6309954293708
 30
0.0
 11
771.9857213306146
 21
958.8032179221085
 31
0.0
  0
LINE
  5
3F8
330
1F
100
AcDbEntity
  8
D-5
  6
Continuous
 62
     7
370
     9
100
AcDbLine
 10
771.9857213306146
 20
958.8032179221085
 30
0.0
 11
1010.902949646989
 21
958.8032179221085
 31
0.0
  0
TEXT
  5
3F9
330
1F
100
AcDbEntity
  8
D-5
  6
Continuous
 62
     7
370
     9
100
AcDbText
 10
771.9857213306146
 20
968.0332179221085
 30
0.0
 40
22.86
  1
ローレット模様
 41
1.142857142857143
  7
ＭＳ ゴシック
100
AcDbText
  0
TEXT
  5
3FA
330
1F
100
AcDbEntity
  8
D-5
  6
Continuous
 62
     2
370
     9
100
AcDbText
 10
811.9951146013152
 20
553.7957000344531
 30
0.0
 40
30.48
  1
B
 41
0.9999999999999998
  7
ＭＳ ゴシック
100
AcDbText
  0
LINE
  5
3FB
330
1F
100
AcDbEntity
  8
D-5
  6
Continuous
 62
     4
370
     9
100
AcDbLine
 10
821.9951146013152
 20
644.090399768696
 30
0.0
 11
818.7319597958144
 21
619.3042782343508
 31
0.0
  0
LINE
  5
3FC
330
1F
100
AcDbEntity
  8
D-5
  6
Continuous
 62
     4
370
     9
100
AcDbLine
 10
821.9951146013152
 20
644.090399768696
 30
0.0
 11
821.9951146013152
 21
594.841007085754
 31
0.0
  0
LINE
  5
3FD
330
1F
100
AcDbEntity
  8
D-5
  6
Continuous
 62
     4
370
     9
100
AcDbLine
 10
821.9951146013152
 20
644.090399768696
 30
0.0
 11
825.2582694068171
 21
619.3042782343508
 31
0.0
  0
LINE
  5
3FE
330
1F
100
AcDbEntity
  8
C-3
  6
Continuous
 62
     2
370
     9
100
AcDbLine
 10
-852.1162062681464
 20
481.6144855280089
 30
0.0
 11
-852.1162062681464
 21
935.6149127741028
 31
0.0
  0
LINE
  5
3FF
330
1F
100
AcDbEntity
  8
C-3
  6
Continuous
 62
     2
370
     9
100
AcDbLine
 10
-855.1171448898733
 20
478.6147841053947
 30
0.0
 11
-855.1171448898733
 21
938.6149853564507
 31
0.0
  0
LINE
  5
400
330
1F
100
AcDbEntity
  8
C-3
  6
Continuous
 62
     2
370
     9
100
AcDbLine
 10
-398.1163976216092
 20
481.6144855280089
 30
0.0
 11
-852.1162062681464
 21
481.6144855280089
 31
0.0
  0
LINE
  5
401
330
1F
100
AcDbEntity
  8
C-3
  6
Continuous
 62
     2
370
     9
100
AcDbLine
 10
-395.1159538795273
 20
478.6147841053947
 30
0.0
 11
-855.1171448898733
 21
478.6147841053947
 31
0.0
  0
LINE
  5
402
330
1F
100
AcDbEntity
  8
C-3
  6
Continuous
 62
     2
370
     9
100
AcDbLine
 10
-398.1163976216092
 20
935.6149127741028
 30
0.0
 11
-852.1162062681464
 21
935.6149127741028
 31
0.0
  0
LINE
  5
403
330
1F
100
AcDbEntity
  8
C-3
  6
Continuous
 62
     2
370
     9
100
AcDbLine
 10
-398.1163976216092
 20
935.6149127741028
 30
0.0
 11
-398.1163976216092
 21
481.6144855280089
 31
0.0
  0
LINE
  5
404
330
1F
100
AcDbEntity
  8
C-3
  6
Continuous
 62
     2
370
     9
100
AcDbLine
 10
-395.1159538795273
 20
938.6149853564507
 30
0.0
 11
-855.1171448898733
 21
938.6149853564507
 31
0.0
  0
LINE
  5
405
330
1F
100
AcDbEntity
  8
C-3
  6
Continuous
 62
     2
370
     9
100
AcDbLine
 10
-395.1159538795273
 20
938.6149853564507
 30
0.0
 11
-395.1159538795273
 21
478.6147841053947
 31
0.0
  0
LWPOLYLINE
  5
406
330
1F
100
AcDbEntity
  8
C-4
  6
Continuous
 62
     7
370
     9
100
AcDbPolyline
 90
        4
 70
     1
 43
1.0
 10
-854.6171448898734
 20
1140.946503513769
 42
0.4142135623731
 10
-855.1171448898733
 20
1141.446503513769
 42
0.4142135623731
 10
-855.6171448898733
 20
1140.946503513769
 42
0.4142135623731
 10
-855.1171448898733
 20
1140.446503513769
 42
0.4142135623731
  0
LWPOLYLINE
  5
407
330
1F
100
AcDbEntity
  8
C-4
  6
Continuous
 62
     7
370
     9
100
AcDbPolyline
 90
        4
 70
     1
 43
1.0
 10
-851.6162062681464
 20
1140.946503513769
 42
0.4142135623731
 10
-852.1162062681464
 20
1141.446503513769
 42
0.4142135623731
 10
-852.6162062681464
 20
1140.946503513769
 42
0.4142135623731
 10
-852.1162062681464
 20
1140.446503513769
 42
0.4142135623731
  0
LINE
  5
408
330
1F
100
AcDbEntity
  8
C-4
  6
Continuous
 62
     7
370
     9
100
AcDbLine
 10
-852.1162062681464
 20
1140.946503513769
 30
0.0
 11
-850.1163019448779
 21
1140.946503513769
 31
0.0
  0
LWPOLYLINE
  5
409
330
1F
100
AcDbEntity
  8
C-4
  6
Continuous
 62
     7
370
     9
100
AcDbPolyline
 90
        4
 70
     1
 43
1.0
 10
-849.6163019448779
 20
1140.946503513769
 42
0.4142135623731
 10
-850.1163019448779
 20
1141.446503513769
 42
0.4142135623731
 10
-850.6163019448779
 20
1140.946503513769
 42
0.4142135623731
 10
-850.1163019448779
 20
1140.446503513769
 42
0.4142135623731
  0
LINE
  5
40A
330
1F
100
AcDbEntity
  8
C-4
  6
Continuous
 62
     7
370
     9
100
AcDbLine
 10
-850.1163019448779
 20
1143.946503513769
 30
0.0
 11
-850.1163019448779
 21
953.6147610110112
 31
0.0
  0
LINE
  5
40B
330
1F
100
AcDbEntity
  8
C-4
  6
Continuous
 62
     7
370
     9
100
AcDbLine
 10
-850.1163019448779
 20
1140.946503513769
 30
0.0
 11
-400.1161782249665
 21
1140.946503513769
 31
0.0
  0
LWPOLYLINE
  5
40C
330
1F
100
AcDbEntity
  8
C-4
  6
Continuous
 62
     7
370
     9
100
AcDbPolyline
 90
        4
 70
     1
 43
1.0
 10
-399.6161782249665
 20
1140.946503513769
 42
0.4142135623731
 10
-400.1161782249665
 20
1141.446503513769
 42
0.4142135623731
 10
-400.6161782249665
 20
1140.946503513769
 42
0.4142135623731
 10
-400.1161782249665
 20
1140.446503513769
 42
0.4142135623731
  0
LINE
  5
40D
330
1F
100
AcDbEntity
  8
C-4
  6
Continuous
 62
     7
370
     9
100
AcDbLine
 10
-400.1161782249665
 20
1143.946503513769
 30
0.0
 11
-400.1161782249665
 21
953.6147610110112
 31
0.0
  0
TEXT
  5
40E
330
1F
100
AcDbEntity
  8
C-4
  6
Continuous
 62
     2
370
   211
100
AcDbText
 10
-657.6162400849222
 20
1152.586503513769
 30
0.0
 40
30.48
  1
450
 41
1.083333333333333
  7
ＭＳ ゴシック
100
AcDbText
  0
LINE
  5
40F
330
1F
100
AcDbEntity
  8
C-4
  6
Continuous
 62
     7
370
     9
100
AcDbLine
 10
-400.1161782249665
 20
1140.946503513769
 30
0.0
 11
-398.1163976216092
 21
1140.946503513769
 31
0.0
  0
LWPOLYLINE
  5
410
330
1F
100
AcDbEntity
  8
C-4
  6
Continuous
 62
     7
370
     9
100
AcDbPolyline
 90
        4
 70
     1
 43
1.0
 10
-397.6163976216092
 20
1140.946503513769
 42
0.4142135623731
 10
-398.1163976216092
 20
1141.446503513769
 42
0.4142135623731
 10
-398.6163976216091
 20
1140.946503513769
 42
0.4142135623731
 10
-398.1163976216092
 20
1140.446503513769
 42
0.4142135623731
  0
LWPOLYLINE
  5
411
330
1F
100
AcDbEntity
  8
C-4
  6
Continuous
 62
     7
370
     9
100
AcDbPolyline
 90
        4
 70
     1
 43
1.0
 10
-394.6159538795274
 20
1140.946503513769
 42
0.4142135623731
 10
-395.1159538795273
 20
1141.446503513769
 42
0.4142135623731
 10
-395.6159538795273
 20
1140.946503513769
 42
0.4142135623731
 10
-395.1159538795273
 20
1140.446503513769
 42
0.4142135623731
  0
LINE
  5
412
330
1F
100
AcDbEntity
  8
C-4
  6
Continuous
 62
     7
370
     9
100
AcDbLine
 10
-855.1171448898733
 20
1218.14715883614
 30
0.0
 11
-395.1159538795273
 21
1218.14715883614
 31
0.0
  0
LWPOLYLINE
  5
413
330
1F
100
AcDbEntity
  8
C-4
  6
Continuous
 62
     7
370
     9
100
AcDbPolyline
 90
        4
 70
     1
 43
1.0
 10
-854.6171448898734
 20
1218.14715883614
 42
0.4142135623731
 10
-855.1171448898733
 20
1218.64715883614
 42
0.4142135623731
 10
-855.6171448898733
 20
1218.14715883614
 42
0.4142135623731
 10
-855.1171448898733
 20
1217.64715883614
 42
0.4142135623731
  0
LWPOLYLINE
  5
414
330
1F
100
AcDbEntity
  8
C-4
  6
Continuous
 62
     7
370
     9
100
AcDbPolyline
 90
        4
 70
     1
 43
1.0
 10
-394.6159538795274
 20
1218.14715883614
 42
0.4142135623731
 10
-395.1159538795273
 20
1218.64715883614
 42
0.4142135623731
 10
-395.6159538795273
 20
1218.14715883614
 42
0.4142135623731
 10
-395.1159538795273
 20
1217.64715883614
 42
0.4142135623731
  0
LINE
  5
415
330
1F
100
AcDbEntity
  8
C-4
  6
Continuous
 62
     7
370
     9
100
AcDbLine
 10
-855.1171448898733
 20
1221.14715883614
 30
0.0
 11
-855.1171448898733
 21
953.6147610110112
 31
0.0
  0
LINE
  5
416
330
1F
100
AcDbEntity
  8
C-4
  6
Continuous
 62
     7
370
     9
100
AcDbLine
 10
-395.1159538795273
 20
1221.14715883614
 30
0.0
 11
-395.1159538795273
 21
953.6147610110112
 31
0.0
  0
TEXT
  5
417
330
1F
100
AcDbEntity
  8
C-4
  6
Continuous
 62
     2
370
   211
100
AcDbText
 10
-657.6165493847003
 20
1229.78715883614
 30
0.0
 40
30.48
  1
460
 41
1.083333333333333
  7
ＭＳ ゴシック
100
AcDbText
  0
LINE
  5
418
330
1F
100
AcDbEntity
  8
C-4
  6
Continuous
 62
     7
370
     9
100
AcDbLine
 10
-852.1162062681464
 20
1143.946503513769
 30
0.0
 11
-852.1162062681464
 21
953.6147610110112
 31
0.0
  0
LINE
  5
419
330
1F
100
AcDbEntity
  8
C-4
  6
Continuous
 62
     7
370
     9
100
AcDbLine
 10
-398.1163976216092
 20
1143.946503513769
 30
0.0
 11
-398.1163976216092
 21
953.6147610110112
 31
0.0
  0
TEXT
  5
41A
330
1F
100
AcDbEntity
  8
C-4
  6
Continuous
 62
     2
370
   211
100
AcDbText
 10
-886.0224661195223
 20
1152.586503513769
 30
0.0
 40
30.48
  1
3
 41
0.9999999999999998
  7
ＭＳ ゴシック
100
AcDbText
  0
TEXT
  5
41B
330
1F
100
AcDbEntity
  8
C-4
  6
Continuous
 62
     2
370
   211
100
AcDbText
 10
-844.3133281310726
 20
1152.586503513769
 30
0.0
 40
30.48
  1
2
 41
0.9999999999999998
  7
ＭＳ ゴシック
100
AcDbText
  0
TEXT
  5
41C
330
1F
100
AcDbEntity
  8
C-4
  6
Continuous
 62
     2
370
   211
100
AcDbText
 10
-422.9275186833119
 20
1152.586503513769
 30
0.0
 40
30.48
  1
2
 41
0.9999999999999998
  7
ＭＳ ゴシック
100
AcDbText
  0
TEXT
  5
41D
330
1F
100
AcDbEntity
  8
C-4
  6
Continuous
 62
     2
370
   211
100
AcDbText
 10
-385.938840568555
 20
1152.586503513769
 30
0.0
 40
30.48
  1
3
 41
0.9999999999999998
  7
ＭＳ ゴシック
100
AcDbText
  0
LINE
  5
41E
330
1F
100
AcDbEntity
  8
C-4
  6
Continuous
 62
     7
370
     9
100
AcDbLine
 10
-892.4042672810012
 20
1140.946503513769
 30
0.0
 11
-852.1162062681464
 21
1140.946503513769
 31
0.0
  0
LINE
  5
41F
330
1F
100
AcDbEntity
  8
C-4
  6
Continuous
 62
     7
370
     9
100
AcDbLine
 10
-398.1163976216092
 20
1140.946503513769
 30
0.0
 11
-364.1398925913535
 21
1140.946503513769
 31
0.0
  0
LINE
  5
420
330
1F
100
AcDbEntity
  8
C-4
  6
Continuous
 62
     7
370
     9
100
AcDbLine
 10
-990.075581689397
 20
508.6154620905089
 30
0.0
 11
-990.075581689397
 21
908.6152971306273
 31
0.0
  0
LINE
  5
421
330
1F
100
AcDbEntity
  8
C-4
  6
Continuous
 62
     7
370
     9
100
AcDbLine
 10
-870.1174814080323
 20
508.6154620905089
 30
0.0
 11
-993.076036978671
 21
508.6154620905089
 31
0.0
  0
LINE
  5
422
330
1F
100
AcDbEntity
  8
C-4
  6
Continuous
 62
     7
370
     9
100
AcDbLine
 10
-870.1174814080323
 20
908.6152971306271
 30
0.0
 11
-993.076036978671
 21
908.6152971306271
 31
0.0
  0
LINE
  5
423
330
1F
100
AcDbEntity
  8
C-4
  6
Continuous
 62
     7
370
     9
100
AcDbLine
 10
-990.075581689397
 20
483.6146372911001
 30
0.0
 11
-990.075581689397
 21
508.6154620905089
 31
0.0
  0
LINE
  5
424
330
1F
100
AcDbEntity
  8
C-4
  6
Continuous
 62
     7
370
     9
100
AcDbLine
 10
-990.075581689397
 20
908.6152971306273
 30
0.0
 11
-990.075581689397
 21
933.6147610110116
 31
0.0
  0
TEXT
  5
425
330
1F
100
AcDbEntity
  8
C-4
  6
Continuous
 62
     2
370
     9
100
AcDbText
 10
-1000.715350745563
 20
509.4824994770167
 30
0.0
 40
30.48
  1
25
 50
90.0
 41
1.0625
  7
ＭＳ ゴシック
100
AcDbText
  0
TEXT
  5
426
330
1F
100
AcDbEntity
  8
C-4
  6
Continuous
 62
     2
370
     9
100
AcDbText
 10
-1000.715350745563
 20
861.2341672214212
 30
0.0
 40
30.48
  1
25
 50
90.0
 41
1.0625
  7
ＭＳ ゴシック
100
AcDbText
  0
TEXT
  5
427
330
1F
100
AcDbEntity
  8
C-4
  6
Continuous
 62
     2
370
     9
100
AcDbText
 10
-1000.71510330574
 20
676.1146372911003
 30
0.0
 40
30.48
  1
400
 50
90.0
 41
1.083333333333333
  7
ＭＳ ゴシック
100
AcDbText
  0
LWPOLYLINE
  5
428
330
1F
100
AcDbEntity
  8
C-4
  6
Continuous
 62
     7
370
     9
100
AcDbPolyline
 90
        4
 70
     1
 43
1.0
 10
-989.5755816893972
 20
508.6154620905089
 42
0.4142135623731
 10
-990.075581689397
 20
509.1154620905089
 42
0.4142135623731
 10
-990.575581689397
 20
508.6154620905089
 42
0.4142135623731
 10
-990.075581689397
 20
508.115462090509
 42
0.4142135623731
  0
LWPOLYLINE
  5
429
330
1F
100
AcDbEntity
  8
C-4
  6
Continuous
 62
     7
370
     9
100
AcDbPolyline
 90
        4
 70
     1
 43
1.0
 10
-989.5755816893972
 20
908.6152971306271
 42
0.4142135623731
 10
-990.075581689397
 20
909.115297130627
 42
0.4142135623731
 10
-990.575581689397
 20
908.6152971306271
 42
0.4142135623731
 10
-990.075581689397
 20
908.1152971306271
 42
0.4142135623731
  0
LWPOLYLINE
  5
42A
330
1F
100
AcDbEntity
  8
C-4
  6
Continuous
 62
     7
370
     9
100
AcDbPolyline
 90
        4
 70
     1
 43
1.0
 10
-989.5755816893972
 20
483.6146372911001
 42
0.4142135623731
 10
-990.075581689397
 20
484.1146372911001
 42
0.4142135623731
 10
-990.575581689397
 20
483.6146372911001
 42
0.4142135623731
 10
-990.075581689397
 20
483.1146372911001
 42
0.4142135623731
  0
LWPOLYLINE
  5
42B
330
1F
100
AcDbEntity
  8
C-4
  6
Continuous
 62
     7
370
     9
100
AcDbPolyline
 90
        4
 70
     1
 43
1.0
 10
-989.5755816893972
 20
933.6147610110115
 42
0.4142135623731
 10
-990.075581689397
 20
934.1147610110114
 42
0.4142135623731
 10
-990.575581689397
 20
933.6147610110115
 42
0.4142135623731
 10
-990.075581689397
 20
933.1147610110115
 42
0.4142135623731
  0
LWPOLYLINE
  5
42C
330
1F
100
AcDbEntity
  8
C-4
  6
Continuous
 62
     7
370
     9
100
AcDbPolyline
 90
        4
 70
     1
 43
1.0
 10
-1056.948663047192
 20
478.6137943461046
 42
0.4142135623731
 10
-1057.448663047192
 20
479.1137943461046
 42
0.4142135623731
 10
-1057.948663047192
 20
478.6137943461046
 42
0.4142135623731
 10
-1057.448663047192
 20
478.1137943461047
 42
0.4142135623731
  0
LWPOLYLINE
  5
42D
330
1F
100
AcDbEntity
  8
C-4
  6
Continuous
 62
     7
370
     9
100
AcDbPolyline
 90
        4
 70
     1
 43
1.0
 10
-1056.948663047192
 20
481.6147329678316
 42
0.4142135623731
 10
-1057.448663047192
 20
482.1147329678316
 42
0.4142135623731
 10
-1057.948663047192
 20
481.6147329678316
 42
0.4142135623731
 10
-1057.448663047192
 20
481.1147329678317
 42
0.4142135623731
  0
LINE
  5
42E
330
1F
100
AcDbEntity
  8
C-4
  6
Continuous
 62
     7
370
     9
100
AcDbLine
 10
-1057.448663047192
 20
481.6147329678316
 30
0.0
 11
-1057.448663047192
 21
483.6146372911001
 31
0.0
  0
LWPOLYLINE
  5
42F
330
1F
100
AcDbEntity
  8
C-4
  6
Continuous
 62
     7
370
     9
100
AcDbPolyline
 90
        4
 70
     1
 43
1.0
 10
-1056.948663047192
 20
483.6146372911001
 42
0.4142135623731
 10
-1057.448663047192
 20
484.1146372911001
 42
0.4142135623731
 10
-1057.948663047192
 20
483.6146372911001
 42
0.4142135623731
 10
-1057.448663047192
 20
483.1146372911001
 42
0.4142135623731
  0
LINE
  5
430
330
1F
100
AcDbEntity
  8
C-4
  6
Continuous
 62
     7
370
     9
100
AcDbLine
 10
-1060.448663047192
 20
483.6146372911001
 30
0.0
 11
-870.1169205444339
 21
483.6146372911001
 31
0.0
  0
LINE
  5
431
330
1F
100
AcDbEntity
  8
C-4
  6
Continuous
 62
     7
370
     9
100
AcDbLine
 10
-1057.448663047192
 20
483.6146372911001
 30
0.0
 11
-1057.448663047192
 21
933.6147610110116
 31
0.0
  0
LWPOLYLINE
  5
432
330
1F
100
AcDbEntity
  8
C-4
  6
Continuous
 62
     7
370
     9
100
AcDbPolyline
 90
        4
 70
     1
 43
1.0
 10
-1056.948663047192
 20
933.6147610110115
 42
0.4142135623731
 10
-1057.448663047192
 20
934.1147610110114
 42
0.4142135623731
 10
-1057.948663047192
 20
933.6147610110115
 42
0.4142135623731
 10
-1057.448663047192
 20
933.1147610110115
 42
0.4142135623731
  0
LINE
  5
433
330
1F
100
AcDbEntity
  8
C-4
  6
Continuous
 62
     7
370
     9
100
AcDbLine
 10
-1060.448663047192
 20
933.6147610110116
 30
0.0
 11
-870.1169205444339
 21
933.6147610110116
 31
0.0
  0
TEXT
  5
434
330
1F
100
AcDbEntity
  8
C-4
  6
Continuous
 62
     2
370
   211
100
AcDbText
 10
-1069.088663047192
 20
676.1146991510557
 30
0.0
 40
30.48
  1
450
 50
90.0
 41
1.083333333333333
  7
ＭＳ ゴシック
100
AcDbText
  0
LINE
  5
435
330
1F
100
AcDbEntity
  8
C-4
  6
Continuous
 62
     7
370
     9
100
AcDbLine
 10
-1057.448663047192
 20
933.6147610110116
 30
0.0
 11
-1057.448663047192
 21
935.6145416143688
 31
0.0
  0
LWPOLYLINE
  5
436
330
1F
100
AcDbEntity
  8
C-4
  6
Continuous
 62
     7
370
     9
100
AcDbPolyline
 90
        4
 70
     1
 43
1.0
 10
-1056.948663047192
 20
935.6145416143688
 42
0.4142135623731
 10
-1057.448663047192
 20
936.1145416143688
 42
0.4142135623731
 10
-1057.948663047192
 20
935.6145416143688
 42
0.4142135623731
 10
-1057.448663047192
 20
935.1145416143688
 42
0.4142135623731
  0
LWPOLYLINE
  5
437
330
1F
100
AcDbEntity
  8
C-4
  6
Continuous
 62
     7
370
     9
100
AcDbPolyline
 90
        4
 70
     1
 43
1.0
 10
-1056.948663047192
 20
938.6149853564507
 42
0.4142135623731
 10
-1057.448663047192
 20
939.1149853564507
 42
0.4142135623731
 10
-1057.948663047192
 20
938.6149853564507
 42
0.4142135623731
 10
-1057.448663047192
 20
938.1149853564507
 42
0.4142135623731
  0
LINE
  5
438
330
1F
100
AcDbEntity
  8
C-4
  6
Continuous
 62
     7
370
     9
100
AcDbLine
 10
-1134.649318369563
 20
478.6137943461046
 30
0.0
 11
-1134.649318369563
 21
938.6149853564507
 31
0.0
  0
LWPOLYLINE
  5
439
330
1F
100
AcDbEntity
  8
C-4
  6
Continuous
 62
     7
370
     9
100
AcDbPolyline
 90
        4
 70
     1
 43
1.0
 10
-1134.149318369563
 20
478.6137943461046
 42
0.4142135623731
 10
-1134.649318369563
 20
479.1137943461046
 42
0.4142135623731
 10
-1135.149318369563
 20
478.6137943461046
 42
0.4142135623731
 10
-1134.649318369563
 20
478.1137943461047
 42
0.4142135623731
  0
LWPOLYLINE
  5
43A
330
1F
100
AcDbEntity
  8
C-4
  6
Continuous
 62
     7
370
     9
100
AcDbPolyline
 90
        4
 70
     1
 43
1.0
 10
-1134.149318369563
 20
938.6149853564507
 42
0.4142135623731
 10
-1134.649318369563
 20
939.1149853564507
 42
0.4142135623731
 10
-1135.149318369563
 20
938.6149853564507
 42
0.4142135623731
 10
-1134.649318369563
 20
938.1149853564507
 42
0.4142135623731
  0
LINE
  5
43B
330
1F
100
AcDbEntity
  8
C-4
  6
Continuous
 62
     7
370
     9
100
AcDbLine
 10
-1137.649318369563
 20
478.6137943461046
 30
0.0
 11
-870.1169205444339
 21
478.6137943461046
 31
0.0
  0
LINE
  5
43C
330
1F
100
AcDbEntity
  8
C-4
  6
Continuous
 62
     7
370
     9
100
AcDbLine
 10
-1137.649318369563
 20
938.6149853564507
 30
0.0
 11
-870.1169205444339
 21
938.6149853564507
 31
0.0
  0
TEXT
  5
43D
330
1F
100
AcDbEntity
  8
C-4
  6
Continuous
 62
     2
370
   211
100
AcDbText
 10
-1146.289318369563
 20
676.1143898512776
 30
0.0
 40
30.48
  1
460
 50
90.0
 41
1.083333333333333
  7
ＭＳ ゴシック
100
AcDbText
  0
LINE
  5
43E
330
1F
100
AcDbEntity
  8
C-4
  6
Continuous
 62
     7
370
     9
100
AcDbLine
 10
-1060.448663047192
 20
481.6147329678316
 30
0.0
 11
-870.1169205444339
 21
481.6147329678316
 31
0.0
  0
LINE
  5
43F
330
1F
100
AcDbEntity
  8
C-4
  6
Continuous
 62
     7
370
     9
100
AcDbLine
 10
-1060.448663047192
 20
935.6145416143688
 30
0.0
 11
-870.1169205444339
 21
935.6145416143688
 31
0.0
  0
TEXT
  5
440
330
1F
100
AcDbEntity
  8
C-4
  6
Continuous
 62
     2
370
   211
100
AcDbText
 10
-1069.088663047192
 20
447.7084731164558
 30
0.0
 40
30.48
  1
3
 50
90.0
 41
0.9999999999999998
  7
ＭＳ ゴシック
100
AcDbText
  0
TEXT
  5
441
330
1F
100
AcDbEntity
  8
C-4
  6
Continuous
 62
     2
370
   211
100
AcDbText
 10
-1069.088663047192
 20
489.4176111049054
 30
0.0
 40
30.48
  1
2
 50
90.0
 41
0.9999999999999998
  7
ＭＳ ゴシック
100
AcDbText
  0
TEXT
  5
442
330
1F
100
AcDbEntity
  8
C-4
  6
Continuous
 62
     2
370
   211
100
AcDbText
 10
-1069.088663047192
 20
910.8034205526661
 30
0.0
 40
30.48
  1
2
 50
90.0
 41
0.9999999999999998
  7
ＭＳ ゴシック
100
AcDbText
  0
TEXT
  5
443
330
1F
100
AcDbEntity
  8
C-4
  6
Continuous
 62
     2
370
   211
100
AcDbText
 10
-1069.088663047192
 20
947.792098667423
 30
0.0
 40
30.48
  1
3
 50
90.0
 41
0.9999999999999998
  7
ＭＳ ゴシック
100
AcDbText
  0
LINE
  5
444
330
1F
100
AcDbEntity
  8
C-4
  6
Continuous
 62
     7
370
     9
100
AcDbLine
 10
-1057.448663047192
 20
441.3266719549768
 30
0.0
 11
-1057.448663047192
 21
481.6147329678316
 31
0.0
  0
LINE
  5
445
330
1F
100
AcDbEntity
  8
C-4
  6
Continuous
 62
     7
370
     9
100
AcDbLine
 10
-1057.448663047192
 20
935.6145416143688
 30
0.0
 11
-1057.448663047192
 21
969.5910466446246
 31
0.0
  0
LINE
  5
446
330
1F
100
AcDbEntity
  8
C-9
  6
Continuous
 62
     3
370
     9
100
AcDbLine
 10
-486.3656373627538
 20
943.6149293798338
 30
0.0
 11
-487.6156373627538
 21
943.6149293798338
 31
0.0
  0
LINE
  5
447
330
1F
100
AcDbEntity
  8
C-9
  6
Continuous
 62
     3
370
     9
100
AcDbLine
 10
-486.3656373627538
 20
943.6149293798338
 30
0.0
 11
-486.3656373627538
 21
972.6149136442076
 31
0.0
  0
LINE
  5
448
330
1F
100
AcDbEntity
  8
C-9
  6
Continuous
 62
     3
370
     9
100
AcDbLine
 10
-487.620306552206
 20
939.6149160283916
 30
0.0
 11
-487.1071534760341
 21
939.6149160283916
 31
0.0
  0
LINE
  5
449
330
1F
100
AcDbEntity
  8
C-9
  6
Continuous
 62
     3
370
     9
100
AcDbLine
 10
-503.1155763275962
 20
939.6149160283916
 30
0.0
 11
-502.6156068451752
 21
939.6149160283916
 31
0.0
  0
LINE
  5
44A
330
1F
100
AcDbEntity
  8
C-9
  6
Continuous
 62
     3
370
     9
100
AcDbLine
 10
-503.8656983979087
 20
943.6149293798338
 30
0.0
 11
-502.6157289154872
 21
943.6149293798338
 31
0.0
  0
LINE
  5
44B
330
1F
100
AcDbEntity
  8
C-9
  6
Continuous
 62
     3
370
     9
100
AcDbLine
 10
-503.8656983979087
 20
943.6149293798338
 30
0.0
 11
-503.8656983979087
 21
972.6149136442076
 31
0.0
  0
LINE
  5
44C
330
1F
100
AcDbEntity
  8
C-9
  6
Continuous
 62
     3
370
     9
100
AcDbLine
 10
-486.3656373627538
 20
972.6149136442076
 30
0.0
 11
-503.8656983979087
 21
972.6149136442076
 31
0.0
  0
LINE
  5
44D
330
1F
100
AcDbEntity
  8
C-9
  6
JWW_DASHED2
 62
     3
370
     9
100
AcDbLine
 10
-488.3656678803305
 20
943.4690138715622
 30
0.0
 11
-488.3656678803305
 21
972.6149136442076
 31
0.0
  0
LINE
  5
44E
330
1F
100
AcDbEntity
  8
C-9
  6
JWW_DASHED2
 62
     3
370
     9
100
AcDbLine
 10
-501.8656983979105
 20
943.4690138715622
 30
0.0
 11
-501.8656983979105
 21
972.6149136442076
 31
0.0
  0
LINE
  5
44F
330
1F
100
AcDbEntity
  8
C-9
  6
JWW_CENTER2
 62
     7
370
     9
100
AcDbLine
 10
-495.1156373627538
 20
930.1467348951213
 30
0.0
 11
-495.1156373627538
 21
977.5471341031915
 31
0.0
  0
LINE
  5
450
330
1F
100
AcDbEntity
  8
C-9
  6
JWW_CENTER2
 62
     7
370
     9
100
AcDbLine
 10
-500.8916383393154
 20
962.6148678678386
 30
0.0
 11
-489.3396058686136
 21
962.6148678678386
 31
0.0
  0
ARC
  5
451
330
1F
100
AcDbEntity
  8
C-9
  6
Continuous
 62
     3
370
     9
100
AcDbCircle
 10
-487.1155763275971
 20
937.614934148204
 30
0.0
 40
1.999999642372131
100
AcDbArc
 50
29.99926757812499
 51
89.75836181640622
  0
ARC
  5
452
330
1F
100
AcDbEntity
  8
C-9
  6
Continuous
 62
     3
370
     9
100
AcDbCircle
 10
-487.6156373627538
 20
941.614910306347
 30
0.0
 40
1.999999642372131
100
AcDbArc
 50
90.0
 51
269.86669921875
  0
ARC
  5
453
330
1F
100
AcDbEntity
  8
C-9
  6
Continuous
 62
     3
370
     9
100
AcDbCircle
 10
-503.1155763275962
 20
937.614934148204
 30
0.0
 40
1.999999642372131
100
AcDbArc
 50
90.27595520019531
 51
150.0004730224609
  0
ARC
  5
454
330
1F
100
AcDbEntity
  8
C-9
  6
Continuous
 62
     3
370
     9
100
AcDbCircle
 10
-502.6157289154872
 20
941.614910306347
 30
0.0
 40
1.999999642372131
100
AcDbArc
 50
270.0
 51
90.0
  0
CIRCLE
  5
455
330
1F
100
AcDbEntity
  8
C-9
  6
Continuous
 62
     3
370
     9
100
AcDbCircle
 10
-495.1156373627538
 20
962.6148678678386
 30
0.0
 40
4.249999523162842
  0
LINE
  5
456
330
1F
100
AcDbEntity
  8
C-9
  6
Continuous
 62
     3
370
     9
100
AcDbLine
 10
-486.3656373627538
 20
473.6144779821815
 30
0.0
 11
-487.6156373627538
 21
473.6144779821815
 31
0.0
  0
LINE
  5
457
330
1F
100
AcDbEntity
  8
C-9
  6
Continuous
 62
     3
370
     9
100
AcDbLine
 10
-486.3656373627538
 20
473.6144779821815
 30
0.0
 11
-486.3656373627538
 21
444.6144932409733
 31
0.0
  0
LINE
  5
458
330
1F
100
AcDbEntity
  8
C-9
  6
Continuous
 62
     3
370
     9
100
AcDbLine
 10
-487.620306552206
 20
477.6144932409705
 30
0.0
 11
-487.1071534760341
 21
477.6144932409705
 31
0.0
  0
LINE
  5
459
330
1F
100
AcDbEntity
  8
C-9
  6
Continuous
 62
     3
370
     9
100
AcDbLine
 10
-503.1155763275962
 20
477.6144932409705
 30
0.0
 11
-502.6156068451752
 21
477.6144932409705
 31
0.0
  0
LINE
  5
45A
330
1F
100
AcDbEntity
  8
C-9
  6
Continuous
 62
     3
370
     9
100
AcDbLine
 10
-503.8656983979087
 20
473.6144779821815
 30
0.0
 11
-502.6157289154872
 21
473.6144779821815
 31
0.0
  0
LINE
  5
45B
330
1F
100
AcDbEntity
  8
C-9
  6
Continuous
 62
     3
370
     9
100
AcDbLine
 10
-503.8656983979087
 20
473.6144779821815
 30
0.0
 11
-503.8656983979087
 21
444.6144932409733
 31
0.0
  0
LINE
  5
45C
330
1F
100
AcDbEntity
  8
C-9
  6
Continuous
 62
     3
370
     9
100
AcDbLine
 10
-486.3656373627538
 20
444.6144932409733
 30
0.0
 11
-503.8656983979087
 21
444.6144932409733
 31
0.0
  0
LINE
  5
45D
330
1F
100
AcDbEntity
  8
C-9
  6
JWW_DASHED2
 62
     3
370
     9
100
AcDbLine
 10
-488.3656678803305
 20
473.7603825231998
 30
0.0
 11
-488.3656678803305
 21
444.6144932409733
 31
0.0
  0
LINE
  5
45E
330
1F
100
AcDbEntity
  8
C-9
  6
JWW_DASHED2
 62
     3
370
     9
100
AcDbLine
 10
-501.8656983979105
 20
473.7603825231998
 30
0.0
 11
-501.8656983979105
 21
444.6144932409733
 31
0.0
  0
LINE
  5
45F
330
1F
100
AcDbEntity
  8
C-9
  6
JWW_CENTER2
 62
     7
370
     9
100
AcDbLine
 10
-500.8916383393154
 20
454.6145390173377
 30
0.0
 11
-489.3396058686136
 21
454.6145390173377
 31
0.0
  0
LINE
  5
460
330
1F
100
AcDbEntity
  8
C-9
  6
JWW_CENTER2
 62
     7
370
     9
100
AcDbLine
 10
-495.1156373627538
 20
487.0826634069898
 30
0.0
 11
-495.1156373627538
 21
439.6822727819871
 31
0.0
  0
ARC
  5
461
330
1F
100
AcDbEntity
  8
C-9
  6
Continuous
 62
     3
370
     9
100
AcDbCircle
 10
-487.1155763275971
 20
479.6144627233924
 30
0.0
 40
1.999999642372131
100
AcDbArc
 50
270.2416229248047
 51
330.0007171630859
  0
ARC
  5
462
330
1F
100
AcDbEntity
  8
C-9
  6
Continuous
 62
     3
370
     9
100
AcDbCircle
 10
-487.6156373627538
 20
475.6144932409724
 30
0.0
 40
1.999999642372131
100
AcDbArc
 50
90.13328552246094
 51
270.0
  0
ARC
  5
463
330
1F
100
AcDbEntity
  8
C-9
  6
Continuous
 62
     3
370
     9
100
AcDbCircle
 10
-503.1155763275962
 20
479.6144627233924
 30
0.0
 40
1.999999642372131
100
AcDbArc
 50
209.99951171875
 51
269.7240295410156
  0
ARC
  5
464
330
1F
100
AcDbEntity
  8
C-9
  6
Continuous
 62
     3
370
     9
100
AcDbCircle
 10
-502.6157289154872
 20
475.6144932409724
 30
0.0
 40
1.999999642372131
100
AcDbArc
 50
270.0
 51
90.0
  0
CIRCLE
  5
465
330
1F
100
AcDbEntity
  8
C-9
  6
Continuous
 62
     3
370
     9
100
AcDbCircle
 10
-495.1156373627538
 20
454.6145390173377
 30
0.0
 40
4.249999523162842
  0
LINE
  5
466
330
1F
100
AcDbEntity
  8
C-9
  6
Continuous
 62
     3
370
     9
100
AcDbLine
 10
-746.3668428070895
 20
943.6149293798338
 30
0.0
 11
-747.6168428070895
 21
943.6149293798338
 31
0.0
  0
LINE
  5
467
330
1F
100
AcDbEntity
  8
C-9
  6
Continuous
 62
     3
370
     9
100
AcDbLine
 10
-746.3668428070895
 20
943.6149293798338
 30
0.0
 11
-746.3668428070895
 21
972.6149136442076
 31
0.0
  0
LINE
  5
468
330
1F
100
AcDbEntity
  8
C-9
  6
Continuous
 62
     3
370
     9
100
AcDbLine
 10
-747.6215119965417
 20
939.6149160283916
 30
0.0
 11
-747.1083589203698
 21
939.6149160283916
 31
0.0
  0
LINE
  5
469
330
1F
100
AcDbEntity
  8
C-9
  6
Continuous
 62
     3
370
     9
100
AcDbLine
 10
-763.1167817719319
 20
939.6149160283916
 30
0.0
 11
-762.6168122895109
 21
939.6149160283916
 31
0.0
  0
LINE
  5
46A
330
1F
100
AcDbEntity
  8
C-9
  6
Continuous
 62
     3
370
     9
100
AcDbLine
 10
-763.8669038422444
 20
943.6149293798338
 30
0.0
 11
-762.616934359823
 21
943.6149293798338
 31
0.0
  0
LINE
  5
46B
330
1F
100
AcDbEntity
  8
C-9
  6
Continuous
 62
     3
370
     9
100
AcDbLine
 10
-763.8669038422444
 20
943.6149293798338
 30
0.0
 11
-763.8669038422444
 21
972.6149136442076
 31
0.0
  0
LINE
  5
46C
330
1F
100
AcDbEntity
  8
C-9
  6
Continuous
 62
     3
370
     9
100
AcDbLine
 10
-746.3668428070895
 20
972.6149136442076
 30
0.0
 11
-763.8669038422444
 21
972.6149136442076
 31
0.0
  0
LINE
  5
46D
330
1F
100
AcDbEntity
  8
C-9
  6
JWW_DASHED2
 62
     3
370
     9
100
AcDbLine
 10
-748.3668733246662
 20
943.4690138715622
 30
0.0
 11
-748.3668733246662
 21
972.6149136442076
 31
0.0
  0
LINE
  5
46E
330
1F
100
AcDbEntity
  8
C-9
  6
JWW_DASHED2
 62
     3
370
     9
100
AcDbLine
 10
-761.8669038422462
 20
943.4690138715622
 30
0.0
 11
-761.8669038422462
 21
972.6149136442076
 31
0.0
  0
LINE
  5
46F
330
1F
100
AcDbEntity
  8
C-9
  6
JWW_CENTER2
 62
     7
370
     9
100
AcDbLine
 10
-755.1168428070895
 20
930.1467348951213
 30
0.0
 11
-755.1168428070895
 21
977.5471341031915
 31
0.0
  0
LINE
  5
470
330
1F
100
AcDbEntity
  8
C-9
  6
JWW_CENTER2
 62
     7
370
     9
100
AcDbLine
 10
-760.8928437836511
 20
962.6148678678386
 30
0.0
 11
-749.3408113129493
 21
962.6148678678386
 31
0.0
  0
ARC
  5
471
330
1F
100
AcDbEntity
  8
C-9
  6
Continuous
 62
     3
370
     9
100
AcDbCircle
 10
-747.1167817719328
 20
937.614934148204
 30
0.0
 40
1.999999642372131
100
AcDbArc
 50
29.99926757812499
 51
89.75836181640622
  0
ARC
  5
472
330
1F
100
AcDbEntity
  8
C-9
  6
Continuous
 62
     3
370
     9
100
AcDbCircle
 10
-747.6168428070895
 20
941.614910306347
 30
0.0
 40
1.999999642372131
100
AcDbArc
 50
90.0
 51
269.86669921875
  0
ARC
  5
473
330
1F
100
AcDbEntity
  8
C-9
  6
Continuous
 62
     3
370
     9
100
AcDbCircle
 10
-763.1167817719319
 20
937.614934148204
 30
0.0
 40
1.999999642372131
100
AcDbArc
 50
90.27595520019531
 51
150.0004730224609
  0
ARC
  5
474
330
1F
100
AcDbEntity
  8
C-9
  6
Continuous
 62
     3
370
     9
100
AcDbCircle
 10
-762.616934359823
 20
941.614910306347
 30
0.0
 40
1.999999642372131
100
AcDbArc
 50
270.0
 51
90.0
  0
CIRCLE
  5
475
330
1F
100
AcDbEntity
  8
C-9
  6
Continuous
 62
     3
370
     9
100
AcDbCircle
 10
-755.1168428070895
 20
962.6148678678386
 30
0.0
 40
4.249999523162842
  0
LINE
  5
476
330
1F
100
AcDbEntity
  8
C-9
  6
Continuous
 62
     3
370
     9
100
AcDbLine
 10
-746.3668428070895
 20
473.6144779821815
 30
0.0
 11
-747.6168428070895
 21
473.6144779821815
 31
0.0
  0
LINE
  5
477
330
1F
100
AcDbEntity
  8
C-9
  6
Continuous
 62
     3
370
     9
100
AcDbLine
 10
-746.3668428070895
 20
473.6144779821815
 30
0.0
 11
-746.3668428070895
 21
444.6144932409733
 31
0.0
  0
LINE
  5
478
330
1F
100
AcDbEntity
  8
C-9
  6
Continuous
 62
     3
370
     9
100
AcDbLine
 10
-747.6215119965417
 20
477.6144932409705
 30
0.0
 11
-747.1083589203698
 21
477.6144932409705
 31
0.0
  0
LINE
  5
479
330
1F
100
AcDbEntity
  8
C-9
  6
Continuous
 62
     3
370
     9
100
AcDbLine
 10
-763.1167817719319
 20
477.6144932409705
 30
0.0
 11
-762.6168122895109
 21
477.6144932409705
 31
0.0
  0
LINE
  5
47A
330
1F
100
AcDbEntity
  8
C-9
  6
Continuous
 62
     3
370
     9
100
AcDbLine
 10
-763.8669038422444
 20
473.6144779821815
 30
0.0
 11
-762.616934359823
 21
473.6144779821815
 31
0.0
  0
LINE
  5
47B
330
1F
100
AcDbEntity
  8
C-9
  6
Continuous
 62
     3
370
     9
100
AcDbLine
 10
-763.8669038422444
 20
473.6144779821815
 30
0.0
 11
-763.8669038422444
 21
444.6144932409733
 31
0.0
  0
LINE
  5
47C
330
1F
100
AcDbEntity
  8
C-9
  6
Continuous
 62
     3
370
     9
100
AcDbLine
 10
-746.3668428070895
 20
444.6144932409733
 30
0.0
 11
-763.8669038422444
 21
444.6144932409733
 31
0.0
  0
LINE
  5
47D
330
1F
100
AcDbEntity
  8
C-9
  6
JWW_DASHED2
 62
     3
370
     9
100
AcDbLine
 10
-748.3668733246662
 20
473.7603825231998
 30
0.0
 11
-748.3668733246662
 21
444.6144932409733
 31
0.0
  0
LINE
  5
47E
330
1F
100
AcDbEntity
  8
C-9
  6
JWW_DASHED2
 62
     3
370
     9
100
AcDbLine
 10
-761.8669038422462
 20
473.7603825231998
 30
0.0
 11
-761.8669038422462
 21
444.6144932409733
 31
0.0
  0
LINE
  5
47F
330
1F
100
AcDbEntity
  8
C-9
  6
JWW_CENTER2
 62
     7
370
     9
100
AcDbLine
 10
-760.8928437836511
 20
454.6145390173377
 30
0.0
 11
-749.3408113129493
 21
454.6145390173377
 31
0.0
  0
LINE
  5
480
330
1F
100
AcDbEntity
  8
C-9
  6
JWW_CENTER2
 62
     7
370
     9
100
AcDbLine
 10
-755.1168428070895
 20
487.0826634069898
 30
0.0
 11
-755.1168428070895
 21
439.6822727819871
 31
0.0
  0
ARC
  5
481
330
1F
100
AcDbEntity
  8
C-9
  6
Continuous
 62
     3
370
     9
100
AcDbCircle
 10
-747.1167817719328
 20
479.6144627233924
 30
0.0
 40
1.999999642372131
100
AcDbArc
 50
270.2416229248047
 51
330.0007171630859
  0
ARC
  5
482
330
1F
100
AcDbEntity
  8
C-9
  6
Continuous
 62
     3
370
     9
100
AcDbCircle
 10
-747.6168428070895
 20
475.6144932409724
 30
0.0
 40
1.999999642372131
100
AcDbArc
 50
90.13328552246094
 51
270.0
  0
ARC
  5
483
330
1F
100
AcDbEntity
  8
C-9
  6
Continuous
 62
     3
370
     9
100
AcDbCircle
 10
-763.1167817719319
 20
479.6144627233924
 30
0.0
 40
1.999999642372131
100
AcDbArc
 50
209.99951171875
 51
269.7240295410156
  0
ARC
  5
484
330
1F
100
AcDbEntity
  8
C-9
  6
Continuous
 62
     3
370
     9
100
AcDbCircle
 10
-762.616934359823
 20
475.6144932409724
 30
0.0
 40
1.999999642372131
100
AcDbArc
 50
270.0
 51
90.0
  0
CIRCLE
  5
485
330
1F
100
AcDbEntity
  8
C-9
  6
Continuous
 62
     3
370
     9
100
AcDbCircle
 10
-755.1168428070895
 20
454.6145390173377
 30
0.0
 40
4.249999523162842
  0
LINE
  5
486
330
1F
100
AcDbEntity
  8
D-5
  6
Continuous
 62
     2
370
     9
100
AcDbLine
 10
151.1137299566143
 20
-453.1040845293791
 30
0.0
 11
-73.8860411615498
 21
-453.1040845293791
 31
0.0
  0
LINE
  5
487
330
1F
100
AcDbEntity
  8
D-5
  6
Continuous
 62
     2
370
     9
100
AcDbLine
 10
151.1137299566143
 20
-403.1039212126524
 30
0.0
 11
151.1137299566143
 21
-453.1040845293791
 31
0.0
  0
LINE
  5
488
330
1F
100
AcDbEntity
  8
D-5
  6
Continuous
 62
     2
370
     9
100
AcDbLine
 10
-73.8860411615498
 20
-403.1039212126524
 30
0.0
 11
151.1137299566143
 21
-403.1039212126524
 31
0.0
  0
LINE
  5
489
330
1F
100
AcDbEntity
  8
D-5
  6
Continuous
 62
     2
370
     9
100
AcDbLine
 10
-73.8860411615498
 20
-453.1040845293791
 30
0.0
 11
-73.8860411615498
 21
-403.1039212126524
 31
0.0
  0
TEXT
  5
48A
330
1F
100
AcDbEntity
  8
D-5
  6
Continuous
 62
     2
370
     9
100
AcDbText
 10
87.91571665095006
 20
-765.3841721052916
 30
0.0
 40
30.48
  1
　　　サイドバー　ＳＵＳ３０４
 41
1.116666666666667
  7
ＭＳ ゴシック
100
AcDbText
  0
TEXT
  5
48B
330
1F
100
AcDbEntity
  8
D-5
  6
Continuous
 62
     2
370
     9
100
AcDbText
 10
-26.38649892522167
 20
-442.4638198847563
 30
0.0
 40
30.48
  1
仕　様
 41
1.083333333333333
  7
ＭＳ ゴシック
100
AcDbText
  0
TEXT
  5
48C
330
1F
100
AcDbEntity
  8
D-5
  6
Continuous
 62
     2
370
     9
100
AcDbText
 10
87.91571665095006
 20
-635.3842293257505
 30
0.0
 40
30.48
  1
材質：メインバー　ＳＵＳ３０４　＠１４
 41
1.118421052631579
  7
ＭＳ ゴシック
100
AcDbText
  0
TEXT
  5
48D
330
1F
100
AcDbEntity
  8
D-5
  6
Continuous
 62
     2
370
     9
100
AcDbText
 10
87.91571665095006
 20
-700.3839622969418
 30
0.0
 40
30.48
  1
　　　クロスバー　ＳＵＳ３０４　＠１００
 41
1.11875
  7
ＭＳ ゴシック
100
AcDbText
  0
TEXT
  5
48E
330
1F
100
AcDbEntity
  8
D-5
  6
Continuous
 62
     2
370
     9
100
AcDbText
 10
28.20380258845006
 20
-505.3843008513243
 30
0.0
 40
30.48
  1
ステンレス製　細目ノンスリップタイプ（ローレット模様）
 41
1.12037037037037
  7
ＭＳ ゴシック
100
AcDbText
  0
TEXT
  5
48F
330
1F
100
AcDbEntity
  8
D-5
  6
Continuous
 62
     2
370
     9
100
AcDbText
 10
28.20380258845006
 20
-570.3842674727232
 30
0.0
 40
30.48
  1
グレーチング（すきま６mm）　ＺＱ－Ｈ－２０　４５０×４５０×２０
 41
1.12109375
  7
ＭＳ ゴシック
100
AcDbText
  0
TEXT
  5
490
330
1F
100
AcDbEntity
  8
D-5
  6
Continuous
 62
     2
370
     9
100
AcDbText
 10
28.20380258845006
 20
-829.7527634200114
 30
0.0
 40
30.48
  1
ステンレス製受枠　ＲＬ－２０（四方枠）
 41
1.118421052631579
  7
ＭＳ ゴシック
100
AcDbText
  0
TEXT
  5
491
330
1F
100
AcDbEntity
  8
D-5
  6
Continuous
 62
     2
370
     9
100
AcDbText
 10
87.91571665095006
 20
-884.7537552413005
 30
0.0
 40
30.48
  1
材質：ステンレス鋼板ｔ＝３．０（ＳＵＳ３０４）
 41
1.119565217391304
  7
ＭＳ ゴシック
100
AcDbText
  0
TEXT
  5
492
330
1F
100
AcDbEntity
  8
D-5
  6
Continuous
 62
     2
370
     9
100
AcDbText
 10
87.91571665095006
 20
-994.7528397139567
 30
0.0
 40
30.48
  1
施工場所の状況に合わせて、アンカーをプライヤー等で折り曲げてご使用ください。
 41
1.121710526315789
  7
ＭＳ ゴシック
100
AcDbText
  0
LINE
  5
493
330
1F
100
AcDbEntity
  8
D-2
  6
Continuous
 62
     3
370
     9
100
AcDbLine
 10
-1002.335163509198
 20
-280.6031981277647
 30
0.0
 11
-1002.335163509198
 21
-380.6034455675871
 31
0.0
  0
LINE
  5
494
330
1F
100
AcDbEntity
  8
D-2
  6
Continuous
 62
     3
370
     9
100
AcDbLine
 10
-1002.335163509198
 20
-380.6034455675871
 30
0.0
 11
-1017.335212997162
 21
-380.6034455675871
 31
0.0
  0
LINE
  5
495
330
1F
100
AcDbEntity
  8
D-2
  6
Continuous
 62
     3
370
     9
100
AcDbLine
 10
-1017.335212997162
 20
-280.6031981277647
 30
0.0
 11
-1002.335163509198
 21
-280.6031981277647
 31
0.0
  0
LINE
  5
496
330
1F
100
AcDbEntity
  8
D-2
  6
Continuous
 62
     3
370
     9
100
AcDbLine
 10
-1017.335212997162
 20
-280.6031981277647
 30
0.0
 11
-1017.335212997162
 21
-380.6034455675871
 31
0.0
  0
TEXT
  5
497
330
1F
100
AcDbEntity
  8
D-4
  6
Continuous
 62
     2
370
     9
100
AcDbText
 10
-1700.870960128309
 20
-33.8017796061731
 30
0.0
 40
30.48
  1
□450
 41
1.1
  7
ＭＳ ゴシック
100
AcDbText
  0
TEXT
  5
498
330
1F
100
AcDbEntity
  8
D-4
  6
Continuous
 62
     2
370
     9
100
AcDbText
 10
-1700.870960128309
 20
-142.5539323326299
 30
0.0
 40
30.48
  1
□400
 41
1.1
  7
ＭＳ ゴシック
100
AcDbText
  0
LINE
  5
499
330
1F
100
AcDbEntity
  8
D-2
  6
Continuous
 62
     3
370
     9
100
AcDbLine
 10
-1017.335212997162
 20
-280.6031981277647
 30
0.0
 11
-1700.002781307049
 21
-280.6031981277647
 31
0.0
  0
LINE
  5
49A
330
1F
100
AcDbEntity
  8
D-2
  6
Continuous
 62
     3
370
     9
100
AcDbLine
 10
-1017.335212997162
 20
-380.6034455675871
 30
0.0
 11
-1700.002781307049
 21
-380.6034455675871
 31
0.0
  0
LINE
  5
49B
330
1F
100
AcDbEntity
  8
D-2
  6
Continuous
 62
     3
370
     9
100
AcDbLine
 10
-1700.002781307049
 20
-287.6032707101126
 30
0.0
 11
-1017.335212997162
 21
-287.6032707101126
 31
0.0
  0
LINE
  5
49C
330
1F
100
AcDbEntity
  8
D-4
  6
Continuous
 62
     7
370
     9
100
AcDbLine
 10
-1536.830996619849
 20
-280.6031981277647
 30
0.0
 11
-1536.830996619849
 21
-380.6034455675871
 31
0.0
  0
LWPOLYLINE
  5
49D
330
1F
100
AcDbEntity
  8
D-4
  6
Continuous
 62
     7
370
     9
100
AcDbPolyline
 90
        4
 70
     1
 43
1.0
 10
-1536.330996619849
 20
-280.6031981277647
 42
0.4142135623731
 10
-1536.830996619849
 20
-280.1031981277647
 42
0.4142135623731
 10
-1537.33099661985
 20
-280.6031981277647
 42
0.4142135623731
 10
-1536.830996619849
 20
-281.1031981277647
 42
0.4142135623731
  0
LWPOLYLINE
  5
49E
330
1F
100
AcDbEntity
  8
D-4
  6
Continuous
 62
     7
370
     9
100
AcDbPolyline
 90
        4
 70
     1
 43
1.0
 10
-1536.330996619849
 20
-380.6034455675871
 42
0.4142135623731
 10
-1536.830996619849
 20
-380.1034455675871
 42
0.4142135623731
 10
-1537.33099661985
 20
-380.6034455675871
 42
0.4142135623731
 10
-1536.830996619849
 20
-381.1034455675871
 42
0.4142135623731
  0
TEXT
  5
49F
330
1F
100
AcDbEntity
  8
D-4
  6
Continuous
 62
     2
370
   211
100
AcDbText
 10
-1548.47099661985
 20
-351.8533218476759
 30
0.0
 40
30.48
  1
20
 50
90.0
 41
1.0625
  7
ＭＳ ゴシック
100
AcDbText
  0
LINE
  5
4A0
330
1F
100
AcDbEntity
  8
D-2
  6
Continuous
 62
     3
370
     9
100
AcDbLine
 10
-1720.002579891034
 20
-345.6659553487825
 30
0.0
 11
-1680.002396785565
 21
-315.6653144796418
 31
0.0
  0
LINE
  5
4A1
330
1F
100
AcDbEntity
  8
D-2
  6
Continuous
 62
     3
370
     9
100
AcDbLine
 10
-1720.002579891034
 20
-345.6659553487825
 30
0.0
 11
-1700.002976619549
 21
-345.6659553487825
 31
0.0
  0
LINE
  5
4A2
330
1F
100
AcDbEntity
  8
D-2
  6
Continuous
 62
     3
370
     9
100
AcDbLine
 10
-1700.002976619549
 20
-315.6653144796418
 30
0.0
 11
-1680.002396785565
 21
-315.6653144796418
 31
0.0
  0
LINE
  5
4A3
330
1F
100
AcDbEntity
  8
D-2
  6
Continuous
 62
     3
370
     9
100
AcDbLine
 10
-1700.002976619549
 20
-315.6653144796418
 30
0.0
 11
-1700.002976619549
 21
-251.6090896618519
 31
0.0
  0
LINE
  5
4A4
330
1F
100
AcDbEntity
  8
D-2
  6
Continuous
 62
     3
370
     9
100
AcDbLine
 10
-1700.002976619549
 20
-409.0990495012093
 30
0.0
 11
-1700.002976619549
 21
-345.6659553487825
 31
0.0
  0
LINE
  5
4A5
330
1F
100
AcDbEntity
  8
D-2
  6
Continuous
 62
     3
370
     9
100
AcDbLine
 10
-1359.456611933393
 20
-333.6035162646795
 30
0.0
 11
-1377.134578901827
 21
-351.2807409136448
 31
0.0
  0
LINE
  5
4A6
330
1F
100
AcDbEntity
  8
D-2
  6
Continuous
 62
     3
370
     9
100
AcDbLine
 10
-1377.134207742092
 20
-315.9255492962464
 30
0.0
 11
-1359.456611933393
 21
-333.6035162646795
 31
0.0
  0
LINE
  5
4A7
330
1F
100
AcDbEntity
  8
D-2
  6
Continuous
 62
     3
370
     9
100
AcDbLine
 10
-1394.812174710526
 20
-333.6035162646795
 30
0.0
 11
-1377.134207742092
 21
-315.9255492962464
 31
0.0
  0
LINE
  5
4A8
330
1F
100
AcDbEntity
  8
D-2
  6
Continuous
 62
     3
370
     9
100
AcDbLine
 10
-1377.134578901827
 20
-351.2807409136448
 30
0.0
 11
-1394.812174710526
 21
-333.6035162646795
 31
0.0
  0
LINE
  5
4A9
330
1F
100
AcDbEntity
  8
D-2
  6
JWW_CENTER1
 62
     3
370
     9
100
AcDbLine
 10
-1377.134207742092
 20
-360.1106309843797
 30
0.0
 11
-1377.134207742092
 21
-307.0952880657777
 31
0.0
  0
LINE
  5
4AA
330
1F
100
AcDbEntity
  8
D-2
  6
JWW_CENTER1
 62
     3
370
     9
100
AcDbLine
 10
-1350.626721862658
 20
-333.6035162646795
 30
0.0
 11
-1403.642064781261
 21
-333.6035162646795
 31
0.0
  0
LINE
  5
4AB
330
1F
100
AcDbEntity
  8
D-2
  6
Continuous
 62
     3
370
     9
100
AcDbLine
 10
-1371.956529453453
 20
-321.1028564251527
 30
0.0
 11
-1364.634661381767
 21
-321.1028564251527
 31
0.0
  0
LINE
  5
4AC
330
1F
100
AcDbEntity
  8
D-2
  6
Continuous
 62
     3
370
     9
100
AcDbLine
 10
-1364.634661381767
 20
-321.1028564251527
 30
0.0
 11
-1364.634661381767
 21
-328.4250956565714
 31
0.0
  0
LINE
  5
4AD
330
1F
100
AcDbEntity
  8
D-2
  6
Continuous
 62
     3
370
     9
100
AcDbLine
 10
-1364.634661381767
 20
-338.7808233935857
 30
0.0
 11
-1364.634661381767
 21
-346.1034337847386
 31
0.0
  0
LINE
  5
4AE
330
1F
100
AcDbEntity
  8
D-2
  6
Continuous
 62
     3
370
     9
100
AcDbLine
 10
-1371.956529453453
 20
-346.1034337847386
 30
0.0
 11
-1364.634661381767
 21
-346.1034337847386
 31
0.0
  0
LINE
  5
4AF
330
1F
100
AcDbEntity
  8
D-2
  6
Continuous
 62
     3
370
     9
100
AcDbLine
 10
-1389.634496421886
 20
-346.1034337847386
 30
0.0
 11
-1382.312257190466
 21
-346.1034337847386
 31
0.0
  0
LINE
  5
4B0
330
1F
100
AcDbEntity
  8
D-2
  6
Continuous
 62
     3
370
     9
100
AcDbLine
 10
-1389.634496421886
 20
-338.7808233935857
 30
0.0
 11
-1389.634496421886
 21
-346.1034337847386
 31
0.0
  0
LINE
  5
4B1
330
1F
100
AcDbEntity
  8
D-2
  6
Continuous
 62
     3
370
     9
100
AcDbLine
 10
-1389.634496421886
 20
-321.1028564251527
 30
0.0
 11
-1389.634496421886
 21
-328.4254668163055
 31
0.0
  0
LINE
  5
4B2
330
1F
100
AcDbEntity
  8
D-2
  6
Continuous
 62
     3
370
     9
100
AcDbLine
 10
-1389.634496421886
 20
-321.1028564251527
 30
0.0
 11
-1382.311514870999
 21
-321.1028564251527
 31
0.0
  0
TEXT
  5
4B3
330
1F
100
AcDbEntity
  8
D-4
  6
Continuous
 62
     2
370
     9
100
AcDbText
 10
-1700.870960128309
 20
76.89413664699437
 30
0.0
 40
30.48
  1
□460
 41
1.1
  7
ＭＳ ゴシック
100
AcDbText
  0
LINE
  5
4B4
330
1F
100
AcDbEntity
  8
D-1
  6
Continuous
 62
     2
370
     9
100
AcDbLine
 10
-997.3357380979735
 20
-395.6027975845518
 30
0.0
 11
-992.3354668968398
 21
-395.6027975845518
 31
0.0
  0
LINE
  5
4B5
330
1F
100
AcDbEntity
  8
D-1
  6
Continuous
 62
     2
370
     9
100
AcDbLine
 10
-992.3354668968398
 20
-280.6035033035459
 30
0.0
 11
-992.3354668968398
 21
-380.6029787826719
 31
0.0
  0
LINE
  5
4B6
330
1F
100
AcDbEntity
  8
D-4
  6
Continuous
 62
     7
370
     9
100
AcDbLine
 10
-1002.334522522216
 20
-53.43212039949208
 30
0.0
 11
-997.3342515581328
 21
-53.43212039949208
 31
0.0
  0
LINE
  5
4B7
330
1F
100
AcDbEntity
  8
D-4
  6
Continuous
 62
     7
370
     9
100
AcDbLine
 10
-1127.335354244061
 20
-162.1844855117968
 30
0.0
 11
-1002.334522522216
 21
-162.1844855117968
 31
0.0
  0
LINE
  5
4B8
330
1F
100
AcDbEntity
  8
D-4
  6
Continuous
 62
     7
370
     9
100
AcDbLine
 10
-1002.334522522216
 20
-267.6479855346861
 30
0.0
 11
-1002.334522522216
 21
-50.43254764558583
 31
0.0
  0
LINE
  5
4B9
330
1F
100
AcDbEntity
  8
D-4
  6
Continuous
 62
     7
370
     9
100
AcDbLine
 10
-992.33447686369
 20
-267.6479855346861
 30
0.0
 11
-992.33447686369
 21
-50.43254764558583
 31
0.0
  0
LINE
  5
4BA
330
1F
100
AcDbEntity
  8
D-4
  6
Continuous
 62
     7
370
     9
100
AcDbLine
 10
-977.3356427305418
 20
-267.6479855346861
 30
0.0
 11
-977.3356427305418
 21
60.26407329557628
 31
0.0
  0
LINE
  5
4BB
330
1F
100
AcDbEntity
  8
D-6
  6
Continuous
 62
     6
370
     9
100
AcDbLine
 10
-727.3354686849791
 20
-526.6126623916807
 30
0.0
 11
-631.3245739095885
 21
-430.6027117538633
 31
0.0
  0
LINE
  5
4BC
330
1F
100
AcDbEntity
  8
D-6
  6
Continuous
 62
     6
370
     9
100
AcDbLine
 10
-727.3354686849791
 20
-430.6027117538633
 30
0.0
 11
-562.33447686369
 21
-430.6027117538633
 31
0.0
  0
LINE
  5
4BD
330
1F
100
AcDbEntity
  8
D-6
  6
Continuous
 62
     6
370
     9
100
AcDbLine
 10
-727.3354686849791
 20
-540.7543364334288
 30
0.0
 11
-617.1838344686705
 21
-430.6027117538633
 31
0.0
  0
LINE
  5
4BE
330
1F
100
AcDbEntity
  8
D-6
  6
Continuous
 62
     6
370
     9
100
AcDbLine
 10
-977.3351515882689
 20
-605.60327442171
 30
0.0
 11
-977.3351515882689
 21
-780.6028548050108
 31
0.0
  0
LINE
  5
4BF
330
1F
100
AcDbEntity
  8
D-6
  6
Continuous
 62
     6
370
     9
100
AcDbLine
 10
-727.3354686849791
 20
-430.6027117538633
 30
0.0
 11
-727.3354686849791
 21
-605.60327442171
 31
0.0
  0
LINE
  5
4C0
330
1F
100
AcDbEntity
  8
D-6
  6
Continuous
 62
     6
370
     9
100
AcDbLine
 10
-977.3351515882689
 20
-605.60327442171
 30
0.0
 11
-727.3354686849791
 21
-605.60327442171
 31
0.0
  0
LINE
  5
4C1
330
1F
100
AcDbEntity
  8
D-4
  6
Continuous
 62
     7
370
     9
100
AcDbLine
 10
-1127.335354244061
 20
-267.6479855346861
 30
0.0
 11
-1127.335354244061
 21
-159.1839209366015
 31
0.0
  0
LINE
  5
4C2
330
1F
100
AcDbEntity
  8
D-4
  6
Continuous
 62
     7
370
     9
100
AcDbLine
 10
-997.3342515581328
 20
-53.43212039949208
 30
0.0
 11
-939.6740736120421
 21
-53.43212039949208
 31
0.0
  0
LINE
  5
4C3
330
1F
100
AcDbEntity
  8
D-4
  6
Continuous
 62
     7
370
     9
100
AcDbLine
 10
-1700.003620540448
 20
-162.1844855117968
 30
0.0
 11
-1127.335354244061
 21
-162.1844855117968
 31
0.0
  0
LINE
  5
4C4
330
1F
100
AcDbEntity
  8
D-4
  6
Continuous
 62
     7
370
     9
100
AcDbLine
 10
-1700.003620540448
 20
-53.43212039949208
 30
0.0
 11
-1002.334522522216
 21
-53.43212039949208
 31
0.0
  0
LINE
  5
4C5
330
1F
100
AcDbEntity
  8
D-4
  6
Continuous
 62
     7
370
     9
100
AcDbLine
 10
-1700.003620540448
 20
57.26358501432628
 30
0.0
 11
-977.3356427305418
 21
57.26358501432628
 31
0.0
  0
LINE
  5
4C6
330
1F
100
AcDbEntity
  8
D-1
  6
Continuous
 62
     2
370
     9
100
AcDbLine
 10
-992.3354668968398
 20
-380.6029787826719
 30
0.0
 11
-1127.335850154706
 21
-380.6029787826719
 31
0.0
  0
LINE
  5
4C7
330
1F
100
AcDbEntity
  8
D-1
  6
Continuous
 62
     2
370
     9
100
AcDbLine
 10
-1127.335850154706
 20
-395.6027975845518
 30
0.0
 11
-1127.335850154706
 21
-380.6029787826719
 31
0.0
  0
LINE
  5
4C8
330
1F
100
AcDbEntity
  8
D-1
  6
Continuous
 62
     2
370
     9
100
AcDbLine
 10
-1127.335850154706
 20
-395.6027975845518
 30
0.0
 11
-997.3357380979735
 21
-395.6027975845518
 31
0.0
  0
LINE
  5
4C9
330
1F
100
AcDbEntity
  8
D-6
  6
Continuous
 62
     6
370
     9
100
AcDbLine
 10
-977.3351515882689
 20
-776.6113463211241
 30
0.0
 11
-806.3256420248229
 21
-605.60327442171
 31
0.0
  0
LINE
  5
4CA
330
1F
100
AcDbEntity
  8
D-6
  6
Continuous
 62
     6
370
     9
100
AcDbLine
 10
-967.1854724043089
 20
-780.6028548050108
 30
0.0
 11
-792.1849025839049
 21
-605.60327442171
 31
0.0
  0
LINE
  5
4CB
330
1F
100
AcDbEntity
  8
D-6
  6
Continuous
 62
     6
370
     9
100
AcDbLine
 10
-727.3354686849791
 20
-554.8950186538877
 30
0.0
 11
-603.0431713216979
 21
-430.6027117538633
 31
0.0
  0
LINE
  5
4CC
330
1F
100
AcDbEntity
  8
D-6
  6
Continuous
 62
     6
370
     9
100
AcDbLine
 10
-953.0455412023741
 20
-780.6028548050108
 30
0.0
 11
-778.0447734945494
 21
-605.60327442171
 31
0.0
  0
LINE
  5
4CD
330
1F
100
AcDbEntity
  8
D-0
  6
Continuous
 62
     7
370
     9
100
AcDbLine
 10
-827.0417560690123
 20
-528.939398841876
 30
0.0
 11
-827.0417560690123
 21
-527.4391165542784
 31
0.0
  0
LINE
  5
4CE
330
1F
100
AcDbEntity
  8
D-0
  6
Continuous
 62
     7
370
     9
100
AcDbLine
 10
-827.0417560690123
 20
-527.4391165542784
 30
0.0
 11
-825.5417217367369
 21
-527.4391165542784
 31
0.0
  0
LINE
  5
4CF
330
1F
100
AcDbEntity
  8
D-0
  6
Continuous
 62
     7
370
     9
100
AcDbLine
 10
-825.5417217367369
 20
-527.4391165542784
 30
0.0
 11
-825.5417217367369
 21
-528.939398841876
 31
0.0
  0
LINE
  5
4D0
330
1F
100
AcDbEntity
  8
D-0
  6
Continuous
 62
     7
370
     9
100
AcDbLine
 10
-825.5417217367369
 20
-528.939398841876
 30
0.0
 11
-827.0417560690123
 21
-528.939398841876
 31
0.0
  0
LINE
  5
4D1
330
1F
100
AcDbEntity
  8
D-0
  6
Continuous
 62
     7
370
     9
100
AcDbLine
 10
-787.1136631124693
 20
-558.71606739046
 30
0.0
 11
-787.1136631124693
 21
-557.2157851028624
 31
0.0
  0
LINE
  5
4D2
330
1F
100
AcDbEntity
  8
D-0
  6
Continuous
 62
     7
370
     9
100
AcDbLine
 10
-787.1136631124693
 20
-557.2157851028624
 30
0.0
 11
-785.613628780194
 21
-557.2157851028624
 31
0.0
  0
LINE
  5
4D3
330
1F
100
AcDbEntity
  8
D-0
  6
Continuous
 62
     7
370
     9
100
AcDbLine
 10
-785.613628780194
 20
-557.2157851028624
 30
0.0
 11
-785.613628780194
 21
-558.71606739046
 31
0.0
  0
LINE
  5
4D4
330
1F
100
AcDbEntity
  8
D-0
  6
Continuous
 62
     7
370
     9
100
AcDbLine
 10
-785.613628780194
 20
-558.71606739046
 30
0.0
 11
-787.1136631124693
 21
-558.71606739046
 31
0.0
  0
LINE
  5
4D5
330
1F
100
AcDbEntity
  8
D-0
  6
Continuous
 62
     7
370
     9
100
AcDbLine
 10
-821.6277660482604
 20
-579.0184012222471
 30
0.0
 11
-821.6277660482604
 21
-577.5181189346495
 31
0.0
  0
LINE
  5
4D6
330
1F
100
AcDbEntity
  8
D-0
  6
Continuous
 62
     7
370
     9
100
AcDbLine
 10
-821.6277660482604
 20
-577.5181189346495
 30
0.0
 11
-820.127731715985
 21
-577.5181189346495
 31
0.0
  0
LINE
  5
4D7
330
1F
100
AcDbEntity
  8
D-0
  6
Continuous
 62
     7
370
     9
100
AcDbLine
 10
-820.127731715985
 20
-577.5181189346495
 30
0.0
 11
-820.127731715985
 21
-579.0184012222471
 31
0.0
  0
LINE
  5
4D8
330
1F
100
AcDbEntity
  8
D-0
  6
Continuous
 62
     7
370
     9
100
AcDbLine
 10
-820.127731715985
 20
-579.0184012222471
 30
0.0
 11
-821.6277660482604
 21
-579.0184012222471
 31
0.0
  0
LINE
  5
4D9
330
1F
100
AcDbEntity
  8
D-0
  6
Continuous
 62
     7
370
     9
100
AcDbLine
 10
-756.6600383871275
 20
-581.048831062335
 30
0.0
 11
-756.6600383871275
 21
-579.5485487747374
 31
0.0
  0
LINE
  5
4DA
330
1F
100
AcDbEntity
  8
D-0
  6
Continuous
 62
     7
370
     9
100
AcDbLine
 10
-756.6600383871275
 20
-579.5485487747374
 30
0.0
 11
-755.1600040548522
 21
-579.5485487747374
 31
0.0
  0
LINE
  5
4DB
330
1F
100
AcDbEntity
  8
D-0
  6
Continuous
 62
     7
370
     9
100
AcDbLine
 10
-755.1600040548522
 20
-579.5485487747374
 30
0.0
 11
-755.1600040548522
 21
-581.048831062335
 31
0.0
  0
LINE
  5
4DC
330
1F
100
AcDbEntity
  8
D-0
  6
Continuous
 62
     7
370
     9
100
AcDbLine
 10
-755.1600040548522
 20
-581.048831062335
 30
0.0
 11
-756.6600383871275
 21
-581.048831062335
 31
0.0
  0
LINE
  5
4DD
330
1F
100
AcDbEntity
  8
D-0
  6
Continuous
 62
     7
370
     9
100
AcDbLine
 10
-950.2095998876769
 20
-301.5524807739439
 30
0.0
 11
-950.2095998876769
 21
-300.0521388817015
 31
0.0
  0
LINE
  5
4DE
330
1F
100
AcDbEntity
  8
D-0
  6
Continuous
 62
     7
370
     9
100
AcDbLine
 10
-950.2095998876769
 20
-300.0521388817015
 30
0.0
 11
-948.709570323773
 21
-300.0521388817015
 31
0.0
  0
LINE
  5
4DF
330
1F
100
AcDbEntity
  8
D-0
  6
Continuous
 62
     7
370
     9
100
AcDbLine
 10
-948.709570323773
 20
-300.0521388817015
 30
0.0
 11
-948.709570323773
 21
-301.5524807739439
 31
0.0
  0
LINE
  5
4E0
330
1F
100
AcDbEntity
  8
D-0
  6
Continuous
 62
     7
370
     9
100
AcDbLine
 10
-948.709570323773
 20
-301.5524807739439
 30
0.0
 11
-950.2095998876769
 21
-301.5524807739439
 31
0.0
  0
LINE
  5
4E1
330
1F
100
AcDbEntity
  8
D-0
  6
Continuous
 62
     7
370
     9
100
AcDbLine
 10
-896.0698474996764
 20
-300.8756700325193
 30
0.0
 11
-896.0698474996764
 21
-299.3753293323698
 31
0.0
  0
LINE
  5
4E2
330
1F
100
AcDbEntity
  8
D-0
  6
Continuous
 62
     7
370
     9
100
AcDbLine
 10
-896.0698474996764
 20
-299.3753293323698
 30
0.0
 11
-894.5698227041441
 21
-299.3753293323698
 31
0.0
  0
LINE
  5
4E3
330
1F
100
AcDbEntity
  8
D-0
  6
Continuous
 62
     7
370
     9
100
AcDbLine
 10
-894.5698227041441
 20
-299.3753293323698
 30
0.0
 11
-894.5698227041441
 21
-300.8756700325193
 31
0.0
  0
LINE
  5
4E4
330
1F
100
AcDbEntity
  8
D-0
  6
Continuous
 62
     7
370
     9
100
AcDbLine
 10
-894.5698227041441
 20
-300.8756700325193
 30
0.0
 11
-896.0698474996764
 21
-300.8756700325193
 31
0.0
  0
LINE
  5
4E5
330
1F
100
AcDbEntity
  8
D-0
  6
Continuous
 62
     7
370
     9
100
AcDbLine
 10
-853.4347595327574
 20
-324.5620528030577
 30
0.0
 11
-853.4347595327574
 21
-323.0617085266294
 31
0.0
  0
LINE
  5
4E6
330
1F
100
AcDbEntity
  8
D-0
  6
Continuous
 62
     7
370
     9
100
AcDbLine
 10
-853.4347595327574
 20
-323.0617085266294
 30
0.0
 11
-851.9347347372252
 21
-323.0617085266294
 31
0.0
  0
LINE
  5
4E7
330
1F
100
AcDbEntity
  8
D-0
  6
Continuous
 62
     7
370
     9
100
AcDbLine
 10
-851.9347347372252
 20
-323.0617085266294
 30
0.0
 11
-851.9347347372252
 21
-324.5620528030577
 31
0.0
  0
LINE
  5
4E8
330
1F
100
AcDbEntity
  8
D-0
  6
Continuous
 62
     7
370
     9
100
AcDbLine
 10
-851.9347347372252
 20
-324.5620528030577
 30
0.0
 11
-853.4347595327574
 21
-324.5620528030577
 31
0.0
  0
LINE
  5
4E9
330
1F
100
AcDbEntity
  8
D-0
  6
Continuous
 62
     7
370
     9
100
AcDbLine
 10
-829.7486271017272
 20
-303.5828486252012
 30
0.0
 11
-829.7486271017272
 21
-302.0825711059751
 31
0.0
  0
LINE
  5
4EA
330
1F
100
AcDbEntity
  8
D-0
  6
Continuous
 62
     7
370
     9
100
AcDbLine
 10
-829.7486271017272
 20
-302.0825711059751
 30
0.0
 11
-828.2485927694518
 21
-302.0825711059751
 31
0.0
  0
LINE
  5
4EB
330
1F
100
AcDbEntity
  8
D-0
  6
Continuous
 62
     7
370
     9
100
AcDbLine
 10
-828.2485927694518
 20
-302.0825711059751
 30
0.0
 11
-828.2485927694518
 21
-303.5828486252012
 31
0.0
  0
LINE
  5
4EC
330
1F
100
AcDbEntity
  8
D-0
  6
Continuous
 62
     7
370
     9
100
AcDbLine
 10
-828.2485927694518
 20
-303.5828486252012
 30
0.0
 11
-829.7486271017272
 21
-303.5828486252012
 31
0.0
  0
LINE
  5
4ED
330
1F
100
AcDbEntity
  8
D-0
  6
Continuous
 62
     7
370
     9
100
AcDbLine
 10
-829.0719951742369
 20
-372.6110640335264
 30
0.0
 11
-829.0719951742369
 21
-371.1107817459288
 31
0.0
  0
LINE
  5
4EE
330
1F
100
AcDbEntity
  8
D-0
  6
Continuous
 62
     7
370
     9
100
AcDbLine
 10
-829.0719951742369
 20
-371.1107817459288
 30
0.0
 11
-827.5719036215025
 21
-371.1107817459288
 31
0.0
  0
LINE
  5
4EF
330
1F
100
AcDbEntity
  8
D-0
  6
Continuous
 62
     7
370
     9
100
AcDbLine
 10
-827.5719036215025
 20
-371.1107817459288
 30
0.0
 11
-827.5719036215025
 21
-372.6110640335264
 31
0.0
  0
LINE
  5
4F0
330
1F
100
AcDbEntity
  8
D-0
  6
Continuous
 62
     7
370
     9
100
AcDbLine
 10
-827.5719036215025
 20
-372.6110640335264
 30
0.0
 11
-829.0719951742369
 21
-372.6110640335264
 31
0.0
  0
LINE
  5
4F1
330
1F
100
AcDbEntity
  8
D-0
  6
Continuous
 62
     7
370
     9
100
AcDbLine
 10
-700.490108882733
 20
-301.5524807739439
 30
0.0
 11
-700.490108882733
 21
-300.0521388817015
 31
0.0
  0
LINE
  5
4F2
330
1F
100
AcDbEntity
  8
D-0
  6
Continuous
 62
     7
370
     9
100
AcDbLine
 10
-700.490108882733
 20
-300.0521388817015
 30
0.0
 11
-698.9901317709166
 21
-300.0521388817015
 31
0.0
  0
LINE
  5
4F3
330
1F
100
AcDbEntity
  8
D-0
  6
Continuous
 62
     7
370
     9
100
AcDbLine
 10
-698.9901317709166
 20
-300.0521388817015
 30
0.0
 11
-698.9901317709166
 21
-301.5524807739439
 31
0.0
  0
LINE
  5
4F4
330
1F
100
AcDbEntity
  8
D-0
  6
Continuous
 62
     7
370
     9
100
AcDbLine
 10
-698.9901317709166
 20
-301.5524807739439
 30
0.0
 11
-700.490108882733
 21
-301.5524807739439
 31
0.0
  0
LINE
  5
4F5
330
1F
100
AcDbEntity
  8
D-0
  6
Continuous
 62
     7
370
     9
100
AcDbLine
 10
-649.7341503256041
 20
-304.2596593666258
 30
0.0
 11
-649.7341503256041
 21
-302.7594414520445
 31
0.0
  0
LINE
  5
4F6
330
1F
100
AcDbEntity
  8
D-0
  6
Continuous
 62
     7
370
     9
100
AcDbLine
 10
-649.7341503256041
 20
-302.7594414520445
 30
0.0
 11
-648.234135066815
 21
-302.7594414520445
 31
0.0
  0
LINE
  5
4F7
330
1F
100
AcDbEntity
  8
D-0
  6
Continuous
 62
     7
370
     9
100
AcDbLine
 10
-648.234135066815
 20
-302.7594414520445
 30
0.0
 11
-648.234135066815
 21
-304.2596593666258
 31
0.0
  0
LINE
  5
4F8
330
1F
100
AcDbEntity
  8
D-0
  6
Continuous
 62
     7
370
     9
100
AcDbLine
 10
-648.234135066815
 20
-304.2596593666258
 30
0.0
 11
-649.7341503256041
 21
-304.2596593666258
 31
0.0
  0
LINE
  5
4F9
330
1F
100
AcDbEntity
  8
D-0
  6
Continuous
 62
     7
370
     9
100
AcDbLine
 10
-584.7664989584166
 20
-302.2292295265379
 30
0.0
 11
-584.7664989584166
 21
-300.728949623126
 31
0.0
  0
LINE
  5
4FA
330
1F
100
AcDbEntity
  8
D-0
  6
Continuous
 62
     7
370
     9
100
AcDbLine
 10
-584.7664989584166
 20
-300.728949623126
 30
0.0
 11
-583.2664074056822
 21
-300.728949623126
 31
0.0
  0
LINE
  5
4FB
330
1F
100
AcDbEntity
  8
D-0
  6
Continuous
 62
     7
370
     9
100
AcDbLine
 10
-583.2664074056822
 20
-300.728949623126
 30
0.0
 11
-583.2664074056822
 21
-302.2292295265379
 31
0.0
  0
LINE
  5
4FC
330
1F
100
AcDbEntity
  8
D-0
  6
Continuous
 62
     7
370
     9
100
AcDbLine
 10
-583.2664074056822
 20
-302.2292295265379
 30
0.0
 11
-584.7664989584166
 21
-302.2292295265379
 31
0.0
  0
LINE
  5
4FD
330
1F
100
AcDbEntity
  8
D-0
  6
Continuous
 62
     7
370
     9
100
AcDbLine
 10
-609.1293682211119
 20
-334.7131529617491
 30
0.0
 11
-609.1293682211119
 21
-333.2129374313536
 31
0.0
  0
LINE
  5
4FE
330
1F
100
AcDbEntity
  8
D-0
  6
Continuous
 62
     7
370
     9
100
AcDbLine
 10
-609.1293682211119
 20
-333.2129374313536
 30
0.0
 11
-607.6293529623229
 21
-333.2129374313536
 31
0.0
  0
LINE
  5
4FF
330
1F
100
AcDbEntity
  8
D-0
  6
Continuous
 62
     7
370
     9
100
AcDbLine
 10
-607.6293529623229
 20
-333.2129374313536
 30
0.0
 11
-607.6293529623229
 21
-334.7131529617491
 31
0.0
  0
LINE
  5
500
330
1F
100
AcDbEntity
  8
D-0
  6
Continuous
 62
     7
370
     9
100
AcDbLine
 10
-607.6293529623229
 20
-334.7131529617491
 30
0.0
 11
-609.1293682211119
 21
-334.7131529617491
 31
0.0
  0
LINE
  5
501
330
1F
100
AcDbEntity
  8
D-0
  6
Continuous
 62
     7
370
     9
100
AcDbLine
 10
-649.0573467367369
 20
-358.3990374374571
 30
0.0
 11
-649.0573467367369
 21
-356.898759918231
 31
0.0
  0
LINE
  5
502
330
1F
100
AcDbEntity
  8
D-0
  6
Continuous
 62
     7
370
     9
100
AcDbLine
 10
-649.0573467367369
 20
-356.898759918231
 30
0.0
 11
-647.5573314779479
 21
-356.898759918231
 31
0.0
  0
LINE
  5
503
330
1F
100
AcDbEntity
  8
D-0
  6
Continuous
 62
     7
370
     9
100
AcDbLine
 10
-647.5573314779479
 20
-356.898759918231
 30
0.0
 11
-647.5573314779479
 21
-358.3990374374571
 31
0.0
  0
LINE
  5
504
330
1F
100
AcDbEntity
  8
D-0
  6
Continuous
 62
     7
370
     9
100
AcDbLine
 10
-647.5573314779479
 20
-358.3990374374571
 30
0.0
 11
-649.0573467367369
 21
-358.3990374374571
 31
0.0
  0
LINE
  5
505
330
1F
100
AcDbEntity
  8
D-0
  6
Continuous
 62
     7
370
     9
100
AcDbLine
 10
-676.8039669149596
 20
-372.6110640335264
 30
0.0
 11
-676.8039669149596
 21
-371.1107817459288
 31
0.0
  0
LINE
  5
506
330
1F
100
AcDbEntity
  8
D-0
  6
Continuous
 62
     7
370
     9
100
AcDbLine
 10
-676.8039669149596
 20
-371.1107817459288
 30
0.0
 11
-675.3039898031432
 21
-371.1107817459288
 31
0.0
  0
LINE
  5
507
330
1F
100
AcDbEntity
  8
D-0
  6
Continuous
 62
     7
370
     9
100
AcDbLine
 10
-675.3039898031432
 20
-371.1107817459288
 30
0.0
 11
-675.3039898031432
 21
-372.6110640335264
 31
0.0
  0
LINE
  5
508
330
1F
100
AcDbEntity
  8
D-0
  6
Continuous
 62
     7
370
     9
100
AcDbLine
 10
-675.3039898031432
 20
-372.6110640335264
 30
0.0
 11
-676.8039669149596
 21
-372.6110640335264
 31
0.0
  0
LINE
  5
509
330
1F
100
AcDbEntity
  8
D-0
  6
Continuous
 62
     7
370
     9
100
AcDbLine
 10
-701.8436016195494
 20
-343.5106983947935
 30
0.0
 11
-701.8436016195494
 21
-342.0104161071959
 31
0.0
  0
LINE
  5
50A
330
1F
100
AcDbEntity
  8
D-0
  6
Continuous
 62
     7
370
     9
100
AcDbLine
 10
-701.8436016195494
 20
-342.0104161071959
 30
0.0
 11
-700.343567287274
 21
-342.0104161071959
 31
0.0
  0
LINE
  5
50B
330
1F
100
AcDbEntity
  8
D-0
  6
Continuous
 62
     7
370
     9
100
AcDbLine
 10
-700.343567287274
 20
-342.0104161071959
 30
0.0
 11
-700.343567287274
 21
-343.5106983947935
 31
0.0
  0
LINE
  5
50C
330
1F
100
AcDbEntity
  8
D-0
  6
Continuous
 62
     7
370
     9
100
AcDbLine
 10
-700.343567287274
 20
-343.5106983947935
 30
0.0
 11
-701.8436016195494
 21
-343.5106983947935
 31
0.0
  0
LINE
  5
50D
330
1F
100
AcDbEntity
  8
D-0
  6
Continuous
 62
     7
370
     9
100
AcDbLine
 10
-681.5413250082213
 20
-407.8017321396055
 30
0.0
 11
-681.5413250082213
 21
-406.3014498520079
 31
0.0
  0
LINE
  5
50E
330
1F
100
AcDbEntity
  8
D-0
  6
Continuous
 62
     7
370
     9
100
AcDbLine
 10
-681.5413250082213
 20
-406.3014498520079
 30
0.0
 11
-680.0412334554869
 21
-406.3014498520079
 31
0.0
  0
LINE
  5
50F
330
1F
100
AcDbEntity
  8
D-0
  6
Continuous
 62
     7
370
     9
100
AcDbLine
 10
-680.0412334554869
 20
-406.3014498520079
 30
0.0
 11
-680.0412334554869
 21
-407.8017321396055
 31
0.0
  0
LINE
  5
510
330
1F
100
AcDbEntity
  8
D-0
  6
Continuous
 62
     7
370
     9
100
AcDbLine
 10
-680.0412334554869
 20
-407.8017321396055
 30
0.0
 11
-681.5413250082213
 21
-407.8017321396055
 31
0.0
  0
LINE
  5
511
330
1F
100
AcDbEntity
  8
D-0
  6
Continuous
 62
     7
370
     9
100
AcDbLine
 10
-624.0177120321471
 20
-406.448115425128
 30
0.0
 11
-624.0177120321471
 21
-404.9478331375303
 31
0.0
  0
LINE
  5
512
330
1F
100
AcDbEntity
  8
D-0
  6
Continuous
 62
     7
370
     9
100
AcDbLine
 10
-624.0177120321471
 20
-404.9478331375303
 30
0.0
 11
-622.5177349203307
 21
-404.9478331375303
 31
0.0
  0
LINE
  5
513
330
1F
100
AcDbEntity
  8
D-0
  6
Continuous
 62
     7
370
     9
100
AcDbLine
 10
-622.5177349203307
 20
-404.9478331375303
 30
0.0
 11
-622.5177349203307
 21
-406.448115425128
 31
0.0
  0
LINE
  5
514
330
1F
100
AcDbEntity
  8
D-0
  6
Continuous
 62
     7
370
     9
100
AcDbLine
 10
-622.5177349203307
 20
-406.448115425128
 30
0.0
 11
-624.0177120321471
 21
-406.448115425128
 31
0.0
  0
LINE
  5
515
330
1F
100
AcDbEntity
  8
D-0
  6
Continuous
 62
     7
370
     9
100
AcDbLine
 10
-574.6152843588072
 20
-405.7713022995176
 30
0.0
 11
-574.6152843588072
 21
-404.27102001192
 31
0.0
  0
LINE
  5
516
330
1F
100
AcDbEntity
  8
D-0
  6
Continuous
 62
     7
370
     9
100
AcDbLine
 10
-574.6152843588072
 20
-404.27102001192
 30
0.0
 11
-573.1152309530455
 21
-404.27102001192
 31
0.0
  0
LINE
  5
517
330
1F
100
AcDbEntity
  8
D-0
  6
Continuous
 62
     7
370
     9
100
AcDbLine
 10
-573.1152309530455
 20
-404.27102001192
 30
0.0
 11
-573.1152309530455
 21
-405.7713022995176
 31
0.0
  0
LINE
  5
518
330
1F
100
AcDbEntity
  8
D-0
  6
Continuous
 62
     7
370
     9
100
AcDbLine
 10
-573.1152309530455
 20
-405.7713022995176
 30
0.0
 11
-574.6152843588072
 21
-405.7713022995176
 31
0.0
  0
LINE
  5
519
330
1F
100
AcDbEntity
  8
D-0
  6
Continuous
 62
     7
370
     9
100
AcDbLine
 10
-586.7967571371275
 20
-365.8434572982969
 30
0.0
 11
-586.7967571371275
 21
-364.3431750106993
 31
0.0
  0
LINE
  5
51A
330
1F
100
AcDbEntity
  8
D-0
  6
Continuous
 62
     7
370
     9
100
AcDbLine
 10
-586.7967571371275
 20
-364.3431750106993
 30
0.0
 11
-585.2967037313658
 21
-364.3431750106993
 31
0.0
  0
LINE
  5
51B
330
1F
100
AcDbEntity
  8
D-0
  6
Continuous
 62
     7
370
     9
100
AcDbLine
 10
-585.2967037313658
 20
-364.3431750106993
 30
0.0
 11
-585.2967037313658
 21
-365.8434572982969
 31
0.0
  0
LINE
  5
51C
330
1F
100
AcDbEntity
  8
D-0
  6
Continuous
 62
     7
370
     9
100
AcDbLine
 10
-585.2967037313658
 20
-365.8434572982969
 30
0.0
 11
-586.7967571371275
 21
-365.8434572982969
 31
0.0
  0
LINE
  5
51D
330
1F
100
AcDbEntity
  8
D-0
  6
Continuous
 62
     7
370
     9
100
AcDbLine
 10
-1108.356796657391
 20
-537.1448508072081
 30
0.0
 11
-1108.356796657391
 21
-535.6445685196104
 31
0.0
  0
LINE
  5
51E
330
1F
100
AcDbEntity
  8
D-0
  6
Continuous
 62
     7
370
     9
100
AcDbLine
 10
-1108.356796657391
 20
-535.6445685196104
 30
0.0
 11
-1106.856762325116
 21
-535.6445685196104
 31
0.0
  0
LINE
  5
51F
330
1F
100
AcDbEntity
  8
D-0
  6
Continuous
 62
     7
370
     9
100
AcDbLine
 10
-1106.856762325116
 20
-535.6445685196104
 30
0.0
 11
-1106.856762325116
 21
-537.1448508072081
 31
0.0
  0
LINE
  5
520
330
1F
100
AcDbEntity
  8
D-0
  6
Continuous
 62
     7
370
     9
100
AcDbLine
 10
-1106.856762325116
 20
-537.1448508072081
 30
0.0
 11
-1108.356796657391
 21
-537.1448508072081
 31
0.0
  0
LINE
  5
521
330
1F
100
AcDbEntity
  8
D-0
  6
Continuous
 62
     7
370
     9
100
AcDbLine
 10
-1003.672535871812
 20
-537.1448508072081
 30
0.0
 11
-1003.672535871812
 21
-535.6445685196104
 31
0.0
  0
LINE
  5
522
330
1F
100
AcDbEntity
  8
D-0
  6
Continuous
 62
     7
370
     9
100
AcDbLine
 10
-1003.672535871812
 20
-535.6445685196104
 30
0.0
 11
-1002.172504240372
 21
-535.6445685196104
 31
0.0
  0
LINE
  5
523
330
1F
100
AcDbEntity
  8
D-0
  6
Continuous
 62
     7
370
     9
100
AcDbLine
 10
-1002.172504240372
 20
-535.6445685196104
 30
0.0
 11
-1002.172504240372
 21
-537.1448508072081
 31
0.0
  0
LINE
  5
524
330
1F
100
AcDbEntity
  8
D-0
  6
Continuous
 62
     7
370
     9
100
AcDbLine
 10
-1002.172504240372
 20
-537.1448508072081
 30
0.0
 11
-1003.672535871812
 21
-537.1448508072081
 31
0.0
  0
LINE
  5
525
330
1F
100
AcDbEntity
  8
D-0
  6
Continuous
 62
     7
370
     9
100
AcDbLine
 10
-1017.757351552792
 20
-625.460681037921
 30
0.0
 11
-1017.757351552792
 21
-623.9603987503233
 31
0.0
  0
LINE
  5
526
330
1F
100
AcDbEntity
  8
D-0
  6
Continuous
 62
     7
370
     9
100
AcDbLine
 10
-1017.757351552792
 20
-623.9603987503233
 30
0.0
 11
-1016.257319604703
 21
-623.9603987503233
 31
0.0
  0
LINE
  5
527
330
1F
100
AcDbEntity
  8
D-0
  6
Continuous
 62
     7
370
     9
100
AcDbLine
 10
-1016.257319604703
 20
-623.9603987503233
 30
0.0
 11
-1016.257319604703
 21
-625.460681037921
 31
0.0
  0
LINE
  5
528
330
1F
100
AcDbEntity
  8
D-0
  6
Continuous
 62
     7
370
     9
100
AcDbLine
 10
-1016.257319604703
 20
-625.460681037921
 30
0.0
 11
-1017.757351552792
 21
-625.460681037921
 31
0.0
  0
LINE
  5
529
330
1F
100
AcDbEntity
  8
D-0
  6
Continuous
 62
     7
370
     9
100
AcDbLine
 10
-1005.575879072495
 20
-590.0584402847471
 30
0.0
 11
-1005.575879072495
 21
-588.5581579971495
 31
0.0
  0
LINE
  5
52A
330
1F
100
AcDbEntity
  8
D-0
  6
Continuous
 62
     7
370
     9
100
AcDbLine
 10
-1005.575879072495
 20
-588.5581579971495
 30
0.0
 11
-1004.075847422429
 21
-588.5581579971495
 31
0.0
  0
LINE
  5
52B
330
1F
100
AcDbEntity
  8
D-0
  6
Continuous
 62
     7
370
     9
100
AcDbLine
 10
-1004.075847422429
 20
-588.5581579971495
 30
0.0
 11
-1004.075847422429
 21
-590.0584402847471
 31
0.0
  0
LINE
  5
52C
330
1F
100
AcDbEntity
  8
D-0
  6
Continuous
 62
     7
370
     9
100
AcDbLine
 10
-1004.075847422429
 20
-590.0584402847471
 30
0.0
 11
-1005.575879072495
 21
-590.0584402847471
 31
0.0
  0
LINE
  5
52D
330
1F
100
AcDbEntity
  8
D-0
  6
Continuous
 62
     7
370
     9
100
AcDbLine
 10
-1106.072803890057
 20
-627.7447691726866
 30
0.0
 11
-1106.072803890057
 21
-626.2444868850889
 31
0.0
  0
LINE
  5
52E
330
1F
100
AcDbEntity
  8
D-0
  6
Continuous
 62
     7
370
     9
100
AcDbLine
 10
-1106.072803890057
 20
-626.2444868850889
 30
0.0
 11
-1104.572769557782
 21
-626.2444868850889
 31
0.0
  0
LINE
  5
52F
330
1F
100
AcDbEntity
  8
D-0
  6
Continuous
 62
     7
370
     9
100
AcDbLine
 10
-1104.572769557782
 20
-626.2444868850889
 30
0.0
 11
-1104.572769557782
 21
-627.7447691726866
 31
0.0
  0
LINE
  5
530
330
1F
100
AcDbEntity
  8
D-0
  6
Continuous
 62
     7
370
     9
100
AcDbLine
 10
-1104.572769557782
 20
-627.7447691726866
 30
0.0
 11
-1106.072803890057
 21
-627.7447691726866
 31
0.0
  0
LINE
  5
531
330
1F
100
AcDbEntity
  8
D-0
  6
Continuous
 62
     7
370
     9
100
AcDbLine
 10
-1061.915017520733
 20
-630.789927558917
 30
0.0
 11
-1061.915017520733
 21
-629.2896452713194
 31
0.0
  0
LINE
  5
532
330
1F
100
AcDbEntity
  8
D-0
  6
Continuous
 62
     7
370
     9
100
AcDbLine
 10
-1061.915017520733
 20
-629.2896452713194
 30
0.0
 11
-1060.41498795683
 21
-629.2896452713194
 31
0.0
  0
LINE
  5
533
330
1F
100
AcDbEntity
  8
D-0
  6
Continuous
 62
     7
370
     9
100
AcDbLine
 10
-1060.41498795683
 20
-629.2896452713194
 30
0.0
 11
-1060.41498795683
 21
-630.789927558917
 31
0.0
  0
LINE
  5
534
330
1F
100
AcDbEntity
  8
D-0
  6
Continuous
 62
     7
370
     9
100
AcDbLine
 10
-1060.41498795683
 20
-630.789927558917
 30
0.0
 11
-1061.915017520733
 21
-630.789927558917
 31
0.0
  0
LINE
  5
535
330
1F
100
AcDbEntity
  8
D-0
  6
Continuous
 62
     7
370
     9
100
AcDbLine
 10
-1058.488975917645
 20
-593.1035795974913
 30
0.0
 11
-1058.488975917645
 21
-591.6033163833799
 31
0.0
  0
LINE
  5
536
330
1F
100
AcDbEntity
  8
D-0
  6
Continuous
 62
     7
370
     9
100
AcDbLine
 10
-1058.488975917645
 20
-591.6033163833799
 30
0.0
 11
-1056.98894158537
 21
-591.6033163833799
 31
0.0
  0
LINE
  5
537
330
1F
100
AcDbEntity
  8
D-0
  6
Continuous
 62
     7
370
     9
100
AcDbLine
 10
-1056.98894158537
 20
-591.6033163833799
 30
0.0
 11
-1056.98894158537
 21
-593.1035795974913
 31
0.0
  0
LINE
  5
538
330
1F
100
AcDbEntity
  8
D-0
  6
Continuous
 62
     7
370
     9
100
AcDbLine
 10
-1056.98894158537
 20
-593.1035795974913
 30
0.0
 11
-1058.488975917645
 21
-593.1035795974913
 31
0.0
  0
LINE
  5
539
330
1F
100
AcDbEntity
  8
D-0
  6
Continuous
 62
     7
370
     9
100
AcDbLine
 10
-1109.118076717206
 20
-591.5805235672178
 30
0.0
 11
-1109.118076717206
 21
-590.0802412796202
 31
0.0
  0
LINE
  5
53A
330
1F
100
AcDbEntity
  8
D-0
  6
Continuous
 62
     7
370
     9
100
AcDbLine
 10
-1109.118076717206
 20
-590.0802412796202
 30
0.0
 11
-1107.618051921673
 21
-590.0802412796202
 31
0.0
  0
LINE
  5
53B
330
1F
100
AcDbEntity
  8
D-0
  6
Continuous
 62
     7
370
     9
100
AcDbLine
 10
-1107.618051921673
 20
-590.0802412796202
 30
0.0
 11
-1107.618051921673
 21
-591.5805235672178
 31
0.0
  0
LINE
  5
53C
330
1F
100
AcDbEntity
  8
D-0
  6
Continuous
 62
     7
370
     9
100
AcDbLine
 10
-1107.618051921673
 20
-591.5805235672178
 30
0.0
 11
-1109.118076717206
 21
-591.5805235672178
 31
0.0
  0
LINE
  5
53D
330
1F
100
AcDbEntity
  8
D-0
  6
Continuous
 62
     7
370
     9
100
AcDbLine
 10
-1100.743414317914
 20
-713.0149641800108
 30
0.0
 11
-1100.743414317914
 21
-711.5146818924131
 31
0.0
  0
LINE
  5
53E
330
1F
100
AcDbEntity
  8
D-0
  6
Continuous
 62
     7
370
     9
100
AcDbLine
 10
-1100.743414317914
 20
-711.5146818924131
 30
0.0
 11
-1099.243389522381
 21
-711.5146818924131
 31
0.0
  0
LINE
  5
53F
330
1F
100
AcDbEntity
  8
D-0
  6
Continuous
 62
     7
370
     9
100
AcDbLine
 10
-1099.243389522381
 20
-711.5146818924131
 30
0.0
 11
-1099.243389522381
 21
-713.0149641800108
 31
0.0
  0
LINE
  5
540
330
1F
100
AcDbEntity
  8
D-0
  6
Continuous
 62
     7
370
     9
100
AcDbLine
 10
-1099.243389522381
 20
-713.0149641800108
 30
0.0
 11
-1100.743414317914
 21
-713.0149641800108
 31
0.0
  0
LINE
  5
541
330
1F
100
AcDbEntity
  8
D-0
  6
Continuous
 62
     7
370
     9
100
AcDbLine
 10
-1048.972259914227
 20
-709.2077818679991
 30
0.0
 11
-1048.972259914227
 21
-707.7074995804014
 31
0.0
  0
LINE
  5
542
330
1F
100
AcDbEntity
  8
D-0
  6
Continuous
 62
     7
370
     9
100
AcDbLine
 10
-1048.972259914227
 20
-707.7074995804014
 30
0.0
 11
-1047.472225581952
 21
-707.7074995804014
 31
0.0
  0
LINE
  5
543
330
1F
100
AcDbEntity
  8
D-0
  6
Continuous
 62
     7
370
     9
100
AcDbLine
 10
-1047.472225581952
 20
-707.7074995804014
 30
0.0
 11
-1047.472225581952
 21
-709.2077818679991
 31
0.0
  0
LINE
  5
544
330
1F
100
AcDbEntity
  8
D-0
  6
Continuous
 62
     7
370
     9
100
AcDbLine
 10
-1047.472225581952
 20
-709.2077818679991
 30
0.0
 11
-1048.972259914227
 21
-709.2077818679991
 31
0.0
  0
LINE
  5
545
330
1F
100
AcDbEntity
  8
D-0
  6
Continuous
 62
     7
370
     9
100
AcDbLine
 10
-999.1044376843649
 20
-711.1113539505186
 30
0.0
 11
-999.1044376843649
 21
-709.611071662921
 31
0.0
  0
LINE
  5
546
330
1F
100
AcDbEntity
  8
D-0
  6
Continuous
 62
     7
370
     9
100
AcDbLine
 10
-999.1044376843649
 20
-709.611071662921
 30
0.0
 11
-997.6044060342986
 21
-709.611071662921
 31
0.0
  0
LINE
  5
547
330
1F
100
AcDbEntity
  8
D-0
  6
Continuous
 62
     7
370
     9
100
AcDbLine
 10
-997.6044060342986
 20
-709.611071662921
 30
0.0
 11
-997.6044060342986
 21
-711.1113539505186
 31
0.0
  0
LINE
  5
548
330
1F
100
AcDbEntity
  8
D-0
  6
Continuous
 62
     7
370
     9
100
AcDbLine
 10
-997.6044060342986
 20
-711.1113539505186
 30
0.0
 11
-999.1044376843649
 21
-711.1113539505186
 31
0.0
  0
LINE
  5
549
330
1F
100
AcDbEntity
  8
D-0
  6
Continuous
 62
     7
370
     9
100
AcDbLine
 10
-1023.848022376843
 20
-736.9966307449522
 30
0.0
 11
-1023.848022376843
 21
-735.4963484573545
 31
0.0
  0
LINE
  5
54A
330
1F
100
AcDbEntity
  8
D-0
  6
Continuous
 62
     7
370
     9
100
AcDbLine
 10
-1023.848022376843
 20
-735.4963484573545
 30
0.0
 11
-1022.347992812939
 21
-735.4963484573545
 31
0.0
  0
LINE
  5
54B
330
1F
100
AcDbEntity
  8
D-0
  6
Continuous
 62
     7
370
     9
100
AcDbLine
 10
-1022.347992812939
 20
-735.4963484573545
 30
0.0
 11
-1022.347992812939
 21
-736.9966307449522
 31
0.0
  0
LINE
  5
54C
330
1F
100
AcDbEntity
  8
D-0
  6
Continuous
 62
     7
370
     9
100
AcDbLine
 10
-1022.347992812939
 20
-736.9966307449522
 30
0.0
 11
-1023.848022376843
 21
-736.9966307449522
 31
0.0
  0
LINE
  5
54D
330
1F
100
AcDbEntity
  8
D-0
  6
Continuous
 62
     7
370
     9
100
AcDbLine
 10
-1064.199005519696
 20
-748.7977019119444
 30
0.0
 11
-1064.199005519696
 21
-747.2974196243467
 31
0.0
  0
LINE
  5
54E
330
1F
100
AcDbEntity
  8
D-0
  6
Continuous
 62
     7
370
     9
100
AcDbLine
 10
-1064.199005519696
 20
-747.2974196243467
 30
0.0
 11
-1062.698971187421
 21
-747.2974196243467
 31
0.0
  0
LINE
  5
54F
330
1F
100
AcDbEntity
  8
D-0
  6
Continuous
 62
     7
370
     9
100
AcDbLine
 10
-1062.698971187421
 20
-747.2974196243467
 30
0.0
 11
-1062.698971187421
 21
-748.7977019119444
 31
0.0
  0
LINE
  5
550
330
1F
100
AcDbEntity
  8
D-0
  6
Continuous
 62
     7
370
     9
100
AcDbLine
 10
-1062.698971187421
 20
-748.7977019119444
 30
0.0
 11
-1064.199005519696
 21
-748.7977019119444
 31
0.0
  0
LINE
  5
551
330
1F
100
AcDbEntity
  8
D-0
  6
Continuous
 62
     7
370
     9
100
AcDbLine
 10
-1111.402193462201
 20
-746.5136137771788
 30
0.0
 11
-1111.402193462201
 21
-745.0133314895811
 31
0.0
  0
LINE
  5
552
330
1F
100
AcDbEntity
  8
D-0
  6
Continuous
 62
     7
370
     9
100
AcDbLine
 10
-1111.402193462201
 20
-745.0133314895811
 30
0.0
 11
-1109.902159129925
 21
-745.0133314895811
 31
0.0
  0
LINE
  5
553
330
1F
100
AcDbEntity
  8
D-0
  6
Continuous
 62
     7
370
     9
100
AcDbLine
 10
-1109.902159129925
 20
-745.0133314895811
 30
0.0
 11
-1109.902159129925
 21
-746.5136137771788
 31
0.0
  0
LINE
  5
554
330
1F
100
AcDbEntity
  8
D-0
  6
Continuous
 62
     7
370
     9
100
AcDbLine
 10
-1109.902159129925
 20
-746.5136137771788
 30
0.0
 11
-1111.402193462201
 21
-746.5136137771788
 31
0.0
  0
LINE
  5
555
330
1F
100
AcDbEntity
  8
D-0
  6
Continuous
 62
     7
370
     9
100
AcDbLine
 10
-1095.033260738202
 20
-775.0639906692686
 30
0.0
 11
-1095.033260738202
 21
-773.563708381671
 31
0.0
  0
LINE
  5
556
330
1F
100
AcDbEntity
  8
D-0
  6
Continuous
 62
     7
370
     9
100
AcDbLine
 10
-1095.033260738202
 20
-773.563708381671
 30
0.0
 11
-1093.53323594267
 21
-773.563708381671
 31
0.0
  0
LINE
  5
557
330
1F
100
AcDbEntity
  8
D-0
  6
Continuous
 62
     7
370
     9
100
AcDbLine
 10
-1093.53323594267
 20
-773.563708381671
 30
0.0
 11
-1093.53323594267
 21
-775.0639906692686
 31
0.0
  0
LINE
  5
558
330
1F
100
AcDbEntity
  8
D-0
  6
Continuous
 62
     7
370
     9
100
AcDbLine
 10
-1093.53323594267
 20
-775.0639906692686
 30
0.0
 11
-1095.033260738202
 21
-775.0639906692686
 31
0.0
  0
LINE
  5
559
330
1F
100
AcDbEntity
  8
D-0
  6
Continuous
 62
     7
370
     9
100
AcDbLine
 10
-1043.262230312176
 20
-773.5414305496397
 30
0.0
 11
-1043.262230312176
 21
-772.041148262042
 31
0.0
  0
LINE
  5
55A
330
1F
100
AcDbEntity
  8
D-0
  6
Continuous
 62
     7
370
     9
100
AcDbLine
 10
-1043.262230312176
 20
-772.041148262042
 30
0.0
 11
-1041.762193595715
 21
-772.041148262042
 31
0.0
  0
LINE
  5
55B
330
1F
100
AcDbEntity
  8
D-0
  6
Continuous
 62
     7
370
     9
100
AcDbLine
 10
-1041.762193595715
 20
-772.041148262042
 30
0.0
 11
-1041.762193595715
 21
-773.5414305496397
 31
0.0
  0
LINE
  5
55C
330
1F
100
AcDbEntity
  8
D-0
  6
Continuous
 62
     7
370
     9
100
AcDbLine
 10
-1041.762193595715
 20
-773.5414305496397
 30
0.0
 11
-1043.262230312176
 21
-773.5414305496397
 31
0.0
  0
LINE
  5
55D
330
1F
100
AcDbEntity
  8
D-0
  6
Continuous
 62
     7
370
     9
100
AcDbLine
 10
-1005.195235168286
 20
-773.5414305496397
 30
0.0
 11
-1005.195235168286
 21
-772.041148262042
 31
0.0
  0
LINE
  5
55E
330
1F
100
AcDbEntity
  8
D-0
  6
Continuous
 62
     7
370
     9
100
AcDbLine
 10
-1005.195235168286
 20
-772.041148262042
 30
0.0
 11
-1003.69520351822
 21
-772.041148262042
 31
0.0
  0
LINE
  5
55F
330
1F
100
AcDbEntity
  8
D-0
  6
Continuous
 62
     7
370
     9
100
AcDbLine
 10
-1003.69520351822
 20
-772.041148262042
 30
0.0
 11
-1003.69520351822
 21
-773.5414305496397
 31
0.0
  0
LINE
  5
560
330
1F
100
AcDbEntity
  8
D-0
  6
Continuous
 62
     7
370
     9
100
AcDbLine
 10
-1003.69520351822
 20
-773.5414305496397
 30
0.0
 11
-1005.195235168286
 21
-773.5414305496397
 31
0.0
  0
LINE
  5
561
330
1F
100
AcDbEntity
  8
D-0
  6
Continuous
 62
     7
370
     9
100
AcDbLine
 10
-948.1709922903258
 20
-590.5365553665342
 30
0.0
 11
-948.1709922903258
 21
-589.0357962417784
 31
0.0
  0
LINE
  5
562
330
1F
100
AcDbEntity
  8
D-0
  6
Continuous
 62
     7
370
     9
100
AcDbLine
 10
-948.1709922903258
 20
-589.0357962417784
 30
0.0
 11
-946.670962726422
 21
-589.0357962417784
 31
0.0
  0
LINE
  5
563
330
1F
100
AcDbEntity
  8
D-0
  6
Continuous
 62
     7
370
     9
100
AcDbLine
 10
-946.670962726422
 20
-589.0357962417784
 30
0.0
 11
-946.670962726422
 21
-590.5365553665342
 31
0.0
  0
LINE
  5
564
330
1F
100
AcDbEntity
  8
D-0
  6
Continuous
 62
     7
370
     9
100
AcDbLine
 10
-946.670962726422
 20
-590.5365553665342
 30
0.0
 11
-948.1709922903258
 21
-590.5365553665342
 31
0.0
  0
LINE
  5
565
330
1F
100
AcDbEntity
  8
D-6
  6
Continuous
 62
     6
370
     9
100
AcDbLine
 10
-1127.335850154706
 20
-395.6027975845518
 30
0.0
 11
-1127.335850154706
 21
-780.6028548050108
 31
0.0
  0
LINE
  5
566
330
1F
100
AcDbEntity
  8
D-4
  6
Continuous
 62
     7
370
     9
100
AcDbLine
 10
-1127.335850154706
 20
-685.3584471512022
 30
0.0
 11
-977.3351515882689
 21
-685.3584471512022
 31
0.0
  0
LINE
  5
567
330
1F
100
AcDbEntity
  8
D-4
  6
Continuous
 62
     7
370
     9
100
AcDbLine
 10
-1127.335850154706
 20
-838.9554014969053
 30
0.0
 11
-727.3354686849791
 21
-838.9554014969053
 31
0.0
  0
LINE
  5
568
330
1F
100
AcDbEntity
  8
D-4
  6
Continuous
 62
     7
370
     9
100
AcDbLine
 10
-1127.335850154706
 20
-841.9553938675108
 30
0.0
 11
-1127.335850154706
 21
-800.6028548050108
 31
0.0
  0
LINE
  5
569
330
1F
100
AcDbEntity
  8
D-4
  6
Continuous
 62
     7
370
     9
100
AcDbLine
 10
-727.3354686849791
 20
-841.9553938675108
 30
0.0
 11
-727.3354686849791
 21
-625.60327442171
 31
0.0
  0
LINE
  5
56A
330
1F
100
AcDbEntity
  8
D-1
  6
Continuous
 62
     2
370
     9
100
AcDbLine
 10
-977.3356427305418
 20
-380.6029787826719
 30
0.0
 11
-977.3356427305418
 21
-280.6035033035459
 31
0.0
  0
LINE
  5
56B
330
1F
100
AcDbEntity
  8
D-1
  6
Continuous
 62
     2
370
     9
100
AcDbLine
 10
-992.3354668968398
 20
-280.6035033035459
 30
0.0
 11
-977.3356427305418
 21
-280.6035033035459
 31
0.0
  0
LINE
  5
56C
330
1F
100
AcDbEntity
  8
D-6
  6
Continuous
 62
     6
370
     9
100
AcDbLine
 10
-977.3356427305418
 20
-280.6035033035459
 30
0.0
 11
-562.3349727743346
 21
-280.6035033035459
 31
0.0
  0
LINE
  5
56D
330
1F
100
AcDbEntity
  8
D-4
  6
Continuous
 62
     7
370
     9
100
AcDbLine
 10
-458.5729564779479
 20
-280.6035033035459
 30
0.0
 11
-458.5729564779479
 21
-605.60327442171
 31
0.0
  0
LINE
  5
56E
330
1F
100
AcDbEntity
  8
D-4
  6
Continuous
 62
     7
370
     9
100
AcDbLine
 10
-455.5729641073424
 20
-280.6035033035459
 30
0.0
 11
-542.3349727743346
 21
-280.6035033035459
 31
0.0
  0
LINE
  5
56F
330
1F
100
AcDbEntity
  8
D-4
  6
Continuous
 62
     7
370
     9
100
AcDbLine
 10
-455.5729641073424
 20
-605.60327442171
 30
0.0
 11
-707.3354686849791
 21
-605.60327442171
 31
0.0
  0
ARC
  5
570
330
1F
100
AcDbEntity
  8
D-1
  6
Continuous
 62
     2
370
     9
100
AcDbCircle
 10
-992.3354668968398
 20
-380.6029787826719
 30
0.0
 40
15.0
100
AcDbArc
 50
270.0
 51
0.0
  0
LWPOLYLINE
  5
571
330
1F
100
AcDbEntity
  8
D-4
  6
Continuous
 62
     7
370
     9
100
AcDbPolyline
 90
        4
 70
     1
 43
1.0
 10
-991.83447686369
 20
-53.43212039949208
 42
0.4142135623731
 10
-992.33447686369
 20
-52.93212039949208
 42
0.4142135623731
 10
-992.83447686369
 20
-53.43212039949208
 42
0.4142135623731
 10
-992.33447686369
 20
-53.93212039949208
 42
0.4142135623731
  0
LWPOLYLINE
  5
572
330
1F
100
AcDbEntity
  8
D-4
  6
Continuous
 62
     7
370
     9
100
AcDbPolyline
 90
        4
 70
     1
 43
1.0
 10
-1126.835354244061
 20
-162.1844855117968
 42
0.4142135623731
 10
-1127.335354244061
 20
-161.6844855117968
 42
0.4142135623731
 10
-1127.835354244061
 20
-162.1844855117968
 42
0.4142135623731
 10
-1127.335354244061
 20
-162.6844855117968
 42
0.4142135623731
  0
LWPOLYLINE
  5
573
330
1F
100
AcDbEntity
  8
D-4
  6
Continuous
 62
     7
370
     9
100
AcDbPolyline
 90
        4
 70
     1
 43
1.0
 10
-1001.834522522216
 20
-162.1844855117968
 42
0.4142135623731
 10
-1002.334522522216
 20
-161.6844855117968
 42
0.4142135623731
 10
-1002.834522522216
 20
-162.1844855117968
 42
0.4142135623731
 10
-1002.334522522216
 20
-162.6844855117968
 42
0.4142135623731
  0
LWPOLYLINE
  5
574
330
1F
100
AcDbEntity
  8
D-4
  6
Continuous
 62
     7
370
     9
100
AcDbPolyline
 90
        4
 70
     1
 43
1.0
 10
-1001.834522522216
 20
-53.43212039949208
 42
0.4142135623731
 10
-1002.334522522216
 20
-52.93212039949208
 42
0.4142135623731
 10
-1002.834522522216
 20
-53.43212039949208
 42
0.4142135623731
 10
-1002.334522522216
 20
-53.93212039949208
 42
0.4142135623731
  0
LWPOLYLINE
  5
575
330
1F
100
AcDbEntity
  8
D-4
  6
Continuous
 62
     7
370
     9
100
AcDbPolyline
 90
        4
 70
     1
 43
1.0
 10
-976.8356427305418
 20
-53.43212039949208
 42
0.4142135623731
 10
-977.3356427305418
 20
-52.93212039949208
 42
0.4142135623731
 10
-977.8356427305418
 20
-53.43212039949208
 42
0.4142135623731
 10
-977.3356427305418
 20
-53.93212039949208
 42
0.4142135623731
  0
LWPOLYLINE
  5
576
330
1F
100
AcDbEntity
  8
D-4
  6
Continuous
 62
     7
370
     9
100
AcDbPolyline
 90
        4
 70
     1
 43
1.0
 10
-976.8356427305418
 20
57.26358501432628
 42
0.4142135623731
 10
-977.3356427305418
 20
57.76358501432628
 42
0.4142135623731
 10
-977.8356427305418
 20
57.26358501432628
 42
0.4142135623731
 10
-977.3356427305418
 20
56.76358501432628
 42
0.4142135623731
  0
LWPOLYLINE
  5
577
330
1F
100
AcDbEntity
  8
D-4
  6
Continuous
 62
     7
370
     9
100
AcDbPolyline
 90
        4
 70
     1
 43
1.0
 10
-1126.835850154706
 20
-685.3584471512022
 42
0.4142135623731
 10
-1127.335850154706
 20
-684.8584471512022
 42
0.4142135623731
 10
-1127.835850154706
 20
-685.3584471512022
 42
0.4142135623731
 10
-1127.335850154706
 20
-685.8584471512022
 42
0.4142135623731
  0
LWPOLYLINE
  5
578
330
1F
100
AcDbEntity
  8
D-4
  6
Continuous
 62
     7
370
     9
100
AcDbPolyline
 90
        4
 70
     1
 43
1.0
 10
-976.8351515882689
 20
-685.3584471512022
 42
0.4142135623731
 10
-977.3351515882689
 20
-684.8584471512022
 42
0.4142135623731
 10
-977.8351515882689
 20
-685.3584471512022
 42
0.4142135623731
 10
-977.3351515882689
 20
-685.8584471512022
 42
0.4142135623731
  0
LWPOLYLINE
  5
579
330
1F
100
AcDbEntity
  8
D-4
  6
Continuous
 62
     7
370
     9
100
AcDbPolyline
 90
        4
 70
     1
 43
1.0
 10
-1126.835850154706
 20
-838.9554014969053
 42
0.4142135623731
 10
-1127.335850154706
 20
-838.4554014969053
 42
0.4142135623731
 10
-1127.835850154706
 20
-838.9554014969053
 42
0.4142135623731
 10
-1127.335850154706
 20
-839.4554014969053
 42
0.4142135623731
  0
LWPOLYLINE
  5
57A
330
1F
100
AcDbEntity
  8
D-4
  6
Continuous
 62
     7
370
     9
100
AcDbPolyline
 90
        4
 70
     1
 43
1.0
 10
-726.8354686849791
 20
-838.9554014969053
 42
0.4142135623731
 10
-727.3354686849791
 20
-838.4554014969053
 42
0.4142135623731
 10
-727.8354686849791
 20
-838.9554014969053
 42
0.4142135623731
 10
-727.3354686849791
 20
-839.4554014969053
 42
0.4142135623731
  0
LWPOLYLINE
  5
57B
330
1F
100
AcDbEntity
  8
D-4
  6
Continuous
 62
     7
370
     9
100
AcDbPolyline
 90
        4
 70
     1
 43
1.0
 10
-458.0729564779479
 20
-280.6035033035459
 42
0.4142135623731
 10
-458.5729564779479
 20
-280.1035033035459
 42
0.4142135623731
 10
-459.0729564779479
 20
-280.6035033035459
 42
0.4142135623731
 10
-458.5729564779479
 20
-281.1035033035459
 42
0.4142135623731
  0
LWPOLYLINE
  5
57C
330
1F
100
AcDbEntity
  8
D-4
  6
Continuous
 62
     7
370
     9
100
AcDbPolyline
 90
        4
 70
     1
 43
1.0
 10
-458.0729564779479
 20
-605.60327442171
 42
0.4142135623731
 10
-458.5729564779479
 20
-605.10327442171
 42
0.4142135623731
 10
-459.0729564779479
 20
-605.60327442171
 42
0.4142135623731
 10
-458.5729564779479
 20
-606.10327442171
 42
0.4142135623731
  0
TEXT
  5
57D
330
1F
100
AcDbEntity
  8
D-4
  6
Continuous
 62
     2
370
     9
100
AcDbText
 10
-1086.084600841351
 20
-151.5442757034472
 30
0.0
 40
30.48
  1
25
 41
1.0625
  7
ＭＳ ゴシック
100
AcDbText
  0
TEXT
  5
57E
330
1F
100
AcDbEntity
  8
D-4
  6
Continuous
 62
     2
370
     9
100
AcDbText
 10
-995.2032400720793
 20
-830.0460914993467
 30
0.0
 40
30.48
  1
75～80
 41
1.104166666666667
  7
ＭＳ ゴシック
100
AcDbText
  0
TEXT
  5
57F
330
1F
100
AcDbEntity
  8
D-4
  6
Continuous
 62
     2
370
     9
100
AcDbText
 10
-471.8203783529478
 20
-503.608054483916
 30
0.0
 40
30.48
  1
55～65
 50
90.00000250447755
 41
1.104166666666667
  7
ＭＳ ゴシック
100
AcDbText
  0
TEXT
  5
580
330
1F
100
AcDbEntity
  8
D-4
  6
Continuous
 62
     2
370
     9
100
AcDbText
 10
-964.034289275952
 20
-42.79278797151356
 30
0.0
 40
30.48
  1
3
 41
0.9999999999999998
  7
ＭＳ ゴシック
100
AcDbText
  0
TEXT
  5
581
330
1F
100
AcDbEntity
  8
D-4
  6
Continuous
 62
     2
370
     9
100
AcDbText
 10
-1029.17555228407
 20
-42.79278797151356
 30
0.0
 40
30.48
  1
2
 41
0.9999999999999998
  7
ＭＳ ゴシック
100
AcDbText
  0
LINE
  5
582
330
1F
100
AcDbEntity
  8
D-4
  6
Continuous
 62
     7
370
     9
100
AcDbLine
 10
-1127.326933299847
 20
-513.705081062335
 30
0.0
 11
-977.3268212431151
 21
-513.705081062335
 31
0.0
  0
LINE
  5
583
330
1F
100
AcDbEntity
  8
D-4
  6
Continuous
 62
     7
370
     9
100
AcDbLine
 10
-977.3268212431151
 20
-513.705081062335
 30
0.0
 11
-807.3265995138365
 21
-513.705081062335
 31
0.0
  0
LINE
  5
584
330
1F
100
AcDbEntity
  8
D-4
  6
Continuous
 62
     7
370
     9
100
AcDbLine
 10
-807.3265995138365
 20
-516.7050925064268
 30
0.0
 11
-807.3265995138365
 21
-432.1014109420958
 31
0.0
  0
LINE
  5
585
330
1F
100
AcDbEntity
  8
D-4
  6
Continuous
 62
     7
370
     9
100
AcDbLine
 10
-744.3706287496764
 20
-427.1014776992979
 30
0.0
 11
-802.3265995138365
 21
-427.1014776992979
 31
0.0
  0
LINE
  5
586
330
1F
100
AcDbEntity
  8
D-4
  6
Continuous
 62
     7
370
     9
100
AcDbLine
 10
-747.3706211202818
 20
-395.6023016739073
 30
0.0
 11
-747.3706211202818
 21
-512.352427558917
 31
0.0
  0
LINE
  5
587
330
1F
100
AcDbEntity
  8
D-4
  6
Continuous
 62
     7
370
     9
100
AcDbLine
 10
-977.3268212431151
 20
-516.7050925064268
 30
0.0
 11
-977.3268212431151
 21
-432.1014109420958
 31
0.0
  0
LINE
  5
588
330
1F
100
AcDbEntity
  8
D-9
  6
Continuous
 62
     4
370
     9
100
AcDbLine
 10
-937.3266424291808
 20
-427.1014776992979
 30
0.0
 11
-822.3265995138365
 21
-427.1014776992979
 31
0.0
  0
LINE
  5
589
330
1F
100
AcDbEntity
  8
D-9
  6
Continuous
 62
     4
370
     9
100
AcDbLine
 10
-952.3267139547545
 20
-412.1014109420958
 30
0.0
 11
-952.3267139547545
 21
-398.1014433670225
 31
0.0
  0
LINE
  5
58A
330
1F
100
AcDbEntity
  8
D-9
  6
Continuous
 62
     4
370
     9
100
AcDbLine
 10
-807.3267902486998
 20
-412.1014109420958
 30
0.0
 11
-807.3267902486998
 21
-398.1014433670225
 31
0.0
  0
LINE
  5
58B
330
1F
100
AcDbEntity
  8
D-9
  6
Continuous
 62
     4
370
     9
100
AcDbLine
 10
-972.3268069380003
 20
-408.1014910507383
 30
0.0
 11
-972.3268069380003
 21
-398.1014433670225
 31
0.0
  0
LINE
  5
58C
330
1F
100
AcDbEntity
  8
D-9
  6
Continuous
 62
     4
370
     9
100
AcDbLine
 10
-952.301689540692
 20
-408.1014910507383
 30
0.0
 11
-1002.326517919911
 21
-408.1014910507383
 31
0.0
  0
LINE
  5
58D
330
1F
100
AcDbEntity
  8
D-9
  6
Continuous
 62
     4
370
     9
100
AcDbLine
 10
-807.3267902486998
 20
-398.1014433670225
 30
0.0
 11
-1002.326517919911
 21
-398.1014433670225
 31
0.0
  0
LINE
  5
58E
330
1F
100
AcDbEntity
  8
D-9
  6
Continuous
 62
     3
370
     9
100
AcDbLine
 10
-1102.326847469159
 20
-395.6027975845518
 30
0.0
 11
-1102.326847469159
 21
-418.1027785110655
 31
0.0
  0
LINE
  5
58F
330
1F
100
AcDbEntity
  8
D-9
  6
Continuous
 62
     3
370
     9
100
AcDbLine
 10
-1002.326517919911
 20
-418.1027785110655
 30
0.0
 11
-1102.326847469159
 21
-418.1027785110655
 31
0.0
  0
LINE
  5
590
330
1F
100
AcDbEntity
  8
D-9
  6
Continuous
 62
     3
370
     9
100
AcDbLine
 10
-1002.326517919911
 20
-395.6027975845518
 30
0.0
 11
-1102.326847469159
 21
-395.6027975845518
 31
0.0
  0
LINE
  5
591
330
1F
100
AcDbEntity
  8
D-9
  6
Continuous
 62
     2
370
     9
100
AcDbLine
 10
-1038.576947604962
 20
-420.6014242935362
 30
0.0
 11
-1038.576947604962
 21
-418.1027785110655
 31
0.0
  0
LINE
  5
592
330
1F
100
AcDbEntity
  8
D-9
  6
Continuous
 62
     2
370
     9
100
AcDbLine
 10
-1047.327658092328
 20
-428.10083301546
 30
0.0
 11
-1038.576947604962
 21
-420.6014242935362
 31
0.0
  0
LINE
  5
593
330
1F
100
AcDbEntity
  8
D-9
  6
Continuous
 62
     2
370
     9
100
AcDbLine
 10
-1057.326575671979
 20
-428.10083301546
 30
0.0
 11
-1047.327658092328
 21
-428.10083301546
 31
0.0
  0
LINE
  5
594
330
1F
100
AcDbEntity
  8
D-9
  6
Continuous
 62
     2
370
     9
100
AcDbLine
 10
-1066.077038204022
 20
-420.6014242935362
 30
0.0
 11
-1057.326575671979
 21
-428.10083301546
 31
0.0
  0
LINE
  5
595
330
1F
100
AcDbEntity
  8
D-9
  6
Continuous
 62
     2
370
     9
100
AcDbLine
 10
-1066.077038204022
 20
-420.6014242935362
 30
0.0
 11
-1066.077038204022
 21
-418.1027785110655
 31
0.0
  0
LINE
  5
596
330
1F
100
AcDbEntity
  8
D-9
  6
Continuous
 62
     2
370
     9
100
AcDbLine
 10
-1066.077038204022
 20
-420.6014242935362
 30
0.0
 11
-1038.576947604962
 21
-420.6014242935362
 31
0.0
  0
LINE
  5
597
330
1F
100
AcDbEntity
  8
D-9
  6
Continuous
 62
     3
370
     9
100
AcDbLine
 10
-1002.326517919911
 20
-395.6027975845518
 30
0.0
 11
-1002.326517919911
 21
-418.1027785110655
 31
0.0
  0
LINE
  5
598
330
1F
100
AcDbEntity
  8
D-9
  6
Continuous
 62
     3
370
     9
100
AcDbLine
 10
-1002.326517919911
 20
-405.6027975845518
 30
0.0
 11
-1102.326847469159
 21
-405.6027975845518
 31
0.0
  0
LINE
  5
599
330
1F
100
AcDbEntity
  8
D-9
  6
JWW_DASHED2
 62
     3
370
     9
100
AcDbLine
 10
-1002.326517919911
 20
-408.1027785110655
 30
0.0
 11
-1102.326847469159
 21
-408.1027785110655
 31
0.0
  0
LINE
  5
59A
330
1F
100
AcDbEntity
  8
D-9
  6
JWW_CENTER1
 62
     4
370
     9
100
AcDbLine
 10
-1052.326680576153
 20
-435.8417979049864
 30
0.0
 11
-1052.326680576153
 21
-395.6027975845518
 31
0.0
  0
ARC
  5
59B
330
1F
100
AcDbEntity
  8
D-9
  6
Continuous
 62
     4
370
     9
100
AcDbCircle
 10
-937.3266424291808
 20
-412.1014109420958
 30
0.0
 40
15.00000238418579
100
AcDbArc
 50
180.0
 51
270.0
  0
ARC
  5
59C
330
1F
100
AcDbEntity
  8
D-9
  6
Continuous
 62
     4
370
     9
100
AcDbCircle
 10
-822.3265995138365
 20
-412.1014109420958
 30
0.0
 40
15.00000238418579
100
AcDbArc
 50
270.0
 51
0.0
  0
LWPOLYLINE
  5
59D
330
1F
100
AcDbEntity
  8
D-4
  6
Continuous
 62
     7
370
     9
100
AcDbPolyline
 90
        4
 70
     1
 43
1.0
 10
-1126.826933299847
 20
-513.705081062335
 42
0.4142135623731
 10
-1127.326933299847
 20
-513.205081062335
 42
0.4142135623731
 10
-1127.826933299847
 20
-513.705081062335
 42
0.4142135623731
 10
-1127.326933299847
 20
-514.205081062335
 42
0.4142135623731
  0
LWPOLYLINE
  5
59E
330
1F
100
AcDbEntity
  8
D-4
  6
Continuous
 62
     7
370
     9
100
AcDbPolyline
 90
        4
 70
     1
 43
1.0
 10
-976.8268212431151
 20
-513.705081062335
 42
0.4142135623731
 10
-977.3268212431151
 20
-513.205081062335
 42
0.4142135623731
 10
-977.8268212431151
 20
-513.705081062335
 42
0.4142135623731
 10
-977.3268212431151
 20
-514.205081062335
 42
0.4142135623731
  0
LWPOLYLINE
  5
59F
330
1F
100
AcDbEntity
  8
D-4
  6
Continuous
 62
     7
370
     9
100
AcDbPolyline
 90
        4
 70
     1
 43
1.0
 10
-806.8265995138365
 20
-513.705081062335
 42
0.4142135623731
 10
-807.3265995138365
 20
-513.205081062335
 42
0.4142135623731
 10
-807.8265995138365
 20
-513.705081062335
 42
0.4142135623731
 10
-807.3265995138365
 20
-514.205081062335
 42
0.4142135623731
  0
LWPOLYLINE
  5
5A0
330
1F
100
AcDbEntity
  8
D-4
  6
Continuous
 62
     7
370
     9
100
AcDbPolyline
 90
        4
 70
     1
 43
1.0
 10
-746.8706211202818
 20
-427.1014776992979
 42
0.4142135623731
 10
-747.3706211202818
 20
-426.6014776992979
 42
0.4142135623731
 10
-747.8706211202818
 20
-427.1014776992979
 42
0.4142135623731
 10
-747.3706211202818
 20
-427.6014776992979
 42
0.4142135623731
  0
TEXT
  5
5A1
330
1F
100
AcDbEntity
  8
D-4
  6
Continuous
 62
     2
370
     9
100
AcDbText
 10
-1073.576876079388
 20
-502.0650772476378
 30
0.0
 40
30.48
  1
30
 41
1.0625
  7
ＭＳ ゴシック
100
AcDbText
  0
TEXT
  5
5A2
330
1F
100
AcDbEntity
  8
D-4
  6
Continuous
 62
     2
370
     9
100
AcDbText
 10
-966.9606293791014
 20
-502.0650772476378
 30
0.0
 40
30.48
  1
34
 41
1.0625
  7
ＭＳ ゴシック
100
AcDbText
  0
TEXT
  5
5A3
330
1F
100
AcDbEntity
  8
D-4
  6
Continuous
 62
     2
370
     9
100
AcDbText
 10
-759.0106249349791
 20
-498.7966912637011
 30
0.0
 40
30.48
  1
6.5
 50
90.00000250447675
 41
1.083333333333334
  7
ＭＳ ゴシック
100
AcDbText
  0
LINE
  5
5A4
330
1F
100
AcDbEntity
  8
D-4
  6
Continuous
 62
     7
370
     9
100
AcDbLine
 10
-943.3246864431578
 20
-395.6023016739073
 30
0.0
 11
-744.3700565450865
 21
-395.6023016739073
 31
0.0
  0
LWPOLYLINE
  5
5A5
330
1F
100
AcDbEntity
  8
D-4
  6
Continuous
 62
     7
370
     9
100
AcDbPolyline
 90
        4
 70
     1
 43
1.0
 10
-746.8706211202818
 20
-395.6023016739073
 42
0.4142135623731
 10
-747.3706211202818
 20
-395.1023016739073
 42
0.4142135623731
 10
-747.8706211202818
 20
-395.6023016739073
 42
0.4142135623731
 10
-747.3706211202818
 20
-396.1023016739073
 42
0.4142135623731
  0
LINE
  5
5A6
330
1F
100
AcDbEntity
  8
D-4
  6
Continuous
 62
     7
370
     9
100
AcDbLine
 10
-747.3706211202818
 20
-395.6023016739073
 30
0.0
 11
-747.3706211202818
 21
-280.6035033035459
 31
0.0
  0
LWPOLYLINE
  5
5A7
330
1F
100
AcDbEntity
  8
D-4
  6
Continuous
 62
     7
370
     9
100
AcDbPolyline
 90
        4
 70
     1
 43
1.0
 10
-746.8706211202818
 20
-280.6035033035459
 42
0.4142135623731
 10
-747.3706211202818
 20
-280.1035033035459
 42
0.4142135623731
 10
-747.8706211202818
 20
-280.6035033035459
 42
0.4142135623731
 10
-747.3706211202818
 20
-281.1035033035459
 42
0.4142135623731
  0
TEXT
  5
5A8
330
1F
100
AcDbEntity
  8
D-4
  6
Continuous
 62
     2
370
   211
100
AcDbText
 10
-763.0106211202818
 20
-359.3529024887266
 30
0.0
 40
30.48
  1
23
 50
90.0
 41
1.0625
  7
ＭＳ ゴシック
100
AcDbText
  0
LINE
  5
5A9
330
1F
100
AcDbEntity
  8
D-5
  6
Continuous
 62
     7
370
     9
100
AcDbLine
 10
-959.215809261151
 20
-398.1014433670225
 30
0.0
 11
-945.4041208379942
 21
-377.263020591754
 31
0.0
  0
LINE
  5
5AA
330
1F
100
AcDbEntity
  8
D-5
  6
Continuous
 62
     7
370
     9
100
AcDbLine
 10
-959.215809261151
 20
-398.1014433670225
 30
0.0
 11
-940.4821313970763
 21
-381.5473357010069
 31
0.0
  0
LINE
  5
5AB
330
1F
100
AcDbEntity
  8
D-5
  6
Continuous
 62
     7
370
     9
100
AcDbLine
 10
-784.6666778677184
 20
-197.5540152359179
 30
0.0
 11
-959.215809261151
 21
-398.1014433670225
 31
0.0
  0
LINE
  5
5AC
330
1F
100
AcDbEntity
  8
D-5
  6
Continuous
 62
     7
370
     9
100
AcDbLine
 10
-794.0729645130125
 20
-1.985883452151711
 30
0.0
 11
-1036.57190074504
 21
-280.6031981277647
 31
0.0
  0
LINE
  5
5AD
330
1F
100
AcDbEntity
  8
D-5
  6
Continuous
 62
     7
370
     9
100
AcDbLine
 10
-1036.57190074504
 20
-280.6031981277647
 30
0.0
 11
-1022.761204143172
 21
-259.7652670908155
 31
0.0
  0
LINE
  5
5AE
330
1F
100
AcDbEntity
  8
D-5
  6
Continuous
 62
     7
370
     9
100
AcDbLine
 10
-1036.57190074504
 20
-280.6031981277647
 30
0.0
 11
-1017.838225265151
 21
-264.0495863723936
 31
0.0
  0
LINE
  5
5AF
330
1F
100
AcDbEntity
  8
D-5
  6
Continuous
 62
     7
370
     9
100
AcDbLine
 10
-787.2462461878251
 20
-91.36479058034524
 30
0.0
 11
-332.6491824892639
 21
-91.36479058034524
 31
0.0
  0
LINE
  5
5B0
330
1F
100
AcDbEntity
  8
D-5
  6
Continuous
 62
     7
370
     9
100
AcDbLine
 10
-977.3356570356566
 20
-309.7665783226978
 30
0.0
 11
-963.5249604337889
 21
-288.9286472857486
 31
0.0
  0
LINE
  5
5B1
330
1F
100
AcDbEntity
  8
D-5
  6
Continuous
 62
     7
370
     9
100
AcDbLine
 10
-787.2462461878251
 20
-91.36479058034524
 30
0.0
 11
-977.3356570356566
 21
-309.7665783226978
 31
0.0
  0
LINE
  5
5B2
330
1F
100
AcDbEntity
  8
D-5
  6
Continuous
 62
     7
370
     9
100
AcDbLine
 10
-977.3356570356566
 20
-309.7665783226978
 30
0.0
 11
-958.6019815557677
 21
-293.2129665673267
 31
0.0
  0
TEXT
  5
5B3
330
1F
100
AcDbEntity
  8
D-4
  6
Continuous
 62
     2
370
     9
100
AcDbText
 10
-1118.585500871487
 20
-672.8114202177729
 30
0.0
 40
30.48
  1
25～30
 41
1.104166666666667
  7
ＭＳ ゴシック
100
AcDbText
  0
LINE
  5
5B4
330
1F
100
AcDbEntity
  8
D-5
  6
Continuous
 62
     7
370
     9
100
AcDbLine
 10
-784.6666778677184
 20
-197.5540152359179
 30
0.0
 11
-162.5220312436034
 21
-197.5540152359179
 31
0.0
  0
LINE
  5
5B5
330
1F
100
AcDbEntity
  8
D-6
  6
Continuous
 62
     6
370
     9
100
AcDbLine
 10
-834.8265613668639
 20
-605.60327442171
 30
0.0
 11
-834.8265613668639
 21
-427.1014776992979
 31
0.0
  0
LINE
  5
5B6
330
1F
100
AcDbEntity
  8
D-6
  6
Continuous
 62
     6
370
     9
100
AcDbLine
 10
-879.8270191305357
 20
-605.60327442171
 30
0.0
 11
-879.8270191305357
 21
-427.1014776992979
 31
0.0
  0
LINE
  5
5B7
330
1F
100
AcDbEntity
  8
D-6
  6
Continuous
 62
     6
370
     9
100
AcDbLine
 10
-879.8270191305357
 20
-398.1014433670225
 30
0.0
 11
-879.8270191305357
 21
-363.1014433670225
 31
0.0
  0
LINE
  5
5B8
330
1F
100
AcDbEntity
  8
D-6
  6
Continuous
 62
     6
370
     9
100
AcDbLine
 10
-834.8265613668639
 20
-398.1014433670225
 30
0.0
 11
-834.8265613668639
 21
-363.1014433670225
 31
0.0
  0
LINE
  5
5B9
330
1F
100
AcDbEntity
  8
D-6
  6
Continuous
 62
     6
370
     9
100
AcDbLine
 10
-879.8270191305357
 20
-363.1014433670225
 30
0.0
 11
-834.8265613668639
 21
-363.1014433670225
 31
0.0
  0
LINE
  5
5BA
330
1F
100
AcDbEntity
  8
D-6
  6
JWW_CENTER2
 62
     6
370
     9
100
AcDbLine
 10
-857.3267902486998
 20
-350.7880488205137
 30
0.0
 11
-857.3267902486998
 21
-718.93579395296
 31
0.0
  0
LINE
  5
5BB
330
1F
100
AcDbEntity
  8
D-6
  6
JWW_DASHED3
 62
     6
370
     9
100
AcDbLine
 10
-879.8270191305357
 20
-708.1028929519834
 30
0.0
 11
-879.8270191305357
 21
-605.60327442171
 31
0.0
  0
LINE
  5
5BC
330
1F
100
AcDbEntity
  8
D-6
  6
JWW_DASHED3
 62
     6
370
     9
100
AcDbLine
 10
-834.8265613668639
 20
-605.60327442171
 30
0.0
 11
-834.8265613668639
 21
-708.1028929519834
 31
0.0
  0
TEXT
  5
5BD
330
1F
100
AcDbEntity
  8
D-5
  6
Continuous
 62
     7
370
     9
100
AcDbText
 10
-771.0224403494078
 20
-188.6651254654101
 30
0.0
 40
22.86
  1
アンカー
 41
1.125
  7
ＭＳ ゴシック
100
AcDbText
  0
TEXT
  5
5BE
330
1F
100
AcDbEntity
  8
D-5
  6
Continuous
 62
     7
370
     9
100
AcDbText
 10
-674.5493928304415
 20
-696.6414805631985
 30
0.0
 40
22.86
  1
差筋φ9程度
 41
1.136363636363636
  7
ＭＳ ゴシック
100
AcDbText
  0
LINE
  5
5BF
330
1F
100
AcDbEntity
  8
D-5
  6
Continuous
 62
     7
370
     9
100
AcDbLine
 10
-674.9913445821505
 20
-708.3352218656887
 30
0.0
 11
-486.6671342193297
 21
-708.3352218656887
 31
0.0
  0
LINE
  5
5C0
330
1F
100
AcDbEntity
  8
D-5
  6
Continuous
 62
     7
370
     9
100
AcDbLine
 10
-834.8349727743346
 20
-548.4915936735024
 30
0.0
 11
-674.9913445821505
 21
-708.3352218656887
 31
0.0
  0
LINE
  5
5C1
330
1F
100
AcDbEntity
  8
D-5
  6
Continuous
 62
     7
370
     9
100
AcDbLine
 10
-834.8349727743346
 20
-548.4915936735024
 30
0.0
 11
-819.6159370491171
 21
-568.3254271807846
 31
0.0
  0
LINE
  5
5C2
330
1F
100
AcDbEntity
  8
D-5
  6
Continuous
 62
     7
370
     9
100
AcDbLine
 10
-834.8349727743346
 20
-548.4915936735024
 30
0.0
 11
-815.0011392670524
 21
-563.7106293987199
 31
0.0
  0
LINE
  5
5C3
330
1F
100
AcDbEntity
  8
D-5
  6
Continuous
 62
     7
370
     9
100
AcDbLine
 10
-794.0729645130125
 20
-1.985883452151711
 30
0.0
 11
134.6645016980546
 21
-1.985883452151711
 31
0.0
  0
TEXT
  5
5C4
330
1F
100
AcDbEntity
  8
D-5
  6
Continuous
 62
     7
370
     9
100
AcDbText
 10
-795.2219799849257
 20
43.24030405869222
 30
0.0
 40
22.86
  1
ステンレス製　細目ノンスリップタイプ（ローレット模様）
 41
1.160493827160494
  7
ＭＳ ゴシック
100
AcDbText
  0
TEXT
  5
5C5
330
1F
100
AcDbEntity
  8
D-5
  6
Continuous
 62
     7
370
     9
100
AcDbText
 10
-795.2219835994277
 20
10.53537852158129
 30
0.0
 40
22.86
  1
グレーチング（すきま6mm）ＺＱーＨ－２０
 50
0.00004895879748
 41
1.158119658119658
  7
ＭＳ ゴシック
100
AcDbText
  0
TEXT
  5
5C6
330
1F
100
AcDbEntity
  8
D-5
  6
Continuous
 62
     7
370
     9
100
AcDbText
 10
-782.8588526629087
 20
-82.37582222707633
 30
0.0
 40
22.86
  1
ステンレス製受枠ＲＬ－２０
 50
359.9999368586928
 41
1.153846153846155
  7
ＭＳ ゴシック
100
AcDbText
  0
TEXT
  5
5C7
330
1F
100
AcDbEntity
  8
D-5
  6
Continuous
 62
     7
370
     9
100
AcDbText
 10
-771.0224403494078
 20
-227.9830480575731
 30
0.0
 40
22.86
  1
ｔ＝２．０（ＳＥＣＣまたはＳＧＨＣ）
 41
1.157407407407407
  7
ＭＳ ゴシック
100
AcDbText
  0
LINE
  5
5C8
330
1F
100
AcDbEntity
  8
C-5
  6
Continuous
 62
     7
370
     9
100
AcDbLine
 10
-337.6162699581256
 20
210.163076544149
 30
0.0
 11
-912.6166972042195
 21
210.163076544149
 31
0.0
  0
TEXT
  5
5C9
330
1F
100
AcDbEntity
  8
C-5
  6
Continuous
 62
     2
370
     9
100
AcDbText
 10
-892.6166151882283
 20
228.3027465728355
 30
0.0
 40
30.48
  1
平面詳細図　Ｓ＝１：１０
 41
1.114583333333333
  7
ＭＳ ゴシック
100
AcDbText
  0
LINE
  5
5CA
330
1F
100
AcDbEntity
  8
C-5
  6
Continuous
 62
     7
370
     9
100
AcDbLine
 10
-855.1171448898733
 20
351.2366432867811
 30
0.0
 11
-755.1168428070895
 21
351.2366432867811
 31
0.0
  0
LWPOLYLINE
  5
5CB
330
1F
100
AcDbEntity
  8
C-5
  6
Continuous
 62
     7
370
     9
100
AcDbPolyline
 90
        4
 70
     1
 43
1.0
 10
-854.6171448898734
 20
351.2366432867811
 42
0.4142135623731
 10
-855.1171448898733
 20
351.7366432867811
 42
0.4142135623731
 10
-855.6171448898733
 20
351.2366432867811
 42
0.4142135623731
 10
-855.1171448898733
 20
350.7366432867811
 42
0.4142135623731
  0
LWPOLYLINE
  5
5CC
330
1F
100
AcDbEntity
  8
C-5
  6
Continuous
 62
     7
370
     9
100
AcDbPolyline
 90
        4
 70
     1
 43
1.0
 10
-754.6168428070895
 20
351.2366432867811
 42
0.4142135623731
 10
-755.1168428070895
 20
351.7366432867811
 42
0.4142135623731
 10
-755.6168428070895
 20
351.2366432867811
 42
0.4142135623731
 10
-755.1168428070895
 20
350.7366432867811
 42
0.4142135623731
  0
LINE
  5
5CD
330
1F
100
AcDbEntity
  8
C-5
  6
Continuous
 62
     7
370
     9
100
AcDbLine
 10
-855.1171448898733
 20
348.2366432867811
 30
0.0
 11
-855.1171448898733
 21
458.6147841053947
 31
0.0
  0
LINE
  5
5CE
330
1F
100
AcDbEntity
  8
C-5
  6
Continuous
 62
     7
370
     9
100
AcDbLine
 10
-755.1168428070895
 20
348.2366432867811
 30
0.0
 11
-755.1168428070895
 21
419.6822727819871
 31
0.0
  0
TEXT
  5
5CF
330
1F
100
AcDbEntity
  8
C-5
  6
Continuous
 62
     2
370
   211
100
AcDbText
 10
-837.6169938484815
 20
362.8766432867811
 30
0.0
 40
30.48
  1
100
 41
1.083333333333333
  7
ＭＳ ゴシック
100
AcDbText
  0
LINE
  5
5D0
330
1F
100
AcDbEntity
  8
C-5
  6
Continuous
 62
     7
370
     9
100
AcDbLine
 10
-755.1168428070895
 20
351.2366432867811
 30
0.0
 11
-495.1156373627538
 21
351.2366432867811
 31
0.0
  0
LWPOLYLINE
  5
5D1
330
1F
100
AcDbEntity
  8
C-5
  6
Continuous
 62
     7
370
     9
100
AcDbPolyline
 90
        4
 70
     1
 43
1.0
 10
-494.6156373627538
 20
351.2366432867811
 42
0.4142135623731
 10
-495.1156373627538
 20
351.7366432867811
 42
0.4142135623731
 10
-495.6156373627538
 20
351.2366432867811
 42
0.4142135623731
 10
-495.1156373627538
 20
350.7366432867811
 42
0.4142135623731
  0
LINE
  5
5D2
330
1F
100
AcDbEntity
  8
C-5
  6
Continuous
 62
     7
370
     9
100
AcDbLine
 10
-495.1156373627538
 20
348.2366432867811
 30
0.0
 11
-495.1156373627538
 21
419.6822727819871
 31
0.0
  0
TEXT
  5
5D3
330
1F
100
AcDbEntity
  8
C-5
  6
Continuous
 62
     2
370
   211
100
AcDbText
 10
-657.6162400849216
 20
362.8766432867811
 30
0.0
 40
30.48
  1
260
 41
1.083333333333333
  7
ＭＳ ゴシック
100
AcDbText
  0
LINE
  5
5D4
330
1F
100
AcDbEntity
  8
C-5
  6
Continuous
 62
     7
370
     9
100
AcDbLine
 10
-495.1156373627538
 20
351.2366432867811
 30
0.0
 11
-395.1159538795273
 21
351.2366432867811
 31
0.0
  0
LWPOLYLINE
  5
5D5
330
1F
100
AcDbEntity
  8
C-5
  6
Continuous
 62
     7
370
     9
100
AcDbPolyline
 90
        4
 70
     1
 43
1.0
 10
-394.6159538795274
 20
351.2366432867811
 42
0.4142135623731
 10
-395.1159538795273
 20
351.7366432867811
 42
0.4142135623731
 10
-395.6159538795273
 20
351.2366432867811
 42
0.4142135623731
 10
-395.1159538795273
 20
350.7366432867811
 42
0.4142135623731
  0
LINE
  5
5D6
330
1F
100
AcDbEntity
  8
C-5
  6
Continuous
 62
     7
370
     9
100
AcDbLine
 10
-395.1159538795273
 20
348.2366432867811
 30
0.0
 11
-395.1159538795273
 21
458.6147841053947
 31
0.0
  0
TEXT
  5
5D7
330
1F
100
AcDbEntity
  8
C-5
  6
Continuous
 62
     2
370
   211
100
AcDbText
 10
-477.6157956211405
 20
362.8766432867811
 30
0.0
 40
30.48
  1
100
 41
1.083333333333333
  7
ＭＳ ゴシック
100
AcDbText
  0
TEXT
  5
5D8
330
1F
100
AcDbEntity
  8
F-4ﾚｲﾔ
  6
Continuous
 62
     2
370
     9
100
AcDbText
 10
-845.5731892682459
 20
-1370.93982645808
 30
0.0
 40
30.48
  1
ＺＱ－Ｈ－２０　４５０×４５０×２０　ステンレス製受枠ＲＬ－２０（四方枠）
 41
0.7743243243243242
  7
ＭＳ ゴシック
100
AcDbText
  0
ENDSEC
  0
SECTION
  2
OBJECTS
  0
DICTIONARY
  5
C
330
0
100
AcDbDictionary
281
     1
  3
ACAD_GROUP
350
D
  3
ACAD_LAYOUT
350
1A
  3
ACAD_MLEADERSTYLE
350
5DA
  3
ACAD_MLINESTYLE
350
17
  3
ACAD_PLOTSETTINGS
350
19
  3
ACAD_PLOTSTYLENAME
350
E
  3
ACAD_TABLESTYLE
350
5D9
  3
ACAD_VISUALSTYLE
350
2A
  0
DICTIONARY
  5
D
102
{ACAD_REACTORS
330
C
102
}
330
C
100
AcDbDictionary
281
     1
  0
DICTIONARY
  5
1A
102
{ACAD_REACTORS
330
C
102
}
330
C
100
AcDbDictionary
281
     1
  3
Layout1
350
1E
  3
Layout2
350
26
  3
Model
350
22
  0
DICTIONARY
  5
5DA
102
{ACAD_REACTORS
330
C
102
}
330
C
100
AcDbDictionary
281
     1
  0
DICTIONARY
  5
17
102
{ACAD_REACTORS
330
C
102
}
330
C
100
AcDbDictionary
281
     1
  3
Standard
350
18
  0
DICTIONARY
  5
19
102
{ACAD_REACTORS
330
C
102
}
330
C
100
AcDbDictionary
281
     1
  0
ACDBDICTIONARYWDFLT
  5
E
102
{ACAD_REACTORS
330
C
102
}
330
C
100
AcDbDictionary
281
     1
  3
Normal
350
F
100
AcDbDictionaryWithDefault
340
F
  0
DICTIONARY
  5
5D9
102
{ACAD_REACTORS
330
C
102
}
330
C
100
AcDbDictionary
281
     1
  0
DICTIONARY
  5
2A
102
{ACAD_REACTORS
330
C
102
}
330
C
100
AcDbDictionary
281
     1
  3
2dWireframe
350
2F
  3
3D Hidden
350
31
  3
3dWireframe
350
30
  3
Basic
350
32
  3
Brighten
350
36
  3
ColorChange
350
3A
  3
Conceptual
350
34
  3
Dim
350
35
  3
Facepattern
350
39
  3
Flat
350
2B
  3
FlatWithEdges
350
2C
  3
Gouraud
350
2D
  3
GouraudWithEdges
350
2E
  3
Linepattern
350
38
  3
Realistic
350
33
  3
Thicken
350
37
  0
LAYOUT
  5
1E
102
{ACAD_REACTORS
330
1A
102
}
330
1A
100
AcDbPlotSettings
  1

  2
none_device
  4

  6

 40
0.0
 41
0.0
 42
0.0
 43
0.0
 44
0.0
 45
0.0
 46
0.0
 47
0.0
 48
0.0
 49
0.0
140
0.0
141
0.0
142
1.0
143
1.0
 70
   688
 72
     0
 73
     0
 74
     5
  7

 75
    16
 76
     0
 77
     5
 78
   300
147
1.0
148
0.0
149
0.0
100
AcDbLayout
  1
Layout1
 70
     1
 71
     1
 10
0.0
 20
0.0
 11
420.0
 21
297.0
 12
0.0
 22
0.0
 32
0.0
 14
1.000000000000000E+20
 24
1.000000000000000E+20
 34
1.000000000000000E+20
 15
-1.000000000000000E+20
 25
-1.000000000000000E+20
 35
-1.000000000000000E+20
146
0.0
 13
0.0
 23
0.0
 33
0.0
 16
1.0
 26
0.0
 36
0.0
 17
0.0
 27
1.0
 37
0.0
 76
     0
330
1B
  0
LAYOUT
  5
26
102
{ACAD_REACTORS
330
1A
102
}
330
1A
100
AcDbPlotSettings
  1

  2
none_device
  4

  6

 40
0.0
 41
0.0
 42
0.0
 43
0.0
 44
0.0
 45
0.0
 46
0.0
 47
0.0
 48
0.0
 49
0.0
140
0.0
141
0.0
142
1.0
143
1.0
 70
   688
 72
     0
 73
     0
 74
     5
  7

 75
    16
 76
     0
 77
     5
 78
   300
147
1.0
148
0.0
149
0.0
100
AcDbLayout
  1
Layout2
 70
     1
 71
     2
 10
0.0
 20
0.0
 11
0.0
 21
0.0
 12
0.0
 22
0.0
 32
0.0
 14
0.0
 24
0.0
 34
0.0
 15
0.0
 25
0.0
 35
0.0
146
0.0
 13
0.0
 23
0.0
 33
0.0
 16
1.0
 26
0.0
 36
0.0
 17
0.0
 27
1.0
 37
0.0
 76
     0
330
23
  0
LAYOUT
  5
22
102
{ACAD_REACTORS
330
1A
102
}
330
1A
100
AcDbPlotSettings
  1

  2
none_device
  4

  6

 40
0.0
 41
0.0
 42
0.0
 43
0.0
 44
0.0
 45
0.0
 46
0.0
 47
0.0
 48
0.0
 49
0.0
140
0.0
141
0.0
142
1.0
143
1.0
 70
  1712
 72
     0
 73
     0
 74
     0
  7

 75
     0
 76
     0
 77
     5
 78
   300
147
1.0
148
0.0
149
0.0
100
AcDbLayout
  1
Model
 70
     1
 71
     0
 10
-2100.0
 20
-1485.0
 11
2100.0
 21
1485.0
 12
0.0
 22
0.0
 32
0.0
 14
-2100.0
 24
-1485.0
 34
0.0
 15
2100.0
 25
1485.0
 35
0.0
146
0.0
 13
0.0
 23
0.0
 33
0.0
 16
1.0
 26
0.0
 36
0.0
 17
0.0
 27
1.0
 37
0.0
 76
     0
330
1F
331
29
  0
MLINESTYLE
  5
18
102
{ACAD_REACTORS
330
17
102
}
330
17
100
AcDbMlineStyle
  2
Standard
 70
     0
  3

 62
   256
 51
90.0
 52
90.0
 71
     2
 49
0.5
 62
   256
  6
BYLAYER
 49
-0.5
 62
   256
  6
BYLAYER
  0
ACDBPLACEHOLDER
  5
F
102
{ACAD_REACTORS
330
E
102
}
330
E
  0
VISUALSTYLE
  5
2F
102
{ACAD_REACTORS
330
2A
102
}
330
2A
100
AcDbVisualStyle
  2
2dWireframe
 70
     4
 71
     0
 72
     2
 73
     0
 90
        0
 40
-0.6
 41
-30.0
 62
     5
 63
     7
421
 16777215
 74
     1
 91
        4
 64
     7
 65
   257
 75
     1
175
     1
 42
1.0
 92
        0
 66
   257
 43
1.0
 76
     1
 77
     6
 78
     2
 67
     7
 79
     5
170
     0
171
     0
290
     0
174
     0
 93
        1
 44
0.0
173
     0
291
     0
 45
0.0
1001
ACAD
1000
AcDbSavedByObjectVersion
1070
     0
  0
VISUALSTYLE
  5
31
102
{ACAD_REACTORS
330
2A
102
}
330
2A
100
AcDbVisualStyle
  2
3D Hidden
 70
     6
 71
     1
 72
     2
 73
     2
 90
        0
 40
-0.6
 41
-30.0
 62
     5
 63
     7
421
 16777215
 74
     2
 91
        2
 64
     7
 65
   257
 75
     2
175
     1
 42
40.0
 92
        0
 66
   257
 43
1.0
 76
     1
 77
     6
 78
     2
 67
     7
 79
     3
170
     0
171
     0
290
     0
174
     0
 93
        1
 44
0.0
173
     0
291
     0
 45
0.0
1001
ACAD
1000
AcDbSavedByObjectVersion
1070
     0
  0
VISUALSTYLE
  5
30
102
{ACAD_REACTORS
330
2A
102
}
330
2A
100
AcDbVisualStyle
  2
3dWireframe
 70
     5
 71
     0
 72
     2
 73
     0
 90
        0
 40
-0.6
 41
-30.0
 62
     5
 63
     7
421
 16777215
 74
     1
 91
        4
 64
     7
 65
   257
 75
     1
175
     1
 42
1.0
 92
        0
 66
   257
 43
1.0
 76
     1
 77
     6
 78
     2
 67
     7
 79
     5
170
     0
171
     0
290
     0
174
     0
 93
        1
 44
0.0
173
     0
291
     0
 45
0.0
1001
ACAD
1000
AcDbSavedByObjectVersion
1070
     0
  0
VISUALSTYLE
  5
32
102
{ACAD_REACTORS
330
2A
102
}
330
2A
100
AcDbVisualStyle
  2
Basic
 70
     7
 71
     1
 72
     0
 73
     1
 90
        0
 40
-0.6
 41
-30.0
 62
     5
 63
     7
421
 16777215
 74
     0
 91
        4
 64
     7
 65
   257
 75
     1
175
     1
 42
1.0
 92
        8
 66
     7
 43
1.0
 76
     1
 77
     6
 78
     2
 67
     7
 79
     5
170
     0
171
     0
290
     0
174
     0
 93
        1
 44
0.0
173
     0
291
     1
 45
0.0
1001
ACAD
1000
AcDbSavedByObjectVersion
1070
     0
  0
VISUALSTYLE
  5
36
102
{ACAD_REACTORS
330
2A
102
}
330
2A
100
AcDbVisualStyle
  2
Brighten
 70
    12
 71
     2
 72
     2
 73
     0
 90
        0
 40
-0.6
 41
-30.0
 62
     5
 63
     7
421
 16777215
 74
     1
 91
        4
 64
     7
 65
   257
 75
     1
175
     1
 42
1.0
 92
        8
 66
     7
 43
1.0
 76
     1
 77
     6
 78
     2
 67
     7
 79
     5
170
     0
171
     0
290
     0
174
     0
 93
        1
 44
50.0
173
     0
291
     1
 45
0.0
1001
ACAD
1000
AcDbSavedByObjectVersion
1070
     0
  0
VISUALSTYLE
  5
3A
102
{ACAD_REACTORS
330
2A
102
}
330
2A
100
AcDbVisualStyle
  2
ColorChange
 70
    16
 71
     2
 72
     2
 73
     3
 90
        0
 40
-0.6
 41
-30.0
 62
     5
 63
     8
421
  8421504
 74
     1
 91
        4
 64
     7
 65
   257
 75
     1
175
     1
 42
1.0
 92
        8
 66
     8
424
  8421504
 43
1.0
 76
     1
 77
     6
 78
     2
 67
     7
 79
     5
170
     0
171
     0
290
     0
174
     0
 93
        1
 44
0.0
173
     0
291
     1
 45
0.0
1001
ACAD
1000
AcDbSavedByObjectVersion
1070
     0
  0
VISUALSTYLE
  5
34
102
{ACAD_REACTORS
330
2A
102
}
330
2A
100
AcDbVisualStyle
  2
Conceptual
 70
     9
 71
     3
 72
     2
 73
     0
 90
        0
 40
-0.6
 41
-30.0
 62
     5
 63
     7
421
 16777215
 74
     2
 91
        2
 64
     7
 65
   257
 75
     1
175
     1
 42
40.0
 92
        8
 66
     7
 43
1.0
 76
     1
 77
     6
 78
     2
 67
     7
 79
     3
170
     0
171
     0
290
     0
174
     0
 93
        1
 44
0.0
173
     0
291
     0
 45
0.0
1001
ACAD
1000
AcDbSavedByObjectVersion
1070
     0
  0
VISUALSTYLE
  5
35
102
{ACAD_REACTORS
330
2A
102
}
330
2A
100
AcDbVisualStyle
  2
Dim
 70
    11
 71
     2
 72
     2
 73
     0
 90
        0
 40
-0.6
 41
-30.0
 62
     5
 63
     7
421
 16777215
 74
     1
 91
        4
 64
     7
 65
   257
 75
     1
175
     1
 42
1.0
 92
        8
 66
     7
 43
1.0
 76
     1
 77
     6
 78
     2
 67
     7
 79
     5
170
     0
171
     0
290
     0
174
     0
 93
        1
 44
-50.0
173
     0
291
     1
 45
0.0
1001
ACAD
1000
AcDbSavedByObjectVersion
1070
     0
  0
VISUALSTYLE
  5
39
102
{ACAD_REACTORS
330
2A
102
}
330
2A
100
AcDbVisualStyle
  2
Facepattern
 70
    15
 71
     2
 72
     2
 73
     0
 90
        0
 40
-0.6
 41
-30.0
 62
     5
 63
     7
421
 16777215
 74
     1
 91
        4
 64
     7
 65
   257
 75
     1
175
     1
 42
1.0
 92
        8
 66
     7
 43
1.0
 76
     1
 77
     6
 78
     2
 67
     7
 79
     5
170
     0
171
     0
290
     0
174
     0
 93
        1
 44
0.0
173
     0
291
     1
 45
0.0
1001
ACAD
1000
AcDbSavedByObjectVersion
1070
     0
  0
VISUALSTYLE
  5
2B
102
{ACAD_REACTORS
330
2A
102
}
330
2A
100
AcDbVisualStyle
  2
Flat
 70
     0
 71
     2
 72
     1
 73
     1
 90
        2
 40
-0.6
 41
30.0
 62
     5
 63
     7
421
 16777215
 74
     0
 91
        4
 64
     7
 65
   257
 75
     1
175
     1
 42
1.0
 92
        8
 66
     7
 43
1.0
 76
     1
 77
     6
 78
     2
 67
     7
 79
     5
170
     0
171
     0
290
     0
174
     0
 93
       13
 44
0.0
173
     0
291
     1
 45
0.0
1001
ACAD
1000
AcDbSavedByObjectVersion
1070
     0
  0
VISUALSTYLE
  5
2C
102
{ACAD_REACTORS
330
2A
102
}
330
2A
100
AcDbVisualStyle
  2
FlatWithEdges
 70
     1
 71
     2
 72
     1
 73
     1
 90
        2
 40
-0.6
 41
30.0
 62
     5
 63
     7
421
 16777215
 74
     1
 91
        4
 64
     7
 65
   257
 75
     1
175
     1
 42
1.0
 92
        0
 66
   257
 43
1.0
 76
     1
 77
     6
 78
     2
 67
     7
 79
     5
170
     0
171
     0
290
     0
174
     0
 93
       13
 44
0.0
173
     0
291
     1
 45
0.0
1001
ACAD
1000
AcDbSavedByObjectVersion
1070
     0
  0
VISUALSTYLE
  5
2D
102
{ACAD_REACTORS
330
2A
102
}
330
2A
100
AcDbVisualStyle
  2
Gouraud
 70
     2
 71
     2
 72
     2
 73
     1
 90
        2
 40
-0.6
 41
30.0
 62
     5
 63
     7
421
 16777215
 74
     0
 91
        4
 64
     7
 65
   257
 75
     1
175
     1
 42
1.0
 92
        0
 66
     7
 43
1.0
 76
     1
 77
     6
 78
     2
 67
     7
 79
     5
170
     0
171
     0
290
     0
174
     0
 93
       13
 44
0.0
173
     0
291
     1
 45
0.0
1001
ACAD
1000
AcDbSavedByObjectVersion
1070
     0
  0
VISUALSTYLE
  5
2E
102
{ACAD_REACTORS
330
2A
102
}
330
2A
100
AcDbVisualStyle
  2
GouraudWithEdges
 70
     3
 71
     2
 72
     2
 73
     1
 90
        2
 40
-0.6
 41
30.0
 62
     5
 63
     7
421
 16777215
 74
     1
 91
        4
 64
     7
 65
   257
 75
     1
175
     1
 42
1.0
 92
        0
 66
   257
 43
1.0
 76
     1
 77
     6
 78
     2
 67
     7
 79
     5
170
     0
171
     0
290
     0
174
     0
 93
       13
 44
0.0
173
     0
291
     1
 45
0.0
1001
ACAD
1000
AcDbSavedByObjectVersion
1070
     0
  0
VISUALSTYLE
  5
38
102
{ACAD_REACTORS
330
2A
102
}
330
2A
100
AcDbVisualStyle
  2
Linepattern
 70
    14
 71
     2
 72
     2
 73
     0
 90
        0
 40
-0.6
 41
-30.0
 62
     5
 63
     7
421
 16777215
 74
     1
 91
        4
 64
     7
 65
   257
 75
     7
175
     7
 42
1.0
 92
        8
 66
     7
 43
1.0
 76
     1
 77
     6
 78
     2
 67
     7
 79
     5
170
     0
171
     0
290
     0
174
     0
 93
        1
 44
0.0
173
     0
291
     1
 45
0.0
1001
ACAD
1000
AcDbSavedByObjectVersion
1070
     0
  0
VISUALSTYLE
  5
33
102
{ACAD_REACTORS
330
2A
102
}
330
2A
100
AcDbVisualStyle
  2
Realistic
 70
     8
 71
     2
 72
     2
 73
     0
 90
        0
 40
-0.6
 41
-30.0
 62
     5
 63
     7
421
 16777215
 74
     1
 91
        0
 64
     7
 65
   257
 75
     1
175
     1
 42
1.0
 92
        8
 66
     8
424
  7895160
 43
1.0
 76
     1
 77
     6
 78
     2
 67
     7
 79
     5
170
     0
171
     0
290
     0
174
     0
 93
       13
 44
0.0
173
     0
291
     0
 45
0.0
1001
ACAD
1000
AcDbSavedByObjectVersion
1070
     0
  0
VISUALSTYLE
  5
37
102
{ACAD_REACTORS
330
2A
102
}
330
2A
100
AcDbVisualStyle
  2
Thicken
 70
    13
 71
     2
 72
     2
 73
     0
 90
        0
 40
-0.6
 41
-30.0
 62
     5
 63
     7
421
 16777215
 74
     1
 91
        4
 64
     7
 65
   257
 75
     1
175
     1
 42
1.0
 92
       12
 66
     7
 43
1.0
 76
     1
 77
     6
 78
     2
 67
     7
 79
     5
170
     0
171
     0
290
     0
174
     0
 93
        1
 44
0.0
173
     0
291
     1
 45
0.0
1001
ACAD
1000
AcDbSavedByObjectVersion
1070
     0
  0
ENDSEC
  0
EOF
